  0
SECTION
  2
HEADER
  9
$ACADVER
  1
AC1009
  9
$INSBASE
 10
0.0
 20
0.0
 30
0.0
  9
$EXTMIN
 10
-340.98758895569841
 20
826.79541043514143
 30
0.0
  9
$EXTMAX
 10
-330.70946332940321
 20
843.76272988296921
 30
0.0
  9
$LIMMIN
 10
0.0
 20
0.0
  9
$LIMMAX
 10
1500.0
 20
1500.0
  9
$ORTHOMODE
 70
     1
  9
$REGENMODE
 70
     1
  9
$FILLMODE
 70
     1
  9
$QTEXTMODE
 70
     0
  9
$MIRRTEXT
 70
     1
  9
$DRAGMODE
 70
     2
  9
$LTSCALE
 40
1.0
  9
$OSMODE
 70
    63
  9
$ATTMODE
 70
     1
  9
$TEXTSIZE
 40
1.5
  9
$TRACEWID
 40
0.05
  9
$TEXTSTYLE
  7
STANDARD
  9
$CLAYER
  8
0
  9
$CELTYPE
  6
BYLAYER
  9
$CECOLOR
 62
   256
  9
$DIMSCALE
 40
1.0
  9
$DIMASZ
 40
0.75
  9
$DIMEXO
 40
1.5
  9
$DIMDLI
 40
2.0
  9
$DIMRND
 40
0.0
  9
$DIMDLE
 40
0.0
  9
$DIMEXE
 40
1.0
  9
$DIMTP
 40
0.0
  9
$DIMTM
 40
0.0
  9
$DIMTXT
 40
1.5
  9
$DIMCEN
 40
2.0
  9
$DIMTSZ
 40
0.0
  9
$DIMTOL
 70
     0
  9
$DIMLIM
 70
     0
  9
$DIMTIH
 70
     0
  9
$DIMTOH
 70
     0
  9
$DIMSE1
 70
     0
  9
$DIMSE2
 70
     0
  9
$DIMTAD
 70
     1
  9
$DIMZIN
 70
     0
  9
$DIMBLK
  1
ARCHTICK
  9
$DIMASO
 70
     1
  9
$DIMSHO
 70
     1
  9
$DIMPOST
  1
"
  9
$DIMAPOST
  1

  9
$DIMALT
 70
     0
  9
$DIMALTD
 70
     2
  9
$DIMALTF
 40
25.399999999999999
  9
$DIMLFAC
 40
1.0
  9
$DIMTOFL
 70
     0
  9
$DIMTVP
 40
0.0
  9
$DIMTIX
 70
     1
  9
$DIMSOXD
 70
     0
  9
$DIMSAH
 70
     0
  9
$DIMBLK1
  1

  9
$DIMBLK2
  1

  9
$DIMSTYLE
  2
THREE_QUARTER_INCH_SCALE
  9
$DIMCLRD
 70
     0
  9
$DIMCLRE
 70
     0
  9
$DIMCLRT
 70
     0
  9
$DIMTFAC
 40
1.0
  9
$DIMGAP
 40
1.0
  9
$LUNITS
 70
     2
  9
$LUPREC
 70
     4
  9
$SKETCHINC
 40
0.1
  9
$FILLETRAD
 40
0.0
  9
$AUNITS
 70
     0
  9
$AUPREC
 70
     0
  9
$MENU
  1
.
  9
$ELEVATION
 40
0.0
  9
$PELEVATION
 40
0.0
  9
$THICKNESS
 40
0.0
  9
$LIMCHECK
 70
     0
  9
$BLIPMODE
 70
     0
  9
$CHAMFERA
 40
0.5
  9
$CHAMFERB
 40
0.5
  9
$SKPOLY
 70
     0
  9
$TDCREATE
 40
2452089.395738773
  9
$TDUPDATE
 40
2453986.7044286458
  9
$TDINDWG
 40
0.9964623958
  9
$TDUSRTIMER
 40
0.9964623958
  9
$USRTIMER
 70
     1
  9
$ANGBASE
 50
0.0
  9
$ANGDIR
 70
     0
  9
$PDMODE
 70
     0
  9
$PDSIZE
 40
10.0
  9
$PLINEWID
 40
0.0
  9
$COORDS
 70
     0
  9
$SPLFRAME
 70
     0
  9
$SPLINETYPE
 70
     6
  9
$SPLINESEGS
 70
     8
  9
$ATTDIA
 70
     0
  9
$ATTREQ
 70
     1
  9
$HANDLING
 70
     1
  9
$HANDSEED
  5
D021
  9
$SURFTAB1
 70
     6
  9
$SURFTAB2
 70
     6
  9
$SURFTYPE
 70
     6
  9
$SURFU
 70
     6
  9
$SURFV
 70
     6
  9
$UCSNAME
  2

  9
$UCSORG
 10
0.0
 20
0.0
 30
0.0
  9
$UCSXDIR
 10
1.0
 20
0.0
 30
0.0
  9
$UCSYDIR
 10
0.0
 20
1.0
 30
0.0
  9
$PUCSNAME
  2

  9
$PUCSORG
 10
0.0
 20
0.0
 30
0.0
  9
$PUCSXDIR
 10
1.0
 20
0.0
 30
0.0
  9
$PUCSYDIR
 10
0.0
 20
1.0
 30
0.0
  9
$USERI1
 70
     0
  9
$USERI2
 70
     0
  9
$USERI3
 70
     0
  9
$USERI4
 70
     0
  9
$USERI5
 70
     0
  9
$USERR1
 40
0.0
  9
$USERR2
 40
0.0
  9
$USERR3
 40
0.0
  9
$USERR4
 40
0.0
  9
$USERR5
 40
0.0
  9
$WORLDVIEW
 70
     1
  9
$SHADEDGE
 70
     3
  9
$SHADEDIF
 70
    70
  9
$TILEMODE
 70
     0
  9
$MAXACTVP
 70
    64
  9
$PLIMCHECK
 70
     0
  9
$PEXTMIN
 10
0.0287712300219028
 20
0.0759839241634737
 30
0.0
  9
$PEXTMAX
 10
10.47122802895248
 20
7.957364437363462
 30
0.0
  9
$PLIMMIN
 10
-0.2500002402958907
 20
-0.2499999962453767
  9
$PLIMMAX
 10
10.74999951940821
 20
8.2499997634587316
  9
$UNITMODE
 70
     0
  9
$VISRETAIN
 70
     1
  9
$PLINEGEN
 70
     0
  9
$PSLTSCALE
 70
     1
  0
ENDSEC
  0
SECTION
  2
TABLES
  0
TABLE
  2
VPORT
 70
     7
  0
VPORT
  2
*ACTIVE
 70
     0
 10
0.0
 20
0.0
 11
1.0
 21
1.0
 12
-334.07507875006507
 22
827.05542899418856
 13
0.0
 23
0.0
 14
0.5
 24
0.5
 15
0.5
 25
0.5
 16
0.0
 26
0.0
 36
1.0
 17
0.0
 27
0.0
 37
0.0
 40
8.9973891749107224
 41
1.511742892459826
 42
50.0
 43
0.0
 44
0.0
 50
0.0
 51
0.0
 71
     0
 72
   100
 73
     1
 74
     2
 75
     0
 76
     0
 77
     0
 78
     0
  0
ENDTAB
  0
TABLE
  2
LTYPE
 70
     1
  0
LTYPE
  2
CONTINUOUS
 70
     0
  3
Solid line
 72
    65
 73
     0
 40
0.0
  0
ENDTAB
  0
TABLE
  2
LAYER
 70
    10
  0
LAYER
  2
0
 70
     0
 62
     7
  6
CONTINUOUS
  0
LAYER
  2
DEFPOINTS
 70
     0
 62
     7
  6
CONTINUOUS
  0
LAYER
  2
FRAME_200
 70
     0
 62
     8
  6
CONTINUOUS
  0
LAYER
  2
FRAME_070
 70
     0
 62
     5
  6
CONTINUOUS
  0
LAYER
  2
FRAME_050
 70
     0
 62
     6
  6
CONTINUOUS
  0
LAYER
  2
TITLE_BLOCK
 70
     0
 62
     7
  6
CONTINUOUS
  0
LAYER
  2
FRAME_025
 70
     0
 62
     7
  6
CONTINUOUS
  0
LAYER
  2
VIEWPORT
 70
     0
 62
     7
  6
CONTINUOUS
  0
LAYER
  2
PROF
 70
     0
 62
     7
  6
CONTINUOUS
  0
LAYER
  2
PROFILE
 70
     0
 62
     7
  6
CONTINUOUS
  0
ENDTAB
  0
TABLE
  2
STYLE
 70
     2
  0
STYLE
  2
STANDARD
 70
     0
 40
0.0
 41
1.0
 50
0.0
 71
     0
 42
1.5
  3
txt
  4

  0
STYLE
  2
ISO_PROPORTIONAL
 70
     0
 40
0.0
 41
1.0
 50
0.0
 71
     0
 42
2.5
  3
isocp.shx
  4

  0
ENDTAB
  0
TABLE
  2
VIEW
 70
     2
  0
ENDTAB
  0
TABLE
  2
UCS
 70
     0
  0
ENDTAB
  0
TABLE
  2
APPID
 70
     6
  0
APPID
  2
ACAD
 70
     0
  0
APPID
  2
DCO15
 70
     0
  0
APPID
  2
ACAD_EXEMPT_FROM_CAD_STANDARDS
 70
     0
  0
APPID
  2
ACAD_PSEXT
 70
     0
  0
APPID
  2
CONTENTBLOCKDESCRIPTION
 70
     0
  0
APPID
  2
CONTENTBLOCKICON
 70
     0
  0
ENDTAB
  0
TABLE
  2
DIMSTYLE
 70
     5
  0
DIMSTYLE
  2
FULL_SCALE
 70
     0
  3
"
  4

  5
ARCHTICK
  6

  7

 40
1.0
 41
0.046875
 42
0.09375
 43
0.125
 44
0.0625
 45
0.0
 46
0.0
 47
0.0
 48
0.0
140
0.125
141
0.125
142
0.0
143
25.399999999999999
144
1.0
145
0.0
146
1.0
147
0.0625
 71
     0
 72
     0
 73
     0
 74
     0
 75
     0
 76
     0
 77
     1
 78
     0
170
     0
171
     2
172
     0
173
     0
174
     1
175
     0
176
     0
177
     0
178
     0
  0
DIMSTYLE
  2
HALF_SCALE
 70
     0
  3
"
  4

  5
ARCHTICK
  6

  7

 40
1.0
 41
0.09375
 42
0.1875
 43
0.25
 44
0.125
 45
0.0
 46
0.0
 47
0.0
 48
0.0
140
0.25
141
0.25
142
0.0
143
25.399999999999999
144
1.0
145
0.0
146
1.0
147
0.125
 71
     0
 72
     0
 73
     0
 74
     0
 75
     0
 76
     0
 77
     1
 78
     0
170
     0
171
     2
172
     0
173
     0
174
     1
175
     0
176
     0
177
     0
178
     0
  0
DIMSTYLE
  2
INCH_SCALE
 70
     0
  3
"
  4

  5
ARCHTICK
  6

  7

 40
1.0
 41
0.5625
 42
1.125
 43
1.5
 44
0.75
 45
0.0
 46
0.0
 47
0.0
 48
0.0
140
1.125
141
1.5
142
0.0
143
25.399999999999999
144
1.0
145
0.0
146
1.0
147
0.75
 71
     0
 72
     0
 73
     0
 74
     0
 75
     0
 76
     0
 77
     1
 78
     0
170
     0
171
     2
172
     0
173
     0
174
     1
175
     0
176
     0
177
     0
178
     0
  0
DIMSTYLE
  2
THREE_QUARTER_INCH_SCALE
 70
     0
  3
"
  4

  5
ARCHTICK
  6

  7

 40
1.0
 41
0.75
 42
1.5
 43
2.0
 44
1.0
 45
0.0
 46
0.0
 47
0.0
 48
0.0
140
1.5
141
2.0
142
0.0
143
25.399999999999999
144
1.0
145
0.0
146
1.0
147
1.0
 71
     0
 72
     0
 73
     0
 74
     0
 75
     0
 76
     0
 77
     1
 78
     0
170
     0
171
     2
172
     0
173
     0
174
     1
175
     0
176
     0
177
     0
178
     0
  0
DIMSTYLE
  2
ZHALF_INCH_SCALE
 70
     0
  3
"
  4

  5
ARCHTICK
  6

  7

 40
1.0
 41
1.125
 42
2.25
 43
3.0
 44
1.5
 45
0.0
 46
0.0
 47
0.0
 48
0.0
140
2.25
141
3.0
142
0.0
143
25.399999999999999
144
1.0
145
0.0
146
1.0
147
1.5
 71
     0
 72
     0
 73
     0
 74
     0
 75
     0
 76
     0
 77
     1
 78
     0
170
     0
171
     2
172
     0
173
     0
174
     1
175
     0
176
     0
177
     0
178
     0
  0
ENDTAB
  0
ENDSEC
  0
SECTION
  2
BLOCKS
  0
BLOCK
  8
0
  2
$MODEL_SPACE
 70
     0
 10
0.0
 20
0.0
 30
0.0
  3
$MODEL_SPACE
  1

  0
ENDBLK
  5
21
  8
0
  0
BLOCK
 67
     1
  8
0
  2
$PAPER_SPACE
 70
     0
 10
0.0
 20
0.0
 30
0.0
  3
$PAPER_SPACE
  1

  0
ENDBLK
  5
BAD5
 67
     1
  8
0
  0
BLOCK
  8
0
  2
_ARCHTICK
 70
     0
 10
0.0
 20
0.0
 30
0.0
  3
_ARCHTICK
  1

  0
POLYLINE
  5
158
  8
0
  6
BYBLOCK
 62
     0
 66
     1
 10
0.0
 20
0.0
 30
0.0
 40
0.15
 41
0.15
  0
VERTEX
  5
CE73
  8
0
  6
BYBLOCK
 62
     0
 10
-0.5
 20
-0.5
 30
0.0
  0
VERTEX
  5
CE74
  8
0
  6
BYBLOCK
 62
     0
 10
0.5
 20
0.5
 30
0.0
  0
SEQEND
  5
CE75
  8
0
  6
BYBLOCK
 62
     0
  0
ENDBLK
  5
15A
  8
0
  0
BLOCK
  8
0
  2
_OPEN30
 70
     0
 10
0.0
 20
0.0
 30
0.0
  3
_OPEN30
  1

  0
LINE
  5
15C
  8
0
  6
BYBLOCK
 62
     0
 10
-1.0
 20
0.26794919
 30
0.0
 11
0.0
 21
0.0
 31
0.0
  0
LINE
  5
15D
  8
0
  6
BYBLOCK
 62
     0
 10
0.0
 20
0.0
 30
0.0
 11
-1.0
 21
-0.26794919
 31
0.0
  0
LINE
  5
15E
  8
0
  6
BYBLOCK
 62
     0
 10
0.0
 20
0.0
 30
0.0
 11
-1.0
 21
0.0
 31
0.0
  0
ENDBLK
  5
160
  8
0
  0
BLOCK
  8
0
  2
ISO_A2_TITLE_BLOCK
 70
     2
 10
0.0
 20
0.0
 30
0.0
  3
ISO_A2_TITLE_BLOCK
  1

  0
LINE
  5
BDD
  8
FRAME_050
 10
299.5
 20
12.5
 30
0.0
 11
297.0
 21
7.5
 31
0.0
  0
LINE
  5
BDE
  8
FRAME_050
 10
294.5
 20
12.5
 30
0.0
 11
299.5
 21
12.5
 31
0.0
  0
LINE
  5
BDF
  8
FRAME_050
 10
247.0
 20
5.0
 30
0.0
 11
347.0
 21
5.0
 31
0.0
  0
LINE
  5
BE0
  8
FRAME_070
 10
584.0
 20
410.0
 30
0.0
 11
10.0
 21
410.0
 31
0.0
  0
LINE
  5
BE1
  8
FRAME_070
 10
10.0
 20
10.0
 30
0.0
 11
584.0
 21
10.0
 31
0.0
  0
LINE
  5
BE2
  8
FRAME_050
 10
12.5
 20
207.5
 30
0.0
 11
7.5
 21
210.0
 31
0.0
  0
LINE
  5
BE3
  8
FRAME_050
 10
12.5
 20
212.5
 30
0.0
 11
12.5
 21
207.5
 31
0.0
  0
LINE
  5
BE4
  8
FRAME_070
 10
10.0
 20
410.0
 30
0.0
 11
10.0
 21
10.0
 31
0.0
  0
LINE
  5
BE5
  8
FRAME_200
 10
0.0
 20
0.0
 30
0.0
 11
0.0
 21
10.0
 31
0.0
  0
LINE
  5
BE6
  8
FRAME_200
 10
0.0
 20
0.0
 30
0.0
 11
10.0
 21
0.0
 31
0.0
  0
TEXT
  5
BE7
  8
FRAME_050
 10
5.9000000000000004
 20
35.0
 30
0.0
 40
4.0
  1
H
  7
ISO_PROPORTIONAL
 72
     4
 11
7.5
 21
37.0
 31
0.0
  0
LINE
  5
BE8
  8
FRAME_050
 10
10.0
 20
60.0
 30
0.0
 11
5.0
 21
60.0
 31
0.0
  0
LINE
  5
BE9
  8
FRAME_050
 10
81.75
 20
5.0
 30
0.0
 11
81.75
 21
10.0
 31
0.0
  0
TEXT
  5
BEA
  8
FRAME_050
 10
44.874999999999993
 20
5.5
 30
0.0
 40
4.0
  1
1
  7
ISO_PROPORTIONAL
 72
     4
 11
45.875
 21
7.5
 31
0.0
  0
TEXT
  5
BEB
  8
FRAME_050
 10
6.0035533905932743
 20
85.0
 30
0.0
 40
4.0
  1
G
  7
ISO_PROPORTIONAL
 72
     4
 11
7.5
 21
87.0
 31
0.0
  0
LINE
  5
BEC
  8
FRAME_050
 10
10.0
 20
110.0
 30
0.0
 11
5.0
 21
110.0
 31
0.0
  0
TEXT
  5
BED
  8
FRAME_050
 10
6.0999999999999988
 20
135.0
 30
0.0
 40
4.0
  1
F
  7
ISO_PROPORTIONAL
 72
     4
 11
7.5
 21
137.0
 31
0.0
  0
LINE
  5
BEE
  8
FRAME_050
 10
10.0
 20
160.0
 30
0.0
 11
5.0
 21
160.0
 31
0.0
  0
TEXT
  5
BEF
  8
FRAME_050
 10
6.0999999999999988
 20
185.0
 30
0.0
 40
4.0
  1
E
  7
ISO_PROPORTIONAL
 72
     4
 11
7.5
 21
187.0
 31
0.0
  0
LINE
  5
BF0
  8
FRAME_050
 10
153.5
 20
5.0
 30
0.0
 11
153.5
 21
10.0
 31
0.0
  0
TEXT
  5
BF1
  8
FRAME_050
 10
116.1556692913386
 20
5.3996062992125982
 30
0.0
 40
4.0
  1
2
  7
ISO_PROPORTIONAL
 72
     4
 11
117.625
 21
7.5
 31
0.0
  0
TEXT
  5
BF2
  8
FRAME_050
 10
187.89215728752529
 20
5.5828427124746138
 30
0.0
 40
4.0
  1
3
  7
ISO_PROPORTIONAL
 72
     4
 11
189.375
 21
7.5
 31
0.0
  0
LINE
  5
BF3
  8
FRAME_050
 10
225.25
 20
5.0
 30
0.0
 11
225.25
 21
10.0
 31
0.0
  0
LINE
  5
BF4
  8
FRAME_050
 10
297.0
 20
7.5
 30
0.0
 11
294.5
 21
12.5
 31
0.0
  0
LINE
  5
BF5
  8
FRAME_050
 10
287.0
 20
5.0
 30
0.0
 11
287.0
 21
10.0
 31
0.0
  0
LINE
  5
BF6
  8
FRAME_050
 10
277.0
 20
5.0
 30
0.0
 11
277.0
 21
10.0
 31
0.0
  0
LINE
  5
BF7
  8
FRAME_050
 10
267.0
 20
5.0
 30
0.0
 11
267.0
 21
10.0
 31
0.0
  0
LINE
  5
BF8
  8
FRAME_050
 10
257.0
 20
5.0
 30
0.0
 11
257.0
 21
10.0
 31
0.0
  0
LINE
  5
BF9
  8
FRAME_050
 10
247.0
 20
5.0
 30
0.0
 11
247.0
 21
10.0
 31
0.0
  0
LINE
  5
BFA
  8
FRAME_050
 10
297.0
 20
10.0
 30
0.0
 11
297.0
 21
5.0
 31
0.0
  0
LINE
  5
BFB
  8
FRAME_050
 10
297.0
 20
10.0
 30
0.0
 11
297.0
 21
15.0
 31
0.0
  0
LINE
  5
BFC
  8
FRAME_050
 10
5.0
 20
210.0
 30
0.0
 11
15.0
 21
210.0
 31
0.0
  0
LINE
  5
BFD
  8
FRAME_050
 10
7.5
 20
210.0
 30
0.0
 11
12.5
 21
212.5
 31
0.0
  0
TEXT
  5
BFE
  8
FRAME_050
 10
5.7860912703473977
 20
235.0
 30
0.0
 40
4.0
  1
D
  7
ISO_PROPORTIONAL
 72
     4
 11
7.5
 21
237.0
 31
0.0
  0
LINE
  5
BFF
  8
FRAME_050
 10
10.0
 20
260.0
 30
0.0
 11
5.0
 21
260.0
 31
0.0
  0
TEXT
  5
C00
  8
FRAME_050
 10
6.1931980515339466
 20
285.0
 30
0.0
 40
4.0
  1
C
  7
ISO_PROPORTIONAL
 72
     4
 11
7.5
 21
287.0
 31
0.0
  0
LINE
  5
C01
  8
FRAME_050
 10
10.0
 20
310.0
 30
0.0
 11
5.0
 21
310.0
 31
0.0
  0
TEXT
  5
C02
  8
FRAME_050
 10
5.8999999999999959
 20
335.0
 30
0.0
 40
4.0
  1
B
  7
ISO_PROPORTIONAL
 72
     4
 11
7.5
 21
337.0
 31
0.0
  0
LINE
  5
C03
  8
FRAME_050
 10
10.0
 20
360.0
 30
0.0
 11
5.0
 21
360.0
 31
0.0
  0
TEXT
  5
C04
  8
FRAME_050
 10
5.6999999999999993
 20
385.0
 30
0.0
 40
4.0
  1
A
  7
ISO_PROPORTIONAL
 72
     4
 11
7.5
 21
387.0
 31
0.0
  0
LINE
  5
C05
  8
FRAME_200
 10
10.0
 20
420.0
 30
0.0
 11
0.0
 21
420.0
 31
0.0
  0
LINE
  5
C06
  8
FRAME_200
 10
0.0
 20
420.0
 30
0.0
 11
0.0
 21
410.0
 31
0.0
  0
TEXT
  5
C07
  8
FRAME_050
 10
44.874999999999993
 20
410.5
 30
0.0
 40
4.0
  1
1
  7
ISO_PROPORTIONAL
 72
     4
 11
45.875
 21
412.5
 31
0.0
  0
LINE
  5
C08
  8
FRAME_050
 10
81.75
 20
410.0
 30
0.0
 11
81.75
 21
415.0
 31
0.0
  0
TEXT
  5
C09
  8
FRAME_050
 10
116.1556692913386
 20
410.39960629921262
 30
0.0
 40
4.0
  1
2
  7
ISO_PROPORTIONAL
 72
     4
 11
117.625
 21
412.5
 31
0.0
  0
LINE
  5
C0A
  8
FRAME_050
 10
153.5
 20
410.0
 30
0.0
 11
153.5
 21
415.0
 31
0.0
  0
TEXT
  5
C0B
  8
FRAME_050
 10
187.89215728752529
 20
410.58284271247459
 30
0.0
 40
4.0
  1
3
  7
ISO_PROPORTIONAL
 72
     4
 11
189.375
 21
412.5
 31
0.0
  0
LINE
  5
C0C
  8
FRAME_050
 10
297.0
 20
405.0
 30
0.0
 11
297.0
 21
415.0
 31
0.0
  0
LINE
  5
C0D
  8
FRAME_050
 10
225.25
 20
410.0
 30
0.0
 11
225.25
 21
415.0
 31
0.0
  0
TEXT
  5
C0E
  8
FRAME_050
 10
259.52499999999998
 20
410.5
 30
0.0
 40
4.0
  1
4
  7
ISO_PROPORTIONAL
 72
     4
 11
261.125
 21
412.5
 31
0.0
  0
LINE
  5
C0F
  8
FRAME_070
 10
584.0
 20
10.0
 30
0.0
 11
584.0
 21
410.0
 31
0.0
  0
ATTDEF
  5
C10
  8
FRAME_025
 10
473.0
 20
31.75
 30
0.0
 40
2.5
  1
XXX - 00/00/00
  7
ISO_PROPORTIONAL
 11
473.0
 21
33.0
 31
0.0
  3
Approved by - Date
  2
APPROVED_BY_DATE
 70
     8
 74
     2
  0
TEXT
  5
C11
  8
FRAME_025
 10
448.0
 20
41.749999999999993
 30
0.0
 40
2.5
  1
Title/Name, designation, material, dimension etc
  7
ISO_PROPORTIONAL
 11
448.0
 21
43.0
 31
0.0
 73
     2
  0
TEXT
  5
C12
  8
FRAME_025
 10
473.0
 20
35.75
 30
0.0
 40
2.5
  1
Approved by - date
  7
ISO_PROPORTIONAL
 11
473.0
 21
37.0
 31
0.0
 73
     2
  0
LINE
  5
C13
  8
FRAME_070
 10
414.0
 20
46.0
 30
0.0
 11
584.0
 21
46.0
 31
0.0
  0
LINE
  5
C14
  8
FRAME_070
 10
414.0
 20
40.0
 30
0.0
 11
584.0
 21
40.0
 31
0.0
  0
LINE
  5
C15
  8
FRAME_070
 10
414.0
 20
30.0
 30
0.0
 11
584.0
 21
30.0
 31
0.0
  0
LINE
  5
C16
  8
FRAME_050
 10
368.75
 20
5.0
 30
0.0
 11
368.75
 21
10.0
 31
0.0
  0
LINE
  5
C17
  8
FRAME_050
 10
337.0
 20
5.0
 30
0.0
 11
337.0
 21
10.0
 31
0.0
  0
LINE
  5
C18
  8
FRAME_050
 10
327.0
 20
5.0
 30
0.0
 11
327.0
 21
10.0
 31
0.0
  0
LINE
  5
C19
  8
FRAME_050
 10
317.0
 20
5.0
 30
0.0
 11
317.0
 21
10.0
 31
0.0
  0
LINE
  5
C1A
  8
FRAME_050
 10
307.0
 20
5.0
 30
0.0
 11
307.0
 21
10.0
 31
0.0
  0
LINE
  5
C1B
  8
FRAME_050
 10
347.0
 20
5.0
 30
0.0
 11
347.0
 21
10.0
 31
0.0
  0
LINE
  5
C1C
  8
FRAME_050
 10
440.5
 20
5.0
 30
0.0
 11
440.5
 21
10.0
 31
0.0
  0
TEXT
  5
C1D
  8
FRAME_050
 10
403.24547244094481
 20
5.4102362204724406
 30
0.0
 40
4.0
  1
6
  7
ISO_PROPORTIONAL
 72
     4
 11
404.62499999999989
 21
7.5
 31
0.0
  0
TEXT
  5
C1E
  8
FRAME_050
 10
474.97500000000002
 20
5.5
 30
0.0
 40
4.0
  1
7
  7
ISO_PROPORTIONAL
 72
     4
 11
476.37499999999989
 21
7.5
 31
0.0
  0
TEXT
  5
C1F
  8
FRAME_025
 10
431.0
 20
41.749999999999993
 30
0.0
 40
2.5
  1
Quantity
  7
ISO_PROPORTIONAL
 11
431.0
 21
43.0
 31
0.0
 73
     2
  0
TEXT
  5
C20
  8
FRAME_025
 10
416.0
 20
41.749999999999993
 30
0.0
 40
2.5
  1
Itemref
  7
ISO_PROPORTIONAL
 11
416.0
 21
43.0
 31
0.0
 73
     2
  0
LINE
  5
C21
  8
FRAME_070
 10
414.0
 20
40.0
 30
0.0
 11
414.0
 21
46.0
 31
0.0
  0
LINE
  5
C22
  8
FRAME_070
 10
429.0
 20
40.0
 30
0.0
 11
429.0
 21
46.0
 31
0.0
  0
LINE
  5
C23
  8
FRAME_070
 10
414.0
 20
10.0
 30
0.0
 11
414.0
 21
40.0
 31
0.0
  0
ATTDEF
  5
C24
  8
FRAME_025
 10
416.0
 20
31.75
 30
0.0
 40
2.5
  1
XXX
  7
ISO_PROPORTIONAL
 11
416.0
 21
33.0
 31
0.0
  3
Designed by
  2
DESIGNED_BY
 70
     8
 74
     2
  0
TEXT
  5
C25
  8
FRAME_025
 10
416.0
 20
35.75
 30
0.0
 40
2.5
  1
Designed by
  7
ISO_PROPORTIONAL
 11
416.0
 21
37.0
 31
0.0
 73
     2
  0
LINE
  5
C26
  8
FRAME_070
 10
446.0
 20
40.0
 30
0.0
 11
446.0
 21
46.0
 31
0.0
  0
ATTDEF
  5
C27
  8
FRAME_025
 10
448.0
 20
31.75
 30
0.0
 40
2.5
  1
XXX
  7
ISO_PROPORTIONAL
 11
448.0
 21
33.0
 31
0.0
  3
Checked by
  2
CHECKED_BY
 70
     8
 74
     2
  0
TEXT
  5
C28
  8
FRAME_025
 10
448.0
 20
35.75
 30
0.0
 40
2.5
  1
Checked by
  7
ISO_PROPORTIONAL
 11
448.0
 21
37.0
 31
0.0
 73
     2
  0
ATTDEF
  5
C29
  8
FRAME_050
 10
444.74999999999989
 20
17.5
 30
0.0
 40
5.0
  1
XXX
  7
ISO_PROPORTIONAL
 72
     4
 11
451.49999999999989
 21
20.0
 31
0.0
  3
Owner
  2
OWNER
 70
     8
  0
LINE
  5
C2A
  8
FRAME_070
 10
446.0
 20
30.0
 30
0.0
 11
446.0
 21
40.0
 31
0.0
  0
LINE
  5
C2B
  8
FRAME_070
 10
471.0
 20
30.0
 30
0.0
 11
471.0
 21
40.0
 31
0.0
  0
LINE
  5
C2C
  8
FRAME_070
 10
489.0
 20
20.0
 30
0.0
 11
584.0
 21
20.0
 31
0.0
  0
LINE
  5
C2D
  8
FRAME_050
 10
512.25
 20
5.0
 30
0.0
 11
512.25
 21
10.0
 31
0.0
  0
TEXT
  5
C2E
  8
FRAME_050
 10
546.72499999999991
 20
5.5
 30
0.0
 40
4.0
  1
8
  7
ISO_PROPORTIONAL
 72
     4
 11
548.125
 21
7.5
 31
0.0
  0
ATTDEF
  5
C2F
  8
FRAME_050
 10
517.64999999999986
 20
13.5
 30
0.0
 40
3.0
  1
X
  7
ISO_PROPORTIONAL
 72
     4
 11
519.0
 21
15.0
 31
0.0
  3
Drawing number
  2
DRAWING_NUMBER
 70
     8
  0
ATTDEF
  5
C30
  8
FRAME_050
 10
529.75
 20
22.5
 30
0.0
 40
5.0
  1
XXX
  7
ISO_PROPORTIONAL
 72
     4
 11
536.5
 21
25.0
 31
0.0
  3
Title / Name
  2
TITLE
 70
     8
  0
LINE
  5
C31
  8
FRAME_070
 10
489.0
 20
10.0
 30
0.0
 11
489.0
 21
30.0
 31
0.0
  0
ATTDEF
  5
C32
  8
FRAME_025
 10
511.0
 20
31.75
 30
0.0
 40
2.5
  1
XXX
  7
ISO_PROPORTIONAL
 11
511.0
 21
33.0
 31
0.0
  3
Filename
  2
FILENAME
 70
     8
 74
     2
  0
TEXT
  5
C33
  8
FRAME_025
 10
511.0
 20
35.75
 30
0.0
 40
2.5
  1
Filename
  7
ISO_PROPORTIONAL
 11
511.0
 21
37.0
 31
0.0
 73
     2
  0
LINE
  5
C34
  8
FRAME_070
 10
509.0
 20
30.0
 30
0.0
 11
509.0
 21
40.0
 31
0.0
  0
TEXT
  5
C35
  8
FRAME_025
 10
536.0
 20
41.749999999999993
 30
0.0
 40
2.5
  1
Article No./Reference
  7
ISO_PROPORTIONAL
 11
536.0
 21
43.0
 31
0.0
 73
     2
  0
LINE
  5
C36
  8
FRAME_070
 10
534.0
 20
40.0
 30
0.0
 11
534.0
 21
46.0
 31
0.0
  0
ATTDEF
  5
C37
  8
FRAME_025
 10
551.0
 20
11.75
 30
0.0
 40
2.5
  1
0
  7
ISO_PROPORTIONAL
 11
551.0
 21
13.0
 31
0.0
  3
Edition
  2
EDITION
 70
     8
 74
     2
  0
TEXT
  5
C38
  8
FRAME_025
 10
551.0
 20
15.75
 30
0.0
 40
2.5
  1
Edition
  7
ISO_PROPORTIONAL
 11
551.0
 21
17.0
 31
0.0
 73
     2
  0
LINE
  5
C39
  8
FRAME_070
 10
549.0
 20
10.0
 30
0.0
 11
549.0
 21
20.0
 31
0.0
  0
ATTDEF
  5
C3A
  8
FRAME_025
 10
536.0
 20
31.75
 30
0.0
 40
2.5
  1
00/00/00
  7
ISO_PROPORTIONAL
 11
536.0
 21
33.0
 31
0.0
  3
Date
  2
DATE
 70
     8
 74
     2
  0
TEXT
  5
C3B
  8
FRAME_025
 10
536.0
 20
35.75
 30
0.0
 40
2.5
  1
Date
  7
ISO_PROPORTIONAL
 11
536.0
 21
37.0
 31
0.0
 73
     2
  0
LINE
  5
C3C
  8
FRAME_070
 10
534.0
 20
30.0
 30
0.0
 11
534.0
 21
40.0
 31
0.0
  0
ATTDEF
  5
C3D
  8
FRAME_025
 10
566.0
 20
11.75
 30
0.0
 40
2.5
  1
1/1
  7
ISO_PROPORTIONAL
 11
566.0
 21
13.0
 31
0.0
  3
Sheet
  2
SHEET
 70
     8
 74
     2
  0
TEXT
  5
C3E
  8
FRAME_025
 10
566.0
 20
15.75
 30
0.0
 40
2.5
  1
Sheet
  7
ISO_PROPORTIONAL
 11
566.0
 21
17.0
 31
0.0
 73
     2
  0
LINE
  5
C3F
  8
FRAME_070
 10
564.0
 20
10.0
 30
0.0
 11
564.0
 21
20.0
 31
0.0
  0
ATTDEF
  5
C40
  8
FRAME_025
 10
566.0
 20
31.75
 30
0.0
 40
2.5
  1
1:1
  7
ISO_PROPORTIONAL
 11
566.0
 21
33.0
 31
0.0
  3
Scale
  2
SCALE
 70
     8
 74
     2
  0
TEXT
  5
C41
  8
FRAME_025
 10
566.0
 20
35.75
 30
0.0
 40
2.5
  1
Scale
  7
ISO_PROPORTIONAL
 11
566.0
 21
37.0
 31
0.0
 73
     2
  0
LINE
  5
C42
  8
FRAME_070
 10
564.0
 20
30.0
 30
0.0
 11
564.0
 21
40.0
 31
0.0
  0
LINE
  5
C43
  8
FRAME_200
 10
594.0
 20
0.0
 30
0.0
 11
594.0
 21
10.0
 31
0.0
  0
LINE
  5
C44
  8
FRAME_200
 10
594.0
 20
0.0
 30
0.0
 11
584.0
 21
0.0
 31
0.0
  0
TEXT
  5
C45
  8
FRAME_050
 10
584.89999999999998
 20
35.0
 30
0.0
 40
4.0
  1
H
  7
ISO_PROPORTIONAL
 72
     4
 11
586.5
 21
37.0
 31
0.0
  0
LINE
  5
C46
  8
FRAME_050
 10
589.0
 20
60.0
 30
0.0
 11
584.0
 21
60.0
 31
0.0
  0
TEXT
  5
C47
  8
FRAME_050
 10
585.0035533905932
 20
85.0
 30
0.0
 40
4.0
  1
G
  7
ISO_PROPORTIONAL
 72
     4
 11
586.5
 21
87.0
 31
0.0
  0
LINE
  5
C48
  8
FRAME_050
 10
589.0
 20
110.0
 30
0.0
 11
584.0
 21
110.0
 31
0.0
  0
TEXT
  5
C49
  8
FRAME_050
 10
585.09999999999991
 20
135.0
 30
0.0
 40
4.0
  1
F
  7
ISO_PROPORTIONAL
 72
     4
 11
586.5
 21
137.0
 31
0.0
  0
LINE
  5
C4A
  8
FRAME_050
 10
589.0
 20
160.0
 30
0.0
 11
584.0
 21
160.0
 31
0.0
  0
TEXT
  5
C4B
  8
FRAME_050
 10
585.09999999999991
 20
185.0
 30
0.0
 40
4.0
  1
E
  7
ISO_PROPORTIONAL
 72
     4
 11
586.5
 21
187.0
 31
0.0
  0
LINE
  5
C4C
  8
FRAME_070
 10
414.0
 20
404.0
 30
0.0
 11
584.0
 21
404.0
 31
0.0
  0
TEXT
  5
C4D
  8
FRAME_050
 10
331.39215728752538
 20
410.58284271247459
 30
0.0
 40
4.0
  1
5
  7
ISO_PROPORTIONAL
 72
     4
 11
332.875
 21
412.5
 31
0.0
  0
LINE
  5
C4E
  8
FRAME_050
 10
368.75
 20
410.0
 30
0.0
 11
368.75
 21
415.0
 31
0.0
  0
TEXT
  5
C4F
  8
FRAME_025
 10
428.0
 20
405.75
 30
0.0
 40
2.5
  1
Revision note
  7
ISO_PROPORTIONAL
 11
428.0
 21
407.0
 31
0.0
 73
     2
  0
TEXT
  5
C50
  8
FRAME_025
 10
416.0
 20
405.75
 30
0.0
 40
2.5
  1
RevNo
  7
ISO_PROPORTIONAL
 11
416.0
 21
407.0
 31
0.0
 73
     2
  0
LINE
  5
C51
  8
FRAME_070
 10
426.0
 20
404.0
 30
0.0
 11
426.0
 21
410.0
 31
0.0
  0
LINE
  5
C52
  8
FRAME_070
 10
414.0
 20
404.0
 30
0.0
 11
414.0
 21
410.0
 31
0.0
  0
TEXT
  5
C53
  8
FRAME_050
 10
403.24547244094481
 20
410.41023622047243
 30
0.0
 40
4.0
  1
6
  7
ISO_PROPORTIONAL
 72
     4
 11
404.62499999999989
 21
412.5
 31
0.0
  0
LINE
  5
C54
  8
FRAME_050
 10
440.5
 20
410.0
 30
0.0
 11
440.5
 21
415.0
 31
0.0
  0
TEXT
  5
C55
  8
FRAME_050
 10
474.97500000000002
 20
410.5
 30
0.0
 40
4.0
  1
7
  7
ISO_PROPORTIONAL
 72
     4
 11
476.37499999999989
 21
412.5
 31
0.0
  0
LINE
  5
C56
  8
FRAME_050
 10
579.0
 20
210.0
 30
0.0
 11
589.0
 21
210.0
 31
0.0
  0
TEXT
  5
C57
  8
FRAME_050
 10
584.78609127034736
 20
235.0
 30
0.0
 40
4.0
  1
D
  7
ISO_PROPORTIONAL
 72
     4
 11
586.5
 21
237.0
 31
0.0
  0
LINE
  5
C58
  8
FRAME_050
 10
589.0
 20
260.0
 30
0.0
 11
584.0
 21
260.0
 31
0.0
  0
TEXT
  5
C59
  8
FRAME_050
 10
585.19319805153395
 20
285.0
 30
0.0
 40
4.0
  1
C
  7
ISO_PROPORTIONAL
 72
     4
 11
586.5
 21
287.0
 31
0.0
  0
LINE
  5
C5A
  8
FRAME_050
 10
589.0
 20
310.0
 30
0.0
 11
584.0
 21
310.0
 31
0.0
  0
TEXT
  5
C5B
  8
FRAME_050
 10
584.89999999999998
 20
335.0
 30
0.0
 40
4.0
  1
B
  7
ISO_PROPORTIONAL
 72
     4
 11
586.5
 21
337.0
 31
0.0
  0
TEXT
  5
C5C
  8
FRAME_025
 10
571.08299391850551
 20
405.75
 30
0.0
 40
2.5
  1
Checked
  7
ISO_PROPORTIONAL
 11
571.08299391850551
 21
407.0
 31
0.0
 73
     2
  0
TEXT
  5
C5D
  8
FRAME_025
 10
555.36099797283532
 20
405.75
 30
0.0
 40
2.5
  1
Signature
  7
ISO_PROPORTIONAL
 11
555.36099797283532
 21
407.0
 31
0.0
 73
     2
  0
TEXT
  5
C5E
  8
FRAME_025
 10
537.0
 20
405.75
 30
0.0
 40
2.5
  1
Date
  7
ISO_PROPORTIONAL
 11
537.0
 21
407.0
 31
0.0
 73
     2
  0
LINE
  5
C5F
  8
FRAME_070
 10
570.0
 20
404.0
 30
0.0
 11
570.0
 21
410.0
 31
0.0
  0
LINE
  5
C60
  8
FRAME_070
 10
555.0
 20
404.0
 30
0.0
 11
555.0
 21
410.0
 31
0.0
  0
LINE
  5
C61
  8
FRAME_070
 10
535.0
 20
404.0
 30
0.0
 11
535.0
 21
410.0
 31
0.0
  0
LINE
  5
C62
  8
FRAME_050
 10
512.25
 20
410.0
 30
0.0
 11
512.25
 21
415.0
 31
0.0
  0
TEXT
  5
C63
  8
FRAME_050
 10
546.72499999999991
 20
410.5
 30
0.0
 40
4.0
  1
8
  7
ISO_PROPORTIONAL
 72
     4
 11
548.125
 21
412.5
 31
0.0
  0
LINE
  5
C64
  8
FRAME_050
 10
589.0
 20
360.0
 30
0.0
 11
584.0
 21
360.0
 31
0.0
  0
TEXT
  5
C65
  8
FRAME_050
 10
584.70000000000005
 20
385.0
 30
0.0
 40
4.0
  1
A
  7
ISO_PROPORTIONAL
 72
     4
 11
586.5
 21
387.0
 31
0.0
  0
LINE
  5
C66
  8
FRAME_200
 10
594.0
 20
420.0
 30
0.0
 11
584.0
 21
420.0
 31
0.0
  0
LINE
  5
C67
  8
FRAME_200
 10
594.0
 20
410.0
 30
0.0
 11
594.0
 21
420.0
 31
0.0
  0
ENDBLK
  5
C69
  8
0
  0
BLOCK
  8
0
  2
WOBB001END
 70
     0
 10
0.0
 20
0.0
 30
0.0
  3
WOBB001END
  1

  0
LINE
  5
4D66
  8
0
  6
CONTINUOUS
 10
0.0
 20
0.0
 30
0.0
 11
0.8749999999999998
 21
0.0
 31
0.0
  0
ARC
  5
4D67
  8
0
  6
CONTINUOUS
 10
0.0331648379439287
 20
-0.5087238935900232
 30
0.0
 40
0.8790130605592325
 50
284.06490243660443
 51
312.19222981924361
  0
ARC
  5
4D68
  8
0
  6
CONTINUOUS
 10
0.2841534338796767
 20
-1.510548310625538
 30
0.0
 40
0.1537731892806598
 50
104.0649024366044
 51
179.4721730735024
  0
LINE
  5
4D69
  8
0
  6
CONTINUOUS
 10
0.0
 20
0.0
 30
0.0
 11
-0.0000000000000003
 21
-1.7501564476661919
 31
0.0
  0
ARC
  5
4D6A
  8
0
  6
CONTINUOUS
 10
0.1404622019506122
 20
-1.6303137183546199
 30
0.0
 40
0.1198427293115722
 50
275.0
 51
85.000000000000057
  0
LINE
  5
4D6B
  8
0
  6
CONTINUOUS
 10
-0.0000000000000003
 20
-1.7501564476661919
 30
0.0
 11
0.1456946485130855
 21
-1.7501564476661919
 31
0.0
  0
LINE
  5
4D6C
  8
0
  6
CONTINUOUS
 10
0.1377603739254348
 20
-1.7508506067459131
 30
0.0
 11
0.150907184036669
 21
-1.749700409899652
 31
0.0
  0
LINE
  5
4D6D
  8
0
  6
CONTINUOUS
 10
0.1303867696719884
 20
-1.5091317231818231
 30
0.0
 11
0.1509071840366689
 21
-1.5109270268095869
 31
0.0
  0
LINE
  5
4D6E
  8
0
  6
CONTINUOUS
 10
0.8749999999999998
 20
0.0
 30
0.0
 11
0.8749999999999996
 21
-0.8649327026588228
 31
0.0
  0
LINE
  5
4D6F
  8
0
  6
CONTINUOUS
 10
0.727014513830997
 20
-0.8726882933550612
 30
0.0
 11
0.727014513830997
 21
-0.9264923397184784
 31
0.0
  0
ARC
  5
4D70
  8
0
  6
CONTINUOUS
 10
0.41187090827646
 20
-0.9264923397184784
 30
0.0
 40
0.315143605554537
 50
312.19222981924361
 51
0.0
  0
LINE
  5
4D71
  8
0
  6
CONTINUOUS
 10
0.727014513830997
 20
-0.8726882933550612
 30
0.0
 11
0.8749999999999996
 21
-0.8649327026588228
 31
0.0
  0
ENDBLK
  5
4D72
  8
0
  0
BLOCK
  8
0
  2
A$C0A61123B
 70
     0
 10
0.0
 20
0.0
 30
0.0
  3
A$C0A61123B
  1

  0
LINE
  5
C0AD
  8
PROF
  6
CONTINUOUS
 10
4.9012016798694162
 20
13.325025853350891
 30
0.0000000000000002
 11
4.9012016798694162
 21
12.88585218805485
 31
0.0000000000000003
  0
INSERT
  5
C0AE
  8
0
  2
*U6
 10
0.0
 20
0.0
 30
0.0
  0
LINE
  5
C0AF
  8
PROF
 10
4.5198575031869259
 20
12.72227734589444
 30
0.0000000000000001
 11
4.5198575031869259
 21
12.88585218805485
 31
0.0000000000000001
  0
LINE
  5
C0B0
  8
PROF
  6
CONTINUOUS
 10
3.6306271195888371
 20
13.325025853350891
 30
0.0000000000000002
 11
4.9012016798694162
 21
13.325025853350891
 31
0.0000000000000002
  0
LINE
  5
C0B1
  8
PROF
 10
1.9750295148747341
 20
10.37671325491794
 30
0.0000000000000002
 11
1.9750295148747341
 21
10.11391186758919
 31
0.0000000000000002
  0
LINE
  5
C0B2
  8
PROF
 10
1.607967335755631
 20
10.11391186758919
 30
0.0000000000000001
 11
1.9750295148747341
 21
10.11391186758919
 31
0.0000000000000001
  0
LINE
  5
C0B3
  8
PROF
 10
1.9750295148747341
 20
10.11391186758919
 30
0.0000000000000001
 11
1.944958486898144
 21
10.11391186758919
 31
0.0000000000000001
  0
LINE
  5
C0B4
  8
PROF
 10
1.9750295148747341
 20
10.11391186758919
 30
0.0000000000000001
 11
1.944958486898144
 21
10.11391186758919
 31
0.0000000000000001
  0
LINE
  5
C0B5
  8
PROF
 10
0.3222605517169654
 20
7.5247473351056442
 30
-0.0000000000000002
 11
-0.0000008570117416
 21
7.5247473351056442
 31
0.0
  0
LINE
  5
C0B6
  8
PROF
 10
-0.0000008570117416
 20
7.5247473351056442
 30
0.0
 11
-0.0000008570117416
 21
9.1943336957369866
 31
0.0
  0
POLYLINE
  5
C0B7
  8
PROF
 66
     1
 10
0.0
 20
0.0
 30
0.0000000000000001
 70
     4
 75
     6
  0
VERTEX
  5
C0B8
  8
PROF
 10
1.607967335755631
 20
10.11391186758919
 30
0.0000000000000001
 70
    16
  0
VERTEX
  5
C0B9
  8
PROF
 10
1.607967335755631
 20
10.11391186758919
 30
0.0000000000000001
 70
     8
  0
VERTEX
  5
C0BA
  8
PROF
 10
1.646813232648582
 20
10.02198069336111
 30
0.0000000000000001
 70
     8
  0
VERTEX
  5
C0BB
  8
PROF
 10
1.67335966680929
 20
9.9344134163010267
 30
0.0000000000000001
 70
     8
  0
VERTEX
  5
C0BC
  8
PROF
 10
1.689008640046324
 20
9.8512576644480987
 30
0.0000000000000001
 70
     8
  0
VERTEX
  5
C0BD
  8
PROF
 10
1.695162154168258
 20
9.7725610658417281
 30
0.0000000000000001
 70
     8
  0
VERTEX
  5
C0BE
  8
PROF
 10
1.6932222109836059
 20
9.6983712485214255
 30
0.0000000000000001
 70
     8
  0
VERTEX
  5
C0BF
  8
PROF
 10
1.6845908123009961
 20
9.6287358405263603
 30
0.0000000000000001
 70
     8
  0
VERTEX
  5
C0C0
  8
PROF
 10
1.6706699599288859
 20
9.5637024698960431
 30
0.0000000000000001
 70
     8
  0
VERTEX
  5
C0C1
  8
PROF
 10
1.6528616556759621
 20
9.503318764669757
 30
0.0000000000000001
 70
     8
  0
VERTEX
  5
C0C2
  8
PROF
 10
1.6323562992730549
 20
9.4475843259650674
 30
0.0000000000000001
 70
     8
  0
VERTEX
  5
C0C3
  8
PROF
 10
1.609497882140658
 20
9.3963066472123273
 30
0.0000000000000001
 70
     8
  0
VERTEX
  5
C0C4
  8
PROF
 10
1.584418793621637
 20
9.3492451949202842
 30
0.0000000000000001
 70
     8
  0
VERTEX
  5
C0C5
  8
PROF
 10
1.557251423058744
 20
9.3061594355972375
 30
0.0000000000000001
 70
     8
  0
VERTEX
  5
C0C6
  8
PROF
 10
1.5281281597949601
 20
9.2668088357519292
 30
0.0000000000000001
 70
     8
  0
VERTEX
  5
C0C7
  8
PROF
 10
1.4971813931729789
 20
9.2309528618930017
 30
0.0000000000000001
 70
     8
  0
VERTEX
  5
C0C8
  8
PROF
 10
1.464543512535726
 20
9.1983509805288577
 30
0.0000000000000001
 70
     8
  0
VERTEX
  5
C0C9
  8
PROF
 10
1.4303469072260091
 20
9.1687626581682462
 30
0.0000000000000001
 70
     8
  0
VERTEX
  5
C0CA
  8
PROF
 10
1.3947360332574019
 20
9.1419547918675335
 30
0.0000000000000001
 70
     8
  0
VERTEX
  5
C0CB
  8
PROF
 10
1.3579036133264131
 20
9.1177240008747731
 30
0.0000000000000001
 70
     8
  0
VERTEX
  5
C0CC
  8
PROF
 10
1.3200544368004321
 20
9.0958743349860924
 30
0.0000000000000001
 70
     8
  0
VERTEX
  5
C0CD
  8
PROF
 10
1.281393293046676
 20
9.0762098439975034
 30
0.0000000000000001
 70
     8
  0
VERTEX
  5
C0CE
  8
PROF
 10
1.242124971432417
 20
9.0585345777049042
 30
0.0000000000000001
 70
     8
  0
VERTEX
  5
C0CF
  8
PROF
 10
1.2024542613249869
 20
9.0426525859044204
 30
0.0000000000000001
 70
     8
  0
VERTEX
  5
C0D0
  8
PROF
 10
1.1625859520916599
 20
9.0283679183919503
 30
0.0000000000000001
 70
     8
  0
VERTEX
  5
C0D1
  8
PROF
 10
1.1227248330997091
 20
9.0154846249635057
 30
0.0000000000000001
 70
     8
  0
VERTEX
  5
C0D2
  8
PROF
 10
1.0829726247361
 20
9.0034643862466055
 30
0.0000000000000001
 70
     8
  0
VERTEX
  5
C0D3
  8
PROF
 10
1.043018771466222
 20
8.9903994061946833
 30
0.0000000000000001
 70
     8
  0
VERTEX
  5
C0D4
  8
PROF
 10
1.002449648775211
 20
8.9740395195925657
 30
0.0000000000000001
 70
     8
  0
VERTEX
  5
C0D5
  8
PROF
 10
0.9608516321480919
 20
8.9521345612251935
 30
0.0000000000000001
 70
     8
  0
VERTEX
  5
C0D6
  8
PROF
 10
0.9178110970699435
 20
8.9224343658775052
 30
0.0000000000000001
 70
     8
  0
VERTEX
  5
C0D7
  8
PROF
 10
0.8729144190259034
 20
8.8826887683343312
 30
0.0000000000000001
 70
     8
  0
VERTEX
  5
C0D8
  8
PROF
 10
0.8257479735009951
 20
8.8306476033806121
 30
0.0000000000000001
 70
     8
  0
VERTEX
  5
C0D9
  8
PROF
 10
0.7758981359802988
 20
8.764060705801171
 30
0.0000000000000001
 70
     8
  0
VERTEX
  5
C0DA
  8
PROF
 10
1.729201901609656
 20
9.8629858761255491
 30
0.0000000000000001
 70
    16
  0
VERTEX
  5
C0DB
  8
PROF
 10
1.6793731231140889
 20
9.4532143012734196
 30
0.0000000000000001
 70
    16
  0
VERTEX
  5
C0DC
  8
PROF
 10
1.4455611507419801
 20
9.1391837193732481
 30
0.0000000000000001
 70
    16
  0
VERTEX
  5
C0DD
  8
PROF
 10
1.120463717273821
 20
9.0026267702428413
 30
0.0000000000000001
 70
    16
  0
VERTEX
  5
C0DE
  8
PROF
 10
0.9127765582653638
 20
8.9630202230383702
 30
0.0000000000000001
 70
    16
  0
VERTEX
  5
C0DF
  8
PROF
 10
0.7758981359802988
 20
8.764060705801171
 30
0.0000000000000001
 70
    16
  0
SEQEND
  5
C0E0
  8
PROF
  0
ARC
  5
C0E1
  8
PROF
 10
0.733429816733235
 20
8.4849506952165257
 30
0.0000000000000001
 40
0.2823224329524727
 50
269.73652020831901
 51
81.348449993176914
  0
LINE
  5
C0E2
  8
PROF
  6
CONTINUOUS
 10
-0.0000008570117416
 20
9.1943336957369866
 30
-0.0000000000000001
 11
3.6306271195888371
 21
13.325025853350891
 31
0.0000000000000002
  0
POLYLINE
  5
C0E3
  8
PROF
 66
     1
 10
0.0
 20
0.0
 30
0.0000000000000001
 70
     4
 75
     6
  0
VERTEX
  5
C0E4
  8
PROF
 10
4.5198575031869259
 20
12.72227734589444
 30
0.0000000000000001
 70
    16
  0
VERTEX
  5
C0E5
  8
PROF
 10
4.5198575031869259
 20
12.72227734589444
 30
0.0000000000000001
 70
     8
  0
VERTEX
  5
C0E6
  8
PROF
 10
4.4467035366886298
 20
12.741128108778071
 30
0.0000000000000001
 70
     8
  0
VERTEX
  5
C0E7
  8
PROF
 10
4.3786645761268801
 20
12.754675269913941
 30
0.0000000000000001
 70
     8
  0
VERTEX
  5
C0E8
  8
PROF
 10
4.3154364111440477
 20
12.76334314092332
 30
0.0000000000000001
 70
     8
  0
VERTEX
  5
C0E9
  8
PROF
 10
4.256714831382566
 20
12.76755603342724
 30
0.0000000000000001
 70
     8
  0
VERTEX
  5
C0EA
  8
PROF
 10
4.2021956264849791
 20
12.76773825904672
 30
0.0000000000000001
 70
     8
  0
VERTEX
  5
C0EB
  8
PROF
 10
4.1515745860935453
 20
12.764314129403139
 30
0.0000000000000001
 70
     8
  0
VERTEX
  5
C0EC
  8
PROF
 10
4.1045474998508658
 20
12.75770795611743
 30
0.0000000000000001
 70
     8
  0
VERTEX
  5
C0ED
  8
PROF
 10
4.0608101573993158
 20
12.748344050810831
 30
0.0000000000000001
 70
     8
  0
VERTEX
  5
C0EE
  8
PROF
 10
4.0200583483813261
 20
12.736646725104491
 30
0.0000000000000001
 70
     8
  0
VERTEX
  5
C0EF
  8
PROF
 10
3.9819878624393819
 20
12.72304029061945
 30
0.0000000000000001
 70
     8
  0
VERTEX
  5
C0F0
  8
PROF
 10
3.946294489215858
 20
12.707949058976959
 30
0.0000000000000001
 70
     8
  0
VERTEX
  5
C0F1
  8
PROF
 10
3.9126740183532429
 20
12.691797341798059
 30
0.0000000000000001
 70
     8
  0
VERTEX
  5
C0F2
  8
PROF
 10
3.8808638350742508
 20
12.67494295718654
 30
0.0000000000000001
 70
     8
  0
VERTEX
  5
C0F3
  8
PROF
 10
3.850767706922738
 20
12.65747774917668
 30
0.0000000000000001
 70
     8
  0
VERTEX
  5
C0F4
  8
PROF
 10
3.8223309970228452
 20
12.639427068285499
 30
0.0000000000000001
 70
     8
  0
VERTEX
  5
C0F5
  8
PROF
 10
3.7954990684987129
 20
12.62081626503004
 30
0.0000000000000001
 70
     8
  0
VERTEX
  5
C0F6
  8
PROF
 10
3.7702172844744828
 20
12.601670689926999
 30
0.0000000000000001
 70
     8
  0
VERTEX
  5
C0F7
  8
PROF
 10
3.746431008074353
 20
12.58201569349364
 30
0.0000000000000001
 70
     8
  0
VERTEX
  5
C0F8
  8
PROF
 10
3.7240856024224618
 20
12.56187662624666
 30
0.0000000000000001
 70
     8
  0
VERTEX
  5
C0F9
  8
PROF
 10
3.7031264306428961
 20
12.541278838703191
 30
0.0000000000000001
 70
     8
  0
VERTEX
  5
C0FA
  8
PROF
 10
3.6834988558599089
 20
12.520247681380051
 30
0.0000000000000001
 70
     8
  0
VERTEX
  5
C0FB
  8
PROF
 10
3.665148241197528
 20
12.49880850479428
 30
0.0000000000000001
 70
     8
  0
VERTEX
  5
C0FC
  8
PROF
 10
3.6480199497799499
 20
12.47698665946279
 30
0.0000000000000001
 70
     8
  0
VERTEX
  5
C0FD
  8
PROF
 10
3.6320593447313172
 20
12.45480749590263
 30
0.0000000000000001
 70
     8
  0
VERTEX
  5
C0FE
  8
PROF
 10
3.6171895848866589
 20
12.43223790353807
 30
0.0000000000000001
 70
     8
  0
VERTEX
  5
C0FF
  8
PROF
 10
3.6032450119242858
 20
12.40901092742285
 30
0.0000000000000001
 70
     8
  0
VERTEX
  5
C100
  8
PROF
 10
3.590037763233453
 20
12.38480115151844
 30
0.0000000000000001
 70
     8
  0
VERTEX
  5
C101
  8
PROF
 10
3.5773799762033032
 20
12.35928315978594
 30
0.0000000000000001
 70
     8
  0
VERTEX
  5
C102
  8
PROF
 10
3.5650837882230908
 20
12.33213153618658
 30
0.0000000000000001
 70
     8
  0
VERTEX
  5
C103
  8
PROF
 10
3.5529613366819599
 20
12.303020864681571
 30
0.0000000000000001
 70
     8
  0
VERTEX
  5
C104
  8
PROF
 10
3.540824758969165
 20
12.271625729232371
 30
0.0000000000000001
 70
     8
  0
VERTEX
  5
C105
  8
PROF
 10
3.5284861924738489
 20
12.23762071379997
 30
0.0000000000000001
 70
     8
  0
VERTEX
  5
C106
  8
PROF
 10
3.5157577745852668
 20
12.200680402345711
 30
0.0000000000000001
 70
     8
  0
VERTEX
  5
C107
  8
PROF
 10
3.5024516426926189
 20
12.16047937883093
 30
0.0000000000000001
 70
     8
  0
VERTEX
  5
C108
  8
PROF
 10
3.4883799341851041
 20
12.116692227216619
 30
0.0000000000000001
 70
     8
  0
VERTEX
  5
C109
  8
PROF
 10
3.4733547864519201
 20
12.06899353146423
 30
0.0000000000000001
 70
     8
  0
VERTEX
  5
C10A
  8
PROF
 10
3.45723654619428
 20
12.0172095445447
 30
0.0000000000000001
 70
     8
  0
VERTEX
  5
C10B
  8
PROF
 10
3.4400783973613889
 20
11.961773195467799
 30
0.0000000000000001
 70
     8
  0
VERTEX
  5
C10C
  8
PROF
 10
3.421981733214579
 20
11.90326908225302
 30
0.0000000000000001
 70
     8
  0
VERTEX
  5
C10D
  8
PROF
 10
3.4030479470150108
 20
11.842281802919951
 30
0.0000000000000001
 70
     8
  0
VERTEX
  5
C10E
  8
PROF
 10
3.383378432024017
 20
11.779395955487979
 30
0.0000000000000001
 70
     8
  0
VERTEX
  5
C10F
  8
PROF
 10
3.3630745815028709
 20
11.715196137976809
 30
0.0000000000000001
 70
     8
  0
VERTEX
  5
C110
  8
PROF
 10
3.3422377887127359
 20
11.650266948405831
 30
0.0000000000000001
 70
     8
  0
VERTEX
  5
C111
  8
PROF
 10
3.320969446915
 20
11.58519298479461
 30
0.0000000000000001
 70
     8
  0
VERTEX
  5
C112
  8
PROF
 10
3.2993709493707679
 20
11.520558845162549
 30
0.0000000000000001
 70
     8
  0
VERTEX
  5
C113
  8
PROF
 10
3.277543689341428
 20
11.456949127529469
 30
0.0000000000000001
 70
     8
  0
VERTEX
  5
C114
  8
PROF
 10
3.2555890600881412
 20
11.3949484299145
 30
0.0000000000000001
 70
     8
  0
VERTEX
  5
C115
  8
PROF
 10
3.233608454872182
 20
11.335141350337491
 30
0.0000000000000001
 70
     8
  0
VERTEX
  5
C116
  8
PROF
 10
3.2116715641212181
 20
11.27799544797778
 30
0.0000000000000001
 70
     8
  0
VERTEX
  5
C117
  8
PROF
 10
3.189721266927847
 20
11.22351012665467
 30
0.0000000000000001
 70
     8
  0
VERTEX
  5
C118
  8
PROF
 10
3.1676687395512881
 20
11.17156775134765
 30
0.0000000000000001
 70
     8
  0
VERTEX
  5
C119
  8
PROF
 10
3.1454251582505321
 20
11.12205068703588
 30
0.0000000000000001
 70
     8
  0
VERTEX
  5
C11A
  8
PROF
 10
3.122901699284625
 20
11.07484129869874
 30
0.0000000000000001
 70
     8
  0
VERTEX
  5
C11B
  8
PROF
 10
3.1000095389127291
 20
11.02982195131551
 30
0.0000000000000001
 70
     8
  0
VERTEX
  5
C11C
  8
PROF
 10
3.0766598533938909
 20
10.986875009865679
 30
0.0000000000000001
 70
     8
  0
VERTEX
  5
C11D
  8
PROF
 10
3.0527638189871591
 20
10.9458828393283
 30
0.0000000000000001
 70
     8
  0
VERTEX
  5
C11E
  8
PROF
 10
3.0282326119516361
 20
10.90672780468298
 30
0.0000000000000001
 70
     8
  0
VERTEX
  5
C11F
  8
PROF
 10
3.002977408546371
 20
10.869292270908771
 30
0.0000000000000001
 70
     8
  0
VERTEX
  5
C120
  8
PROF
 10
2.9769093850304098
 20
10.833458602985161
 30
0.0000000000000001
 70
     8
  0
VERTEX
  5
C121
  8
PROF
 10
2.9499397176628568
 20
10.799109165891419
 30
0.0000000000000001
 70
     8
  0
VERTEX
  5
C122
  8
PROF
 10
2.9220006098404379
 20
10.76614363969508
 30
0.0000000000000001
 70
     8
  0
VERTEX
  5
C123
  8
PROF
 10
2.8931083735103011
 20
10.7345309648158
 30
0.0000000000000001
 70
     8
  0
VERTEX
  5
C124
  8
PROF
 10
2.8633003477572738
 20
10.70425739676193
 30
0.0000000000000001
 70
     8
  0
VERTEX
  5
C125
  8
PROF
 10
2.8326138716660689
 20
10.67530919104115
 30
0.0000000000000001
 70
     8
  0
VERTEX
  5
C126
  8
PROF
 10
2.8010862843216269
 20
10.647672603161711
 30
0.0000000000000001
 70
     8
  0
VERTEX
  5
C127
  8
PROF
 10
2.7687549248087171
 20
10.62133388863162
 30
0.0000000000000001
 70
     8
  0
VERTEX
  5
C128
  8
PROF
 10
2.735657132212054
 20
10.5962793029588
 30
0.0000000000000001
 70
     8
  0
VERTEX
  5
C129
  8
PROF
 10
2.7018302456165202
 20
10.572495101651381
 30
0.0000000000000001
 70
     8
  0
VERTEX
  5
C12A
  8
PROF
 10
2.6673116041068852
 20
10.54996754021726
 30
0.0000000000000001
 70
     8
  0
VERTEX
  5
C12B
  8
PROF
 10
2.6321385467680321
 20
10.528682874164581
 30
0.0000000000000001
 70
     8
  0
VERTEX
  5
C12C
  8
PROF
 10
2.5963484126846188
 20
10.508627359001251
 30
0.0000000000000001
 70
     8
  0
VERTEX
  5
C12D
  8
PROF
 10
2.5599785409415849
 20
10.489787250235279
 30
0.0000000000000001
 70
     8
  0
VERTEX
  5
C12E
  8
PROF
 10
2.522998630314361
 20
10.472162234281081
 30
0.0000000000000001
 70
     8
  0
VERTEX
  5
C12F
  8
PROF
 10
2.4851078183409072
 20
10.455805721177621
 30
0.0000000000000001
 70
     8
  0
VERTEX
  5
C130
  8
PROF
 10
2.4459376022498982
 20
10.44078455187036
 30
0.0000000000000001
 70
     8
  0
VERTEX
  5
C131
  8
PROF
 10
2.4051194792701258
 20
10.42716556730465
 30
0.0000000000000001
 70
     8
  0
VERTEX
  5
C132
  8
PROF
 10
2.3622849466301541
 20
10.415015608425851
 30
0.0000000000000001
 70
     8
  0
VERTEX
  5
C133
  8
PROF
 10
2.3170655015587149
 20
10.40440151617929
 30
0.0000000000000001
 70
     8
  0
VERTEX
  5
C134
  8
PROF
 10
2.2690926412844301
 20
10.395390131510339
 30
0.0000000000000001
 70
     8
  0
VERTEX
  5
C135
  8
PROF
 10
2.2179978630360888
 20
10.388048295364451
 30
0.0000000000000001
 70
     8
  0
VERTEX
  5
C136
  8
PROF
 10
2.1634126640422551
 20
10.38244284868688
 30
0.0000000000000001
 70
     8
  0
VERTEX
  5
C137
  8
PROF
 10
2.104968541531604
 20
10.37864063242295
 30
0.0000000000000001
 70
     8
  0
VERTEX
  5
C138
  8
PROF
 10
2.0422969927328718
 20
10.37670848751816
 30
0.0000000000000001
 70
     8
  0
VERTEX
  5
C139
  8
PROF
 10
1.9750295148747341
 20
10.37671325491794
 30
0.0000000000000001
 70
     8
  0
VERTEX
  5
C13A
  8
PROF
 10
4.2166060115107484
 20
12.80885334975255
 30
0.0000000000000001
 70
    16
  0
VERTEX
  5
C13B
  8
PROF
 10
3.8702254102732918
 20
12.707065515763929
 30
0.0000000000000001
 70
    16
  0
VERTEX
  5
C13C
  8
PROF
 10
3.605346156896871
 20
12.46277472098552
 30
0.0000000000000001
 70
    16
  0
VERTEX
  5
C13D
  8
PROF
 10
3.500746030527238
 20
12.170680575709749
 30
0.0000000000000001
 70
    16
  0
VERTEX
  5
C13E
  8
PROF
 10
3.231798439705698
 20
11.26846416496107
 30
0.0000000000000001
 70
    16
  0
VERTEX
  5
C13F
  8
PROF
 10
2.9737109398832891
 20
10.76631086647069
 30
0.0000000000000001
 70
    16
  0
VERTEX
  5
C140
  8
PROF
 10
2.5729961067384011
 20
10.460947364504699
 30
0.0000000000000001
 70
    16
  0
VERTEX
  5
C141
  8
PROF
 10
2.253782621454604
 20
10.372731239449759
 30
0.0000000000000001
 70
    16
  0
VERTEX
  5
C142
  8
PROF
 10
1.9750295148747341
 20
10.37671325491794
 30
0.0000000000000001
 70
    16
  0
SEQEND
  5
C143
  8
PROF
  0
LINE
  5
C144
  8
PROF
 10
4.9012016798694162
 20
12.88585218805485
 30
0.0000000000000003
 11
4.5198575031869259
 21
12.88585218805485
 31
0.0000000000000003
  0
LINE
  5
C145
  8
PROF
 10
0.7321315362267457
 20
8.2026312473991538
 30
0.0000000000000006
 11
0.7321315362267457
 21
8.0511853963434987
 31
0.0000000000000006
  0
ARC
  5
C146
  8
PROF
 10
0.7977322214551919
 20
7.5773339332026799
 30
0.0000000000000006
 40
0.4783708383912012
 50
97.882010168942529
 51
186.31119505698649
  0
LINE
  5
C147
  8
FRAME_050
 10
7.8016377197432121
 20
17.99371054969447
 30
0.0
 11
7.8016377197432121
 21
0.0000000000002274
 31
0.0
  0
ENDBLK
  5
C149
  8
0
  0
BLOCK
  8
0
  2
*U6
 70
     1
 10
0.0
 20
0.0
 30
0.0
  3
*U6
  1

  0
TEXT
  5
CE81
  8
0
 10
3.5177832928899071
 20
10.38601584255777
 30
0.0
 40
0.125
  1
Crown Moulding
  0
TEXT
  5
CE82
  8
0
 10
3.5223876585106431
 20
10.17717091304435
 30
0.0
 40
0.125
  1
TL-AB509
  0
TEXT
  5
CE83
  8
0
 10
3.5074661032582561
 20
9.9667059289606801
 30
0.0
 40
0.125
  1
1-5/16" x 7-9/16"
  0
TEXT
  5
CE84
  8
0
 10
3.519403347460166
 20
9.7562409448770051
 30
0.0
 40
0.125
  1
800.66.TAGUE
  0
ENDBLK
  5
CE86
  8
0
  0
BLOCK
  8
0
  2
*U7
 70
     1
 10
0.0
 20
0.0
 30
0.0
  3
*U7
  1

  0
TEXT
  5
CE88
  8
0
 10
3.3510407844650709
 20
16.383064351166141
 30
0.0
 40
0.125
  1
Wainscoting Caps
  0
TEXT
  5
CE89
  8
0
 10
3.3403825307133661
 20
16.172599367082469
 30
0.0
 40
0.125
  1
Beaded Cap With AB027 Apron
  0
TEXT
  5
CE8A
  8
0
 10
3.3460953547242802
 20
15.962134382998791
 30
0.0
 40
0.125
  1
800.66.TAGUE
  0
ENDBLK
  5
CE8C
  8
0
  0
BLOCK
  8
0
  2
*U8
 70
     1
 10
0.0
 20
0.0
 30
0.0
  3
*U8
  1

  0
TEXT
  5
CE8E
  8
0
 10
3.3510407844650709
 20
8.2248368345367613
 30
0.0
 40
0.125
  1
Wainscoting Caps
  0
TEXT
  5
CE8F
  8
0
 10
3.3490796657747581
 20
8.0159919050233466
 30
0.0
 40
0.125
  1
TL-289
  0
TEXT
  5
CE90
  8
0
 10
3.3460953547242802
 20
7.8055269209396707
 30
0.0
 40
0.125
  1
800.66.TAGUE
  0
ENDBLK
  5
CE92
  8
0
  0
BLOCK
  8
0
  2
*U9
 70
     1
 10
0.0
 20
0.0
 30
0.0
  3
*U9
  1

  0
TEXT
  5
CE94
  8
0
 10
3.3510407844650709
 20
1.1622841470952081
 30
0.0
 40
0.125
  1
Wainscoting Caps
  0
TEXT
  5
CE95
  8
0
 10
3.339870934533284
 20
0.9518191630115342
 30
0.0
 40
0.125
  1
Nose & Cove With Beaded Apron
  0
TEXT
  5
CE96
  8
0
 10
3.3460953547242802
 20
0.7413541789278599
 30
0.0
 40
0.125
  1
800.66.TAGUE
  0
ENDBLK
  5
CE98
  8
0
  0
BLOCK
  8
0
  2
*U10
 70
     1
 10
0.0
 20
0.0
 30
0.0
  3
*U10
  1

  0
TEXT
  5
CE9A
  8
0
 10
-333.28995446173622
 20
827.95769453754167
 30
0.0
 40
0.125
  1
Wainscoting Caps
  0
TEXT
  5
CE9B
  8
0
 10
-333.30112431166799
 20
827.74722955345806
 30
0.0
 40
0.125
  1
Nose & Cove With Beaded Apron
  0
TEXT
  5
CE9C
  8
0
 10
-333.29489989147692
 20
827.53676456937444
 30
0.0
 40
0.125
  1
800.66.TAGUE
  0
ENDBLK
  5
CE9E
  8
0
  0
ENDSEC
  0
SECTION
  2
ENTITIES
  0
POLYLINE
  8
0
  5
CE9F
  66
     1
 10
0.000000
 20
0.000000
 30
0.000000
  70
     8
  0
VERTEX
  8
0
  5
CEA0
 10
-335.022
 20
828.526
 30
0.000000
  70
    32
  0
VERTEX
  8
0
  5
CEA1
 10
-335.020
 20
828.524
 30
0.000000
  70
    32
  0
VERTEX
  8
0
  5
CEA2
 10
-335.018
 20
828.522
 30
0.000000
  70
    32
  0
VERTEX
  8
0
  5
CEA3
 10
-335.016
 20
828.521
 30
0.000000
  70
    32
  0
VERTEX
  8
0
  5
CEA4
 10
-335.015
 20
828.519
 30
0.000000
  70
    32
  0
VERTEX
  8
0
  5
CEA5
 10
-335.013
 20
828.517
 30
0.000000
  70
    32
  0
VERTEX
  8
0
  5
CEA6
 10
-335.011
 20
828.515
 30
0.000000
  70
    32
  0
VERTEX
  8
0
  5
CEA7
 10
-335.009
 20
828.513
 30
0.000000
  70
    32
  0
VERTEX
  8
0
  5
CEA8
 10
-335.007
 20
828.511
 30
0.000000
  70
    32
  0
VERTEX
  8
0
  5
CEA9
 10
-335.005
 20
828.510
 30
0.000000
  70
    32
  0
VERTEX
  8
0
  5
CEAA
 10
-335.003
 20
828.508
 30
0.000000
  70
    32
  0
VERTEX
  8
0
  5
CEAB
 10
-335.001
 20
828.506
 30
0.000000
  70
    32
  0
VERTEX
  8
0
  5
CEAC
 10
-334.999
 20
828.504
 30
0.000000
  70
    32
  0
VERTEX
  8
0
  5
CEAD
 10
-334.997
 20
828.503
 30
0.000000
  70
    32
  0
VERTEX
  8
0
  5
CEAE
 10
-334.995
 20
828.501
 30
0.000000
  70
    32
  0
VERTEX
  8
0
  5
CEAF
 10
-334.993
 20
828.500
 30
0.000000
  70
    32
  0
VERTEX
  8
0
  5
CEB0
 10
-334.991
 20
828.498
 30
0.000000
  70
    32
  0
VERTEX
  8
0
  5
CEB1
 10
-334.988
 20
828.497
 30
0.000000
  70
    32
  0
VERTEX
  8
0
  5
CEB2
 10
-334.986
 20
828.496
 30
0.000000
  70
    32
  0
VERTEX
  8
0
  5
CEB3
 10
-334.984
 20
828.494
 30
0.000000
  70
    32
  0
VERTEX
  8
0
  5
CEB4
 10
-334.982
 20
828.493
 30
0.000000
  70
    32
  0
VERTEX
  8
0
  5
CEB5
 10
-334.979
 20
828.492
 30
0.000000
  70
    32
  0
VERTEX
  8
0
  5
CEB6
 10
-334.977
 20
828.491
 30
0.000000
  70
    32
  0
VERTEX
  8
0
  5
CEB7
 10
-334.974
 20
828.490
 30
0.000000
  70
    32
  0
VERTEX
  8
0
  5
CEB8
 10
-334.972
 20
828.489
 30
0.000000
  70
    32
  0
VERTEX
  8
0
  5
CEB9
 10
-334.969
 20
828.488
 30
0.000000
  70
    32
  0
VERTEX
  8
0
  5
CEBA
 10
-334.967
 20
828.487
 30
0.000000
  70
    32
  0
VERTEX
  8
0
  5
CEBB
 10
-334.964
 20
828.487
 30
0.000000
  70
    32
  0
VERTEX
  8
0
  5
CEBC
 10
-334.962
 20
828.486
 30
0.000000
  70
    32
  0
VERTEX
  8
0
  5
CEBD
 10
-334.959
 20
828.485
 30
0.000000
  70
    32
  0
VERTEX
  8
0
  5
CEBE
 10
-334.957
 20
828.485
 30
0.000000
  70
    32
  0
VERTEX
  8
0
  5
CEBF
 10
-334.954
 20
828.484
 30
0.000000
  70
    32
  0
VERTEX
  8
0
  5
CEC0
 10
-334.952
 20
828.484
 30
0.000000
  70
    32
  0
VERTEX
  8
0
  5
CEC1
 10
-334.949
 20
828.484
 30
0.000000
  70
    32
  0
VERTEX
  8
0
  5
CEC2
 10
-334.947
 20
828.483
 30
0.000000
  70
    32
  0
VERTEX
  8
0
  5
CEC3
 10
-334.944
 20
828.483
 30
0.000000
  70
    32
  0
VERTEX
  8
0
  5
CEC4
 10
-334.941
 20
828.483
 30
0.000000
  70
    32
  0
VERTEX
  8
0
  5
CEC5
 10
-334.939
 20
828.483
 30
0.000000
  70
    32
  0
VERTEX
  8
0
  5
CEC6
 10
-334.936
 20
828.482
 30
0.000000
  70
    32
  0
VERTEX
  8
0
  5
CEC7
 10
-334.933
 20
828.482
 30
0.000000
  70
    32
  0
VERTEX
  8
0
  5
CEC8
 10
-334.931
 20
828.482
 30
0.000000
  70
    32
  0
VERTEX
  8
0
  5
CEC9
 10
-334.928
 20
828.482
 30
0.000000
  70
    32
  0
VERTEX
  8
0
  5
CECA
 10
-334.925
 20
828.482
 30
0.000000
  70
    32
  0
VERTEX
  8
0
  5
CECB
 10
-334.923
 20
828.482
 30
0.000000
  70
    32
  0
VERTEX
  8
0
  5
CECC
 10
-334.920
 20
828.482
 30
0.000000
  70
    32
  0
VERTEX
  8
0
  5
CECD
 10
-334.918
 20
828.482
 30
0.000000
  70
    32
  0
VERTEX
  8
0
  5
CECE
 10
-334.915
 20
828.482
 30
0.000000
  70
    32
  0
VERTEX
  8
0
  5
CECF
 10
-334.912
 20
828.481
 30
0.000000
  70
    32
  0
VERTEX
  8
0
  5
CED0
 10
-334.909
 20
828.481
 30
0.000000
  70
    32
  0
VERTEX
  8
0
  5
CED1
 10
-334.907
 20
828.481
 30
0.000000
  70
    32
  0
VERTEX
  8
0
  5
CED2
 10
-334.904
 20
828.481
 30
0.000000
  70
    32
  0
VERTEX
  8
0
  5
CED3
 10
-334.901
 20
828.481
 30
0.000000
  70
    32
  0
VERTEX
  8
0
  5
CED4
 10
-334.899
 20
828.481
 30
0.000000
  70
    32
  0
VERTEX
  8
0
  5
CED5
 10
-334.896
 20
828.481
 30
0.000000
  70
    32
  0
VERTEX
  8
0
  5
CED6
 10
-334.894
 20
828.481
 30
0.000000
  70
    32
  0
VERTEX
  8
0
  5
CED7
 10
-334.891
 20
828.480
 30
0.000000
  70
    32
  0
VERTEX
  8
0
  5
CED8
 10
-334.888
 20
828.480
 30
0.000000
  70
    32
  0
VERTEX
  8
0
  5
CED9
 10
-334.886
 20
828.480
 30
0.000000
  70
    32
  0
VERTEX
  8
0
  5
CEDA
 10
-334.883
 20
828.480
 30
0.000000
  70
    32
  0
VERTEX
  8
0
  5
CEDB
 10
-334.880
 20
828.479
 30
0.000000
  70
    32
  0
VERTEX
  8
0
  5
CEDC
 10
-334.878
 20
828.479
 30
0.000000
  70
    32
  0
VERTEX
  8
0
  5
CEDD
 10
-334.875
 20
828.479
 30
0.000000
  70
    32
  0
VERTEX
  8
0
  5
CEDE
 10
-334.872
 20
828.479
 30
0.000000
  70
    32
  0
VERTEX
  8
0
  5
CEDF
 10
-334.870
 20
828.478
 30
0.000000
  70
    32
  0
VERTEX
  8
0
  5
CEE0
 10
-334.867
 20
828.478
 30
0.000000
  70
    32
  0
VERTEX
  8
0
  5
CEE1
 10
-334.865
 20
828.477
 30
0.000000
  70
    32
  0
VERTEX
  8
0
  5
CEE2
 10
-334.862
 20
828.477
 30
0.000000
  70
    32
  0
VERTEX
  8
0
  5
CEE3
 10
-334.860
 20
828.476
 30
0.000000
  70
    32
  0
VERTEX
  8
0
  5
CEE4
 10
-334.857
 20
828.476
 30
0.000000
  70
    32
  0
VERTEX
  8
0
  5
CEE5
 10
-334.854
 20
828.475
 30
0.000000
  70
    32
  0
VERTEX
  8
0
  5
CEE6
 10
-334.852
 20
828.475
 30
0.000000
  70
    32
  0
VERTEX
  8
0
  5
CEE7
 10
-334.849
 20
828.474
 30
0.000000
  70
    32
  0
VERTEX
  8
0
  5
CEE8
 10
-334.847
 20
828.474
 30
0.000000
  70
    32
  0
VERTEX
  8
0
  5
CEE9
 10
-334.844
 20
828.473
 30
0.000000
  70
    32
  0
VERTEX
  8
0
  5
CEEA
 10
-334.842
 20
828.472
 30
0.000000
  70
    32
  0
VERTEX
  8
0
  5
CEEB
 10
-334.839
 20
828.471
 30
0.000000
  70
    32
  0
VERTEX
  8
0
  5
CEEC
 10
-334.837
 20
828.470
 30
0.000000
  70
    32
  0
VERTEX
  8
0
  5
CEED
 10
-334.835
 20
828.470
 30
0.000000
  70
    32
  0
VERTEX
  8
0
  5
CEEE
 10
-334.832
 20
828.469
 30
0.000000
  70
    32
  0
VERTEX
  8
0
  5
CEEF
 10
-334.830
 20
828.468
 30
0.000000
  70
    32
  0
VERTEX
  8
0
  5
CEF0
 10
-334.827
 20
828.467
 30
0.000000
  70
    32
  0
VERTEX
  8
0
  5
CEF1
 10
-334.825
 20
828.466
 30
0.000000
  70
    32
  0
VERTEX
  8
0
  5
CEF2
 10
-334.823
 20
828.464
 30
0.000000
  70
    32
  0
VERTEX
  8
0
  5
CEF3
 10
-334.820
 20
828.463
 30
0.000000
  70
    32
  0
VERTEX
  8
0
  5
CEF4
 10
-334.818
 20
828.462
 30
0.000000
  70
    32
  0
VERTEX
  8
0
  5
CEF5
 10
-334.816
 20
828.461
 30
0.000000
  70
    32
  0
VERTEX
  8
0
  5
CEF6
 10
-334.814
 20
828.459
 30
0.000000
  70
    32
  0
VERTEX
  8
0
  5
CEF7
 10
-334.811
 20
828.458
 30
0.000000
  70
    32
  0
VERTEX
  8
0
  5
CEF8
 10
-334.809
 20
828.457
 30
0.000000
  70
    32
  0
VERTEX
  8
0
  5
CEF9
 10
-334.807
 20
828.455
 30
0.000000
  70
    32
  0
VERTEX
  8
0
  5
CEFA
 10
-334.805
 20
828.454
 30
0.000000
  70
    32
  0
VERTEX
  8
0
  5
CEFB
 10
-334.803
 20
828.452
 30
0.000000
  70
    32
  0
VERTEX
  8
0
  5
CEFC
 10
-334.801
 20
828.451
 30
0.000000
  70
    32
  0
VERTEX
  8
0
  5
CEFD
 10
-334.799
 20
828.449
 30
0.000000
  70
    32
  0
VERTEX
  8
0
  5
CEFE
 10
-334.796
 20
828.447
 30
0.000000
  70
    32
  0
VERTEX
  8
0
  5
CEFF
 10
-334.794
 20
828.446
 30
0.000000
  70
    32
  0
VERTEX
  8
0
  5
CF00
 10
-334.792
 20
828.444
 30
0.000000
  70
    32
  0
VERTEX
  8
0
  5
CF01
 10
-334.790
 20
828.442
 30
0.000000
  70
    32
  0
VERTEX
  8
0
  5
CF02
 10
-334.788
 20
828.440
 30
0.000000
  70
    32
  0
VERTEX
  8
0
  5
CF03
 10
-334.787
 20
828.439
 30
0.000000
  70
    32
  0
VERTEX
  8
0
  5
CF04
 10
-334.785
 20
828.437
 30
0.000000
  70
    32
  0
VERTEX
  8
0
  5
CF05
 10
-334.783
 20
828.435
 30
0.000000
  70
    32
  0
VERTEX
  8
0
  5
CF06
 10
-334.781
 20
828.433
 30
0.000000
  70
    32
  0
VERTEX
  8
0
  5
CF07
 10
-334.779
 20
828.431
 30
0.000000
  70
    32
  0
VERTEX
  8
0
  5
CF08
 10
-334.777
 20
828.429
 30
0.000000
  70
    32
  0
VERTEX
  8
0
  5
CF09
 10
-334.776
 20
828.427
 30
0.000000
  70
    32
  0
VERTEX
  8
0
  5
CF0A
 10
-334.774
 20
828.425
 30
0.000000
  70
    32
  0
VERTEX
  8
0
  5
CF0B
 10
-334.772
 20
828.423
 30
0.000000
  70
    32
  0
VERTEX
  8
0
  5
CF0C
 10
-334.770
 20
828.420
 30
0.000000
  70
    32
  0
VERTEX
  8
0
  5
CF0D
 10
-334.769
 20
828.418
 30
0.000000
  70
    32
  0
VERTEX
  8
0
  5
CF0E
 10
-334.767
 20
828.416
 30
0.000000
  70
    32
  0
VERTEX
  8
0
  5
CF0F
 10
-334.766
 20
828.414
 30
0.000000
  70
    32
  0
VERTEX
  8
0
  5
CF10
 10
-334.764
 20
828.412
 30
0.000000
  70
    32
  0
VERTEX
  8
0
  5
CF11
 10
-334.763
 20
828.409
 30
0.000000
  70
    32
  0
VERTEX
  8
0
  5
CF12
 10
-334.761
 20
828.407
 30
0.000000
  70
    32
  0
VERTEX
  8
0
  5
CF13
 10
-334.760
 20
828.405
 30
0.000000
  70
    32
  0
VERTEX
  8
0
  5
CF14
 10
-334.758
 20
828.402
 30
0.000000
  70
    32
  0
VERTEX
  8
0
  5
CF15
 10
-334.757
 20
828.400
 30
0.000000
  70
    32
  0
VERTEX
  8
0
  5
CF16
 10
-334.756
 20
828.398
 30
0.000000
  70
    32
  0
VERTEX
  8
0
  5
CF17
 10
-334.754
 20
828.395
 30
0.000000
  70
    32
  0
VERTEX
  8
0
  5
CF18
 10
-334.753
 20
828.393
 30
0.000000
  70
    32
  0
VERTEX
  8
0
  5
CF19
 10
-334.752
 20
828.390
 30
0.000000
  70
    32
  0
VERTEX
  8
0
  5
CF1A
 10
-334.751
 20
828.388
 30
0.000000
  70
    32
  0
VERTEX
  8
0
  5
CF1B
 10
-334.750
 20
828.385
 30
0.000000
  70
    32
  0
VERTEX
  8
0
  5
CF1C
 10
-334.749
 20
828.383
 30
0.000000
  70
    32
  0
VERTEX
  8
0
  5
CF1D
 10
-334.747
 20
828.380
 30
0.000000
  70
    32
  0
VERTEX
  8
0
  5
CF1E
 10
-334.746
 20
828.378
 30
0.000000
  70
    32
  0
VERTEX
  8
0
  5
CF1F
 10
-334.745
 20
828.375
 30
0.000000
  70
    32
  0
VERTEX
  8
0
  5
CF20
 10
-334.745
 20
828.372
 30
0.000000
  70
    32
  0
VERTEX
  8
0
  5
CF21
 10
-334.744
 20
828.370
 30
0.000000
  70
    32
  0
VERTEX
  8
0
  5
CF22
 10
-334.743
 20
828.367
 30
0.000000
  70
    32
  0
VERTEX
  8
0
  5
CF23
 10
-334.742
 20
828.365
 30
0.000000
  70
    32
  0
VERTEX
  8
0
  5
CF24
 10
-334.741
 20
828.362
 30
0.000000
  70
    32
  0
VERTEX
  8
0
  5
CF25
 10
-334.740
 20
828.359
 30
0.000000
  70
    32
  0
VERTEX
  8
0
  5
CF26
 10
-334.740
 20
828.357
 30
0.000000
  70
    32
  0
VERTEX
  8
0
  5
CF27
 10
-334.739
 20
828.354
 30
0.000000
  70
    32
  0
VERTEX
  8
0
  5
CF28
 10
-334.738
 20
828.351
 30
0.000000
  70
    32
  0
VERTEX
  8
0
  5
CF29
 10
-334.738
 20
828.349
 30
0.000000
  70
    32
  0
VERTEX
  8
0
  5
CF2A
 10
-334.737
 20
828.346
 30
0.000000
  70
    32
  0
VERTEX
  8
0
  5
CF2B
 10
-334.737
 20
828.343
 30
0.000000
  70
    32
  0
VERTEX
  8
0
  5
CF2C
 10
-334.736
 20
828.341
 30
0.000000
  70
    32
  0
VERTEX
  8
0
  5
CF2D
 10
-334.736
 20
828.338
 30
0.000000
  70
    32
  0
VERTEX
  8
0
  5
CF2E
 10
-334.735
 20
828.335
 30
0.000000
  70
    32
  0
VERTEX
  8
0
  5
CF2F
 10
-334.735
 20
828.333
 30
0.000000
  70
    32
  0
VERTEX
  8
0
  5
CF30
 10
-334.735
 20
828.330
 30
0.000000
  70
    32
  0
VERTEX
  8
0
  5
CF31
 10
-334.734
 20
828.327
 30
0.000000
  70
    32
  0
VERTEX
  8
0
  5
CF32
 10
-334.734
 20
828.324
 30
0.000000
  70
    32
  0
VERTEX
  8
0
  5
CF33
 10
-334.734
 20
828.322
 30
0.000000
  70
    32
  0
VERTEX
  8
0
  5
CF34
 10
-334.734
 20
828.319
 30
0.000000
  70
    32
  0
VERTEX
  8
0
  5
CF35
 10
-334.734
 20
828.316
 30
0.000000
  70
    32
  0
VERTEX
  8
0
  5
CF36
 10
-334.734
 20
828.314
 30
0.000000
  70
    32
  0
VERTEX
  8
0
  5
CF37
 10
-334.734
 20
828.311
 30
0.000000
  70
    32
  0
VERTEX
  8
0
  5
CF38
 10
-334.734
 20
828.308
 30
0.000000
  70
    32
  0
VERTEX
  8
0
  5
CF39
 10
-334.734
 20
828.306
 30
0.000000
  70
    32
  0
VERTEX
  8
0
  5
CF3A
 10
-334.734
 20
828.303
 30
0.000000
  70
    32
  0
VERTEX
  8
0
  5
CF3B
 10
-334.734
 20
828.300
 30
0.000000
  70
    32
  0
VERTEX
  8
0
  5
CF3C
 10
-334.734
 20
828.298
 30
0.000000
  70
    32
  0
VERTEX
  8
0
  5
CF3D
 10
-334.734
 20
828.295
 30
0.000000
  70
    32
  0
VERTEX
  8
0
  5
CF3E
 10
-334.735
 20
828.292
 30
0.000000
  70
    32
  0
VERTEX
  8
0
  5
CF3F
 10
-334.735
 20
828.290
 30
0.000000
  70
    32
  0
VERTEX
  8
0
  5
CF40
 10
-334.735
 20
828.287
 30
0.000000
  70
    32
  0
VERTEX
  8
0
  5
CF41
 10
-334.736
 20
828.284
 30
0.000000
  70
    32
  0
VERTEX
  8
0
  5
CF42
 10
-334.736
 20
828.282
 30
0.000000
  70
    32
  0
VERTEX
  8
0
  5
CF43
 10
-334.736
 20
828.279
 30
0.000000
  70
    32
  0
VERTEX
  8
0
  5
CF44
 10
-334.737
 20
828.277
 30
0.000000
  70
    32
  0
VERTEX
  8
0
  5
CF45
 10
-334.737
 20
828.274
 30
0.000000
  70
    32
  0
VERTEX
  8
0
  5
CF46
 10
-334.738
 20
828.272
 30
0.000000
  70
    32
  0
VERTEX
  8
0
  5
CF47
 10
-334.739
 20
828.269
 30
0.000000
  70
    32
  0
VERTEX
  8
0
  5
CF48
 10
-334.739
 20
828.266
 30
0.000000
  70
    32
  0
VERTEX
  8
0
  5
CF49
 10
-334.740
 20
828.264
 30
0.000000
  70
    32
  0
VERTEX
  8
0
  5
CF4A
 10
-334.741
 20
828.262
 30
0.000000
  70
    32
  0
VERTEX
  8
0
  5
CF4B
 10
-334.742
 20
828.259
 30
0.000000
  70
    32
  0
VERTEX
  8
0
  5
CF4C
 10
-334.742
 20
828.257
 30
0.000000
  70
    32
  0
VERTEX
  8
0
  5
CF4D
 10
-334.743
 20
828.254
 30
0.000000
  70
    32
  0
VERTEX
  8
0
  5
CF4E
 10
-334.744
 20
828.252
 30
0.000000
  70
    32
  0
VERTEX
  8
0
  5
CF4F
 10
-334.745
 20
828.250
 30
0.000000
  70
    32
  0
VERTEX
  8
0
  5
CF50
 10
-334.746
 20
828.247
 30
0.000000
  70
    32
  0
VERTEX
  8
0
  5
CF51
 10
-334.747
 20
828.245
 30
0.000000
  70
    32
  0
VERTEX
  8
0
  5
CF52
 10
-334.748
 20
828.243
 30
0.000000
  70
    32
  0
VERTEX
  8
0
  5
CF53
 10
-334.749
 20
828.240
 30
0.000000
  70
    32
  0
VERTEX
  8
0
  5
CF54
 10
-334.750
 20
828.238
 30
0.000000
  70
    32
  0
VERTEX
  8
0
  5
CF55
 10
-334.752
 20
828.236
 30
0.000000
  70
    32
  0
VERTEX
  8
0
  5
CF56
 10
-334.753
 20
828.234
 30
0.000000
  70
    32
  0
VERTEX
  8
0
  5
CF57
 10
-334.754
 20
828.231
 30
0.000000
  70
    32
  0
VERTEX
  8
0
  5
CF58
 10
-334.755
 20
828.229
 30
0.000000
  70
    32
  0
VERTEX
  8
0
  5
CF59
 10
-334.757
 20
828.227
 30
0.000000
  70
    32
  0
VERTEX
  8
0
  5
CF5A
 10
-334.758
 20
828.225
 30
0.000000
  70
    32
  0
VERTEX
  8
0
  5
CF5B
 10
-334.760
 20
828.223
 30
0.000000
  70
    32
  0
VERTEX
  8
0
  5
CF5C
 10
-334.761
 20
828.221
 30
0.000000
  70
    32
  0
VERTEX
  8
0
  5
CF5D
 10
-334.762
 20
828.219
 30
0.000000
  70
    32
  0
VERTEX
  8
0
  5
CF5E
 10
-334.764
 20
828.217
 30
0.000000
  70
    32
  0
VERTEX
  8
0
  5
CF5F
 10
-334.765
 20
828.215
 30
0.000000
  70
    32
  0
VERTEX
  8
0
  5
CF60
 10
-334.767
 20
828.213
 30
0.000000
  70
    32
  0
VERTEX
  8
0
  5
CF61
 10
-334.769
 20
828.211
 30
0.000000
  70
    32
  0
VERTEX
  8
0
  5
CF62
 10
-334.770
 20
828.209
 30
0.000000
  70
    32
  0
VERTEX
  8
0
  5
CF63
 10
-334.772
 20
828.207
 30
0.000000
  70
    32
  0
VERTEX
  8
0
  5
CF64
 10
-334.773
 20
828.205
 30
0.000000
  70
    32
  0
VERTEX
  8
0
  5
CF65
 10
-334.775
 20
828.203
 30
0.000000
  70
    32
  0
VERTEX
  8
0
  5
CF66
 10
-334.777
 20
828.201
 30
0.000000
  70
    32
  0
VERTEX
  8
0
  5
CF67
 10
-334.779
 20
828.199
 30
0.000000
  70
    32
  0
VERTEX
  8
0
  5
CF68
 10
-334.780
 20
828.197
 30
0.000000
  70
    32
  0
VERTEX
  8
0
  5
CF69
 10
-334.782
 20
828.195
 30
0.000000
  70
    32
  0
VERTEX
  8
0
  5
CF6A
 10
-334.784
 20
828.193
 30
0.000000
  70
    32
  0
VERTEX
  8
0
  5
CF6B
 10
-334.786
 20
828.191
 30
0.000000
  70
    32
  0
VERTEX
  8
0
  5
CF6C
 10
-334.788
 20
828.189
 30
0.000000
  70
    32
  0
VERTEX
  8
0
  5
CF6D
 10
-334.789
 20
828.187
 30
0.000000
  70
    32
  0
VERTEX
  8
0
  5
CF6E
 10
-334.791
 20
828.185
 30
0.000000
  70
    32
  0
VERTEX
  8
0
  5
CF6F
 10
-334.793
 20
828.184
 30
0.000000
  70
    32
  0
VERTEX
  8
0
  5
CF70
 10
-334.795
 20
828.182
 30
0.000000
  70
    32
  0
VERTEX
  8
0
  5
CF71
 10
-334.797
 20
828.180
 30
0.000000
  70
    32
  0
VERTEX
  8
0
  5
CF72
 10
-334.799
 20
828.178
 30
0.000000
  70
    32
  0
VERTEX
  8
0
  5
CF73
 10
-334.801
 20
828.176
 30
0.000000
  70
    32
  0
VERTEX
  8
0
  5
CF74
 10
-334.803
 20
828.174
 30
0.000000
  70
    32
  0
VERTEX
  8
0
  5
CF75
 10
-334.805
 20
828.173
 30
0.000000
  70
    32
  0
VERTEX
  8
0
  5
CF76
 10
-334.807
 20
828.171
 30
0.000000
  70
    32
  0
VERTEX
  8
0
  5
CF77
 10
-334.809
 20
828.169
 30
0.000000
  70
    32
  0
VERTEX
  8
0
  5
CF78
 10
-334.811
 20
828.167
 30
0.000000
  70
    32
  0
VERTEX
  8
0
  5
CF79
 10
-334.813
 20
828.165
 30
0.000000
  70
    32
  0
VERTEX
  8
0
  5
CF7A
 10
-334.815
 20
828.164
 30
0.000000
  70
    32
  0
VERTEX
  8
0
  5
CF7B
 10
-334.817
 20
828.162
 30
0.000000
  70
    32
  0
VERTEX
  8
0
  5
CF7C
 10
-334.819
 20
828.160
 30
0.000000
  70
    32
  0
VERTEX
  8
0
  5
CF7D
 10
-334.821
 20
828.158
 30
0.000000
  70
    32
  0
VERTEX
  8
0
  5
CF7E
 10
-334.823
 20
828.157
 30
0.000000
  70
    32
  0
VERTEX
  8
0
  5
CF7F
 10
-334.825
 20
828.155
 30
0.000000
  70
    32
  0
VERTEX
  8
0
  5
CF80
 10
-334.827
 20
828.153
 30
0.000000
  70
    32
  0
VERTEX
  8
0
  5
CF81
 10
-334.829
 20
828.151
 30
0.000000
  70
    32
  0
VERTEX
  8
0
  5
CF82
 10
-334.831
 20
828.149
 30
0.000000
  70
    32
  0
VERTEX
  8
0
  5
CF83
 10
-334.833
 20
828.148
 30
0.000000
  70
    32
  0
VERTEX
  8
0
  5
CF84
 10
-334.835
 20
828.146
 30
0.000000
  70
    32
  0
VERTEX
  8
0
  5
CF85
 10
-334.837
 20
828.144
 30
0.000000
  70
    32
  0
VERTEX
  8
0
  5
CF86
 10
-334.839
 20
828.142
 30
0.000000
  70
    32
  0
VERTEX
  8
0
  5
CF87
 10
-334.841
 20
828.141
 30
0.000000
  70
    32
  0
VERTEX
  8
0
  5
CF88
 10
-334.843
 20
828.139
 30
0.000000
  70
    32
  0
VERTEX
  8
0
  5
CF89
 10
-334.845
 20
828.137
 30
0.000000
  70
    32
  0
VERTEX
  8
0
  5
CF8A
 10
-334.847
 20
828.135
 30
0.000000
  70
    32
  0
VERTEX
  8
0
  5
CF8B
 10
-334.849
 20
828.133
 30
0.000000
  70
    32
  0
VERTEX
  8
0
  5
CF8C
 10
-334.851
 20
828.132
 30
0.000000
  70
    32
  0
VERTEX
  8
0
  5
CF8D
 10
-334.853
 20
828.130
 30
0.000000
  70
    32
  0
VERTEX
  8
0
  5
CF8E
 10
-334.856
 20
828.128
 30
0.000000
  70
    32
  0
VERTEX
  8
0
  5
CF8F
 10
-334.858
 20
828.126
 30
0.000000
  70
    32
  0
VERTEX
  8
0
  5
CF90
 10
-334.859
 20
828.124
 30
0.000000
  70
    32
  0
VERTEX
  8
0
  5
CF91
 10
-334.861
 20
828.123
 30
0.000000
  70
    32
  0
VERTEX
  8
0
  5
CF92
 10
-334.863
 20
828.121
 30
0.000000
  70
    32
  0
VERTEX
  8
0
  5
CF93
 10
-334.865
 20
828.119
 30
0.000000
  70
    32
  0
VERTEX
  8
0
  5
CF94
 10
-334.867
 20
828.117
 30
0.000000
  70
    32
  0
VERTEX
  8
0
  5
CF95
 10
-334.869
 20
828.115
 30
0.000000
  70
    32
  0
VERTEX
  8
0
  5
CF96
 10
-334.871
 20
828.113
 30
0.000000
  70
    32
  0
VERTEX
  8
0
  5
CF97
 10
-334.873
 20
828.111
 30
0.000000
  70
    32
  0
VERTEX
  8
0
  5
CF98
 10
-334.875
 20
828.109
 30
0.000000
  70
    32
  0
VERTEX
  8
0
  5
CF99
 10
-334.877
 20
828.108
 30
0.000000
  70
    32
  0
VERTEX
  8
0
  5
CF9A
 10
-334.879
 20
828.106
 30
0.000000
  70
    32
  0
VERTEX
  8
0
  5
CF9B
 10
-334.881
 20
828.104
 30
0.000000
  70
    32
  0
VERTEX
  8
0
  5
CF9C
 10
-334.882
 20
828.102
 30
0.000000
  70
    32
  0
VERTEX
  8
0
  5
CF9D
 10
-334.884
 20
828.100
 30
0.000000
  70
    32
  0
VERTEX
  8
0
  5
CF9E
 10
-334.886
 20
828.098
 30
0.000000
  70
    32
  0
VERTEX
  8
0
  5
CF9F
 10
-334.888
 20
828.096
 30
0.000000
  70
    32
  0
VERTEX
  8
0
  5
CFA0
 10
-334.889
 20
828.094
 30
0.000000
  70
    32
  0
VERTEX
  8
0
  5
CFA1
 10
-334.891
 20
828.092
 30
0.000000
  70
    32
  0
VERTEX
  8
0
  5
CFA2
 10
-334.893
 20
828.090
 30
0.000000
  70
    32
  0
VERTEX
  8
0
  5
CFA3
 10
-334.895
 20
828.088
 30
0.000000
  70
    32
  0
VERTEX
  8
0
  5
CFA4
 10
-334.896
 20
828.086
 30
0.000000
  70
    32
  0
VERTEX
  8
0
  5
CFA5
 10
-334.898
 20
828.084
 30
0.000000
  70
    32
  0
VERTEX
  8
0
  5
CFA6
 10
-334.900
 20
828.082
 30
0.000000
  70
    32
  0
VERTEX
  8
0
  5
CFA7
 10
-334.901
 20
828.080
 30
0.000000
  70
    32
  0
VERTEX
  8
0
  5
CFA8
 10
-334.903
 20
828.078
 30
0.000000
  70
    32
  0
VERTEX
  8
0
  5
CFA9
 10
-334.905
 20
828.076
 30
0.000000
  70
    32
  0
VERTEX
  8
0
  5
CFAA
 10
-334.906
 20
828.074
 30
0.000000
  70
    32
  0
VERTEX
  8
0
  5
CFAB
 10
-334.908
 20
828.072
 30
0.000000
  70
    32
  0
VERTEX
  8
0
  5
CFAC
 10
-334.909
 20
828.070
 30
0.000000
  70
    32
  0
VERTEX
  8
0
  5
CFAD
 10
-334.911
 20
828.067
 30
0.000000
  70
    32
  0
VERTEX
  8
0
  5
CFAE
 10
-334.912
 20
828.065
 30
0.000000
  70
    32
  0
VERTEX
  8
0
  5
CFAF
 10
-334.914
 20
828.063
 30
0.000000
  70
    32
  0
VERTEX
  8
0
  5
CFB0
 10
-334.916
 20
828.061
 30
0.000000
  70
    32
  0
VERTEX
  8
0
  5
CFB1
 10
-334.917
 20
828.059
 30
0.000000
  70
    32
  0
VERTEX
  8
0
  5
CFB2
 10
-334.919
 20
828.057
 30
0.000000
  70
    32
  0
VERTEX
  8
0
  5
CFB3
 10
-334.920
 20
828.055
 30
0.000000
  70
    32
  0
VERTEX
  8
0
  5
CFB4
 10
-334.922
 20
828.053
 30
0.000000
  70
    32
  0
VERTEX
  8
0
  5
CFB5
 10
-334.923
 20
828.050
 30
0.000000
  70
    32
  0
VERTEX
  8
0
  5
CFB6
 10
-334.924
 20
828.048
 30
0.000000
  70
    32
  0
VERTEX
  8
0
  5
CFB7
 10
-334.926
 20
828.046
 30
0.000000
  70
    32
  0
VERTEX
  8
0
  5
CFB8
 10
-334.927
 20
828.044
 30
0.000000
  70
    32
  0
VERTEX
  8
0
  5
CFB9
 10
-334.929
 20
828.042
 30
0.000000
  70
    32
  0
VERTEX
  8
0
  5
CFBA
 10
-334.930
 20
828.040
 30
0.000000
  70
    32
  0
VERTEX
  8
0
  5
CFBB
 10
-334.932
 20
828.037
 30
0.000000
  70
    32
  0
VERTEX
  8
0
  5
CFBC
 10
-334.933
 20
828.035
 30
0.000000
  70
    32
  0
VERTEX
  8
0
  5
CFBD
 10
-334.934
 20
828.033
 30
0.000000
  70
    32
  0
VERTEX
  8
0
  5
CFBE
 10
-334.936
 20
828.031
 30
0.000000
  70
    32
  0
VERTEX
  8
0
  5
CFBF
 10
-334.937
 20
828.028
 30
0.000000
  70
    32
  0
VERTEX
  8
0
  5
CFC0
 10
-334.938
 20
828.026
 30
0.000000
  70
    32
  0
VERTEX
  8
0
  5
CFC1
 10
-334.940
 20
828.024
 30
0.000000
  70
    32
  0
VERTEX
  8
0
  5
CFC2
 10
-334.941
 20
828.022
 30
0.000000
  70
    32
  0
VERTEX
  8
0
  5
CFC3
 10
-334.942
 20
828.019
 30
0.000000
  70
    32
  0
VERTEX
  8
0
  5
CFC4
 10
-334.944
 20
828.017
 30
0.000000
  70
    32
  0
VERTEX
  8
0
  5
CFC5
 10
-334.945
 20
828.015
 30
0.000000
  70
    32
  0
VERTEX
  8
0
  5
CFC6
 10
-334.946
 20
828.013
 30
0.000000
  70
    32
  0
VERTEX
  8
0
  5
CFC7
 10
-334.948
 20
828.010
 30
0.000000
  70
    32
  0
VERTEX
  8
0
  5
CFC8
 10
-334.949
 20
828.008
 30
0.000000
  70
    32
  0
VERTEX
  8
0
  5
CFC9
 10
-334.950
 20
828.006
 30
0.000000
  70
    32
  0
VERTEX
  8
0
  5
CFCA
 10
-334.952
 20
828.004
 30
0.000000
  70
    32
  0
VERTEX
  8
0
  5
CFCB
 10
-334.953
 20
828.001
 30
0.000000
  70
    32
  0
VERTEX
  8
0
  5
CFCC
 10
-334.954
 20
827.999
 30
0.000000
  70
    32
  0
VERTEX
  8
0
  5
CFCD
 10
-334.955
 20
827.997
 30
0.000000
  70
    32
  0
VERTEX
  8
0
  5
CFCE
 10
-334.957
 20
827.994
 30
0.000000
  70
    32
  0
VERTEX
  8
0
  5
CFCF
 10
-334.958
 20
827.992
 30
0.000000
  70
    32
  0
VERTEX
  8
0
  5
CFD0
 10
-334.959
 20
827.990
 30
0.000000
  70
    32
  0
VERTEX
  8
0
  5
CFD1
 10
-334.960
 20
827.987
 30
0.000000
  70
    32
  0
VERTEX
  8
0
  5
CFD2
 10
-334.962
 20
827.985
 30
0.000000
  70
    32
  0
VERTEX
  8
0
  5
CFD3
 10
-334.963
 20
827.983
 30
0.000000
  70
    32
  0
VERTEX
  8
0
  5
CFD4
 10
-334.964
 20
827.980
 30
0.000000
  70
    32
  0
VERTEX
  8
0
  5
CFD5
 10
-334.965
 20
827.978
 30
0.000000
  70
    32
  0
VERTEX
  8
0
  5
CFD6
 10
-334.967
 20
827.976
 30
0.000000
  70
    32
  0
VERTEX
  8
0
  5
CFD7
 10
-334.968
 20
827.973
 30
0.000000
  70
    32
  0
VERTEX
  8
0
  5
CFD8
 10
-334.969
 20
827.971
 30
0.000000
  70
    32
  0
VERTEX
  8
0
  5
CFD9
 10
-334.970
 20
827.969
 30
0.000000
  70
    32
  0
VERTEX
  8
0
  5
CFDA
 10
-334.971
 20
827.966
 30
0.000000
  70
    32
  0
VERTEX
  8
0
  5
CFDB
 10
-334.972
 20
827.964
 30
0.000000
  70
    32
  0
VERTEX
  8
0
  5
CFDC
 10
-334.974
 20
827.962
 30
0.000000
  70
    32
  0
VERTEX
  8
0
  5
CFDD
 10
-334.975
 20
827.959
 30
0.000000
  70
    32
  0
VERTEX
  8
0
  5
CFDE
 10
-334.976
 20
827.957
 30
0.000000
  70
    32
  0
VERTEX
  8
0
  5
CFDF
 10
-334.977
 20
827.955
 30
0.000000
  70
    32
  0
VERTEX
  8
0
  5
CFE0
 10
-334.978
 20
827.952
 30
0.000000
  70
    32
  0
VERTEX
  8
0
  5
CFE1
 10
-334.979
 20
827.950
 30
0.000000
  70
    32
  0
VERTEX
  8
0
  5
CFE2
 10
-334.981
 20
827.947
 30
0.000000
  70
    32
  0
VERTEX
  8
0
  5
CFE3
 10
-334.982
 20
827.945
 30
0.000000
  70
    32
  0
VERTEX
  8
0
  5
CFE4
 10
-334.983
 20
827.943
 30
0.000000
  70
    32
  0
VERTEX
  8
0
  5
CFE5
 10
-334.984
 20
827.940
 30
0.000000
  70
    32
  0
VERTEX
  8
0
  5
CFE6
 10
-334.985
 20
827.938
 30
0.000000
  70
    32
  0
VERTEX
  8
0
  5
CFE7
 10
-334.986
 20
827.935
 30
0.000000
  70
    32
  0
VERTEX
  8
0
  5
CFE8
 10
-334.987
 20
827.933
 30
0.000000
  70
    32
  0
VERTEX
  8
0
  5
CFE9
 10
-334.988
 20
827.931
 30
0.000000
  70
    32
  0
VERTEX
  8
0
  5
CFEA
 10
-334.989
 20
827.928
 30
0.000000
  70
    32
  0
VERTEX
  8
0
  5
CFEB
 10
-334.990
 20
827.926
 30
0.000000
  70
    32
  0
VERTEX
  8
0
  5
CFEC
 10
-334.992
 20
827.923
 30
0.000000
  70
    32
  0
VERTEX
  8
0
  5
CFED
 10
-334.993
 20
827.921
 30
0.000000
  70
    32
  0
VERTEX
  8
0
  5
CFEE
 10
-334.994
 20
827.918
 30
0.000000
  70
    32
  0
VERTEX
  8
0
  5
CFEF
 10
-334.995
 20
827.916
 30
0.000000
  70
    32
  0
VERTEX
  8
0
  5
CFF0
 10
-334.996
 20
827.914
 30
0.000000
  70
    32
  0
VERTEX
  8
0
  5
CFF1
 10
-334.997
 20
827.911
 30
0.000000
  70
    32
  0
VERTEX
  8
0
  5
CFF2
 10
-334.998
 20
827.909
 30
0.000000
  70
    32
  0
VERTEX
  8
0
  5
CFF3
 10
-334.999
 20
827.906
 30
0.000000
  70
    32
  0
VERTEX
  8
0
  5
CFF4
 10
-335.000
 20
827.904
 30
0.000000
  70
    32
  0
VERTEX
  8
0
  5
CFF5
 10
-335.001
 20
827.901
 30
0.000000
  70
    32
  0
VERTEX
  8
0
  5
CFF6
 10
-335.002
 20
827.899
 30
0.000000
  70
    32
  0
VERTEX
  8
0
  5
CFF7
 10
-335.002
 20
827.896
 30
0.000000
  70
    32
  0
VERTEX
  8
0
  5
CFF8
 10
-335.003
 20
827.894
 30
0.000000
  70
    32
  0
VERTEX
  8
0
  5
CFF9
 10
-335.004
 20
827.892
 30
0.000000
  70
    32
  0
VERTEX
  8
0
  5
CFFA
 10
-335.005
 20
827.889
 30
0.000000
  70
    32
  0
VERTEX
  8
0
  5
CFFB
 10
-335.006
 20
827.887
 30
0.000000
  70
    32
  0
VERTEX
  8
0
  5
CFFC
 10
-335.007
 20
827.884
 30
0.000000
  70
    32
  0
VERTEX
  8
0
  5
CFFD
 10
-335.008
 20
827.882
 30
0.000000
  70
    32
  0
VERTEX
  8
0
  5
CFFE
 10
-335.009
 20
827.879
 30
0.000000
  70
    32
  0
VERTEX
  8
0
  5
CFFF
 10
-335.010
 20
827.877
 30
0.000000
  70
    32
  0
VERTEX
  8
0
  5
D000
 10
-335.010
 20
827.874
 30
0.000000
  70
    32
  0
VERTEX
  8
0
  5
D001
 10
-335.011
 20
827.872
 30
0.000000
  70
    32
  0
VERTEX
  8
0
  5
D002
 10
-335.012
 20
827.869
 30
0.000000
  70
    32
  0
VERTEX
  8
0
  5
D003
 10
-335.013
 20
827.867
 30
0.000000
  70
    32
  0
VERTEX
  8
0
  5
D004
 10
-335.014
 20
827.864
 30
0.000000
  70
    32
  0
VERTEX
  8
0
  5
D005
 10
-335.014
 20
827.862
 30
0.000000
  70
    32
  0
VERTEX
  8
0
  5
D006
 10
-335.015
 20
827.859
 30
0.000000
  70
    32
  0
VERTEX
  8
0
  5
D007
 10
-335.016
 20
827.857
 30
0.000000
  70
    32
  0
VERTEX
  8
0
  5
D008
 10
-335.017
 20
827.854
 30
0.000000
  70
    32
  0
VERTEX
  8
0
  5
D009
 10
-335.017
 20
827.852
 30
0.000000
  70
    32
  0
VERTEX
  8
0
  5
D00A
 10
-335.018
 20
827.849
 30
0.000000
  70
    32
  0
VERTEX
  8
0
  5
D00B
 10
-335.019
 20
827.847
 30
0.000000
  70
    32
  0
VERTEX
  8
0
  5
D00C
 10
-335.019
 20
827.844
 30
0.000000
  70
    32
  0
VERTEX
  8
0
  5
D00D
 10
-335.020
 20
827.842
 30
0.000000
  70
    32
  0
VERTEX
  8
0
  5
D00E
 10
-335.021
 20
827.839
 30
0.000000
  70
    32
  0
VERTEX
  8
0
  5
D00F
 10
-335.021
 20
827.836
 30
0.000000
  70
    32
  0
VERTEX
  8
0
  5
D010
 10
-335.022
 20
827.834
 30
0.000000
  70
    32
  0
VERTEX
  8
0
  5
D011
 10
-335.022
 20
827.831
 30
0.000000
  70
    32
  0
VERTEX
  8
0
  5
D012
 10
-335.023
 20
827.829
 30
0.000000
  70
    32
  0
VERTEX
  8
0
  5
D013
 10
-335.024
 20
827.826
 30
0.000000
  70
    32
  0
VERTEX
  8
0
  5
D014
 10
-335.024
 20
827.824
 30
0.000000
  70
    32
  0
VERTEX
  8
0
  5
D015
 10
-335.025
 20
827.821
 30
0.000000
  70
    32
  0
VERTEX
  8
0
  5
D016
 10
-335.025
 20
827.819
 30
0.000000
  70
    32
  0
VERTEX
  8
0
  5
D017
 10
-335.026
 20
827.816
 30
0.000000
  70
    32
  0
VERTEX
  8
0
  5
D018
 10
-335.026
 20
827.813
 30
0.000000
  70
    32
  0
VERTEX
  8
0
  5
D019
 10
-335.027
 20
827.811
 30
0.000000
  70
    32
  0
VERTEX
  8
0
  5
D01A
 10
-335.027
 20
827.808
 30
0.000000
  70
    32
  0
VERTEX
  8
0
  5
D01B
 10
-335.027
 20
827.806
 30
0.000000
  70
    32
  0
VERTEX
  8
0
  5
D01C
 10
-335.028
 20
827.803
 30
0.000000
  70
    32
  0
VERTEX
  8
0
  5
D01D
 10
-335.028
 20
827.801
 30
0.000000
  70
    32
  0
VERTEX
  8
0
  5
D01E
 10
-335.029
 20
827.798
 30
0.000000
  70
    32
  0
VERTEX
  8
0
  5
D01F
 10
-335.029
 20
827.795
 30
0.000000
  70
    32
  0
SEQEND
  8
0
  5
D020
  0
LINE
  5
CE50
  8
0
 10
-336.5289570802471
 20
828.52628405149278
 30
0.0
 11
-335.02171220765388
 21
828.52628405149278
 31
0.0
  0
LINE
  5
CE51
  8
0
 10
-335.0289570802471
 20
827.79541043514132
 30
0.0
 11
-335.2789570802471
 21
827.79541043514132
 31
0.0
  0
LINE
  5
CE52
  8
0
 10
-335.2789570802471
 20
827.79541043514132
 30
0.0
 11
-335.7789570802471
 21
827.79541043514132
 31
0.0
  0
LINE
  5
CE53
  8
0
 10
-335.7789570802471
 20
827.79541043514132
 30
0.0
 11
-336.5289570802471
 21
827.79541043514132
 31
0.0
  0
LINE
  5
CE54
  8
0
 10
-336.5289570802471
 20
827.79541043514132
 30
0.0
 11
-336.5289570802471
 21
828.52628405149278
 31
0.0
  0
LINE
  5
CE55
  8
0
 10
-335.2789570802471
 20
827.10791043514143
 30
0.0
 11
-335.2789570802471
 21
827.79541043514132
 31
0.0
  0
LINE
  5
CE56
  8
0
 10
-335.4039570802471
 20
826.79541043514143
 30
0.0
 11
-335.7789570802471
 21
826.79541043514143
 31
0.0
  0
ARC
  5
CE57
  8
0
 10
-335.4039570802471
 20
826.92041043514143
 30
0.0
 40
0.125
 50
270.0
 51
90.0
  0
LINE
  5
CE58
  8
0
 10
-335.4039570802471
 20
827.10791043514143
 30
0.0
 11
-335.2789570802471
 21
827.10791043514143
 31
0.0
  0
LINE
  5
CE59
  8
0
 10
-335.4039570802471
 20
827.04541043514132
 30
0.0
 11
-335.4039570802471
 21
827.10791043514143
 31
0.0
  0
LINE
  5
CE5A
  8
0
 10
-335.7789570802471
 20
826.79541043514143
 30
0.0
 11
-335.7789570802471
 21
827.79541043514132
 31
0.0
  0
LINE
  5
CE5B
  8
0
 10
-335.2789570802471
 20
827.79541043514132
 30
0.0
 11
-335.7789570802471
 21
827.79541043514132
 31
0.0
  0
INSERT
  5
CE64
  8
0
  2
*U10
 10
0.0
 20
0.0
 30
0.0
  0
VIEWPORT
  5
BADA
 67
     1
  8
0
 10
5.1401075230823237
 20
3.9491324490549111
 30
0.0
 40
16.258967836944109
 41
10.75511445632689
 68
     1
 69
     1
1001
ACAD
1000
MVIEW
1002
{
1070
    16
1010
0.0
1020
0.0
1030
0.0
1010
0.0
1020
0.0
1030
1.0
1040
0.0
1040
10.75511445632689
1040
5.1401075230823237
1040
3.9491324490549111
1040
50.0
1040
0.0
1040
0.0
1070
     0
1070
   100
1070
     1
1070
     1
1070
     0
1070
     0
1070
     0
1070
     0
1040
0.0
1040
0.0
1040
0.0
1040
0.5
1040
0.5
1040
0.5
1040
0.5
1070
     0
1002
{
1002
}
1002
}
  0
VIEWPORT
  5
BADD
 67
     1
  8
0
 10
5.2499996294871929
 20
4.0166741807634683
 30
0.0
 40
10.44245679893058
 41
7.8813805131999892
 68
     2
 69
     2
1001
ACAD
1000
MVIEW
1002
{
1070
    16
1010
0.0
1020
0.0
1030
0.0
1010
0.0
1020
0.0
1030
1.0
1040
0.0
1040
7.8813805245831716
1040
-334.47098888952712
1040
827.61599418741207
1040
50.0
1040
0.0
1040
0.0
1070
     0
1070
   100
1070
     1
1070
     2
1070
     0
1070
     0
1070
     0
1070
     0
1040
0.0
1040
0.0
1040
0.0
1040
0.5
1040
0.5
1040
0.5
1040
0.5
1070
     0
1002
{
1002
}
1002
}
  0
ENDSEC
  0
EOF
