  0
SECTION
  2
HEADER
  9
$ACADVER
  1
AC1009
  9
$INSBASE
 10
0.0
 20
0.0
 30
0.0
  9
$EXTMIN
 10
-352.53276109413048
 20
837.00946870582754
 30
0.0
  9
$EXTMAX
 10
-346.20736733759571
 20
838.66485146853665
 30
0.0
  9
$LIMMIN
 10
0.0
 20
0.0
  9
$LIMMAX
 10
1500.0
 20
1500.0
  9
$ORTHOMODE
 70
     1
  9
$REGENMODE
 70
     1
  9
$FILLMODE
 70
     1
  9
$QTEXTMODE
 70
     0
  9
$MIRRTEXT
 70
     1
  9
$DRAGMODE
 70
     2
  9
$LTSCALE
 40
1.0
  9
$OSMODE
 70
    63
  9
$ATTMODE
 70
     1
  9
$TEXTSIZE
 40
1.5
  9
$TRACEWID
 40
0.05
  9
$TEXTSTYLE
  7
STANDARD
  9
$CLAYER
  8
0
  9
$CELTYPE
  6
BYLAYER
  9
$CECOLOR
 62
   256
  9
$DIMSCALE
 40
1.0
  9
$DIMASZ
 40
0.75
  9
$DIMEXO
 40
1.5
  9
$DIMDLI
 40
2.0
  9
$DIMRND
 40
0.0
  9
$DIMDLE
 40
0.0
  9
$DIMEXE
 40
1.0
  9
$DIMTP
 40
0.0
  9
$DIMTM
 40
0.0
  9
$DIMTXT
 40
1.5
  9
$DIMCEN
 40
2.0
  9
$DIMTSZ
 40
0.0
  9
$DIMTOL
 70
     0
  9
$DIMLIM
 70
     0
  9
$DIMTIH
 70
     0
  9
$DIMTOH
 70
     0
  9
$DIMSE1
 70
     0
  9
$DIMSE2
 70
     0
  9
$DIMTAD
 70
     1
  9
$DIMZIN
 70
     0
  9
$DIMBLK
  1
ARCHTICK
  9
$DIMASO
 70
     1
  9
$DIMSHO
 70
     1
  9
$DIMPOST
  1
"
  9
$DIMAPOST
  1

  9
$DIMALT
 70
     0
  9
$DIMALTD
 70
     2
  9
$DIMALTF
 40
25.399999999999999
  9
$DIMLFAC
 40
1.0
  9
$DIMTOFL
 70
     0
  9
$DIMTVP
 40
0.0
  9
$DIMTIX
 70
     1
  9
$DIMSOXD
 70
     0
  9
$DIMSAH
 70
     0
  9
$DIMBLK1
  1

  9
$DIMBLK2
  1

  9
$DIMSTYLE
  2
THREE_QUARTER_INCH_SCALE
  9
$DIMCLRD
 70
     0
  9
$DIMCLRE
 70
     0
  9
$DIMCLRT
 70
     0
  9
$DIMTFAC
 40
1.0
  9
$DIMGAP
 40
1.0
  9
$LUNITS
 70
     2
  9
$LUPREC
 70
     4
  9
$SKETCHINC
 40
0.1
  9
$FILLETRAD
 40
0.0
  9
$AUNITS
 70
     0
  9
$AUPREC
 70
     0
  9
$MENU
  1
.
  9
$ELEVATION
 40
0.0
  9
$PELEVATION
 40
0.0
  9
$THICKNESS
 40
0.0
  9
$LIMCHECK
 70
     0
  9
$BLIPMODE
 70
     0
  9
$CHAMFERA
 40
0.5
  9
$CHAMFERB
 40
0.5
  9
$SKPOLY
 70
     0
  9
$TDCREATE
 40
2452089.395738773
  9
$TDUPDATE
 40
2453986.6764910072
  9
$TDINDWG
 40
0.9936978241
  9
$TDUSRTIMER
 40
0.9936978241
  9
$USRTIMER
 70
     1
  9
$ANGBASE
 50
0.0
  9
$ANGDIR
 70
     0
  9
$PDMODE
 70
     0
  9
$PDSIZE
 40
10.0
  9
$PLINEWID
 40
0.0
  9
$COORDS
 70
     0
  9
$SPLFRAME
 70
     0
  9
$SPLINETYPE
 70
     6
  9
$SPLINESEGS
 70
     8
  9
$ATTDIA
 70
     0
  9
$ATTREQ
 70
     1
  9
$HANDLING
 70
     1
  9
$HANDSEED
  5
CF17
  9
$SURFTAB1
 70
     6
  9
$SURFTAB2
 70
     6
  9
$SURFTYPE
 70
     6
  9
$SURFU
 70
     6
  9
$SURFV
 70
     6
  9
$UCSNAME
  2

  9
$UCSORG
 10
0.0
 20
0.0
 30
0.0
  9
$UCSXDIR
 10
1.0
 20
0.0
 30
0.0
  9
$UCSYDIR
 10
0.0
 20
1.0
 30
0.0
  9
$PUCSNAME
  2

  9
$PUCSORG
 10
0.0
 20
0.0
 30
0.0
  9
$PUCSXDIR
 10
1.0
 20
0.0
 30
0.0
  9
$PUCSYDIR
 10
0.0
 20
1.0
 30
0.0
  9
$USERI1
 70
     0
  9
$USERI2
 70
     0
  9
$USERI3
 70
     0
  9
$USERI4
 70
     0
  9
$USERI5
 70
     0
  9
$USERR1
 40
0.0
  9
$USERR2
 40
0.0
  9
$USERR3
 40
0.0
  9
$USERR4
 40
0.0
  9
$USERR5
 40
0.0
  9
$WORLDVIEW
 70
     1
  9
$SHADEDGE
 70
     3
  9
$SHADEDIF
 70
    70
  9
$TILEMODE
 70
     0
  9
$MAXACTVP
 70
    64
  9
$PLIMCHECK
 70
     0
  9
$PEXTMIN
 10
0.0287712300219028
 20
0.0759839241634737
 30
0.0
  9
$PEXTMAX
 10
10.47122802895248
 20
7.957364437363462
 30
0.0
  9
$PLIMMIN
 10
-0.2500002402958907
 20
-0.2499999962453767
  9
$PLIMMAX
 10
10.74999951940821
 20
8.2499997634587316
  9
$UNITMODE
 70
     0
  9
$VISRETAIN
 70
     1
  9
$PLINEGEN
 70
     0
  9
$PSLTSCALE
 70
     1
  0
ENDSEC
  0
SECTION
  2
TABLES
  0
TABLE
  2
VPORT
 70
     2
  0
VPORT
  2
*ACTIVE
 70
     0
 10
0.0
 20
0.0
 11
1.0
 21
1.0
 12
-349.7951305553658
 22
837.644475280611
 13
0.0
 23
0.0
 14
0.5
 24
0.5
 15
0.5
 25
0.5
 16
0.0
 26
0.0
 36
1.0
 17
0.0
 27
0.0
 37
0.0
 40
6.0520275279349152
 41
1.511742892459826
 42
50.0
 43
0.0
 44
0.0
 50
0.0
 51
0.0
 71
     0
 72
   100
 73
     1
 74
     2
 75
     0
 76
     0
 77
     0
 78
     0
  0
ENDTAB
  0
TABLE
  2
LTYPE
 70
     1
  0
LTYPE
  2
CONTINUOUS
 70
     0
  3
Solid line
 72
    65
 73
     0
 40
0.0
  0
ENDTAB
  0
TABLE
  2
LAYER
 70
    10
  0
LAYER
  2
0
 70
     0
 62
     7
  6
CONTINUOUS
  0
LAYER
  2
DEFPOINTS
 70
     0
 62
     7
  6
CONTINUOUS
  0
LAYER
  2
FRAME_200
 70
     0
 62
     8
  6
CONTINUOUS
  0
LAYER
  2
FRAME_070
 70
     0
 62
     5
  6
CONTINUOUS
  0
LAYER
  2
FRAME_050
 70
     0
 62
     6
  6
CONTINUOUS
  0
LAYER
  2
TITLE_BLOCK
 70
     0
 62
     7
  6
CONTINUOUS
  0
LAYER
  2
FRAME_025
 70
     0
 62
     7
  6
CONTINUOUS
  0
LAYER
  2
VIEWPORT
 70
     0
 62
     7
  6
CONTINUOUS
  0
LAYER
  2
PROF
 70
     0
 62
     7
  6
CONTINUOUS
  0
LAYER
  2
PROFILE
 70
     0
 62
     7
  6
CONTINUOUS
  0
ENDTAB
  0
TABLE
  2
STYLE
 70
     2
  0
STYLE
  2
STANDARD
 70
     0
 40
0.0
 41
1.0
 50
0.0
 71
     0
 42
1.5
  3
txt
  4

  0
STYLE
  2
ISO_PROPORTIONAL
 70
     0
 40
0.0
 41
1.0
 50
0.0
 71
     0
 42
2.5
  3
isocp.shx
  4

  0
ENDTAB
  0
TABLE
  2
VIEW
 70
     1
  0
ENDTAB
  0
TABLE
  2
UCS
 70
     0
  0
ENDTAB
  0
TABLE
  2
APPID
 70
     6
  0
APPID
  2
ACAD
 70
     0
  0
APPID
  2
DCO15
 70
     0
  0
APPID
  2
ACAD_EXEMPT_FROM_CAD_STANDARDS
 70
     0
  0
APPID
  2
ACAD_PSEXT
 70
     0
  0
APPID
  2
CONTENTBLOCKDESCRIPTION
 70
     0
  0
APPID
  2
CONTENTBLOCKICON
 70
     0
  0
ENDTAB
  0
TABLE
  2
DIMSTYLE
 70
     5
  0
DIMSTYLE
  2
FULL_SCALE
 70
     0
  3
"
  4

  5
ARCHTICK
  6

  7

 40
1.0
 41
0.046875
 42
0.09375
 43
0.125
 44
0.0625
 45
0.0
 46
0.0
 47
0.0
 48
0.0
140
0.125
141
0.125
142
0.0
143
25.399999999999999
144
1.0
145
0.0
146
1.0
147
0.0625
 71
     0
 72
     0
 73
     0
 74
     0
 75
     0
 76
     0
 77
     1
 78
     0
170
     0
171
     2
172
     0
173
     0
174
     1
175
     0
176
     0
177
     0
178
     0
  0
DIMSTYLE
  2
HALF_SCALE
 70
     0
  3
"
  4

  5
ARCHTICK
  6

  7

 40
1.0
 41
0.09375
 42
0.1875
 43
0.25
 44
0.125
 45
0.0
 46
0.0
 47
0.0
 48
0.0
140
0.25
141
0.25
142
0.0
143
25.399999999999999
144
1.0
145
0.0
146
1.0
147
0.125
 71
     0
 72
     0
 73
     0
 74
     0
 75
     0
 76
     0
 77
     1
 78
     0
170
     0
171
     2
172
     0
173
     0
174
     1
175
     0
176
     0
177
     0
178
     0
  0
DIMSTYLE
  2
INCH_SCALE
 70
     0
  3
"
  4

  5
ARCHTICK
  6

  7

 40
1.0
 41
0.5625
 42
1.125
 43
1.5
 44
0.75
 45
0.0
 46
0.0
 47
0.0
 48
0.0
140
1.125
141
1.5
142
0.0
143
25.399999999999999
144
1.0
145
0.0
146
1.0
147
0.75
 71
     0
 72
     0
 73
     0
 74
     0
 75
     0
 76
     0
 77
     1
 78
     0
170
     0
171
     2
172
     0
173
     0
174
     1
175
     0
176
     0
177
     0
178
     0
  0
DIMSTYLE
  2
THREE_QUARTER_INCH_SCALE
 70
     0
  3
"
  4

  5
ARCHTICK
  6

  7

 40
1.0
 41
0.75
 42
1.5
 43
2.0
 44
1.0
 45
0.0
 46
0.0
 47
0.0
 48
0.0
140
1.5
141
2.0
142
0.0
143
25.399999999999999
144
1.0
145
0.0
146
1.0
147
1.0
 71
     0
 72
     0
 73
     0
 74
     0
 75
     0
 76
     0
 77
     1
 78
     0
170
     0
171
     2
172
     0
173
     0
174
     1
175
     0
176
     0
177
     0
178
     0
  0
DIMSTYLE
  2
ZHALF_INCH_SCALE
 70
     0
  3
"
  4

  5
ARCHTICK
  6

  7

 40
1.0
 41
1.125
 42
2.25
 43
3.0
 44
1.5
 45
0.0
 46
0.0
 47
0.0
 48
0.0
140
2.25
141
3.0
142
0.0
143
25.399999999999999
144
1.0
145
0.0
146
1.0
147
1.5
 71
     0
 72
     0
 73
     0
 74
     0
 75
     0
 76
     0
 77
     1
 78
     0
170
     0
171
     2
172
     0
173
     0
174
     1
175
     0
176
     0
177
     0
178
     0
  0
ENDTAB
  0
ENDSEC
  0
SECTION
  2
BLOCKS
  0
BLOCK
  8
0
  2
$MODEL_SPACE
 70
     0
 10
0.0
 20
0.0
 30
0.0
  3
$MODEL_SPACE
  1

  0
ENDBLK
  5
21
  8
0
  0
BLOCK
 67
     1
  8
0
  2
$PAPER_SPACE
 70
     0
 10
0.0
 20
0.0
 30
0.0
  3
$PAPER_SPACE
  1

  0
ENDBLK
  5
BAD5
 67
     1
  8
0
  0
BLOCK
  8
0
  2
_ARCHTICK
 70
     0
 10
0.0
 20
0.0
 30
0.0
  3
_ARCHTICK
  1

  0
POLYLINE
  5
158
  8
0
  6
BYBLOCK
 62
     0
 66
     1
 10
0.0
 20
0.0
 30
0.0
 40
0.15
 41
0.15
  0
VERTEX
  5
CDFB
  8
0
  6
BYBLOCK
 62
     0
 10
-0.5
 20
-0.5
 30
0.0
  0
VERTEX
  5
CDFC
  8
0
  6
BYBLOCK
 62
     0
 10
0.5
 20
0.5
 30
0.0
  0
SEQEND
  5
CDFD
  8
0
  6
BYBLOCK
 62
     0
  0
ENDBLK
  5
15A
  8
0
  0
BLOCK
  8
0
  2
_OPEN30
 70
     0
 10
0.0
 20
0.0
 30
0.0
  3
_OPEN30
  1

  0
LINE
  5
15C
  8
0
  6
BYBLOCK
 62
     0
 10
-1.0
 20
0.26794919
 30
0.0
 11
0.0
 21
0.0
 31
0.0
  0
LINE
  5
15D
  8
0
  6
BYBLOCK
 62
     0
 10
0.0
 20
0.0
 30
0.0
 11
-1.0
 21
-0.26794919
 31
0.0
  0
LINE
  5
15E
  8
0
  6
BYBLOCK
 62
     0
 10
0.0
 20
0.0
 30
0.0
 11
-1.0
 21
0.0
 31
0.0
  0
ENDBLK
  5
160
  8
0
  0
BLOCK
  8
0
  2
ISO_A2_TITLE_BLOCK
 70
     2
 10
0.0
 20
0.0
 30
0.0
  3
ISO_A2_TITLE_BLOCK
  1

  0
LINE
  5
BDD
  8
FRAME_050
 10
299.5
 20
12.5
 30
0.0
 11
297.0
 21
7.5
 31
0.0
  0
LINE
  5
BDE
  8
FRAME_050
 10
294.5
 20
12.5
 30
0.0
 11
299.5
 21
12.5
 31
0.0
  0
LINE
  5
BDF
  8
FRAME_050
 10
247.0
 20
5.0
 30
0.0
 11
347.0
 21
5.0
 31
0.0
  0
LINE
  5
BE0
  8
FRAME_070
 10
584.0
 20
410.0
 30
0.0
 11
10.0
 21
410.0
 31
0.0
  0
LINE
  5
BE1
  8
FRAME_070
 10
10.0
 20
10.0
 30
0.0
 11
584.0
 21
10.0
 31
0.0
  0
LINE
  5
BE2
  8
FRAME_050
 10
12.5
 20
207.5
 30
0.0
 11
7.5
 21
210.0
 31
0.0
  0
LINE
  5
BE3
  8
FRAME_050
 10
12.5
 20
212.5
 30
0.0
 11
12.5
 21
207.5
 31
0.0
  0
LINE
  5
BE4
  8
FRAME_070
 10
10.0
 20
410.0
 30
0.0
 11
10.0
 21
10.0
 31
0.0
  0
LINE
  5
BE5
  8
FRAME_200
 10
0.0
 20
0.0
 30
0.0
 11
0.0
 21
10.0
 31
0.0
  0
LINE
  5
BE6
  8
FRAME_200
 10
0.0
 20
0.0
 30
0.0
 11
10.0
 21
0.0
 31
0.0
  0
TEXT
  5
BE7
  8
FRAME_050
 10
5.9000000000000004
 20
35.0
 30
0.0
 40
4.0
  1
H
  7
ISO_PROPORTIONAL
 72
     4
 11
7.5
 21
37.0
 31
0.0
  0
LINE
  5
BE8
  8
FRAME_050
 10
10.0
 20
60.0
 30
0.0
 11
5.0
 21
60.0
 31
0.0
  0
LINE
  5
BE9
  8
FRAME_050
 10
81.75
 20
5.0
 30
0.0
 11
81.75
 21
10.0
 31
0.0
  0
TEXT
  5
BEA
  8
FRAME_050
 10
44.874999999999993
 20
5.5
 30
0.0
 40
4.0
  1
1
  7
ISO_PROPORTIONAL
 72
     4
 11
45.875
 21
7.5
 31
0.0
  0
TEXT
  5
BEB
  8
FRAME_050
 10
6.0035533905932743
 20
85.0
 30
0.0
 40
4.0
  1
G
  7
ISO_PROPORTIONAL
 72
     4
 11
7.5
 21
87.0
 31
0.0
  0
LINE
  5
BEC
  8
FRAME_050
 10
10.0
 20
110.0
 30
0.0
 11
5.0
 21
110.0
 31
0.0
  0
TEXT
  5
BED
  8
FRAME_050
 10
6.0999999999999988
 20
135.0
 30
0.0
 40
4.0
  1
F
  7
ISO_PROPORTIONAL
 72
     4
 11
7.5
 21
137.0
 31
0.0
  0
LINE
  5
BEE
  8
FRAME_050
 10
10.0
 20
160.0
 30
0.0
 11
5.0
 21
160.0
 31
0.0
  0
TEXT
  5
BEF
  8
FRAME_050
 10
6.0999999999999988
 20
185.0
 30
0.0
 40
4.0
  1
E
  7
ISO_PROPORTIONAL
 72
     4
 11
7.5
 21
187.0
 31
0.0
  0
LINE
  5
BF0
  8
FRAME_050
 10
153.5
 20
5.0
 30
0.0
 11
153.5
 21
10.0
 31
0.0
  0
TEXT
  5
BF1
  8
FRAME_050
 10
116.1556692913386
 20
5.3996062992125982
 30
0.0
 40
4.0
  1
2
  7
ISO_PROPORTIONAL
 72
     4
 11
117.625
 21
7.5
 31
0.0
  0
TEXT
  5
BF2
  8
FRAME_050
 10
187.89215728752529
 20
5.5828427124746138
 30
0.0
 40
4.0
  1
3
  7
ISO_PROPORTIONAL
 72
     4
 11
189.375
 21
7.5
 31
0.0
  0
LINE
  5
BF3
  8
FRAME_050
 10
225.25
 20
5.0
 30
0.0
 11
225.25
 21
10.0
 31
0.0
  0
LINE
  5
BF4
  8
FRAME_050
 10
297.0
 20
7.5
 30
0.0
 11
294.5
 21
12.5
 31
0.0
  0
LINE
  5
BF5
  8
FRAME_050
 10
287.0
 20
5.0
 30
0.0
 11
287.0
 21
10.0
 31
0.0
  0
LINE
  5
BF6
  8
FRAME_050
 10
277.0
 20
5.0
 30
0.0
 11
277.0
 21
10.0
 31
0.0
  0
LINE
  5
BF7
  8
FRAME_050
 10
267.0
 20
5.0
 30
0.0
 11
267.0
 21
10.0
 31
0.0
  0
LINE
  5
BF8
  8
FRAME_050
 10
257.0
 20
5.0
 30
0.0
 11
257.0
 21
10.0
 31
0.0
  0
LINE
  5
BF9
  8
FRAME_050
 10
247.0
 20
5.0
 30
0.0
 11
247.0
 21
10.0
 31
0.0
  0
LINE
  5
BFA
  8
FRAME_050
 10
297.0
 20
10.0
 30
0.0
 11
297.0
 21
5.0
 31
0.0
  0
LINE
  5
BFB
  8
FRAME_050
 10
297.0
 20
10.0
 30
0.0
 11
297.0
 21
15.0
 31
0.0
  0
LINE
  5
BFC
  8
FRAME_050
 10
5.0
 20
210.0
 30
0.0
 11
15.0
 21
210.0
 31
0.0
  0
LINE
  5
BFD
  8
FRAME_050
 10
7.5
 20
210.0
 30
0.0
 11
12.5
 21
212.5
 31
0.0
  0
TEXT
  5
BFE
  8
FRAME_050
 10
5.7860912703473977
 20
235.0
 30
0.0
 40
4.0
  1
D
  7
ISO_PROPORTIONAL
 72
     4
 11
7.5
 21
237.0
 31
0.0
  0
LINE
  5
BFF
  8
FRAME_050
 10
10.0
 20
260.0
 30
0.0
 11
5.0
 21
260.0
 31
0.0
  0
TEXT
  5
C00
  8
FRAME_050
 10
6.1931980515339466
 20
285.0
 30
0.0
 40
4.0
  1
C
  7
ISO_PROPORTIONAL
 72
     4
 11
7.5
 21
287.0
 31
0.0
  0
LINE
  5
C01
  8
FRAME_050
 10
10.0
 20
310.0
 30
0.0
 11
5.0
 21
310.0
 31
0.0
  0
TEXT
  5
C02
  8
FRAME_050
 10
5.8999999999999959
 20
335.0
 30
0.0
 40
4.0
  1
B
  7
ISO_PROPORTIONAL
 72
     4
 11
7.5
 21
337.0
 31
0.0
  0
LINE
  5
C03
  8
FRAME_050
 10
10.0
 20
360.0
 30
0.0
 11
5.0
 21
360.0
 31
0.0
  0
TEXT
  5
C04
  8
FRAME_050
 10
5.6999999999999993
 20
385.0
 30
0.0
 40
4.0
  1
A
  7
ISO_PROPORTIONAL
 72
     4
 11
7.5
 21
387.0
 31
0.0
  0
LINE
  5
C05
  8
FRAME_200
 10
10.0
 20
420.0
 30
0.0
 11
0.0
 21
420.0
 31
0.0
  0
LINE
  5
C06
  8
FRAME_200
 10
0.0
 20
420.0
 30
0.0
 11
0.0
 21
410.0
 31
0.0
  0
TEXT
  5
C07
  8
FRAME_050
 10
44.874999999999993
 20
410.5
 30
0.0
 40
4.0
  1
1
  7
ISO_PROPORTIONAL
 72
     4
 11
45.875
 21
412.5
 31
0.0
  0
LINE
  5
C08
  8
FRAME_050
 10
81.75
 20
410.0
 30
0.0
 11
81.75
 21
415.0
 31
0.0
  0
TEXT
  5
C09
  8
FRAME_050
 10
116.1556692913386
 20
410.39960629921262
 30
0.0
 40
4.0
  1
2
  7
ISO_PROPORTIONAL
 72
     4
 11
117.625
 21
412.5
 31
0.0
  0
LINE
  5
C0A
  8
FRAME_050
 10
153.5
 20
410.0
 30
0.0
 11
153.5
 21
415.0
 31
0.0
  0
TEXT
  5
C0B
  8
FRAME_050
 10
187.89215728752529
 20
410.58284271247459
 30
0.0
 40
4.0
  1
3
  7
ISO_PROPORTIONAL
 72
     4
 11
189.375
 21
412.5
 31
0.0
  0
LINE
  5
C0C
  8
FRAME_050
 10
297.0
 20
405.0
 30
0.0
 11
297.0
 21
415.0
 31
0.0
  0
LINE
  5
C0D
  8
FRAME_050
 10
225.25
 20
410.0
 30
0.0
 11
225.25
 21
415.0
 31
0.0
  0
TEXT
  5
C0E
  8
FRAME_050
 10
259.52499999999998
 20
410.5
 30
0.0
 40
4.0
  1
4
  7
ISO_PROPORTIONAL
 72
     4
 11
261.125
 21
412.5
 31
0.0
  0
LINE
  5
C0F
  8
FRAME_070
 10
584.0
 20
10.0
 30
0.0
 11
584.0
 21
410.0
 31
0.0
  0
ATTDEF
  5
C10
  8
FRAME_025
 10
473.0
 20
31.75
 30
0.0
 40
2.5
  1
XXX - 00/00/00
  7
ISO_PROPORTIONAL
 11
473.0
 21
33.0
 31
0.0
  3
Approved by - Date
  2
APPROVED_BY_DATE
 70
     8
 74
     2
  0
TEXT
  5
C11
  8
FRAME_025
 10
448.0
 20
41.749999999999993
 30
0.0
 40
2.5
  1
Title/Name, designation, material, dimension etc
  7
ISO_PROPORTIONAL
 11
448.0
 21
43.0
 31
0.0
 73
     2
  0
TEXT
  5
C12
  8
FRAME_025
 10
473.0
 20
35.75
 30
0.0
 40
2.5
  1
Approved by - date
  7
ISO_PROPORTIONAL
 11
473.0
 21
37.0
 31
0.0
 73
     2
  0
LINE
  5
C13
  8
FRAME_070
 10
414.0
 20
46.0
 30
0.0
 11
584.0
 21
46.0
 31
0.0
  0
LINE
  5
C14
  8
FRAME_070
 10
414.0
 20
40.0
 30
0.0
 11
584.0
 21
40.0
 31
0.0
  0
LINE
  5
C15
  8
FRAME_070
 10
414.0
 20
30.0
 30
0.0
 11
584.0
 21
30.0
 31
0.0
  0
LINE
  5
C16
  8
FRAME_050
 10
368.75
 20
5.0
 30
0.0
 11
368.75
 21
10.0
 31
0.0
  0
LINE
  5
C17
  8
FRAME_050
 10
337.0
 20
5.0
 30
0.0
 11
337.0
 21
10.0
 31
0.0
  0
LINE
  5
C18
  8
FRAME_050
 10
327.0
 20
5.0
 30
0.0
 11
327.0
 21
10.0
 31
0.0
  0
LINE
  5
C19
  8
FRAME_050
 10
317.0
 20
5.0
 30
0.0
 11
317.0
 21
10.0
 31
0.0
  0
LINE
  5
C1A
  8
FRAME_050
 10
307.0
 20
5.0
 30
0.0
 11
307.0
 21
10.0
 31
0.0
  0
LINE
  5
C1B
  8
FRAME_050
 10
347.0
 20
5.0
 30
0.0
 11
347.0
 21
10.0
 31
0.0
  0
LINE
  5
C1C
  8
FRAME_050
 10
440.5
 20
5.0
 30
0.0
 11
440.5
 21
10.0
 31
0.0
  0
TEXT
  5
C1D
  8
FRAME_050
 10
403.24547244094481
 20
5.4102362204724406
 30
0.0
 40
4.0
  1
6
  7
ISO_PROPORTIONAL
 72
     4
 11
404.62499999999989
 21
7.5
 31
0.0
  0
TEXT
  5
C1E
  8
FRAME_050
 10
474.97500000000002
 20
5.5
 30
0.0
 40
4.0
  1
7
  7
ISO_PROPORTIONAL
 72
     4
 11
476.37499999999989
 21
7.5
 31
0.0
  0
TEXT
  5
C1F
  8
FRAME_025
 10
431.0
 20
41.749999999999993
 30
0.0
 40
2.5
  1
Quantity
  7
ISO_PROPORTIONAL
 11
431.0
 21
43.0
 31
0.0
 73
     2
  0
TEXT
  5
C20
  8
FRAME_025
 10
416.0
 20
41.749999999999993
 30
0.0
 40
2.5
  1
Itemref
  7
ISO_PROPORTIONAL
 11
416.0
 21
43.0
 31
0.0
 73
     2
  0
LINE
  5
C21
  8
FRAME_070
 10
414.0
 20
40.0
 30
0.0
 11
414.0
 21
46.0
 31
0.0
  0
LINE
  5
C22
  8
FRAME_070
 10
429.0
 20
40.0
 30
0.0
 11
429.0
 21
46.0
 31
0.0
  0
LINE
  5
C23
  8
FRAME_070
 10
414.0
 20
10.0
 30
0.0
 11
414.0
 21
40.0
 31
0.0
  0
ATTDEF
  5
C24
  8
FRAME_025
 10
416.0
 20
31.75
 30
0.0
 40
2.5
  1
XXX
  7
ISO_PROPORTIONAL
 11
416.0
 21
33.0
 31
0.0
  3
Designed by
  2
DESIGNED_BY
 70
     8
 74
     2
  0
TEXT
  5
C25
  8
FRAME_025
 10
416.0
 20
35.75
 30
0.0
 40
2.5
  1
Designed by
  7
ISO_PROPORTIONAL
 11
416.0
 21
37.0
 31
0.0
 73
     2
  0
LINE
  5
C26
  8
FRAME_070
 10
446.0
 20
40.0
 30
0.0
 11
446.0
 21
46.0
 31
0.0
  0
ATTDEF
  5
C27
  8
FRAME_025
 10
448.0
 20
31.75
 30
0.0
 40
2.5
  1
XXX
  7
ISO_PROPORTIONAL
 11
448.0
 21
33.0
 31
0.0
  3
Checked by
  2
CHECKED_BY
 70
     8
 74
     2
  0
TEXT
  5
C28
  8
FRAME_025
 10
448.0
 20
35.75
 30
0.0
 40
2.5
  1
Checked by
  7
ISO_PROPORTIONAL
 11
448.0
 21
37.0
 31
0.0
 73
     2
  0
ATTDEF
  5
C29
  8
FRAME_050
 10
444.74999999999989
 20
17.5
 30
0.0
 40
5.0
  1
XXX
  7
ISO_PROPORTIONAL
 72
     4
 11
451.49999999999989
 21
20.0
 31
0.0
  3
Owner
  2
OWNER
 70
     8
  0
LINE
  5
C2A
  8
FRAME_070
 10
446.0
 20
30.0
 30
0.0
 11
446.0
 21
40.0
 31
0.0
  0
LINE
  5
C2B
  8
FRAME_070
 10
471.0
 20
30.0
 30
0.0
 11
471.0
 21
40.0
 31
0.0
  0
LINE
  5
C2C
  8
FRAME_070
 10
489.0
 20
20.0
 30
0.0
 11
584.0
 21
20.0
 31
0.0
  0
LINE
  5
C2D
  8
FRAME_050
 10
512.25
 20
5.0
 30
0.0
 11
512.25
 21
10.0
 31
0.0
  0
TEXT
  5
C2E
  8
FRAME_050
 10
546.72499999999991
 20
5.5
 30
0.0
 40
4.0
  1
8
  7
ISO_PROPORTIONAL
 72
     4
 11
548.125
 21
7.5
 31
0.0
  0
ATTDEF
  5
C2F
  8
FRAME_050
 10
517.64999999999986
 20
13.5
 30
0.0
 40
3.0
  1
X
  7
ISO_PROPORTIONAL
 72
     4
 11
519.0
 21
15.0
 31
0.0
  3
Drawing number
  2
DRAWING_NUMBER
 70
     8
  0
ATTDEF
  5
C30
  8
FRAME_050
 10
529.75
 20
22.5
 30
0.0
 40
5.0
  1
XXX
  7
ISO_PROPORTIONAL
 72
     4
 11
536.5
 21
25.0
 31
0.0
  3
Title / Name
  2
TITLE
 70
     8
  0
LINE
  5
C31
  8
FRAME_070
 10
489.0
 20
10.0
 30
0.0
 11
489.0
 21
30.0
 31
0.0
  0
ATTDEF
  5
C32
  8
FRAME_025
 10
511.0
 20
31.75
 30
0.0
 40
2.5
  1
XXX
  7
ISO_PROPORTIONAL
 11
511.0
 21
33.0
 31
0.0
  3
Filename
  2
FILENAME
 70
     8
 74
     2
  0
TEXT
  5
C33
  8
FRAME_025
 10
511.0
 20
35.75
 30
0.0
 40
2.5
  1
Filename
  7
ISO_PROPORTIONAL
 11
511.0
 21
37.0
 31
0.0
 73
     2
  0
LINE
  5
C34
  8
FRAME_070
 10
509.0
 20
30.0
 30
0.0
 11
509.0
 21
40.0
 31
0.0
  0
TEXT
  5
C35
  8
FRAME_025
 10
536.0
 20
41.749999999999993
 30
0.0
 40
2.5
  1
Article No./Reference
  7
ISO_PROPORTIONAL
 11
536.0
 21
43.0
 31
0.0
 73
     2
  0
LINE
  5
C36
  8
FRAME_070
 10
534.0
 20
40.0
 30
0.0
 11
534.0
 21
46.0
 31
0.0
  0
ATTDEF
  5
C37
  8
FRAME_025
 10
551.0
 20
11.75
 30
0.0
 40
2.5
  1
0
  7
ISO_PROPORTIONAL
 11
551.0
 21
13.0
 31
0.0
  3
Edition
  2
EDITION
 70
     8
 74
     2
  0
TEXT
  5
C38
  8
FRAME_025
 10
551.0
 20
15.75
 30
0.0
 40
2.5
  1
Edition
  7
ISO_PROPORTIONAL
 11
551.0
 21
17.0
 31
0.0
 73
     2
  0
LINE
  5
C39
  8
FRAME_070
 10
549.0
 20
10.0
 30
0.0
 11
549.0
 21
20.0
 31
0.0
  0
ATTDEF
  5
C3A
  8
FRAME_025
 10
536.0
 20
31.75
 30
0.0
 40
2.5
  1
00/00/00
  7
ISO_PROPORTIONAL
 11
536.0
 21
33.0
 31
0.0
  3
Date
  2
DATE
 70
     8
 74
     2
  0
TEXT
  5
C3B
  8
FRAME_025
 10
536.0
 20
35.75
 30
0.0
 40
2.5
  1
Date
  7
ISO_PROPORTIONAL
 11
536.0
 21
37.0
 31
0.0
 73
     2
  0
LINE
  5
C3C
  8
FRAME_070
 10
534.0
 20
30.0
 30
0.0
 11
534.0
 21
40.0
 31
0.0
  0
ATTDEF
  5
C3D
  8
FRAME_025
 10
566.0
 20
11.75
 30
0.0
 40
2.5
  1
1/1
  7
ISO_PROPORTIONAL
 11
566.0
 21
13.0
 31
0.0
  3
Sheet
  2
SHEET
 70
     8
 74
     2
  0
TEXT
  5
C3E
  8
FRAME_025
 10
566.0
 20
15.75
 30
0.0
 40
2.5
  1
Sheet
  7
ISO_PROPORTIONAL
 11
566.0
 21
17.0
 31
0.0
 73
     2
  0
LINE
  5
C3F
  8
FRAME_070
 10
564.0
 20
10.0
 30
0.0
 11
564.0
 21
20.0
 31
0.0
  0
ATTDEF
  5
C40
  8
FRAME_025
 10
566.0
 20
31.75
 30
0.0
 40
2.5
  1
1:1
  7
ISO_PROPORTIONAL
 11
566.0
 21
33.0
 31
0.0
  3
Scale
  2
SCALE
 70
     8
 74
     2
  0
TEXT
  5
C41
  8
FRAME_025
 10
566.0
 20
35.75
 30
0.0
 40
2.5
  1
Scale
  7
ISO_PROPORTIONAL
 11
566.0
 21
37.0
 31
0.0
 73
     2
  0
LINE
  5
C42
  8
FRAME_070
 10
564.0
 20
30.0
 30
0.0
 11
564.0
 21
40.0
 31
0.0
  0
LINE
  5
C43
  8
FRAME_200
 10
594.0
 20
0.0
 30
0.0
 11
594.0
 21
10.0
 31
0.0
  0
LINE
  5
C44
  8
FRAME_200
 10
594.0
 20
0.0
 30
0.0
 11
584.0
 21
0.0
 31
0.0
  0
TEXT
  5
C45
  8
FRAME_050
 10
584.89999999999998
 20
35.0
 30
0.0
 40
4.0
  1
H
  7
ISO_PROPORTIONAL
 72
     4
 11
586.5
 21
37.0
 31
0.0
  0
LINE
  5
C46
  8
FRAME_050
 10
589.0
 20
60.0
 30
0.0
 11
584.0
 21
60.0
 31
0.0
  0
TEXT
  5
C47
  8
FRAME_050
 10
585.0035533905932
 20
85.0
 30
0.0
 40
4.0
  1
G
  7
ISO_PROPORTIONAL
 72
     4
 11
586.5
 21
87.0
 31
0.0
  0
LINE
  5
C48
  8
FRAME_050
 10
589.0
 20
110.0
 30
0.0
 11
584.0
 21
110.0
 31
0.0
  0
TEXT
  5
C49
  8
FRAME_050
 10
585.09999999999991
 20
135.0
 30
0.0
 40
4.0
  1
F
  7
ISO_PROPORTIONAL
 72
     4
 11
586.5
 21
137.0
 31
0.0
  0
LINE
  5
C4A
  8
FRAME_050
 10
589.0
 20
160.0
 30
0.0
 11
584.0
 21
160.0
 31
0.0
  0
TEXT
  5
C4B
  8
FRAME_050
 10
585.09999999999991
 20
185.0
 30
0.0
 40
4.0
  1
E
  7
ISO_PROPORTIONAL
 72
     4
 11
586.5
 21
187.0
 31
0.0
  0
LINE
  5
C4C
  8
FRAME_070
 10
414.0
 20
404.0
 30
0.0
 11
584.0
 21
404.0
 31
0.0
  0
TEXT
  5
C4D
  8
FRAME_050
 10
331.39215728752538
 20
410.58284271247459
 30
0.0
 40
4.0
  1
5
  7
ISO_PROPORTIONAL
 72
     4
 11
332.875
 21
412.5
 31
0.0
  0
LINE
  5
C4E
  8
FRAME_050
 10
368.75
 20
410.0
 30
0.0
 11
368.75
 21
415.0
 31
0.0
  0
TEXT
  5
C4F
  8
FRAME_025
 10
428.0
 20
405.75
 30
0.0
 40
2.5
  1
Revision note
  7
ISO_PROPORTIONAL
 11
428.0
 21
407.0
 31
0.0
 73
     2
  0
TEXT
  5
C50
  8
FRAME_025
 10
416.0
 20
405.75
 30
0.0
 40
2.5
  1
RevNo
  7
ISO_PROPORTIONAL
 11
416.0
 21
407.0
 31
0.0
 73
     2
  0
LINE
  5
C51
  8
FRAME_070
 10
426.0
 20
404.0
 30
0.0
 11
426.0
 21
410.0
 31
0.0
  0
LINE
  5
C52
  8
FRAME_070
 10
414.0
 20
404.0
 30
0.0
 11
414.0
 21
410.0
 31
0.0
  0
TEXT
  5
C53
  8
FRAME_050
 10
403.24547244094481
 20
410.41023622047243
 30
0.0
 40
4.0
  1
6
  7
ISO_PROPORTIONAL
 72
     4
 11
404.62499999999989
 21
412.5
 31
0.0
  0
LINE
  5
C54
  8
FRAME_050
 10
440.5
 20
410.0
 30
0.0
 11
440.5
 21
415.0
 31
0.0
  0
TEXT
  5
C55
  8
FRAME_050
 10
474.97500000000002
 20
410.5
 30
0.0
 40
4.0
  1
7
  7
ISO_PROPORTIONAL
 72
     4
 11
476.37499999999989
 21
412.5
 31
0.0
  0
LINE
  5
C56
  8
FRAME_050
 10
579.0
 20
210.0
 30
0.0
 11
589.0
 21
210.0
 31
0.0
  0
TEXT
  5
C57
  8
FRAME_050
 10
584.78609127034736
 20
235.0
 30
0.0
 40
4.0
  1
D
  7
ISO_PROPORTIONAL
 72
     4
 11
586.5
 21
237.0
 31
0.0
  0
LINE
  5
C58
  8
FRAME_050
 10
589.0
 20
260.0
 30
0.0
 11
584.0
 21
260.0
 31
0.0
  0
TEXT
  5
C59
  8
FRAME_050
 10
585.19319805153395
 20
285.0
 30
0.0
 40
4.0
  1
C
  7
ISO_PROPORTIONAL
 72
     4
 11
586.5
 21
287.0
 31
0.0
  0
LINE
  5
C5A
  8
FRAME_050
 10
589.0
 20
310.0
 30
0.0
 11
584.0
 21
310.0
 31
0.0
  0
TEXT
  5
C5B
  8
FRAME_050
 10
584.89999999999998
 20
335.0
 30
0.0
 40
4.0
  1
B
  7
ISO_PROPORTIONAL
 72
     4
 11
586.5
 21
337.0
 31
0.0
  0
TEXT
  5
C5C
  8
FRAME_025
 10
571.08299391850551
 20
405.75
 30
0.0
 40
2.5
  1
Checked
  7
ISO_PROPORTIONAL
 11
571.08299391850551
 21
407.0
 31
0.0
 73
     2
  0
TEXT
  5
C5D
  8
FRAME_025
 10
555.36099797283532
 20
405.75
 30
0.0
 40
2.5
  1
Signature
  7
ISO_PROPORTIONAL
 11
555.36099797283532
 21
407.0
 31
0.0
 73
     2
  0
TEXT
  5
C5E
  8
FRAME_025
 10
537.0
 20
405.75
 30
0.0
 40
2.5
  1
Date
  7
ISO_PROPORTIONAL
 11
537.0
 21
407.0
 31
0.0
 73
     2
  0
LINE
  5
C5F
  8
FRAME_070
 10
570.0
 20
404.0
 30
0.0
 11
570.0
 21
410.0
 31
0.0
  0
LINE
  5
C60
  8
FRAME_070
 10
555.0
 20
404.0
 30
0.0
 11
555.0
 21
410.0
 31
0.0
  0
LINE
  5
C61
  8
FRAME_070
 10
535.0
 20
404.0
 30
0.0
 11
535.0
 21
410.0
 31
0.0
  0
LINE
  5
C62
  8
FRAME_050
 10
512.25
 20
410.0
 30
0.0
 11
512.25
 21
415.0
 31
0.0
  0
TEXT
  5
C63
  8
FRAME_050
 10
546.72499999999991
 20
410.5
 30
0.0
 40
4.0
  1
8
  7
ISO_PROPORTIONAL
 72
     4
 11
548.125
 21
412.5
 31
0.0
  0
LINE
  5
C64
  8
FRAME_050
 10
589.0
 20
360.0
 30
0.0
 11
584.0
 21
360.0
 31
0.0
  0
TEXT
  5
C65
  8
FRAME_050
 10
584.70000000000005
 20
385.0
 30
0.0
 40
4.0
  1
A
  7
ISO_PROPORTIONAL
 72
     4
 11
586.5
 21
387.0
 31
0.0
  0
LINE
  5
C66
  8
FRAME_200
 10
594.0
 20
420.0
 30
0.0
 11
584.0
 21
420.0
 31
0.0
  0
LINE
  5
C67
  8
FRAME_200
 10
594.0
 20
410.0
 30
0.0
 11
594.0
 21
420.0
 31
0.0
  0
ENDBLK
  5
C69
  8
0
  0
BLOCK
  8
0
  2
WOBB001END
 70
     0
 10
0.0
 20
0.0
 30
0.0
  3
WOBB001END
  1

  0
LINE
  5
4D66
  8
0
  6
CONTINUOUS
 10
0.0
 20
0.0
 30
0.0
 11
0.8749999999999998
 21
0.0
 31
0.0
  0
ARC
  5
4D67
  8
0
  6
CONTINUOUS
 10
0.0331648379439287
 20
-0.5087238935900232
 30
0.0
 40
0.8790130605592325
 50
284.06490243660443
 51
312.19222981924361
  0
ARC
  5
4D68
  8
0
  6
CONTINUOUS
 10
0.2841534338796767
 20
-1.510548310625538
 30
0.0
 40
0.1537731892806598
 50
104.0649024366044
 51
179.4721730735024
  0
LINE
  5
4D69
  8
0
  6
CONTINUOUS
 10
0.0
 20
0.0
 30
0.0
 11
-0.0000000000000003
 21
-1.7501564476661919
 31
0.0
  0
ARC
  5
4D6A
  8
0
  6
CONTINUOUS
 10
0.1404622019506122
 20
-1.6303137183546199
 30
0.0
 40
0.1198427293115722
 50
275.0
 51
85.000000000000057
  0
LINE
  5
4D6B
  8
0
  6
CONTINUOUS
 10
-0.0000000000000003
 20
-1.7501564476661919
 30
0.0
 11
0.1456946485130855
 21
-1.7501564476661919
 31
0.0
  0
LINE
  5
4D6C
  8
0
  6
CONTINUOUS
 10
0.1377603739254348
 20
-1.7508506067459131
 30
0.0
 11
0.150907184036669
 21
-1.749700409899652
 31
0.0
  0
LINE
  5
4D6D
  8
0
  6
CONTINUOUS
 10
0.1303867696719884
 20
-1.5091317231818231
 30
0.0
 11
0.1509071840366689
 21
-1.5109270268095869
 31
0.0
  0
LINE
  5
4D6E
  8
0
  6
CONTINUOUS
 10
0.8749999999999998
 20
0.0
 30
0.0
 11
0.8749999999999996
 21
-0.8649327026588228
 31
0.0
  0
LINE
  5
4D6F
  8
0
  6
CONTINUOUS
 10
0.727014513830997
 20
-0.8726882933550612
 30
0.0
 11
0.727014513830997
 21
-0.9264923397184784
 31
0.0
  0
ARC
  5
4D70
  8
0
  6
CONTINUOUS
 10
0.41187090827646
 20
-0.9264923397184784
 30
0.0
 40
0.315143605554537
 50
312.19222981924361
 51
0.0
  0
LINE
  5
4D71
  8
0
  6
CONTINUOUS
 10
0.727014513830997
 20
-0.8726882933550612
 30
0.0
 11
0.8749999999999996
 21
-0.8649327026588228
 31
0.0
  0
ENDBLK
  5
4D72
  8
0
  0
BLOCK
  8
0
  2
A$C0A61123B
 70
     0
 10
0.0
 20
0.0
 30
0.0
  3
A$C0A61123B
  1

  0
LINE
  5
C0AD
  8
PROF
  6
CONTINUOUS
 10
4.9012016798694162
 20
13.325025853350891
 30
0.0000000000000002
 11
4.9012016798694162
 21
12.88585218805485
 31
0.0000000000000003
  0
INSERT
  5
C0AE
  8
0
  2
*U5
 10
0.0
 20
0.0
 30
0.0
  0
LINE
  5
C0AF
  8
PROF
 10
4.5198575031869259
 20
12.72227734589444
 30
0.0000000000000001
 11
4.5198575031869259
 21
12.88585218805485
 31
0.0000000000000001
  0
LINE
  5
C0B0
  8
PROF
  6
CONTINUOUS
 10
3.6306271195888371
 20
13.325025853350891
 30
0.0000000000000002
 11
4.9012016798694162
 21
13.325025853350891
 31
0.0000000000000002
  0
LINE
  5
C0B1
  8
PROF
 10
1.9750295148747341
 20
10.37671325491794
 30
0.0000000000000002
 11
1.9750295148747341
 21
10.11391186758919
 31
0.0000000000000002
  0
LINE
  5
C0B2
  8
PROF
 10
1.607967335755631
 20
10.11391186758919
 30
0.0000000000000001
 11
1.9750295148747341
 21
10.11391186758919
 31
0.0000000000000001
  0
LINE
  5
C0B3
  8
PROF
 10
1.9750295148747341
 20
10.11391186758919
 30
0.0000000000000001
 11
1.944958486898144
 21
10.11391186758919
 31
0.0000000000000001
  0
LINE
  5
C0B4
  8
PROF
 10
1.9750295148747341
 20
10.11391186758919
 30
0.0000000000000001
 11
1.944958486898144
 21
10.11391186758919
 31
0.0000000000000001
  0
LINE
  5
C0B5
  8
PROF
 10
0.3222605517169654
 20
7.5247473351056442
 30
-0.0000000000000002
 11
-0.0000008570117416
 21
7.5247473351056442
 31
0.0
  0
LINE
  5
C0B6
  8
PROF
 10
-0.0000008570117416
 20
7.5247473351056442
 30
0.0
 11
-0.0000008570117416
 21
9.1943336957369866
 31
0.0
  0
POLYLINE
  5
C0B7
  8
PROF
 66
     1
 10
0.0
 20
0.0
 30
0.0000000000000001
 70
     4
 75
     6
  0
VERTEX
  5
C0B8
  8
PROF
 10
1.607967335755631
 20
10.11391186758919
 30
0.0000000000000001
 70
    16
  0
VERTEX
  5
C0B9
  8
PROF
 10
1.607967335755631
 20
10.11391186758919
 30
0.0000000000000001
 70
     8
  0
VERTEX
  5
C0BA
  8
PROF
 10
1.646813232648582
 20
10.02198069336111
 30
0.0000000000000001
 70
     8
  0
VERTEX
  5
C0BB
  8
PROF
 10
1.67335966680929
 20
9.9344134163010267
 30
0.0000000000000001
 70
     8
  0
VERTEX
  5
C0BC
  8
PROF
 10
1.689008640046324
 20
9.8512576644480987
 30
0.0000000000000001
 70
     8
  0
VERTEX
  5
C0BD
  8
PROF
 10
1.695162154168258
 20
9.7725610658417281
 30
0.0000000000000001
 70
     8
  0
VERTEX
  5
C0BE
  8
PROF
 10
1.6932222109836059
 20
9.6983712485214255
 30
0.0000000000000001
 70
     8
  0
VERTEX
  5
C0BF
  8
PROF
 10
1.6845908123009961
 20
9.6287358405263603
 30
0.0000000000000001
 70
     8
  0
VERTEX
  5
C0C0
  8
PROF
 10
1.6706699599288859
 20
9.5637024698960431
 30
0.0000000000000001
 70
     8
  0
VERTEX
  5
C0C1
  8
PROF
 10
1.6528616556759621
 20
9.503318764669757
 30
0.0000000000000001
 70
     8
  0
VERTEX
  5
C0C2
  8
PROF
 10
1.6323562992730549
 20
9.4475843259650674
 30
0.0000000000000001
 70
     8
  0
VERTEX
  5
C0C3
  8
PROF
 10
1.609497882140658
 20
9.3963066472123273
 30
0.0000000000000001
 70
     8
  0
VERTEX
  5
C0C4
  8
PROF
 10
1.584418793621637
 20
9.3492451949202842
 30
0.0000000000000001
 70
     8
  0
VERTEX
  5
C0C5
  8
PROF
 10
1.557251423058744
 20
9.3061594355972375
 30
0.0000000000000001
 70
     8
  0
VERTEX
  5
C0C6
  8
PROF
 10
1.5281281597949601
 20
9.2668088357519292
 30
0.0000000000000001
 70
     8
  0
VERTEX
  5
C0C7
  8
PROF
 10
1.4971813931729789
 20
9.2309528618930017
 30
0.0000000000000001
 70
     8
  0
VERTEX
  5
C0C8
  8
PROF
 10
1.464543512535726
 20
9.1983509805288577
 30
0.0000000000000001
 70
     8
  0
VERTEX
  5
C0C9
  8
PROF
 10
1.4303469072260091
 20
9.1687626581682462
 30
0.0000000000000001
 70
     8
  0
VERTEX
  5
C0CA
  8
PROF
 10
1.3947360332574019
 20
9.1419547918675335
 30
0.0000000000000001
 70
     8
  0
VERTEX
  5
C0CB
  8
PROF
 10
1.3579036133264131
 20
9.1177240008747731
 30
0.0000000000000001
 70
     8
  0
VERTEX
  5
C0CC
  8
PROF
 10
1.3200544368004321
 20
9.0958743349860924
 30
0.0000000000000001
 70
     8
  0
VERTEX
  5
C0CD
  8
PROF
 10
1.281393293046676
 20
9.0762098439975034
 30
0.0000000000000001
 70
     8
  0
VERTEX
  5
C0CE
  8
PROF
 10
1.242124971432417
 20
9.0585345777049042
 30
0.0000000000000001
 70
     8
  0
VERTEX
  5
C0CF
  8
PROF
 10
1.2024542613249869
 20
9.0426525859044204
 30
0.0000000000000001
 70
     8
  0
VERTEX
  5
C0D0
  8
PROF
 10
1.1625859520916599
 20
9.0283679183919503
 30
0.0000000000000001
 70
     8
  0
VERTEX
  5
C0D1
  8
PROF
 10
1.1227248330997091
 20
9.0154846249635057
 30
0.0000000000000001
 70
     8
  0
VERTEX
  5
C0D2
  8
PROF
 10
1.0829726247361
 20
9.0034643862466055
 30
0.0000000000000001
 70
     8
  0
VERTEX
  5
C0D3
  8
PROF
 10
1.043018771466222
 20
8.9903994061946833
 30
0.0000000000000001
 70
     8
  0
VERTEX
  5
C0D4
  8
PROF
 10
1.002449648775211
 20
8.9740395195925657
 30
0.0000000000000001
 70
     8
  0
VERTEX
  5
C0D5
  8
PROF
 10
0.9608516321480919
 20
8.9521345612251935
 30
0.0000000000000001
 70
     8
  0
VERTEX
  5
C0D6
  8
PROF
 10
0.9178110970699435
 20
8.9224343658775052
 30
0.0000000000000001
 70
     8
  0
VERTEX
  5
C0D7
  8
PROF
 10
0.8729144190259034
 20
8.8826887683343312
 30
0.0000000000000001
 70
     8
  0
VERTEX
  5
C0D8
  8
PROF
 10
0.8257479735009951
 20
8.8306476033806121
 30
0.0000000000000001
 70
     8
  0
VERTEX
  5
C0D9
  8
PROF
 10
0.7758981359802988
 20
8.764060705801171
 30
0.0000000000000001
 70
     8
  0
VERTEX
  5
C0DA
  8
PROF
 10
1.729201901609656
 20
9.8629858761255491
 30
0.0000000000000001
 70
    16
  0
VERTEX
  5
C0DB
  8
PROF
 10
1.6793731231140889
 20
9.4532143012734196
 30
0.0000000000000001
 70
    16
  0
VERTEX
  5
C0DC
  8
PROF
 10
1.4455611507419801
 20
9.1391837193732481
 30
0.0000000000000001
 70
    16
  0
VERTEX
  5
C0DD
  8
PROF
 10
1.120463717273821
 20
9.0026267702428413
 30
0.0000000000000001
 70
    16
  0
VERTEX
  5
C0DE
  8
PROF
 10
0.9127765582653638
 20
8.9630202230383702
 30
0.0000000000000001
 70
    16
  0
VERTEX
  5
C0DF
  8
PROF
 10
0.7758981359802988
 20
8.764060705801171
 30
0.0000000000000001
 70
    16
  0
SEQEND
  5
C0E0
  8
PROF
  0
ARC
  5
C0E1
  8
PROF
 10
0.733429816733235
 20
8.4849506952165257
 30
0.0000000000000001
 40
0.2823224329524727
 50
269.73652020831901
 51
81.348449993176914
  0
LINE
  5
C0E2
  8
PROF
  6
CONTINUOUS
 10
-0.0000008570117416
 20
9.1943336957369866
 30
-0.0000000000000001
 11
3.6306271195888371
 21
13.325025853350891
 31
0.0000000000000002
  0
POLYLINE
  5
C0E3
  8
PROF
 66
     1
 10
0.0
 20
0.0
 30
0.0000000000000001
 70
     4
 75
     6
  0
VERTEX
  5
C0E4
  8
PROF
 10
4.5198575031869259
 20
12.72227734589444
 30
0.0000000000000001
 70
    16
  0
VERTEX
  5
C0E5
  8
PROF
 10
4.5198575031869259
 20
12.72227734589444
 30
0.0000000000000001
 70
     8
  0
VERTEX
  5
C0E6
  8
PROF
 10
4.4467035366886298
 20
12.741128108778071
 30
0.0000000000000001
 70
     8
  0
VERTEX
  5
C0E7
  8
PROF
 10
4.3786645761268801
 20
12.754675269913941
 30
0.0000000000000001
 70
     8
  0
VERTEX
  5
C0E8
  8
PROF
 10
4.3154364111440477
 20
12.76334314092332
 30
0.0000000000000001
 70
     8
  0
VERTEX
  5
C0E9
  8
PROF
 10
4.256714831382566
 20
12.76755603342724
 30
0.0000000000000001
 70
     8
  0
VERTEX
  5
C0EA
  8
PROF
 10
4.2021956264849791
 20
12.76773825904672
 30
0.0000000000000001
 70
     8
  0
VERTEX
  5
C0EB
  8
PROF
 10
4.1515745860935453
 20
12.764314129403139
 30
0.0000000000000001
 70
     8
  0
VERTEX
  5
C0EC
  8
PROF
 10
4.1045474998508658
 20
12.75770795611743
 30
0.0000000000000001
 70
     8
  0
VERTEX
  5
C0ED
  8
PROF
 10
4.0608101573993158
 20
12.748344050810831
 30
0.0000000000000001
 70
     8
  0
VERTEX
  5
C0EE
  8
PROF
 10
4.0200583483813261
 20
12.736646725104491
 30
0.0000000000000001
 70
     8
  0
VERTEX
  5
C0EF
  8
PROF
 10
3.9819878624393819
 20
12.72304029061945
 30
0.0000000000000001
 70
     8
  0
VERTEX
  5
C0F0
  8
PROF
 10
3.946294489215858
 20
12.707949058976959
 30
0.0000000000000001
 70
     8
  0
VERTEX
  5
C0F1
  8
PROF
 10
3.9126740183532429
 20
12.691797341798059
 30
0.0000000000000001
 70
     8
  0
VERTEX
  5
C0F2
  8
PROF
 10
3.8808638350742508
 20
12.67494295718654
 30
0.0000000000000001
 70
     8
  0
VERTEX
  5
C0F3
  8
PROF
 10
3.850767706922738
 20
12.65747774917668
 30
0.0000000000000001
 70
     8
  0
VERTEX
  5
C0F4
  8
PROF
 10
3.8223309970228452
 20
12.639427068285499
 30
0.0000000000000001
 70
     8
  0
VERTEX
  5
C0F5
  8
PROF
 10
3.7954990684987129
 20
12.62081626503004
 30
0.0000000000000001
 70
     8
  0
VERTEX
  5
C0F6
  8
PROF
 10
3.7702172844744828
 20
12.601670689926999
 30
0.0000000000000001
 70
     8
  0
VERTEX
  5
C0F7
  8
PROF
 10
3.746431008074353
 20
12.58201569349364
 30
0.0000000000000001
 70
     8
  0
VERTEX
  5
C0F8
  8
PROF
 10
3.7240856024224618
 20
12.56187662624666
 30
0.0000000000000001
 70
     8
  0
VERTEX
  5
C0F9
  8
PROF
 10
3.7031264306428961
 20
12.541278838703191
 30
0.0000000000000001
 70
     8
  0
VERTEX
  5
C0FA
  8
PROF
 10
3.6834988558599089
 20
12.520247681380051
 30
0.0000000000000001
 70
     8
  0
VERTEX
  5
C0FB
  8
PROF
 10
3.665148241197528
 20
12.49880850479428
 30
0.0000000000000001
 70
     8
  0
VERTEX
  5
C0FC
  8
PROF
 10
3.6480199497799499
 20
12.47698665946279
 30
0.0000000000000001
 70
     8
  0
VERTEX
  5
C0FD
  8
PROF
 10
3.6320593447313172
 20
12.45480749590263
 30
0.0000000000000001
 70
     8
  0
VERTEX
  5
C0FE
  8
PROF
 10
3.6171895848866589
 20
12.43223790353807
 30
0.0000000000000001
 70
     8
  0
VERTEX
  5
C0FF
  8
PROF
 10
3.6032450119242858
 20
12.40901092742285
 30
0.0000000000000001
 70
     8
  0
VERTEX
  5
C100
  8
PROF
 10
3.590037763233453
 20
12.38480115151844
 30
0.0000000000000001
 70
     8
  0
VERTEX
  5
C101
  8
PROF
 10
3.5773799762033032
 20
12.35928315978594
 30
0.0000000000000001
 70
     8
  0
VERTEX
  5
C102
  8
PROF
 10
3.5650837882230908
 20
12.33213153618658
 30
0.0000000000000001
 70
     8
  0
VERTEX
  5
C103
  8
PROF
 10
3.5529613366819599
 20
12.303020864681571
 30
0.0000000000000001
 70
     8
  0
VERTEX
  5
C104
  8
PROF
 10
3.540824758969165
 20
12.271625729232371
 30
0.0000000000000001
 70
     8
  0
VERTEX
  5
C105
  8
PROF
 10
3.5284861924738489
 20
12.23762071379997
 30
0.0000000000000001
 70
     8
  0
VERTEX
  5
C106
  8
PROF
 10
3.5157577745852668
 20
12.200680402345711
 30
0.0000000000000001
 70
     8
  0
VERTEX
  5
C107
  8
PROF
 10
3.5024516426926189
 20
12.16047937883093
 30
0.0000000000000001
 70
     8
  0
VERTEX
  5
C108
  8
PROF
 10
3.4883799341851041
 20
12.116692227216619
 30
0.0000000000000001
 70
     8
  0
VERTEX
  5
C109
  8
PROF
 10
3.4733547864519201
 20
12.06899353146423
 30
0.0000000000000001
 70
     8
  0
VERTEX
  5
C10A
  8
PROF
 10
3.45723654619428
 20
12.0172095445447
 30
0.0000000000000001
 70
     8
  0
VERTEX
  5
C10B
  8
PROF
 10
3.4400783973613889
 20
11.961773195467799
 30
0.0000000000000001
 70
     8
  0
VERTEX
  5
C10C
  8
PROF
 10
3.421981733214579
 20
11.90326908225302
 30
0.0000000000000001
 70
     8
  0
VERTEX
  5
C10D
  8
PROF
 10
3.4030479470150108
 20
11.842281802919951
 30
0.0000000000000001
 70
     8
  0
VERTEX
  5
C10E
  8
PROF
 10
3.383378432024017
 20
11.779395955487979
 30
0.0000000000000001
 70
     8
  0
VERTEX
  5
C10F
  8
PROF
 10
3.3630745815028709
 20
11.715196137976809
 30
0.0000000000000001
 70
     8
  0
VERTEX
  5
C110
  8
PROF
 10
3.3422377887127359
 20
11.650266948405831
 30
0.0000000000000001
 70
     8
  0
VERTEX
  5
C111
  8
PROF
 10
3.320969446915
 20
11.58519298479461
 30
0.0000000000000001
 70
     8
  0
VERTEX
  5
C112
  8
PROF
 10
3.2993709493707679
 20
11.520558845162549
 30
0.0000000000000001
 70
     8
  0
VERTEX
  5
C113
  8
PROF
 10
3.277543689341428
 20
11.456949127529469
 30
0.0000000000000001
 70
     8
  0
VERTEX
  5
C114
  8
PROF
 10
3.2555890600881412
 20
11.3949484299145
 30
0.0000000000000001
 70
     8
  0
VERTEX
  5
C115
  8
PROF
 10
3.233608454872182
 20
11.335141350337491
 30
0.0000000000000001
 70
     8
  0
VERTEX
  5
C116
  8
PROF
 10
3.2116715641212181
 20
11.27799544797778
 30
0.0000000000000001
 70
     8
  0
VERTEX
  5
C117
  8
PROF
 10
3.189721266927847
 20
11.22351012665467
 30
0.0000000000000001
 70
     8
  0
VERTEX
  5
C118
  8
PROF
 10
3.1676687395512881
 20
11.17156775134765
 30
0.0000000000000001
 70
     8
  0
VERTEX
  5
C119
  8
PROF
 10
3.1454251582505321
 20
11.12205068703588
 30
0.0000000000000001
 70
     8
  0
VERTEX
  5
C11A
  8
PROF
 10
3.122901699284625
 20
11.07484129869874
 30
0.0000000000000001
 70
     8
  0
VERTEX
  5
C11B
  8
PROF
 10
3.1000095389127291
 20
11.02982195131551
 30
0.0000000000000001
 70
     8
  0
VERTEX
  5
C11C
  8
PROF
 10
3.0766598533938909
 20
10.986875009865679
 30
0.0000000000000001
 70
     8
  0
VERTEX
  5
C11D
  8
PROF
 10
3.0527638189871591
 20
10.9458828393283
 30
0.0000000000000001
 70
     8
  0
VERTEX
  5
C11E
  8
PROF
 10
3.0282326119516361
 20
10.90672780468298
 30
0.0000000000000001
 70
     8
  0
VERTEX
  5
C11F
  8
PROF
 10
3.002977408546371
 20
10.869292270908771
 30
0.0000000000000001
 70
     8
  0
VERTEX
  5
C120
  8
PROF
 10
2.9769093850304098
 20
10.833458602985161
 30
0.0000000000000001
 70
     8
  0
VERTEX
  5
C121
  8
PROF
 10
2.9499397176628568
 20
10.799109165891419
 30
0.0000000000000001
 70
     8
  0
VERTEX
  5
C122
  8
PROF
 10
2.9220006098404379
 20
10.76614363969508
 30
0.0000000000000001
 70
     8
  0
VERTEX
  5
C123
  8
PROF
 10
2.8931083735103011
 20
10.7345309648158
 30
0.0000000000000001
 70
     8
  0
VERTEX
  5
C124
  8
PROF
 10
2.8633003477572738
 20
10.70425739676193
 30
0.0000000000000001
 70
     8
  0
VERTEX
  5
C125
  8
PROF
 10
2.8326138716660689
 20
10.67530919104115
 30
0.0000000000000001
 70
     8
  0
VERTEX
  5
C126
  8
PROF
 10
2.8010862843216269
 20
10.647672603161711
 30
0.0000000000000001
 70
     8
  0
VERTEX
  5
C127
  8
PROF
 10
2.7687549248087171
 20
10.62133388863162
 30
0.0000000000000001
 70
     8
  0
VERTEX
  5
C128
  8
PROF
 10
2.735657132212054
 20
10.5962793029588
 30
0.0000000000000001
 70
     8
  0
VERTEX
  5
C129
  8
PROF
 10
2.7018302456165202
 20
10.572495101651381
 30
0.0000000000000001
 70
     8
  0
VERTEX
  5
C12A
  8
PROF
 10
2.6673116041068852
 20
10.54996754021726
 30
0.0000000000000001
 70
     8
  0
VERTEX
  5
C12B
  8
PROF
 10
2.6321385467680321
 20
10.528682874164581
 30
0.0000000000000001
 70
     8
  0
VERTEX
  5
C12C
  8
PROF
 10
2.5963484126846188
 20
10.508627359001251
 30
0.0000000000000001
 70
     8
  0
VERTEX
  5
C12D
  8
PROF
 10
2.5599785409415849
 20
10.489787250235279
 30
0.0000000000000001
 70
     8
  0
VERTEX
  5
C12E
  8
PROF
 10
2.522998630314361
 20
10.472162234281081
 30
0.0000000000000001
 70
     8
  0
VERTEX
  5
C12F
  8
PROF
 10
2.4851078183409072
 20
10.455805721177621
 30
0.0000000000000001
 70
     8
  0
VERTEX
  5
C130
  8
PROF
 10
2.4459376022498982
 20
10.44078455187036
 30
0.0000000000000001
 70
     8
  0
VERTEX
  5
C131
  8
PROF
 10
2.4051194792701258
 20
10.42716556730465
 30
0.0000000000000001
 70
     8
  0
VERTEX
  5
C132
  8
PROF
 10
2.3622849466301541
 20
10.415015608425851
 30
0.0000000000000001
 70
     8
  0
VERTEX
  5
C133
  8
PROF
 10
2.3170655015587149
 20
10.40440151617929
 30
0.0000000000000001
 70
     8
  0
VERTEX
  5
C134
  8
PROF
 10
2.2690926412844301
 20
10.395390131510339
 30
0.0000000000000001
 70
     8
  0
VERTEX
  5
C135
  8
PROF
 10
2.2179978630360888
 20
10.388048295364451
 30
0.0000000000000001
 70
     8
  0
VERTEX
  5
C136
  8
PROF
 10
2.1634126640422551
 20
10.38244284868688
 30
0.0000000000000001
 70
     8
  0
VERTEX
  5
C137
  8
PROF
 10
2.104968541531604
 20
10.37864063242295
 30
0.0000000000000001
 70
     8
  0
VERTEX
  5
C138
  8
PROF
 10
2.0422969927328718
 20
10.37670848751816
 30
0.0000000000000001
 70
     8
  0
VERTEX
  5
C139
  8
PROF
 10
1.9750295148747341
 20
10.37671325491794
 30
0.0000000000000001
 70
     8
  0
VERTEX
  5
C13A
  8
PROF
 10
4.2166060115107484
 20
12.80885334975255
 30
0.0000000000000001
 70
    16
  0
VERTEX
  5
C13B
  8
PROF
 10
3.8702254102732918
 20
12.707065515763929
 30
0.0000000000000001
 70
    16
  0
VERTEX
  5
C13C
  8
PROF
 10
3.605346156896871
 20
12.46277472098552
 30
0.0000000000000001
 70
    16
  0
VERTEX
  5
C13D
  8
PROF
 10
3.500746030527238
 20
12.170680575709749
 30
0.0000000000000001
 70
    16
  0
VERTEX
  5
C13E
  8
PROF
 10
3.231798439705698
 20
11.26846416496107
 30
0.0000000000000001
 70
    16
  0
VERTEX
  5
C13F
  8
PROF
 10
2.9737109398832891
 20
10.76631086647069
 30
0.0000000000000001
 70
    16
  0
VERTEX
  5
C140
  8
PROF
 10
2.5729961067384011
 20
10.460947364504699
 30
0.0000000000000001
 70
    16
  0
VERTEX
  5
C141
  8
PROF
 10
2.253782621454604
 20
10.372731239449759
 30
0.0000000000000001
 70
    16
  0
VERTEX
  5
C142
  8
PROF
 10
1.9750295148747341
 20
10.37671325491794
 30
0.0000000000000001
 70
    16
  0
SEQEND
  5
C143
  8
PROF
  0
LINE
  5
C144
  8
PROF
 10
4.9012016798694162
 20
12.88585218805485
 30
0.0000000000000003
 11
4.5198575031869259
 21
12.88585218805485
 31
0.0000000000000003
  0
LINE
  5
C145
  8
PROF
 10
0.7321315362267457
 20
8.2026312473991538
 30
0.0000000000000006
 11
0.7321315362267457
 21
8.0511853963434987
 31
0.0000000000000006
  0
ARC
  5
C146
  8
PROF
 10
0.7977322214551919
 20
7.5773339332026799
 30
0.0000000000000006
 40
0.4783708383912012
 50
97.882010168942529
 51
186.31119505698649
  0
LINE
  5
C147
  8
FRAME_050
 10
7.8016377197432121
 20
17.99371054969447
 30
0.0
 11
7.8016377197432121
 21
0.0000000000002274
 31
0.0
  0
ENDBLK
  5
C149
  8
0
  0
BLOCK
  8
0
  2
*U5
 70
     1
 10
0.0
 20
0.0
 30
0.0
  3
*U5
  1

  0
TEXT
  5
CE09
  8
0
 10
3.5177832928899071
 20
10.38601584255777
 30
0.0
 40
0.125
  1
Crown Moulding
  0
TEXT
  5
CE0A
  8
0
 10
3.5223876585106431
 20
10.17717091304435
 30
0.0
 40
0.125
  1
TL-AB509
  0
TEXT
  5
CE0B
  8
0
 10
3.5074661032582561
 20
9.9667059289606801
 30
0.0
 40
0.125
  1
1-5/16" x 7-9/16"
  0
TEXT
  5
CE0C
  8
0
 10
3.519403347460166
 20
9.7562409448770051
 30
0.0
 40
0.125
  1
800.66.TAGUE
  0
ENDBLK
  5
CE0E
  8
0
  0
BLOCK
  8
0
  2
*U6
 70
     1
 10
0.0
 20
0.0
 30
0.0
  3
*U6
  1

  0
TEXT
  5
CE10
  8
0
 10
-348.67309039353017
 20
837.92386339899758
 30
0.0
 40
0.125
  1
Panels
  0
TEXT
  5
CE11
  8
0
 10
-348.66686597333921
 20
837.71339841491374
 30
0.0
 40
0.125
  1
5/8" Panel With Large Cove Hip
  0
TEXT
  5
CE12
  8
0
 10
-348.6666954412791
 20
837.50293343083035
 30
0.0
 40
0.125
  1
800.66.TAGUE
  0
ENDBLK
  5
CE14
  8
0
  0
ENDSEC
  0
SECTION
  2
ENTITIES
  0
LINE
  5
CB00
  8
0
 10
-350.13626113925119
 20
838.11205373185624
 30
0.0
 11
-351.09449834961629
 21
838.11205373185624
 31
0.0
  0
LINE
  5
CB01
  8
0
 10
-352.53276109413048
 20
837.47079746934594
 30
0.0
 11
-350.13626113925108
 21
837.47079746934594
 31
0.0
  0
LINE
  5
CB02
  8
0
 10
-351.99090396008211
 20
837.74466732833048
 30
0.0
 11
-352.53276109413048
 21
837.74466732833048
 31
0.0
  0
LINE
  5
CB03
  8
0
 10
-352.53276109413048
 20
837.74466732833048
 30
0.0
 11
-352.53276109413048
 21
837.47079746934594
 31
0.0
  0
POLYLINE
  8
0
  5
CE15
  66
     1
 10
0.000000
 20
0.000000
 30
0.000000
  70
     8
  0
VERTEX
  8
0
  5
CE16
 10
-351.094
 20
838.112
 30
0.000000
  70
    32
  0
VERTEX
  8
0
  5
CE17
 10
-351.096
 20
838.108
 30
0.000000
  70
    32
  0
VERTEX
  8
0
  5
CE18
 10
-351.097
 20
838.105
 30
0.000000
  70
    32
  0
VERTEX
  8
0
  5
CE19
 10
-351.099
 20
838.101
 30
0.000000
  70
    32
  0
VERTEX
  8
0
  5
CE1A
 10
-351.100
 20
838.097
 30
0.000000
  70
    32
  0
VERTEX
  8
0
  5
CE1B
 10
-351.102
 20
838.094
 30
0.000000
  70
    32
  0
VERTEX
  8
0
  5
CE1C
 10
-351.103
 20
838.090
 30
0.000000
  70
    32
  0
VERTEX
  8
0
  5
CE1D
 10
-351.105
 20
838.087
 30
0.000000
  70
    32
  0
VERTEX
  8
0
  5
CE1E
 10
-351.107
 20
838.083
 30
0.000000
  70
    32
  0
VERTEX
  8
0
  5
CE1F
 10
-351.109
 20
838.080
 30
0.000000
  70
    32
  0
VERTEX
  8
0
  5
CE20
 10
-351.111
 20
838.076
 30
0.000000
  70
    32
  0
VERTEX
  8
0
  5
CE21
 10
-351.113
 20
838.073
 30
0.000000
  70
    32
  0
VERTEX
  8
0
  5
CE22
 10
-351.115
 20
838.070
 30
0.000000
  70
    32
  0
VERTEX
  8
0
  5
CE23
 10
-351.117
 20
838.066
 30
0.000000
  70
    32
  0
VERTEX
  8
0
  5
CE24
 10
-351.119
 20
838.063
 30
0.000000
  70
    32
  0
VERTEX
  8
0
  5
CE25
 10
-351.122
 20
838.060
 30
0.000000
  70
    32
  0
VERTEX
  8
0
  5
CE26
 10
-351.124
 20
838.057
 30
0.000000
  70
    32
  0
VERTEX
  8
0
  5
CE27
 10
-351.126
 20
838.054
 30
0.000000
  70
    32
  0
VERTEX
  8
0
  5
CE28
 10
-351.129
 20
838.050
 30
0.000000
  70
    32
  0
VERTEX
  8
0
  5
CE29
 10
-351.131
 20
838.047
 30
0.000000
  70
    32
  0
VERTEX
  8
0
  5
CE2A
 10
-351.134
 20
838.044
 30
0.000000
  70
    32
  0
VERTEX
  8
0
  5
CE2B
 10
-351.136
 20
838.041
 30
0.000000
  70
    32
  0
VERTEX
  8
0
  5
CE2C
 10
-351.139
 20
838.038
 30
0.000000
  70
    32
  0
VERTEX
  8
0
  5
CE2D
 10
-351.142
 20
838.035
 30
0.000000
  70
    32
  0
VERTEX
  8
0
  5
CE2E
 10
-351.144
 20
838.032
 30
0.000000
  70
    32
  0
VERTEX
  8
0
  5
CE2F
 10
-351.147
 20
838.029
 30
0.000000
  70
    32
  0
VERTEX
  8
0
  5
CE30
 10
-351.150
 20
838.026
 30
0.000000
  70
    32
  0
VERTEX
  8
0
  5
CE31
 10
-351.153
 20
838.023
 30
0.000000
  70
    32
  0
VERTEX
  8
0
  5
CE32
 10
-351.155
 20
838.021
 30
0.000000
  70
    32
  0
VERTEX
  8
0
  5
CE33
 10
-351.158
 20
838.018
 30
0.000000
  70
    32
  0
VERTEX
  8
0
  5
CE34
 10
-351.161
 20
838.015
 30
0.000000
  70
    32
  0
VERTEX
  8
0
  5
CE35
 10
-351.164
 20
838.012
 30
0.000000
  70
    32
  0
VERTEX
  8
0
  5
CE36
 10
-351.167
 20
838.009
 30
0.000000
  70
    32
  0
VERTEX
  8
0
  5
CE37
 10
-351.170
 20
838.007
 30
0.000000
  70
    32
  0
VERTEX
  8
0
  5
CE38
 10
-351.173
 20
838.004
 30
0.000000
  70
    32
  0
VERTEX
  8
0
  5
CE39
 10
-351.176
 20
838.001
 30
0.000000
  70
    32
  0
VERTEX
  8
0
  5
CE3A
 10
-351.179
 20
837.998
 30
0.000000
  70
    32
  0
VERTEX
  8
0
  5
CE3B
 10
-351.183
 20
837.996
 30
0.000000
  70
    32
  0
VERTEX
  8
0
  5
CE3C
 10
-351.186
 20
837.993
 30
0.000000
  70
    32
  0
VERTEX
  8
0
  5
CE3D
 10
-351.189
 20
837.990
 30
0.000000
  70
    32
  0
VERTEX
  8
0
  5
CE3E
 10
-351.192
 20
837.988
 30
0.000000
  70
    32
  0
VERTEX
  8
0
  5
CE3F
 10
-351.195
 20
837.985
 30
0.000000
  70
    32
  0
VERTEX
  8
0
  5
CE40
 10
-351.198
 20
837.983
 30
0.000000
  70
    32
  0
VERTEX
  8
0
  5
CE41
 10
-351.202
 20
837.980
 30
0.000000
  70
    32
  0
VERTEX
  8
0
  5
CE42
 10
-351.205
 20
837.977
 30
0.000000
  70
    32
  0
VERTEX
  8
0
  5
CE43
 10
-351.208
 20
837.975
 30
0.000000
  70
    32
  0
VERTEX
  8
0
  5
CE44
 10
-351.211
 20
837.972
 30
0.000000
  70
    32
  0
VERTEX
  8
0
  5
CE45
 10
-351.215
 20
837.970
 30
0.000000
  70
    32
  0
VERTEX
  8
0
  5
CE46
 10
-351.218
 20
837.967
 30
0.000000
  70
    32
  0
VERTEX
  8
0
  5
CE47
 10
-351.221
 20
837.965
 30
0.000000
  70
    32
  0
VERTEX
  8
0
  5
CE48
 10
-351.224
 20
837.962
 30
0.000000
  70
    32
  0
VERTEX
  8
0
  5
CE49
 10
-351.227
 20
837.960
 30
0.000000
  70
    32
  0
VERTEX
  8
0
  5
CE4A
 10
-351.231
 20
837.957
 30
0.000000
  70
    32
  0
VERTEX
  8
0
  5
CE4B
 10
-351.234
 20
837.955
 30
0.000000
  70
    32
  0
VERTEX
  8
0
  5
CE4C
 10
-351.237
 20
837.953
 30
0.000000
  70
    32
  0
VERTEX
  8
0
  5
CE4D
 10
-351.240
 20
837.950
 30
0.000000
  70
    32
  0
VERTEX
  8
0
  5
CE4E
 10
-351.244
 20
837.948
 30
0.000000
  70
    32
  0
VERTEX
  8
0
  5
CE4F
 10
-351.247
 20
837.945
 30
0.000000
  70
    32
  0
VERTEX
  8
0
  5
CE50
 10
-351.250
 20
837.943
 30
0.000000
  70
    32
  0
VERTEX
  8
0
  5
CE51
 10
-351.253
 20
837.941
 30
0.000000
  70
    32
  0
VERTEX
  8
0
  5
CE52
 10
-351.257
 20
837.938
 30
0.000000
  70
    32
  0
VERTEX
  8
0
  5
CE53
 10
-351.260
 20
837.936
 30
0.000000
  70
    32
  0
VERTEX
  8
0
  5
CE54
 10
-351.263
 20
837.934
 30
0.000000
  70
    32
  0
VERTEX
  8
0
  5
CE55
 10
-351.266
 20
837.931
 30
0.000000
  70
    32
  0
VERTEX
  8
0
  5
CE56
 10
-351.270
 20
837.929
 30
0.000000
  70
    32
  0
VERTEX
  8
0
  5
CE57
 10
-351.273
 20
837.927
 30
0.000000
  70
    32
  0
VERTEX
  8
0
  5
CE58
 10
-351.276
 20
837.924
 30
0.000000
  70
    32
  0
VERTEX
  8
0
  5
CE59
 10
-351.280
 20
837.922
 30
0.000000
  70
    32
  0
VERTEX
  8
0
  5
CE5A
 10
-351.283
 20
837.920
 30
0.000000
  70
    32
  0
VERTEX
  8
0
  5
CE5B
 10
-351.286
 20
837.918
 30
0.000000
  70
    32
  0
VERTEX
  8
0
  5
CE5C
 10
-351.289
 20
837.915
 30
0.000000
  70
    32
  0
VERTEX
  8
0
  5
CE5D
 10
-351.293
 20
837.913
 30
0.000000
  70
    32
  0
VERTEX
  8
0
  5
CE5E
 10
-351.296
 20
837.911
 30
0.000000
  70
    32
  0
VERTEX
  8
0
  5
CE5F
 10
-351.299
 20
837.909
 30
0.000000
  70
    32
  0
VERTEX
  8
0
  5
CE60
 10
-351.303
 20
837.907
 30
0.000000
  70
    32
  0
VERTEX
  8
0
  5
CE61
 10
-351.306
 20
837.905
 30
0.000000
  70
    32
  0
VERTEX
  8
0
  5
CE62
 10
-351.309
 20
837.902
 30
0.000000
  70
    32
  0
VERTEX
  8
0
  5
CE63
 10
-351.313
 20
837.900
 30
0.000000
  70
    32
  0
VERTEX
  8
0
  5
CE64
 10
-351.316
 20
837.898
 30
0.000000
  70
    32
  0
VERTEX
  8
0
  5
CE65
 10
-351.319
 20
837.896
 30
0.000000
  70
    32
  0
VERTEX
  8
0
  5
CE66
 10
-351.323
 20
837.894
 30
0.000000
  70
    32
  0
VERTEX
  8
0
  5
CE67
 10
-351.326
 20
837.892
 30
0.000000
  70
    32
  0
VERTEX
  8
0
  5
CE68
 10
-351.329
 20
837.890
 30
0.000000
  70
    32
  0
VERTEX
  8
0
  5
CE69
 10
-351.333
 20
837.888
 30
0.000000
  70
    32
  0
VERTEX
  8
0
  5
CE6A
 10
-351.336
 20
837.886
 30
0.000000
  70
    32
  0
VERTEX
  8
0
  5
CE6B
 10
-351.340
 20
837.884
 30
0.000000
  70
    32
  0
VERTEX
  8
0
  5
CE6C
 10
-351.343
 20
837.882
 30
0.000000
  70
    32
  0
VERTEX
  8
0
  5
CE6D
 10
-351.346
 20
837.880
 30
0.000000
  70
    32
  0
VERTEX
  8
0
  5
CE6E
 10
-351.350
 20
837.878
 30
0.000000
  70
    32
  0
VERTEX
  8
0
  5
CE6F
 10
-351.353
 20
837.876
 30
0.000000
  70
    32
  0
VERTEX
  8
0
  5
CE70
 10
-351.357
 20
837.875
 30
0.000000
  70
    32
  0
VERTEX
  8
0
  5
CE71
 10
-351.360
 20
837.873
 30
0.000000
  70
    32
  0
VERTEX
  8
0
  5
CE72
 10
-351.364
 20
837.871
 30
0.000000
  70
    32
  0
VERTEX
  8
0
  5
CE73
 10
-351.367
 20
837.869
 30
0.000000
  70
    32
  0
VERTEX
  8
0
  5
CE74
 10
-351.371
 20
837.867
 30
0.000000
  70
    32
  0
VERTEX
  8
0
  5
CE75
 10
-351.374
 20
837.865
 30
0.000000
  70
    32
  0
VERTEX
  8
0
  5
CE76
 10
-351.377
 20
837.864
 30
0.000000
  70
    32
  0
VERTEX
  8
0
  5
CE77
 10
-351.381
 20
837.862
 30
0.000000
  70
    32
  0
VERTEX
  8
0
  5
CE78
 10
-351.385
 20
837.860
 30
0.000000
  70
    32
  0
VERTEX
  8
0
  5
CE79
 10
-351.388
 20
837.858
 30
0.000000
  70
    32
  0
VERTEX
  8
0
  5
CE7A
 10
-351.392
 20
837.857
 30
0.000000
  70
    32
  0
VERTEX
  8
0
  5
CE7B
 10
-351.395
 20
837.855
 30
0.000000
  70
    32
  0
VERTEX
  8
0
  5
CE7C
 10
-351.399
 20
837.853
 30
0.000000
  70
    32
  0
VERTEX
  8
0
  5
CE7D
 10
-351.402
 20
837.852
 30
0.000000
  70
    32
  0
VERTEX
  8
0
  5
CE7E
 10
-351.406
 20
837.850
 30
0.000000
  70
    32
  0
VERTEX
  8
0
  5
CE7F
 10
-351.409
 20
837.849
 30
0.000000
  70
    32
  0
VERTEX
  8
0
  5
CE80
 10
-351.413
 20
837.847
 30
0.000000
  70
    32
  0
VERTEX
  8
0
  5
CE81
 10
-351.417
 20
837.845
 30
0.000000
  70
    32
  0
VERTEX
  8
0
  5
CE82
 10
-351.420
 20
837.844
 30
0.000000
  70
    32
  0
VERTEX
  8
0
  5
CE83
 10
-351.424
 20
837.842
 30
0.000000
  70
    32
  0
VERTEX
  8
0
  5
CE84
 10
-351.427
 20
837.841
 30
0.000000
  70
    32
  0
VERTEX
  8
0
  5
CE85
 10
-351.431
 20
837.839
 30
0.000000
  70
    32
  0
VERTEX
  8
0
  5
CE86
 10
-351.435
 20
837.838
 30
0.000000
  70
    32
  0
VERTEX
  8
0
  5
CE87
 10
-351.438
 20
837.836
 30
0.000000
  70
    32
  0
VERTEX
  8
0
  5
CE88
 10
-351.442
 20
837.835
 30
0.000000
  70
    32
  0
VERTEX
  8
0
  5
CE89
 10
-351.446
 20
837.834
 30
0.000000
  70
    32
  0
VERTEX
  8
0
  5
CE8A
 10
-351.449
 20
837.832
 30
0.000000
  70
    32
  0
VERTEX
  8
0
  5
CE8B
 10
-351.453
 20
837.831
 30
0.000000
  70
    32
  0
VERTEX
  8
0
  5
CE8C
 10
-351.457
 20
837.829
 30
0.000000
  70
    32
  0
VERTEX
  8
0
  5
CE8D
 10
-351.461
 20
837.828
 30
0.000000
  70
    32
  0
VERTEX
  8
0
  5
CE8E
 10
-351.464
 20
837.827
 30
0.000000
  70
    32
  0
VERTEX
  8
0
  5
CE8F
 10
-351.468
 20
837.825
 30
0.000000
  70
    32
  0
VERTEX
  8
0
  5
CE90
 10
-351.472
 20
837.824
 30
0.000000
  70
    32
  0
VERTEX
  8
0
  5
CE91
 10
-351.475
 20
837.823
 30
0.000000
  70
    32
  0
VERTEX
  8
0
  5
CE92
 10
-351.479
 20
837.822
 30
0.000000
  70
    32
  0
VERTEX
  8
0
  5
CE93
 10
-351.483
 20
837.820
 30
0.000000
  70
    32
  0
VERTEX
  8
0
  5
CE94
 10
-351.487
 20
837.819
 30
0.000000
  70
    32
  0
VERTEX
  8
0
  5
CE95
 10
-351.491
 20
837.818
 30
0.000000
  70
    32
  0
VERTEX
  8
0
  5
CE96
 10
-351.494
 20
837.817
 30
0.000000
  70
    32
  0
VERTEX
  8
0
  5
CE97
 10
-351.498
 20
837.815
 30
0.000000
  70
    32
  0
VERTEX
  8
0
  5
CE98
 10
-351.502
 20
837.814
 30
0.000000
  70
    32
  0
VERTEX
  8
0
  5
CE99
 10
-351.506
 20
837.813
 30
0.000000
  70
    32
  0
VERTEX
  8
0
  5
CE9A
 10
-351.509
 20
837.812
 30
0.000000
  70
    32
  0
VERTEX
  8
0
  5
CE9B
 10
-351.513
 20
837.811
 30
0.000000
  70
    32
  0
VERTEX
  8
0
  5
CE9C
 10
-351.517
 20
837.810
 30
0.000000
  70
    32
  0
VERTEX
  8
0
  5
CE9D
 10
-351.521
 20
837.808
 30
0.000000
  70
    32
  0
VERTEX
  8
0
  5
CE9E
 10
-351.525
 20
837.807
 30
0.000000
  70
    32
  0
VERTEX
  8
0
  5
CE9F
 10
-351.529
 20
837.806
 30
0.000000
  70
    32
  0
VERTEX
  8
0
  5
CEA0
 10
-351.532
 20
837.805
 30
0.000000
  70
    32
  0
VERTEX
  8
0
  5
CEA1
 10
-351.536
 20
837.804
 30
0.000000
  70
    32
  0
VERTEX
  8
0
  5
CEA2
 10
-351.540
 20
837.803
 30
0.000000
  70
    32
  0
VERTEX
  8
0
  5
CEA3
 10
-351.544
 20
837.802
 30
0.000000
  70
    32
  0
VERTEX
  8
0
  5
CEA4
 10
-351.548
 20
837.801
 30
0.000000
  70
    32
  0
VERTEX
  8
0
  5
CEA5
 10
-351.552
 20
837.800
 30
0.000000
  70
    32
  0
VERTEX
  8
0
  5
CEA6
 10
-351.555
 20
837.799
 30
0.000000
  70
    32
  0
VERTEX
  8
0
  5
CEA7
 10
-351.559
 20
837.798
 30
0.000000
  70
    32
  0
VERTEX
  8
0
  5
CEA8
 10
-351.563
 20
837.797
 30
0.000000
  70
    32
  0
VERTEX
  8
0
  5
CEA9
 10
-351.567
 20
837.796
 30
0.000000
  70
    32
  0
VERTEX
  8
0
  5
CEAA
 10
-351.571
 20
837.795
 30
0.000000
  70
    32
  0
VERTEX
  8
0
  5
CEAB
 10
-351.575
 20
837.794
 30
0.000000
  70
    32
  0
VERTEX
  8
0
  5
CEAC
 10
-351.579
 20
837.793
 30
0.000000
  70
    32
  0
VERTEX
  8
0
  5
CEAD
 10
-351.583
 20
837.792
 30
0.000000
  70
    32
  0
VERTEX
  8
0
  5
CEAE
 10
-351.586
 20
837.791
 30
0.000000
  70
    32
  0
VERTEX
  8
0
  5
CEAF
 10
-351.590
 20
837.790
 30
0.000000
  70
    32
  0
VERTEX
  8
0
  5
CEB0
 10
-351.594
 20
837.789
 30
0.000000
  70
    32
  0
VERTEX
  8
0
  5
CEB1
 10
-351.598
 20
837.788
 30
0.000000
  70
    32
  0
VERTEX
  8
0
  5
CEB2
 10
-351.602
 20
837.787
 30
0.000000
  70
    32
  0
VERTEX
  8
0
  5
CEB3
 10
-351.606
 20
837.786
 30
0.000000
  70
    32
  0
VERTEX
  8
0
  5
CEB4
 10
-351.610
 20
837.785
 30
0.000000
  70
    32
  0
VERTEX
  8
0
  5
CEB5
 10
-351.614
 20
837.785
 30
0.000000
  70
    32
  0
VERTEX
  8
0
  5
CEB6
 10
-351.618
 20
837.784
 30
0.000000
  70
    32
  0
VERTEX
  8
0
  5
CEB7
 10
-351.621
 20
837.783
 30
0.000000
  70
    32
  0
VERTEX
  8
0
  5
CEB8
 10
-351.625
 20
837.782
 30
0.000000
  70
    32
  0
VERTEX
  8
0
  5
CEB9
 10
-351.629
 20
837.781
 30
0.000000
  70
    32
  0
VERTEX
  8
0
  5
CEBA
 10
-351.633
 20
837.780
 30
0.000000
  70
    32
  0
VERTEX
  8
0
  5
CEBB
 10
-351.637
 20
837.779
 30
0.000000
  70
    32
  0
VERTEX
  8
0
  5
CEBC
 10
-351.641
 20
837.778
 30
0.000000
  70
    32
  0
VERTEX
  8
0
  5
CEBD
 10
-351.645
 20
837.778
 30
0.000000
  70
    32
  0
VERTEX
  8
0
  5
CEBE
 10
-351.649
 20
837.777
 30
0.000000
  70
    32
  0
VERTEX
  8
0
  5
CEBF
 10
-351.653
 20
837.776
 30
0.000000
  70
    32
  0
VERTEX
  8
0
  5
CEC0
 10
-351.656
 20
837.775
 30
0.000000
  70
    32
  0
VERTEX
  8
0
  5
CEC1
 10
-351.660
 20
837.774
 30
0.000000
  70
    32
  0
VERTEX
  8
0
  5
CEC2
 10
-351.664
 20
837.773
 30
0.000000
  70
    32
  0
VERTEX
  8
0
  5
CEC3
 10
-351.668
 20
837.773
 30
0.000000
  70
    32
  0
VERTEX
  8
0
  5
CEC4
 10
-351.672
 20
837.772
 30
0.000000
  70
    32
  0
VERTEX
  8
0
  5
CEC5
 10
-351.676
 20
837.771
 30
0.000000
  70
    32
  0
VERTEX
  8
0
  5
CEC6
 10
-351.680
 20
837.770
 30
0.000000
  70
    32
  0
VERTEX
  8
0
  5
CEC7
 10
-351.684
 20
837.770
 30
0.000000
  70
    32
  0
VERTEX
  8
0
  5
CEC8
 10
-351.688
 20
837.769
 30
0.000000
  70
    32
  0
VERTEX
  8
0
  5
CEC9
 10
-351.692
 20
837.768
 30
0.000000
  70
    32
  0
VERTEX
  8
0
  5
CECA
 10
-351.695
 20
837.767
 30
0.000000
  70
    32
  0
VERTEX
  8
0
  5
CECB
 10
-351.699
 20
837.766
 30
0.000000
  70
    32
  0
VERTEX
  8
0
  5
CECC
 10
-351.703
 20
837.766
 30
0.000000
  70
    32
  0
VERTEX
  8
0
  5
CECD
 10
-351.707
 20
837.765
 30
0.000000
  70
    32
  0
VERTEX
  8
0
  5
CECE
 10
-351.711
 20
837.764
 30
0.000000
  70
    32
  0
VERTEX
  8
0
  5
CECF
 10
-351.715
 20
837.764
 30
0.000000
  70
    32
  0
VERTEX
  8
0
  5
CED0
 10
-351.719
 20
837.763
 30
0.000000
  70
    32
  0
VERTEX
  8
0
  5
CED1
 10
-351.723
 20
837.762
 30
0.000000
  70
    32
  0
VERTEX
  8
0
  5
CED2
 10
-351.727
 20
837.762
 30
0.000000
  70
    32
  0
VERTEX
  8
0
  5
CED3
 10
-351.731
 20
837.761
 30
0.000000
  70
    32
  0
VERTEX
  8
0
  5
CED4
 10
-351.734
 20
837.760
 30
0.000000
  70
    32
  0
VERTEX
  8
0
  5
CED5
 10
-351.738
 20
837.760
 30
0.000000
  70
    32
  0
VERTEX
  8
0
  5
CED6
 10
-351.742
 20
837.759
 30
0.000000
  70
    32
  0
VERTEX
  8
0
  5
CED7
 10
-351.746
 20
837.758
 30
0.000000
  70
    32
  0
VERTEX
  8
0
  5
CED8
 10
-351.750
 20
837.758
 30
0.000000
  70
    32
  0
VERTEX
  8
0
  5
CED9
 10
-351.754
 20
837.757
 30
0.000000
  70
    32
  0
VERTEX
  8
0
  5
CEDA
 10
-351.758
 20
837.757
 30
0.000000
  70
    32
  0
VERTEX
  8
0
  5
CEDB
 10
-351.762
 20
837.756
 30
0.000000
  70
    32
  0
VERTEX
  8
0
  5
CEDC
 10
-351.766
 20
837.756
 30
0.000000
  70
    32
  0
VERTEX
  8
0
  5
CEDD
 10
-351.770
 20
837.755
 30
0.000000
  70
    32
  0
VERTEX
  8
0
  5
CEDE
 10
-351.774
 20
837.754
 30
0.000000
  70
    32
  0
VERTEX
  8
0
  5
CEDF
 10
-351.778
 20
837.754
 30
0.000000
  70
    32
  0
VERTEX
  8
0
  5
CEE0
 10
-351.781
 20
837.753
 30
0.000000
  70
    32
  0
VERTEX
  8
0
  5
CEE1
 10
-351.785
 20
837.753
 30
0.000000
  70
    32
  0
VERTEX
  8
0
  5
CEE2
 10
-351.789
 20
837.752
 30
0.000000
  70
    32
  0
VERTEX
  8
0
  5
CEE3
 10
-351.793
 20
837.752
 30
0.000000
  70
    32
  0
VERTEX
  8
0
  5
CEE4
 10
-351.797
 20
837.752
 30
0.000000
  70
    32
  0
VERTEX
  8
0
  5
CEE5
 10
-351.801
 20
837.751
 30
0.000000
  70
    32
  0
VERTEX
  8
0
  5
CEE6
 10
-351.805
 20
837.751
 30
0.000000
  70
    32
  0
VERTEX
  8
0
  5
CEE7
 10
-351.809
 20
837.750
 30
0.000000
  70
    32
  0
VERTEX
  8
0
  5
CEE8
 10
-351.813
 20
837.750
 30
0.000000
  70
    32
  0
VERTEX
  8
0
  5
CEE9
 10
-351.817
 20
837.750
 30
0.000000
  70
    32
  0
VERTEX
  8
0
  5
CEEA
 10
-351.821
 20
837.749
 30
0.000000
  70
    32
  0
VERTEX
  8
0
  5
CEEB
 10
-351.825
 20
837.749
 30
0.000000
  70
    32
  0
VERTEX
  8
0
  5
CEEC
 10
-351.829
 20
837.748
 30
0.000000
  70
    32
  0
VERTEX
  8
0
  5
CEED
 10
-351.833
 20
837.748
 30
0.000000
  70
    32
  0
VERTEX
  8
0
  5
CEEE
 10
-351.836
 20
837.748
 30
0.000000
  70
    32
  0
VERTEX
  8
0
  5
CEEF
 10
-351.840
 20
837.748
 30
0.000000
  70
    32
  0
VERTEX
  8
0
  5
CEF0
 10
-351.844
 20
837.747
 30
0.000000
  70
    32
  0
VERTEX
  8
0
  5
CEF1
 10
-351.848
 20
837.747
 30
0.000000
  70
    32
  0
VERTEX
  8
0
  5
CEF2
 10
-351.852
 20
837.747
 30
0.000000
  70
    32
  0
VERTEX
  8
0
  5
CEF3
 10
-351.856
 20
837.747
 30
0.000000
  70
    32
  0
VERTEX
  8
0
  5
CEF4
 10
-351.860
 20
837.746
 30
0.000000
  70
    32
  0
VERTEX
  8
0
  5
CEF5
 10
-351.864
 20
837.746
 30
0.000000
  70
    32
  0
VERTEX
  8
0
  5
CEF6
 10
-351.868
 20
837.746
 30
0.000000
  70
    32
  0
VERTEX
  8
0
  5
CEF7
 10
-351.872
 20
837.746
 30
0.000000
  70
    32
  0
VERTEX
  8
0
  5
CEF8
 10
-351.876
 20
837.746
 30
0.000000
  70
    32
  0
VERTEX
  8
0
  5
CEF9
 10
-351.880
 20
837.746
 30
0.000000
  70
    32
  0
VERTEX
  8
0
  5
CEFA
 10
-351.884
 20
837.746
 30
0.000000
  70
    32
  0
VERTEX
  8
0
  5
CEFB
 10
-351.888
 20
837.745
 30
0.000000
  70
    32
  0
VERTEX
  8
0
  5
CEFC
 10
-351.892
 20
837.745
 30
0.000000
  70
    32
  0
VERTEX
  8
0
  5
CEFD
 10
-351.896
 20
837.745
 30
0.000000
  70
    32
  0
VERTEX
  8
0
  5
CEFE
 10
-351.900
 20
837.745
 30
0.000000
  70
    32
  0
VERTEX
  8
0
  5
CEFF
 10
-351.904
 20
837.745
 30
0.000000
  70
    32
  0
VERTEX
  8
0
  5
CF00
 10
-351.908
 20
837.745
 30
0.000000
  70
    32
  0
VERTEX
  8
0
  5
CF01
 10
-351.912
 20
837.745
 30
0.000000
  70
    32
  0
VERTEX
  8
0
  5
CF02
 10
-351.916
 20
837.745
 30
0.000000
  70
    32
  0
VERTEX
  8
0
  5
CF03
 10
-351.920
 20
837.745
 30
0.000000
  70
    32
  0
VERTEX
  8
0
  5
CF04
 10
-351.924
 20
837.745
 30
0.000000
  70
    32
  0
VERTEX
  8
0
  5
CF05
 10
-351.927
 20
837.745
 30
0.000000
  70
    32
  0
VERTEX
  8
0
  5
CF06
 10
-351.931
 20
837.745
 30
0.000000
  70
    32
  0
VERTEX
  8
0
  5
CF07
 10
-351.935
 20
837.745
 30
0.000000
  70
    32
  0
VERTEX
  8
0
  5
CF08
 10
-351.939
 20
837.745
 30
0.000000
  70
    32
  0
VERTEX
  8
0
  5
CF09
 10
-351.943
 20
837.745
 30
0.000000
  70
    32
  0
VERTEX
  8
0
  5
CF0A
 10
-351.947
 20
837.745
 30
0.000000
  70
    32
  0
VERTEX
  8
0
  5
CF0B
 10
-351.951
 20
837.745
 30
0.000000
  70
    32
  0
VERTEX
  8
0
  5
CF0C
 10
-351.955
 20
837.745
 30
0.000000
  70
    32
  0
VERTEX
  8
0
  5
CF0D
 10
-351.959
 20
837.745
 30
0.000000
  70
    32
  0
VERTEX
  8
0
  5
CF0E
 10
-351.963
 20
837.745
 30
0.000000
  70
    32
  0
VERTEX
  8
0
  5
CF0F
 10
-351.967
 20
837.745
 30
0.000000
  70
    32
  0
VERTEX
  8
0
  5
CF10
 10
-351.971
 20
837.745
 30
0.000000
  70
    32
  0
VERTEX
  8
0
  5
CF11
 10
-351.975
 20
837.745
 30
0.000000
  70
    32
  0
VERTEX
  8
0
  5
CF12
 10
-351.979
 20
837.745
 30
0.000000
  70
    32
  0
VERTEX
  8
0
  5
CF13
 10
-351.983
 20
837.745
 30
0.000000
  70
    32
  0
VERTEX
  8
0
  5
CF14
 10
-351.987
 20
837.745
 30
0.000000
  70
    32
  0
VERTEX
  8
0
  5
CF15
 10
-351.991
 20
837.745
 30
0.000000
  70
    32
  0
SEQEND
  8
0
  5
CF16
  0
LINE
  5
CB05
  8
0
 10
-350.13626113925108
 20
838.4447201143023
 30
0.0
 11
-350.13626113925108
 21
837.94157981024421
 31
0.0
  0
LINE
  5
CB06
  8
0
 10
-350.13626113925108
 20
837.68212623286411
 30
0.0
 11
-350.13626113925108
 21
837.00946870582754
 31
0.0
  0
LINE
  5
CB07
  8
0
 10
-350.13626113925108
 20
838.4447201143023
 30
0.0
 11
-350.13626113925108
 21
838.66485146853665
 31
0.0
  0
LINE
  5
CB08
  8
0
 10
-350.13626113925108
 20
837.94157981024421
 30
0.0
 11
-349.73539252611471
 21
837.82568963367487
 31
0.0
  0
LINE
  5
CB09
  8
0
 10
-349.73539252611471
 20
837.82568963367487
 30
0.0
 11
-350.5759266144143
 21
837.76352951450542
 31
0.0
  0
LINE
  5
CB0A
  8
0
 10
-350.5759266144143
 20
837.76352951450542
 30
0.0
 11
-350.13626113925108
 21
837.68212623286411
 31
0.0
  0
INSERT
  5
CDD0
  8
0
  2
*U6
 10
0.0
 20
0.0
 30
0.0
  0
VIEWPORT
  5
BADA
 67
     1
  8
0
 10
5.1401075230823237
 20
3.9491324490549111
 30
0.0
 40
16.258967836944109
 41
10.75511445632689
 68
     1
 69
     1
1001
ACAD
1000
MVIEW
1002
{
1070
    16
1010
0.0
1020
0.0
1030
0.0
1010
0.0
1020
0.0
1030
1.0
1040
0.0
1040
10.75511445632689
1040
5.1401075230823237
1040
3.9491324490549111
1040
50.0
1040
0.0
1040
0.0
1070
     0
1070
   100
1070
     1
1070
     1
1070
     0
1070
     0
1070
     0
1070
     0
1040
0.0
1040
0.0
1040
0.0
1040
0.5
1040
0.5
1040
0.5
1040
0.5
1070
     0
1002
{
1002
}
1002
}
  0
VIEWPORT
  5
BADD
 67
     1
  8
0
 10
5.2499996294871929
 20
4.0166741807634683
 30
0.0
 40
10.44245679893058
 41
7.8813805131999892
 68
     2
 69
     2
1001
ACAD
1000
MVIEW
1002
{
1070
    16
1010
0.0
1020
0.0
1030
0.0
1010
0.0
1020
0.0
1030
1.0
1040
0.0
1040
7.8813805282528513
1040
-350.11930000728728
1040
837.6498299689149
1040
50.0
1040
0.0
1040
0.0
1070
     0
1070
   100
1070
     1
1070
     2
1070
     0
1070
     0
1070
     0
1070
     0
1040
0.0
1040
0.0
1040
0.0
1040
0.5
1040
0.5
1040
0.5
1040
0.5
1070
     0
1002
{
1002
}
1002
}
  0
ENDSEC
  0
EOF
