  0
SECTION
  2
HEADER
  9
$ACADVER
  1
AC1009
  9
$INSBASE
 10
0.0
 20
0.0
 30
0.0
  9
$EXTMIN
 10
-0.0228749121038163
 20
-0.0228749121038163
 30
-0.0000000000112498
  9
$EXTMAX
 10
2.723873003838889
 20
2.609425101244141
 30
0.0000000000002956
  9
$LIMMIN
 10
0.0
 20
0.0
  9
$LIMMAX
 10
1500.0
 20
1500.0
  9
$ORTHOMODE
 70
     0
  9
$REGENMODE
 70
     1
  9
$FILLMODE
 70
     1
  9
$QTEXTMODE
 70
     0
  9
$MIRRTEXT
 70
     1
  9
$DRAGMODE
 70
     2
  9
$LTSCALE
 40
1.0
  9
$OSMODE
 70
    55
  9
$ATTMODE
 70
     1
  9
$TEXTSIZE
 40
1.0
  9
$TRACEWID
 40
0.05
  9
$TEXTSTYLE
  7
STANDARD
  9
$CLAYER
  8
0
  9
$CELTYPE
  6
BYLAYER
  9
$CECOLOR
 62
   256
  9
$DIMSCALE
 40
1.0
  9
$DIMASZ
 40
0.5625
  9
$DIMEXO
 40
1.125
  9
$DIMDLI
 40
1.5
  9
$DIMRND
 40
0.0
  9
$DIMDLE
 40
0.0
  9
$DIMEXE
 40
0.75
  9
$DIMTP
 40
0.0
  9
$DIMTM
 40
0.0
  9
$DIMTXT
 40
1.5
  9
$DIMCEN
 40
1.5
  9
$DIMTSZ
 40
0.0
  9
$DIMTOL
 70
     0
  9
$DIMLIM
 70
     0
  9
$DIMTIH
 70
     0
  9
$DIMTOH
 70
     0
  9
$DIMSE1
 70
     0
  9
$DIMSE2
 70
     0
  9
$DIMTAD
 70
     1
  9
$DIMZIN
 70
     0
  9
$DIMBLK
  1
ARCHTICK
  9
$DIMASO
 70
     1
  9
$DIMSHO
 70
     1
  9
$DIMPOST
  1
"
  9
$DIMAPOST
  1

  9
$DIMALT
 70
     0
  9
$DIMALTD
 70
     2
  9
$DIMALTF
 40
25.3999999999999986
  9
$DIMLFAC
 40
1.0
  9
$DIMTOFL
 70
     0
  9
$DIMTVP
 40
0.0
  9
$DIMTIX
 70
     1
  9
$DIMSOXD
 70
     0
  9
$DIMSAH
 70
     0
  9
$DIMBLK1
  1

  9
$DIMBLK2
  1

  9
$DIMSTYLE
  2
INCH_SCALE
  9
$DIMCLRD
 70
     0
  9
$DIMCLRE
 70
     0
  9
$DIMCLRT
 70
     0
  9
$DIMTFAC
 40
1.0
  9
$DIMGAP
 40
0.75
  9
$LUNITS
 70
     2
  9
$LUPREC
 70
     4
  9
$SKETCHINC
 40
0.1
  9
$FILLETRAD
 40
0.0
  9
$AUNITS
 70
     0
  9
$AUPREC
 70
     0
  9
$MENU
  1
.
  9
$ELEVATION
 40
0.0
  9
$PELEVATION
 40
0.0
  9
$THICKNESS
 40
0.0
  9
$LIMCHECK
 70
     0
  9
$BLIPMODE
 70
     0
  9
$CHAMFERA
 40
0.25
  9
$CHAMFERB
 40
0.25
  9
$SKPOLY
 70
     0
  9
$TDCREATE
 40
2452089.3957291669212282
  9
$TDUPDATE
 40
2459811.4696296299807727
  9
$TDINDWG
 40
64.8736413310000017
  9
$TDUSRTIMER
 40
64.8736413310000017
  9
$USRTIMER
 70
     1
  9
$ANGBASE
 50
0.0
  9
$ANGDIR
 70
     0
  9
$PDMODE
 70
     0
  9
$PDSIZE
 40
10.0
  9
$PLINEWID
 40
0.0625
  9
$COORDS
 70
     1
  9
$SPLFRAME
 70
     0
  9
$SPLINETYPE
 70
     6
  9
$SPLINESEGS
 70
     8
  9
$ATTDIA
 70
     0
  9
$ATTREQ
 70
     1
  9
$HANDLING
 70
     1
  9
$HANDSEED
  5
326DEA
  9
$SURFTAB1
 70
     6
  9
$SURFTAB2
 70
     6
  9
$SURFTYPE
 70
     6
  9
$SURFU
 70
     6
  9
$SURFV
 70
     6
  9
$UCSNAME
  2

  9
$UCSORG
 10
0.0
 20
0.0
 30
0.0
  9
$UCSXDIR
 10
1.0
 20
0.0
 30
0.0
  9
$UCSYDIR
 10
0.0
 20
1.0
 30
0.0
  9
$PUCSNAME
  2

  9
$PUCSORG
 10
0.0
 20
0.0
 30
0.0
  9
$PUCSXDIR
 10
1.0
 20
0.0
 30
0.0
  9
$PUCSYDIR
 10
0.0
 20
1.0
 30
0.0
  9
$USERI1
 70
     0
  9
$USERI2
 70
     0
  9
$USERI3
 70
     0
  9
$USERI4
 70
     0
  9
$USERI5
 70
     0
  9
$USERR1
 40
0.0
  9
$USERR2
 40
0.0
  9
$USERR3
 40
0.0
  9
$USERR4
 40
0.0
  9
$USERR5
 40
0.0
  9
$WORLDVIEW
 70
     1
  9
$SHADEDGE
 70
     3
  9
$SHADEDIF
 70
    70
  9
$TILEMODE
 70
     1
  9
$MAXACTVP
 70
    64
  9
$PLIMCHECK
 70
     0
  9
$PEXTMIN
 10
0.0238171342555162
 20
0.0374288433079571
 30
0.0
  9
$PEXTMAX
 10
7.9296889747734962
 20
10.0742912195362901
 30
0.0
  9
$PLIMMIN
 10
-0.2312499894870548
 20
-0.2312499519408218
  9
$PLIMMAX
 10
8.268749770217056
 20
10.7687498077632906
  9
$UNITMODE
 70
     0
  9
$VISRETAIN
 70
     1
  9
$PLINEGEN
 70
     0
  9
$PSLTSCALE
 70
     1
  0
ENDSEC
  0
SECTION
  2
TABLES
  0
TABLE
  2
VPORT
 70
     1
  0
VPORT
  2
*ACTIVE
 70
     0
 10
0.0
 20
0.0
 11
1.0
 21
1.0
 12
2827376.5024496540427208
 22
955569.4136970220133662
 13
0.0
 23
0.0
 14
0.5
 24
0.5
 15
0.5
 25
0.5
 16
0.0
 26
0.0
 36
464.3802474139982905
 17
-2827375.1519506080076098
 27
-955568.1204219276551157
 37
0.0
 40
2.6496367860818282
 41
2.0186813186813182
 42
50.0
 43
0.0
 44
0.0
 50
0.0
 51
0.0
 71
     0
 72
     0
 73
     1
 74
     2
 75
     0
 76
     0
 77
     0
 78
     0
  0
ENDTAB
  0
TABLE
  2
LTYPE
 70
     8
  0
LTYPE
  2
CONTINUOUS
 70
     0
  3
Solid line
 72
    65
 73
     0
 40
0.0
  0
LTYPE
  2
CENTER
 70
     0
  3
Center ____ _ ____ _ ____ _ ____ _ ____ _ ____
 72
    65
 73
     4
 40
2.0
 49
1.25
 49
-0.25
 49
0.25
 49
-0.25
  0
LTYPE
  2
HIDDEN
 70
     0
  3
Hidden __ __ __ __ __ __ __ __ __ __ __ __ __ _
 72
    65
 73
     2
 40
0.375
 49
0.25
 49
-0.125
  0
LTYPE
  2
PHANTOM2
 70
     0
  3
Phantom (.5x) ___ _ _ ___ _ _ ___ _ _ ___ _ _
 72
    65
 73
     6
 40
1.25
 49
0.625
 49
-0.125
 49
0.125
 49
-0.125
 49
0.125
 49
-0.125
  0
LTYPE
  2
CENTER2
 70
     0
  3
Center (.5x) ___ _ ___ _ ___ _ ___ _ ___ _ ___
 72
    65
 73
     4
 40
1.125
 49
0.75
 49
-0.125
 49
0.125
 49
-0.125
  0
LTYPE
  2
HIDDEN2
 70
     0
  3
Hidden (.5x) _ _ _ _ _ _ _ _ _ _ _ _ _ _ _ _ _
 72
    65
 73
     2
 40
0.1875
 49
0.125
 49
-0.0625
  0
LTYPE
  2
ACANSTGB
 70
     0
  3
__ . . __ . .
 72
    65
 73
     6
 40
0.35433070866
 49
0.15748031496
 49
-0.03937007874
 49
0.03937007874
 49
-0.03937007874
 49
0.03937007874
 49
-0.03937007874
  0
LTYPE
  2
ACANSTGL
 70
     0
  3
_ _ _ _ _
 72
    65
 73
     2
 40
0.11811023622
 49
0.07874015748
 49
-0.03937007874
  0
ENDTAB
  0
TABLE
  2
LAYER
 70
     2
  0
LAYER
  2
0
 70
     0
 62
     7
  6
CONTINUOUS
  0
LAYER
  2
DEFPOINTS
 70
     0
 62
     7
  6
CONTINUOUS
  0
ENDTAB
  0
TABLE
  2
STYLE
 70
     6
  0
STYLE
  2
STANDARD
 70
     0
 40
0.0
 41
1.0
 50
0.0
 71
     0
 42
1.0
  3
txt
  4

  0
STYLE
  2
ACANSTS
 70
     0
 40
1.0
 41
1.0
 50
0.0
 71
     0
 42
1.5
  3
romans.shx
  4

  0
STYLE
  2
ACANSGDT
 70
     0
 40
0.0
 41
1.0
 50
0.0
 71
     0
 42
1.5
  3
amgdt.shx
  4

  0
STYLE
  2
MtXpl_Times_New_Roma
 70
     0
 40
0.0
 41
1.0
 50
0.0
 71
     0
 42
1.0
  3
txt
  4

  0
STYLE
  2
MtXpl_Franklin_Gothi
 70
     0
 40
0.0
 41
1.0
 50
0.0
 71
     0
 42
1.0
  3
txt
  4

  0
STYLE
  2
MtXpl_Symbol
 70
     0
 40
0.0
 41
1.0
 50
0.0
 71
     0
 42
1.0
  3
txt
  4

  0
ENDTAB
  0
TABLE
  2
VIEW
 70
     5
  0
VIEW
  2
OLE1
 70
     0
 40
6.7371428080368778
 10
2828463.4619009718298912
 20
956800.0846286122687161
 41
14.1662494936486496
 11
0.0
 21
0.0
 31
464.3802474139982905
 12
-2827375.1519506080076098
 22
-955568.1204219276551157
 32
0.0
 42
50.0
 43
0.0
 44
0.0
 50
0.0
 71
     0
  0
VIEW
  2
OLE2
 70
     0
 40
8.2531429139198735
 10
2830334.1784757329151034
 20
955554.4158152940217406
 41
17.9202858375672811
 11
0.0
 21
0.0
 31
464.3802474139982905
 12
-2827375.1519506080076098
 22
-955568.1204219276551157
 32
0.0
 42
50.0
 43
0.0
 44
0.0
 50
0.0
 71
     0
  0
VIEW
  2
OLE3
 70
     0
 40
1.5708735724116241
 10
2827458.5543690230697393
 20
954912.7945792146492749
 41
3.398998217657208
 11
0.0
 21
0.0
 31
464.3802474139982905
 12
-2827375.1519506080076098
 22
-955568.1204219276551157
 32
0.0
 42
50.0
 43
0.0
 44
0.0
 50
0.0
 71
     0
  0
VIEW
  2
OLE4
 70
     0
 40
7.8940348854521281
 10
2828254.4136333921924233
 20
955112.1214601519750431
 41
17.0412363749679194
 11
0.0
 21
0.0
 31
464.3802474139982905
 12
-2827375.1519506080076098
 22
-955568.1204219276551157
 32
0.0
 42
50.0
 43
0.0
 44
0.0
 50
0.0
 71
     0
  0
ENDTAB
  0
TABLE
  2
UCS
 70
     0
  0
ENDTAB
  0
TABLE
  2
APPID
 70
    45
  0
APPID
  2
ACAD
 70
     0
  0
APPID
  2
DCO15
 70
     0
  0
APPID
  2
ACAD_PSEXT
 70
     0
  0
APPID
  2
ACAD_EXEMPT_FROM_CAD_STANDARDS
 70
     0
  0
APPID
  2
ACAD_DSTYLE_DIMTEXT_FILL
 70
     0
  0
APPID
  2
ACAD_DSTYLE_DIMEXT_LENGTH
 70
     0
  0
APPID
  2
ACAD_DSTYLE_DIMEXT_ENABLED
 70
     0
  0
APPID
  2
ACAD_DSTYLE_DIM_LINETYPE
 70
     0
  0
APPID
  2
ACAD_DSTYLE_DIM_EXT1_LINETYPE
 70
     0
  0
APPID
  2
ACAD_DSTYLE_DIM_EXT2_LINETYPE
 70
     0
  0
APPID
  2
ACAD_DSTYLE_DIMJOGGED_JOGA
 70
     0
  0
APPID
  2
ACAD_DSTYLE_DIMARC_LENGTH_
 70
     0
  0
APPID
  2
ACAECLAYERSTANDARD
 70
     0
  0
APPID
  2
RAK
 70
     0
  0
APPID
  2
TCAD
 70
     0
  0
APPID
  2
ACADSTRINGINFO
 70
     0
  0
APPID
  2
ACAD_MLEADERVER
 70
     0
  0
APPID
  2
MCAD_NO_VIS
 70
     0
  0
APPID
  2
ACAD_TEMP_GRAPHIC
 70
     0
  0
APPID
  2
AD_DRAW
 70
     0
  0
APPID
  2
ACATTRIBSERVICES
 70
     0
  0
APPID
  2
DESIGNERASSEMBLIES
 70
     0
  0
APPID
  2
ACADM_DIM_EDIT
 70
     0
  0
APPID
  2
AMDT_DM_ADJ
 70
     0
  0
APPID
  2
GENIUS_GENSCREG_15
 70
     0
  0
APPID
  2
GENIUS_GENODEF_13
 70
     0
  0
APPID
  2
GENIUS_GENOBJ-N-SDF_13
 70
     0
  0
APPID
  2
ACAD_DSTYLE_DIMRADIAL_EXTENSION
 70
     0
  0
APPID
  2
ACAD_DSTYLE_DIMJAG
 70
     0
  0
APPID
  2
ACAD_DSTYLE_DIMTALN
 70
     0
  0
APPID
  2
ACAD_DSTYLE_DIMBREAK
 70
     0
  0
APPID
  2
ACCMTRANSPARENCY
 70
     0
  0
APPID
  2
GRADIENTCOLOR1ACI
 70
     0
  0
APPID
  2
GRADIENTCOLOR2ACI
 70
     0
  0
APPID
  2
ACADANNOTATIVE
 70
     0
  0
APPID
  2
CONTENTBLOCKDESCRIPTION
 70
     0
  0
APPID
  2
CONTENTBLOCKICON
 70
     0
  0
APPID
  2
ACAD_NAV_VCDISPLAY
 70
     0
  0
APPID
  2
ACDBDYNAMICBLOCKGUID
 70
     0
  0
APPID
  2
AEC_XDATA_BOUND_SPACE
 70
     0
  0
APPID
  2
ACDBBLOCKREPETAG
 70
     0
  0
APPID
  2
GENIUS_GENREC_14
 70
     0
  0
APPID
  2
GENIUS_GENOBJ-N-REC_13
 70
     0
  0
APPID
  2
REVIT
 70
     0
  0
APPID
  2
ACADCODEPAGEINFO
 70
     0
  0
ENDTAB
  0
TABLE
  2
DIMSTYLE
 70
    12
  0
DIMSTYLE
  2
STANDARD
 70
     0
  3

  4

  5

  6

  7

 40
1.0
 41
0.18
 42
0.0625
 43
0.38
 44
0.18
 45
0.0
 46
0.0
 47
0.0
 48
0.0
140
0.18
141
0.09
142
0.0
143
25.3999999999999986
144
1.0
145
0.0
146
1.0
147
0.09
 71
     0
 72
     0
 73
     1
 74
     1
 75
     0
 76
     0
 77
     0
 78
     0
170
     0
171
     2
172
     0
173
     0
174
     0
175
     0
176
     0
177
     0
178
     0
  0
DIMSTYLE
  2
INCH_SCALE
 70
     0
  3
"
  4

  5
ARCHTICK
  6

  7

 40
1.0
 41
0.5625
 42
1.125
 43
1.5
 44
0.75
 45
0.0
 46
0.0
 47
0.0
 48
0.0
140
1.5
141
1.5
142
0.0
143
25.3999999999999986
144
1.0
145
0.0
146
1.0
147
0.75
 71
     0
 72
     0
 73
     0
 74
     0
 75
     0
 76
     0
 77
     1
 78
     0
170
     0
171
     2
172
     0
173
     0
174
     1
175
     0
176
     0
177
     0
178
     0
  0
DIMSTYLE
  2
AM_ANSI
 70
     0
  3

  4
mm
  5

  6

  7

 40
1.0
 41
0.1
 42
0.05
 43
0.5
 44
0.1
 45
0.0
 46
0.0
 47
0.1
 48
0.1
140
0.12
141
0.0
142
0.0
143
25.3999999999999986
144
1.0
145
0.0
146
0.71
147
0.06
 71
     0
 72
     0
 73
     1
 74
     1
 75
     0
 76
     0
 77
     0
 78
     7
170
     0
171
     2
172
     0
173
     0
174
     0
175
     0
176
   256
177
   256
178
     2
  0
DIMSTYLE
  2
AM_ANSI$3
 70
     0
  3

  4
mm
  5

  6

  7

 40
1.0
 41
0.1
 42
0.05
 43
0.5
 44
0.1
 45
0.0
 46
0.0
 47
0.1
 48
0.1
140
0.12
141
0.0
142
0.0
143
25.3999999999999986
144
1.0
145
0.0
146
0.71
147
0.06
 71
     0
 72
     0
 73
     1
 74
     1
 75
     0
 76
     0
 77
     0
 78
     7
170
     0
171
     2
172
     0
173
     0
174
     0
175
     0
176
   256
177
   256
178
     2
  0
DIMSTYLE
  2
AM_ANSI$4
 70
     0
  3

  4
mm
  5

  6

  7

 40
1.0
 41
0.1
 42
0.05
 43
0.5
 44
0.1
 45
0.0
 46
0.0
 47
0.1
 48
0.1
140
0.12
141
0.0
142
0.0
143
25.3999999999999986
144
1.0
145
0.0
146
0.71
147
0.06
 71
     0
 72
     0
 73
     1
 74
     1
 75
     0
 76
     0
 77
     0
 78
     7
170
     0
171
     2
172
     0
173
     0
174
     0
175
     0
176
   256
177
   256
178
     2
  0
DIMSTYLE
  2
AM_ANSI$7
 70
     0
  3

  4
mm
  5

  6

  7

 40
1.0
 41
0.1
 42
0.05
 43
0.5
 44
0.1
 45
0.0
 46
0.0
 47
0.1
 48
0.1
140
0.24
141
0.0
142
0.0
143
25.3999999999999986
144
1.0
145
0.0
146
0.71
147
0.06
 71
     0
 72
     0
 73
     1
 74
     1
 75
     0
 76
     0
 77
     0
 78
     7
170
     0
171
     2
172
     0
173
     0
174
     0
175
     0
176
   256
177
   256
178
     2
  0
DIMSTYLE
  2
AM_ANSI$SF
 70
     0
  3

  4
mm
  5

  6

  7

 40
1.0
 41
0.1
 42
0.05
 43
0.5
 44
0.1
 45
0.0
 46
0.0
 47
0.1
 48
0.1
140
0.12
141
0.0
142
0.0
143
25.3999999999999986
144
1.0
145
0.0
146
0.71
147
0.06
 71
     0
 72
     0
 73
     1
 74
     1
 75
     1
 76
     1
 77
     0
 78
     7
170
     0
171
     2
172
     0
173
     0
174
     0
175
     0
176
   256
177
   256
178
     2
  0
DIMSTYLE
  2
AM_ANSI$SH
 70
     0
  3

  4
mm
  5

  6
GENAXEH
  7

 40
1.0
 41
0.1
 42
0.05
 43
0.5
 44
0.1
 45
0.0
 46
0.0
 47
0.1
 48
0.1
140
0.12
141
0.0
142
0.0
143
25.3999999999999986
144
1.0
145
0.0
146
0.71
147
0.06
 71
     0
 72
     0
 73
     1
 74
     1
 75
     1
 76
     1
 77
     0
 78
     7
170
     0
171
     2
172
     0
173
     1
174
     0
175
     0
176
   256
177
   256
178
     2
  0
ENDTAB
  0
ENDSEC
  0
SECTION
  2
BLOCKS
  0
BLOCK
  8
0
  2
$MODEL_SPACE
 70
     0
 10
0.0
 20
0.0
 30
0.0
  3
$MODEL_SPACE
  1

  0
ENDBLK
  5
21
  8
0
  0
BLOCK
 67
     1
  8
0
  2
$PAPER_SPACE
 70
     0
 10
0.0
 20
0.0
 30
0.0
  3
$PAPER_SPACE
  1

  0
ENDBLK
  5
325BA1
 67
     1
  8
0
  0
BLOCK
  8
0
  2
_ARCHTICK
 70
     0
 10
0.0
 20
0.0
 30
0.0
  3
_ARCHTICK
  1

  0
POLYLINE
  5
158
  8
0
  6
BYBLOCK
 62
     0
 66
     1
 10
0.0
 20
0.0
 30
0.0
 40
0.15
 41
0.15
  0
VERTEX
  5
3265F0
  8
0
  6
BYBLOCK
 62
     0
 10
-0.5
 20
-0.5
 30
0.0
  0
VERTEX
  5
3265F1
  8
0
  6
BYBLOCK
 62
     0
 10
0.5
 20
0.5
 30
0.0
  0
SEQEND
  5
3265F2
  8
0
  6
BYBLOCK
 62
     0
  0
ENDBLK
  5
15A
  8
0
  0
BLOCK
  8
0
  2
_OPEN30
 70
     0
 10
0.0
 20
0.0
 30
0.0
  3
_OPEN30
  1

  0
LINE
  5
15C
  8
0
  6
BYBLOCK
 62
     0
 10
-1.0
 20
0.26794919
 30
0.0
 11
0.0
 21
0.0
 31
0.0
  0
LINE
  5
15D
  8
0
  6
BYBLOCK
 62
     0
 10
0.0
 20
0.0
 30
0.0
 11
-1.0
 21
-0.26794919
 31
0.0
  0
LINE
  5
15E
  8
0
  6
BYBLOCK
 62
     0
 10
0.0
 20
0.0
 30
0.0
 11
-1.0
 21
0.0
 31
0.0
  0
ENDBLK
  5
160
  8
0
  0
BLOCK
  8
0
  2
*U2
 70
     1
 10
0.0
 20
0.0
 30
0.0
  3
*U2
  1

  0
ENDBLK
  5
41F3C
  8
0
  0
BLOCK
  8
0
  2
GENAXEH
 70
     0
 10
0.0
 20
0.0
 30
0.0
  3
GENAXEH
  1

  0
LINE
  5
41F73
  8
0
 10
-1.0
 20
0.0
 30
0.0
 11
1.0
 21
0.0
 31
0.0
  0
ENDBLK
  5
41F75
  8
0
  0
BLOCK
  8
0
  2
*U13
 70
     1
 10
0.0
 20
0.0
 30
0.0
  3
*U13
  1

  0
TEXT
  5
3265F9
  8
0
 10
33.5809970292150908
 20
13.0007589795227503
 30
0.0
 40
0.6171742289555887
  1
T
 50
90.0
  7
MtXpl_Times_New_Roma
  0
ENDBLK
  5
3265FC
  8
0
  0
BLOCK
  8
0
  2
*U14
 70
     1
 10
0.0
 20
0.0
 30
0.0
  3
*U14
  1

  0
TEXT
  5
3265FF
  8
0
 10
33.3742377002744206
 20
13.9794114579945195
 30
0.0
 40
0.55
  1
TAGUE LUMBER
 50
90.0
  7
MtXpl_Franklin_Gothi
  0
ENDBLK
  5
326602
  8
0
  0
BLOCK
  8
0
  2
*U15
 70
     1
 10
0.0
 20
0.0
 30
0.0
  3
*U15
  1

  0
TEXT
  5
326604
  8
0
 10
33.7349208319457929
 20
13.9717794431069002
 30
0.0
 40
0.235
  1
BUILDING MATERIALS DISTRIBUTION
 50
90.0
  7
MtXpl_Franklin_Gothi
  0
ENDBLK
  5
326606
  8
0
  0
BLOCK
  8
0
  2
*U16
 70
     1
 10
0.0
 20
0.0
 30
0.0
  3
*U16
  1

  0
TEXT
  5
326609
  8
0
 10
34.4413928281044335
 20
3.8139040019217569
 30
0.0
 40
0.1875
  1
-
  0
ENDBLK
  5
32660B
  8
0
  0
BLOCK
  8
0
  2
*U17
 70
     1
 10
0.0
 20
0.0
 30
0.0
  3
*U17
  1

  0
TEXT
  5
32660D
  8
0
 10
33.6945903042299477
 20
3.3329263716694948
 30
0.0
 40
0.1875
  1
3/13/21
  0
ENDBLK
  5
32660F
  8
0
  0
BLOCK
  8
0
  2
*U18
 70
     1
 10
0.0
 20
0.0
 30
0.0
  3
*U18
  1

  0
TEXT
  5
326611
  8
0
 10
34.0482311637115274
 20
2.8139040019217569
 30
0.0
 40
0.1875
  1
S.P.
  0
ENDBLK
  5
326613
  8
0
  0
BLOCK
  8
0
  2
*U19
 70
     1
 10
0.0
 20
0.0
 30
0.0
  3
*U19
  1

  0
TEXT
  5
326615
  8
0
 10
34.1167850518424984
 20
2.3154387904620028
 30
0.0
 40
0.1875
  1
Full
  0
ENDBLK
  5
326617
  8
0
  0
BLOCK
  8
0
  2
*U20
 70
     1
 10
0.0
 20
0.0
 30
0.0
  3
*U20
  1

  0
TEXT
  5
32661E
  8
0
 10
22.2537102934771411
 20
9.0956027144255032
 30
0.0
 40
0.4476208693524053
  1
T
 50
90.0
  7
MtXpl_Times_New_Roma
  0
ENDBLK
  5
326620
  8
0
  0
BLOCK
  8
0
  2
*U21
 70
     1
 10
0.0
 20
0.0
 30
0.0
  3
*U21
  1

  0
TEXT
  5
326622
  8
0
 10
22.1032453699788789
 20
9.8053946218885422
 30
0.0
 40
0.395
  1
TAGUE LUMBER
 50
90.0
  7
MtXpl_Franklin_Gothi
  0
ENDBLK
  5
326624
  8
0
  0
BLOCK
  8
0
  2
*U22
 70
     1
 10
0.0
 20
0.0
 30
0.0
  3
*U22
  1

  0
TEXT
  5
326626
  8
0
 10
22.3663237528817014
 20
9.819763077814418
 30
0.0
 40
0.168
  1
BUILDING MATERIALS DISTRIBUTION
 50
90.0
  7
MtXpl_Franklin_Gothi
  0
ENDBLK
  5
326628
  8
0
  0
BLOCK
  8
0
  2
*U23
 70
     1
 10
0.0
 20
0.0
 30
0.0
  3
*U23
  1

  0
TEXT
  5
32662A
  8
0
 10
22.6863334020130303
 20
1.6916017999865109
 30
0.0
 40
0.135989010989011
  1
S.P.
  0
ENDBLK
  5
32662C
  8
0
  0
BLOCK
  8
0
  2
*U24
 70
     1
 10
0.0
 20
0.0
 30
0.0
  3
*U24
  1

  0
TEXT
  5
32662E
  8
0
 10
22.6117527984419695
 20
1.329845675824179
 30
0.0
 40
0.135989010989011
  1
6"=1'
  0
ENDBLK
  5
326630
  8
0
  0
BLOCK
  8
0
  2
*U25
 70
     1
 10
0.0
 20
0.0
 30
0.0
  3
*U25
  1

  0
TEXT
  5
32663A
  8
0
 10
33.2828962767070422
 20
9.8184868836545895
 30
0.0
 40
0.25
  1
-
 50
90.0
  0
ENDBLK
  5
32663C
  8
0
  0
BLOCK
  8
0
  2
*U26
 70
     1
 10
0.0
 20
0.0
 30
0.0
  3
*U26
  1

  0
TEXT
  5
326676
  8
0
 10
22.0735811327941391
 20
6.656475105926301
 30
0.0
 40
0.1813186813186814
  1
-
 50
90.0
  0
ENDBLK
  5
326678
  8
0
  0
BLOCK
  8
0
  2
*U27
 70
     1
 10
0.0
 20
0.0
 30
0.0
  3
*U27
  1

  0
TEXT
  5
32667A
  8
0
 10
22.7263135518585209
 20
6.6565317819171099
 30
0.0
 40
0.1813186813186814
  1
-
 50
90.0
  0
ENDBLK
  5
32667C
  8
0
  0
BLOCK
  8
0
  2
*U28
 70
     1
 10
0.0
 20
0.0
 30
0.0
  3
*U28
  1

  0
TEXT
  5
32667F
  8
0
 10
32.3274259959129324
 20
19.8217994575444187
 30
0.0
 40
0.11
  1
560 East High Street, Philadelphia, PA 19144
 50
90.0
  0
TEXT
  5
326680
  8
0
 10
32.5126351819065675
 20
20.1177218011541115
 30
0.0
 40
0.11
  1
(215) 848-2500 
 50
90.0
  0
TEXT
  5
326681
  8
0
 10
32.5126351819065675
 20
21.21126886800268
 30
0.0
 40
0.11
  1
  
 50
90.0
  7
MtXpl_Symbol
  0
TEXT
  5
326683
  8
0
 10
32.5126351819065675
 20
21.292480115299
 30
0.0
 40
0.11
  1
Fax (215) 848-0433
 50
90.0
  7
MtXpl_Symbol
  0
TEXT
  5
326684
  8
0
 10
32.6978443679002098
 20
19.9436173293043204
 30
0.0
 40
0.11
  1
405 Bridge Street, Phoenixville, PA 19460
 50
90.0
  7
MtXpl_Symbol
  0
TEXT
  5
326685
  8
0
 10
32.8830535538938378
 20
20.1176092499944907
 30
0.0
 40
0.11
  1
(610) 933-5858 
 50
90.0
  7
MtXpl_Symbol
  0
TEXT
  5
326686
  8
0
 10
32.8830535538938378
 20
21.2111563168430592
 30
0.0
 40
0.11
  1
  
 50
90.0
  7
MtXpl_Symbol
  0
TEXT
  5
326687
  8
0
 10
32.8830535538938378
 20
21.2923675641393793
 30
0.0
 40
0.11
  1
Fax (610) 935-6848
 50
90.0
  7
MtXpl_Symbol
  0
TEXT
  5
326688
  8
0
 10
33.0682627398874729
 20
19.9155170564530195
 30
0.0
 40
0.11
  1
325 Media Station Road, Media, PA 19063
 50
90.0
  7
MtXpl_Symbol
  0
TEXT
  5
326689
  8
0
 10
33.253471925881108
 20
20.1177218011541115
 30
0.0
 40
0.11
  1
(610) 566-1200 
 50
90.0
  7
MtXpl_Symbol
  0
TEXT
  5
32668A
  8
0
 10
33.253471925881108
 20
21.21126886800268
 30
0.0
 40
0.11
  1
  
 50
90.0
  7
MtXpl_Symbol
  0
TEXT
  5
32668B
  8
0
 10
33.253471925881108
 20
21.292480115299
 30
0.0
 40
0.11
  1
Fax (610) 565-2107
 50
90.0
  7
MtXpl_Symbol
  0
TEXT
  5
32668C
  8
0
 10
33.4386811118747431
 20
19.8280272883766209
 30
0.0
 40
0.11
  1
475 McFarlan Rd, Kennett Square, PA 19348
 50
90.0
  7
MtXpl_Symbol
  0
TEXT
  5
32668D
  8
0
 10
33.6238902978683782
 20
20.1065538913779918
 30
0.0
 40
0.11
  1
(610) 444-1200   Fax (610) 335-4184
 50
90.0
  7
MtXpl_Symbol
  0
TEXT
  5
32668E
  8
0
 10
33.8076738358401911
 20
20.0296439323056816
 30
0.0
 40
0.11
  1
181 Lancaster Ave, Malvern, PA 19355
 50
90.0
  7
MtXpl_Symbol
  0
TEXT
  5
32668F
  8
0
 10
33.9928830218338192
 20
20.1065163743247801
 30
0.0
 40
0.11
  1
(610) 640-4184   Fax (610) 640-4240
 50
90.0
  7
MtXpl_Symbol
  0
TEXT
  5
326690
  8
0
 10
34.1766665598056321
 20
19.8133206035198697
 30
0.0
 40
0.11
  1
6100 N. Easton Rd, Plumsteadville, Pa 18949
 50
90.0
  7
MtXpl_Symbol
  0
TEXT
  5
326691
  8
0
 10
34.3618757457992601
 20
20.1275634411733506
 30
0.0
 40
0.11
  1
(215) 348-9408  Fax (215) 348-3069
 50
90.0
  7
MtXpl_Symbol
  0
ENDBLK
  5
326693
  8
0
  0
BLOCK
  8
0
  2
*U29
 70
     1
 10
0.0
 20
0.0
 30
0.0
  3
*U29
  1

  0
TEXT
  5
326695
  8
0
 10
21.4126580251347995
 20
14.0372974082449602
 30
0.0
 40
0.0797802197802198
  1
 560 East High Street, Philadelphia, PA 19144
 50
90.0
  0
TEXT
  5
326696
  8
0
 10
21.5469855666246914
 20
14.2650921272103606
 30
0.0
 40
0.0797802197802198
  1
(215) 848-2500 
 50
90.0
  0
TEXT
  5
326697
  8
0
 10
21.5469855666246914
 20
15.0582141756939407
 30
0.0
 40
0.0797802197802198
  1
  
 50
90.0
  7
MtXpl_Symbol
  0
TEXT
  5
326698
  8
0
 10
21.5469855666246914
 20
15.1171146407659993
 30
0.0
 40
0.0797802197802198
  1
Fax (215) 848-0433
 50
90.0
  7
MtXpl_Symbol
  0
TEXT
  5
326699
  8
0
 10
21.6813131081145798
 20
14.1388185542203999
 30
0.0
 40
0.0797802197802198
  1
405 Bridge Street, Phoenixville, PA 19460
 50
90.0
  7
MtXpl_Symbol
  0
TEXT
  5
32669A
  8
0
 10
21.8156406496044717
 20
14.2650104966989897
 30
0.0
 40
0.0797802197802198
  1
(610) 933-5858 
 50
90.0
  7
MtXpl_Symbol
  0
TEXT
  5
32669B
  8
0
 10
21.8156406496044717
 20
15.0581325451825698
 30
0.0
 40
0.0797802197802198
  1
  
 50
90.0
  7
MtXpl_Symbol
  0
TEXT
  5
32669C
  8
0
 10
21.8156406496044717
 20
15.1170330102546302
 30
0.0
 40
0.0797802197802198
  1
Fax (610) 935-6848
 50
90.0
  7
MtXpl_Symbol
  0
TEXT
  5
32669D
  8
0
 10
21.94996819109436
 20
14.1184381365480291
 30
0.0
 40
0.0797802197802198
  1
325 Media Station Road, Media, PA 19063
 50
90.0
  7
MtXpl_Symbol
  0
TEXT
  5
32669E
  8
0
 10
22.0842957325842413
 20
14.2650921272103606
 30
0.0
 40
0.0797802197802198
  1
(610) 566-1200 
 50
90.0
  7
MtXpl_Symbol
  0
TEXT
  5
32669F
  8
0
 10
22.0842957325842413
 20
15.0582141756939407
 30
0.0
 40
0.0797802197802198
  1
  
 50
90.0
  7
MtXpl_Symbol
  0
TEXT
  5
3266A0
  8
0
 10
22.0842957325842413
 20
15.1171146407659993
 30
0.0
 40
0.0797802197802198
  1
Fax (610) 565-2107
 50
90.0
  7
MtXpl_Symbol
  0
TEXT
  5
3266A1
  8
0
 10
22.2186232740741296
 20
14.0549840190420703
 30
0.0
 40
0.0797802197802198
  1
475 McFarlan Rd, Kennett Square, PA 19348
 50
90.0
  7
MtXpl_Symbol
  0
TEXT
  5
3266A2
  8
0
 10
22.3529508155640215
 20
14.2569923245155898
 30
0.0
 40
0.0797802197802198
  1
(610) 444-1200   Fax (610) 335-4184
 50
90.0
  7
MtXpl_Symbol
  0
TEXT
  5
3266A3
  8
0
 10
22.4862443705765394
 20
14.2012114750785408
 30
0.0
 40
0.0797802197802198
  1
181 Lancaster Ave, Malvern, PA 19355
 50
90.0
  7
MtXpl_Symbol
  0
TEXT
  5
3266A4
  8
0
 10
22.6205719120664313
 20
14.2569651143451299
 30
0.0
 40
0.0797802197802198
  1
(610) 640-4184   Fax (610) 640-4240
 50
90.0
  7
MtXpl_Symbol
  0
TEXT
  5
3266A5
  8
0
 10
22.7538654670789491
 20
14.0443176322228904
 30
0.0
 40
0.0797802197802198
  1
6100 N. Easton Rd, Plumsteadville, Pa 18949
 50
90.0
  7
MtXpl_Symbol
  0
TEXT
  5
3266A6
  8
0
 10
22.888193008568841
 20
14.2567474329814807
 30
0.0
 40
0.0797802197802198
  1
(215) 348-9408   Fax (215) 348-3069
 50
90.0
  7
MtXpl_Symbol
  0
ENDBLK
  5
3266A8
  8
0
  0
BLOCK
  8
0
  2
*U30
 70
     1
 10
0.0
 20
0.0
 30
0.0
  3
*U30
  1

  0
TEXT
  5
3266AA
  8
0
 10
22.9050807457705616
 20
2.4027624072405951
 30
0.0
 40
0.135989010989011
  1
--
  0
ENDBLK
  5
3266AC
  8
0
  0
BLOCK
  8
0
  2
*U31
 70
     1
 10
0.0
 20
0.0
 30
0.0
  3
*U31
  1

  0
TEXT
  5
3266AE
  8
0
 10
22.4358105480402088
 20
2.035368453319899
 30
0.0
 40
0.135989010989011
  1
2/22/21
  0
ENDBLK
  5
3266B0
  8
0
  0
BLOCK
  8
0
  2
*U32
 70
     1
 10
0.0
 20
0.0
 30
0.0
  3
*U32
  1

  0
TEXT
  5
3266BD
  8
0
 10
15.5889706593703696
 20
5.7889619922177298
 30
0.0
 40
0.2692756762066542
  1
T
 50
90.0
  7
MtXpl_Times_New_Roma
  0
ENDBLK
  5
3266BF
  8
0
  0
BLOCK
  8
0
  2
*U33
 70
     1
 10
0.0
 20
0.0
 30
0.0
  3
*U33
  1

  0
TEXT
  5
3266C1
  8
0
 10
15.4984553443025206
 20
6.2159521281437806
 30
0.0
 40
0.2376204940031285
  1
TAGUE LUMBER
 50
90.0
  7
MtXpl_Franklin_Gothi
  0
ENDBLK
  5
3266C3
  8
0
  0
BLOCK
  8
0
  2
*U34
 70
     1
 10
0.0
 20
0.0
 30
0.0
  3
*U34
  1

  0
TEXT
  5
3266C5
  8
0
 10
15.6567156362187596
 20
6.2245957726885113
 30
0.0
 40
0.1010639063101914
  1
BUILDING MATERIALS DISTRIBUTION
 50
90.0
  7
MtXpl_Franklin_Gothi
  0
ENDBLK
  5
3266C7
  8
0
  0
BLOCK
  8
0
  2
*U35
 70
     1
 10
0.0
 20
0.0
 30
0.0
  3
*U35
  1

  0
TEXT
  5
3266C9
  8
0
 10
15.8492241195411694
 20
1.3349307140187201
 30
0.0
 40
0.0818070277726726
  1
S.P.
  0
ENDBLK
  5
3266CB
  8
0
  0
BLOCK
  8
0
  2
*U36
 70
     1
 10
0.0
 20
0.0
 30
0.0
  3
*U36
  1

  0
TEXT
  5
3266CD
  8
0
 10
15.7090472752267392
 20
1.1175040774487399
 30
0.0
 40
0.0818070277726726
  1
3/4"=1'
  0
ENDBLK
  5
3266CF
  8
0
  0
BLOCK
  8
0
  2
*U37
 70
     1
 10
0.0
 20
0.0
 30
0.0
  3
*U37
  1

  0
TEXT
  5
3266D1
  8
0
 10
15.5431102033049005
 20
4.2910990188628944
 30
0.0
 40
0.1090760370302301
  1
-
 50
90.0
  0
ENDBLK
  5
3266D3
  8
0
  0
BLOCK
  8
0
  2
*U38
 70
     1
 10
0.0
 20
0.0
 30
0.0
  3
*U38
  1

  0
TEXT
  5
3266D5
  8
0
 10
15.0830181138362995
 20
8.7696640943054405
 30
0.0
 40
0.0479934562933013
  1
560 East High Street, Philadelphia, PA 19144
 50
90.0
  0
TEXT
  5
3266D6
  8
0
 10
15.1638256499554203
 20
8.8987762403440094
 30
0.0
 40
0.0479934562933013
  1
(215) 848-2500 
 50
90.0
  0
TEXT
  5
3266D7
  8
0
 10
15.1638256499554203
 20
9.3758953617755054
 30
0.0
 40
0.0479934562933013
  1
  
 50
90.0
  7
MtXpl_Symbol
  0
TEXT
  5
3266D8
  8
0
 10
15.1638256499554203
 20
9.4113281658449655
 30
0.0
 40
0.0479934562933013
  1
Fax (215) 848-0433
 50
90.0
  7
MtXpl_Symbol
  0
TEXT
  5
3266D9
  8
0
 10
15.2446331860745392
 20
8.8228137370695432
 30
0.0
 40
0.0479934562933013
  1
405 Bridge Street, Phoenixville, PA 19460
 50
90.0
  7
MtXpl_Symbol
  0
TEXT
  5
3266DA
  8
0
 10
15.3254407221936599
 20
8.8987271338061902
 30
0.0
 40
0.0479934562933013
  1
(610) 933-5858 
 50
90.0
  7
MtXpl_Symbol
  0
TEXT
  5
3266DB
  8
0
 10
15.3254407221936599
 20
9.3758462552376862
 30
0.0
 40
0.0479934562933013
  1
  
 50
90.0
  7
MtXpl_Symbol
  0
TEXT
  5
3266DC
  8
0
 10
15.3254407221936599
 20
9.411279059307148
 30
0.0
 40
0.0479934562933013
  1
Fax (610) 935-6848
 50
90.0
  7
MtXpl_Symbol
  0
TEXT
  5
3266DD
  8
0
 10
15.4062482583127807
 20
8.8105534714611942
 30
0.0
 40
0.0479934562933013
  1
325 Media Station Road, Media, PA 19063
 50
90.0
  7
MtXpl_Symbol
  0
TEXT
  5
3266DE
  8
0
 10
15.4870557944318996
 20
8.8987762403440094
 30
0.0
 40
0.0479934562933013
  1
(610) 566-1200 
 50
90.0
  7
MtXpl_Symbol
  0
TEXT
  5
3266DF
  8
0
 10
15.4870557944318996
 20
9.3758953617755054
 30
0.0
 40
0.0479934562933013
  1
  
 50
90.0
  7
MtXpl_Symbol
  0
TEXT
  5
3266E0
  8
0
 10
15.4870557944318996
 20
9.4113281658449655
 30
0.0
 40
0.0479934562933013
  1
Fax (610) 565-2107
 50
90.0
  7
MtXpl_Symbol
  0
TEXT
  5
3266E1
  8
0
 10
15.5678633305510203
 20
8.7723813227313236
 30
0.0
 40
0.0479934562933013
  1
475 McFarlan Rd, Kennett Square, PA 19348
 50
90.0
  7
MtXpl_Symbol
  0
TEXT
  5
3266E2
  8
0
 10
15.6486708666701393
 20
8.8939036349828466
 30
0.0
 40
0.0479934562933013
  1
(610) 444-1200   Fax (610) 335-4184
 50
90.0
  7
MtXpl_Symbol
  0
TEXT
  5
3266E3
  8
0
 10
15.7288563866435798
 20
8.8603475008077872
 30
0.0
 40
0.0479934562933013
  1
181 Lancaster Ave, Malvern, PA 19355
 50
90.0
  7
MtXpl_Symbol
  0
TEXT
  5
3266E4
  8
0
 10
15.8096639227627005
 20
8.8938872661369075
 30
0.0
 40
0.0479934562933013
  1
(610) 640-4184   Fax (610) 640-4240
 50
90.0
  7
MtXpl_Symbol
  0
TEXT
  5
3266E5
  8
0
 10
15.8898494427361392
 20
8.7659647351232142
 30
0.0
 40
0.0479934562933013
  1
6100 N. Easton Rd, Plumsteadville, Pa 18949
 50
90.0
  7
MtXpl_Symbol
  0
TEXT
  5
3266E6
  8
0
 10
15.9706569788552599
 20
8.8937563153693944
 30
0.0
 40
0.0479934562933013
  1
(215) 348-9408   Fax (215) 348-3069
 50
90.0
  7
MtXpl_Symbol
  0
ENDBLK
  5
3266E8
  8
0
  0
BLOCK
  8
0
  2
*U39
 70
     1
 10
0.0
 20
0.0
 30
0.0
  3
*U39
  1

  0
TEXT
  5
3266EA
  8
0
 10
15.8917547469536604
 20
1.762576811218413
 30
0.0
 40
0.0818070277726726
  1
22-
  0
ENDBLK
  5
3266EC
  8
0
  0
BLOCK
  8
0
  2
*U40
 70
     1
 10
0.0
 20
0.0
 30
0.0
  3
*U40
  1

  0
TEXT
  5
3266EE
  8
0
 10
15.7495207039670806
 20
1.5417307190488001
 30
0.0
 40
0.0818070277726726
  1
1/--/21
  0
ENDBLK
  5
3266F0
  8
0
  0
BLOCK
  8
0
  2
*U41
 70
     1
 10
0.0
 20
0.0
 30
0.0
  3
*U41
  1

  0
TEXT
  5
3266F6
  8
0
 10
12.9719076873925907
 20
0.5446615745096991
 30
0.0
 40
0.325011885263716
  1
T
 50
89.9999999999999858
  7
MtXpl_Times_New_Roma
  0
ENDBLK
  5
3266F8
  8
0
  0
BLOCK
  8
0
  2
*U42
 70
     1
 10
0.0
 20
0.0
 30
0.0
  3
*U42
  1

  0
TEXT
  5
3266FA
  8
0
 10
12.8619731415066099
 20
1.06003255424807
 30
0.0
 40
0.2930590006740894
  1
TAGUE LUMBER
 50
89.9999999999999858
  7
MtXpl_Franklin_Gothi
  0
ENDBLK
  5
3266FC
  8
0
  0
BLOCK
  8
0
  2
*U43
 70
     1
 10
0.0
 20
0.0
 30
0.0
  3
*U43
  1

  0
TEXT
  5
3266FE
  8
0
 10
13.0475674267496693
 20
1.108526497014535
 30
0.0
 40
0.122895709960102
  1
BUILDING MATERIALS DISTRIBUTION
 50
89.9999999999999858
  7
MtXpl_Franklin_Gothi
  0
ENDBLK
  5
326700
  8
0
  0
BLOCK
  8
0
  2
*U44
 70
     1
 10
0.0
 20
0.0
 30
0.0
  3
*U44
  1

  0
TEXT
  5
326702
  8
0
 10
15.9357750131021891
 20
4.2910565718640354
 30
0.0
 40
0.1090760370302301
  1
-
 50
90.0
  0
ENDBLK
  5
326704
  8
0
  0
BLOCK
  8
0
  2
*U45
 70
     1
 10
0.0
 20
0.0
 30
0.0
  3
*U45
  1

  0
TEXT
  5
326706
  8
0
 10
34.2868306884984904
 20
9.8190602967021832
 30
0.0
 40
0.25
  1
-
 50
90.0
  0
ENDBLK
  5
326708
  8
0
  0
BLOCK
  8
0
  2
*U46
 70
     1
 10
0.0
 20
0.0
 30
0.0
  3
*U46
  1

  0
TEXT
  5
326710
  8
0
 10
39.0191287254172323
 20
13.5937989677078903
 30
0.0
 40
0.9427166793937013
  1
T
 50
90.0
  7
MtXpl_Times_New_Roma
  0
ENDBLK
  5
326712
  8
0
  0
BLOCK
  8
0
  2
*U47
 70
     1
 10
0.0
 20
0.0
 30
0.0
  3
*U47
  1

  0
TEXT
  5
326714
  8
0
 10
38.7033095306616985
 20
15.0886637425164096
 30
0.0
 40
0.8401098901098901
  1
TAGUE LUMBER
 50
90.0
  7
MtXpl_Franklin_Gothi
  0
ENDBLK
  5
326716
  8
0
  0
BLOCK
  8
0
  2
*U48
 70
     1
 10
0.0
 20
0.0
 30
0.0
  3
*U48
  1

  0
TEXT
  5
326718
  8
0
 10
39.2542431054124705
 20
15.0770060494463305
 30
0.0
 40
0.3589560439560439
  1
BUILDING MATERIALS DISTRIBUTION
 50
90.0
  7
MtXpl_Franklin_Gothi
  0
ENDBLK
  5
32671A
  8
0
  0
BLOCK
  8
0
  2
*U49
 70
     1
 10
0.0
 20
0.0
 30
0.0
  3
*U49
  1

  0
TEXT
  5
32671C
  8
0
 10
40.3333596709734792
 20
-0.4388696244518651
 30
0.0
 40
0.2864010989010989
  1
-
  0
ENDBLK
  5
32671E
  8
0
  0
BLOCK
  8
0
  2
*U50
 70
     1
 10
0.0
 20
0.0
 30
0.0
  3
*U50
  1

  0
TEXT
  5
326720
  8
0
 10
40.2001225976784298
 20
-1.1760894505992969
 30
0.0
 40
0.2864010989010989
  1
--
  0
ENDBLK
  5
326722
  8
0
  0
BLOCK
  8
0
  2
*U51
 70
     1
 10
0.0
 20
0.0
 30
0.0
  3
*U51
  1

  0
TEXT
  5
326724
  8
0
 10
39.7328160297579416
 20
-1.966342151924392
 30
0.0
 40
0.2864010989010989
  1
S.P.
  0
ENDBLK
  5
326726
  8
0
  0
BLOCK
  8
0
  2
*U52
 70
     1
 10
0.0
 20
0.0
 30
0.0
  3
*U52
  1

  0
TEXT
  5
326728
  8
0
 10
39.01954835439102
 20
-2.730078415660655
 30
0.0
 40
0.2864010989010989
  1
1/16"=1'
  0
ENDBLK
  5
32672A
  8
0
  0
BLOCK
  8
0
  2
*U53
 70
     1
 10
0.0
 20
0.0
 30
0.0
  3
*U53
  1

  0
TEXT
  5
32672C
  8
0
 10
38.5637880155423005
 20
8.7329657663268545
 30
0.0
 40
0.3818681318681318
  1
-
 50
90.0
  0
ENDBLK
  5
32672E
  8
0
  0
BLOCK
  8
0
  2
*U54
 70
     1
 10
0.0
 20
0.0
 30
0.0
  3
*U54
  1

  0
TEXT
  5
326730
  8
0
 10
37.104333410812842
 20
24.0127509066640812
 30
0.0
 40
0.168021978021978
  1
560 East High Street, Philadelphia, PA 19144
 50
90.0
  0
TEXT
  5
326731
  8
0
 10
37.3872353542536615
 20
24.4647641567931515
 30
0.0
 40
0.168021978021978
  1
(215) 848-2500 
 50
90.0
  0
TEXT
  5
326732
  8
0
 10
37.3872353542536615
 20
26.1351272589025108
 30
0.0
 40
0.168021978021978
  1
  
 50
90.0
  7
MtXpl_Symbol
  0
TEXT
  5
326733
  8
0
 10
37.3872353542536615
 20
26.2591752080694185
 30
0.0
 40
0.168021978021978
  1
Fax (215) 848-0433
 50
90.0
  7
MtXpl_Symbol
  0
TEXT
  5
326734
  8
0
 10
37.6701372976944882
 20
24.1988243591324803
 30
0.0
 40
0.168021978021978
  1
405 Bridge Street, Phoenixville, PA 19460
 50
90.0
  7
MtXpl_Symbol
  0
TEXT
  5
326735
  8
0
 10
37.9530392411353219
 20
24.4645922379888994
 30
0.0
 40
0.168021978021978
  1
(610) 933-5858 
 50
90.0
  7
MtXpl_Symbol
  0
TEXT
  5
326736
  8
0
 10
37.9530392411353219
 20
26.1349553400982515
 30
0.0
 40
0.168021978021978
  1
  
 50
90.0
  7
MtXpl_Symbol
  0
TEXT
  5
326737
  8
0
 10
37.9530392411353219
 20
26.2590032892651593
 30
0.0
 40
0.168021978021978
  1
Fax (610) 935-6848
 50
90.0
  7
MtXpl_Symbol
  0
TEXT
  5
326738
  8
0
 10
38.2359411845761414
 20
24.1559019643376409
 30
0.0
 40
0.168021978021978
  1
325 Media Station Road, Media, PA 19063
 50
90.0
  7
MtXpl_Symbol
  0
TEXT
  5
326739
  8
0
 10
38.5188431280169681
 20
24.4647641567931515
 30
0.0
 40
0.168021978021978
  1
(610) 566-1200 
 50
90.0
  7
MtXpl_Symbol
  0
TEXT
  5
32673A
  8
0
 10
38.5188431280169681
 20
26.1351272589025108
 30
0.0
 40
0.168021978021978
  1
  
 50
90.0
  7
MtXpl_Symbol
  0
TEXT
  5
32673B
  8
0
 10
38.5188431280169681
 20
26.2591752080694185
 30
0.0
 40
0.168021978021978
  1
Fax (610) 565-2107
 50
90.0
  7
MtXpl_Symbol
  0
TEXT
  5
32673C
  8
0
 10
38.8017450714578018
 20
24.0222637471660008
 30
0.0
 40
0.168021978021978
  1
475 McFarlan Rd, Kennett Square, PA 19348
 50
90.0
  7
MtXpl_Symbol
  0
TEXT
  5
32673D
  8
0
 10
39.0846470148986214
 20
24.4477054814208294
 30
0.0
 40
0.168021978021978
  1
(610) 444-1200   Fax (610) 335-4184
 50
90.0
  7
MtXpl_Symbol
  0
TEXT
  5
32673E
  8
0
 10
39.3653713201522635
 20
24.3302276318488495
 30
0.0
 40
0.168021978021978
  1
181 Lancaster Ave, Malvern, PA 19355
 50
90.0
  7
MtXpl_Symbol
  0
TEXT
  5
32673F
  8
0
 10
39.6482732635930901
 20
24.4476481751527501
 30
0.0
 40
0.168021978021978
  1
(610) 640-4184   Fax (610) 640-4240
 50
90.0
  7
MtXpl_Symbol
  0
TEXT
  5
326740
  8
0
 10
39.928997568846718
 20
23.9997996900771113
 30
0.0
 40
0.168021978021978
  1
6100 N. Easton Rd, Plumsteadville, Pa 18949
 50
90.0
  7
MtXpl_Symbol
  0
TEXT
  5
326741
  8
0
 10
40.2118995122875376
 20
24.4797969915478113
 30
0.0
 40
0.168021978021978
  1
(215) 348-9408  Fax (215) 348-3069
 50
90.0
  7
MtXpl_Symbol
  0
ENDBLK
  5
326743
  8
0
  0
BLOCK
  8
0
  2
*U55
 70
     1
 10
0.0
 20
0.0
 30
0.0
  3
*U55
  1

  0
TEXT
  5
326745
  8
0
 10
40.0972702489380168
 20
8.7338416390039466
 30
0.0
 40
0.3818681318681318
  1
-
 50
90.0
  0
ENDBLK
  5
326747
  8
0
  0
BLOCK
  8
0
  2
*U56
 70
     1
 10
0.0
 20
0.0
 30
0.0
  3
*U56
  1

  0
TEXT
  5
326749
  8
0
 10
4.886775153369328
 20
0.3136866653753514
 30
0.0
 40
0.2540376853996506
  1
T
  7
MtXpl_Times_New_Roma
  0
ENDBLK
  5
32674B
  8
0
  0
BLOCK
  8
0
  2
*U57
 70
     1
 10
0.0
 20
0.0
 30
0.0
  3
*U57
  1

  0
TEXT
  5
32674D
  8
0
 10
5.2896024244663646
 20
0.3996143463267015
 30
0.0
 40
0.2290624853807205
  1
TAGUE LUMBER
  7
MtXpl_Franklin_Gothi
  0
ENDBLK
  5
32674F
  8
0
  0
BLOCK
  8
0
  2
*U58
 70
     1
 10
0.0
 20
0.0
 30
0.0
  3
*U58
  1

  0
TEXT
  5
326751
  8
0
 10
5.3275065428536053
 20
0.2545490586117804
 30
0.0
 40
0.0960584616112699
  1
BUILDING MATERIALS DISTRIBUTION
  7
MtXpl_Franklin_Gothi
  0
ENDBLK
  5
326753
  8
0
  0
BLOCK
  8
0
  2
*U59
 70
     1
 10
0.0
 20
0.0
 30
0.0
  3
*U59
  1

  0
TEXT
  5
326755
  8
0
 10
15.7901376954024695
 20
1.981454322769354
 30
0.0
 40
0.0818070277726726
  1
432--
  0
ENDBLK
  5
326757
  8
0
  0
BLOCK
  8
0
  2
*U60
 70
     1
 10
0.0
 20
0.0
 30
0.0
  3
*U60
  1

  0
TEXT
  5
326759
  8
0
 10
22.9050807457705616
 20
2.7653997698779569
 30
0.0
 40
0.135989010989011
  1
--
  0
ENDBLK
  5
32675B
  8
0
  0
BLOCK
  8
0
  2
*U61
 70
     1
 10
0.0
 20
0.0
 30
0.0
  3
*U61
  1

  0
TEXT
  5
32675D
  8
0
 10
34.4413928281044335
 20
4.3139040019217569
 30
0.0
 40
0.1875
  1
-
  0
ENDBLK
  5
32675F
  8
0
  0
BLOCK
  8
0
  2
*U62
 70
     1
 10
0.0
 20
0.0
 30
0.0
  3
*U62
  1

  0
TEXT
  5
326761
  8
0
 10
40.3333596709734721
 20
0.3248666392843979
 30
0.0
 40
0.2864010989010989
  1
-
  0
ENDBLK
  5
326763
  8
0
  0
BLOCK
  8
0
  2
*U63
 70
     1
 10
0.0
 20
0.0
 30
0.0
  3
*U63
  1

  0
TEXT
  5
326765
  8
0
 10
10.2929665689089607
 20
0.3783727683284952
 30
0.0
 40
0.3438
  1
T
 50
90.0
  7
MtXpl_Times_New_Roma
  0
ENDBLK
  5
326767
  8
0
  0
BLOCK
  8
0
  2
*U64
 70
     1
 10
0.0
 20
0.0
 30
0.0
  3
*U64
  1

  0
TEXT
  5
326769
  8
0
 10
10.17667698508364
 20
0.9235360404047877
 30
0.0
 40
0.31
  1
TAGUE LUMBER
 50
90.0
  7
MtXpl_Franklin_Gothi
  0
ENDBLK
  5
32676B
  8
0
  0
BLOCK
  8
0
  2
*U65
 70
     1
 10
0.0
 20
0.0
 30
0.0
  3
*U65
  1

  0
TEXT
  5
32676D
  8
0
 10
10.3730000063626608
 20
0.974833295302352
 30
0.0
 40
0.13
  1
BUILDING MATERIALS DISTRIBUTION
 50
90.0
  7
MtXpl_Franklin_Gothi
  0
ENDBLK
  5
32676F
  8
0
  0
BLOCK
  8
0
  2
*U66
 70
     1
 10
0.0
 20
0.0
 30
0.0
  3
*U66
  1

  0
TEXT
  5
326779
  8
0
 10
0.2844285548856594
 20
0.2775490870725611
 30
0.0
 40
0.3438
  1
T
  7
MtXpl_Times_New_Roma
  0
ENDBLK
  5
32677B
  8
0
  0
BLOCK
  8
0
  2
*U67
 70
     1
 10
0.0
 20
0.0
 30
0.0
  3
*U67
  1

  0
TEXT
  5
32677D
  8
0
 10
0.8295918269619519
 20
0.3938386708978841
 30
0.0
 40
0.31
  1
TAGUE LUMBER
  7
MtXpl_Franklin_Gothi
  0
ENDBLK
  5
32677F
  8
0
  0
BLOCK
  8
0
  2
*U68
 70
     1
 10
0.0
 20
0.0
 30
0.0
  3
*U68
  1

  0
TEXT
  5
326781
  8
0
 10
0.8808890818595163
 20
0.1975156496188589
 30
0.0
 40
0.13
  1
BUILDING MATERIALS DISTRIBUTION
  7
MtXpl_Franklin_Gothi
  0
ENDBLK
  5
326783
  8
0
  0
BLOCK
  8
0
  2
*U69
 70
     1
 10
0.0
 20
0.0
 30
0.0
  3
*U69
  1

  0
TEXT
  5
326787
  8
0
 10
1.5101120983813741
 20
1.484206152789157
 30
0.0
 40
0.125
  1
Casing
  0
TEXT
  5
326788
  8
0
 10
1.5147164640021109
 20
1.2737411687054829
 30
0.0
 40
0.125
  1
TL-WC2
  0
TEXT
  5
326789
  8
0
 10
1.511476354861593
 20
1.0632761846218091
 30
0.0
 40
0.125
  1
3/4" x 2-1/2"
  0
TEXT
  5
32678A
  8
0
 10
1.5117321529516341
 20
0.8528112005381348
 30
0.0
 40
0.125
  1
800.66.TAGUE
  0
ENDBLK
  5
32678C
  8
0
  0
BLOCK
  8
0
  2
*U70
 70
     1
 10
0.0
 20
0.0
 30
0.0
  3
*U70
  1

  0
TEXT
  5
32678E
  8
0
 10
1.510112059221999
 20
1.484206131691808
 30
0.0
 40
0.125
  1
Casing
  0
TEXT
  5
32678F
  8
0
 10
1.5147164248427361
 20
1.2737411476081331
 30
0.0
 40
0.125
  1
TL-WC2
  0
TEXT
  5
326790
  8
0
 10
1.511476315702218
 20
1.063276163524459
 30
0.0
 40
0.125
  1
3/4" x 2-1/2"
  0
TEXT
  5
326791
  8
0
 10
1.5117321137922579
 20
0.852811179440785
 30
0.0
 40
0.125
  1
800.66.TAGUE
  0
ENDBLK
  5
326793
  8
0
  0
ENDSEC
  0
SECTION
  2
ENTITIES
  0
POLYLINE
  8
0
  5
326794
  66
     1
 10
0.00000
 20
0.00000
 30
0.00000
  70
     8
  0
VERTEX
  8
0
  5
326795
 10
0.328086
 20
2.50000
 30
0.00000
  70
    32
  0
VERTEX
  8
0
  5
326796
 10
0.329361
 20
2.49999
 30
0.00000
  70
    32
  0
VERTEX
  8
0
  5
326797
 10
0.330643
 20
2.49994
 30
0.00000
  70
    32
  0
VERTEX
  8
0
  5
326798
 10
0.331930
 20
2.49985
 30
0.00000
  70
    32
  0
VERTEX
  8
0
  5
326799
 10
0.333224
 20
2.49974
 30
0.00000
  70
    32
  0
VERTEX
  8
0
  5
32679A
 10
0.334523
 20
2.49959
 30
0.00000
  70
    32
  0
VERTEX
  8
0
  5
32679B
 10
0.335828
 20
2.49942
 30
0.00000
  70
    32
  0
VERTEX
  8
0
  5
32679C
 10
0.337137
 20
2.49921
 30
0.00000
  70
    32
  0
VERTEX
  8
0
  5
32679D
 10
0.338451
 20
2.49897
 30
0.00000
  70
    32
  0
VERTEX
  8
0
  5
32679E
 10
0.339770
 20
2.49869
 30
0.00000
  70
    32
  0
VERTEX
  8
0
  5
32679F
 10
0.341092
 20
2.49839
 30
0.00000
  70
    32
  0
VERTEX
  8
0
  5
3267A0
 10
0.342418
 20
2.49806
 30
0.00000
  70
    32
  0
VERTEX
  8
0
  5
3267A1
 10
0.343747
 20
2.49770
 30
0.00000
  70
    32
  0
VERTEX
  8
0
  5
3267A2
 10
0.345080
 20
2.49731
 30
0.00000
  70
    32
  0
VERTEX
  8
0
  5
3267A3
 10
0.346415
 20
2.49688
 30
0.00000
  70
    32
  0
VERTEX
  8
0
  5
3267A4
 10
0.347752
 20
2.49643
 30
0.00000
  70
    32
  0
VERTEX
  8
0
  5
3267A5
 10
0.349091
 20
2.49595
 30
0.00000
  70
    32
  0
VERTEX
  8
0
  5
3267A6
 10
0.350432
 20
2.49545
 30
0.00000
  70
    32
  0
VERTEX
  8
0
  5
3267A7
 10
0.351774
 20
2.49491
 30
0.00000
  70
    32
  0
VERTEX
  8
0
  5
3267A8
 10
0.353118
 20
2.49434
 30
0.00000
  70
    32
  0
VERTEX
  8
0
  5
3267A9
 10
0.354462
 20
2.49375
 30
0.00000
  70
    32
  0
VERTEX
  8
0
  5
3267AA
 10
0.355806
 20
2.49313
 30
0.00000
  70
    32
  0
VERTEX
  8
0
  5
3267AB
 10
0.357150
 20
2.49248
 30
0.00000
  70
    32
  0
VERTEX
  8
0
  5
3267AC
 10
0.358494
 20
2.49181
 30
0.00000
  70
    32
  0
VERTEX
  8
0
  5
3267AD
 10
0.359838
 20
2.49111
 30
0.00000
  70
    32
  0
VERTEX
  8
0
  5
3267AE
 10
0.361180
 20
2.49038
 30
0.00000
  70
    32
  0
VERTEX
  8
0
  5
3267AF
 10
0.362521
 20
2.48963
 30
0.00000
  70
    32
  0
VERTEX
  8
0
  5
3267B0
 10
0.363861
 20
2.48885
 30
0.00000
  70
    32
  0
VERTEX
  8
0
  5
3267B1
 10
0.365198
 20
2.48804
 30
0.00000
  70
    32
  0
VERTEX
  8
0
  5
3267B2
 10
0.366533
 20
2.48721
 30
0.00000
  70
    32
  0
VERTEX
  8
0
  5
3267B3
 10
0.367866
 20
2.48636
 30
0.00000
  70
    32
  0
VERTEX
  8
0
  5
3267B4
 10
0.369196
 20
2.48548
 30
0.00000
  70
    32
  0
VERTEX
  8
0
  5
3267B5
 10
0.370522
 20
2.48457
 30
0.00000
  70
    32
  0
VERTEX
  8
0
  5
3267B6
 10
0.371845
 20
2.48364
 30
0.00000
  70
    32
  0
VERTEX
  8
0
  5
3267B7
 10
0.373164
 20
2.48269
 30
0.00000
  70
    32
  0
VERTEX
  8
0
  5
3267B8
 10
0.374479
 20
2.48171
 30
0.00000
  70
    32
  0
VERTEX
  8
0
  5
3267B9
 10
0.375789
 20
2.48071
 30
0.00000
  70
    32
  0
VERTEX
  8
0
  5
3267BA
 10
0.377094
 20
2.47969
 30
0.00000
  70
    32
  0
VERTEX
  8
0
  5
3267BB
 10
0.378394
 20
2.47865
 30
0.00000
  70
    32
  0
VERTEX
  8
0
  5
3267BC
 10
0.379688
 20
2.47758
 30
0.00000
  70
    32
  0
VERTEX
  8
0
  5
3267BD
 10
0.380977
 20
2.47649
 30
0.00000
  70
    32
  0
VERTEX
  8
0
  5
3267BE
 10
0.382259
 20
2.47537
 30
0.00000
  70
    32
  0
VERTEX
  8
0
  5
3267BF
 10
0.383535
 20
2.47424
 30
0.00000
  70
    32
  0
VERTEX
  8
0
  5
3267C0
 10
0.384804
 20
2.47308
 30
0.00000
  70
    32
  0
VERTEX
  8
0
  5
3267C1
 10
0.386065
 20
2.47191
 30
0.00000
  70
    32
  0
VERTEX
  8
0
  5
3267C2
 10
0.387319
 20
2.47071
 30
0.00000
  70
    32
  0
VERTEX
  8
0
  5
3267C3
 10
0.388566
 20
2.46949
 30
0.00000
  70
    32
  0
VERTEX
  8
0
  5
3267C4
 10
0.389804
 20
2.46825
 30
0.00000
  70
    32
  0
VERTEX
  8
0
  5
3267C5
 10
0.391033
 20
2.46700
 30
0.00000
  70
    32
  0
VERTEX
  8
0
  5
3267C6
 10
0.392254
 20
2.46572
 30
0.00000
  70
    32
  0
VERTEX
  8
0
  5
3267C7
 10
0.393465
 20
2.46442
 30
0.00000
  70
    32
  0
VERTEX
  8
0
  5
3267C8
 10
0.394667
 20
2.46310
 30
0.00000
  70
    32
  0
VERTEX
  8
0
  5
3267C9
 10
0.395859
 20
2.46177
 30
0.00000
  70
    32
  0
VERTEX
  8
0
  5
3267CA
 10
0.397041
 20
2.46041
 30
0.00000
  70
    32
  0
VERTEX
  8
0
  5
3267CB
 10
0.398212
 20
2.45904
 30
0.00000
  70
    32
  0
VERTEX
  8
0
  5
3267CC
 10
0.399373
 20
2.45765
 30
0.00000
  70
    32
  0
VERTEX
  8
0
  5
3267CD
 10
0.400522
 20
2.45624
 30
0.00000
  70
    32
  0
VERTEX
  8
0
  5
3267CE
 10
0.401660
 20
2.45481
 30
0.00000
  70
    32
  0
VERTEX
  8
0
  5
3267CF
 10
0.402786
 20
2.45337
 30
0.00000
  70
    32
  0
VERTEX
  8
0
  5
3267D0
 10
0.403900
 20
2.45191
 30
0.00000
  70
    32
  0
VERTEX
  8
0
  5
3267D1
 10
0.405002
 20
2.45043
 30
0.00000
  70
    32
  0
VERTEX
  8
0
  5
3267D2
 10
0.406091
 20
2.44894
 30
0.00000
  70
    32
  0
VERTEX
  8
0
  5
3267D3
 10
0.407166
 20
2.44743
 30
0.00000
  70
    32
  0
VERTEX
  8
0
  5
3267D4
 10
0.408228
 20
2.44590
 30
0.00000
  70
    32
  0
VERTEX
  8
0
  5
3267D5
 10
0.409277
 20
2.44436
 30
0.00000
  70
    32
  0
VERTEX
  8
0
  5
3267D6
 10
0.410311
 20
2.44281
 30
0.00000
  70
    32
  0
VERTEX
  8
0
  5
3267D7
 10
0.411331
 20
2.44123
 30
0.00000
  70
    32
  0
VERTEX
  8
0
  5
3267D8
 10
0.412336
 20
2.43965
 30
0.00000
  70
    32
  0
VERTEX
  8
0
  5
3267D9
 10
0.413326
 20
2.43805
 30
0.00000
  70
    32
  0
VERTEX
  8
0
  5
3267DA
 10
0.414300
 20
2.43643
 30
0.00000
  70
    32
  0
VERTEX
  8
0
  5
3267DB
 10
0.415259
 20
2.43480
 30
0.00000
  70
    32
  0
VERTEX
  8
0
  5
3267DC
 10
0.416202
 20
2.43316
 30
0.00000
  70
    32
  0
VERTEX
  8
0
  5
3267DD
 10
0.417128
 20
2.43150
 30
0.00000
  70
    32
  0
VERTEX
  8
0
  5
3267DE
 10
0.418037
 20
2.42984
 30
0.00000
  70
    32
  0
VERTEX
  8
0
  5
3267DF
 10
0.418930
 20
2.42815
 30
0.00000
  70
    32
  0
VERTEX
  8
0
  5
3267E0
 10
0.419805
 20
2.42646
 30
0.00000
  70
    32
  0
VERTEX
  8
0
  5
3267E1
 10
0.420662
 20
2.42475
 30
0.00000
  70
    32
  0
VERTEX
  8
0
  5
3267E2
 10
0.421501
 20
2.42303
 30
0.00000
  70
    32
  0
VERTEX
  8
0
  5
3267E3
 10
0.422322
 20
2.42130
 30
0.00000
  70
    32
  0
VERTEX
  8
0
  5
3267E4
 10
0.423124
 20
2.41956
 30
0.00000
  70
    32
  0
VERTEX
  8
0
  5
3267E5
 10
0.423907
 20
2.41781
 30
0.00000
  70
    32
  0
VERTEX
  8
0
  5
3267E6
 10
0.424671
 20
2.41605
 30
0.00000
  70
    32
  0
VERTEX
  8
0
  5
3267E7
 10
0.425415
 20
2.41427
 30
0.00000
  70
    32
  0
VERTEX
  8
0
  5
3267E8
 10
0.426139
 20
2.41249
 30
0.00000
  70
    32
  0
VERTEX
  8
0
  5
3267E9
 10
0.426842
 20
2.41069
 30
0.00000
  70
    32
  0
VERTEX
  8
0
  5
3267EA
 10
0.427525
 20
2.40889
 30
0.00000
  70
    32
  0
VERTEX
  8
0
  5
3267EB
 10
0.428187
 20
2.40708
 30
0.00000
  70
    32
  0
VERTEX
  8
0
  5
3267EC
 10
0.428827
 20
2.40525
 30
0.00000
  70
    32
  0
VERTEX
  8
0
  5
3267ED
 10
0.429446
 20
2.40342
 30
0.00000
  70
    32
  0
VERTEX
  8
0
  5
3267EE
 10
0.430043
 20
2.40158
 30
0.00000
  70
    32
  0
VERTEX
  8
0
  5
3267EF
 10
0.430618
 20
2.39973
 30
0.00000
  70
    32
  0
VERTEX
  8
0
  5
3267F0
 10
0.431169
 20
2.39788
 30
0.00000
  70
    32
  0
VERTEX
  8
0
  5
3267F1
 10
0.431698
 20
2.39601
 30
0.00000
  70
    32
  0
VERTEX
  8
0
  5
3267F2
 10
0.432204
 20
2.39414
 30
0.00000
  70
    32
  0
VERTEX
  8
0
  5
3267F3
 10
0.432686
 20
2.39226
 30
0.00000
  70
    32
  0
VERTEX
  8
0
  5
3267F4
 10
0.433143
 20
2.39037
 30
0.00000
  70
    32
  0
VERTEX
  8
0
  5
3267F5
 10
0.433577
 20
2.38848
 30
0.00000
  70
    32
  0
VERTEX
  8
0
  5
3267F6
 10
0.433986
 20
2.38658
 30
0.00000
  70
    32
  0
VERTEX
  8
0
  5
3267F7
 10
0.434370
 20
2.38468
 30
0.00000
  70
    32
  0
VERTEX
  8
0
  5
3267F8
 10
0.434729
 20
2.38277
 30
0.00000
  70
    32
  0
VERTEX
  8
0
  5
3267F9
 10
0.435062
 20
2.38085
 30
0.00000
  70
    32
  0
VERTEX
  8
0
  5
3267FA
 10
0.435369
 20
2.37893
 30
0.00000
  70
    32
  0
VERTEX
  8
0
  5
3267FB
 10
0.435650
 20
2.37700
 30
0.00000
  70
    32
  0
VERTEX
  8
0
  5
3267FC
 10
0.435904
 20
2.37507
 30
0.00000
  70
    32
  0
VERTEX
  8
0
  5
3267FD
 10
0.436131
 20
2.37313
 30
0.00000
  70
    32
  0
VERTEX
  8
0
  5
3267FE
 10
0.436331
 20
2.37119
 30
0.00000
  70
    32
  0
VERTEX
  8
0
  5
3267FF
 10
0.436504
 20
2.36925
 30
0.00000
  70
    32
  0
VERTEX
  8
0
  5
326800
 10
0.436648
 20
2.36730
 30
0.00000
  70
    32
  0
VERTEX
  8
0
  5
326801
 10
0.436765
 20
2.36535
 30
0.00000
  70
    32
  0
VERTEX
  8
0
  5
326802
 10
0.436852
 20
2.36339
 30
0.00000
  70
    32
  0
VERTEX
  8
0
  5
326803
 10
0.436911
 20
2.36143
 30
0.00000
  70
    32
  0
VERTEX
  8
0
  5
326804
 10
0.436940
 20
2.35947
 30
0.00000
  70
    32
  0
VERTEX
  8
0
  5
326805
 10
0.436941
 20
2.35751
 30
0.00000
  70
    32
  0
VERTEX
  8
0
  5
326806
 10
0.436913
 20
2.35557
 30
0.00000
  70
    32
  0
VERTEX
  8
0
  5
326807
 10
0.436859
 20
2.35363
 30
0.00000
  70
    32
  0
VERTEX
  8
0
  5
326808
 10
0.436778
 20
2.35171
 30
0.00000
  70
    32
  0
VERTEX
  8
0
  5
326809
 10
0.436672
 20
2.34980
 30
0.00000
  70
    32
  0
VERTEX
  8
0
  5
32680A
 10
0.436539
 20
2.34791
 30
0.00000
  70
    32
  0
VERTEX
  8
0
  5
32680B
 10
0.436382
 20
2.34602
 30
0.00000
  70
    32
  0
VERTEX
  8
0
  5
32680C
 10
0.436201
 20
2.34416
 30
0.00000
  70
    32
  0
VERTEX
  8
0
  5
32680D
 10
0.435996
 20
2.34230
 30
0.00000
  70
    32
  0
VERTEX
  8
0
  5
32680E
 10
0.435767
 20
2.34046
 30
0.00000
  70
    32
  0
VERTEX
  8
0
  5
32680F
 10
0.435515
 20
2.33864
 30
0.00000
  70
    32
  0
VERTEX
  8
0
  5
326810
 10
0.435241
 20
2.33683
 30
0.00000
  70
    32
  0
VERTEX
  8
0
  5
326811
 10
0.434944
 20
2.33503
 30
0.00000
  70
    32
  0
VERTEX
  8
0
  5
326812
 10
0.434627
 20
2.33325
 30
0.00000
  70
    32
  0
VERTEX
  8
0
  5
326813
 10
0.434288
 20
2.33148
 30
0.00000
  70
    32
  0
VERTEX
  8
0
  5
326814
 10
0.433929
 20
2.32972
 30
0.00000
  70
    32
  0
VERTEX
  8
0
  5
326815
 10
0.433550
 20
2.32798
 30
0.00000
  70
    32
  0
VERTEX
  8
0
  5
326816
 10
0.433151
 20
2.32626
 30
0.00000
  70
    32
  0
VERTEX
  8
0
  5
326817
 10
0.432734
 20
2.32455
 30
0.00000
  70
    32
  0
VERTEX
  8
0
  5
326818
 10
0.432298
 20
2.32285
 30
0.00000
  70
    32
  0
VERTEX
  8
0
  5
326819
 10
0.431844
 20
2.32117
 30
0.00000
  70
    32
  0
VERTEX
  8
0
  5
32681A
 10
0.431372
 20
2.31950
 30
0.00000
  70
    32
  0
VERTEX
  8
0
  5
32681B
 10
0.430884
 20
2.31785
 30
0.00000
  70
    32
  0
VERTEX
  8
0
  5
32681C
 10
0.430379
 20
2.31622
 30
0.00000
  70
    32
  0
VERTEX
  8
0
  5
32681D
 10
0.429858
 20
2.31460
 30
0.00000
  70
    32
  0
VERTEX
  8
0
  5
32681E
 10
0.429321
 20
2.31299
 30
0.00000
  70
    32
  0
VERTEX
  8
0
  5
32681F
 10
0.428770
 20
2.31140
 30
0.00000
  70
    32
  0
VERTEX
  8
0
  5
326820
 10
0.428204
 20
2.30982
 30
0.00000
  70
    32
  0
VERTEX
  8
0
  5
326821
 10
0.427624
 20
2.30826
 30
0.00000
  70
    32
  0
VERTEX
  8
0
  5
326822
 10
0.427030
 20
2.30672
 30
0.00000
  70
    32
  0
VERTEX
  8
0
  5
326823
 10
0.426424
 20
2.30519
 30
0.00000
  70
    32
  0
VERTEX
  8
0
  5
326824
 10
0.425804
 20
2.30367
 30
0.00000
  70
    32
  0
VERTEX
  8
0
  5
326825
 10
0.425173
 20
2.30218
 30
0.00000
  70
    32
  0
VERTEX
  8
0
  5
326826
 10
0.424531
 20
2.30069
 30
0.00000
  70
    32
  0
VERTEX
  8
0
  5
326827
 10
0.423877
 20
2.29923
 30
0.00000
  70
    32
  0
VERTEX
  8
0
  5
326828
 10
0.423213
 20
2.29778
 30
0.00000
  70
    32
  0
VERTEX
  8
0
  5
326829
 10
0.422538
 20
2.29634
 30
0.00000
  70
    32
  0
VERTEX
  8
0
  5
32682A
 10
0.421854
 20
2.29492
 30
0.00000
  70
    32
  0
VERTEX
  8
0
  5
32682B
 10
0.421162
 20
2.29352
 30
0.00000
  70
    32
  0
VERTEX
  8
0
  5
32682C
 10
0.420460
 20
2.29214
 30
0.00000
  70
    32
  0
VERTEX
  8
0
  5
32682D
 10
0.419751
 20
2.29077
 30
0.00000
  70
    32
  0
VERTEX
  8
0
  5
32682E
 10
0.419033
 20
2.28941
 30
0.00000
  70
    32
  0
VERTEX
  8
0
  5
32682F
 10
0.418309
 20
2.28808
 30
0.00000
  70
    32
  0
VERTEX
  8
0
  5
326830
 10
0.417578
 20
2.28676
 30
0.00000
  70
    32
  0
VERTEX
  8
0
  5
326831
 10
0.416842
 20
2.28545
 30
0.00000
  70
    32
  0
VERTEX
  8
0
  5
326832
 10
0.416099
 20
2.28417
 30
0.00000
  70
    32
  0
VERTEX
  8
0
  5
326833
 10
0.415352
 20
2.28290
 30
0.00000
  70
    32
  0
VERTEX
  8
0
  5
326834
 10
0.414600
 20
2.28164
 30
0.00000
  70
    32
  0
VERTEX
  8
0
  5
326835
 10
0.413843
 20
2.28041
 30
0.00000
  70
    32
  0
VERTEX
  8
0
  5
326836
 10
0.413084
 20
2.27919
 30
0.00000
  70
    32
  0
VERTEX
  8
0
  5
326837
 10
0.412321
 20
2.27799
 30
0.00000
  70
    32
  0
VERTEX
  8
0
  5
326838
 10
0.411555
 20
2.27680
 30
0.00000
  70
    32
  0
VERTEX
  8
0
  5
326839
 10
0.410788
 20
2.27563
 30
0.00000
  70
    32
  0
VERTEX
  8
0
  5
32683A
 10
0.410019
 20
2.27448
 30
0.00000
  70
    32
  0
VERTEX
  8
0
  5
32683B
 10
0.409248
 20
2.27335
 30
0.00000
  70
    32
  0
VERTEX
  8
0
  5
32683C
 10
0.408477
 20
2.27224
 30
0.00000
  70
    32
  0
VERTEX
  8
0
  5
32683D
 10
0.407706
 20
2.27114
 30
0.00000
  70
    32
  0
VERTEX
  8
0
  5
32683E
 10
0.406936
 20
2.27006
 30
0.00000
  70
    32
  0
VERTEX
  8
0
  5
32683F
 10
0.406166
 20
2.26900
 30
0.00000
  70
    32
  0
VERTEX
  8
0
  5
326840
 10
0.405397
 20
2.26795
 30
0.00000
  70
    32
  0
VERTEX
  8
0
  5
326841
 10
0.404631
 20
2.26693
 30
0.00000
  70
    32
  0
VERTEX
  8
0
  5
326842
 10
0.403866
 20
2.26592
 30
0.00000
  70
    32
  0
VERTEX
  8
0
  5
326843
 10
0.403105
 20
2.26493
 30
0.00000
  70
    32
  0
VERTEX
  8
0
  5
326844
 10
0.402347
 20
2.26395
 30
0.00000
  70
    32
  0
VERTEX
  8
0
  5
326845
 10
0.401593
 20
2.26300
 30
0.00000
  70
    32
  0
VERTEX
  8
0
  5
326846
 10
0.400843
 20
2.26206
 30
0.00000
  70
    32
  0
VERTEX
  8
0
  5
326847
 10
0.400098
 20
2.26115
 30
0.00000
  70
    32
  0
VERTEX
  8
0
  5
326848
 10
0.399358
 20
2.26025
 30
0.00000
  70
    32
  0
VERTEX
  8
0
  5
326849
 10
0.398624
 20
2.25937
 30
0.00000
  70
    32
  0
VERTEX
  8
0
  5
32684A
 10
0.397897
 20
2.25850
 30
0.00000
  70
    32
  0
VERTEX
  8
0
  5
32684B
 10
0.397176
 20
2.25766
 30
0.00000
  70
    32
  0
VERTEX
  8
0
  5
32684C
 10
0.396463
 20
2.25684
 30
0.00000
  70
    32
  0
VERTEX
  8
0
  5
32684D
 10
0.395757
 20
2.25603
 30
0.00000
  70
    32
  0
VERTEX
  8
0
  5
32684E
 10
0.395060
 20
2.25524
 30
0.00000
  70
    32
  0
VERTEX
  8
0
  5
32684F
 10
0.394372
 20
2.25447
 30
0.00000
  70
    32
  0
VERTEX
  8
0
  5
326850
 10
0.393692
 20
2.25373
 30
0.00000
  70
    32
  0
VERTEX
  8
0
  5
326851
 10
0.393023
 20
2.25300
 30
0.00000
  70
    32
  0
VERTEX
  8
0
  5
326852
 10
0.392364
 20
2.25229
 30
0.00000
  70
    32
  0
VERTEX
  8
0
  5
326853
 10
0.391716
 20
2.25159
 30
0.00000
  70
    32
  0
VERTEX
  8
0
  5
326854
 10
0.391079
 20
2.25092
 30
0.00000
  70
    32
  0
VERTEX
  8
0
  5
326855
 10
0.390454
 20
2.25027
 30
0.00000
  70
    32
  0
VERTEX
  8
0
  5
326856
 10
0.389841
 20
2.24964
 30
0.00000
  70
    32
  0
VERTEX
  8
0
  5
326857
 10
0.389241
 20
2.24902
 30
0.00000
  70
    32
  0
VERTEX
  8
0
  5
326858
 10
0.388654
 20
2.24843
 30
0.00000
  70
    32
  0
VERTEX
  8
0
  5
326859
 10
0.388081
 20
2.24786
 30
0.00000
  70
    32
  0
VERTEX
  8
0
  5
32685A
 10
0.387522
 20
2.24730
 30
0.00000
  70
    32
  0
VERTEX
  8
0
  5
32685B
 10
0.386978
 20
2.24677
 30
0.00000
  70
    32
  0
VERTEX
  8
0
  5
32685C
 10
0.386449
 20
2.24625
 30
0.00000
  70
    32
  0
VERTEX
  8
0
  5
32685D
 10
0.385936
 20
2.24576
 30
0.00000
  70
    32
  0
VERTEX
  8
0
  5
32685E
 10
0.385439
 20
2.24529
 30
0.00000
  70
    32
  0
VERTEX
  8
0
  5
32685F
 10
0.384959
 20
2.24483
 30
0.00000
  70
    32
  0
VERTEX
  8
0
  5
326860
 10
0.384496
 20
2.24440
 30
0.00000
  70
    32
  0
VERTEX
  8
0
  5
326861
 10
0.384051
 20
2.24399
 30
0.00000
  70
    32
  0
VERTEX
  8
0
  5
326862
 10
0.383624
 20
2.24359
 30
0.00000
  70
    32
  0
VERTEX
  8
0
  5
326863
 10
0.383216
 20
2.24322
 30
0.00000
  70
    32
  0
VERTEX
  8
0
  5
326864
 10
0.382827
 20
2.24287
 30
0.00000
  70
    32
  0
VERTEX
  8
0
  5
326865
 10
0.382458
 20
2.24254
 30
0.00000
  70
    32
  0
VERTEX
  8
0
  5
326866
 10
0.382109
 20
2.24223
 30
0.00000
  70
    32
  0
VERTEX
  8
0
  5
326867
 10
0.381781
 20
2.24194
 30
0.00000
  70
    32
  0
VERTEX
  8
0
  5
326868
 10
0.381474
 20
2.24167
 30
0.00000
  70
    32
  0
VERTEX
  8
0
  5
326869
 10
0.381189
 20
2.24142
 30
0.00000
  70
    32
  0
VERTEX
  8
0
  5
32686A
 10
0.380926
 20
2.24120
 30
0.00000
  70
    32
  0
VERTEX
  8
0
  5
32686B
 10
0.380685
 20
2.24099
 30
0.00000
  70
    32
  0
VERTEX
  8
0
  5
32686C
 10
0.380468
 20
2.24081
 30
0.00000
  70
    32
  0
VERTEX
  8
0
  5
32686D
 10
0.380275
 20
2.24065
 30
0.00000
  70
    32
  0
VERTEX
  8
0
  5
32686E
 10
0.380105
 20
2.24051
 30
0.00000
  70
    32
  0
VERTEX
  8
0
  5
32686F
 10
0.379961
 20
2.24039
 30
0.00000
  70
    32
  0
VERTEX
  8
0
  5
326870
 10
0.379841
 20
2.24029
 30
0.00000
  70
    32
  0
VERTEX
  8
0
  5
326871
 10
0.379748
 20
2.24021
 30
0.00000
  70
    32
  0
VERTEX
  8
0
  5
326872
 10
0.379680
 20
2.24016
 30
0.00000
  70
    32
  0
VERTEX
  8
0
  5
326873
 10
0.379639
 20
2.24012
 30
0.00000
  70
    32
  0
VERTEX
  8
0
  5
326874
 10
0.379625
 20
2.24011
 30
0.00000
  70
    32
  0
SEQEND
  8
0
  5
326875
  0
POLYLINE
  8
0
  5
326876
  66
     1
 10
0.00000
 20
0.00000
 30
0.00000
  70
     8
  0
VERTEX
  8
0
  5
326877
 10
0.379625
 20
2.24011
 30
0.00000
  70
    32
  0
VERTEX
  8
0
  5
326878
 10
0.379624
 20
2.24010
 30
0.00000
  70
    32
  0
VERTEX
  8
0
  5
326879
 10
0.379619
 20
2.24007
 30
0.00000
  70
    32
  0
VERTEX
  8
0
  5
32687A
 10
0.379611
 20
2.24001
 30
0.00000
  70
    32
  0
VERTEX
  8
0
  5
32687B
 10
0.379600
 20
2.23993
 30
0.00000
  70
    32
  0
VERTEX
  8
0
  5
32687C
 10
0.379586
 20
2.23983
 30
0.00000
  70
    32
  0
VERTEX
  8
0
  5
32687D
 10
0.379568
 20
2.23970
 30
0.00000
  70
    32
  0
VERTEX
  8
0
  5
32687E
 10
0.379548
 20
2.23956
 30
0.00000
  70
    32
  0
VERTEX
  8
0
  5
32687F
 10
0.379524
 20
2.23939
 30
0.00000
  70
    32
  0
VERTEX
  8
0
  5
326880
 10
0.379497
 20
2.23920
 30
0.00000
  70
    32
  0
VERTEX
  8
0
  5
326881
 10
0.379467
 20
2.23899
 30
0.00000
  70
    32
  0
VERTEX
  8
0
  5
326882
 10
0.379434
 20
2.23876
 30
0.00000
  70
    32
  0
VERTEX
  8
0
  5
326883
 10
0.379398
 20
2.23851
 30
0.00000
  70
    32
  0
VERTEX
  8
0
  5
326884
 10
0.379358
 20
2.23824
 30
0.00000
  70
    32
  0
VERTEX
  8
0
  5
326885
 10
0.379316
 20
2.23795
 30
0.00000
  70
    32
  0
VERTEX
  8
0
  5
326886
 10
0.379270
 20
2.23763
 30
0.00000
  70
    32
  0
VERTEX
  8
0
  5
326887
 10
0.379221
 20
2.23730
 30
0.00000
  70
    32
  0
VERTEX
  8
0
  5
326888
 10
0.379170
 20
2.23695
 30
0.00000
  70
    32
  0
VERTEX
  8
0
  5
326889
 10
0.379115
 20
2.23659
 30
0.00000
  70
    32
  0
VERTEX
  8
0
  5
32688A
 10
0.379057
 20
2.23620
 30
0.00000
  70
    32
  0
VERTEX
  8
0
  5
32688B
 10
0.378996
 20
2.23579
 30
0.00000
  70
    32
  0
VERTEX
  8
0
  5
32688C
 10
0.378932
 20
2.23537
 30
0.00000
  70
    32
  0
VERTEX
  8
0
  5
32688D
 10
0.378865
 20
2.23493
 30
0.00000
  70
    32
  0
VERTEX
  8
0
  5
32688E
 10
0.378794
 20
2.23447
 30
0.00000
  70
    32
  0
VERTEX
  8
0
  5
32688F
 10
0.378721
 20
2.23399
 30
0.00000
  70
    32
  0
VERTEX
  8
0
  5
326890
 10
0.378645
 20
2.23350
 30
0.00000
  70
    32
  0
VERTEX
  8
0
  5
326891
 10
0.378565
 20
2.23299
 30
0.00000
  70
    32
  0
VERTEX
  8
0
  5
326892
 10
0.378483
 20
2.23246
 30
0.00000
  70
    32
  0
VERTEX
  8
0
  5
326893
 10
0.378398
 20
2.23192
 30
0.00000
  70
    32
  0
VERTEX
  8
0
  5
326894
 10
0.378309
 20
2.23136
 30
0.00000
  70
    32
  0
VERTEX
  8
0
  5
326895
 10
0.378218
 20
2.23078
 30
0.00000
  70
    32
  0
VERTEX
  8
0
  5
326896
 10
0.378124
 20
2.23019
 30
0.00000
  70
    32
  0
VERTEX
  8
0
  5
326897
 10
0.378026
 20
2.22959
 30
0.00000
  70
    32
  0
VERTEX
  8
0
  5
326898
 10
0.377926
 20
2.22897
 30
0.00000
  70
    32
  0
VERTEX
  8
0
  5
326899
 10
0.377822
 20
2.22833
 30
0.00000
  70
    32
  0
VERTEX
  8
0
  5
32689A
 10
0.377716
 20
2.22768
 30
0.00000
  70
    32
  0
VERTEX
  8
0
  5
32689B
 10
0.377607
 20
2.22702
 30
0.00000
  70
    32
  0
VERTEX
  8
0
  5
32689C
 10
0.377494
 20
2.22634
 30
0.00000
  70
    32
  0
VERTEX
  8
0
  5
32689D
 10
0.377379
 20
2.22565
 30
0.00000
  70
    32
  0
VERTEX
  8
0
  5
32689E
 10
0.377261
 20
2.22494
 30
0.00000
  70
    32
  0
VERTEX
  8
0
  5
32689F
 10
0.377140
 20
2.22423
 30
0.00000
  70
    32
  0
VERTEX
  8
0
  5
3268A0
 10
0.377015
 20
2.22350
 30
0.00000
  70
    32
  0
VERTEX
  8
0
  5
3268A1
 10
0.376888
 20
2.22275
 30
0.00000
  70
    32
  0
VERTEX
  8
0
  5
3268A2
 10
0.376758
 20
2.22200
 30
0.00000
  70
    32
  0
VERTEX
  8
0
  5
3268A3
 10
0.376625
 20
2.22123
 30
0.00000
  70
    32
  0
VERTEX
  8
0
  5
3268A4
 10
0.376490
 20
2.22045
 30
0.00000
  70
    32
  0
VERTEX
  8
0
  5
3268A5
 10
0.376351
 20
2.21966
 30
0.00000
  70
    32
  0
VERTEX
  8
0
  5
3268A6
 10
0.376209
 20
2.21886
 30
0.00000
  70
    32
  0
VERTEX
  8
0
  5
3268A7
 10
0.376065
 20
2.21804
 30
0.00000
  70
    32
  0
VERTEX
  8
0
  5
3268A8
 10
0.375917
 20
2.21722
 30
0.00000
  70
    32
  0
VERTEX
  8
0
  5
3268A9
 10
0.375767
 20
2.21638
 30
0.00000
  70
    32
  0
VERTEX
  8
0
  5
3268AA
 10
0.375614
 20
2.21554
 30
0.00000
  70
    32
  0
VERTEX
  8
0
  5
3268AB
 10
0.375457
 20
2.21468
 30
0.00000
  70
    32
  0
VERTEX
  8
0
  5
3268AC
 10
0.375298
 20
2.21382
 30
0.00000
  70
    32
  0
VERTEX
  8
0
  5
3268AD
 10
0.375137
 20
2.21294
 30
0.00000
  70
    32
  0
VERTEX
  8
0
  5
3268AE
 10
0.374972
 20
2.21206
 30
0.00000
  70
    32
  0
VERTEX
  8
0
  5
3268AF
 10
0.374804
 20
2.21117
 30
0.00000
  70
    32
  0
VERTEX
  8
0
  5
3268B0
 10
0.374634
 20
2.21026
 30
0.00000
  70
    32
  0
VERTEX
  8
0
  5
3268B1
 10
0.374461
 20
2.20936
 30
0.00000
  70
    32
  0
VERTEX
  8
0
  5
3268B2
 10
0.374285
 20
2.20844
 30
0.00000
  70
    32
  0
VERTEX
  8
0
  5
3268B3
 10
0.374106
 20
2.20751
 30
0.00000
  70
    32
  0
VERTEX
  8
0
  5
3268B4
 10
0.373924
 20
2.20658
 30
0.00000
  70
    32
  0
VERTEX
  8
0
  5
3268B5
 10
0.373739
 20
2.20564
 30
0.00000
  70
    32
  0
VERTEX
  8
0
  5
3268B6
 10
0.373552
 20
2.20469
 30
0.00000
  70
    32
  0
VERTEX
  8
0
  5
3268B7
 10
0.373362
 20
2.20374
 30
0.00000
  70
    32
  0
VERTEX
  8
0
  5
3268B8
 10
0.373169
 20
2.20277
 30
0.00000
  70
    32
  0
VERTEX
  8
0
  5
3268B9
 10
0.372973
 20
2.20181
 30
0.00000
  70
    32
  0
VERTEX
  8
0
  5
3268BA
 10
0.372775
 20
2.20083
 30
0.00000
  70
    32
  0
VERTEX
  8
0
  5
3268BB
 10
0.372573
 20
2.19985
 30
0.00000
  70
    32
  0
VERTEX
  8
0
  5
3268BC
 10
0.372369
 20
2.19887
 30
0.00000
  70
    32
  0
VERTEX
  8
0
  5
3268BD
 10
0.372163
 20
2.19788
 30
0.00000
  70
    32
  0
VERTEX
  8
0
  5
3268BE
 10
0.371953
 20
2.19688
 30
0.00000
  70
    32
  0
VERTEX
  8
0
  5
3268BF
 10
0.371741
 20
2.19588
 30
0.00000
  70
    32
  0
VERTEX
  8
0
  5
3268C0
 10
0.371525
 20
2.19488
 30
0.00000
  70
    32
  0
VERTEX
  8
0
  5
3268C1
 10
0.371308
 20
2.19387
 30
0.00000
  70
    32
  0
VERTEX
  8
0
  5
3268C2
 10
0.371087
 20
2.19286
 30
0.00000
  70
    32
  0
VERTEX
  8
0
  5
3268C3
 10
0.370864
 20
2.19184
 30
0.00000
  70
    32
  0
VERTEX
  8
0
  5
3268C4
 10
0.370638
 20
2.19082
 30
0.00000
  70
    32
  0
VERTEX
  8
0
  5
3268C5
 10
0.370409
 20
2.18980
 30
0.00000
  70
    32
  0
VERTEX
  8
0
  5
3268C6
 10
0.370177
 20
2.18877
 30
0.00000
  70
    32
  0
VERTEX
  8
0
  5
3268C7
 10
0.369943
 20
2.18774
 30
0.00000
  70
    32
  0
VERTEX
  8
0
  5
3268C8
 10
0.369706
 20
2.18671
 30
0.00000
  70
    32
  0
VERTEX
  8
0
  5
3268C9
 10
0.369467
 20
2.18568
 30
0.00000
  70
    32
  0
VERTEX
  8
0
  5
3268CA
 10
0.369225
 20
2.18464
 30
0.00000
  70
    32
  0
VERTEX
  8
0
  5
3268CB
 10
0.368980
 20
2.18361
 30
0.00000
  70
    32
  0
VERTEX
  8
0
  5
3268CC
 10
0.368732
 20
2.18257
 30
0.00000
  70
    32
  0
VERTEX
  8
0
  5
3268CD
 10
0.368482
 20
2.18153
 30
0.00000
  70
    32
  0
VERTEX
  8
0
  5
3268CE
 10
0.368229
 20
2.18049
 30
0.00000
  70
    32
  0
VERTEX
  8
0
  5
3268CF
 10
0.367973
 20
2.17945
 30
0.00000
  70
    32
  0
VERTEX
  8
0
  5
3268D0
 10
0.367715
 20
2.17841
 30
0.00000
  70
    32
  0
VERTEX
  8
0
  5
3268D1
 10
0.367454
 20
2.17737
 30
0.00000
  70
    32
  0
VERTEX
  8
0
  5
3268D2
 10
0.367191
 20
2.17633
 30
0.00000
  70
    32
  0
VERTEX
  8
0
  5
3268D3
 10
0.366924
 20
2.17529
 30
0.00000
  70
    32
  0
VERTEX
  8
0
  5
3268D4
 10
0.366656
 20
2.17425
 30
0.00000
  70
    32
  0
VERTEX
  8
0
  5
3268D5
 10
0.366384
 20
2.17321
 30
0.00000
  70
    32
  0
VERTEX
  8
0
  5
3268D6
 10
0.366110
 20
2.17217
 30
0.00000
  70
    32
  0
VERTEX
  8
0
  5
3268D7
 10
0.365833
 20
2.17114
 30
0.00000
  70
    32
  0
VERTEX
  8
0
  5
3268D8
 10
0.365554
 20
2.17010
 30
0.00000
  70
    32
  0
VERTEX
  8
0
  5
3268D9
 10
0.365272
 20
2.16907
 30
0.00000
  70
    32
  0
VERTEX
  8
0
  5
3268DA
 10
0.364988
 20
2.16804
 30
0.00000
  70
    32
  0
VERTEX
  8
0
  5
3268DB
 10
0.364701
 20
2.16701
 30
0.00000
  70
    32
  0
VERTEX
  8
0
  5
3268DC
 10
0.364411
 20
2.16599
 30
0.00000
  70
    32
  0
VERTEX
  8
0
  5
3268DD
 10
0.364119
 20
2.16497
 30
0.00000
  70
    32
  0
VERTEX
  8
0
  5
3268DE
 10
0.363825
 20
2.16395
 30
0.00000
  70
    32
  0
VERTEX
  8
0
  5
3268DF
 10
0.363527
 20
2.16294
 30
0.00000
  70
    32
  0
VERTEX
  8
0
  5
3268E0
 10
0.363227
 20
2.16193
 30
0.00000
  70
    32
  0
VERTEX
  8
0
  5
3268E1
 10
0.362925
 20
2.16092
 30
0.00000
  70
    32
  0
VERTEX
  8
0
  5
3268E2
 10
0.362620
 20
2.15992
 30
0.00000
  70
    32
  0
VERTEX
  8
0
  5
3268E3
 10
0.362313
 20
2.15892
 30
0.00000
  70
    32
  0
VERTEX
  8
0
  5
3268E4
 10
0.362003
 20
2.15793
 30
0.00000
  70
    32
  0
VERTEX
  8
0
  5
3268E5
 10
0.361690
 20
2.15695
 30
0.00000
  70
    32
  0
VERTEX
  8
0
  5
3268E6
 10
0.361375
 20
2.15596
 30
0.00000
  70
    32
  0
VERTEX
  8
0
  5
3268E7
 10
0.361058
 20
2.15499
 30
0.00000
  70
    32
  0
VERTEX
  8
0
  5
3268E8
 10
0.360738
 20
2.15402
 30
0.00000
  70
    32
  0
VERTEX
  8
0
  5
3268E9
 10
0.360415
 20
2.15306
 30
0.00000
  70
    32
  0
VERTEX
  8
0
  5
3268EA
 10
0.360090
 20
2.15210
 30
0.00000
  70
    32
  0
VERTEX
  8
0
  5
3268EB
 10
0.359763
 20
2.15115
 30
0.00000
  70
    32
  0
VERTEX
  8
0
  5
3268EC
 10
0.359433
 20
2.15021
 30
0.00000
  70
    32
  0
VERTEX
  8
0
  5
3268ED
 10
0.359100
 20
2.14927
 30
0.00000
  70
    32
  0
VERTEX
  8
0
  5
3268EE
 10
0.358765
 20
2.14834
 30
0.00000
  70
    32
  0
VERTEX
  8
0
  5
3268EF
 10
0.358428
 20
2.14742
 30
0.00000
  70
    32
  0
VERTEX
  8
0
  5
3268F0
 10
0.358088
 20
2.14651
 30
0.00000
  70
    32
  0
VERTEX
  8
0
  5
3268F1
 10
0.357746
 20
2.14561
 30
0.00000
  70
    32
  0
VERTEX
  8
0
  5
3268F2
 10
0.357401
 20
2.14471
 30
0.00000
  70
    32
  0
VERTEX
  8
0
  5
3268F3
 10
0.357054
 20
2.14383
 30
0.00000
  70
    32
  0
VERTEX
  8
0
  5
3268F4
 10
0.356704
 20
2.14295
 30
0.00000
  70
    32
  0
VERTEX
  8
0
  5
3268F5
 10
0.356352
 20
2.14208
 30
0.00000
  70
    32
  0
VERTEX
  8
0
  5
3268F6
 10
0.355998
 20
2.14122
 30
0.00000
  70
    32
  0
SEQEND
  8
0
  5
3268F7
  0
POLYLINE
  8
0
  5
3268F8
  66
     1
 10
0.00000
 20
0.00000
 30
0.00000
  70
     8
  0
VERTEX
  8
0
  5
3268F9
 10
0.355998
 20
2.14122
 30
0.00000
  70
    32
  0
VERTEX
  8
0
  5
3268FA
 10
0.355637
 20
2.14037
 30
0.00000
  70
    32
  0
VERTEX
  8
0
  5
3268FB
 10
0.355265
 20
2.13953
 30
0.00000
  70
    32
  0
VERTEX
  8
0
  5
3268FC
 10
0.354881
 20
2.13869
 30
0.00000
  70
    32
  0
VERTEX
  8
0
  5
3268FD
 10
0.354487
 20
2.13786
 30
0.00000
  70
    32
  0
VERTEX
  8
0
  5
3268FE
 10
0.354081
 20
2.13703
 30
0.00000
  70
    32
  0
VERTEX
  8
0
  5
3268FF
 10
0.353665
 20
2.13621
 30
0.00000
  70
    32
  0
VERTEX
  8
0
  5
326900
 10
0.353239
 20
2.13540
 30
0.00000
  70
    32
  0
VERTEX
  8
0
  5
326901
 10
0.352802
 20
2.13460
 30
0.00000
  70
    32
  0
VERTEX
  8
0
  5
326902
 10
0.352355
 20
2.13379
 30
0.00000
  70
    32
  0
VERTEX
  8
0
  5
326903
 10
0.351899
 20
2.13300
 30
0.00000
  70
    32
  0
VERTEX
  8
0
  5
326904
 10
0.351434
 20
2.13221
 30
0.00000
  70
    32
  0
VERTEX
  8
0
  5
326905
 10
0.350959
 20
2.13143
 30
0.00000
  70
    32
  0
VERTEX
  8
0
  5
326906
 10
0.350475
 20
2.13066
 30
0.00000
  70
    32
  0
VERTEX
  8
0
  5
326907
 10
0.349983
 20
2.12989
 30
0.00000
  70
    32
  0
VERTEX
  8
0
  5
326908
 10
0.349481
 20
2.12912
 30
0.00000
  70
    32
  0
VERTEX
  8
0
  5
326909
 10
0.348972
 20
2.12837
 30
0.00000
  70
    32
  0
VERTEX
  8
0
  5
32690A
 10
0.348455
 20
2.12762
 30
0.00000
  70
    32
  0
VERTEX
  8
0
  5
32690B
 10
0.347929
 20
2.12687
 30
0.00000
  70
    32
  0
VERTEX
  8
0
  5
32690C
 10
0.347396
 20
2.12614
 30
0.00000
  70
    32
  0
VERTEX
  8
0
  5
32690D
 10
0.346856
 20
2.12541
 30
0.00000
  70
    32
  0
VERTEX
  8
0
  5
32690E
 10
0.346308
 20
2.12468
 30
0.00000
  70
    32
  0
VERTEX
  8
0
  5
32690F
 10
0.345754
 20
2.12396
 30
0.00000
  70
    32
  0
VERTEX
  8
0
  5
326910
 10
0.345193
 20
2.12325
 30
0.00000
  70
    32
  0
VERTEX
  8
0
  5
326911
 10
0.344625
 20
2.12254
 30
0.00000
  70
    32
  0
VERTEX
  8
0
  5
326912
 10
0.344051
 20
2.12185
 30
0.00000
  70
    32
  0
VERTEX
  8
0
  5
326913
 10
0.343472
 20
2.12115
 30
0.00000
  70
    32
  0
VERTEX
  8
0
  5
326914
 10
0.342886
 20
2.12047
 30
0.00000
  70
    32
  0
VERTEX
  8
0
  5
326915
 10
0.342295
 20
2.11979
 30
0.00000
  70
    32
  0
VERTEX
  8
0
  5
326916
 10
0.341698
 20
2.11911
 30
0.00000
  70
    32
  0
VERTEX
  8
0
  5
326917
 10
0.341097
 20
2.11845
 30
0.00000
  70
    32
  0
VERTEX
  8
0
  5
326918
 10
0.340490
 20
2.11778
 30
0.00000
  70
    32
  0
VERTEX
  8
0
  5
326919
 10
0.339879
 20
2.11713
 30
0.00000
  70
    32
  0
VERTEX
  8
0
  5
32691A
 10
0.339263
 20
2.11648
 30
0.00000
  70
    32
  0
VERTEX
  8
0
  5
32691B
 10
0.338644
 20
2.11584
 30
0.00000
  70
    32
  0
VERTEX
  8
0
  5
32691C
 10
0.338020
 20
2.11521
 30
0.00000
  70
    32
  0
VERTEX
  8
0
  5
32691D
 10
0.337393
 20
2.11458
 30
0.00000
  70
    32
  0
VERTEX
  8
0
  5
32691E
 10
0.336762
 20
2.11396
 30
0.00000
  70
    32
  0
VERTEX
  8
0
  5
32691F
 10
0.336127
 20
2.11334
 30
0.00000
  70
    32
  0
VERTEX
  8
0
  5
326920
 10
0.335490
 20
2.11273
 30
0.00000
  70
    32
  0
VERTEX
  8
0
  5
326921
 10
0.334850
 20
2.11213
 30
0.00000
  70
    32
  0
VERTEX
  8
0
  5
326922
 10
0.334208
 20
2.11153
 30
0.00000
  70
    32
  0
VERTEX
  8
0
  5
326923
 10
0.333563
 20
2.11094
 30
0.00000
  70
    32
  0
VERTEX
  8
0
  5
326924
 10
0.332915
 20
2.11036
 30
0.00000
  70
    32
  0
VERTEX
  8
0
  5
326925
 10
0.332266
 20
2.10979
 30
0.00000
  70
    32
  0
VERTEX
  8
0
  5
326926
 10
0.331616
 20
2.10922
 30
0.00000
  70
    32
  0
VERTEX
  8
0
  5
326927
 10
0.330964
 20
2.10865
 30
0.00000
  70
    32
  0
VERTEX
  8
0
  5
326928
 10
0.330310
 20
2.10810
 30
0.00000
  70
    32
  0
VERTEX
  8
0
  5
326929
 10
0.329656
 20
2.10755
 30
0.00000
  70
    32
  0
VERTEX
  8
0
  5
32692A
 10
0.329001
 20
2.10700
 30
0.00000
  70
    32
  0
VERTEX
  8
0
  5
32692B
 10
0.328346
 20
2.10647
 30
0.00000
  70
    32
  0
VERTEX
  8
0
  5
32692C
 10
0.327690
 20
2.10594
 30
0.00000
  70
    32
  0
VERTEX
  8
0
  5
32692D
 10
0.327034
 20
2.10541
 30
0.00000
  70
    32
  0
VERTEX
  8
0
  5
32692E
 10
0.326378
 20
2.10490
 30
0.00000
  70
    32
  0
VERTEX
  8
0
  5
32692F
 10
0.325723
 20
2.10439
 30
0.00000
  70
    32
  0
VERTEX
  8
0
  5
326930
 10
0.325068
 20
2.10388
 30
0.00000
  70
    32
  0
VERTEX
  8
0
  5
326931
 10
0.324414
 20
2.10339
 30
0.00000
  70
    32
  0
VERTEX
  8
0
  5
326932
 10
0.323761
 20
2.10290
 30
0.00000
  70
    32
  0
VERTEX
  8
0
  5
326933
 10
0.323110
 20
2.10241
 30
0.00000
  70
    32
  0
VERTEX
  8
0
  5
326934
 10
0.322460
 20
2.10193
 30
0.00000
  70
    32
  0
VERTEX
  8
0
  5
326935
 10
0.321811
 20
2.10146
 30
0.00000
  70
    32
  0
VERTEX
  8
0
  5
326936
 10
0.321165
 20
2.10100
 30
0.00000
  70
    32
  0
VERTEX
  8
0
  5
326937
 10
0.320521
 20
2.10054
 30
0.00000
  70
    32
  0
VERTEX
  8
0
  5
326938
 10
0.319880
 20
2.10009
 30
0.00000
  70
    32
  0
VERTEX
  8
0
  5
326939
 10
0.319241
 20
2.09965
 30
0.00000
  70
    32
  0
VERTEX
  8
0
  5
32693A
 10
0.318605
 20
2.09921
 30
0.00000
  70
    32
  0
VERTEX
  8
0
  5
32693B
 10
0.317972
 20
2.09878
 30
0.00000
  70
    32
  0
VERTEX
  8
0
  5
32693C
 10
0.317343
 20
2.09836
 30
0.00000
  70
    32
  0
VERTEX
  8
0
  5
32693D
 10
0.316717
 20
2.09794
 30
0.00000
  70
    32
  0
VERTEX
  8
0
  5
32693E
 10
0.316095
 20
2.09753
 30
0.00000
  70
    32
  0
VERTEX
  8
0
  5
32693F
 10
0.315477
 20
2.09713
 30
0.00000
  70
    32
  0
VERTEX
  8
0
  5
326940
 10
0.314863
 20
2.09673
 30
0.00000
  70
    32
  0
VERTEX
  8
0
  5
326941
 10
0.314254
 20
2.09635
 30
0.00000
  70
    32
  0
VERTEX
  8
0
  5
326942
 10
0.313650
 20
2.09596
 30
0.00000
  70
    32
  0
VERTEX
  8
0
  5
326943
 10
0.313050
 20
2.09559
 30
0.00000
  70
    32
  0
VERTEX
  8
0
  5
326944
 10
0.312456
 20
2.09522
 30
0.00000
  70
    32
  0
VERTEX
  8
0
  5
326945
 10
0.311867
 20
2.09486
 30
0.00000
  70
    32
  0
VERTEX
  8
0
  5
326946
 10
0.311284
 20
2.09450
 30
0.00000
  70
    32
  0
VERTEX
  8
0
  5
326947
 10
0.310706
 20
2.09415
 30
0.00000
  70
    32
  0
VERTEX
  8
0
  5
326948
 10
0.310135
 20
2.09381
 30
0.00000
  70
    32
  0
VERTEX
  8
0
  5
326949
 10
0.309570
 20
2.09347
 30
0.00000
  70
    32
  0
VERTEX
  8
0
  5
32694A
 10
0.309012
 20
2.09315
 30
0.00000
  70
    32
  0
VERTEX
  8
0
  5
32694B
 10
0.308461
 20
2.09283
 30
0.00000
  70
    32
  0
VERTEX
  8
0
  5
32694C
 10
0.307916
 20
2.09251
 30
0.00000
  70
    32
  0
VERTEX
  8
0
  5
32694D
 10
0.307379
 20
2.09220
 30
0.00000
  70
    32
  0
VERTEX
  8
0
  5
32694E
 10
0.306849
 20
2.09190
 30
0.00000
  70
    32
  0
VERTEX
  8
0
  5
32694F
 10
0.306327
 20
2.09161
 30
0.00000
  70
    32
  0
VERTEX
  8
0
  5
326950
 10
0.305813
 20
2.09132
 30
0.00000
  70
    32
  0
VERTEX
  8
0
  5
326951
 10
0.305308
 20
2.09104
 30
0.00000
  70
    32
  0
VERTEX
  8
0
  5
326952
 10
0.304810
 20
2.09077
 30
0.00000
  70
    32
  0
VERTEX
  8
0
  5
326953
 10
0.304321
 20
2.09050
 30
0.00000
  70
    32
  0
VERTEX
  8
0
  5
326954
 10
0.303841
 20
2.09025
 30
0.00000
  70
    32
  0
VERTEX
  8
0
  5
326955
 10
0.303370
 20
2.08999
 30
0.00000
  70
    32
  0
VERTEX
  8
0
  5
326956
 10
0.302909
 20
2.08975
 30
0.00000
  70
    32
  0
VERTEX
  8
0
  5
326957
 10
0.302457
 20
2.08951
 30
0.00000
  70
    32
  0
VERTEX
  8
0
  5
326958
 10
0.302015
 20
2.08928
 30
0.00000
  70
    32
  0
VERTEX
  8
0
  5
326959
 10
0.301582
 20
2.08905
 30
0.00000
  70
    32
  0
VERTEX
  8
0
  5
32695A
 10
0.301160
 20
2.08884
 30
0.00000
  70
    32
  0
VERTEX
  8
0
  5
32695B
 10
0.300749
 20
2.08863
 30
0.00000
  70
    32
  0
VERTEX
  8
0
  5
32695C
 10
0.300348
 20
2.08842
 30
0.00000
  70
    32
  0
VERTEX
  8
0
  5
32695D
 10
0.299958
 20
2.08823
 30
0.00000
  70
    32
  0
VERTEX
  8
0
  5
32695E
 10
0.299579
 20
2.08804
 30
0.00000
  70
    32
  0
VERTEX
  8
0
  5
32695F
 10
0.299212
 20
2.08786
 30
0.00000
  70
    32
  0
VERTEX
  8
0
  5
326960
 10
0.298856
 20
2.08768
 30
0.00000
  70
    32
  0
VERTEX
  8
0
  5
326961
 10
0.298512
 20
2.08751
 30
0.00000
  70
    32
  0
VERTEX
  8
0
  5
326962
 10
0.298180
 20
2.08735
 30
0.00000
  70
    32
  0
VERTEX
  8
0
  5
326963
 10
0.297860
 20
2.08720
 30
0.00000
  70
    32
  0
VERTEX
  8
0
  5
326964
 10
0.297553
 20
2.08705
 30
0.00000
  70
    32
  0
VERTEX
  8
0
  5
326965
 10
0.297259
 20
2.08691
 30
0.00000
  70
    32
  0
VERTEX
  8
0
  5
326966
 10
0.296978
 20
2.08678
 30
0.00000
  70
    32
  0
VERTEX
  8
0
  5
326967
 10
0.296709
 20
2.08665
 30
0.00000
  70
    32
  0
VERTEX
  8
0
  5
326968
 10
0.296455
 20
2.08654
 30
0.00000
  70
    32
  0
VERTEX
  8
0
  5
326969
 10
0.296214
 20
2.08642
 30
0.00000
  70
    32
  0
VERTEX
  8
0
  5
32696A
 10
0.295986
 20
2.08632
 30
0.00000
  70
    32
  0
VERTEX
  8
0
  5
32696B
 10
0.295773
 20
2.08622
 30
0.00000
  70
    32
  0
VERTEX
  8
0
  5
32696C
 10
0.295575
 20
2.08613
 30
0.00000
  70
    32
  0
VERTEX
  8
0
  5
32696D
 10
0.295391
 20
2.08605
 30
0.00000
  70
    32
  0
VERTEX
  8
0
  5
32696E
 10
0.295221
 20
2.08597
 30
0.00000
  70
    32
  0
VERTEX
  8
0
  5
32696F
 10
0.295067
 20
2.08591
 30
0.00000
  70
    32
  0
VERTEX
  8
0
  5
326970
 10
0.294928
 20
2.08584
 30
0.00000
  70
    32
  0
VERTEX
  8
0
  5
326971
 10
0.294805
 20
2.08579
 30
0.00000
  70
    32
  0
VERTEX
  8
0
  5
326972
 10
0.294697
 20
2.08574
 30
0.00000
  70
    32
  0
VERTEX
  8
0
  5
326973
 10
0.294605
 20
2.08570
 30
0.00000
  70
    32
  0
VERTEX
  8
0
  5
326974
 10
0.294529
 20
2.08567
 30
0.00000
  70
    32
  0
VERTEX
  8
0
  5
326975
 10
0.294470
 20
2.08565
 30
0.00000
  70
    32
  0
VERTEX
  8
0
  5
326976
 10
0.294427
 20
2.08563
 30
0.00000
  70
    32
  0
VERTEX
  8
0
  5
326977
 10
0.294402
 20
2.08562
 30
0.00000
  70
    32
  0
VERTEX
  8
0
  5
326978
 10
0.294393
 20
2.08561
 30
0.00000
  70
    32
  0
SEQEND
  8
0
  5
326979
  0
POLYLINE
  8
0
  5
32697A
  66
     1
 10
0.00000
 20
0.00000
 30
0.00000
  70
     8
  0
VERTEX
  8
0
  5
32697B
 10
0.328085
 20
0.955825
 30
0.00000
  70
    32
  0
VERTEX
  8
0
  5
32697C
 10
0.328087
 20
0.955821
 30
0.00000
  70
    32
  0
VERTEX
  8
0
  5
32697D
 10
0.328094
 20
0.955810
 30
0.00000
  70
    32
  0
VERTEX
  8
0
  5
32697E
 10
0.328106
 20
0.955791
 30
0.00000
  70
    32
  0
VERTEX
  8
0
  5
32697F
 10
0.328123
 20
0.955766
 30
0.00000
  70
    32
  0
VERTEX
  8
0
  5
326980
 10
0.328144
 20
0.955733
 30
0.00000
  70
    32
  0
VERTEX
  8
0
  5
326981
 10
0.328170
 20
0.955693
 30
0.00000
  70
    32
  0
VERTEX
  8
0
  5
326982
 10
0.328200
 20
0.955646
 30
0.00000
  70
    32
  0
VERTEX
  8
0
  5
326983
 10
0.328235
 20
0.955592
 30
0.00000
  70
    32
  0
VERTEX
  8
0
  5
326984
 10
0.328275
 20
0.955532
 30
0.00000
  70
    32
  0
VERTEX
  8
0
  5
326985
 10
0.328319
 20
0.955464
 30
0.00000
  70
    32
  0
VERTEX
  8
0
  5
326986
 10
0.328368
 20
0.955390
 30
0.00000
  70
    32
  0
VERTEX
  8
0
  5
326987
 10
0.328421
 20
0.955310
 30
0.00000
  70
    32
  0
VERTEX
  8
0
  5
326988
 10
0.328478
 20
0.955223
 30
0.00000
  70
    32
  0
VERTEX
  8
0
  5
326989
 10
0.328540
 20
0.955130
 30
0.00000
  70
    32
  0
VERTEX
  8
0
  5
32698A
 10
0.328606
 20
0.955030
 30
0.00000
  70
    32
  0
VERTEX
  8
0
  5
32698B
 10
0.328677
 20
0.954925
 30
0.00000
  70
    32
  0
VERTEX
  8
0
  5
32698C
 10
0.328751
 20
0.954813
 30
0.00000
  70
    32
  0
VERTEX
  8
0
  5
32698D
 10
0.328830
 20
0.954695
 30
0.00000
  70
    32
  0
VERTEX
  8
0
  5
32698E
 10
0.328914
 20
0.954572
 30
0.00000
  70
    32
  0
VERTEX
  8
0
  5
32698F
 10
0.329001
 20
0.954442
 30
0.00000
  70
    32
  0
VERTEX
  8
0
  5
326990
 10
0.329093
 20
0.954307
 30
0.00000
  70
    32
  0
VERTEX
  8
0
  5
326991
 10
0.329189
 20
0.954166
 30
0.00000
  70
    32
  0
VERTEX
  8
0
  5
326992
 10
0.329289
 20
0.954020
 30
0.00000
  70
    32
  0
VERTEX
  8
0
  5
326993
 10
0.329393
 20
0.953868
 30
0.00000
  70
    32
  0
VERTEX
  8
0
  5
326994
 10
0.329500
 20
0.953710
 30
0.00000
  70
    32
  0
VERTEX
  8
0
  5
326995
 10
0.329612
 20
0.953548
 30
0.00000
  70
    32
  0
VERTEX
  8
0
  5
326996
 10
0.329728
 20
0.953380
 30
0.00000
  70
    32
  0
VERTEX
  8
0
  5
326997
 10
0.329848
 20
0.953207
 30
0.00000
  70
    32
  0
VERTEX
  8
0
  5
326998
 10
0.329972
 20
0.953029
 30
0.00000
  70
    32
  0
VERTEX
  8
0
  5
326999
 10
0.330100
 20
0.952847
 30
0.00000
  70
    32
  0
VERTEX
  8
0
  5
32699A
 10
0.330231
 20
0.952659
 30
0.00000
  70
    32
  0
VERTEX
  8
0
  5
32699B
 10
0.330367
 20
0.952466
 30
0.00000
  70
    32
  0
VERTEX
  8
0
  5
32699C
 10
0.330506
 20
0.952269
 30
0.00000
  70
    32
  0
VERTEX
  8
0
  5
32699D
 10
0.330649
 20
0.952068
 30
0.00000
  70
    32
  0
VERTEX
  8
0
  5
32699E
 10
0.330796
 20
0.951861
 30
0.00000
  70
    32
  0
VERTEX
  8
0
  5
32699F
 10
0.330946
 20
0.951651
 30
0.00000
  70
    32
  0
VERTEX
  8
0
  5
3269A0
 10
0.331100
 20
0.951436
 30
0.00000
  70
    32
  0
VERTEX
  8
0
  5
3269A1
 10
0.331258
 20
0.951217
 30
0.00000
  70
    32
  0
VERTEX
  8
0
  5
3269A2
 10
0.331419
 20
0.950993
 30
0.00000
  70
    32
  0
VERTEX
  8
0
  5
3269A3
 10
0.331584
 20
0.950766
 30
0.00000
  70
    32
  0
VERTEX
  8
0
  5
3269A4
 10
0.331752
 20
0.950535
 30
0.00000
  70
    32
  0
VERTEX
  8
0
  5
3269A5
 10
0.331924
 20
0.950300
 30
0.00000
  70
    32
  0
VERTEX
  8
0
  5
3269A6
 10
0.332099
 20
0.950061
 30
0.00000
  70
    32
  0
VERTEX
  8
0
  5
3269A7
 10
0.332278
 20
0.949818
 30
0.00000
  70
    32
  0
VERTEX
  8
0
  5
3269A8
 10
0.332460
 20
0.949572
 30
0.00000
  70
    32
  0
VERTEX
  8
0
  5
3269A9
 10
0.332645
 20
0.949322
 30
0.00000
  70
    32
  0
VERTEX
  8
0
  5
3269AA
 10
0.332834
 20
0.949069
 30
0.00000
  70
    32
  0
VERTEX
  8
0
  5
3269AB
 10
0.333026
 20
0.948812
 30
0.00000
  70
    32
  0
VERTEX
  8
0
  5
3269AC
 10
0.333222
 20
0.948552
 30
0.00000
  70
    32
  0
VERTEX
  8
0
  5
3269AD
 10
0.333421
 20
0.948289
 30
0.00000
  70
    32
  0
VERTEX
  8
0
  5
3269AE
 10
0.333623
 20
0.948023
 30
0.00000
  70
    32
  0
VERTEX
  8
0
  5
3269AF
 10
0.333828
 20
0.947754
 30
0.00000
  70
    32
  0
VERTEX
  8
0
  5
3269B0
 10
0.334036
 20
0.947482
 30
0.00000
  70
    32
  0
VERTEX
  8
0
  5
3269B1
 10
0.334247
 20
0.947207
 30
0.00000
  70
    32
  0
VERTEX
  8
0
  5
3269B2
 10
0.334462
 20
0.946930
 30
0.00000
  70
    32
  0
VERTEX
  8
0
  5
3269B3
 10
0.334679
 20
0.946649
 30
0.00000
  70
    32
  0
VERTEX
  8
0
  5
3269B4
 10
0.334900
 20
0.946367
 30
0.00000
  70
    32
  0
VERTEX
  8
0
  5
3269B5
 10
0.335124
 20
0.946082
 30
0.00000
  70
    32
  0
VERTEX
  8
0
  5
3269B6
 10
0.335350
 20
0.945794
 30
0.00000
  70
    32
  0
VERTEX
  8
0
  5
3269B7
 10
0.335580
 20
0.945504
 30
0.00000
  70
    32
  0
VERTEX
  8
0
  5
3269B8
 10
0.335812
 20
0.945212
 30
0.00000
  70
    32
  0
VERTEX
  8
0
  5
3269B9
 10
0.336047
 20
0.944918
 30
0.00000
  70
    32
  0
VERTEX
  8
0
  5
3269BA
 10
0.336286
 20
0.944622
 30
0.00000
  70
    32
  0
VERTEX
  8
0
  5
3269BB
 10
0.336526
 20
0.944324
 30
0.00000
  70
    32
  0
VERTEX
  8
0
  5
3269BC
 10
0.336770
 20
0.944024
 30
0.00000
  70
    32
  0
VERTEX
  8
0
  5
3269BD
 10
0.337017
 20
0.943722
 30
0.00000
  70
    32
  0
VERTEX
  8
0
  5
3269BE
 10
0.337266
 20
0.943419
 30
0.00000
  70
    32
  0
VERTEX
  8
0
  5
3269BF
 10
0.337518
 20
0.943114
 30
0.00000
  70
    32
  0
VERTEX
  8
0
  5
3269C0
 10
0.337772
 20
0.942807
 30
0.00000
  70
    32
  0
VERTEX
  8
0
  5
3269C1
 10
0.338029
 20
0.942500
 30
0.00000
  70
    32
  0
VERTEX
  8
0
  5
3269C2
 10
0.338289
 20
0.942191
 30
0.00000
  70
    32
  0
VERTEX
  8
0
  5
3269C3
 10
0.338551
 20
0.941880
 30
0.00000
  70
    32
  0
VERTEX
  8
0
  5
3269C4
 10
0.338816
 20
0.941569
 30
0.00000
  70
    32
  0
VERTEX
  8
0
  5
3269C5
 10
0.339084
 20
0.941256
 30
0.00000
  70
    32
  0
VERTEX
  8
0
  5
3269C6
 10
0.339353
 20
0.940943
 30
0.00000
  70
    32
  0
VERTEX
  8
0
  5
3269C7
 10
0.339626
 20
0.940628
 30
0.00000
  70
    32
  0
VERTEX
  8
0
  5
3269C8
 10
0.339900
 20
0.940313
 30
0.00000
  70
    32
  0
VERTEX
  8
0
  5
3269C9
 10
0.340177
 20
0.939997
 30
0.00000
  70
    32
  0
VERTEX
  8
0
  5
3269CA
 10
0.340456
 20
0.939681
 30
0.00000
  70
    32
  0
VERTEX
  8
0
  5
3269CB
 10
0.340738
 20
0.939364
 30
0.00000
  70
    32
  0
VERTEX
  8
0
  5
3269CC
 10
0.341022
 20
0.939047
 30
0.00000
  70
    32
  0
VERTEX
  8
0
  5
3269CD
 10
0.341308
 20
0.938729
 30
0.00000
  70
    32
  0
VERTEX
  8
0
  5
3269CE
 10
0.341596
 20
0.938411
 30
0.00000
  70
    32
  0
VERTEX
  8
0
  5
3269CF
 10
0.341887
 20
0.938093
 30
0.00000
  70
    32
  0
VERTEX
  8
0
  5
3269D0
 10
0.342180
 20
0.937775
 30
0.00000
  70
    32
  0
VERTEX
  8
0
  5
3269D1
 10
0.342475
 20
0.937457
 30
0.00000
  70
    32
  0
VERTEX
  8
0
  5
3269D2
 10
0.342771
 20
0.937139
 30
0.00000
  70
    32
  0
VERTEX
  8
0
  5
3269D3
 10
0.343070
 20
0.936821
 30
0.00000
  70
    32
  0
VERTEX
  8
0
  5
3269D4
 10
0.343371
 20
0.936503
 30
0.00000
  70
    32
  0
VERTEX
  8
0
  5
3269D5
 10
0.343674
 20
0.936186
 30
0.00000
  70
    32
  0
VERTEX
  8
0
  5
3269D6
 10
0.343979
 20
0.935869
 30
0.00000
  70
    32
  0
VERTEX
  8
0
  5
3269D7
 10
0.344286
 20
0.935553
 30
0.00000
  70
    32
  0
VERTEX
  8
0
  5
3269D8
 10
0.344595
 20
0.935237
 30
0.00000
  70
    32
  0
VERTEX
  8
0
  5
3269D9
 10
0.344906
 20
0.934923
 30
0.00000
  70
    32
  0
VERTEX
  8
0
  5
3269DA
 10
0.345218
 20
0.934609
 30
0.00000
  70
    32
  0
VERTEX
  8
0
  5
3269DB
 10
0.345532
 20
0.934295
 30
0.00000
  70
    32
  0
VERTEX
  8
0
  5
3269DC
 10
0.345848
 20
0.933983
 30
0.00000
  70
    32
  0
VERTEX
  8
0
  5
3269DD
 10
0.346166
 20
0.933672
 30
0.00000
  70
    32
  0
VERTEX
  8
0
  5
3269DE
 10
0.346486
 20
0.933362
 30
0.00000
  70
    32
  0
VERTEX
  8
0
  5
3269DF
 10
0.346807
 20
0.933054
 30
0.00000
  70
    32
  0
VERTEX
  8
0
  5
3269E0
 10
0.347130
 20
0.932746
 30
0.00000
  70
    32
  0
VERTEX
  8
0
  5
3269E1
 10
0.347454
 20
0.932440
 30
0.00000
  70
    32
  0
VERTEX
  8
0
  5
3269E2
 10
0.347780
 20
0.932136
 30
0.00000
  70
    32
  0
VERTEX
  8
0
  5
3269E3
 10
0.348108
 20
0.931833
 30
0.00000
  70
    32
  0
VERTEX
  8
0
  5
3269E4
 10
0.348437
 20
0.931532
 30
0.00000
  70
    32
  0
VERTEX
  8
0
  5
3269E5
 10
0.348767
 20
0.931233
 30
0.00000
  70
    32
  0
VERTEX
  8
0
  5
3269E6
 10
0.349099
 20
0.930936
 30
0.00000
  70
    32
  0
VERTEX
  8
0
  5
3269E7
 10
0.349433
 20
0.930640
 30
0.00000
  70
    32
  0
VERTEX
  8
0
  5
3269E8
 10
0.349768
 20
0.930347
 30
0.00000
  70
    32
  0
VERTEX
  8
0
  5
3269E9
 10
0.350104
 20
0.930056
 30
0.00000
  70
    32
  0
VERTEX
  8
0
  5
3269EA
 10
0.350442
 20
0.929767
 30
0.00000
  70
    32
  0
VERTEX
  8
0
  5
3269EB
 10
0.350780
 20
0.929480
 30
0.00000
  70
    32
  0
VERTEX
  8
0
  5
3269EC
 10
0.351121
 20
0.929196
 30
0.00000
  70
    32
  0
VERTEX
  8
0
  5
3269ED
 10
0.351462
 20
0.928914
 30
0.00000
  70
    32
  0
VERTEX
  8
0
  5
3269EE
 10
0.351804
 20
0.928634
 30
0.00000
  70
    32
  0
VERTEX
  8
0
  5
3269EF
 10
0.352148
 20
0.928358
 30
0.00000
  70
    32
  0
VERTEX
  8
0
  5
3269F0
 10
0.352493
 20
0.928084
 30
0.00000
  70
    32
  0
VERTEX
  8
0
  5
3269F1
 10
0.352839
 20
0.927813
 30
0.00000
  70
    32
  0
VERTEX
  8
0
  5
3269F2
 10
0.353186
 20
0.927545
 30
0.00000
  70
    32
  0
VERTEX
  8
0
  5
3269F3
 10
0.353534
 20
0.927280
 30
0.00000
  70
    32
  0
VERTEX
  8
0
  5
3269F4
 10
0.353883
 20
0.927018
 30
0.00000
  70
    32
  0
VERTEX
  8
0
  5
3269F5
 10
0.354234
 20
0.926760
 30
0.00000
  70
    32
  0
VERTEX
  8
0
  5
3269F6
 10
0.354585
 20
0.926504
 30
0.00000
  70
    32
  0
VERTEX
  8
0
  5
3269F7
 10
0.354937
 20
0.926252
 30
0.00000
  70
    32
  0
VERTEX
  8
0
  5
3269F8
 10
0.355290
 20
0.926004
 30
0.00000
  70
    32
  0
VERTEX
  8
0
  5
3269F9
 10
0.355643
 20
0.925759
 30
0.00000
  70
    32
  0
VERTEX
  8
0
  5
3269FA
 10
0.355998
 20
0.925517
 30
0.00000
  70
    32
  0
SEQEND
  8
0
  5
3269FB
  0
POLYLINE
  8
0
  5
3269FC
  66
     1
 10
0.00000
 20
0.00000
 30
0.00000
  70
     8
  0
VERTEX
  8
0
  5
3269FD
 10
0.355998
 20
0.925517
 30
0.00000
  70
    32
  0
VERTEX
  8
0
  5
3269FE
 10
0.356353
 20
0.925279
 30
0.00000
  70
    32
  0
VERTEX
  8
0
  5
3269FF
 10
0.356707
 20
0.925043
 30
0.00000
  70
    32
  0
VERTEX
  8
0
  5
326A00
 10
0.357059
 20
0.924808
 30
0.00000
  70
    32
  0
VERTEX
  8
0
  5
326A01
 10
0.357410
 20
0.924576
 30
0.00000
  70
    32
  0
VERTEX
  8
0
  5
326A02
 10
0.357759
 20
0.924346
 30
0.00000
  70
    32
  0
VERTEX
  8
0
  5
326A03
 10
0.358108
 20
0.924117
 30
0.00000
  70
    32
  0
VERTEX
  8
0
  5
326A04
 10
0.358455
 20
0.923891
 30
0.00000
  70
    32
  0
VERTEX
  8
0
  5
326A05
 10
0.358801
 20
0.923666
 30
0.00000
  70
    32
  0
VERTEX
  8
0
  5
326A06
 10
0.359145
 20
0.923443
 30
0.00000
  70
    32
  0
VERTEX
  8
0
  5
326A07
 10
0.359488
 20
0.923222
 30
0.00000
  70
    32
  0
VERTEX
  8
0
  5
326A08
 10
0.359830
 20
0.923002
 30
0.00000
  70
    32
  0
VERTEX
  8
0
  5
326A09
 10
0.360171
 20
0.922785
 30
0.00000
  70
    32
  0
VERTEX
  8
0
  5
326A0A
 10
0.360511
 20
0.922568
 30
0.00000
  70
    32
  0
VERTEX
  8
0
  5
326A0B
 10
0.360849
 20
0.922353
 30
0.00000
  70
    32
  0
VERTEX
  8
0
  5
326A0C
 10
0.361187
 20
0.922140
 30
0.00000
  70
    32
  0
VERTEX
  8
0
  5
326A0D
 10
0.361523
 20
0.921928
 30
0.00000
  70
    32
  0
VERTEX
  8
0
  5
326A0E
 10
0.361858
 20
0.921717
 30
0.00000
  70
    32
  0
VERTEX
  8
0
  5
326A0F
 10
0.362192
 20
0.921508
 30
0.00000
  70
    32
  0
VERTEX
  8
0
  5
326A10
 10
0.362524
 20
0.921300
 30
0.00000
  70
    32
  0
VERTEX
  8
0
  5
326A11
 10
0.362856
 20
0.921094
 30
0.00000
  70
    32
  0
VERTEX
  8
0
  5
326A12
 10
0.363186
 20
0.920888
 30
0.00000
  70
    32
  0
VERTEX
  8
0
  5
326A13
 10
0.363516
 20
0.920684
 30
0.00000
  70
    32
  0
VERTEX
  8
0
  5
326A14
 10
0.363844
 20
0.920480
 30
0.00000
  70
    32
  0
VERTEX
  8
0
  5
326A15
 10
0.364171
 20
0.920278
 30
0.00000
  70
    32
  0
VERTEX
  8
0
  5
326A16
 10
0.364497
 20
0.920077
 30
0.00000
  70
    32
  0
VERTEX
  8
0
  5
326A17
 10
0.364823
 20
0.919876
 30
0.00000
  70
    32
  0
VERTEX
  8
0
  5
326A18
 10
0.365147
 20
0.919677
 30
0.00000
  70
    32
  0
VERTEX
  8
0
  5
326A19
 10
0.365470
 20
0.919478
 30
0.00000
  70
    32
  0
VERTEX
  8
0
  5
326A1A
 10
0.365792
 20
0.919280
 30
0.00000
  70
    32
  0
VERTEX
  8
0
  5
326A1B
 10
0.366113
 20
0.919083
 30
0.00000
  70
    32
  0
VERTEX
  8
0
  5
326A1C
 10
0.366433
 20
0.918887
 30
0.00000
  70
    32
  0
VERTEX
  8
0
  5
326A1D
 10
0.366753
 20
0.918691
 30
0.00000
  70
    32
  0
VERTEX
  8
0
  5
326A1E
 10
0.367071
 20
0.918496
 30
0.00000
  70
    32
  0
VERTEX
  8
0
  5
326A1F
 10
0.367388
 20
0.918302
 30
0.00000
  70
    32
  0
VERTEX
  8
0
  5
326A20
 10
0.367705
 20
0.918107
 30
0.00000
  70
    32
  0
VERTEX
  8
0
  5
326A21
 10
0.368020
 20
0.917914
 30
0.00000
  70
    32
  0
VERTEX
  8
0
  5
326A22
 10
0.368335
 20
0.917721
 30
0.00000
  70
    32
  0
VERTEX
  8
0
  5
326A23
 10
0.368649
 20
0.917528
 30
0.00000
  70
    32
  0
VERTEX
  8
0
  5
326A24
 10
0.368962
 20
0.917335
 30
0.00000
  70
    32
  0
VERTEX
  8
0
  5
326A25
 10
0.369274
 20
0.917143
 30
0.00000
  70
    32
  0
VERTEX
  8
0
  5
326A26
 10
0.369585
 20
0.916951
 30
0.00000
  70
    32
  0
VERTEX
  8
0
  5
326A27
 10
0.369896
 20
0.916759
 30
0.00000
  70
    32
  0
VERTEX
  8
0
  5
326A28
 10
0.370205
 20
0.916567
 30
0.00000
  70
    32
  0
VERTEX
  8
0
  5
326A29
 10
0.370514
 20
0.916375
 30
0.00000
  70
    32
  0
VERTEX
  8
0
  5
326A2A
 10
0.370822
 20
0.916184
 30
0.00000
  70
    32
  0
VERTEX
  8
0
  5
326A2B
 10
0.371129
 20
0.915992
 30
0.00000
  70
    32
  0
VERTEX
  8
0
  5
326A2C
 10
0.371436
 20
0.915800
 30
0.00000
  70
    32
  0
VERTEX
  8
0
  5
326A2D
 10
0.371742
 20
0.915608
 30
0.00000
  70
    32
  0
VERTEX
  8
0
  5
326A2E
 10
0.372047
 20
0.915416
 30
0.00000
  70
    32
  0
VERTEX
  8
0
  5
326A2F
 10
0.372351
 20
0.915223
 30
0.00000
  70
    32
  0
VERTEX
  8
0
  5
326A30
 10
0.372655
 20
0.915031
 30
0.00000
  70
    32
  0
VERTEX
  8
0
  5
326A31
 10
0.372957
 20
0.914838
 30
0.00000
  70
    32
  0
VERTEX
  8
0
  5
326A32
 10
0.373260
 20
0.914644
 30
0.00000
  70
    32
  0
VERTEX
  8
0
  5
326A33
 10
0.373561
 20
0.914451
 30
0.00000
  70
    32
  0
VERTEX
  8
0
  5
326A34
 10
0.373862
 20
0.914256
 30
0.00000
  70
    32
  0
VERTEX
  8
0
  5
326A35
 10
0.374162
 20
0.914062
 30
0.00000
  70
    32
  0
VERTEX
  8
0
  5
326A36
 10
0.374462
 20
0.913866
 30
0.00000
  70
    32
  0
VERTEX
  8
0
  5
326A37
 10
0.374761
 20
0.913670
 30
0.00000
  70
    32
  0
VERTEX
  8
0
  5
326A38
 10
0.375060
 20
0.913474
 30
0.00000
  70
    32
  0
VERTEX
  8
0
  5
326A39
 10
0.375358
 20
0.913277
 30
0.00000
  70
    32
  0
VERTEX
  8
0
  5
326A3A
 10
0.375655
 20
0.913078
 30
0.00000
  70
    32
  0
VERTEX
  8
0
  5
326A3B
 10
0.375952
 20
0.912880
 30
0.00000
  70
    32
  0
VERTEX
  8
0
  5
326A3C
 10
0.376248
 20
0.912680
 30
0.00000
  70
    32
  0
VERTEX
  8
0
  5
326A3D
 10
0.376543
 20
0.912479
 30
0.00000
  70
    32
  0
VERTEX
  8
0
  5
326A3E
 10
0.376838
 20
0.912278
 30
0.00000
  70
    32
  0
VERTEX
  8
0
  5
326A3F
 10
0.377133
 20
0.912075
 30
0.00000
  70
    32
  0
VERTEX
  8
0
  5
326A40
 10
0.377427
 20
0.911871
 30
0.00000
  70
    32
  0
VERTEX
  8
0
  5
326A41
 10
0.377721
 20
0.911667
 30
0.00000
  70
    32
  0
VERTEX
  8
0
  5
326A42
 10
0.378014
 20
0.911461
 30
0.00000
  70
    32
  0
VERTEX
  8
0
  5
326A43
 10
0.378307
 20
0.911254
 30
0.00000
  70
    32
  0
VERTEX
  8
0
  5
326A44
 10
0.378599
 20
0.911045
 30
0.00000
  70
    32
  0
VERTEX
  8
0
  5
326A45
 10
0.378891
 20
0.910836
 30
0.00000
  70
    32
  0
VERTEX
  8
0
  5
326A46
 10
0.379182
 20
0.910625
 30
0.00000
  70
    32
  0
VERTEX
  8
0
  5
326A47
 10
0.379473
 20
0.910412
 30
0.00000
  70
    32
  0
VERTEX
  8
0
  5
326A48
 10
0.379764
 20
0.910198
 30
0.00000
  70
    32
  0
VERTEX
  8
0
  5
326A49
 10
0.380054
 20
0.909983
 30
0.00000
  70
    32
  0
VERTEX
  8
0
  5
326A4A
 10
0.380344
 20
0.909766
 30
0.00000
  70
    32
  0
VERTEX
  8
0
  5
326A4B
 10
0.380634
 20
0.909548
 30
0.00000
  70
    32
  0
VERTEX
  8
0
  5
326A4C
 10
0.380923
 20
0.909328
 30
0.00000
  70
    32
  0
VERTEX
  8
0
  5
326A4D
 10
0.381212
 20
0.909106
 30
0.00000
  70
    32
  0
VERTEX
  8
0
  5
326A4E
 10
0.381500
 20
0.908882
 30
0.00000
  70
    32
  0
VERTEX
  8
0
  5
326A4F
 10
0.381789
 20
0.908657
 30
0.00000
  70
    32
  0
VERTEX
  8
0
  5
326A50
 10
0.382077
 20
0.908430
 30
0.00000
  70
    32
  0
VERTEX
  8
0
  5
326A51
 10
0.382364
 20
0.908201
 30
0.00000
  70
    32
  0
VERTEX
  8
0
  5
326A52
 10
0.382652
 20
0.907970
 30
0.00000
  70
    32
  0
VERTEX
  8
0
  5
326A53
 10
0.382939
 20
0.907737
 30
0.00000
  70
    32
  0
VERTEX
  8
0
  5
326A54
 10
0.383226
 20
0.907502
 30
0.00000
  70
    32
  0
VERTEX
  8
0
  5
326A55
 10
0.383513
 20
0.907265
 30
0.00000
  70
    32
  0
VERTEX
  8
0
  5
326A56
 10
0.383799
 20
0.907026
 30
0.00000
  70
    32
  0
VERTEX
  8
0
  5
326A57
 10
0.384086
 20
0.906785
 30
0.00000
  70
    32
  0
VERTEX
  8
0
  5
326A58
 10
0.384372
 20
0.906541
 30
0.00000
  70
    32
  0
VERTEX
  8
0
  5
326A59
 10
0.384658
 20
0.906296
 30
0.00000
  70
    32
  0
VERTEX
  8
0
  5
326A5A
 10
0.384944
 20
0.906048
 30
0.00000
  70
    32
  0
VERTEX
  8
0
  5
326A5B
 10
0.385230
 20
0.905797
 30
0.00000
  70
    32
  0
VERTEX
  8
0
  5
326A5C
 10
0.385515
 20
0.905544
 30
0.00000
  70
    32
  0
VERTEX
  8
0
  5
326A5D
 10
0.385801
 20
0.905289
 30
0.00000
  70
    32
  0
VERTEX
  8
0
  5
326A5E
 10
0.386086
 20
0.905031
 30
0.00000
  70
    32
  0
VERTEX
  8
0
  5
326A5F
 10
0.386372
 20
0.904771
 30
0.00000
  70
    32
  0
VERTEX
  8
0
  5
326A60
 10
0.386657
 20
0.904508
 30
0.00000
  70
    32
  0
VERTEX
  8
0
  5
326A61
 10
0.386942
 20
0.904242
 30
0.00000
  70
    32
  0
VERTEX
  8
0
  5
326A62
 10
0.387227
 20
0.903974
 30
0.00000
  70
    32
  0
VERTEX
  8
0
  5
326A63
 10
0.387512
 20
0.903703
 30
0.00000
  70
    32
  0
VERTEX
  8
0
  5
326A64
 10
0.387797
 20
0.903429
 30
0.00000
  70
    32
  0
VERTEX
  8
0
  5
326A65
 10
0.388082
 20
0.903152
 30
0.00000
  70
    32
  0
VERTEX
  8
0
  5
326A66
 10
0.388367
 20
0.902872
 30
0.00000
  70
    32
  0
VERTEX
  8
0
  5
326A67
 10
0.388653
 20
0.902590
 30
0.00000
  70
    32
  0
VERTEX
  8
0
  5
326A68
 10
0.388938
 20
0.902304
 30
0.00000
  70
    32
  0
VERTEX
  8
0
  5
326A69
 10
0.389223
 20
0.902015
 30
0.00000
  70
    32
  0
VERTEX
  8
0
  5
326A6A
 10
0.389508
 20
0.901724
 30
0.00000
  70
    32
  0
VERTEX
  8
0
  5
326A6B
 10
0.389793
 20
0.901429
 30
0.00000
  70
    32
  0
VERTEX
  8
0
  5
326A6C
 10
0.390079
 20
0.901131
 30
0.00000
  70
    32
  0
VERTEX
  8
0
  5
326A6D
 10
0.390364
 20
0.900829
 30
0.00000
  70
    32
  0
VERTEX
  8
0
  5
326A6E
 10
0.390650
 20
0.900525
 30
0.00000
  70
    32
  0
VERTEX
  8
0
  5
326A6F
 10
0.390936
 20
0.900217
 30
0.00000
  70
    32
  0
VERTEX
  8
0
  5
326A70
 10
0.391221
 20
0.899906
 30
0.00000
  70
    32
  0
VERTEX
  8
0
  5
326A71
 10
0.391507
 20
0.899591
 30
0.00000
  70
    32
  0
VERTEX
  8
0
  5
326A72
 10
0.391794
 20
0.899273
 30
0.00000
  70
    32
  0
VERTEX
  8
0
  5
326A73
 10
0.392080
 20
0.898951
 30
0.00000
  70
    32
  0
VERTEX
  8
0
  5
326A74
 10
0.392366
 20
0.898626
 30
0.00000
  70
    32
  0
VERTEX
  8
0
  5
326A75
 10
0.392653
 20
0.898297
 30
0.00000
  70
    32
  0
VERTEX
  8
0
  5
326A76
 10
0.392940
 20
0.897964
 30
0.00000
  70
    32
  0
VERTEX
  8
0
  5
326A77
 10
0.393227
 20
0.897628
 30
0.00000
  70
    32
  0
VERTEX
  8
0
  5
326A78
 10
0.393515
 20
0.897287
 30
0.00000
  70
    32
  0
VERTEX
  8
0
  5
326A79
 10
0.393802
 20
0.896943
 30
0.00000
  70
    32
  0
VERTEX
  8
0
  5
326A7A
 10
0.394090
 20
0.896596
 30
0.00000
  70
    32
  0
VERTEX
  8
0
  5
326A7B
 10
0.394379
 20
0.896244
 30
0.00000
  70
    32
  0
VERTEX
  8
0
  5
326A7C
 10
0.394667
 20
0.895888
 30
0.00000
  70
    32
  0
SEQEND
  8
0
  5
326A7D
  0
POLYLINE
  8
0
  5
326A7E
  66
     1
 10
0.00000
 20
0.00000
 30
0.00000
  70
     8
  0
VERTEX
  8
0
  5
326A7F
 10
0.394667
 20
0.895888
 30
0.00000
  70
    32
  0
VERTEX
  8
0
  5
326A80
 10
0.394955
 20
0.895528
 30
0.00000
  70
    32
  0
VERTEX
  8
0
  5
326A81
 10
0.395242
 20
0.895163
 30
0.00000
  70
    32
  0
VERTEX
  8
0
  5
326A82
 10
0.395527
 20
0.894793
 30
0.00000
  70
    32
  0
VERTEX
  8
0
  5
326A83
 10
0.395811
 20
0.894419
 30
0.00000
  70
    32
  0
VERTEX
  8
0
  5
326A84
 10
0.396093
 20
0.894041
 30
0.00000
  70
    32
  0
VERTEX
  8
0
  5
326A85
 10
0.396374
 20
0.893658
 30
0.00000
  70
    32
  0
VERTEX
  8
0
  5
326A86
 10
0.396654
 20
0.893272
 30
0.00000
  70
    32
  0
VERTEX
  8
0
  5
326A87
 10
0.396932
 20
0.892881
 30
0.00000
  70
    32
  0
VERTEX
  8
0
  5
326A88
 10
0.397209
 20
0.892486
 30
0.00000
  70
    32
  0
VERTEX
  8
0
  5
326A89
 10
0.397484
 20
0.892088
 30
0.00000
  70
    32
  0
VERTEX
  8
0
  5
326A8A
 10
0.397758
 20
0.891686
 30
0.00000
  70
    32
  0
VERTEX
  8
0
  5
326A8B
 10
0.398030
 20
0.891280
 30
0.00000
  70
    32
  0
VERTEX
  8
0
  5
326A8C
 10
0.398300
 20
0.890872
 30
0.00000
  70
    32
  0
VERTEX
  8
0
  5
326A8D
 10
0.398569
 20
0.890459
 30
0.00000
  70
    32
  0
VERTEX
  8
0
  5
326A8E
 10
0.398837
 20
0.890044
 30
0.00000
  70
    32
  0
VERTEX
  8
0
  5
326A8F
 10
0.399103
 20
0.889626
 30
0.00000
  70
    32
  0
VERTEX
  8
0
  5
326A90
 10
0.399367
 20
0.889205
 30
0.00000
  70
    32
  0
VERTEX
  8
0
  5
326A91
 10
0.399630
 20
0.888781
 30
0.00000
  70
    32
  0
VERTEX
  8
0
  5
326A92
 10
0.399891
 20
0.888354
 30
0.00000
  70
    32
  0
VERTEX
  8
0
  5
326A93
 10
0.400151
 20
0.887925
 30
0.00000
  70
    32
  0
VERTEX
  8
0
  5
326A94
 10
0.400409
 20
0.887493
 30
0.00000
  70
    32
  0
VERTEX
  8
0
  5
326A95
 10
0.400665
 20
0.887059
 30
0.00000
  70
    32
  0
VERTEX
  8
0
  5
326A96
 10
0.400920
 20
0.886623
 30
0.00000
  70
    32
  0
VERTEX
  8
0
  5
326A97
 10
0.401173
 20
0.886185
 30
0.00000
  70
    32
  0
VERTEX
  8
0
  5
326A98
 10
0.401424
 20
0.885745
 30
0.00000
  70
    32
  0
VERTEX
  8
0
  5
326A99
 10
0.401673
 20
0.885303
 30
0.00000
  70
    32
  0
VERTEX
  8
0
  5
326A9A
 10
0.401921
 20
0.884860
 30
0.00000
  70
    32
  0
VERTEX
  8
0
  5
326A9B
 10
0.402167
 20
0.884414
 30
0.00000
  70
    32
  0
VERTEX
  8
0
  5
326A9C
 10
0.402411
 20
0.883968
 30
0.00000
  70
    32
  0
VERTEX
  8
0
  5
326A9D
 10
0.402654
 20
0.883520
 30
0.00000
  70
    32
  0
VERTEX
  8
0
  5
326A9E
 10
0.402894
 20
0.883071
 30
0.00000
  70
    32
  0
VERTEX
  8
0
  5
326A9F
 10
0.403133
 20
0.882620
 30
0.00000
  70
    32
  0
VERTEX
  8
0
  5
326AA0
 10
0.403370
 20
0.882169
 30
0.00000
  70
    32
  0
VERTEX
  8
0
  5
326AA1
 10
0.403606
 20
0.881717
 30
0.00000
  70
    32
  0
VERTEX
  8
0
  5
326AA2
 10
0.403839
 20
0.881264
 30
0.00000
  70
    32
  0
VERTEX
  8
0
  5
326AA3
 10
0.404070
 20
0.880811
 30
0.00000
  70
    32
  0
VERTEX
  8
0
  5
326AA4
 10
0.404300
 20
0.880357
 30
0.00000
  70
    32
  0
VERTEX
  8
0
  5
326AA5
 10
0.404528
 20
0.879902
 30
0.00000
  70
    32
  0
VERTEX
  8
0
  5
326AA6
 10
0.404754
 20
0.879448
 30
0.00000
  70
    32
  0
VERTEX
  8
0
  5
326AA7
 10
0.404978
 20
0.878993
 30
0.00000
  70
    32
  0
VERTEX
  8
0
  5
326AA8
 10
0.405200
 20
0.878538
 30
0.00000
  70
    32
  0
VERTEX
  8
0
  5
326AA9
 10
0.405420
 20
0.878084
 30
0.00000
  70
    32
  0
VERTEX
  8
0
  5
326AAA
 10
0.405638
 20
0.877629
 30
0.00000
  70
    32
  0
VERTEX
  8
0
  5
326AAB
 10
0.405854
 20
0.877175
 30
0.00000
  70
    32
  0
VERTEX
  8
0
  5
326AAC
 10
0.406068
 20
0.876721
 30
0.00000
  70
    32
  0
VERTEX
  8
0
  5
326AAD
 10
0.406280
 20
0.876268
 30
0.00000
  70
    32
  0
VERTEX
  8
0
  5
326AAE
 10
0.406490
 20
0.875816
 30
0.00000
  70
    32
  0
VERTEX
  8
0
  5
326AAF
 10
0.406699
 20
0.875365
 30
0.00000
  70
    32
  0
VERTEX
  8
0
  5
326AB0
 10
0.406905
 20
0.874914
 30
0.00000
  70
    32
  0
VERTEX
  8
0
  5
326AB1
 10
0.407109
 20
0.874465
 30
0.00000
  70
    32
  0
VERTEX
  8
0
  5
326AB2
 10
0.407310
 20
0.874016
 30
0.00000
  70
    32
  0
VERTEX
  8
0
  5
326AB3
 10
0.407510
 20
0.873570
 30
0.00000
  70
    32
  0
VERTEX
  8
0
  5
326AB4
 10
0.407708
 20
0.873124
 30
0.00000
  70
    32
  0
VERTEX
  8
0
  5
326AB5
 10
0.407904
 20
0.872680
 30
0.00000
  70
    32
  0
VERTEX
  8
0
  5
326AB6
 10
0.408097
 20
0.872238
 30
0.00000
  70
    32
  0
VERTEX
  8
0
  5
326AB7
 10
0.408288
 20
0.871797
 30
0.00000
  70
    32
  0
VERTEX
  8
0
  5
326AB8
 10
0.408477
 20
0.871359
 30
0.00000
  70
    32
  0
VERTEX
  8
0
  5
326AB9
 10
0.408664
 20
0.870922
 30
0.00000
  70
    32
  0
VERTEX
  8
0
  5
326ABA
 10
0.408849
 20
0.870488
 30
0.00000
  70
    32
  0
VERTEX
  8
0
  5
326ABB
 10
0.409032
 20
0.870056
 30
0.00000
  70
    32
  0
VERTEX
  8
0
  5
326ABC
 10
0.409212
 20
0.869626
 30
0.00000
  70
    32
  0
VERTEX
  8
0
  5
326ABD
 10
0.409390
 20
0.869199
 30
0.00000
  70
    32
  0
VERTEX
  8
0
  5
326ABE
 10
0.409566
 20
0.868774
 30
0.00000
  70
    32
  0
VERTEX
  8
0
  5
326ABF
 10
0.409739
 20
0.868353
 30
0.00000
  70
    32
  0
VERTEX
  8
0
  5
326AC0
 10
0.409911
 20
0.867934
 30
0.00000
  70
    32
  0
VERTEX
  8
0
  5
326AC1
 10
0.410080
 20
0.867518
 30
0.00000
  70
    32
  0
VERTEX
  8
0
  5
326AC2
 10
0.410246
 20
0.867105
 30
0.00000
  70
    32
  0
VERTEX
  8
0
  5
326AC3
 10
0.410411
 20
0.866695
 30
0.00000
  70
    32
  0
VERTEX
  8
0
  5
326AC4
 10
0.410573
 20
0.866289
 30
0.00000
  70
    32
  0
VERTEX
  8
0
  5
326AC5
 10
0.410733
 20
0.865886
 30
0.00000
  70
    32
  0
VERTEX
  8
0
  5
326AC6
 10
0.410890
 20
0.865487
 30
0.00000
  70
    32
  0
VERTEX
  8
0
  5
326AC7
 10
0.411045
 20
0.865092
 30
0.00000
  70
    32
  0
VERTEX
  8
0
  5
326AC8
 10
0.411197
 20
0.864700
 30
0.00000
  70
    32
  0
VERTEX
  8
0
  5
326AC9
 10
0.411347
 20
0.864313
 30
0.00000
  70
    32
  0
VERTEX
  8
0
  5
326ACA
 10
0.411495
 20
0.863929
 30
0.00000
  70
    32
  0
VERTEX
  8
0
  5
326ACB
 10
0.411640
 20
0.863550
 30
0.00000
  70
    32
  0
VERTEX
  8
0
  5
326ACC
 10
0.411783
 20
0.863175
 30
0.00000
  70
    32
  0
VERTEX
  8
0
  5
326ACD
 10
0.411923
 20
0.862804
 30
0.00000
  70
    32
  0
VERTEX
  8
0
  5
326ACE
 10
0.412061
 20
0.862438
 30
0.00000
  70
    32
  0
VERTEX
  8
0
  5
326ACF
 10
0.412197
 20
0.862077
 30
0.00000
  70
    32
  0
VERTEX
  8
0
  5
326AD0
 10
0.412330
 20
0.861721
 30
0.00000
  70
    32
  0
VERTEX
  8
0
  5
326AD1
 10
0.412460
 20
0.861369
 30
0.00000
  70
    32
  0
VERTEX
  8
0
  5
326AD2
 10
0.412588
 20
0.861023
 30
0.00000
  70
    32
  0
VERTEX
  8
0
  5
326AD3
 10
0.412713
 20
0.860681
 30
0.00000
  70
    32
  0
VERTEX
  8
0
  5
326AD4
 10
0.412835
 20
0.860345
 30
0.00000
  70
    32
  0
VERTEX
  8
0
  5
326AD5
 10
0.412955
 20
0.860015
 30
0.00000
  70
    32
  0
VERTEX
  8
0
  5
326AD6
 10
0.413073
 20
0.859689
 30
0.00000
  70
    32
  0
VERTEX
  8
0
  5
326AD7
 10
0.413188
 20
0.859370
 30
0.00000
  70
    32
  0
VERTEX
  8
0
  5
326AD8
 10
0.413300
 20
0.859056
 30
0.00000
  70
    32
  0
VERTEX
  8
0
  5
326AD9
 10
0.413410
 20
0.858748
 30
0.00000
  70
    32
  0
VERTEX
  8
0
  5
326ADA
 10
0.413517
 20
0.858447
 30
0.00000
  70
    32
  0
VERTEX
  8
0
  5
326ADB
 10
0.413621
 20
0.858151
 30
0.00000
  70
    32
  0
VERTEX
  8
0
  5
326ADC
 10
0.413722
 20
0.857862
 30
0.00000
  70
    32
  0
VERTEX
  8
0
  5
326ADD
 10
0.413821
 20
0.857578
 30
0.00000
  70
    32
  0
VERTEX
  8
0
  5
326ADE
 10
0.413917
 20
0.857302
 30
0.00000
  70
    32
  0
VERTEX
  8
0
  5
326ADF
 10
0.414011
 20
0.857032
 30
0.00000
  70
    32
  0
VERTEX
  8
0
  5
326AE0
 10
0.414101
 20
0.856769
 30
0.00000
  70
    32
  0
VERTEX
  8
0
  5
326AE1
 10
0.414189
 20
0.856512
 30
0.00000
  70
    32
  0
VERTEX
  8
0
  5
326AE2
 10
0.414274
 20
0.856263
 30
0.00000
  70
    32
  0
VERTEX
  8
0
  5
326AE3
 10
0.414357
 20
0.856021
 30
0.00000
  70
    32
  0
VERTEX
  8
0
  5
326AE4
 10
0.414436
 20
0.855786
 30
0.00000
  70
    32
  0
VERTEX
  8
0
  5
326AE5
 10
0.414513
 20
0.855558
 30
0.00000
  70
    32
  0
VERTEX
  8
0
  5
326AE6
 10
0.414587
 20
0.855338
 30
0.00000
  70
    32
  0
VERTEX
  8
0
  5
326AE7
 10
0.414658
 20
0.855125
 30
0.00000
  70
    32
  0
VERTEX
  8
0
  5
326AE8
 10
0.414726
 20
0.854920
 30
0.00000
  70
    32
  0
VERTEX
  8
0
  5
326AE9
 10
0.414792
 20
0.854723
 30
0.00000
  70
    32
  0
VERTEX
  8
0
  5
326AEA
 10
0.414854
 20
0.854533
 30
0.00000
  70
    32
  0
VERTEX
  8
0
  5
326AEB
 10
0.414913
 20
0.854352
 30
0.00000
  70
    32
  0
VERTEX
  8
0
  5
326AEC
 10
0.414970
 20
0.854179
 30
0.00000
  70
    32
  0
VERTEX
  8
0
  5
326AED
 10
0.415024
 20
0.854015
 30
0.00000
  70
    32
  0
VERTEX
  8
0
  5
326AEE
 10
0.415074
 20
0.853858
 30
0.00000
  70
    32
  0
VERTEX
  8
0
  5
326AEF
 10
0.415122
 20
0.853710
 30
0.00000
  70
    32
  0
VERTEX
  8
0
  5
326AF0
 10
0.415167
 20
0.853571
 30
0.00000
  70
    32
  0
VERTEX
  8
0
  5
326AF1
 10
0.415209
 20
0.853441
 30
0.00000
  70
    32
  0
VERTEX
  8
0
  5
326AF2
 10
0.415248
 20
0.853320
 30
0.00000
  70
    32
  0
VERTEX
  8
0
  5
326AF3
 10
0.415283
 20
0.853207
 30
0.00000
  70
    32
  0
VERTEX
  8
0
  5
326AF4
 10
0.415316
 20
0.853104
 30
0.00000
  70
    32
  0
VERTEX
  8
0
  5
326AF5
 10
0.415346
 20
0.853010
 30
0.00000
  70
    32
  0
VERTEX
  8
0
  5
326AF6
 10
0.415372
 20
0.852925
 30
0.00000
  70
    32
  0
VERTEX
  8
0
  5
326AF7
 10
0.415396
 20
0.852850
 30
0.00000
  70
    32
  0
VERTEX
  8
0
  5
326AF8
 10
0.415416
 20
0.852785
 30
0.00000
  70
    32
  0
VERTEX
  8
0
  5
326AF9
 10
0.415434
 20
0.852729
 30
0.00000
  70
    32
  0
VERTEX
  8
0
  5
326AFA
 10
0.415448
 20
0.852683
 30
0.00000
  70
    32
  0
VERTEX
  8
0
  5
326AFB
 10
0.415459
 20
0.852647
 30
0.00000
  70
    32
  0
VERTEX
  8
0
  5
326AFC
 10
0.415467
 20
0.852621
 30
0.00000
  70
    32
  0
VERTEX
  8
0
  5
326AFD
 10
0.415472
 20
0.852606
 30
0.00000
  70
    32
  0
VERTEX
  8
0
  5
326AFE
 10
0.415473
 20
0.852601
 30
0.00000
  70
    32
  0
SEQEND
  8
0
  5
326AFF
  0
POLYLINE
  8
0
  5
326B00
  66
     1
 10
0.00000
 20
0.00000
 30
0.00000
  70
     8
  0
VERTEX
  8
0
  5
326B01
 10
0.415473
 20
0.852601
 30
0.00000
  70
    32
  0
VERTEX
  8
0
  5
326B02
 10
0.415495
 20
0.852589
 30
0.00000
  70
    32
  0
VERTEX
  8
0
  5
326B03
 10
0.415561
 20
0.852555
 30
0.00000
  70
    32
  0
VERTEX
  8
0
  5
326B04
 10
0.415669
 20
0.852499
 30
0.00000
  70
    32
  0
VERTEX
  8
0
  5
326B05
 10
0.415819
 20
0.852420
 30
0.00000
  70
    32
  0
VERTEX
  8
0
  5
326B06
 10
0.416010
 20
0.852318
 30
0.00000
  70
    32
  0
VERTEX
  8
0
  5
326B07
 10
0.416241
 20
0.852194
 30
0.00000
  70
    32
  0
VERTEX
  8
0
  5
326B08
 10
0.416512
 20
0.852048
 30
0.00000
  70
    32
  0
VERTEX
  8
0
  5
326B09
 10
0.416822
 20
0.851879
 30
0.00000
  70
    32
  0
VERTEX
  8
0
  5
326B0A
 10
0.417169
 20
0.851688
 30
0.00000
  70
    32
  0
VERTEX
  8
0
  5
326B0B
 10
0.417554
 20
0.851475
 30
0.00000
  70
    32
  0
VERTEX
  8
0
  5
326B0C
 10
0.417974
 20
0.851240
 30
0.00000
  70
    32
  0
VERTEX
  8
0
  5
326B0D
 10
0.418431
 20
0.850982
 30
0.00000
  70
    32
  0
VERTEX
  8
0
  5
326B0E
 10
0.418922
 20
0.850702
 30
0.00000
  70
    32
  0
VERTEX
  8
0
  5
326B0F
 10
0.419447
 20
0.850400
 30
0.00000
  70
    32
  0
VERTEX
  8
0
  5
326B10
 10
0.420005
 20
0.850076
 30
0.00000
  70
    32
  0
VERTEX
  8
0
  5
326B11
 10
0.420596
 20
0.849730
 30
0.00000
  70
    32
  0
VERTEX
  8
0
  5
326B12
 10
0.421218
 20
0.849362
 30
0.00000
  70
    32
  0
VERTEX
  8
0
  5
326B13
 10
0.421870
 20
0.848973
 30
0.00000
  70
    32
  0
VERTEX
  8
0
  5
326B14
 10
0.422553
 20
0.848561
 30
0.00000
  70
    32
  0
VERTEX
  8
0
  5
326B15
 10
0.423265
 20
0.848128
 30
0.00000
  70
    32
  0
VERTEX
  8
0
  5
326B16
 10
0.424005
 20
0.847672
 30
0.00000
  70
    32
  0
VERTEX
  8
0
  5
326B17
 10
0.424773
 20
0.847195
 30
0.00000
  70
    32
  0
VERTEX
  8
0
  5
326B18
 10
0.425568
 20
0.846697
 30
0.00000
  70
    32
  0
VERTEX
  8
0
  5
326B19
 10
0.426389
 20
0.846176
 30
0.00000
  70
    32
  0
VERTEX
  8
0
  5
326B1A
 10
0.427235
 20
0.845634
 30
0.00000
  70
    32
  0
VERTEX
  8
0
  5
326B1B
 10
0.428105
 20
0.845071
 30
0.00000
  70
    32
  0
VERTEX
  8
0
  5
326B1C
 10
0.428999
 20
0.844486
 30
0.00000
  70
    32
  0
VERTEX
  8
0
  5
326B1D
 10
0.429915
 20
0.843879
 30
0.00000
  70
    32
  0
VERTEX
  8
0
  5
326B1E
 10
0.430854
 20
0.843251
 30
0.00000
  70
    32
  0
VERTEX
  8
0
  5
326B1F
 10
0.431814
 20
0.842602
 30
0.00000
  70
    32
  0
VERTEX
  8
0
  5
326B20
 10
0.432795
 20
0.841932
 30
0.00000
  70
    32
  0
VERTEX
  8
0
  5
326B21
 10
0.433795
 20
0.841240
 30
0.00000
  70
    32
  0
VERTEX
  8
0
  5
326B22
 10
0.434814
 20
0.840526
 30
0.00000
  70
    32
  0
VERTEX
  8
0
  5
326B23
 10
0.435851
 20
0.839792
 30
0.00000
  70
    32
  0
VERTEX
  8
0
  5
326B24
 10
0.436905
 20
0.839036
 30
0.00000
  70
    32
  0
VERTEX
  8
0
  5
326B25
 10
0.437976
 20
0.838260
 30
0.00000
  70
    32
  0
VERTEX
  8
0
  5
326B26
 10
0.439062
 20
0.837462
 30
0.00000
  70
    32
  0
VERTEX
  8
0
  5
326B27
 10
0.440163
 20
0.836643
 30
0.00000
  70
    32
  0
VERTEX
  8
0
  5
326B28
 10
0.441279
 20
0.835803
 30
0.00000
  70
    32
  0
VERTEX
  8
0
  5
326B29
 10
0.442407
 20
0.834943
 30
0.00000
  70
    32
  0
VERTEX
  8
0
  5
326B2A
 10
0.443548
 20
0.834061
 30
0.00000
  70
    32
  0
VERTEX
  8
0
  5
326B2B
 10
0.444701
 20
0.833159
 30
0.00000
  70
    32
  0
VERTEX
  8
0
  5
326B2C
 10
0.445865
 20
0.832235
 30
0.00000
  70
    32
  0
VERTEX
  8
0
  5
326B2D
 10
0.447039
 20
0.831291
 30
0.00000
  70
    32
  0
VERTEX
  8
0
  5
326B2E
 10
0.448222
 20
0.830327
 30
0.00000
  70
    32
  0
VERTEX
  8
0
  5
326B2F
 10
0.449414
 20
0.829341
 30
0.00000
  70
    32
  0
VERTEX
  8
0
  5
326B30
 10
0.450613
 20
0.828335
 30
0.00000
  70
    32
  0
VERTEX
  8
0
  5
326B31
 10
0.451820
 20
0.827308
 30
0.00000
  70
    32
  0
VERTEX
  8
0
  5
326B32
 10
0.453032
 20
0.826261
 30
0.00000
  70
    32
  0
VERTEX
  8
0
  5
326B33
 10
0.454250
 20
0.825193
 30
0.00000
  70
    32
  0
VERTEX
  8
0
  5
326B34
 10
0.455473
 20
0.824105
 30
0.00000
  70
    32
  0
VERTEX
  8
0
  5
326B35
 10
0.456699
 20
0.822997
 30
0.00000
  70
    32
  0
VERTEX
  8
0
  5
326B36
 10
0.457928
 20
0.821868
 30
0.00000
  70
    32
  0
VERTEX
  8
0
  5
326B37
 10
0.459160
 20
0.820718
 30
0.00000
  70
    32
  0
VERTEX
  8
0
  5
326B38
 10
0.460393
 20
0.819549
 30
0.00000
  70
    32
  0
VERTEX
  8
0
  5
326B39
 10
0.461626
 20
0.818359
 30
0.00000
  70
    32
  0
VERTEX
  8
0
  5
326B3A
 10
0.462859
 20
0.817149
 30
0.00000
  70
    32
  0
VERTEX
  8
0
  5
326B3B
 10
0.464091
 20
0.815919
 30
0.00000
  70
    32
  0
VERTEX
  8
0
  5
326B3C
 10
0.465322
 20
0.814668
 30
0.00000
  70
    32
  0
VERTEX
  8
0
  5
326B3D
 10
0.466550
 20
0.813398
 30
0.00000
  70
    32
  0
VERTEX
  8
0
  5
326B3E
 10
0.467774
 20
0.812108
 30
0.00000
  70
    32
  0
VERTEX
  8
0
  5
326B3F
 10
0.468995
 20
0.810797
 30
0.00000
  70
    32
  0
VERTEX
  8
0
  5
326B40
 10
0.470210
 20
0.809467
 30
0.00000
  70
    32
  0
VERTEX
  8
0
  5
326B41
 10
0.471419
 20
0.808117
 30
0.00000
  70
    32
  0
VERTEX
  8
0
  5
326B42
 10
0.472623
 20
0.806747
 30
0.00000
  70
    32
  0
VERTEX
  8
0
  5
326B43
 10
0.473818
 20
0.805357
 30
0.00000
  70
    32
  0
VERTEX
  8
0
  5
326B44
 10
0.475006
 20
0.803948
 30
0.00000
  70
    32
  0
VERTEX
  8
0
  5
326B45
 10
0.476184
 20
0.802518
 30
0.00000
  70
    32
  0
VERTEX
  8
0
  5
326B46
 10
0.477353
 20
0.801069
 30
0.00000
  70
    32
  0
VERTEX
  8
0
  5
326B47
 10
0.478512
 20
0.799601
 30
0.00000
  70
    32
  0
VERTEX
  8
0
  5
326B48
 10
0.479659
 20
0.798113
 30
0.00000
  70
    32
  0
VERTEX
  8
0
  5
326B49
 10
0.480794
 20
0.796605
 30
0.00000
  70
    32
  0
VERTEX
  8
0
  5
326B4A
 10
0.481916
 20
0.795078
 30
0.00000
  70
    32
  0
VERTEX
  8
0
  5
326B4B
 10
0.483024
 20
0.793531
 30
0.00000
  70
    32
  0
VERTEX
  8
0
  5
326B4C
 10
0.484118
 20
0.791965
 30
0.00000
  70
    32
  0
VERTEX
  8
0
  5
326B4D
 10
0.485197
 20
0.790380
 30
0.00000
  70
    32
  0
VERTEX
  8
0
  5
326B4E
 10
0.486260
 20
0.788775
 30
0.00000
  70
    32
  0
VERTEX
  8
0
  5
326B4F
 10
0.487305
 20
0.787151
 30
0.00000
  70
    32
  0
VERTEX
  8
0
  5
326B50
 10
0.488333
 20
0.785508
 30
0.00000
  70
    32
  0
VERTEX
  8
0
  5
326B51
 10
0.489343
 20
0.783845
 30
0.00000
  70
    32
  0
VERTEX
  8
0
  5
326B52
 10
0.490333
 20
0.782164
 30
0.00000
  70
    32
  0
VERTEX
  8
0
  5
326B53
 10
0.491304
 20
0.780463
 30
0.00000
  70
    32
  0
VERTEX
  8
0
  5
326B54
 10
0.492253
 20
0.778743
 30
0.00000
  70
    32
  0
VERTEX
  8
0
  5
326B55
 10
0.493181
 20
0.777005
 30
0.00000
  70
    32
  0
VERTEX
  8
0
  5
326B56
 10
0.494086
 20
0.775247
 30
0.00000
  70
    32
  0
VERTEX
  8
0
  5
326B57
 10
0.494968
 20
0.773470
 30
0.00000
  70
    32
  0
VERTEX
  8
0
  5
326B58
 10
0.495827
 20
0.771675
 30
0.00000
  70
    32
  0
VERTEX
  8
0
  5
326B59
 10
0.496660
 20
0.769861
 30
0.00000
  70
    32
  0
VERTEX
  8
0
  5
326B5A
 10
0.497468
 20
0.768028
 30
0.00000
  70
    32
  0
VERTEX
  8
0
  5
326B5B
 10
0.498249
 20
0.766176
 30
0.00000
  70
    32
  0
VERTEX
  8
0
  5
326B5C
 10
0.499003
 20
0.764305
 30
0.00000
  70
    32
  0
VERTEX
  8
0
  5
326B5D
 10
0.499730
 20
0.762416
 30
0.00000
  70
    32
  0
VERTEX
  8
0
  5
326B5E
 10
0.500427
 20
0.760508
 30
0.00000
  70
    32
  0
VERTEX
  8
0
  5
326B5F
 10
0.501095
 20
0.758582
 30
0.00000
  70
    32
  0
VERTEX
  8
0
  5
326B60
 10
0.501732
 20
0.756637
 30
0.00000
  70
    32
  0
VERTEX
  8
0
  5
326B61
 10
0.502339
 20
0.754674
 30
0.00000
  70
    32
  0
VERTEX
  8
0
  5
326B62
 10
0.502913
 20
0.752692
 30
0.00000
  70
    32
  0
VERTEX
  8
0
  5
326B63
 10
0.503455
 20
0.750692
 30
0.00000
  70
    32
  0
VERTEX
  8
0
  5
326B64
 10
0.503963
 20
0.748673
 30
0.00000
  70
    32
  0
VERTEX
  8
0
  5
326B65
 10
0.504437
 20
0.746636
 30
0.00000
  70
    32
  0
VERTEX
  8
0
  5
326B66
 10
0.504876
 20
0.744581
 30
0.00000
  70
    32
  0
VERTEX
  8
0
  5
326B67
 10
0.505278
 20
0.742508
 30
0.00000
  70
    32
  0
VERTEX
  8
0
  5
326B68
 10
0.505644
 20
0.740416
 30
0.00000
  70
    32
  0
VERTEX
  8
0
  5
326B69
 10
0.505973
 20
0.738307
 30
0.00000
  70
    32
  0
VERTEX
  8
0
  5
326B6A
 10
0.506263
 20
0.736179
 30
0.00000
  70
    32
  0
VERTEX
  8
0
  5
326B6B
 10
0.506515
 20
0.734033
 30
0.00000
  70
    32
  0
VERTEX
  8
0
  5
326B6C
 10
0.506726
 20
0.731869
 30
0.00000
  70
    32
  0
VERTEX
  8
0
  5
326B6D
 10
0.506896
 20
0.729688
 30
0.00000
  70
    32
  0
VERTEX
  8
0
  5
326B6E
 10
0.507026
 20
0.727488
 30
0.00000
  70
    32
  0
VERTEX
  8
0
  5
326B6F
 10
0.507112
 20
0.725270
 30
0.00000
  70
    32
  0
VERTEX
  8
0
  5
326B70
 10
0.507156
 20
0.723035
 30
0.00000
  70
    32
  0
VERTEX
  8
0
  5
326B71
 10
0.507158
 20
0.720787
 30
0.00000
  70
    32
  0
VERTEX
  8
0
  5
326B72
 10
0.507125
 20
0.718559
 30
0.00000
  70
    32
  0
VERTEX
  8
0
  5
326B73
 10
0.507061
 20
0.716355
 30
0.00000
  70
    32
  0
VERTEX
  8
0
  5
326B74
 10
0.506965
 20
0.714176
 30
0.00000
  70
    32
  0
VERTEX
  8
0
  5
326B75
 10
0.506838
 20
0.712021
 30
0.00000
  70
    32
  0
VERTEX
  8
0
  5
326B76
 10
0.506681
 20
0.709891
 30
0.00000
  70
    32
  0
VERTEX
  8
0
  5
326B77
 10
0.506495
 20
0.707785
 30
0.00000
  70
    32
  0
VERTEX
  8
0
  5
326B78
 10
0.506279
 20
0.705703
 30
0.00000
  70
    32
  0
VERTEX
  8
0
  5
326B79
 10
0.506035
 20
0.703645
 30
0.00000
  70
    32
  0
VERTEX
  8
0
  5
326B7A
 10
0.505764
 20
0.701611
 30
0.00000
  70
    32
  0
VERTEX
  8
0
  5
326B7B
 10
0.505465
 20
0.699601
 30
0.00000
  70
    32
  0
VERTEX
  8
0
  5
326B7C
 10
0.505139
 20
0.697616
 30
0.00000
  70
    32
  0
VERTEX
  8
0
  5
326B7D
 10
0.504787
 20
0.695654
 30
0.00000
  70
    32
  0
VERTEX
  8
0
  5
326B7E
 10
0.504410
 20
0.693715
 30
0.00000
  70
    32
  0
VERTEX
  8
0
  5
326B7F
 10
0.504008
 20
0.691801
 30
0.00000
  70
    32
  0
VERTEX
  8
0
  5
326B80
 10
0.503582
 20
0.689909
 30
0.00000
  70
    32
  0
VERTEX
  8
0
  5
326B81
 10
0.503132
 20
0.688042
 30
0.00000
  70
    32
  0
VERTEX
  8
0
  5
326B82
 10
0.502658
 20
0.686198
 30
0.00000
  70
    32
  0
VERTEX
  8
0
  5
326B83
 10
0.502163
 20
0.684377
 30
0.00000
  70
    32
  0
VERTEX
  8
0
  5
326B84
 10
0.501645
 20
0.682579
 30
0.00000
  70
    32
  0
VERTEX
  8
0
  5
326B85
 10
0.501106
 20
0.680805
 30
0.00000
  70
    32
  0
VERTEX
  8
0
  5
326B86
 10
0.500546
 20
0.679053
 30
0.00000
  70
    32
  0
VERTEX
  8
0
  5
326B87
 10
0.499966
 20
0.677325
 30
0.00000
  70
    32
  0
VERTEX
  8
0
  5
326B88
 10
0.499366
 20
0.675619
 30
0.00000
  70
    32
  0
VERTEX
  8
0
  5
326B89
 10
0.498748
 20
0.673936
 30
0.00000
  70
    32
  0
VERTEX
  8
0
  5
326B8A
 10
0.498111
 20
0.672277
 30
0.00000
  70
    32
  0
VERTEX
  8
0
  5
326B8B
 10
0.497456
 20
0.670639
 30
0.00000
  70
    32
  0
VERTEX
  8
0
  5
326B8C
 10
0.496784
 20
0.669025
 30
0.00000
  70
    32
  0
VERTEX
  8
0
  5
326B8D
 10
0.496095
 20
0.667432
 30
0.00000
  70
    32
  0
VERTEX
  8
0
  5
326B8E
 10
0.495390
 20
0.665863
 30
0.00000
  70
    32
  0
VERTEX
  8
0
  5
326B8F
 10
0.494670
 20
0.664315
 30
0.00000
  70
    32
  0
VERTEX
  8
0
  5
326B90
 10
0.493935
 20
0.662790
 30
0.00000
  70
    32
  0
VERTEX
  8
0
  5
326B91
 10
0.493185
 20
0.661287
 30
0.00000
  70
    32
  0
VERTEX
  8
0
  5
326B92
 10
0.492422
 20
0.659806
 30
0.00000
  70
    32
  0
VERTEX
  8
0
  5
326B93
 10
0.491646
 20
0.658347
 30
0.00000
  70
    32
  0
VERTEX
  8
0
  5
326B94
 10
0.490857
 20
0.656910
 30
0.00000
  70
    32
  0
VERTEX
  8
0
  5
326B95
 10
0.490056
 20
0.655495
 30
0.00000
  70
    32
  0
VERTEX
  8
0
  5
326B96
 10
0.489244
 20
0.654102
 30
0.00000
  70
    32
  0
VERTEX
  8
0
  5
326B97
 10
0.488422
 20
0.652730
 30
0.00000
  70
    32
  0
VERTEX
  8
0
  5
326B98
 10
0.487589
 20
0.651380
 30
0.00000
  70
    32
  0
VERTEX
  8
0
  5
326B99
 10
0.486746
 20
0.650052
 30
0.00000
  70
    32
  0
VERTEX
  8
0
  5
326B9A
 10
0.485895
 20
0.648745
 30
0.00000
  70
    32
  0
VERTEX
  8
0
  5
326B9B
 10
0.485035
 20
0.647459
 30
0.00000
  70
    32
  0
VERTEX
  8
0
  5
326B9C
 10
0.484167
 20
0.646195
 30
0.00000
  70
    32
  0
VERTEX
  8
0
  5
326B9D
 10
0.483292
 20
0.644952
 30
0.00000
  70
    32
  0
VERTEX
  8
0
  5
326B9E
 10
0.482411
 20
0.643730
 30
0.00000
  70
    32
  0
VERTEX
  8
0
  5
326B9F
 10
0.481523
 20
0.642529
 30
0.00000
  70
    32
  0
VERTEX
  8
0
  5
326BA0
 10
0.480630
 20
0.641349
 30
0.00000
  70
    32
  0
VERTEX
  8
0
  5
326BA1
 10
0.479732
 20
0.640190
 30
0.00000
  70
    32
  0
VERTEX
  8
0
  5
326BA2
 10
0.478830
 20
0.639051
 30
0.00000
  70
    32
  0
VERTEX
  8
0
  5
326BA3
 10
0.477924
 20
0.637934
 30
0.00000
  70
    32
  0
VERTEX
  8
0
  5
326BA4
 10
0.477015
 20
0.636837
 30
0.00000
  70
    32
  0
VERTEX
  8
0
  5
326BA5
 10
0.476104
 20
0.635760
 30
0.00000
  70
    32
  0
VERTEX
  8
0
  5
326BA6
 10
0.475190
 20
0.634704
 30
0.00000
  70
    32
  0
VERTEX
  8
0
  5
326BA7
 10
0.474276
 20
0.633669
 30
0.00000
  70
    32
  0
VERTEX
  8
0
  5
326BA8
 10
0.473360
 20
0.632653
 30
0.00000
  70
    32
  0
VERTEX
  8
0
  5
326BA9
 10
0.472445
 20
0.631658
 30
0.00000
  70
    32
  0
VERTEX
  8
0
  5
326BAA
 10
0.471529
 20
0.630683
 30
0.00000
  70
    32
  0
VERTEX
  8
0
  5
326BAB
 10
0.470615
 20
0.629728
 30
0.00000
  70
    32
  0
VERTEX
  8
0
  5
326BAC
 10
0.469703
 20
0.628794
 30
0.00000
  70
    32
  0
VERTEX
  8
0
  5
326BAD
 10
0.468793
 20
0.627879
 30
0.00000
  70
    32
  0
VERTEX
  8
0
  5
326BAE
 10
0.467885
 20
0.626984
 30
0.00000
  70
    32
  0
VERTEX
  8
0
  5
326BAF
 10
0.466981
 20
0.626108
 30
0.00000
  70
    32
  0
VERTEX
  8
0
  5
326BB0
 10
0.466081
 20
0.625252
 30
0.00000
  70
    32
  0
VERTEX
  8
0
  5
326BB1
 10
0.465185
 20
0.624416
 30
0.00000
  70
    32
  0
VERTEX
  8
0
  5
326BB2
 10
0.464295
 20
0.623600
 30
0.00000
  70
    32
  0
VERTEX
  8
0
  5
326BB3
 10
0.463410
 20
0.622802
 30
0.00000
  70
    32
  0
VERTEX
  8
0
  5
326BB4
 10
0.462532
 20
0.622024
 30
0.00000
  70
    32
  0
VERTEX
  8
0
  5
326BB5
 10
0.461661
 20
0.621266
 30
0.00000
  70
    32
  0
VERTEX
  8
0
  5
326BB6
 10
0.460797
 20
0.620526
 30
0.00000
  70
    32
  0
VERTEX
  8
0
  5
326BB7
 10
0.459941
 20
0.619806
 30
0.00000
  70
    32
  0
VERTEX
  8
0
  5
326BB8
 10
0.459094
 20
0.619104
 30
0.00000
  70
    32
  0
VERTEX
  8
0
  5
326BB9
 10
0.458256
 20
0.618422
 30
0.00000
  70
    32
  0
VERTEX
  8
0
  5
326BBA
 10
0.457428
 20
0.617758
 30
0.00000
  70
    32
  0
VERTEX
  8
0
  5
326BBB
 10
0.456611
 20
0.617113
 30
0.00000
  70
    32
  0
VERTEX
  8
0
  5
326BBC
 10
0.455804
 20
0.616487
 30
0.00000
  70
    32
  0
VERTEX
  8
0
  5
326BBD
 10
0.455010
 20
0.615880
 30
0.00000
  70
    32
  0
VERTEX
  8
0
  5
326BBE
 10
0.454227
 20
0.615291
 30
0.00000
  70
    32
  0
VERTEX
  8
0
  5
326BBF
 10
0.453457
 20
0.614720
 30
0.00000
  70
    32
  0
VERTEX
  8
0
  5
326BC0
 10
0.452701
 20
0.614168
 30
0.00000
  70
    32
  0
VERTEX
  8
0
  5
326BC1
 10
0.451958
 20
0.613634
 30
0.00000
  70
    32
  0
VERTEX
  8
0
  5
326BC2
 10
0.451231
 20
0.613118
 30
0.00000
  70
    32
  0
VERTEX
  8
0
  5
326BC3
 10
0.450518
 20
0.612620
 30
0.00000
  70
    32
  0
VERTEX
  8
0
  5
326BC4
 10
0.449821
 20
0.612140
 30
0.00000
  70
    32
  0
VERTEX
  8
0
  5
326BC5
 10
0.449141
 20
0.611679
 30
0.00000
  70
    32
  0
VERTEX
  8
0
  5
326BC6
 10
0.448477
 20
0.611235
 30
0.00000
  70
    32
  0
VERTEX
  8
0
  5
326BC7
 10
0.447831
 20
0.610809
 30
0.00000
  70
    32
  0
VERTEX
  8
0
  5
326BC8
 10
0.447203
 20
0.610400
 30
0.00000
  70
    32
  0
VERTEX
  8
0
  5
326BC9
 10
0.446594
 20
0.610010
 30
0.00000
  70
    32
  0
VERTEX
  8
0
  5
326BCA
 10
0.446004
 20
0.609636
 30
0.00000
  70
    32
  0
VERTEX
  8
0
  5
326BCB
 10
0.445434
 20
0.609281
 30
0.00000
  70
    32
  0
VERTEX
  8
0
  5
326BCC
 10
0.444885
 20
0.608942
 30
0.00000
  70
    32
  0
VERTEX
  8
0
  5
326BCD
 10
0.444356
 20
0.608621
 30
0.00000
  70
    32
  0
VERTEX
  8
0
  5
326BCE
 10
0.443849
 20
0.608318
 30
0.00000
  70
    32
  0
VERTEX
  8
0
  5
326BCF
 10
0.443365
 20
0.608031
 30
0.00000
  70
    32
  0
VERTEX
  8
0
  5
326BD0
 10
0.442903
 20
0.607761
 30
0.00000
  70
    32
  0
VERTEX
  8
0
  5
326BD1
 10
0.442465
 20
0.607508
 30
0.00000
  70
    32
  0
VERTEX
  8
0
  5
326BD2
 10
0.442050
 20
0.607273
 30
0.00000
  70
    32
  0
VERTEX
  8
0
  5
326BD3
 10
0.441661
 20
0.607054
 30
0.00000
  70
    32
  0
VERTEX
  8
0
  5
326BD4
 10
0.441296
 20
0.606851
 30
0.00000
  70
    32
  0
VERTEX
  8
0
  5
326BD5
 10
0.440957
 20
0.606666
 30
0.00000
  70
    32
  0
VERTEX
  8
0
  5
326BD6
 10
0.440645
 20
0.606497
 30
0.00000
  70
    32
  0
VERTEX
  8
0
  5
326BD7
 10
0.440359
 20
0.606344
 30
0.00000
  70
    32
  0
VERTEX
  8
0
  5
326BD8
 10
0.440102
 20
0.606208
 30
0.00000
  70
    32
  0
VERTEX
  8
0
  5
326BD9
 10
0.439872
 20
0.606088
 30
0.00000
  70
    32
  0
VERTEX
  8
0
  5
326BDA
 10
0.439671
 20
0.605985
 30
0.00000
  70
    32
  0
VERTEX
  8
0
  5
326BDB
 10
0.439499
 20
0.605897
 30
0.00000
  70
    32
  0
VERTEX
  8
0
  5
326BDC
 10
0.439357
 20
0.605826
 30
0.00000
  70
    32
  0
VERTEX
  8
0
  5
326BDD
 10
0.439246
 20
0.605771
 30
0.00000
  70
    32
  0
VERTEX
  8
0
  5
326BDE
 10
0.439166
 20
0.605731
 30
0.00000
  70
    32
  0
VERTEX
  8
0
  5
326BDF
 10
0.439117
 20
0.605708
 30
0.00000
  70
    32
  0
VERTEX
  8
0
  5
326BE0
 10
0.439101
 20
0.605700
 30
0.00000
  70
    32
  0
SEQEND
  8
0
  5
326BE1
  0
POLYLINE
  8
0
  5
326BE2
  66
     1
 10
0.00000
 20
0.00000
 30
0.00000
  70
     8
  0
VERTEX
  8
0
  5
326BE3
 10
0.439101
 20
0.605700
 30
0.00000
  70
    32
  0
VERTEX
  8
0
  5
326BE4
 10
0.439133
 20
0.605680
 30
0.00000
  70
    32
  0
VERTEX
  8
0
  5
326BE5
 10
0.439230
 20
0.605622
 30
0.00000
  70
    32
  0
VERTEX
  8
0
  5
326BE6
 10
0.439390
 20
0.605525
 30
0.00000
  70
    32
  0
VERTEX
  8
0
  5
326BE7
 10
0.439612
 20
0.605391
 30
0.00000
  70
    32
  0
VERTEX
  8
0
  5
326BE8
 10
0.439896
 20
0.605219
 30
0.00000
  70
    32
  0
VERTEX
  8
0
  5
326BE9
 10
0.440240
 20
0.605010
 30
0.00000
  70
    32
  0
VERTEX
  8
0
  5
326BEA
 10
0.440644
 20
0.604765
 30
0.00000
  70
    32
  0
VERTEX
  8
0
  5
326BEB
 10
0.441107
 20
0.604484
 30
0.00000
  70
    32
  0
VERTEX
  8
0
  5
326BEC
 10
0.441628
 20
0.604168
 30
0.00000
  70
    32
  0
VERTEX
  8
0
  5
326BED
 10
0.442207
 20
0.603817
 30
0.00000
  70
    32
  0
VERTEX
  8
0
  5
326BEE
 10
0.442841
 20
0.603431
 30
0.00000
  70
    32
  0
VERTEX
  8
0
  5
326BEF
 10
0.443531
 20
0.603011
 30
0.00000
  70
    32
  0
VERTEX
  8
0
  5
326BF0
 10
0.444275
 20
0.602557
 30
0.00000
  70
    32
  0
VERTEX
  8
0
  5
326BF1
 10
0.445073
 20
0.602071
 30
0.00000
  70
    32
  0
VERTEX
  8
0
  5
326BF2
 10
0.445924
 20
0.601552
 30
0.00000
  70
    32
  0
VERTEX
  8
0
  5
326BF3
 10
0.446826
 20
0.601000
 30
0.00000
  70
    32
  0
VERTEX
  8
0
  5
326BF4
 10
0.447779
 20
0.600417
 30
0.00000
  70
    32
  0
VERTEX
  8
0
  5
326BF5
 10
0.448783
 20
0.599803
 30
0.00000
  70
    32
  0
VERTEX
  8
0
  5
326BF6
 10
0.449835
 20
0.599158
 30
0.00000
  70
    32
  0
VERTEX
  8
0
  5
326BF7
 10
0.450936
 20
0.598483
 30
0.00000
  70
    32
  0
VERTEX
  8
0
  5
326BF8
 10
0.452084
 20
0.597779
 30
0.00000
  70
    32
  0
VERTEX
  8
0
  5
326BF9
 10
0.453279
 20
0.597045
 30
0.00000
  70
    32
  0
VERTEX
  8
0
  5
326BFA
 10
0.454520
 20
0.596282
 30
0.00000
  70
    32
  0
VERTEX
  8
0
  5
326BFB
 10
0.455805
 20
0.595491
 30
0.00000
  70
    32
  0
VERTEX
  8
0
  5
326BFC
 10
0.457134
 20
0.594671
 30
0.00000
  70
    32
  0
VERTEX
  8
0
  5
326BFD
 10
0.458506
 20
0.593825
 30
0.00000
  70
    32
  0
VERTEX
  8
0
  5
326BFE
 10
0.459921
 20
0.592952
 30
0.00000
  70
    32
  0
VERTEX
  8
0
  5
326BFF
 10
0.461376
 20
0.592052
 30
0.00000
  70
    32
  0
VERTEX
  8
0
  5
326C00
 10
0.462872
 20
0.591126
 30
0.00000
  70
    32
  0
VERTEX
  8
0
  5
326C01
 10
0.464407
 20
0.590175
 30
0.00000
  70
    32
  0
VERTEX
  8
0
  5
326C02
 10
0.465981
 20
0.589199
 30
0.00000
  70
    32
  0
VERTEX
  8
0
  5
326C03
 10
0.467593
 20
0.588198
 30
0.00000
  70
    32
  0
VERTEX
  8
0
  5
326C04
 10
0.469241
 20
0.587173
 30
0.00000
  70
    32
  0
VERTEX
  8
0
  5
326C05
 10
0.470926
 20
0.586125
 30
0.00000
  70
    32
  0
VERTEX
  8
0
  5
326C06
 10
0.472645
 20
0.585053
 30
0.00000
  70
    32
  0
VERTEX
  8
0
  5
326C07
 10
0.474399
 20
0.583959
 30
0.00000
  70
    32
  0
VERTEX
  8
0
  5
326C08
 10
0.476186
 20
0.582842
 30
0.00000
  70
    32
  0
VERTEX
  8
0
  5
326C09
 10
0.478005
 20
0.581704
 30
0.00000
  70
    32
  0
VERTEX
  8
0
  5
326C0A
 10
0.479856
 20
0.580545
 30
0.00000
  70
    32
  0
VERTEX
  8
0
  5
326C0B
 10
0.481738
 20
0.579365
 30
0.00000
  70
    32
  0
VERTEX
  8
0
  5
326C0C
 10
0.483649
 20
0.578165
 30
0.00000
  70
    32
  0
VERTEX
  8
0
  5
326C0D
 10
0.485590
 20
0.576945
 30
0.00000
  70
    32
  0
VERTEX
  8
0
  5
326C0E
 10
0.487558
 20
0.575706
 30
0.00000
  70
    32
  0
VERTEX
  8
0
  5
326C0F
 10
0.489553
 20
0.574447
 30
0.00000
  70
    32
  0
VERTEX
  8
0
  5
326C10
 10
0.491575
 20
0.573171
 30
0.00000
  70
    32
  0
VERTEX
  8
0
  5
326C11
 10
0.493622
 20
0.571876
 30
0.00000
  70
    32
  0
VERTEX
  8
0
  5
326C12
 10
0.495693
 20
0.570564
 30
0.00000
  70
    32
  0
VERTEX
  8
0
  5
326C13
 10
0.497788
 20
0.569236
 30
0.00000
  70
    32
  0
VERTEX
  8
0
  5
326C14
 10
0.499906
 20
0.567890
 30
0.00000
  70
    32
  0
VERTEX
  8
0
  5
326C15
 10
0.502046
 20
0.566529
 30
0.00000
  70
    32
  0
VERTEX
  8
0
  5
326C16
 10
0.504206
 20
0.565152
 30
0.00000
  70
    32
  0
VERTEX
  8
0
  5
326C17
 10
0.506387
 20
0.563760
 30
0.00000
  70
    32
  0
VERTEX
  8
0
  5
326C18
 10
0.508587
 20
0.562354
 30
0.00000
  70
    32
  0
VERTEX
  8
0
  5
326C19
 10
0.510805
 20
0.560933
 30
0.00000
  70
    32
  0
VERTEX
  8
0
  5
326C1A
 10
0.513041
 20
0.559499
 30
0.00000
  70
    32
  0
VERTEX
  8
0
  5
326C1B
 10
0.515293
 20
0.558052
 30
0.00000
  70
    32
  0
VERTEX
  8
0
  5
326C1C
 10
0.517561
 20
0.556592
 30
0.00000
  70
    32
  0
VERTEX
  8
0
  5
326C1D
 10
0.519843
 20
0.555120
 30
0.00000
  70
    32
  0
VERTEX
  8
0
  5
326C1E
 10
0.522140
 20
0.553636
 30
0.00000
  70
    32
  0
VERTEX
  8
0
  5
326C1F
 10
0.524449
 20
0.552141
 30
0.00000
  70
    32
  0
VERTEX
  8
0
  5
326C20
 10
0.526771
 20
0.550635
 30
0.00000
  70
    32
  0
VERTEX
  8
0
  5
326C21
 10
0.529104
 20
0.549119
 30
0.00000
  70
    32
  0
VERTEX
  8
0
  5
326C22
 10
0.531447
 20
0.547593
 30
0.00000
  70
    32
  0
VERTEX
  8
0
  5
326C23
 10
0.533799
 20
0.546057
 30
0.00000
  70
    32
  0
VERTEX
  8
0
  5
326C24
 10
0.536161
 20
0.544513
 30
0.00000
  70
    32
  0
VERTEX
  8
0
  5
326C25
 10
0.538530
 20
0.542960
 30
0.00000
  70
    32
  0
VERTEX
  8
0
  5
326C26
 10
0.540906
 20
0.541400
 30
0.00000
  70
    32
  0
VERTEX
  8
0
  5
326C27
 10
0.543287
 20
0.539832
 30
0.00000
  70
    32
  0
VERTEX
  8
0
  5
326C28
 10
0.545674
 20
0.538257
 30
0.00000
  70
    32
  0
VERTEX
  8
0
  5
326C29
 10
0.548065
 20
0.536675
 30
0.00000
  70
    32
  0
VERTEX
  8
0
  5
326C2A
 10
0.550460
 20
0.535088
 30
0.00000
  70
    32
  0
VERTEX
  8
0
  5
326C2B
 10
0.552857
 20
0.533494
 30
0.00000
  70
    32
  0
VERTEX
  8
0
  5
326C2C
 10
0.555255
 20
0.531896
 30
0.00000
  70
    32
  0
VERTEX
  8
0
  5
326C2D
 10
0.557654
 20
0.530293
 30
0.00000
  70
    32
  0
VERTEX
  8
0
  5
326C2E
 10
0.560053
 20
0.528687
 30
0.00000
  70
    32
  0
VERTEX
  8
0
  5
326C2F
 10
0.562451
 20
0.527076
 30
0.00000
  70
    32
  0
VERTEX
  8
0
  5
326C30
 10
0.564846
 20
0.525462
 30
0.00000
  70
    32
  0
VERTEX
  8
0
  5
326C31
 10
0.567239
 20
0.523846
 30
0.00000
  70
    32
  0
VERTEX
  8
0
  5
326C32
 10
0.569628
 20
0.522227
 30
0.00000
  70
    32
  0
VERTEX
  8
0
  5
326C33
 10
0.572013
 20
0.520606
 30
0.00000
  70
    32
  0
VERTEX
  8
0
  5
326C34
 10
0.574392
 20
0.518985
 30
0.00000
  70
    32
  0
VERTEX
  8
0
  5
326C35
 10
0.576764
 20
0.517362
 30
0.00000
  70
    32
  0
VERTEX
  8
0
  5
326C36
 10
0.579130
 20
0.515739
 30
0.00000
  70
    32
  0
VERTEX
  8
0
  5
326C37
 10
0.581487
 20
0.514116
 30
0.00000
  70
    32
  0
VERTEX
  8
0
  5
326C38
 10
0.583835
 20
0.512494
 30
0.00000
  70
    32
  0
VERTEX
  8
0
  5
326C39
 10
0.586173
 20
0.510873
 30
0.00000
  70
    32
  0
VERTEX
  8
0
  5
326C3A
 10
0.588501
 20
0.509253
 30
0.00000
  70
    32
  0
VERTEX
  8
0
  5
326C3B
 10
0.590816
 20
0.507636
 30
0.00000
  70
    32
  0
VERTEX
  8
0
  5
326C3C
 10
0.593120
 20
0.506021
 30
0.00000
  70
    32
  0
VERTEX
  8
0
  5
326C3D
 10
0.595409
 20
0.504409
 30
0.00000
  70
    32
  0
VERTEX
  8
0
  5
326C3E
 10
0.597685
 20
0.502800
 30
0.00000
  70
    32
  0
VERTEX
  8
0
  5
326C3F
 10
0.599945
 20
0.501196
 30
0.00000
  70
    32
  0
VERTEX
  8
0
  5
326C40
 10
0.602189
 20
0.499596
 30
0.00000
  70
    32
  0
VERTEX
  8
0
  5
326C41
 10
0.604416
 20
0.498000
 30
0.00000
  70
    32
  0
VERTEX
  8
0
  5
326C42
 10
0.606625
 20
0.496410
 30
0.00000
  70
    32
  0
VERTEX
  8
0
  5
326C43
 10
0.608816
 20
0.494826
 30
0.00000
  70
    32
  0
VERTEX
  8
0
  5
326C44
 10
0.610986
 20
0.493248
 30
0.00000
  70
    32
  0
VERTEX
  8
0
  5
326C45
 10
0.613137
 20
0.491677
 30
0.00000
  70
    32
  0
VERTEX
  8
0
  5
326C46
 10
0.615266
 20
0.490114
 30
0.00000
  70
    32
  0
VERTEX
  8
0
  5
326C47
 10
0.617372
 20
0.488558
 30
0.00000
  70
    32
  0
VERTEX
  8
0
  5
326C48
 10
0.619456
 20
0.487010
 30
0.00000
  70
    32
  0
VERTEX
  8
0
  5
326C49
 10
0.621515
 20
0.485470
 30
0.00000
  70
    32
  0
VERTEX
  8
0
  5
326C4A
 10
0.623550
 20
0.483940
 30
0.00000
  70
    32
  0
VERTEX
  8
0
  5
326C4B
 10
0.625559
 20
0.482420
 30
0.00000
  70
    32
  0
VERTEX
  8
0
  5
326C4C
 10
0.627541
 20
0.480910
 30
0.00000
  70
    32
  0
VERTEX
  8
0
  5
326C4D
 10
0.629496
 20
0.479410
 30
0.00000
  70
    32
  0
VERTEX
  8
0
  5
326C4E
 10
0.631422
 20
0.477921
 30
0.00000
  70
    32
  0
VERTEX
  8
0
  5
326C4F
 10
0.633318
 20
0.476444
 30
0.00000
  70
    32
  0
VERTEX
  8
0
  5
326C50
 10
0.635185
 20
0.474979
 30
0.00000
  70
    32
  0
VERTEX
  8
0
  5
326C51
 10
0.637020
 20
0.473526
 30
0.00000
  70
    32
  0
VERTEX
  8
0
  5
326C52
 10
0.638824
 20
0.472087
 30
0.00000
  70
    32
  0
VERTEX
  8
0
  5
326C53
 10
0.640595
 20
0.470660
 30
0.00000
  70
    32
  0
VERTEX
  8
0
  5
326C54
 10
0.642331
 20
0.469248
 30
0.00000
  70
    32
  0
VERTEX
  8
0
  5
326C55
 10
0.644034
 20
0.467850
 30
0.00000
  70
    32
  0
VERTEX
  8
0
  5
326C56
 10
0.645701
 20
0.466467
 30
0.00000
  70
    32
  0
VERTEX
  8
0
  5
326C57
 10
0.647331
 20
0.465099
 30
0.00000
  70
    32
  0
VERTEX
  8
0
  5
326C58
 10
0.648924
 20
0.463747
 30
0.00000
  70
    32
  0
VERTEX
  8
0
  5
326C59
 10
0.650479
 20
0.462411
 30
0.00000
  70
    32
  0
VERTEX
  8
0
  5
326C5A
 10
0.651995
 20
0.461092
 30
0.00000
  70
    32
  0
VERTEX
  8
0
  5
326C5B
 10
0.653471
 20
0.459790
 30
0.00000
  70
    32
  0
VERTEX
  8
0
  5
326C5C
 10
0.654906
 20
0.458506
 30
0.00000
  70
    32
  0
VERTEX
  8
0
  5
326C5D
 10
0.656300
 20
0.457240
 30
0.00000
  70
    32
  0
VERTEX
  8
0
  5
326C5E
 10
0.657651
 20
0.455993
 30
0.00000
  70
    32
  0
VERTEX
  8
0
  5
326C5F
 10
0.658958
 20
0.454764
 30
0.00000
  70
    32
  0
VERTEX
  8
0
  5
326C60
 10
0.660222
 20
0.453556
 30
0.00000
  70
    32
  0
VERTEX
  8
0
  5
326C61
 10
0.661440
 20
0.452367
 30
0.00000
  70
    32
  0
VERTEX
  8
0
  5
326C62
 10
0.662612
 20
0.451199
 30
0.00000
  70
    32
  0
SEQEND
  8
0
  5
326C63
  0
POLYLINE
  8
0
  5
326C64
  66
     1
 10
0.00000
 20
0.00000
 30
0.00000
  70
     8
  0
VERTEX
  8
0
  5
326C65
 10
0.662612
 20
0.451199
 30
0.00000
  70
    32
  0
VERTEX
  8
0
  5
326C66
 10
0.664697
 20
0.449068
 30
0.00000
  70
    32
  0
VERTEX
  8
0
  5
326C67
 10
0.666722
 20
0.446938
 30
0.00000
  70
    32
  0
VERTEX
  8
0
  5
326C68
 10
0.668689
 20
0.444809
 30
0.00000
  70
    32
  0
VERTEX
  8
0
  5
326C69
 10
0.670597
 20
0.442682
 30
0.00000
  70
    32
  0
VERTEX
  8
0
  5
326C6A
 10
0.672448
 20
0.440557
 30
0.00000
  70
    32
  0
VERTEX
  8
0
  5
326C6B
 10
0.674242
 20
0.438433
 30
0.00000
  70
    32
  0
VERTEX
  8
0
  5
326C6C
 10
0.675980
 20
0.436312
 30
0.00000
  70
    32
  0
VERTEX
  8
0
  5
326C6D
 10
0.677662
 20
0.434194
 30
0.00000
  70
    32
  0
VERTEX
  8
0
  5
326C6E
 10
0.679290
 20
0.432078
 30
0.00000
  70
    32
  0
VERTEX
  8
0
  5
326C6F
 10
0.680864
 20
0.429966
 30
0.00000
  70
    32
  0
VERTEX
  8
0
  5
326C70
 10
0.682384
 20
0.427857
 30
0.00000
  70
    32
  0
VERTEX
  8
0
  5
326C71
 10
0.683852
 20
0.425751
 30
0.00000
  70
    32
  0
VERTEX
  8
0
  5
326C72
 10
0.685268
 20
0.423649
 30
0.00000
  70
    32
  0
VERTEX
  8
0
  5
326C73
 10
0.686632
 20
0.421551
 30
0.00000
  70
    32
  0
VERTEX
  8
0
  5
326C74
 10
0.687946
 20
0.419458
 30
0.00000
  70
    32
  0
VERTEX
  8
0
  5
326C75
 10
0.689210
 20
0.417369
 30
0.00000
  70
    32
  0
VERTEX
  8
0
  5
326C76
 10
0.690425
 20
0.415285
 30
0.00000
  70
    32
  0
VERTEX
  8
0
  5
326C77
 10
0.691591
 20
0.413206
 30
0.00000
  70
    32
  0
VERTEX
  8
0
  5
326C78
 10
0.692709
 20
0.411133
 30
0.00000
  70
    32
  0
VERTEX
  8
0
  5
326C79
 10
0.693780
 20
0.409065
 30
0.00000
  70
    32
  0
VERTEX
  8
0
  5
326C7A
 10
0.694805
 20
0.407002
 30
0.00000
  70
    32
  0
VERTEX
  8
0
  5
326C7B
 10
0.695783
 20
0.404946
 30
0.00000
  70
    32
  0
VERTEX
  8
0
  5
326C7C
 10
0.696717
 20
0.402897
 30
0.00000
  70
    32
  0
VERTEX
  8
0
  5
326C7D
 10
0.697606
 20
0.400853
 30
0.00000
  70
    32
  0
VERTEX
  8
0
  5
326C7E
 10
0.698452
 20
0.398817
 30
0.00000
  70
    32
  0
VERTEX
  8
0
  5
326C7F
 10
0.699254
 20
0.396788
 30
0.00000
  70
    32
  0
VERTEX
  8
0
  5
326C80
 10
0.700014
 20
0.394766
 30
0.00000
  70
    32
  0
VERTEX
  8
0
  5
326C81
 10
0.700732
 20
0.392752
 30
0.00000
  70
    32
  0
VERTEX
  8
0
  5
326C82
 10
0.701409
 20
0.390745
 30
0.00000
  70
    32
  0
VERTEX
  8
0
  5
326C83
 10
0.702046
 20
0.388747
 30
0.00000
  70
    32
  0
VERTEX
  8
0
  5
326C84
 10
0.702644
 20
0.386757
 30
0.00000
  70
    32
  0
VERTEX
  8
0
  5
326C85
 10
0.703202
 20
0.384776
 30
0.00000
  70
    32
  0
VERTEX
  8
0
  5
326C86
 10
0.703722
 20
0.382804
 30
0.00000
  70
    32
  0
VERTEX
  8
0
  5
326C87
 10
0.704204
 20
0.380840
 30
0.00000
  70
    32
  0
VERTEX
  8
0
  5
326C88
 10
0.704650
 20
0.378886
 30
0.00000
  70
    32
  0
VERTEX
  8
0
  5
326C89
 10
0.705059
 20
0.376942
 30
0.00000
  70
    32
  0
VERTEX
  8
0
  5
326C8A
 10
0.705433
 20
0.375007
 30
0.00000
  70
    32
  0
VERTEX
  8
0
  5
326C8B
 10
0.705772
 20
0.373083
 30
0.00000
  70
    32
  0
VERTEX
  8
0
  5
326C8C
 10
0.706077
 20
0.371169
 30
0.00000
  70
    32
  0
VERTEX
  8
0
  5
326C8D
 10
0.706348
 20
0.369265
 30
0.00000
  70
    32
  0
VERTEX
  8
0
  5
326C8E
 10
0.706587
 20
0.367373
 30
0.00000
  70
    32
  0
VERTEX
  8
0
  5
326C8F
 10
0.706794
 20
0.365492
 30
0.00000
  70
    32
  0
VERTEX
  8
0
  5
326C90
 10
0.706969
 20
0.363621
 30
0.00000
  70
    32
  0
VERTEX
  8
0
  5
326C91
 10
0.707113
 20
0.361763
 30
0.00000
  70
    32
  0
VERTEX
  8
0
  5
326C92
 10
0.707227
 20
0.359917
 30
0.00000
  70
    32
  0
VERTEX
  8
0
  5
326C93
 10
0.707312
 20
0.358082
 30
0.00000
  70
    32
  0
VERTEX
  8
0
  5
326C94
 10
0.707369
 20
0.356260
 30
0.00000
  70
    32
  0
VERTEX
  8
0
  5
326C95
 10
0.707397
 20
0.354451
 30
0.00000
  70
    32
  0
VERTEX
  8
0
  5
326C96
 10
0.707398
 20
0.352654
 30
0.00000
  70
    32
  0
VERTEX
  8
0
  5
326C97
 10
0.707373
 20
0.350871
 30
0.00000
  70
    32
  0
VERTEX
  8
0
  5
326C98
 10
0.707321
 20
0.349101
 30
0.00000
  70
    32
  0
VERTEX
  8
0
  5
326C99
 10
0.707245
 20
0.347345
 30
0.00000
  70
    32
  0
VERTEX
  8
0
  5
326C9A
 10
0.707144
 20
0.345602
 30
0.00000
  70
    32
  0
VERTEX
  8
0
  5
326C9B
 10
0.707018
 20
0.343874
 30
0.00000
  70
    32
  0
VERTEX
  8
0
  5
326C9C
 10
0.706870
 20
0.342160
 30
0.00000
  70
    32
  0
VERTEX
  8
0
  5
326C9D
 10
0.706700
 20
0.340461
 30
0.00000
  70
    32
  0
VERTEX
  8
0
  5
326C9E
 10
0.706507
 20
0.338776
 30
0.00000
  70
    32
  0
VERTEX
  8
0
  5
326C9F
 10
0.706293
 20
0.337107
 30
0.00000
  70
    32
  0
VERTEX
  8
0
  5
326CA0
 10
0.706059
 20
0.335453
 30
0.00000
  70
    32
  0
VERTEX
  8
0
  5
326CA1
 10
0.705806
 20
0.333815
 30
0.00000
  70
    32
  0
VERTEX
  8
0
  5
326CA2
 10
0.705533
 20
0.332193
 30
0.00000
  70
    32
  0
VERTEX
  8
0
  5
326CA3
 10
0.705241
 20
0.330587
 30
0.00000
  70
    32
  0
VERTEX
  8
0
  5
326CA4
 10
0.704933
 20
0.328997
 30
0.00000
  70
    32
  0
VERTEX
  8
0
  5
326CA5
 10
0.704607
 20
0.327424
 30
0.00000
  70
    32
  0
VERTEX
  8
0
  5
326CA6
 10
0.704264
 20
0.325868
 30
0.00000
  70
    32
  0
VERTEX
  8
0
  5
326CA7
 10
0.703907
 20
0.324329
 30
0.00000
  70
    32
  0
VERTEX
  8
0
  5
326CA8
 10
0.703534
 20
0.322807
 30
0.00000
  70
    32
  0
VERTEX
  8
0
  5
326CA9
 10
0.703147
 20
0.321303
 30
0.00000
  70
    32
  0
VERTEX
  8
0
  5
326CAA
 10
0.702746
 20
0.319817
 30
0.00000
  70
    32
  0
VERTEX
  8
0
  5
326CAB
 10
0.702333
 20
0.318349
 30
0.00000
  70
    32
  0
VERTEX
  8
0
  5
326CAC
 10
0.701907
 20
0.316900
 30
0.00000
  70
    32
  0
VERTEX
  8
0
  5
326CAD
 10
0.701470
 20
0.315469
 30
0.00000
  70
    32
  0
VERTEX
  8
0
  5
326CAE
 10
0.701022
 20
0.314058
 30
0.00000
  70
    32
  0
VERTEX
  8
0
  5
326CAF
 10
0.700564
 20
0.312665
 30
0.00000
  70
    32
  0
VERTEX
  8
0
  5
326CB0
 10
0.700096
 20
0.311292
 30
0.00000
  70
    32
  0
VERTEX
  8
0
  5
326CB1
 10
0.699620
 20
0.309938
 30
0.00000
  70
    32
  0
VERTEX
  8
0
  5
326CB2
 10
0.699136
 20
0.308605
 30
0.00000
  70
    32
  0
VERTEX
  8
0
  5
326CB3
 10
0.698644
 20
0.307291
 30
0.00000
  70
    32
  0
VERTEX
  8
0
  5
326CB4
 10
0.698145
 20
0.305998
 30
0.00000
  70
    32
  0
VERTEX
  8
0
  5
326CB5
 10
0.697641
 20
0.304726
 30
0.00000
  70
    32
  0
VERTEX
  8
0
  5
326CB6
 10
0.697131
 20
0.303475
 30
0.00000
  70
    32
  0
VERTEX
  8
0
  5
326CB7
 10
0.696617
 20
0.302244
 30
0.00000
  70
    32
  0
VERTEX
  8
0
  5
326CB8
 10
0.696098
 20
0.301036
 30
0.00000
  70
    32
  0
VERTEX
  8
0
  5
326CB9
 10
0.695576
 20
0.299849
 30
0.00000
  70
    32
  0
VERTEX
  8
0
  5
326CBA
 10
0.695052
 20
0.298684
 30
0.00000
  70
    32
  0
VERTEX
  8
0
  5
326CBB
 10
0.694526
 20
0.297541
 30
0.00000
  70
    32
  0
VERTEX
  8
0
  5
326CBC
 10
0.693998
 20
0.296420
 30
0.00000
  70
    32
  0
VERTEX
  8
0
  5
326CBD
 10
0.693470
 20
0.295322
 30
0.00000
  70
    32
  0
VERTEX
  8
0
  5
326CBE
 10
0.692943
 20
0.294248
 30
0.00000
  70
    32
  0
VERTEX
  8
0
  5
326CBF
 10
0.692416
 20
0.293196
 30
0.00000
  70
    32
  0
VERTEX
  8
0
  5
326CC0
 10
0.691890
 20
0.292168
 30
0.00000
  70
    32
  0
VERTEX
  8
0
  5
326CC1
 10
0.691367
 20
0.291163
 30
0.00000
  70
    32
  0
VERTEX
  8
0
  5
326CC2
 10
0.690847
 20
0.290183
 30
0.00000
  70
    32
  0
VERTEX
  8
0
  5
326CC3
 10
0.690330
 20
0.289227
 30
0.00000
  70
    32
  0
VERTEX
  8
0
  5
326CC4
 10
0.689818
 20
0.288295
 30
0.00000
  70
    32
  0
VERTEX
  8
0
  5
326CC5
 10
0.689310
 20
0.287388
 30
0.00000
  70
    32
  0
VERTEX
  8
0
  5
326CC6
 10
0.688808
 20
0.286505
 30
0.00000
  70
    32
  0
VERTEX
  8
0
  5
326CC7
 10
0.688313
 20
0.285648
 30
0.00000
  70
    32
  0
VERTEX
  8
0
  5
326CC8
 10
0.687824
 20
0.284817
 30
0.00000
  70
    32
  0
VERTEX
  8
0
  5
326CC9
 10
0.687344
 20
0.284011
 30
0.00000
  70
    32
  0
VERTEX
  8
0
  5
326CCA
 10
0.686871
 20
0.283231
 30
0.00000
  70
    32
  0
VERTEX
  8
0
  5
326CCB
 10
0.686408
 20
0.282478
 30
0.00000
  70
    32
  0
VERTEX
  8
0
  5
326CCC
 10
0.685954
 20
0.281751
 30
0.00000
  70
    32
  0
VERTEX
  8
0
  5
326CCD
 10
0.685511
 20
0.281050
 30
0.00000
  70
    32
  0
VERTEX
  8
0
  5
326CCE
 10
0.685079
 20
0.280377
 30
0.00000
  70
    32
  0
VERTEX
  8
0
  5
326CCF
 10
0.684659
 20
0.279731
 30
0.00000
  70
    32
  0
VERTEX
  8
0
  5
326CD0
 10
0.684252
 20
0.279112
 30
0.00000
  70
    32
  0
VERTEX
  8
0
  5
326CD1
 10
0.683857
 20
0.278521
 30
0.00000
  70
    32
  0
VERTEX
  8
0
  5
326CD2
 10
0.683477
 20
0.277958
 30
0.00000
  70
    32
  0
VERTEX
  8
0
  5
326CD3
 10
0.683111
 20
0.277423
 30
0.00000
  70
    32
  0
VERTEX
  8
0
  5
326CD4
 10
0.682760
 20
0.276917
 30
0.00000
  70
    32
  0
VERTEX
  8
0
  5
326CD5
 10
0.682425
 20
0.276439
 30
0.00000
  70
    32
  0
VERTEX
  8
0
  5
326CD6
 10
0.682107
 20
0.275991
 30
0.00000
  70
    32
  0
VERTEX
  8
0
  5
326CD7
 10
0.681806
 20
0.275571
 30
0.00000
  70
    32
  0
VERTEX
  8
0
  5
326CD8
 10
0.681523
 20
0.275181
 30
0.00000
  70
    32
  0
VERTEX
  8
0
  5
326CD9
 10
0.681259
 20
0.274821
 30
0.00000
  70
    32
  0
VERTEX
  8
0
  5
326CDA
 10
0.681014
 20
0.274491
 30
0.00000
  70
    32
  0
VERTEX
  8
0
  5
326CDB
 10
0.680790
 20
0.274191
 30
0.00000
  70
    32
  0
VERTEX
  8
0
  5
326CDC
 10
0.680586
 20
0.273922
 30
0.00000
  70
    32
  0
VERTEX
  8
0
  5
326CDD
 10
0.680403
 20
0.273683
 30
0.00000
  70
    32
  0
VERTEX
  8
0
  5
326CDE
 10
0.680243
 20
0.273476
 30
0.00000
  70
    32
  0
VERTEX
  8
0
  5
326CDF
 10
0.680105
 20
0.273299
 30
0.00000
  70
    32
  0
VERTEX
  8
0
  5
326CE0
 10
0.679991
 20
0.273155
 30
0.00000
  70
    32
  0
VERTEX
  8
0
  5
326CE1
 10
0.679901
 20
0.273041
 30
0.00000
  70
    32
  0
VERTEX
  8
0
  5
326CE2
 10
0.679836
 20
0.272960
 30
0.00000
  70
    32
  0
VERTEX
  8
0
  5
326CE3
 10
0.679796
 20
0.272911
 30
0.00000
  70
    32
  0
VERTEX
  8
0
  5
326CE4
 10
0.679783
 20
0.272895
 30
0.00000
  70
    32
  0
SEQEND
  8
0
  5
326CE5
  0
POLYLINE
  8
0
  5
326CE6
  66
     1
 10
0.00000
 20
0.00000
 30
0.00000
  70
     8
  0
VERTEX
  8
0
  5
326CE7
 10
0.679783
 20
0.272895
 30
0.00000
  70
    32
  0
VERTEX
  8
0
  5
326CE8
 10
0.679789
 20
0.272890
 30
0.00000
  70
    32
  0
VERTEX
  8
0
  5
326CE9
 10
0.679809
 20
0.272873
 30
0.00000
  70
    32
  0
VERTEX
  8
0
  5
326CEA
 10
0.679841
 20
0.272844
 30
0.00000
  70
    32
  0
VERTEX
  8
0
  5
326CEB
 10
0.679885
 20
0.272805
 30
0.00000
  70
    32
  0
VERTEX
  8
0
  5
326CEC
 10
0.679942
 20
0.272754
 30
0.00000
  70
    32
  0
VERTEX
  8
0
  5
326CED
 10
0.680011
 20
0.272693
 30
0.00000
  70
    32
  0
VERTEX
  8
0
  5
326CEE
 10
0.680093
 20
0.272620
 30
0.00000
  70
    32
  0
VERTEX
  8
0
  5
326CEF
 10
0.680185
 20
0.272536
 30
0.00000
  70
    32
  0
VERTEX
  8
0
  5
326CF0
 10
0.680290
 20
0.272440
 30
0.00000
  70
    32
  0
VERTEX
  8
0
  5
326CF1
 10
0.680406
 20
0.272334
 30
0.00000
  70
    32
  0
VERTEX
  8
0
  5
326CF2
 10
0.680534
 20
0.272216
 30
0.00000
  70
    32
  0
VERTEX
  8
0
  5
326CF3
 10
0.680672
 20
0.272087
 30
0.00000
  70
    32
  0
VERTEX
  8
0
  5
326CF4
 10
0.680822
 20
0.271948
 30
0.00000
  70
    32
  0
VERTEX
  8
0
  5
326CF5
 10
0.680983
 20
0.271797
 30
0.00000
  70
    32
  0
VERTEX
  8
0
  5
326CF6
 10
0.681154
 20
0.271635
 30
0.00000
  70
    32
  0
VERTEX
  8
0
  5
326CF7
 10
0.681335
 20
0.271462
 30
0.00000
  70
    32
  0
VERTEX
  8
0
  5
326CF8
 10
0.681527
 20
0.271278
 30
0.00000
  70
    32
  0
VERTEX
  8
0
  5
326CF9
 10
0.681729
 20
0.271083
 30
0.00000
  70
    32
  0
VERTEX
  8
0
  5
326CFA
 10
0.681942
 20
0.270877
 30
0.00000
  70
    32
  0
VERTEX
  8
0
  5
326CFB
 10
0.682164
 20
0.270659
 30
0.00000
  70
    32
  0
VERTEX
  8
0
  5
326CFC
 10
0.682395
 20
0.270431
 30
0.00000
  70
    32
  0
VERTEX
  8
0
  5
326CFD
 10
0.682636
 20
0.270192
 30
0.00000
  70
    32
  0
VERTEX
  8
0
  5
326CFE
 10
0.682886
 20
0.269942
 30
0.00000
  70
    32
  0
VERTEX
  8
0
  5
326CFF
 10
0.683146
 20
0.269681
 30
0.00000
  70
    32
  0
VERTEX
  8
0
  5
326D00
 10
0.683414
 20
0.269410
 30
0.00000
  70
    32
  0
VERTEX
  8
0
  5
326D01
 10
0.683692
 20
0.269127
 30
0.00000
  70
    32
  0
VERTEX
  8
0
  5
326D02
 10
0.683977
 20
0.268833
 30
0.00000
  70
    32
  0
VERTEX
  8
0
  5
326D03
 10
0.684272
 20
0.268529
 30
0.00000
  70
    32
  0
VERTEX
  8
0
  5
326D04
 10
0.684574
 20
0.268213
 30
0.00000
  70
    32
  0
VERTEX
  8
0
  5
326D05
 10
0.684885
 20
0.267887
 30
0.00000
  70
    32
  0
VERTEX
  8
0
  5
326D06
 10
0.685204
 20
0.267550
 30
0.00000
  70
    32
  0
VERTEX
  8
0
  5
326D07
 10
0.685530
 20
0.267202
 30
0.00000
  70
    32
  0
VERTEX
  8
0
  5
326D08
 10
0.685864
 20
0.266843
 30
0.00000
  70
    32
  0
VERTEX
  8
0
  5
326D09
 10
0.686206
 20
0.266474
 30
0.00000
  70
    32
  0
VERTEX
  8
0
  5
326D0A
 10
0.686555
 20
0.266093
 30
0.00000
  70
    32
  0
VERTEX
  8
0
  5
326D0B
 10
0.686911
 20
0.265702
 30
0.00000
  70
    32
  0
VERTEX
  8
0
  5
326D0C
 10
0.687273
 20
0.265301
 30
0.00000
  70
    32
  0
VERTEX
  8
0
  5
326D0D
 10
0.687643
 20
0.264888
 30
0.00000
  70
    32
  0
VERTEX
  8
0
  5
326D0E
 10
0.688019
 20
0.264465
 30
0.00000
  70
    32
  0
VERTEX
  8
0
  5
326D0F
 10
0.688402
 20
0.264031
 30
0.00000
  70
    32
  0
VERTEX
  8
0
  5
326D10
 10
0.688791
 20
0.263586
 30
0.00000
  70
    32
  0
VERTEX
  8
0
  5
326D11
 10
0.689185
 20
0.263131
 30
0.00000
  70
    32
  0
VERTEX
  8
0
  5
326D12
 10
0.689586
 20
0.262665
 30
0.00000
  70
    32
  0
VERTEX
  8
0
  5
326D13
 10
0.689993
 20
0.262188
 30
0.00000
  70
    32
  0
VERTEX
  8
0
  5
326D14
 10
0.690405
 20
0.261701
 30
0.00000
  70
    32
  0
VERTEX
  8
0
  5
326D15
 10
0.690823
 20
0.261203
 30
0.00000
  70
    32
  0
VERTEX
  8
0
  5
326D16
 10
0.691246
 20
0.260695
 30
0.00000
  70
    32
  0
VERTEX
  8
0
  5
326D17
 10
0.691673
 20
0.260176
 30
0.00000
  70
    32
  0
VERTEX
  8
0
  5
326D18
 10
0.692106
 20
0.259646
 30
0.00000
  70
    32
  0
VERTEX
  8
0
  5
326D19
 10
0.692544
 20
0.259106
 30
0.00000
  70
    32
  0
VERTEX
  8
0
  5
326D1A
 10
0.692986
 20
0.258555
 30
0.00000
  70
    32
  0
VERTEX
  8
0
  5
326D1B
 10
0.693432
 20
0.257994
 30
0.00000
  70
    32
  0
VERTEX
  8
0
  5
326D1C
 10
0.693883
 20
0.257422
 30
0.00000
  70
    32
  0
VERTEX
  8
0
  5
326D1D
 10
0.694338
 20
0.256840
 30
0.00000
  70
    32
  0
VERTEX
  8
0
  5
326D1E
 10
0.694796
 20
0.256248
 30
0.00000
  70
    32
  0
VERTEX
  8
0
  5
326D1F
 10
0.695259
 20
0.255644
 30
0.00000
  70
    32
  0
VERTEX
  8
0
  5
326D20
 10
0.695725
 20
0.255031
 30
0.00000
  70
    32
  0
VERTEX
  8
0
  5
326D21
 10
0.696194
 20
0.254407
 30
0.00000
  70
    32
  0
VERTEX
  8
0
  5
326D22
 10
0.696666
 20
0.253772
 30
0.00000
  70
    32
  0
VERTEX
  8
0
  5
326D23
 10
0.697142
 20
0.253127
 30
0.00000
  70
    32
  0
VERTEX
  8
0
  5
326D24
 10
0.697620
 20
0.252472
 30
0.00000
  70
    32
  0
VERTEX
  8
0
  5
326D25
 10
0.698101
 20
0.251806
 30
0.00000
  70
    32
  0
VERTEX
  8
0
  5
326D26
 10
0.698585
 20
0.251130
 30
0.00000
  70
    32
  0
VERTEX
  8
0
  5
326D27
 10
0.699071
 20
0.250444
 30
0.00000
  70
    32
  0
VERTEX
  8
0
  5
326D28
 10
0.699559
 20
0.249747
 30
0.00000
  70
    32
  0
VERTEX
  8
0
  5
326D29
 10
0.700049
 20
0.249040
 30
0.00000
  70
    32
  0
VERTEX
  8
0
  5
326D2A
 10
0.700541
 20
0.248323
 30
0.00000
  70
    32
  0
VERTEX
  8
0
  5
326D2B
 10
0.701035
 20
0.247595
 30
0.00000
  70
    32
  0
VERTEX
  8
0
  5
326D2C
 10
0.701530
 20
0.246858
 30
0.00000
  70
    32
  0
VERTEX
  8
0
  5
326D2D
 10
0.702027
 20
0.246109
 30
0.00000
  70
    32
  0
VERTEX
  8
0
  5
326D2E
 10
0.702524
 20
0.245351
 30
0.00000
  70
    32
  0
VERTEX
  8
0
  5
326D2F
 10
0.703023
 20
0.244582
 30
0.00000
  70
    32
  0
VERTEX
  8
0
  5
326D30
 10
0.703523
 20
0.243804
 30
0.00000
  70
    32
  0
VERTEX
  8
0
  5
326D31
 10
0.704023
 20
0.243014
 30
0.00000
  70
    32
  0
VERTEX
  8
0
  5
326D32
 10
0.704523
 20
0.242215
 30
0.00000
  70
    32
  0
VERTEX
  8
0
  5
326D33
 10
0.705024
 20
0.241406
 30
0.00000
  70
    32
  0
VERTEX
  8
0
  5
326D34
 10
0.705526
 20
0.240586
 30
0.00000
  70
    32
  0
VERTEX
  8
0
  5
326D35
 10
0.706027
 20
0.239757
 30
0.00000
  70
    32
  0
VERTEX
  8
0
  5
326D36
 10
0.706528
 20
0.238917
 30
0.00000
  70
    32
  0
VERTEX
  8
0
  5
326D37
 10
0.707028
 20
0.238067
 30
0.00000
  70
    32
  0
VERTEX
  8
0
  5
326D38
 10
0.707529
 20
0.237207
 30
0.00000
  70
    32
  0
VERTEX
  8
0
  5
326D39
 10
0.708028
 20
0.236337
 30
0.00000
  70
    32
  0
VERTEX
  8
0
  5
326D3A
 10
0.708527
 20
0.235457
 30
0.00000
  70
    32
  0
VERTEX
  8
0
  5
326D3B
 10
0.709024
 20
0.234566
 30
0.00000
  70
    32
  0
VERTEX
  8
0
  5
326D3C
 10
0.709520
 20
0.233666
 30
0.00000
  70
    32
  0
VERTEX
  8
0
  5
326D3D
 10
0.710015
 20
0.232756
 30
0.00000
  70
    32
  0
VERTEX
  8
0
  5
326D3E
 10
0.710509
 20
0.231835
 30
0.00000
  70
    32
  0
VERTEX
  8
0
  5
326D3F
 10
0.711000
 20
0.230905
 30
0.00000
  70
    32
  0
VERTEX
  8
0
  5
326D40
 10
0.711490
 20
0.229965
 30
0.00000
  70
    32
  0
VERTEX
  8
0
  5
326D41
 10
0.711978
 20
0.229015
 30
0.00000
  70
    32
  0
VERTEX
  8
0
  5
326D42
 10
0.712464
 20
0.228054
 30
0.00000
  70
    32
  0
VERTEX
  8
0
  5
326D43
 10
0.712947
 20
0.227084
 30
0.00000
  70
    32
  0
VERTEX
  8
0
  5
326D44
 10
0.713427
 20
0.226104
 30
0.00000
  70
    32
  0
VERTEX
  8
0
  5
326D45
 10
0.713905
 20
0.225114
 30
0.00000
  70
    32
  0
VERTEX
  8
0
  5
326D46
 10
0.714380
 20
0.224114
 30
0.00000
  70
    32
  0
VERTEX
  8
0
  5
326D47
 10
0.714852
 20
0.223105
 30
0.00000
  70
    32
  0
VERTEX
  8
0
  5
326D48
 10
0.715321
 20
0.222085
 30
0.00000
  70
    32
  0
VERTEX
  8
0
  5
326D49
 10
0.715786
 20
0.221056
 30
0.00000
  70
    32
  0
VERTEX
  8
0
  5
326D4A
 10
0.716248
 20
0.220016
 30
0.00000
  70
    32
  0
VERTEX
  8
0
  5
326D4B
 10
0.716706
 20
0.218967
 30
0.00000
  70
    32
  0
VERTEX
  8
0
  5
326D4C
 10
0.717160
 20
0.217908
 30
0.00000
  70
    32
  0
VERTEX
  8
0
  5
326D4D
 10
0.717610
 20
0.216840
 30
0.00000
  70
    32
  0
VERTEX
  8
0
  5
326D4E
 10
0.718056
 20
0.215761
 30
0.00000
  70
    32
  0
VERTEX
  8
0
  5
326D4F
 10
0.718497
 20
0.214673
 30
0.00000
  70
    32
  0
VERTEX
  8
0
  5
326D50
 10
0.718934
 20
0.213575
 30
0.00000
  70
    32
  0
VERTEX
  8
0
  5
326D51
 10
0.719366
 20
0.212467
 30
0.00000
  70
    32
  0
VERTEX
  8
0
  5
326D52
 10
0.719793
 20
0.211350
 30
0.00000
  70
    32
  0
VERTEX
  8
0
  5
326D53
 10
0.720215
 20
0.210223
 30
0.00000
  70
    32
  0
VERTEX
  8
0
  5
326D54
 10
0.720631
 20
0.209086
 30
0.00000
  70
    32
  0
VERTEX
  8
0
  5
326D55
 10
0.721043
 20
0.207940
 30
0.00000
  70
    32
  0
VERTEX
  8
0
  5
326D56
 10
0.721448
 20
0.206784
 30
0.00000
  70
    32
  0
VERTEX
  8
0
  5
326D57
 10
0.721848
 20
0.205618
 30
0.00000
  70
    32
  0
VERTEX
  8
0
  5
326D58
 10
0.722242
 20
0.204442
 30
0.00000
  70
    32
  0
VERTEX
  8
0
  5
326D59
 10
0.722630
 20
0.203257
 30
0.00000
  70
    32
  0
VERTEX
  8
0
  5
326D5A
 10
0.723011
 20
0.202063
 30
0.00000
  70
    32
  0
VERTEX
  8
0
  5
326D5B
 10
0.723386
 20
0.200859
 30
0.00000
  70
    32
  0
VERTEX
  8
0
  5
326D5C
 10
0.723755
 20
0.199645
 30
0.00000
  70
    32
  0
VERTEX
  8
0
  5
326D5D
 10
0.724116
 20
0.198422
 30
0.00000
  70
    32
  0
VERTEX
  8
0
  5
326D5E
 10
0.724471
 20
0.197189
 30
0.00000
  70
    32
  0
VERTEX
  8
0
  5
326D5F
 10
0.724819
 20
0.195947
 30
0.00000
  70
    32
  0
VERTEX
  8
0
  5
326D60
 10
0.725159
 20
0.194695
 30
0.00000
  70
    32
  0
VERTEX
  8
0
  5
326D61
 10
0.725492
 20
0.193433
 30
0.00000
  70
    32
  0
VERTEX
  8
0
  5
326D62
 10
0.725817
 20
0.192163
 30
0.00000
  70
    32
  0
VERTEX
  8
0
  5
326D63
 10
0.726134
 20
0.190882
 30
0.00000
  70
    32
  0
VERTEX
  8
0
  5
326D64
 10
0.726444
 20
0.189592
 30
0.00000
  70
    32
  0
VERTEX
  8
0
  5
326D65
 10
0.726745
 20
0.188293
 30
0.00000
  70
    32
  0
VERTEX
  8
0
  5
326D66
 10
0.727038
 20
0.186985
 30
0.00000
  70
    32
  0
SEQEND
  8
0
  5
326D67
  0
POLYLINE
  8
0
  5
326D68
  66
     1
 10
0.00000
 20
0.00000
 30
0.00000
  70
     8
  0
VERTEX
  8
0
  5
326D69
 10
0.727038
 20
0.186985
 30
0.00000
  70
    32
  0
VERTEX
  8
0
  5
326D6A
 10
0.727326
 20
0.185657
 30
0.00000
  70
    32
  0
VERTEX
  8
0
  5
326D6B
 10
0.727615
 20
0.184302
 30
0.00000
  70
    32
  0
VERTEX
  8
0
  5
326D6C
 10
0.727902
 20
0.182920
 30
0.00000
  70
    32
  0
VERTEX
  8
0
  5
326D6D
 10
0.728189
 20
0.181511
 30
0.00000
  70
    32
  0
VERTEX
  8
0
  5
326D6E
 10
0.728475
 20
0.180077
 30
0.00000
  70
    32
  0
VERTEX
  8
0
  5
326D6F
 10
0.728761
 20
0.178618
 30
0.00000
  70
    32
  0
VERTEX
  8
0
  5
326D70
 10
0.729045
 20
0.177134
 30
0.00000
  70
    32
  0
VERTEX
  8
0
  5
326D71
 10
0.729329
 20
0.175626
 30
0.00000
  70
    32
  0
VERTEX
  8
0
  5
326D72
 10
0.729613
 20
0.174094
 30
0.00000
  70
    32
  0
VERTEX
  8
0
  5
326D73
 10
0.729895
 20
0.172540
 30
0.00000
  70
    32
  0
VERTEX
  8
0
  5
326D74
 10
0.730177
 20
0.170964
 30
0.00000
  70
    32
  0
VERTEX
  8
0
  5
326D75
 10
0.730458
 20
0.169367
 30
0.00000
  70
    32
  0
VERTEX
  8
0
  5
326D76
 10
0.730737
 20
0.167748
 30
0.00000
  70
    32
  0
VERTEX
  8
0
  5
326D77
 10
0.731016
 20
0.166109
 30
0.00000
  70
    32
  0
VERTEX
  8
0
  5
326D78
 10
0.731294
 20
0.164451
 30
0.00000
  70
    32
  0
VERTEX
  8
0
  5
326D79
 10
0.731572
 20
0.162773
 30
0.00000
  70
    32
  0
VERTEX
  8
0
  5
326D7A
 10
0.731848
 20
0.161077
 30
0.00000
  70
    32
  0
VERTEX
  8
0
  5
326D7B
 10
0.732123
 20
0.159363
 30
0.00000
  70
    32
  0
VERTEX
  8
0
  5
326D7C
 10
0.732397
 20
0.157632
 30
0.00000
  70
    32
  0
VERTEX
  8
0
  5
326D7D
 10
0.732670
 20
0.155884
 30
0.00000
  70
    32
  0
VERTEX
  8
0
  5
326D7E
 10
0.732941
 20
0.154121
 30
0.00000
  70
    32
  0
VERTEX
  8
0
  5
326D7F
 10
0.733212
 20
0.152341
 30
0.00000
  70
    32
  0
VERTEX
  8
0
  5
326D80
 10
0.733482
 20
0.150547
 30
0.00000
  70
    32
  0
VERTEX
  8
0
  5
326D81
 10
0.733750
 20
0.148739
 30
0.00000
  70
    32
  0
VERTEX
  8
0
  5
326D82
 10
0.734017
 20
0.146917
 30
0.00000
  70
    32
  0
VERTEX
  8
0
  5
326D83
 10
0.734283
 20
0.145082
 30
0.00000
  70
    32
  0
VERTEX
  8
0
  5
326D84
 10
0.734548
 20
0.143234
 30
0.00000
  70
    32
  0
VERTEX
  8
0
  5
326D85
 10
0.734811
 20
0.141375
 30
0.00000
  70
    32
  0
VERTEX
  8
0
  5
326D86
 10
0.735073
 20
0.139504
 30
0.00000
  70
    32
  0
VERTEX
  8
0
  5
326D87
 10
0.735334
 20
0.137623
 30
0.00000
  70
    32
  0
VERTEX
  8
0
  5
326D88
 10
0.735593
 20
0.135732
 30
0.00000
  70
    32
  0
VERTEX
  8
0
  5
326D89
 10
0.735851
 20
0.133832
 30
0.00000
  70
    32
  0
VERTEX
  8
0
  5
326D8A
 10
0.736108
 20
0.131923
 30
0.00000
  70
    32
  0
VERTEX
  8
0
  5
326D8B
 10
0.736363
 20
0.130006
 30
0.00000
  70
    32
  0
VERTEX
  8
0
  5
326D8C
 10
0.736616
 20
0.128081
 30
0.00000
  70
    32
  0
VERTEX
  8
0
  5
326D8D
 10
0.736869
 20
0.126149
 30
0.00000
  70
    32
  0
VERTEX
  8
0
  5
326D8E
 10
0.737119
 20
0.124211
 30
0.00000
  70
    32
  0
VERTEX
  8
0
  5
326D8F
 10
0.737368
 20
0.122267
 30
0.00000
  70
    32
  0
VERTEX
  8
0
  5
326D90
 10
0.737616
 20
0.120318
 30
0.00000
  70
    32
  0
VERTEX
  8
0
  5
326D91
 10
0.737861
 20
0.118364
 30
0.00000
  70
    32
  0
VERTEX
  8
0
  5
326D92
 10
0.738105
 20
0.116407
 30
0.00000
  70
    32
  0
VERTEX
  8
0
  5
326D93
 10
0.738348
 20
0.114446
 30
0.00000
  70
    32
  0
VERTEX
  8
0
  5
326D94
 10
0.738589
 20
0.112482
 30
0.00000
  70
    32
  0
VERTEX
  8
0
  5
326D95
 10
0.738828
 20
0.110517
 30
0.00000
  70
    32
  0
VERTEX
  8
0
  5
326D96
 10
0.739065
 20
0.108550
 30
0.00000
  70
    32
  0
VERTEX
  8
0
  5
326D97
 10
0.739301
 20
0.106582
 30
0.00000
  70
    32
  0
VERTEX
  8
0
  5
326D98
 10
0.739534
 20
0.104614
 30
0.00000
  70
    32
  0
VERTEX
  8
0
  5
326D99
 10
0.739766
 20
0.102646
 30
0.00000
  70
    32
  0
VERTEX
  8
0
  5
326D9A
 10
0.739996
 20
0.100679
 30
0.00000
  70
    32
  0
VERTEX
  8
0
  5
326D9B
 10
0.740225
 20
0.0987134
 30
0.00000
  70
    32
  0
VERTEX
  8
0
  5
326D9C
 10
0.740451
 20
0.0967502
 30
0.00000
  70
    32
  0
VERTEX
  8
0
  5
326D9D
 10
0.740675
 20
0.0947897
 30
0.00000
  70
    32
  0
VERTEX
  8
0
  5
326D9E
 10
0.740898
 20
0.0928326
 30
0.00000
  70
    32
  0
VERTEX
  8
0
  5
326D9F
 10
0.741118
 20
0.0908794
 30
0.00000
  70
    32
  0
VERTEX
  8
0
  5
326DA0
 10
0.741336
 20
0.0889309
 30
0.00000
  70
    32
  0
VERTEX
  8
0
  5
326DA1
 10
0.741553
 20
0.0869875
 30
0.00000
  70
    32
  0
VERTEX
  8
0
  5
326DA2
 10
0.741767
 20
0.0850499
 30
0.00000
  70
    32
  0
VERTEX
  8
0
  5
326DA3
 10
0.741979
 20
0.0831187
 30
0.00000
  70
    32
  0
VERTEX
  8
0
  5
326DA4
 10
0.742189
 20
0.0811945
 30
0.00000
  70
    32
  0
VERTEX
  8
0
  5
326DA5
 10
0.742397
 20
0.0792780
 30
0.00000
  70
    32
  0
VERTEX
  8
0
  5
326DA6
 10
0.742602
 20
0.0773696
 30
0.00000
  70
    32
  0
VERTEX
  8
0
  5
326DA7
 10
0.742806
 20
0.0754701
 30
0.00000
  70
    32
  0
VERTEX
  8
0
  5
326DA8
 10
0.743007
 20
0.0735800
 30
0.00000
  70
    32
  0
VERTEX
  8
0
  5
326DA9
 10
0.743206
 20
0.0716999
 30
0.00000
  70
    32
  0
VERTEX
  8
0
  5
326DAA
 10
0.743403
 20
0.0698305
 30
0.00000
  70
    32
  0
VERTEX
  8
0
  5
326DAB
 10
0.743597
 20
0.0679724
 30
0.00000
  70
    32
  0
VERTEX
  8
0
  5
326DAC
 10
0.743789
 20
0.0661261
 30
0.00000
  70
    32
  0
VERTEX
  8
0
  5
326DAD
 10
0.743979
 20
0.0642923
 30
0.00000
  70
    32
  0
VERTEX
  8
0
  5
326DAE
 10
0.744166
 20
0.0624715
 30
0.00000
  70
    32
  0
VERTEX
  8
0
  5
326DAF
 10
0.744351
 20
0.0606644
 30
0.00000
  70
    32
  0
VERTEX
  8
0
  5
326DB0
 10
0.744533
 20
0.0588717
 30
0.00000
  70
    32
  0
VERTEX
  8
0
  5
326DB1
 10
0.744713
 20
0.0570938
 30
0.00000
  70
    32
  0
VERTEX
  8
0
  5
326DB2
 10
0.744891
 20
0.0553314
 30
0.00000
  70
    32
  0
VERTEX
  8
0
  5
326DB3
 10
0.745065
 20
0.0535851
 30
0.00000
  70
    32
  0
VERTEX
  8
0
  5
326DB4
 10
0.745238
 20
0.0518555
 30
0.00000
  70
    32
  0
VERTEX
  8
0
  5
326DB5
 10
0.745407
 20
0.0501433
 30
0.00000
  70
    32
  0
VERTEX
  8
0
  5
326DB6
 10
0.745574
 20
0.0484490
 30
0.00000
  70
    32
  0
VERTEX
  8
0
  5
326DB7
 10
0.745739
 20
0.0467732
 30
0.00000
  70
    32
  0
VERTEX
  8
0
  5
326DB8
 10
0.745901
 20
0.0451166
 30
0.00000
  70
    32
  0
VERTEX
  8
0
  5
326DB9
 10
0.746060
 20
0.0434797
 30
0.00000
  70
    32
  0
VERTEX
  8
0
  5
326DBA
 10
0.746216
 20
0.0418631
 30
0.00000
  70
    32
  0
VERTEX
  8
0
  5
326DBB
 10
0.746370
 20
0.0402676
 30
0.00000
  70
    32
  0
VERTEX
  8
0
  5
326DBC
 10
0.746521
 20
0.0386935
 30
0.00000
  70
    32
  0
VERTEX
  8
0
  5
326DBD
 10
0.746669
 20
0.0371417
 30
0.00000
  70
    32
  0
VERTEX
  8
0
  5
326DBE
 10
0.746814
 20
0.0356127
 30
0.00000
  70
    32
  0
VERTEX
  8
0
  5
326DBF
 10
0.746956
 20
0.0341070
 30
0.00000
  70
    32
  0
VERTEX
  8
0
  5
326DC0
 10
0.747096
 20
0.0326253
 30
0.00000
  70
    32
  0
VERTEX
  8
0
  5
326DC1
 10
0.747232
 20
0.0311683
 30
0.00000
  70
    32
  0
VERTEX
  8
0
  5
326DC2
 10
0.747366
 20
0.0297364
 30
0.00000
  70
    32
  0
VERTEX
  8
0
  5
326DC3
 10
0.747497
 20
0.0283304
 30
0.00000
  70
    32
  0
VERTEX
  8
0
  5
326DC4
 10
0.747624
 20
0.0269507
 30
0.00000
  70
    32
  0
VERTEX
  8
0
  5
326DC5
 10
0.747749
 20
0.0255981
 30
0.00000
  70
    32
  0
VERTEX
  8
0
  5
326DC6
 10
0.747871
 20
0.0242732
 30
0.00000
  70
    32
  0
VERTEX
  8
0
  5
326DC7
 10
0.747989
 20
0.0229765
 30
0.00000
  70
    32
  0
VERTEX
  8
0
  5
326DC8
 10
0.748105
 20
0.0217086
 30
0.00000
  70
    32
  0
VERTEX
  8
0
  5
326DC9
 10
0.748217
 20
0.0204702
 30
0.00000
  70
    32
  0
VERTEX
  8
0
  5
326DCA
 10
0.748326
 20
0.0192619
 30
0.00000
  70
    32
  0
VERTEX
  8
0
  5
326DCB
 10
0.748432
 20
0.0180842
 30
0.00000
  70
    32
  0
VERTEX
  8
0
  5
326DCC
 10
0.748535
 20
0.0169378
 30
0.00000
  70
    32
  0
VERTEX
  8
0
  5
326DCD
 10
0.748634
 20
0.0158233
 30
0.00000
  70
    32
  0
VERTEX
  8
0
  5
326DCE
 10
0.748731
 20
0.0147412
 30
0.00000
  70
    32
  0
VERTEX
  8
0
  5
326DCF
 10
0.748824
 20
0.0136923
 30
0.00000
  70
    32
  0
VERTEX
  8
0
  5
326DD0
 10
0.748913
 20
0.0126771
 30
0.00000
  70
    32
  0
VERTEX
  8
0
  5
326DD1
 10
0.749000
 20
0.0116962
 30
0.00000
  70
    32
  0
VERTEX
  8
0
  5
326DD2
 10
0.749083
 20
0.0107502
 30
0.00000
  70
    32
  0
VERTEX
  8
0
  5
326DD3
 10
0.749162
 20
0.00983967
 30
0.00000
  70
    32
  0
VERTEX
  8
0
  5
326DD4
 10
0.749238
 20
0.00896532
 30
0.00000
  70
    32
  0
VERTEX
  8
0
  5
326DD5
 10
0.749311
 20
0.00812771
 30
0.00000
  70
    32
  0
VERTEX
  8
0
  5
326DD6
 10
0.749380
 20
0.00732744
 30
0.00000
  70
    32
  0
VERTEX
  8
0
  5
326DD7
 10
0.749446
 20
0.00656512
 30
0.00000
  70
    32
  0
VERTEX
  8
0
  5
326DD8
 10
0.749508
 20
0.00584136
 30
0.00000
  70
    32
  0
VERTEX
  8
0
  5
326DD9
 10
0.749567
 20
0.00515676
 30
0.00000
  70
    32
  0
VERTEX
  8
0
  5
326DDA
 10
0.749622
 20
0.00451193
 30
0.00000
  70
    32
  0
VERTEX
  8
0
  5
326DDB
 10
0.749673
 20
0.00390748
 30
0.00000
  70
    32
  0
VERTEX
  8
0
  5
326DDC
 10
0.749721
 20
0.00334401
 30
0.00000
  70
    32
  0
VERTEX
  8
0
  5
326DDD
 10
0.749765
 20
0.00282213
 30
0.00000
  70
    32
  0
VERTEX
  8
0
  5
326DDE
 10
0.749805
 20
0.00234245
 30
0.00000
  70
    32
  0
VERTEX
  8
0
  5
326DDF
 10
0.749842
 20
0.00190558
 30
0.00000
  70
    32
  0
VERTEX
  8
0
  5
326DE0
 10
0.749875
 20
0.00151211
 30
0.00000
  70
    32
  0
VERTEX
  8
0
  5
326DE1
 10
0.749904
 20
0.00116267
 30
0.00000
  70
    32
  0
VERTEX
  8
0
  5
326DE2
 10
0.749930
 20
0.000857845
 30
0.00000
  70
    32
  0
VERTEX
  8
0
  5
326DE3
 10
0.749951
 20
0.000598254
 30
0.00000
  70
    32
  0
VERTEX
  8
0
  5
326DE4
 10
0.749969
 20
0.000384500
 30
0.00000
  70
    32
  0
VERTEX
  8
0
  5
326DE5
 10
0.749983
 20
0.000217192
 30
0.00000
  70
    32
  0
VERTEX
  8
0
  5
326DE6
 10
0.749993
 20
9.69341e-05
 30
0.00000
  70
    32
  0
VERTEX
  8
0
  5
326DE7
 10
0.749999
 20
2.43347e-05
 30
0.00000
  70
    32
  0
VERTEX
  8
0
  5
326DE8
 10
0.750000
 20
3.94195e-23
 30
0.00000
  70
    32
  0
SEQEND
  8
0
  5
326DE9
  0
INSERT
  5
3265CB
  8
0
  2
*U70
 10
0.0
 20
0.0
 30
0.0
  0
LINE
  5
3265CC
  8
0
 10
0.3280863291302003
 20
2.500001648612197
 30
0.0
 11
0.000000000000056
 21
2.500001648612197
 31
0.0
  0
LINE
  5
3265CD
  8
0
 10
-0.0000000000000009
 20
0.0
 30
0.0
 11
-0.0000000000000009
 21
0.5111222988623326
 31
0.0
  0
LINE
  5
3265CE
  8
0
 10
-0.0000000000000009
 20
1.83005898677014
 30
0.0
 11
-0.0000000000000577
 21
2.500001648612197
 31
0.0
  0
LINE
  5
3265CF
  8
0
 10
-0.0000000000000009
 20
0.5111222988623326
 30
0.0
 11
0.0408122013323
 21
0.5519345001946903
 31
0.0
  0
LINE
  5
3265D0
  8
0
 10
-0.0000000000000009
 20
1.83005898677014
 30
0.0
 11
0.0408122013323
 21
1.789246785437782
 31
0.0
  0
LINE
  5
3265D1
  8
0
 10
0.0408122013323
 20
1.789246785437782
 30
0.0
 11
0.0408122013323
 21
0.5519345001946903
 31
0.0
  0
LINE
  5
3265D2
  8
0
 10
0.750000494583616
 20
0.0
 30
0.0
 11
-0.0000000000000009
 21
0.0
 31
0.0
  0
LINE
  5
3265D3
  8
0
 10
0.2943930977817208
 20
2.0856133545128008
 30
0.0
 11
0.3280845262493122
 21
0.9558247405563662
 31
0.0
  0
VIEWPORT
  5
325B73
 67
     1
  8
0
 10
7.0900605140116246
 20
6.4563566796053058
 30
0.0
 40
35.2448215616899887
 41
17.4593291350777804
 68
     2
 69
     1
1001
ACAD
1000
MVIEW
1002
{
1070
    16
1010
0.0
1020
0.0
1030
0.0
1010
0.0
1020
0.0
1030
1.0
1040
0.0
1040
17.4593291350777804
1040
7.0900605140116246
1040
6.4563566796053058
1040
50.0
1040
0.0
1040
0.0
1070
     0
1070
     0
1070
     1
1070
     1
1070
     0
1070
     0
1070
     0
1070
     0
1040
0.0
1040
0.0
1040
0.0
1040
0.5
1040
0.5
1040
0.5
1040
0.5
1070
     0
1002
{
1002
}
1002
}
1001
GENIUS_GENSCREG_15
1000
PF
1040
1.0
1000
DF
1040
1.0
1000
MIN
1011
-5.2563077243257084
1021
1.6069380573995517E+60
1031
1.5111572868756110E+23
1021
-1.1034910006936189
1031
0.0
1000
MAX
1011
16.7939956464387201
1021
1.6069380573995517E+60
1031
1.5111572868756110E+23
1021
13.5366123002554506
1031
0.0
1000
FLAGS
1070
     4
1001
GENIUS_GENODEF_13
1002
{
1000
HIER
1070
     0
1002
}
1002
{
1000
MANEDIT
1070
     0
1002
}
1002
{
1000
NOSEL
1070
     0
1002
}
1002
{
1000
BEHIND
1070
     0
1002
}
1002
{
1000
OTHER
1070
     0
1002
}
1002
{
1000
REACTOR
1002
}
1001
GENIUS_GENOBJ-N-SDF_13
1002
{
1000
OWNER
1000
GEN
1002
}
  0
LINE
  5
325B74
 67
     1
  8
0
 10
0.0238171342555162
 20
0.0374288433079571
 30
0.0
 11
0.0238171342555162
 21
10.0742912195362901
 31
0.0
  0
LINE
  5
325B75
 67
     1
  8
0
 10
0.0238171342555162
 20
10.0742912195362901
 30
0.0
 11
7.9296889747734962
 21
10.0742912195362901
 31
0.0
  0
LINE
  5
325B76
 67
     1
  8
0
 10
7.9296889747734962
 20
10.0742912195362901
 30
0.0
 11
7.9296889747734962
 21
0.0374288433079571
 31
0.0
  0
LINE
  5
325B77
 67
     1
  8
0
 10
7.9296889747734962
 20
0.0374288433079571
 30
0.0
 11
0.0238171342555162
 21
0.0374288433079571
 31
0.0
  0
LINE
  5
325B78
 67
     1
  8
0
 10
4.0755743633014063
 20
0.0374288433079571
 30
0.0
 11
4.0755743633014063
 21
1.6666069867452971
 31
0.0
  0
LINE
  5
325B79
 67
     1
  8
0
 10
4.0755743633014063
 20
0.9166069867452968
 30
0.0
 11
0.0238171342555162
 21
0.9166069867452969
 31
0.0
  0
INSERT
  5
325B7A
 67
     1
  8
0
  2
*U66
 10
0.0
 20
0.0
 30
0.0
  0
CIRCLE
  5
325B7B
 67
     1
  8
0
 10
0.4387174384545674
 20
0.445767915026627
 30
0.0
 40
0.3133434465130851
  0
INSERT
  5
325B7C
 67
     1
  8
0
  2
*U67
 10
0.0
 20
0.0
 30
0.0
  0
INSERT
  5
325B7D
 67
     1
  8
0
  2
*U68
 10
0.0
 20
0.0
 30
0.0
  0
LINE
  5
325B7E
 67
     1
  8
0
 10
7.9296889747734962
 20
1.6666069867452959
 30
0.0
 11
0.0238171342555162
 21
1.6666069867452959
 31
0.0
  0
TEXT
  5
325B7F
 67
     1
  8
0
 10
0.085832417874407
 20
1.53533902073277
 30
0.0
 40
0.09375
  1
Approved By:
  0
TEXT
  5
325B80
 67
     1
  8
0
 10
0.085832417874407
 20
0.989803880421693
 30
0.0
 40
0.09375
  1
Signature
  0
TEXT
  5
325B81
 67
     1
  8
0
 10
3.2688026718001311
 20
0.989803880421693
 30
0.0
 40
0.09375
  1
Date
  0
LINE
  5
325B82
 67
     1
  8
0
 10
0.0238171342555162
 20
1.115696617266511
 30
0.0
 11
3.9831326568650871
 21
1.115696617266511
 31
0.0
  0
POINT
  5
325B83
 67
     1
  8
0
 10
4.0755743633014063
 20
0.1863886112376245
 30
0.0
  0
POINT
  5
325B84
 67
     1
  8
0
 10
4.0755743633014063
 20
0.397848379167292
 30
0.0
  0
POINT
  5
325B85
 67
     1
  8
0
 10
4.0755743633014063
 20
0.6093081470969596
 30
0.0
  0
POINT
  5
325B86
 67
     1
  8
0
 10
4.0755743633014063
 20
0.820767915026627
 30
0.0
  0
POINT
  5
325B87
 67
     1
  8
0
 10
4.0755743633014063
 20
1.032227682956294
 30
0.0
  0
POINT
  5
325B88
 67
     1
  8
0
 10
4.0755743633014063
 20
1.2436874508859621
 30
0.0
  0
POINT
  5
325B89
 67
     1
  8
0
 10
4.0755743633014063
 20
1.4551472188156289
 30
0.0
  0
TEXT
  5
325B8A
 67
     1
  8
0
 10
6.5751731508316658
 20
0.1503430405211326
 30
0.0
 40
0.09375
  1
Page:
  0
TEXT
  5
325B8B
 67
     1
  8
0
 10
7.0022828002063937
 20
0.1503430405211326
 30
0.0
 40
0.09375
  1
1
  0
TEXT
  5
325B8C
 67
     1
  8
0
 10
7.1844680940391044
 20
0.1503430405211326
 30
0.0
 40
0.09375
  1
of
  0
TEXT
  5
325B8D
 67
     1
  8
0
 10
7.4174996384947169
 20
0.1503430405211326
 30
0.0
 40
0.09375
  1
1
  0
VIEWPORT
  5
325B8E
 67
     1
  8
0
 10
3.9767353113460291
 20
5.8704491031407962
 30
0.0
 40
7.9058363541810257
 41
8.4076842327909986
 68
     1
 69
     2
1001
ACAD
1000
MVIEW
1002
{
1070
    16
1010
0.0
1020
0.0
1030
0.0
1010
0.0
1020
0.0
1030
1.0
1040
0.0
1040
8.4076842585101037
1040
15.4703093653831996
1040
2.9576938832870781
1040
50.0
1040
0.0
1040
0.0
1070
     0
1070
   100
1070
     1
1070
     2
1070
     0
1070
     0
1070
     0
1070
     0
1040
0.0
1040
0.0
1040
0.0
1040
0.5
1040
0.5
1040
0.5
1040
0.5
1070
     0
1002
{
1002
}
1002
}
1001
GENIUS_GENSCREG_15
1000
PF
1040
0.0
1000
DF
1040
0.0
1000
MIN
1011
-0.0073960046371866
1021
1.6069380573995517E+60
1031
1.5111572868756110E+23
1021
1.6666069867452959
1031
0.0
1000
MAX
1011
7.9296534884365419
1021
1.6069380573995517E+60
1031
1.5111572868756110E+23
1021
10.4490708796084792
1031
0.0
1000
FLAGS
1070
     4
1001
GENIUS_GENODEF_13
1002
{
1000
HIER
1070
     0
1002
}
1002
{
1000
MANEDIT
1070
     0
1002
}
1002
{
1000
NOSEL
1070
     0
1002
}
1002
{
1000
BEHIND
1070
     0
1002
}
1002
{
1000
OTHER
1070
     0
1002
}
1002
{
1000
REACTOR
1002
}
1001
GENIUS_GENOBJ-N-SDF_13
1002
{
1000
OWNER
1000
GEN
1002
}
  0
TEXT
  5
325B91
 67
     1
  8
0
 10
4.2069944548334268
 20
1.4564095766737011
 30
0.0
 40
0.09375
  1
Customer:
  0
TEXT
  5
325B92
 67
     1
  8
0
 10
5.3944944548334268
 20
1.4564095766737011
 30
0.0
 40
0.09375
  1
-
  0
TEXT
  5
325B93
 67
     1
  8
0
 10
4.2069944548334268
 20
1.2701595766737011
 30
0.0
 40
0.09375
  1
Project:
  0
TEXT
  5
325B94
 67
     1
  8
0
 10
5.3944944548334268
 20
1.2701595766737011
 30
0.0
 40
0.09375
  1
-
  0
TEXT
  5
325B95
 67
     1
  8
0
 10
4.2069944548334268
 20
1.083909576673701
 30
0.0
 40
0.09375
  1
Drawing Number:
  0
TEXT
  5
325B96
 67
     1
  8
0
 10
5.3944944548334268
 20
1.083909576673701
 30
0.0
 40
0.09375
  1
-
  0
TEXT
  5
325B97
 67
     1
  8
0
 10
4.2069944548334268
 20
0.8976595766737016
 30
0.0
 40
0.09375
  1
Order Number:
  0
TEXT
  5
325B98
 67
     1
  8
0
 10
5.3944944548334268
 20
0.8976595766737016
 30
0.0
 40
0.09375
  1
-
  0
TEXT
  5
325B99
 67
     1
  8
0
 10
4.2069944548334268
 20
0.7114095766737016
 30
0.0
 40
0.09375
  1
Date:
  0
TEXT
  5
325B9A
 67
     1
  8
0
 10
5.3944944548334268
 20
0.7114095766737016
 30
0.0
 40
0.09375
  1
-
  0
TEXT
  5
325B9B
 67
     1
  8
0
 10
4.2069944548334268
 20
0.5251595766737017
 30
0.0
 40
0.09375
  1
Revision Date:
  0
TEXT
  5
325B9C
 67
     1
  8
0
 10
5.3944944548334268
 20
0.5251595766737017
 30
0.0
 40
0.09375
  1
-
  0
TEXT
  5
325B9D
 67
     1
  8
0
 10
4.2069944548334268
 20
0.3389095766737016
 30
0.0
 40
0.09375
  1
Drawin By:
  0
TEXT
  5
325B9E
 67
     1
  8
0
 10
5.3944944548334268
 20
0.3389095766737016
 30
0.0
 40
0.09375
  1
-
  0
TEXT
  5
325B9F
 67
     1
  8
0
 10
4.2069944548334268
 20
0.1526595766737016
 30
0.0
 40
0.09375
  1
Scale:
  0
TEXT
  5
325BA0
 67
     1
  8
0
 10
5.3944944548334268
 20
0.1526595766737016
 30
0.0
 40
0.09375
  1
N.T.S.
  0
ENDSEC
  0
EOF
