  0
SECTION
  2
HEADER
  9
$ACADVER
  1
AC1009
  9
$INSBASE
 10
0.0
 20
0.0
 30
0.0
  9
$EXTMIN
 10
29.76800543368795
 20
12.79948428878501
 30
-0.0015258207003583
  9
$EXTMAX
 10
32.422119192339153
 20
16.300689726719501
 30
0.0000000349246037
  9
$LIMMIN
 10
0.0
 20
0.0
  9
$LIMMAX
 10
12.0
 20
9.0
  9
$ORTHOMODE
 70
     0
  9
$REGENMODE
 70
     1
  9
$FILLMODE
 70
     1
  9
$QTEXTMODE
 70
     0
  9
$MIRRTEXT
 70
     0
  9
$DRAGMODE
 70
     2
  9
$LTSCALE
 40
1.0
  9
$OSMODE
 70
    37
  9
$ATTMODE
 70
     1
  9
$TEXTSIZE
 40
0.2
  9
$TRACEWID
 40
0.05
  9
$TEXTSTYLE
  7
STANDARD
  9
$CLAYER
  8
0
  9
$CELTYPE
  6
BYLAYER
  9
$CECOLOR
 62
   256
  9
$DIMSCALE
 40
1.0
  9
$DIMASZ
 40
0.18
  9
$DIMEXO
 40
0.0625
  9
$DIMDLI
 40
0.38
  9
$DIMRND
 40
0.0
  9
$DIMDLE
 40
0.0
  9
$DIMEXE
 40
0.18
  9
$DIMTP
 40
0.0
  9
$DIMTM
 40
0.0
  9
$DIMTXT
 40
0.18
  9
$DIMCEN
 40
0.09
  9
$DIMTSZ
 40
0.0
  9
$DIMTOL
 70
     0
  9
$DIMLIM
 70
     0
  9
$DIMTIH
 70
     1
  9
$DIMTOH
 70
     1
  9
$DIMSE1
 70
     0
  9
$DIMSE2
 70
     0
  9
$DIMTAD
 70
     0
  9
$DIMZIN
 70
     0
  9
$DIMBLK
  1

  9
$DIMASO
 70
     1
  9
$DIMSHO
 70
     1
  9
$DIMPOST
  1

  9
$DIMAPOST
  1

  9
$DIMALT
 70
     0
  9
$DIMALTD
 70
     2
  9
$DIMALTF
 40
25.399999999999999
  9
$DIMLFAC
 40
1.0
  9
$DIMTOFL
 70
     0
  9
$DIMTVP
 40
0.0
  9
$DIMTIX
 70
     0
  9
$DIMSOXD
 70
     0
  9
$DIMSAH
 70
     0
  9
$DIMBLK1
  1

  9
$DIMBLK2
  1

  9
$DIMSTYLE
  2
STANDARD
  9
$DIMCLRD
 70
     0
  9
$DIMCLRE
 70
     0
  9
$DIMCLRT
 70
     0
  9
$DIMTFAC
 40
1.0
  9
$DIMGAP
 40
0.09
  9
$LUNITS
 70
     2
  9
$LUPREC
 70
     4
  9
$SKETCHINC
 40
0.1
  9
$FILLETRAD
 40
0.0
  9
$AUNITS
 70
     0
  9
$AUPREC
 70
     0
  9
$MENU
  1
.
  9
$ELEVATION
 40
0.0
  9
$PELEVATION
 40
0.0
  9
$THICKNESS
 40
0.0
  9
$LIMCHECK
 70
     0
  9
$BLIPMODE
 70
     0
  9
$CHAMFERA
 40
0.0
  9
$CHAMFERB
 40
0.0
  9
$SKPOLY
 70
     0
  9
$TDCREATE
 40
2453606.6181172221
  9
$TDUPDATE
 40
2453606.6195954401
  9
$TDINDWG
 40
0.0014791319
  9
$TDUSRTIMER
 40
0.0014791319
  9
$USRTIMER
 70
     1
  9
$ANGBASE
 50
0.0
  9
$ANGDIR
 70
     0
  9
$PDMODE
 70
     0
  9
$PDSIZE
 40
0.0
  9
$PLINEWID
 40
0.0
  9
$COORDS
 70
     1
  9
$SPLFRAME
 70
     0
  9
$SPLINETYPE
 70
     6
  9
$SPLINESEGS
 70
     8
  9
$ATTDIA
 70
     0
  9
$ATTREQ
 70
     1
  9
$HANDLING
 70
     1
  9
$HANDSEED
  5
214
  9
$SURFTAB1
 70
     6
  9
$SURFTAB2
 70
     6
  9
$SURFTYPE
 70
     6
  9
$SURFU
 70
     6
  9
$SURFV
 70
     6
  9
$UCSNAME
  2

  9
$UCSORG
 10
0.0
 20
0.0
 30
0.0
  9
$UCSXDIR
 10
1.0
 20
0.0
 30
0.0
  9
$UCSYDIR
 10
0.0
 20
1.0
 30
0.0
  9
$PUCSNAME
  2

  9
$PUCSORG
 10
0.0
 20
0.0
 30
0.0
  9
$PUCSXDIR
 10
1.0
 20
0.0
 30
0.0
  9
$PUCSYDIR
 10
0.0
 20
1.0
 30
0.0
  9
$USERI1
 70
     0
  9
$USERI2
 70
     0
  9
$USERI3
 70
     0
  9
$USERI4
 70
     0
  9
$USERI5
 70
     0
  9
$USERR1
 40
0.0
  9
$USERR2
 40
0.0
  9
$USERR3
 40
0.0
  9
$USERR4
 40
0.0
  9
$USERR5
 40
0.0
  9
$WORLDVIEW
 70
     1
  9
$SHADEDGE
 70
     3
  9
$SHADEDIF
 70
    70
  9
$TILEMODE
 70
     0
  9
$MAXACTVP
 70
    64
  9
$PLIMCHECK
 70
     0
  9
$PEXTMIN
 10
1.049999952316284
 20
0.7999999523162842
 30
0.0
  9
$PEXTMAX
 10
9.4499995708465558
 20
7.1999995708465558
 30
0.0
  9
$PLIMMIN
 10
-0.2500002402958907
 20
-0.2499999962453767
  9
$PLIMMAX
 10
10.74999951940821
 20
8.2499997634587316
  9
$UNITMODE
 70
     0
  9
$VISRETAIN
 70
     1
  9
$PLINEGEN
 70
     0
  9
$PSLTSCALE
 70
     1
  0
ENDSEC
  0
SECTION
  2
TABLES
  0
TABLE
  2
VPORT
 70
     6
  0
VPORT
  2
*ACTIVE
 70
     0
 10
0.0
 20
0.0
 11
1.0
 21
1.0
 12
31.516713018895071
 22
14.75760118620461
 13
0.0
 23
0.0
 14
0.5
 24
0.5
 15
0.5
 25
0.5
 16
0.0
 26
0.0
 36
1.0
 17
0.0
 27
0.0
 37
0.0
 40
5.0324874810022351
 41
2.0
 42
50.0
 43
0.0
 44
0.0
 50
0.0
 51
0.0
 71
     0
 72
  1000
 73
     1
 74
     3
 75
     0
 76
     0
 77
     0
 78
     0
  0
ENDTAB
  0
TABLE
  2
LTYPE
 70
     1
  0
LTYPE
  2
CONTINUOUS
 70
     0
  3
Solid line
 72
    65
 73
     0
 40
0.0
  0
ENDTAB
  0
TABLE
  2
LAYER
 70
     2
  0
LAYER
  2
0
 70
     0
 62
     7
  6
CONTINUOUS
  0
LAYER
  2
PROF
 70
     0
 62
     7
  6
CONTINUOUS
  0
ENDTAB
  0
TABLE
  2
STYLE
 70
     1
  0
STYLE
  2
STANDARD
 70
     0
 40
0.0
 41
1.0
 50
0.0
 71
     0
 42
0.2
  3
txt
  4

  0
ENDTAB
  0
TABLE
  2
VIEW
 70
     8
  0
ENDTAB
  0
TABLE
  2
UCS
 70
     0
  0
ENDTAB
  0
TABLE
  2
APPID
 70
     2
  0
APPID
  2
ACAD
 70
     0
  0
APPID
  2
ACAD_PSEXT
 70
     0
  0
ENDTAB
  0
TABLE
  2
DIMSTYLE
 70
     6
  0
DIMSTYLE
  2
STANDARD
 70
     0
  3

  4

  5

  6

  7

 40
1.0
 41
0.18
 42
0.0625
 43
0.38
 44
0.18
 45
0.0
 46
0.0
 47
0.0
 48
0.0
140
0.18
141
0.09
142
0.0
143
25.399999999999999
144
1.0
145
0.0
146
1.0
147
0.09
 71
     0
 72
     0
 73
     1
 74
     1
 75
     0
 76
     0
 77
     0
 78
     0
170
     0
171
     2
172
     0
173
     0
174
     0
175
     0
176
     0
177
     0
178
     0
  0
DIMSTYLE
  2
FULL_SCALE
 70
     0
  3
"
  4

  5
ARCHTICK
  6

  7

 40
1.0
 41
0.046875
 42
0.09375
 43
0.125
 44
0.0625
 45
0.0
 46
0.0
 47
0.0
 48
0.0
140
0.125
141
0.125
142
0.0
143
25.399999999999999
144
1.0
145
0.0
146
1.0
147
0.0625
 71
     0
 72
     0
 73
     0
 74
     0
 75
     0
 76
     0
 77
     1
 78
     0
170
     0
171
     2
172
     0
173
     0
174
     1
175
     0
176
     0
177
     0
178
     0
  0
DIMSTYLE
  2
HALF_SCALE
 70
     0
  3
"
  4

  5
ARCHTICK
  6

  7

 40
1.0
 41
0.09375
 42
0.1875
 43
0.25
 44
0.125
 45
0.0
 46
0.0
 47
0.0
 48
0.0
140
0.25
141
0.25
142
0.0
143
25.399999999999999
144
1.0
145
0.0
146
1.0
147
0.125
 71
     0
 72
     0
 73
     0
 74
     0
 75
     0
 76
     0
 77
     1
 78
     0
170
     0
171
     2
172
     0
173
     0
174
     1
175
     0
176
     0
177
     0
178
     0
  0
DIMSTYLE
  2
INCH_SCALE
 70
     0
  3
"
  4

  5
ARCHTICK
  6

  7

 40
1.0
 41
0.5625
 42
1.125
 43
1.5
 44
0.75
 45
0.0
 46
0.0
 47
0.0
 48
0.0
140
1.125
141
1.5
142
0.0
143
25.399999999999999
144
1.0
145
0.0
146
1.0
147
0.75
 71
     0
 72
     0
 73
     0
 74
     0
 75
     0
 76
     0
 77
     1
 78
     0
170
     0
171
     2
172
     0
173
     0
174
     1
175
     0
176
     0
177
     0
178
     0
  0
DIMSTYLE
  2
THREE_QUARTER_INCH_SCALE
 70
     0
  3
"
  4

  5
ARCHTICK
  6

  7

 40
1.0
 41
0.75
 42
1.5
 43
2.0
 44
1.0
 45
0.0
 46
0.0
 47
0.0
 48
0.0
140
1.5
141
2.0
142
0.0
143
25.399999999999999
144
1.0
145
0.0
146
1.0
147
1.0
 71
     0
 72
     0
 73
     0
 74
     0
 75
     0
 76
     0
 77
     1
 78
     0
170
     0
171
     2
172
     0
173
     0
174
     1
175
     0
176
     0
177
     0
178
     0
  0
DIMSTYLE
  2
ZHALF_INCH_SCALE
 70
     0
  3
"
  4

  5
ARCHTICK
  6

  7

 40
1.0
 41
1.125
 42
2.25
 43
3.0
 44
1.5
 45
0.0
 46
0.0
 47
0.0
 48
0.0
140
2.25
141
3.0
142
0.0
143
25.399999999999999
144
1.0
145
0.0
146
1.0
147
1.5
 71
     0
 72
     0
 73
     0
 74
     0
 75
     0
 76
     0
 77
     1
 78
     0
170
     0
171
     2
172
     0
173
     0
174
     1
175
     0
176
     0
177
     0
178
     0
  0
ENDTAB
  0
ENDSEC
  0
SECTION
  2
BLOCKS
  0
BLOCK
  8
0
  2
$MODEL_SPACE
 70
     0
 10
0.0
 20
0.0
 30
0.0
  3
$MODEL_SPACE
  1

  0
ENDBLK
  5
21
  8
0
  0
BLOCK
 67
     1
  8
0
  2
$PAPER_SPACE
 70
     0
 10
0.0
 20
0.0
 30
0.0
  3
$PAPER_SPACE
  1

  0
ENDBLK
  5
5B
 67
     1
  8
0
  0
BLOCK
  8
0
  2
_ARCHTICK
 70
     0
 10
0.0
 20
0.0
 30
0.0
  3
_ARCHTICK
  1

  0
POLYLINE
  5
8D
  8
0
  6
BYBLOCK
 62
     0
 66
     1
 10
0.0
 20
0.0
 30
0.0
 40
0.15
 41
0.15
  0
VERTEX
  5
1FB
  8
0
  6
BYBLOCK
 62
     0
 10
-0.5
 20
-0.5
 30
0.0
  0
VERTEX
  5
1FC
  8
0
  6
BYBLOCK
 62
     0
 10
0.5
 20
0.5
 30
0.0
  0
SEQEND
  5
1FD
  8
0
  6
BYBLOCK
 62
     0
  0
ENDBLK
  5
8E
  8
0
  0
BLOCK
  8
0
  2
_OPEN30
 70
     0
 10
0.0
 20
0.0
 30
0.0
  3
_OPEN30
  1

  0
LINE
  5
91
  8
0
  6
BYBLOCK
 62
     0
 10
-1.0
 20
0.26794919
 30
0.0
 11
0.0
 21
0.0
 31
0.0
  0
LINE
  5
92
  8
0
  6
BYBLOCK
 62
     0
 10
0.0
 20
0.0
 30
0.0
 11
-1.0
 21
-0.26794919
 31
0.0
  0
LINE
  5
93
  8
0
  6
BYBLOCK
 62
     0
 10
0.0
 20
0.0
 30
0.0
 11
-1.0
 21
0.0
 31
0.0
  0
ENDBLK
  5
94
  8
0
  0
BLOCK
  8
0
  2
*U4
 70
     1
 10
0.0
 20
0.0
 30
0.0
  3
*U4
  1

  0
TEXT
  5
1FF
  8
0
 10
1.194871408563926
 20
1.897100079406413
 30
0.0
 40
0.125
  1
Casing
  0
TEXT
  5
200
  8
0
 10
1.194871408563926
 20
1.68876674607308
 30
0.0
 40
0.125
  1
TL-AB128
  0
TEXT
  5
201
  8
0
 10
1.194871408563926
 20
1.4804334127397469
 30
0.0
 40
0.125
  1
3/4" x 3-1/2"
  0
TEXT
  5
202
  8
0
 10
1.194871408563926
 20
1.272100079406413
 30
0.0
 40
0.125
  1
800.66.TAGUE
  0
ENDBLK
  5
204
  8
0
  0
BLOCK
  8
0
  2
*U5
 70
     1
 10
0.0
 20
0.0
 30
0.0
  3
*U5
  1

  0
TEXT
  5
206
  8
0
 10
30.963461037273149
 20
14.697104936958491
 30
0.0
 40
0.125
  1
Casing
  0
TEXT
  5
207
  8
0
 10
30.963461037273149
 20
14.48877160362515
 30
0.0
 40
0.125
  1
TL-AB128
  0
TEXT
  5
208
  8
0
 10
30.963461037273149
 20
14.280438270291819
 30
0.0
 40
0.125
  1
3/4" x 3-1/2"
  0
TEXT
  5
209
  8
0
 10
30.963461037273149
 20
14.072104936958491
 30
0.0
 40
0.125
  1
800.66.TAGUE
  0
ENDBLK
  5
20B
  8
0
  0
ENDSEC
  0
SECTION
  2
ENTITIES
  0
INSERT
  5
12C
  8
0
  2
*U5
 10
0.0
 20
0.0
 30
0.0
  0
LINE
  5
12D
  8
PROF
 10
30.518588800173131
 20
12.800004512319139
 30
0.0
 11
30.518588800173131
 21
13.300004512319139
 31
0.0
  0
LINE
  5
12E
  8
PROF
 10
30.105578200173131
 20
15.911275512319129
 30
0.0
 11
30.16414150017313
 21
15.911275512319129
 31
0.0
  0
LINE
  5
12F
  8
PROF
 10
29.768588600173089
 20
16.300008512319131
 30
0.0
 11
29.8991092001731
 21
16.300008512319131
 31
0.0
  0
LINE
  5
130
  8
PROF
 10
29.8991092001731
 20
16.300008512319131
 30
0.0
 11
29.8991092001731
 21
16.20412277867198
 31
0.0
  0
POLYLINE
  5
131
  8
PROF
 66
     1
 10
0.0
 20
0.0
 30
0.0
 70
     4
 75
     6
  0
VERTEX
  5
132
  8
PROF
 10
29.8991092001731
 20
16.20412277867198
 30
0.0
 70
    16
  0
VERTEX
  5
133
  8
PROF
 10
29.8991092001731
 20
16.20412277867198
 30
0.0
 70
     8
  0
VERTEX
  5
134
  8
PROF
 10
29.904018108839772
 20
16.20417360735852
 30
0.0
 70
     8
  0
VERTEX
  5
135
  8
PROF
 10
29.91678646950642
 20
16.20409991918476
 30
0.0
 70
     8
  0
VERTEX
  5
136
  8
PROF
 10
29.934905134173121
 20
16.203570973365721
 30
0.0
 70
     8
  0
VERTEX
  5
137
  8
PROF
 10
29.95586495483975
 20
16.202256029116629
 30
0.0
 70
     8
  0
VERTEX
  5
138
  8
PROF
 10
29.97715678350643
 20
16.199824345652509
 30
0.0
 70
     8
  0
VERTEX
  5
139
  8
PROF
 10
29.996751838173129
 20
16.19582717831921
 30
0.0
 70
     8
  0
VERTEX
  5
13A
  8
PROF
 10
30.014542800839781
 20
16.18934376698579
 30
0.0
 70
     8
  0
VERTEX
  5
13B
  8
PROF
 10
30.030902719506422
 20
16.17933534765249
 30
0.0
 70
     8
  0
VERTEX
  5
13C
  8
PROF
 10
30.04620464217313
 20
16.1647631563192
 30
0.0
 70
     8
  0
VERTEX
  5
13D
  8
PROF
 10
30.06082161683976
 20
16.144588428985831
 30
0.0
 70
     8
  0
VERTEX
  5
13E
  8
PROF
 10
30.074877805506461
 20
16.117676045652541
 30
0.0
 70
     8
  0
VERTEX
  5
13F
  8
PROF
 10
30.087501826173099
 20
16.082505462319119
 30
0.0
 70
     8
  0
VERTEX
  5
140
  8
PROF
 10
30.097573410839761
 20
16.037459778985902
 30
0.0
 70
     8
  0
VERTEX
  5
141
  8
PROF
 10
30.10397229150643
 20
15.98092209565247
 30
0.0
 70
     8
  0
VERTEX
  5
142
  8
PROF
 10
30.105578200173131
 20
15.911275512319129
 30
0.0
 70
     8
  0
VERTEX
  5
143
  8
PROF
 10
29.899347200173128
 20
16.204127512319172
 30
0.0
 70
    16
  0
VERTEX
  5
144
  8
PROF
 10
29.98622820017313
 20
16.205855512319118
 30
0.0
 70
    16
  0
VERTEX
  5
145
  8
PROF
 10
30.062121200173081
 20
16.172260512319131
 30
0.0
 70
    16
  0
VERTEX
  5
146
  8
PROF
 10
30.107518200173121
 20
16.03917551231919
 30
0.0
 70
    16
  0
VERTEX
  5
147
  8
PROF
 10
30.105578200173131
 20
15.911275512319129
 30
0.0
 70
    16
  0
SEQEND
  5
148
  8
PROF
  0
LINE
  5
149
  8
PROF
  6
CONTINUOUS
 10
30.16414150017313
 20
15.823593864965609
 30
0.0
 11
30.17997168204916
 21
15.823593864965609
 31
0.0
  0
LINE
  5
14A
  8
PROF
  6
CONTINUOUS
 10
30.164142500173131
 20
15.552925012207689
 30
0.0
 11
30.17997168204916
 21
15.552925012207689
 31
0.0
  0
ARC
  5
14B
  8
PROF
  6
CONTINUOUS
 10
30.17997168204916
 20
15.68825943858659
 30
0.0
 40
0.1353344263790066
 50
270.0
 51
90.0
  0
LINE
  5
14C
  8
PROF
 10
29.768588600173089
 20
15.552713512319119
 30
0.0
 11
29.81776150017312
 21
15.552713512319119
 31
0.0
  0
LINE
  5
14D
  8
PROF
 10
30.164142500173131
 20
15.156073512319191
 30
0.0
 11
30.26950750017313
 21
15.156073512319191
 31
0.0
  0
LINE
  5
14E
  8
PROF
 10
30.164142500173131
 20
15.552925012207689
 30
0.0
 11
30.164142500173131
 21
15.156073512319191
 31
0.0
  0
LINE
  5
14F
  8
PROF
 10
29.768588600173089
 20
15.552713512319119
 30
0.0
 11
29.768588600173089
 21
16.300008512319131
 31
0.0
  0
LINE
  5
150
  8
PROF
 10
30.16414150017313
 20
15.911275512319129
 30
0.0
 11
30.16414150017313
 21
15.823593864965609
 31
0.0
  0
LINE
  5
151
  8
PROF
 10
29.81776150017312
 20
13.47314251231913
 30
0.0
 11
29.769466105216349
 21
13.47314251231913
 31
0.0
  0
LINE
  5
152
  8
PROF
 10
29.768588600173089
 20
12.800004512319139
 30
0.0
 11
29.769466105216349
 21
13.47314251231913
 31
0.0
  0
LINE
  5
153
  8
PROF
 10
29.81776150017312
 20
15.552713512319119
 30
0.0
 11
29.81776150017312
 21
13.47314251231913
 31
0.0
  0
LINE
  5
154
  8
PROF
 10
29.768588600173089
 20
12.800004512319139
 30
0.0
 11
30.518588800173131
 21
12.800004512319139
 31
0.0
  0
LINE
  5
155
  8
PROF
 10
30.518588800173131
 20
13.300004512319139
 30
0.0
 11
30.276497847575701
 21
13.30075763117444
 31
0.0
  0
POLYLINE
  5
156
  8
PROF
 66
     1
 10
0.0
 20
0.0
 30
0.0
 70
     4
 75
     6
  0
VERTEX
  5
157
  8
PROF
 10
30.26950750017313
 20
15.156073512319191
 30
0.0
 70
    16
  0
VERTEX
  5
158
  8
PROF
 10
30.26950750017313
 20
15.156073512319191
 30
0.0
 70
     8
  0
VERTEX
  5
159
  8
PROF
 10
30.222830200173139
 20
15.055344668569131
 30
0.0
 70
     8
  0
VERTEX
  5
15A
  8
PROF
 10
30.201317800173129
 20
14.99314726231913
 30
0.0
 70
     8
  0
VERTEX
  5
15B
  8
PROF
 10
30.189349229339779
 20
14.94575841856912
 30
0.0
 70
     8
  0
VERTEX
  5
15C
  8
PROF
 10
30.182172733506452
 20
14.90426701231914
 30
0.0
 70
     8
  0
VERTEX
  5
15D
  8
PROF
 10
30.178057623089799
 20
14.86434230398587
 30
0.0
 70
     8
  0
VERTEX
  5
15E
  8
PROF
 10
30.176488150173121
 20
14.825163345652561
 30
0.0
 70
     8
  0
VERTEX
  5
15F
  8
PROF
 10
30.177252304339799
 20
14.786786678985809
 30
0.0
 70
     8
  0
VERTEX
  5
160
  8
PROF
 10
30.180138083506471
 20
14.74926901231917
 30
0.0
 70
     8
  0
VERTEX
  5
161
  8
PROF
 10
30.184933485589749
 20
14.712667053985831
 30
0.0
 70
     8
  0
VERTEX
  5
162
  8
PROF
 10
30.19142650017314
 20
14.67703734565251
 30
0.0
 70
     8
  0
VERTEX
  5
163
  8
PROF
 10
30.199405116839799
 20
14.64243642898581
 30
0.0
 70
     8
  0
VERTEX
  5
164
  8
PROF
 10
30.208657333506451
 20
14.608921012319151
 30
0.0
 70
     8
  0
VERTEX
  5
165
  8
PROF
 10
30.21897466683977
 20
14.576543637319141
 30
0.0
 70
     8
  0
VERTEX
  5
166
  8
PROF
 10
30.2301627001731
 20
14.54534001231915
 30
0.0
 70
     8
  0
VERTEX
  5
167
  8
PROF
 10
30.24204460225646
 20
14.515325053985899
 30
0.0
 70
     8
  0
VERTEX
  5
168
  8
PROF
 10
30.25449981683979
 20
14.48644734565247
 30
0.0
 70
     8
  0
VERTEX
  5
169
  8
PROF
 10
30.267425371006439
 20
14.458634699819219
 30
0.0
 70
     8
  0
VERTEX
  5
16A
  8
PROF
 10
30.2807323501731
 20
14.431798178985821
 30
0.0
 70
     8
  0
VERTEX
  5
16B
  8
PROF
 10
30.294335354339768
 20
14.40584467898581
 30
0.0
 70
     8
  0
VERTEX
  5
16C
  8
PROF
 10
30.308148983506459
 20
14.38068117898584
 30
0.0
 70
     8
  0
VERTEX
  5
16D
  8
PROF
 10
30.32208784183981
 20
14.356214678985831
 30
0.0
 70
     8
  0
VERTEX
  5
16E
  8
PROF
 10
30.336066550173101
 20
14.332352178985881
 30
0.0
 70
     8
  0
VERTEX
  5
16F
  8
PROF
 10
30.349999729339761
 20
14.30900063731921
 30
0.0
 70
     8
  0
VERTEX
  5
170
  8
PROF
 10
30.363801983506459
 20
14.286066845652529
 30
0.0
 70
     8
  0
VERTEX
  5
171
  8
PROF
 10
30.377387912673122
 20
14.26345763731914
 30
0.0
 70
     8
  0
VERTEX
  5
172
  8
PROF
 10
30.390672116839781
 20
14.24108017898587
 30
0.0
 70
     8
  0
VERTEX
  5
173
  8
PROF
 10
30.40356920225646
 20
14.218841616485889
 30
0.0
 70
     8
  0
VERTEX
  5
174
  8
PROF
 10
30.41599380017313
 20
14.196648678985779
 30
0.0
 70
     8
  0
VERTEX
  5
175
  8
PROF
 10
30.427862427256422
 20
14.174409908152519
 30
0.0
 70
     8
  0
VERTEX
  5
176
  8
PROF
 10
30.439099116839792
 20
14.152041512319141
 30
0.0
 70
     8
  0
VERTEX
  5
177
  8
PROF
 10
30.449637402256439
 20
14.129468866485841
 30
0.0
 70
     8
  0
VERTEX
  5
178
  8
PROF
 10
30.459441300173079
 20
14.106646345652541
 30
0.0
 70
     8
  0
VERTEX
  5
179
  8
PROF
 10
30.468484321006439
 20
14.08353740815247
 30
0.0
 70
     8
  0
VERTEX
  5
17A
  8
PROF
 10
30.476747466839772
 20
14.06011284565253
 30
0.0
 70
     8
  0
VERTEX
  5
17B
  8
PROF
 10
30.48421361267312
 20
14.036345283152549
 30
0.0
 70
     8
  0
VERTEX
  5
17C
  8
PROF
 10
30.490865633506431
 20
14.01220734565246
 30
0.0
 70
     8
  0
VERTEX
  5
17D
  8
PROF
 10
30.49668644600645
 20
13.987671658152561
 30
0.0
 70
     8
  0
VERTEX
  5
17E
  8
PROF
 10
30.501659133506461
 20
13.96271084565254
 30
0.0
 70
     8
  0
VERTEX
  5
17F
  8
PROF
 10
30.505766737673088
 20
13.93729753315248
 30
0.0
 70
     8
  0
VERTEX
  5
180
  8
PROF
 10
30.508991966839758
 20
13.91140434565253
 30
0.0
 70
     8
  0
VERTEX
  5
181
  8
PROF
 10
30.51131752933976
 20
13.88500390815253
 30
0.0
 70
     8
  0
VERTEX
  5
182
  8
PROF
 10
30.512726466839769
 20
13.85806884565253
 30
0.0
 70
     8
  0
VERTEX
  5
183
  8
PROF
 10
30.51320184183977
 20
13.83057178315247
 30
0.0
 70
     8
  0
VERTEX
  5
184
  8
PROF
 10
30.512726466839769
 20
13.802485345652521
 30
0.0
 70
     8
  0
VERTEX
  5
185
  8
PROF
 10
30.511281237673089
 20
13.77378765815255
 30
0.0
 70
     8
  0
VERTEX
  5
186
  8
PROF
 10
30.508839633506469
 20
13.744478845652489
 30
0.0
 70
     8
  0
VERTEX
  5
187
  8
PROF
 10
30.505365550173131
 20
13.71458636648587
 30
0.0
 70
     8
  0
VERTEX
  5
188
  8
PROF
 10
30.50079196683977
 20
13.684225012319221
 30
0.0
 70
     8
  0
VERTEX
  5
189
  8
PROF
 10
30.495042237673111
 20
13.653536970652491
 30
0.0
 70
     8
  0
VERTEX
  5
18A
  8
PROF
 10
30.488032133506419
 20
13.622686678985851
 30
0.0
 70
     8
  0
VERTEX
  5
18B
  8
PROF
 10
30.47967550850645
 20
13.5918440748192
 30
0.0
 70
     8
  0
VERTEX
  5
18C
  8
PROF
 10
30.469886133506421
 20
13.561178845652449
 30
0.0
 70
     8
  0
VERTEX
  5
18D
  8
PROF
 10
30.458577781423131
 20
13.53086061648586
 30
0.0
 70
     8
  0
VERTEX
  5
18E
  8
PROF
 10
30.4456643168398
 20
13.501059012319191
 30
0.0
 70
     8
  0
VERTEX
  5
18F
  8
PROF
 10
30.431059629339771
 20
13.47194372065249
 30
0.0
 70
     8
  0
VERTEX
  5
190
  8
PROF
 10
30.414677616839771
 20
13.44368467898588
 30
0.0
 70
     8
  0
VERTEX
  5
191
  8
PROF
 10
30.39594811163143
 20
13.41595143940245
 30
0.0
 70
     8
  0
VERTEX
  5
192
  8
PROF
 10
30.372364675173131
 20
13.386411762319121
 30
0.0
 70
     8
  0
VERTEX
  5
193
  8
PROF
 10
30.338164784223419
 20
13.35100487092612
 30
0.0
 70
     8
  0
VERTEX
  5
194
  8
PROF
 10
30.276497847575701
 20
13.30075763117444
 30
0.0
 70
     8
  0
VERTEX
  5
195
  8
PROF
 10
30.22592580017313
 20
15.06998251231918
 30
0.0
 70
    16
  0
VERTEX
  5
196
  8
PROF
 10
30.19676680017314
 20
14.98574351231915
 30
0.0
 70
    16
  0
VERTEX
  5
197
  8
PROF
 10
30.180334300173129
 20
14.90380751231922
 30
0.0
 70
    16
  0
VERTEX
  5
198
  8
PROF
 10
30.174932400173091
 20
14.82462851231916
 30
0.0
 70
    16
  0
VERTEX
  5
199
  8
PROF
 10
30.17886500017314
 20
14.748658512319169
 30
0.0
 70
    16
  0
VERTEX
  5
19A
  8
PROF
 10
30.190436100173098
 20
14.676351512319149
 30
0.0
 70
    16
  0
VERTEX
  5
19B
  8
PROF
 10
30.207949600173109
 20
14.608159512319199
 30
0.0
 70
    16
  0
VERTEX
  5
19C
  8
PROF
 10
30.229709500173119
 20
14.544536512319191
 30
0.0
 70
    16
  0
VERTEX
  5
19D
  8
PROF
 10
30.25418860017313
 20
14.485734512319169
 30
0.0
 70
    16
  0
VERTEX
  5
19E
  8
PROF
 10
30.280535000173089
 20
14.43120951231916
 30
0.0
 70
    16
  0
VERTEX
  5
19F
  8
PROF
 10
30.3080655001731
 20
14.38021651231921
 30
0.0
 70
    16
  0
VERTEX
  5
1A0
  8
PROF
 10
30.336096900173128
 20
14.332011512319159
 30
0.0
 70
    16
  0
VERTEX
  5
1A1
  8
PROF
 10
30.363946200173089
 20
14.285850512319181
 30
0.0
 70
    16
  0
VERTEX
  5
1A2
  8
PROF
 10
30.39093020017312
 20
14.24098751231921
 30
0.0
 70
    16
  0
VERTEX
  5
1A3
  8
PROF
 10
30.416365700173131
 20
14.19668051231921
 30
0.0
 70
    16
  0
VERTEX
  5
1A4
  8
PROF
 10
30.439569800173121
 20
14.15218251231912
 30
0.0
 70
    16
  0
VERTEX
  5
1A5
  8
PROF
 10
30.45994980017311
 20
14.10683851231912
 30
0.0
 70
    16
  0
VERTEX
  5
1A6
  8
PROF
 10
30.477278800173121
 20
14.060341512319191
 30
0.0
 70
    16
  0
VERTEX
  5
1A7
  8
PROF
 10
30.491419800173119
 20
14.012472512319199
 30
0.0
 70
    16
  0
VERTEX
  5
1A8
  8
PROF
 10
30.5022358001731
 20
13.96301251231913
 30
0.0
 70
    16
  0
VERTEX
  5
1A9
  8
PROF
 10
30.509591800173109
 20
13.911742512319201
 30
0.0
 70
    16
  0
VERTEX
  5
1AA
  8
PROF
 10
30.513348800173119
 20
13.858443512319161
 30
0.0
 70
    16
  0
VERTEX
  5
1AB
  8
PROF
 10
30.513371800173118
 20
13.802896512319229
 30
0.0
 70
    16
  0
VERTEX
  5
1AC
  8
PROF
 10
30.509522800173119
 20
13.74488251231916
 30
0.0
 70
    16
  0
VERTEX
  5
1AD
  8
PROF
 10
30.50157480017312
 20
13.68444651231917
 30
0.0
 70
    16
  0
VERTEX
  5
1AE
  8
PROF
 10
30.4889298001731
 20
13.62268151231914
 30
0.0
 70
    16
  0
VERTEX
  5
1AF
  8
PROF
 10
30.470898800173089
 20
13.560947512319141
 30
0.0
 70
    16
  0
VERTEX
  5
1B0
  8
PROF
 10
30.446791800173131
 20
13.500601512319159
 30
0.0
 70
    16
  0
VERTEX
  5
1B1
  8
PROF
 10
30.415919900173112
 20
13.44300051231918
 30
0.0
 70
    16
  0
VERTEX
  5
1B2
  8
PROF
 10
30.377594300173101
 20
13.38950451231918
 30
0.0
 70
    16
  0
VERTEX
  5
1B3
  8
PROF
 10
30.331125400173121
 20
13.34146951231916
 30
0.0
 70
    16
  0
VERTEX
  5
1B4
  8
PROF
 10
30.276497847575701
 20
13.30075763117444
 30
0.0
 70
    16
  0
SEQEND
  5
1B5
  8
PROF
  0
VIEWPORT
  5
1B9
 67
     1
  8
0
 10
5.0905789222741857
 20
3.9202895249656868
 30
0.0
 40
15.91761435153126
 41
7.9588071757656307
 68
     1
 69
     1
1001
ACAD
1000
MVIEW
1002
{
1070
    16
1010
0.0
1020
0.0
1030
0.0
1010
0.0
1020
0.0
1030
1.0
1040
0.0
1040
7.9588071757656307
1040
5.0905789222741857
1040
3.9202895249656868
1040
50.0
1040
0.0
1040
0.0
1070
     0
1070
  1000
1070
     1
1070
     1
1070
     0
1070
     0
1070
     0
1070
     0
1040
0.0
1040
0.0
1040
0.0
1040
0.5
1040
0.5
1040
0.5
1040
0.5
1070
     0
1002
{
1002
}
1002
}
  0
VIEWPORT
  5
1BB
 67
     1
  8
0
 10
5.24999976158142
 20
3.99999976158142
 30
0.0
 40
8.3999996185302717
 41
6.3999996185302717
 68
     2
 69
     2
1001
ACAD
1000
MVIEW
1002
{
1070
    16
1010
0.0
1020
0.0
1030
0.0
1010
0.0
1020
0.0
1030
1.0
1040
0.0
1040
6.3999996185302717
1040
31.09506231301355
1040
14.55008700775225
1040
50.0
1040
0.0
1040
0.0
1070
     0
1070
  1000
1070
     1
1070
     3
1070
     0
1070
     0
1070
     0
1070
     0
1040
0.0
1040
0.0
1040
0.0
1040
0.5
1040
0.5
1040
0.5
1040
0.5
1070
     0
1002
{
1002
}
1002
}
  0
ENDSEC
  0
EOF
