  0
SECTION
  2
HEADER
  9
$ACADVER
  1
AC1015
  9
$ACADMAINTVER
 70
    20
  9
$DWGCODEPAGE
  3
ANSI_1252
  9
$INSBASE
 10
0.0
 20
0.0
 30
0.0
  9
$EXTMIN
 10
-390.2128020641541
 20
834.6566718369308
 30
0.0
  9
$EXTMAX
 10
-380.213533173072
 20
845.3858625449649
 30
0.0
  9
$LIMMIN
 10
0.0
 20
0.0
  9
$LIMMAX
 10
1500.0
 20
1500.0
  9
$ORTHOMODE
 70
     0
  9
$REGENMODE
 70
     1
  9
$FILLMODE
 70
     1
  9
$QTEXTMODE
 70
     0
  9
$MIRRTEXT
 70
     1
  9
$LTSCALE
 40
1.0
  9
$ATTMODE
 70
     1
  9
$TEXTSIZE
 40
1.5
  9
$TRACEWID
 40
0.05
  9
$TEXTSTYLE
  7
STANDARD
  9
$CLAYER
  8
0
  9
$CELTYPE
  6
ByLayer
  9
$CECOLOR
 62
   256
  9
$CELTSCALE
 40
1.0
  9
$DISPSILH
 70
     0
  9
$DIMSCALE
 40
1.0
  9
$DIMASZ
 40
0.75
  9
$DIMEXO
 40
1.5
  9
$DIMDLI
 40
2.0
  9
$DIMRND
 40
0.0
  9
$DIMDLE
 40
0.0
  9
$DIMEXE
 40
1.0
  9
$DIMTP
 40
0.0
  9
$DIMTM
 40
0.0
  9
$DIMTXT
 40
1.5
  9
$DIMCEN
 40
2.0
  9
$DIMTSZ
 40
0.0
  9
$DIMTOL
 70
     0
  9
$DIMLIM
 70
     0
  9
$DIMTIH
 70
     0
  9
$DIMTOH
 70
     0
  9
$DIMSE1
 70
     0
  9
$DIMSE2
 70
     0
  9
$DIMTAD
 70
     1
  9
$DIMZIN
 70
     0
  9
$DIMBLK
  1
ARCHTICK
  9
$DIMASO
 70
     1
  9
$DIMSHO
 70
     1
  9
$DIMPOST
  1
"
  9
$DIMAPOST
  1

  9
$DIMALT
 70
     0
  9
$DIMALTD
 70
     2
  9
$DIMALTF
 40
25.4
  9
$DIMLFAC
 40
1.0
  9
$DIMTOFL
 70
     0
  9
$DIMTVP
 40
0.0
  9
$DIMTIX
 70
     1
  9
$DIMSOXD
 70
     0
  9
$DIMSAH
 70
     0
  9
$DIMBLK1
  1

  9
$DIMBLK2
  1

  9
$DIMSTYLE
  2
THREE_QUARTER_INCH_SCALE
  9
$DIMCLRD
 70
     0
  9
$DIMCLRE
 70
     0
  9
$DIMCLRT
 70
     0
  9
$DIMTFAC
 40
1.0
  9
$DIMGAP
 40
1.0
  9
$DIMJUST
 70
     0
  9
$DIMSD1
 70
     0
  9
$DIMSD2
 70
     0
  9
$DIMTOLJ
 70
     1
  9
$DIMTZIN
 70
     0
  9
$DIMALTZ
 70
     0
  9
$DIMALTTZ
 70
     0
  9
$DIMUPT
 70
     0
  9
$DIMDEC
 70
     4
  9
$DIMTDEC
 70
     4
  9
$DIMALTU
 70
     2
  9
$DIMALTTD
 70
     2
  9
$DIMTXSTY
  7
STANDARD
  9
$DIMAUNIT
 70
     0
  9
$DIMADEC
 70
     0
  9
$DIMALTRND
 40
0.0
  9
$DIMAZIN
 70
     0
  9
$DIMDSEP
 70
    46
  9
$DIMATFIT
 70
     3
  9
$DIMFRAC
 70
     0
  9
$DIMLDRBLK
  1
ARCHTICK
  9
$DIMLUNIT
 70
     2
  9
$DIMLWD
 70
    -2
  9
$DIMLWE
 70
    -2
  9
$DIMTMOVE
 70
     0
  9
$LUNITS
 70
     2
  9
$LUPREC
 70
     4
  9
$SKETCHINC
 40
0.1
  9
$FILLETRAD
 40
0.0
  9
$AUNITS
 70
     0
  9
$AUPREC
 70
     0
  9
$MENU
  1
.
  9
$ELEVATION
 40
0.0
  9
$PELEVATION
 40
0.0
  9
$THICKNESS
 40
0.0
  9
$LIMCHECK
 70
     0
  9
$CHAMFERA
 40
0.5
  9
$CHAMFERB
 40
0.5
  9
$CHAMFERC
 40
0.0
  9
$CHAMFERD
 40
0.0
  9
$SKPOLY
 70
     0
  9
$TDCREATE
 40
2452089.395738773
  9
$TDUCREATE
 40
2452089.562405440
  9
$TDUPDATE
 40
2453612.429676100
  9
$TDUUPDATE
 40
2453612.596342766
  9
$TDINDWG
 40
1.1110455324
  9
$TDUSRTIMER
 40
1.1110451736
  9
$USRTIMER
 70
     1
  9
$ANGBASE
 50
0.0
  9
$ANGDIR
 70
     0
  9
$PDMODE
 70
     0
  9
$PDSIZE
 40
10.0
  9
$PLINEWID
 40
0.0
  9
$SPLFRAME
 70
     0
  9
$SPLINETYPE
 70
     6
  9
$SPLINESEGS
 70
     8
  9
$HANDSEED
  5
19AD2
  9
$SURFTAB1
 70
     6
  9
$SURFTAB2
 70
     6
  9
$SURFTYPE
 70
     6
  9
$SURFU
 70
     6
  9
$SURFV
 70
     6
  9
$UCSBASE
  2

  9
$UCSNAME
  2

  9
$UCSORG
 10
0.0
 20
0.0
 30
0.0
  9
$UCSXDIR
 10
1.0
 20
0.0
 30
0.0
  9
$UCSYDIR
 10
0.0
 20
1.0
 30
0.0
  9
$UCSORTHOREF
  2

  9
$UCSORTHOVIEW
 70
     0
  9
$UCSORGTOP
 10
0.0
 20
0.0
 30
0.0
  9
$UCSORGBOTTOM
 10
0.0
 20
0.0
 30
0.0
  9
$UCSORGLEFT
 10
0.0
 20
0.0
 30
0.0
  9
$UCSORGRIGHT
 10
0.0
 20
0.0
 30
0.0
  9
$UCSORGFRONT
 10
0.0
 20
0.0
 30
0.0
  9
$UCSORGBACK
 10
0.0
 20
0.0
 30
0.0
  9
$PUCSBASE
  2

  9
$PUCSNAME
  2

  9
$PUCSORG
 10
0.0
 20
0.0
 30
0.0
  9
$PUCSXDIR
 10
1.0
 20
0.0
 30
0.0
  9
$PUCSYDIR
 10
0.0
 20
1.0
 30
0.0
  9
$PUCSORTHOREF
  2

  9
$PUCSORTHOVIEW
 70
     0
  9
$PUCSORGTOP
 10
0.0
 20
0.0
 30
0.0
  9
$PUCSORGBOTTOM
 10
0.0
 20
0.0
 30
0.0
  9
$PUCSORGLEFT
 10
0.0
 20
0.0
 30
0.0
  9
$PUCSORGRIGHT
 10
0.0
 20
0.0
 30
0.0
  9
$PUCSORGFRONT
 10
0.0
 20
0.0
 30
0.0
  9
$PUCSORGBACK
 10
0.0
 20
0.0
 30
0.0
  9
$USERI1
 70
     0
  9
$USERI2
 70
     0
  9
$USERI3
 70
     0
  9
$USERI4
 70
     0
  9
$USERI5
 70
     0
  9
$USERR1
 40
0.0
  9
$USERR2
 40
0.0
  9
$USERR3
 40
0.0
  9
$USERR4
 40
0.0
  9
$USERR5
 40
0.0
  9
$WORLDVIEW
 70
     1
  9
$SHADEDGE
 70
     3
  9
$SHADEDIF
 70
    70
  9
$TILEMODE
 70
     0
  9
$MAXACTVP
 70
    64
  9
$PINSBASE
 10
0.0
 20
0.0
 30
0.0
  9
$PLIMCHECK
 70
     0
  9
$PEXTMIN
 10
0.0280982296770773
 20
0.0758747945053777
 30
-0.0000000000112498
  9
$PEXTMAX
 10
10.47163505903136
 20
7.957846508469465
 30
0.0000000000002956
  9
$PLIMMIN
 10
-0.1682389550263349
 20
-0.2033427855578579
  9
$PLIMMAX
 10
10.75464054840701
 20
8.237064049229001
  9
$UNITMODE
 70
     0
  9
$VISRETAIN
 70
     1
  9
$PLINEGEN
 70
     0
  9
$PSLTSCALE
 70
     1
  9
$TREEDEPTH
 70
  3020
  9
$CMLSTYLE
  2
Standard
  9
$CMLJUST
 70
     0
  9
$CMLSCALE
 40
1.0
  9
$PROXYGRAPHICS
 70
     1
  9
$MEASUREMENT
 70
     0
  9
$CELWEIGHT
370
    -1
  9
$ENDCAPS
280
     0
  9
$JOINSTYLE
280
     0
  9
$LWDISPLAY
290
     0
  9
$INSUNITS
 70
     0
  9
$HYPERLINKBASE
  1

  9
$STYLESHEET
  1

  9
$XEDIT
290
     1
  9
$CEPSNTYPE
380
     0
  9
$PSTYLEMODE
290
     1
  9
$FINGERPRINTGUID
  2
{4CAC2A60-4470-4952-9757-6C47779FD988}
  9
$VERSIONGUID
  2
{5500D418-BAAC-4B84-9BF4-11E53DEB272F}
  9
$EXTNAMES
290
     1
  9
$PSVPSCALE
 40
0.0
  9
$OLESTARTUP
290
     0
  0
ENDSEC
  0
SECTION
  2
CLASSES
  0
CLASS
  1
ACDBDICTIONARYWDFLT
  2
AcDbDictionaryWithDefault
  3
ObjectDBX Classes
 90
        0
280
     0
281
     0
  0
CLASS
  1
TABLESTYLE
  2
AcDbTableStyle
  3
ObjectDBX Classes
 90
     2047
280
     0
281
     0
  0
CLASS
  1
DICTIONARYVAR
  2
AcDbDictionaryVar
  3
ObjectDBX Classes
 90
        0
280
     0
281
     0
  0
CLASS
  1
ACDBPLACEHOLDER
  2
AcDbPlaceHolder
  3
ObjectDBX Classes
 90
        0
280
     0
281
     0
  0
CLASS
  1
LAYOUT
  2
AcDbLayout
  3
ObjectDBX Classes
 90
        0
280
     0
281
     0
  0
ENDSEC
  0
SECTION
  2
TABLES
  0
TABLE
  2
VPORT
  5
C9C0
330
0
100
AcDbSymbolTable
 70
     1
  0
VPORT
  5
C9DE
330
C9C0
100
AcDbSymbolTableRecord
100
AcDbViewportTableRecord
  2
*ACTIVE
 70
     0
 10
0.0
 20
0.0
 11
1.0
 21
1.0
 12
-386.52380251144
 22
838.0920416617923
 13
0.0
 23
0.0
 14
0.5
 24
0.5
 15
0.5
 25
0.5
 16
0.0
 26
0.0
 36
1.0
 17
0.0
 27
0.0
 37
0.0
 40
3.930952126162941
 41
2.022662889518412
 42
50.0
 43
0.0
 44
0.0
 50
0.0
 51
0.0
 71
     0
 72
   100
 73
     1
 74
     2
 75
     0
 76
     0
 77
     0
 78
     0
281
     0
 65
     0
110
0.0
120
0.0
130
0.0
111
1.0
121
0.0
131
0.0
112
0.0
122
1.0
132
0.0
 79
     0
146
0.0
  0
ENDTAB
  0
TABLE
  2
LTYPE
  5
C9BD
330
0
100
AcDbSymbolTable
 70
     1
  0
LTYPE
  5
C9CB
330
C9BD
100
AcDbSymbolTableRecord
100
AcDbLinetypeTableRecord
  2
ByBlock
 70
     0
  3

 72
    65
 73
     0
 40
0.0
  0
LTYPE
  5
C9CC
330
C9BD
100
AcDbSymbolTableRecord
100
AcDbLinetypeTableRecord
  2
ByLayer
 70
     0
  3

 72
    65
 73
     0
 40
0.0
  0
LTYPE
  5
C9CD
330
C9BD
100
AcDbSymbolTableRecord
100
AcDbLinetypeTableRecord
  2
CONTINUOUS
 70
     0
  3
Solid line
 72
    65
 73
     0
 40
0.0
  0
ENDTAB
  0
TABLE
  2
LAYER
  5
C9BA
102
{ACAD_XDICTIONARY
360
CA12
102
}
330
0
100
AcDbSymbolTable
 70
    10
  0
LAYER
  5
C9C8
330
C9BA
100
AcDbSymbolTableRecord
100
AcDbLayerTableRecord
  2
0
 70
     0
 62
     7
  6
CONTINUOUS
370
    -3
390
C9C7
  0
LAYER
  5
C9DF
330
C9BA
100
AcDbSymbolTableRecord
100
AcDbLayerTableRecord
  2
DEFPOINTS
 70
     0
 62
     7
  6
CONTINUOUS
290
     0
370
    -3
390
C9C7
  0
LAYER
  5
C9E0
330
C9BA
100
AcDbSymbolTableRecord
100
AcDbLayerTableRecord
  2
FRAME_200
 70
     0
 62
     8
  6
CONTINUOUS
370
    -3
390
C9C7
  0
LAYER
  5
C9E1
330
C9BA
100
AcDbSymbolTableRecord
100
AcDbLayerTableRecord
  2
FRAME_070
 70
     0
 62
     5
  6
CONTINUOUS
370
    -3
390
C9C7
  0
LAYER
  5
C9E2
330
C9BA
100
AcDbSymbolTableRecord
100
AcDbLayerTableRecord
  2
FRAME_050
 70
     0
 62
     6
  6
CONTINUOUS
370
    -3
390
C9C7
  0
LAYER
  5
C9E3
330
C9BA
100
AcDbSymbolTableRecord
100
AcDbLayerTableRecord
  2
TITLE_BLOCK
 70
     0
 62
     7
  6
CONTINUOUS
370
    -3
390
C9C7
  0
LAYER
  5
C9E4
330
C9BA
100
AcDbSymbolTableRecord
100
AcDbLayerTableRecord
  2
FRAME_025
 70
     0
 62
     7
  6
CONTINUOUS
370
    -3
390
C9C7
  0
LAYER
  5
C9E5
330
C9BA
100
AcDbSymbolTableRecord
100
AcDbLayerTableRecord
  2
VIEWPORT
 70
     0
 62
     7
  6
CONTINUOUS
370
    -3
390
C9C7
  0
LAYER
  5
C9E6
330
C9BA
100
AcDbSymbolTableRecord
100
AcDbLayerTableRecord
  2
PROF
 70
     0
 62
     7
  6
CONTINUOUS
370
    -3
390
C9C7
  0
LAYER
  5
C9E7
330
C9BA
100
AcDbSymbolTableRecord
100
AcDbLayerTableRecord
  2
PROFILE
 70
     0
 62
     7
  6
CONTINUOUS
370
    -3
390
C9C7
  0
ENDTAB
  0
TABLE
  2
STYLE
  5
C9BB
330
0
100
AcDbSymbolTable
 70
     2
  0
STYLE
  5
C9C9
330
C9BB
100
AcDbSymbolTableRecord
100
AcDbTextStyleTableRecord
  2
STANDARD
 70
     0
 40
0.0
 41
1.0
 50
0.0
 71
     0
 42
1.5
  3
txt
  4

  0
STYLE
  5
C9E8
330
C9BB
100
AcDbSymbolTableRecord
100
AcDbTextStyleTableRecord
  2
ISO_PROPORTIONAL
 70
     0
 40
0.0
 41
1.0
 50
0.0
 71
     0
 42
2.5
  3
isocp.shx
  4

  0
ENDTAB
  0
TABLE
  2
VIEW
  5
C9BE
330
0
100
AcDbSymbolTable
 70
     2
  0
ENDTAB
  0
TABLE
  2
UCS
  5
C9BF
330
0
100
AcDbSymbolTable
 70
     0
  0
ENDTAB
  0
TABLE
  2
APPID
  5
C9C1
330
0
100
AcDbSymbolTable
 70
     6
  0
APPID
  5
C9CA
330
C9C1
100
AcDbSymbolTableRecord
100
AcDbRegAppTableRecord
  2
ACAD
 70
     0
  0
APPID
  5
C9E9
330
C9C1
100
AcDbSymbolTableRecord
100
AcDbRegAppTableRecord
  2
DCO15
 70
     0
  0
APPID
  5
C9EA
330
C9C1
100
AcDbSymbolTableRecord
100
AcDbRegAppTableRecord
  2
ACAD_EXEMPT_FROM_CAD_STANDARDS
 70
     0
  0
APPID
  5
C9EB
330
C9C1
100
AcDbSymbolTableRecord
100
AcDbRegAppTableRecord
  2
ACAD_PSEXT
 70
     0
  0
APPID
  5
C9EC
330
C9C1
100
AcDbSymbolTableRecord
100
AcDbRegAppTableRecord
  2
CONTENTBLOCKDESCRIPTION
 70
     0
  0
APPID
  5
C9ED
330
C9C1
100
AcDbSymbolTableRecord
100
AcDbRegAppTableRecord
  2
CONTENTBLOCKICON
 70
     0
  0
ENDTAB
  0
TABLE
  2
DIMSTYLE
  5
C9C2
330
0
100
AcDbSymbolTable
 70
    10
100
AcDbDimStyleTable
 71
     0
  0
DIMSTYLE
105
C9EE
330
C9C2
100
AcDbSymbolTableRecord
100
AcDbDimStyleTableRecord
  2
FULL_SCALE
 70
     0
  3
"
 41
0.046875
 42
0.09375
 43
0.125
 44
0.0625
 73
     0
 74
     0
 77
     1
140
0.125
141
0.125
147
0.0625
174
     1
279
     2
340
C9C9
  0
DIMSTYLE
105
C9EF
330
C9C2
100
AcDbSymbolTableRecord
100
AcDbDimStyleTableRecord
  2
HALF_SCALE
 70
     0
  3
"
 41
0.09375
 42
0.1875
 43
0.25
 44
0.125
 73
     0
 74
     0
 77
     1
140
0.25
141
0.25
147
0.125
174
     1
279
     2
340
C9C9
  0
DIMSTYLE
105
C9F0
330
C9C2
100
AcDbSymbolTableRecord
100
AcDbDimStyleTableRecord
  2
INCH_SCALE
 70
     0
  3
"
 41
0.5625
 42
1.125
 43
1.5
 44
0.75
 73
     0
 74
     0
 77
     1
140
1.125
141
1.5
147
0.75
174
     1
279
     2
340
C9C9
  0
DIMSTYLE
105
C9F1
330
C9C2
100
AcDbSymbolTableRecord
100
AcDbDimStyleTableRecord
  2
THREE_QUARTER_INCH_SCALE
 70
     0
  3
"
 41
0.75
 42
1.5
 43
2.0
 44
1.0
 73
     0
 74
     0
 77
     1
140
1.5
141
2.0
147
1.0
174
     1
279
     2
340
C9C9
  0
DIMSTYLE
105
C9F2
330
C9C2
100
AcDbSymbolTableRecord
100
AcDbDimStyleTableRecord
  2
ZHALF_INCH_SCALE
 70
     0
  3
"
 41
1.125
 42
2.25
 43
3.0
 44
1.5
 73
     0
 74
     0
 77
     1
140
2.25
141
3.0
147
1.5
174
     1
279
     2
340
C9C9
  0
DIMSTYLE
105
CA0D
330
C9C2
100
AcDbSymbolTableRecord
100
AcDbDimStyleTableRecord
  2
Full Scale
 70
     0
  3
"
 41
0.046875
 42
0.09375
 43
0.125
 44
0.0625
 73
     0
 74
     0
 77
     1
140
0.125
141
0.125
147
0.0625
174
     1
271
     5
272
     5
277
     5
279
     2
340
C9C9
341
C9FB
342
C9F9
  0
DIMSTYLE
105
CA0E
330
C9C2
100
AcDbSymbolTableRecord
100
AcDbDimStyleTableRecord
  2
Half Scale
 70
     0
  3
"
 41
0.09375
 42
0.1875
 43
0.25
 44
0.125
 73
     0
 74
     0
 77
     1
140
0.25
141
0.25
147
0.125
174
     1
271
     5
272
     5
277
     5
279
     2
340
C9C9
341
C9FB
342
C9F9
  0
DIMSTYLE
105
CA0F
330
C9C2
100
AcDbSymbolTableRecord
100
AcDbDimStyleTableRecord
  2
Inch Scale
 70
     0
  3
"
 41
0.5625
 42
1.125
 43
1.5
 44
0.75
 73
     0
 74
     0
 77
     1
140
1.125
141
1.5
147
0.75
174
     1
271
     5
272
     5
277
     5
279
     2
340
C9C9
341
C9FB
342
C9F9
  0
DIMSTYLE
105
CA10
330
C9C2
100
AcDbSymbolTableRecord
100
AcDbDimStyleTableRecord
  2
Three Quarter Inch Scale
 70
     0
  3
"
 41
0.75
 42
1.5
 43
2.0
 44
1.0
 73
     0
 74
     0
 77
     1
140
1.5
141
2.0
147
1.0
174
     1
271
     5
272
     5
277
     5
279
     2
340
C9C9
341
C9FB
342
C9F9
  0
DIMSTYLE
105
CA11
330
C9C2
100
AcDbSymbolTableRecord
100
AcDbDimStyleTableRecord
  2
zHalf Inch Scale
 70
     0
  3
"
 41
1.125
 42
2.25
 43
3.0
 44
1.5
 73
     0
 74
     0
 77
     1
140
2.25
141
3.0
147
1.5
174
     1
271
     5
272
     5
277
     5
279
     2
340
C9C9
341
C9FB
342
C9F9
  0
ENDTAB
  0
TABLE
  2
BLOCK_RECORD
  5
C9B9
330
0
100
AcDbSymbolTable
 70
   143
  0
BLOCK_RECORD
  5
C9DA
330
C9B9
100
AcDbSymbolTableRecord
100
AcDbBlockTableRecord
  2
*Model_Space
340
C9DD
  0
BLOCK_RECORD
  5
C9D6
330
C9B9
100
AcDbSymbolTableRecord
100
AcDbBlockTableRecord
  2
*Paper_Space
340
C9D9
  0
BLOCK_RECORD
  5
C9F5
330
C9B9
100
AcDbSymbolTableRecord
100
AcDbBlockTableRecord
  2
$MODEL_SPACE
340
0
  0
BLOCK_RECORD
  5
C9F7
330
C9B9
100
AcDbSymbolTableRecord
100
AcDbBlockTableRecord
  2
$PAPER_SPACE
340
0
  0
BLOCK_RECORD
  5
C9F9
330
C9B9
100
AcDbSymbolTableRecord
100
AcDbBlockTableRecord
  2
_ARCHTICK
340
0
102
{BLKREFS
331
CDAE
331
CDAF
331
CDEE
331
CDEF
331
11684
331
11685
331
11690
331
11691
331
1169C
331
1169D
331
11704
331
11705
331
1170D
331
1170E
331
11716
331
11717
331
11B0F
331
11B10
331
11B1B
331
11B1C
331
11B85
331
11B86
331
11B8E
331
11B8F
331
17AF0
331
17AF1
331
17AFD
331
17AFE
331
17B3C
331
17B3D
331
17B46
331
17B47
102
}
  0
BLOCK_RECORD
  5
C9FB
330
C9B9
100
AcDbSymbolTableRecord
100
AcDbBlockTableRecord
  2
_OPEN30
340
0
  0
BLOCK_RECORD
  5
C9FD
330
C9B9
100
AcDbSymbolTableRecord
100
AcDbBlockTableRecord
  2
ISO_A2_TITLE_BLOCK
340
0
  0
BLOCK_RECORD
  5
C9FF
330
C9B9
100
AcDbSymbolTableRecord
100
AcDbBlockTableRecord
  2
WOBB001END
340
0
  0
BLOCK_RECORD
  5
CA01
330
C9B9
100
AcDbSymbolTableRecord
100
AcDbBlockTableRecord
  2
A$C0A61123B
340
0
  0
BLOCK_RECORD
  5
CA03
330
C9B9
100
AcDbSymbolTableRecord
100
AcDbBlockTableRecord
  2
*U7
340
0
102
{BLKREFS
331
C0AE
102
}
  0
BLOCK_RECORD
  5
CA05
330
C9B9
100
AcDbSymbolTableRecord
100
AcDbBlockTableRecord
  2
*U8
340
0
  0
BLOCK_RECORD
  5
CA07
330
C9B9
100
AcDbSymbolTableRecord
100
AcDbBlockTableRecord
  2
*U9
340
0
  0
BLOCK_RECORD
  5
CDA9
330
C9B9
100
AcDbSymbolTableRecord
100
AcDbBlockTableRecord
  2
*D21
340
0
  0
BLOCK_RECORD
  5
CDDF
330
C9B9
100
AcDbSymbolTableRecord
100
AcDbBlockTableRecord
  2
*D23
340
0
  0
BLOCK_RECORD
  5
1167F
330
C9B9
100
AcDbSymbolTableRecord
100
AcDbBlockTableRecord
  2
*D79
340
0
  0
BLOCK_RECORD
  5
1168B
330
C9B9
100
AcDbSymbolTableRecord
100
AcDbBlockTableRecord
  2
*D80
340
0
  0
BLOCK_RECORD
  5
11697
330
C9B9
100
AcDbSymbolTableRecord
100
AcDbBlockTableRecord
  2
*D81
340
0
  0
BLOCK_RECORD
  5
116DD
330
C9B9
100
AcDbSymbolTableRecord
100
AcDbBlockTableRecord
  2
*D83
340
0
  0
BLOCK_RECORD
  5
116E9
330
C9B9
100
AcDbSymbolTableRecord
100
AcDbBlockTableRecord
  2
*D84
340
0
  0
BLOCK_RECORD
  5
116F5
330
C9B9
100
AcDbSymbolTableRecord
100
AcDbBlockTableRecord
  2
*D85
340
0
  0
BLOCK_RECORD
  5
11B0A
330
C9B9
100
AcDbSymbolTableRecord
100
AcDbBlockTableRecord
  2
*D87
340
0
  0
BLOCK_RECORD
  5
11B16
330
C9B9
100
AcDbSymbolTableRecord
100
AcDbBlockTableRecord
  2
*D88
340
0
  0
BLOCK_RECORD
  5
11B6A
330
C9B9
100
AcDbSymbolTableRecord
100
AcDbBlockTableRecord
  2
*D90
340
0
  0
BLOCK_RECORD
  5
11B76
330
C9B9
100
AcDbSymbolTableRecord
100
AcDbBlockTableRecord
  2
*D91
340
0
  0
BLOCK_RECORD
  5
17AEB
330
C9B9
100
AcDbSymbolTableRecord
100
AcDbBlockTableRecord
  2
*D128
340
0
  0
BLOCK_RECORD
  5
17AF7
330
C9B9
100
AcDbSymbolTableRecord
100
AcDbBlockTableRecord
  2
*D129
340
0
  0
BLOCK_RECORD
  5
17B20
330
C9B9
100
AcDbSymbolTableRecord
100
AcDbBlockTableRecord
  2
*D131
340
0
  0
BLOCK_RECORD
  5
17B2C
330
C9B9
100
AcDbSymbolTableRecord
100
AcDbBlockTableRecord
  2
*D132
340
0
  0
ENDTAB
  0
ENDSEC
  0
SECTION
  2
BLOCKS
  0
BLOCK
  5
C9DB
330
C9DA
100
AcDbEntity
  8
0
100
AcDbBlockBegin
  2
*Model_Space
 70
     0
 10
0.0
 20
0.0
 30
0.0
  3
*Model_Space
  1

  0
ENDBLK
  5
C9DC
330
C9DA
100
AcDbEntity
  8
0
100
AcDbBlockEnd
  0
BLOCK
  5
C9D7
330
C9D6
100
AcDbEntity
 67
     1
  8
0
100
AcDbBlockBegin
  2
*Paper_Space
 70
     0
 10
0.0
 20
0.0
 30
0.0
  3
*Paper_Space
  1

  0
ENDBLK
  5
C9D8
330
C9D6
100
AcDbEntity
 67
     1
  8
0
100
AcDbBlockEnd
  0
BLOCK
  5
C9F6
330
C9F5
100
AcDbEntity
  8
0
100
AcDbBlockBegin
  2
$MODEL_SPACE
 70
     0
 10
0.0
 20
0.0
 30
0.0
  3
$MODEL_SPACE
  1

  0
ENDBLK
  5
21
330
C9F5
100
AcDbEntity
  8
0
100
AcDbBlockEnd
  0
BLOCK
  5
C9F8
330
C9F7
100
AcDbEntity
  8
0
100
AcDbBlockBegin
  2
$PAPER_SPACE
 70
     0
 10
0.0
 20
0.0
 30
0.0
  3
$PAPER_SPACE
  1

  0
ENDBLK
  5
BAD5
330
C9F7
100
AcDbEntity
  8
0
100
AcDbBlockEnd
  0
BLOCK
  5
C9FA
330
C9F9
100
AcDbEntity
  8
0
100
AcDbBlockBegin
  2
_ARCHTICK
 70
     0
 10
0.0
 20
0.0
 30
0.0
  3
_ARCHTICK
  1

  0
LWPOLYLINE
  5
158
330
C9F9
100
AcDbEntity
  8
0
  6
ByBlock
 62
     0
100
AcDbPolyline
 90
        2
 70
     0
 43
0.15
 10
-0.5
 20
-0.5
 10
0.5
 20
0.5
  0
ENDBLK
  5
15A
330
C9F9
100
AcDbEntity
  8
0
100
AcDbBlockEnd
  0
BLOCK
  5
C9FC
330
C9FB
100
AcDbEntity
  8
0
100
AcDbBlockBegin
  2
_OPEN30
 70
     0
 10
0.0
 20
0.0
 30
0.0
  3
_OPEN30
  1

  0
LINE
  5
15C
330
C9FB
100
AcDbEntity
  8
0
  6
ByBlock
 62
     0
100
AcDbLine
 10
-1.0
 20
0.26794919
 30
0.0
 11
0.0
 21
0.0
 31
0.0
  0
LINE
  5
15D
330
C9FB
100
AcDbEntity
  8
0
  6
ByBlock
 62
     0
100
AcDbLine
 10
0.0
 20
0.0
 30
0.0
 11
-1.0
 21
-0.26794919
 31
0.0
  0
LINE
  5
15E
330
C9FB
100
AcDbEntity
  8
0
  6
ByBlock
 62
     0
100
AcDbLine
 10
0.0
 20
0.0
 30
0.0
 11
-1.0
 21
0.0
 31
0.0
  0
ENDBLK
  5
160
330
C9FB
100
AcDbEntity
  8
0
100
AcDbBlockEnd
  0
BLOCK
  5
C9FE
330
C9FD
100
AcDbEntity
  8
0
100
AcDbBlockBegin
  2
ISO_A2_TITLE_BLOCK
 70
     2
 10
0.0
 20
0.0
 30
0.0
  3
ISO_A2_TITLE_BLOCK
  1

  0
LINE
  5
BDD
330
C9FD
100
AcDbEntity
  8
FRAME_050
100
AcDbLine
 10
299.5
 20
12.5
 30
0.0
 11
297.0
 21
7.5
 31
0.0
  0
LINE
  5
BDE
330
C9FD
100
AcDbEntity
  8
FRAME_050
100
AcDbLine
 10
294.5
 20
12.5
 30
0.0
 11
299.5
 21
12.5
 31
0.0
  0
LINE
  5
BDF
330
C9FD
100
AcDbEntity
  8
FRAME_050
100
AcDbLine
 10
247.0
 20
5.0
 30
0.0
 11
347.0
 21
5.0
 31
0.0
  0
LINE
  5
BE0
330
C9FD
100
AcDbEntity
  8
FRAME_070
100
AcDbLine
 10
584.0
 20
410.0
 30
0.0
 11
10.0
 21
410.0
 31
0.0
  0
LINE
  5
BE1
330
C9FD
100
AcDbEntity
  8
FRAME_070
100
AcDbLine
 10
10.0
 20
10.0
 30
0.0
 11
584.0
 21
10.0
 31
0.0
  0
LINE
  5
BE2
330
C9FD
100
AcDbEntity
  8
FRAME_050
100
AcDbLine
 10
12.5
 20
207.5
 30
0.0
 11
7.5
 21
210.0
 31
0.0
  0
LINE
  5
BE3
330
C9FD
100
AcDbEntity
  8
FRAME_050
100
AcDbLine
 10
12.5
 20
212.5
 30
0.0
 11
12.5
 21
207.5
 31
0.0
  0
LINE
  5
BE4
330
C9FD
100
AcDbEntity
  8
FRAME_070
100
AcDbLine
 10
10.0
 20
410.0
 30
0.0
 11
10.0
 21
10.0
 31
0.0
  0
LINE
  5
BE5
330
C9FD
100
AcDbEntity
  8
FRAME_200
100
AcDbLine
 10
0.0
 20
0.0
 30
0.0
 11
0.0
 21
10.0
 31
0.0
  0
LINE
  5
BE6
330
C9FD
100
AcDbEntity
  8
FRAME_200
100
AcDbLine
 10
0.0
 20
0.0
 30
0.0
 11
10.0
 21
0.0
 31
0.0
  0
TEXT
  5
BE7
330
C9FD
100
AcDbEntity
  8
FRAME_050
100
AcDbText
 10
5.9
 20
35.0
 30
0.0
 40
4.0
  1
H
  7
ISO_PROPORTIONAL
 72
     4
 11
7.5
 21
37.0
 31
0.0
100
AcDbText
  0
LINE
  5
BE8
330
C9FD
100
AcDbEntity
  8
FRAME_050
100
AcDbLine
 10
10.0
 20
60.0
 30
0.0
 11
5.0
 21
60.0
 31
0.0
  0
LINE
  5
BE9
330
C9FD
100
AcDbEntity
  8
FRAME_050
100
AcDbLine
 10
81.75
 20
5.0
 30
0.0
 11
81.75
 21
10.0
 31
0.0
  0
TEXT
  5
BEA
330
C9FD
100
AcDbEntity
  8
FRAME_050
100
AcDbText
 10
44.87499999999999
 20
5.5
 30
0.0
 40
4.0
  1
1
  7
ISO_PROPORTIONAL
 72
     4
 11
45.875
 21
7.5
 31
0.0
100
AcDbText
  0
TEXT
  5
BEB
330
C9FD
100
AcDbEntity
  8
FRAME_050
100
AcDbText
 10
6.003553390593274
 20
85.0
 30
0.0
 40
4.0
  1
G
  7
ISO_PROPORTIONAL
 72
     4
 11
7.5
 21
87.0
 31
0.0
100
AcDbText
  0
LINE
  5
BEC
330
C9FD
100
AcDbEntity
  8
FRAME_050
100
AcDbLine
 10
10.0
 20
110.0
 30
0.0
 11
5.0
 21
110.0
 31
0.0
  0
TEXT
  5
BED
330
C9FD
100
AcDbEntity
  8
FRAME_050
100
AcDbText
 10
6.099999999999999
 20
135.0
 30
0.0
 40
4.0
  1
F
  7
ISO_PROPORTIONAL
 72
     4
 11
7.5
 21
137.0
 31
0.0
100
AcDbText
  0
LINE
  5
BEE
330
C9FD
100
AcDbEntity
  8
FRAME_050
100
AcDbLine
 10
10.0
 20
160.0
 30
0.0
 11
5.0
 21
160.0
 31
0.0
  0
TEXT
  5
BEF
330
C9FD
100
AcDbEntity
  8
FRAME_050
100
AcDbText
 10
6.099999999999999
 20
185.0
 30
0.0
 40
4.0
  1
E
  7
ISO_PROPORTIONAL
 72
     4
 11
7.5
 21
187.0
 31
0.0
100
AcDbText
  0
LINE
  5
BF0
330
C9FD
100
AcDbEntity
  8
FRAME_050
100
AcDbLine
 10
153.5
 20
5.0
 30
0.0
 11
153.5
 21
10.0
 31
0.0
  0
TEXT
  5
BF1
330
C9FD
100
AcDbEntity
  8
FRAME_050
100
AcDbText
 10
116.1556692913386
 20
5.399606299212598
 30
0.0
 40
4.0
  1
2
  7
ISO_PROPORTIONAL
 72
     4
 11
117.625
 21
7.5
 31
0.0
100
AcDbText
  0
TEXT
  5
BF2
330
C9FD
100
AcDbEntity
  8
FRAME_050
100
AcDbText
 10
187.8921572875253
 20
5.582842712474614
 30
0.0
 40
4.0
  1
3
  7
ISO_PROPORTIONAL
 72
     4
 11
189.375
 21
7.5
 31
0.0
100
AcDbText
  0
LINE
  5
BF3
330
C9FD
100
AcDbEntity
  8
FRAME_050
100
AcDbLine
 10
225.25
 20
5.0
 30
0.0
 11
225.25
 21
10.0
 31
0.0
  0
LINE
  5
BF4
330
C9FD
100
AcDbEntity
  8
FRAME_050
100
AcDbLine
 10
297.0
 20
7.5
 30
0.0
 11
294.5
 21
12.5
 31
0.0
  0
LINE
  5
BF5
330
C9FD
100
AcDbEntity
  8
FRAME_050
100
AcDbLine
 10
287.0
 20
5.0
 30
0.0
 11
287.0
 21
10.0
 31
0.0
  0
LINE
  5
BF6
330
C9FD
100
AcDbEntity
  8
FRAME_050
100
AcDbLine
 10
277.0
 20
5.0
 30
0.0
 11
277.0
 21
10.0
 31
0.0
  0
LINE
  5
BF7
330
C9FD
100
AcDbEntity
  8
FRAME_050
100
AcDbLine
 10
267.0
 20
5.0
 30
0.0
 11
267.0
 21
10.0
 31
0.0
  0
LINE
  5
BF8
330
C9FD
100
AcDbEntity
  8
FRAME_050
100
AcDbLine
 10
257.0
 20
5.0
 30
0.0
 11
257.0
 21
10.0
 31
0.0
  0
LINE
  5
BF9
330
C9FD
100
AcDbEntity
  8
FRAME_050
100
AcDbLine
 10
247.0
 20
5.0
 30
0.0
 11
247.0
 21
10.0
 31
0.0
  0
LINE
  5
BFA
330
C9FD
100
AcDbEntity
  8
FRAME_050
100
AcDbLine
 10
297.0
 20
10.0
 30
0.0
 11
297.0
 21
5.0
 31
0.0
  0
LINE
  5
BFB
330
C9FD
100
AcDbEntity
  8
FRAME_050
100
AcDbLine
 10
297.0
 20
10.0
 30
0.0
 11
297.0
 21
15.0
 31
0.0
  0
LINE
  5
BFC
330
C9FD
100
AcDbEntity
  8
FRAME_050
100
AcDbLine
 10
5.0
 20
210.0
 30
0.0
 11
15.0
 21
210.0
 31
0.0
  0
LINE
  5
BFD
330
C9FD
100
AcDbEntity
  8
FRAME_050
100
AcDbLine
 10
7.5
 20
210.0
 30
0.0
 11
12.5
 21
212.5
 31
0.0
  0
TEXT
  5
BFE
330
C9FD
100
AcDbEntity
  8
FRAME_050
100
AcDbText
 10
5.786091270347398
 20
235.0
 30
0.0
 40
4.0
  1
D
  7
ISO_PROPORTIONAL
 72
     4
 11
7.5
 21
237.0
 31
0.0
100
AcDbText
  0
LINE
  5
BFF
330
C9FD
100
AcDbEntity
  8
FRAME_050
100
AcDbLine
 10
10.0
 20
260.0
 30
0.0
 11
5.0
 21
260.0
 31
0.0
  0
TEXT
  5
C00
330
C9FD
100
AcDbEntity
  8
FRAME_050
100
AcDbText
 10
6.193198051533947
 20
285.0
 30
0.0
 40
4.0
  1
C
  7
ISO_PROPORTIONAL
 72
     4
 11
7.5
 21
287.0
 31
0.0
100
AcDbText
  0
LINE
  5
C01
330
C9FD
100
AcDbEntity
  8
FRAME_050
100
AcDbLine
 10
10.0
 20
310.0
 30
0.0
 11
5.0
 21
310.0
 31
0.0
  0
TEXT
  5
C02
330
C9FD
100
AcDbEntity
  8
FRAME_050
100
AcDbText
 10
5.899999999999996
 20
335.0
 30
0.0
 40
4.0
  1
B
  7
ISO_PROPORTIONAL
 72
     4
 11
7.5
 21
337.0
 31
0.0
100
AcDbText
  0
LINE
  5
C03
330
C9FD
100
AcDbEntity
  8
FRAME_050
100
AcDbLine
 10
10.0
 20
360.0
 30
0.0
 11
5.0
 21
360.0
 31
0.0
  0
TEXT
  5
C04
330
C9FD
100
AcDbEntity
  8
FRAME_050
100
AcDbText
 10
5.699999999999999
 20
385.0
 30
0.0
 40
4.0
  1
A
  7
ISO_PROPORTIONAL
 72
     4
 11
7.5
 21
387.0
 31
0.0
100
AcDbText
  0
LINE
  5
C05
330
C9FD
100
AcDbEntity
  8
FRAME_200
100
AcDbLine
 10
10.0
 20
420.0
 30
0.0
 11
0.0
 21
420.0
 31
0.0
  0
LINE
  5
C06
330
C9FD
100
AcDbEntity
  8
FRAME_200
100
AcDbLine
 10
0.0
 20
420.0
 30
0.0
 11
0.0
 21
410.0
 31
0.0
  0
TEXT
  5
C07
330
C9FD
100
AcDbEntity
  8
FRAME_050
100
AcDbText
 10
44.87499999999999
 20
410.5
 30
0.0
 40
4.0
  1
1
  7
ISO_PROPORTIONAL
 72
     4
 11
45.875
 21
412.5
 31
0.0
100
AcDbText
  0
LINE
  5
C08
330
C9FD
100
AcDbEntity
  8
FRAME_050
100
AcDbLine
 10
81.75
 20
410.0
 30
0.0
 11
81.75
 21
415.0
 31
0.0
  0
TEXT
  5
C09
330
C9FD
100
AcDbEntity
  8
FRAME_050
100
AcDbText
 10
116.1556692913386
 20
410.3996062992126
 30
0.0
 40
4.0
  1
2
  7
ISO_PROPORTIONAL
 72
     4
 11
117.625
 21
412.5
 31
0.0
100
AcDbText
  0
LINE
  5
C0A
330
C9FD
100
AcDbEntity
  8
FRAME_050
100
AcDbLine
 10
153.5
 20
410.0
 30
0.0
 11
153.5
 21
415.0
 31
0.0
  0
TEXT
  5
C0B
330
C9FD
100
AcDbEntity
  8
FRAME_050
100
AcDbText
 10
187.8921572875253
 20
410.5828427124746
 30
0.0
 40
4.0
  1
3
  7
ISO_PROPORTIONAL
 72
     4
 11
189.375
 21
412.5
 31
0.0
100
AcDbText
  0
LINE
  5
C0C
330
C9FD
100
AcDbEntity
  8
FRAME_050
100
AcDbLine
 10
297.0
 20
405.0
 30
0.0
 11
297.0
 21
415.0
 31
0.0
  0
LINE
  5
C0D
330
C9FD
100
AcDbEntity
  8
FRAME_050
100
AcDbLine
 10
225.25
 20
410.0
 30
0.0
 11
225.25
 21
415.0
 31
0.0
  0
TEXT
  5
C0E
330
C9FD
100
AcDbEntity
  8
FRAME_050
100
AcDbText
 10
259.525
 20
410.5
 30
0.0
 40
4.0
  1
4
  7
ISO_PROPORTIONAL
 72
     4
 11
261.125
 21
412.5
 31
0.0
100
AcDbText
  0
LINE
  5
C0F
330
C9FD
100
AcDbEntity
  8
FRAME_070
100
AcDbLine
 10
584.0
 20
10.0
 30
0.0
 11
584.0
 21
410.0
 31
0.0
  0
ATTDEF
  5
C10
330
C9FD
100
AcDbEntity
  8
FRAME_025
100
AcDbText
 10
473.0
 20
31.75
 30
0.0
 40
2.5
  1
XXX - 00/00/00
  7
ISO_PROPORTIONAL
 11
473.0
 21
33.0
 31
0.0
100
AcDbAttributeDefinition
  3
Approved by - Date
  2
APPROVED_BY_DATE
 70
     8
 74
     2
  0
TEXT
  5
C11
330
C9FD
100
AcDbEntity
  8
FRAME_025
100
AcDbText
 10
448.0
 20
41.74999999999999
 30
0.0
 40
2.5
  1
Title/Name, designation, material, dimension etc
  7
ISO_PROPORTIONAL
 11
448.0
 21
43.0
 31
0.0
100
AcDbText
 73
     2
  0
TEXT
  5
C12
330
C9FD
100
AcDbEntity
  8
FRAME_025
100
AcDbText
 10
473.0
 20
35.75
 30
0.0
 40
2.5
  1
Approved by - date
  7
ISO_PROPORTIONAL
 11
473.0
 21
37.0
 31
0.0
100
AcDbText
 73
     2
  0
LINE
  5
C13
330
C9FD
100
AcDbEntity
  8
FRAME_070
100
AcDbLine
 10
414.0
 20
46.0
 30
0.0
 11
584.0
 21
46.0
 31
0.0
  0
LINE
  5
C14
330
C9FD
100
AcDbEntity
  8
FRAME_070
100
AcDbLine
 10
414.0
 20
40.0
 30
0.0
 11
584.0
 21
40.0
 31
0.0
  0
LINE
  5
C15
330
C9FD
100
AcDbEntity
  8
FRAME_070
100
AcDbLine
 10
414.0
 20
30.0
 30
0.0
 11
584.0
 21
30.0
 31
0.0
  0
LINE
  5
C16
330
C9FD
100
AcDbEntity
  8
FRAME_050
100
AcDbLine
 10
368.75
 20
5.0
 30
0.0
 11
368.75
 21
10.0
 31
0.0
  0
LINE
  5
C17
330
C9FD
100
AcDbEntity
  8
FRAME_050
100
AcDbLine
 10
337.0
 20
5.0
 30
0.0
 11
337.0
 21
10.0
 31
0.0
  0
LINE
  5
C18
330
C9FD
100
AcDbEntity
  8
FRAME_050
100
AcDbLine
 10
327.0
 20
5.0
 30
0.0
 11
327.0
 21
10.0
 31
0.0
  0
LINE
  5
C19
330
C9FD
100
AcDbEntity
  8
FRAME_050
100
AcDbLine
 10
317.0
 20
5.0
 30
0.0
 11
317.0
 21
10.0
 31
0.0
  0
LINE
  5
C1A
330
C9FD
100
AcDbEntity
  8
FRAME_050
100
AcDbLine
 10
307.0
 20
5.0
 30
0.0
 11
307.0
 21
10.0
 31
0.0
  0
LINE
  5
C1B
330
C9FD
100
AcDbEntity
  8
FRAME_050
100
AcDbLine
 10
347.0
 20
5.0
 30
0.0
 11
347.0
 21
10.0
 31
0.0
  0
LINE
  5
C1C
330
C9FD
100
AcDbEntity
  8
FRAME_050
100
AcDbLine
 10
440.5
 20
5.0
 30
0.0
 11
440.5
 21
10.0
 31
0.0
  0
TEXT
  5
C1D
330
C9FD
100
AcDbEntity
  8
FRAME_050
100
AcDbText
 10
403.2454724409448
 20
5.410236220472441
 30
0.0
 40
4.0
  1
6
  7
ISO_PROPORTIONAL
 72
     4
 11
404.6249999999999
 21
7.5
 31
0.0
100
AcDbText
  0
TEXT
  5
C1E
330
C9FD
100
AcDbEntity
  8
FRAME_050
100
AcDbText
 10
474.9749999999999
 20
5.5
 30
0.0
 40
4.0
  1
7
  7
ISO_PROPORTIONAL
 72
     4
 11
476.3749999999999
 21
7.5
 31
0.0
100
AcDbText
  0
TEXT
  5
C1F
330
C9FD
100
AcDbEntity
  8
FRAME_025
100
AcDbText
 10
431.0
 20
41.74999999999999
 30
0.0
 40
2.5
  1
Quantity
  7
ISO_PROPORTIONAL
 11
431.0
 21
43.0
 31
0.0
100
AcDbText
 73
     2
  0
TEXT
  5
C20
330
C9FD
100
AcDbEntity
  8
FRAME_025
100
AcDbText
 10
416.0
 20
41.74999999999999
 30
0.0
 40
2.5
  1
Itemref
  7
ISO_PROPORTIONAL
 11
416.0
 21
43.0
 31
0.0
100
AcDbText
 73
     2
  0
LINE
  5
C21
330
C9FD
100
AcDbEntity
  8
FRAME_070
100
AcDbLine
 10
414.0
 20
40.0
 30
0.0
 11
414.0
 21
46.0
 31
0.0
  0
LINE
  5
C22
330
C9FD
100
AcDbEntity
  8
FRAME_070
100
AcDbLine
 10
429.0
 20
40.0
 30
0.0
 11
429.0
 21
46.0
 31
0.0
  0
LINE
  5
C23
330
C9FD
100
AcDbEntity
  8
FRAME_070
100
AcDbLine
 10
414.0
 20
10.0
 30
0.0
 11
414.0
 21
40.0
 31
0.0
  0
ATTDEF
  5
C24
330
C9FD
100
AcDbEntity
  8
FRAME_025
100
AcDbText
 10
416.0
 20
31.75
 30
0.0
 40
2.5
  1
XXX
  7
ISO_PROPORTIONAL
 11
416.0
 21
33.0
 31
0.0
100
AcDbAttributeDefinition
  3
Designed by
  2
DESIGNED_BY
 70
     8
 74
     2
  0
TEXT
  5
C25
330
C9FD
100
AcDbEntity
  8
FRAME_025
100
AcDbText
 10
416.0
 20
35.75
 30
0.0
 40
2.5
  1
Designed by
  7
ISO_PROPORTIONAL
 11
416.0
 21
37.0
 31
0.0
100
AcDbText
 73
     2
  0
LINE
  5
C26
330
C9FD
100
AcDbEntity
  8
FRAME_070
100
AcDbLine
 10
446.0
 20
40.0
 30
0.0
 11
446.0
 21
46.0
 31
0.0
  0
ATTDEF
  5
C27
330
C9FD
100
AcDbEntity
  8
FRAME_025
100
AcDbText
 10
448.0
 20
31.75
 30
0.0
 40
2.5
  1
XXX
  7
ISO_PROPORTIONAL
 11
448.0
 21
33.0
 31
0.0
100
AcDbAttributeDefinition
  3
Checked by
  2
CHECKED_BY
 70
     8
 74
     2
  0
TEXT
  5
C28
330
C9FD
100
AcDbEntity
  8
FRAME_025
100
AcDbText
 10
448.0
 20
35.75
 30
0.0
 40
2.5
  1
Checked by
  7
ISO_PROPORTIONAL
 11
448.0
 21
37.0
 31
0.0
100
AcDbText
 73
     2
  0
ATTDEF
  5
C29
330
C9FD
100
AcDbEntity
  8
FRAME_050
100
AcDbText
 10
444.7499999999999
 20
17.5
 30
0.0
 40
5.0
  1
XXX
  7
ISO_PROPORTIONAL
 72
     4
 11
451.4999999999999
 21
20.0
 31
0.0
100
AcDbAttributeDefinition
  3
Owner
  2
OWNER
 70
     8
  0
LINE
  5
C2A
330
C9FD
100
AcDbEntity
  8
FRAME_070
100
AcDbLine
 10
446.0
 20
30.0
 30
0.0
 11
446.0
 21
40.0
 31
0.0
  0
LINE
  5
C2B
330
C9FD
100
AcDbEntity
  8
FRAME_070
100
AcDbLine
 10
471.0
 20
30.0
 30
0.0
 11
471.0
 21
40.0
 31
0.0
  0
LINE
  5
C2C
330
C9FD
100
AcDbEntity
  8
FRAME_070
100
AcDbLine
 10
489.0
 20
20.0
 30
0.0
 11
584.0
 21
20.0
 31
0.0
  0
LINE
  5
C2D
330
C9FD
100
AcDbEntity
  8
FRAME_050
100
AcDbLine
 10
512.25
 20
5.0
 30
0.0
 11
512.25
 21
10.0
 31
0.0
  0
TEXT
  5
C2E
330
C9FD
100
AcDbEntity
  8
FRAME_050
100
AcDbText
 10
546.7249999999999
 20
5.5
 30
0.0
 40
4.0
  1
8
  7
ISO_PROPORTIONAL
 72
     4
 11
548.125
 21
7.5
 31
0.0
100
AcDbText
  0
ATTDEF
  5
C2F
330
C9FD
100
AcDbEntity
  8
FRAME_050
100
AcDbText
 10
517.6499999999999
 20
13.5
 30
0.0
 40
3.0
  1
X
  7
ISO_PROPORTIONAL
 72
     4
 11
519.0
 21
15.0
 31
0.0
100
AcDbAttributeDefinition
  3
Drawing number
  2
DRAWING_NUMBER
 70
     8
  0
ATTDEF
  5
C30
330
C9FD
100
AcDbEntity
  8
FRAME_050
100
AcDbText
 10
529.75
 20
22.5
 30
0.0
 40
5.0
  1
XXX
  7
ISO_PROPORTIONAL
 72
     4
 11
536.5
 21
25.0
 31
0.0
100
AcDbAttributeDefinition
  3
Title / Name
  2
TITLE
 70
     8
  0
LINE
  5
C31
330
C9FD
100
AcDbEntity
  8
FRAME_070
100
AcDbLine
 10
489.0
 20
10.0
 30
0.0
 11
489.0
 21
30.0
 31
0.0
  0
ATTDEF
  5
C32
330
C9FD
100
AcDbEntity
  8
FRAME_025
100
AcDbText
 10
511.0
 20
31.75
 30
0.0
 40
2.5
  1
XXX
  7
ISO_PROPORTIONAL
 11
511.0
 21
33.0
 31
0.0
100
AcDbAttributeDefinition
  3
Filename
  2
FILENAME
 70
     8
 74
     2
  0
TEXT
  5
C33
330
C9FD
100
AcDbEntity
  8
FRAME_025
100
AcDbText
 10
511.0
 20
35.75
 30
0.0
 40
2.5
  1
Filename
  7
ISO_PROPORTIONAL
 11
511.0
 21
37.0
 31
0.0
100
AcDbText
 73
     2
  0
LINE
  5
C34
330
C9FD
100
AcDbEntity
  8
FRAME_070
100
AcDbLine
 10
509.0
 20
30.0
 30
0.0
 11
509.0
 21
40.0
 31
0.0
  0
TEXT
  5
C35
330
C9FD
100
AcDbEntity
  8
FRAME_025
100
AcDbText
 10
536.0
 20
41.74999999999999
 30
0.0
 40
2.5
  1
Article No./Reference
  7
ISO_PROPORTIONAL
 11
536.0
 21
43.0
 31
0.0
100
AcDbText
 73
     2
  0
LINE
  5
C36
330
C9FD
100
AcDbEntity
  8
FRAME_070
100
AcDbLine
 10
534.0
 20
40.0
 30
0.0
 11
534.0
 21
46.0
 31
0.0
  0
ATTDEF
  5
C37
330
C9FD
100
AcDbEntity
  8
FRAME_025
100
AcDbText
 10
551.0
 20
11.75
 30
0.0
 40
2.5
  1
0
  7
ISO_PROPORTIONAL
 11
551.0
 21
13.0
 31
0.0
100
AcDbAttributeDefinition
  3
Edition
  2
EDITION
 70
     8
 74
     2
  0
TEXT
  5
C38
330
C9FD
100
AcDbEntity
  8
FRAME_025
100
AcDbText
 10
551.0
 20
15.75
 30
0.0
 40
2.5
  1
Edition
  7
ISO_PROPORTIONAL
 11
551.0
 21
17.0
 31
0.0
100
AcDbText
 73
     2
  0
LINE
  5
C39
330
C9FD
100
AcDbEntity
  8
FRAME_070
100
AcDbLine
 10
549.0
 20
10.0
 30
0.0
 11
549.0
 21
20.0
 31
0.0
  0
ATTDEF
  5
C3A
330
C9FD
100
AcDbEntity
  8
FRAME_025
100
AcDbText
 10
536.0
 20
31.75
 30
0.0
 40
2.5
  1
00/00/00
  7
ISO_PROPORTIONAL
 11
536.0
 21
33.0
 31
0.0
100
AcDbAttributeDefinition
  3
Date
  2
DATE
 70
     8
 74
     2
  0
TEXT
  5
C3B
330
C9FD
100
AcDbEntity
  8
FRAME_025
100
AcDbText
 10
536.0
 20
35.75
 30
0.0
 40
2.5
  1
Date
  7
ISO_PROPORTIONAL
 11
536.0
 21
37.0
 31
0.0
100
AcDbText
 73
     2
  0
LINE
  5
C3C
330
C9FD
100
AcDbEntity
  8
FRAME_070
100
AcDbLine
 10
534.0
 20
30.0
 30
0.0
 11
534.0
 21
40.0
 31
0.0
  0
ATTDEF
  5
C3D
330
C9FD
100
AcDbEntity
  8
FRAME_025
100
AcDbText
 10
566.0
 20
11.75
 30
0.0
 40
2.5
  1
1/1
  7
ISO_PROPORTIONAL
 11
566.0
 21
13.0
 31
0.0
100
AcDbAttributeDefinition
  3
Sheet
  2
SHEET
 70
     8
 74
     2
  0
TEXT
  5
C3E
330
C9FD
100
AcDbEntity
  8
FRAME_025
100
AcDbText
 10
566.0
 20
15.75
 30
0.0
 40
2.5
  1
Sheet
  7
ISO_PROPORTIONAL
 11
566.0
 21
17.0
 31
0.0
100
AcDbText
 73
     2
  0
LINE
  5
C3F
330
C9FD
100
AcDbEntity
  8
FRAME_070
100
AcDbLine
 10
564.0
 20
10.0
 30
0.0
 11
564.0
 21
20.0
 31
0.0
  0
ATTDEF
  5
C40
330
C9FD
100
AcDbEntity
  8
FRAME_025
100
AcDbText
 10
566.0
 20
31.75
 30
0.0
 40
2.5
  1
1:1
  7
ISO_PROPORTIONAL
 11
566.0
 21
33.0
 31
0.0
100
AcDbAttributeDefinition
  3
Scale
  2
SCALE
 70
     8
 74
     2
  0
TEXT
  5
C41
330
C9FD
100
AcDbEntity
  8
FRAME_025
100
AcDbText
 10
566.0
 20
35.75
 30
0.0
 40
2.5
  1
Scale
  7
ISO_PROPORTIONAL
 11
566.0
 21
37.0
 31
0.0
100
AcDbText
 73
     2
  0
LINE
  5
C42
330
C9FD
100
AcDbEntity
  8
FRAME_070
100
AcDbLine
 10
564.0
 20
30.0
 30
0.0
 11
564.0
 21
40.0
 31
0.0
  0
LINE
  5
C43
330
C9FD
100
AcDbEntity
  8
FRAME_200
100
AcDbLine
 10
594.0
 20
0.0
 30
0.0
 11
594.0
 21
10.0
 31
0.0
  0
LINE
  5
C44
330
C9FD
100
AcDbEntity
  8
FRAME_200
100
AcDbLine
 10
594.0
 20
0.0
 30
0.0
 11
584.0
 21
0.0
 31
0.0
  0
TEXT
  5
C45
330
C9FD
100
AcDbEntity
  8
FRAME_050
100
AcDbText
 10
584.9
 20
35.0
 30
0.0
 40
4.0
  1
H
  7
ISO_PROPORTIONAL
 72
     4
 11
586.5
 21
37.0
 31
0.0
100
AcDbText
  0
LINE
  5
C46
330
C9FD
100
AcDbEntity
  8
FRAME_050
100
AcDbLine
 10
589.0
 20
60.0
 30
0.0
 11
584.0
 21
60.0
 31
0.0
  0
TEXT
  5
C47
330
C9FD
100
AcDbEntity
  8
FRAME_050
100
AcDbText
 10
585.0035533905932
 20
85.0
 30
0.0
 40
4.0
  1
G
  7
ISO_PROPORTIONAL
 72
     4
 11
586.5
 21
87.0
 31
0.0
100
AcDbText
  0
LINE
  5
C48
330
C9FD
100
AcDbEntity
  8
FRAME_050
100
AcDbLine
 10
589.0
 20
110.0
 30
0.0
 11
584.0
 21
110.0
 31
0.0
  0
TEXT
  5
C49
330
C9FD
100
AcDbEntity
  8
FRAME_050
100
AcDbText
 10
585.0999999999999
 20
135.0
 30
0.0
 40
4.0
  1
F
  7
ISO_PROPORTIONAL
 72
     4
 11
586.5
 21
137.0
 31
0.0
100
AcDbText
  0
LINE
  5
C4A
330
C9FD
100
AcDbEntity
  8
FRAME_050
100
AcDbLine
 10
589.0
 20
160.0
 30
0.0
 11
584.0
 21
160.0
 31
0.0
  0
TEXT
  5
C4B
330
C9FD
100
AcDbEntity
  8
FRAME_050
100
AcDbText
 10
585.0999999999999
 20
185.0
 30
0.0
 40
4.0
  1
E
  7
ISO_PROPORTIONAL
 72
     4
 11
586.5
 21
187.0
 31
0.0
100
AcDbText
  0
LINE
  5
C4C
330
C9FD
100
AcDbEntity
  8
FRAME_070
100
AcDbLine
 10
414.0
 20
404.0
 30
0.0
 11
584.0
 21
404.0
 31
0.0
  0
TEXT
  5
C4D
330
C9FD
100
AcDbEntity
  8
FRAME_050
100
AcDbText
 10
331.3921572875254
 20
410.5828427124746
 30
0.0
 40
4.0
  1
5
  7
ISO_PROPORTIONAL
 72
     4
 11
332.875
 21
412.5
 31
0.0
100
AcDbText
  0
LINE
  5
C4E
330
C9FD
100
AcDbEntity
  8
FRAME_050
100
AcDbLine
 10
368.75
 20
410.0
 30
0.0
 11
368.75
 21
415.0
 31
0.0
  0
TEXT
  5
C4F
330
C9FD
100
AcDbEntity
  8
FRAME_025
100
AcDbText
 10
428.0
 20
405.75
 30
0.0
 40
2.5
  1
Revision note
  7
ISO_PROPORTIONAL
 11
428.0
 21
407.0
 31
0.0
100
AcDbText
 73
     2
  0
TEXT
  5
C50
330
C9FD
100
AcDbEntity
  8
FRAME_025
100
AcDbText
 10
416.0
 20
405.75
 30
0.0
 40
2.5
  1
RevNo
  7
ISO_PROPORTIONAL
 11
416.0
 21
407.0
 31
0.0
100
AcDbText
 73
     2
  0
LINE
  5
C51
330
C9FD
100
AcDbEntity
  8
FRAME_070
100
AcDbLine
 10
426.0
 20
404.0
 30
0.0
 11
426.0
 21
410.0
 31
0.0
  0
LINE
  5
C52
330
C9FD
100
AcDbEntity
  8
FRAME_070
100
AcDbLine
 10
414.0
 20
404.0
 30
0.0
 11
414.0
 21
410.0
 31
0.0
  0
TEXT
  5
C53
330
C9FD
100
AcDbEntity
  8
FRAME_050
100
AcDbText
 10
403.2454724409448
 20
410.4102362204724
 30
0.0
 40
4.0
  1
6
  7
ISO_PROPORTIONAL
 72
     4
 11
404.6249999999999
 21
412.5
 31
0.0
100
AcDbText
  0
LINE
  5
C54
330
C9FD
100
AcDbEntity
  8
FRAME_050
100
AcDbLine
 10
440.5
 20
410.0
 30
0.0
 11
440.5
 21
415.0
 31
0.0
  0
TEXT
  5
C55
330
C9FD
100
AcDbEntity
  8
FRAME_050
100
AcDbText
 10
474.9749999999999
 20
410.5
 30
0.0
 40
4.0
  1
7
  7
ISO_PROPORTIONAL
 72
     4
 11
476.3749999999999
 21
412.5
 31
0.0
100
AcDbText
  0
LINE
  5
C56
330
C9FD
100
AcDbEntity
  8
FRAME_050
100
AcDbLine
 10
579.0
 20
210.0
 30
0.0
 11
589.0
 21
210.0
 31
0.0
  0
TEXT
  5
C57
330
C9FD
100
AcDbEntity
  8
FRAME_050
100
AcDbText
 10
584.7860912703473
 20
235.0
 30
0.0
 40
4.0
  1
D
  7
ISO_PROPORTIONAL
 72
     4
 11
586.5
 21
237.0
 31
0.0
100
AcDbText
  0
LINE
  5
C58
330
C9FD
100
AcDbEntity
  8
FRAME_050
100
AcDbLine
 10
589.0
 20
260.0
 30
0.0
 11
584.0
 21
260.0
 31
0.0
  0
TEXT
  5
C59
330
C9FD
100
AcDbEntity
  8
FRAME_050
100
AcDbText
 10
585.1931980515339
 20
285.0
 30
0.0
 40
4.0
  1
C
  7
ISO_PROPORTIONAL
 72
     4
 11
586.5
 21
287.0
 31
0.0
100
AcDbText
  0
LINE
  5
C5A
330
C9FD
100
AcDbEntity
  8
FRAME_050
100
AcDbLine
 10
589.0
 20
310.0
 30
0.0
 11
584.0
 21
310.0
 31
0.0
  0
TEXT
  5
C5B
330
C9FD
100
AcDbEntity
  8
FRAME_050
100
AcDbText
 10
584.9
 20
335.0
 30
0.0
 40
4.0
  1
B
  7
ISO_PROPORTIONAL
 72
     4
 11
586.5
 21
337.0
 31
0.0
100
AcDbText
  0
TEXT
  5
C5C
330
C9FD
100
AcDbEntity
  8
FRAME_025
100
AcDbText
 10
571.0829939185055
 20
405.75
 30
0.0
 40
2.5
  1
Checked
  7
ISO_PROPORTIONAL
 11
571.0829939185055
 21
407.0
 31
0.0
100
AcDbText
 73
     2
  0
TEXT
  5
C5D
330
C9FD
100
AcDbEntity
  8
FRAME_025
100
AcDbText
 10
555.3609979728352
 20
405.75
 30
0.0
 40
2.5
  1
Signature
  7
ISO_PROPORTIONAL
 11
555.3609979728352
 21
407.0
 31
0.0
100
AcDbText
 73
     2
  0
TEXT
  5
C5E
330
C9FD
100
AcDbEntity
  8
FRAME_025
100
AcDbText
 10
537.0
 20
405.75
 30
0.0
 40
2.5
  1
Date
  7
ISO_PROPORTIONAL
 11
537.0
 21
407.0
 31
0.0
100
AcDbText
 73
     2
  0
LINE
  5
C5F
330
C9FD
100
AcDbEntity
  8
FRAME_070
100
AcDbLine
 10
570.0
 20
404.0
 30
0.0
 11
570.0
 21
410.0
 31
0.0
  0
LINE
  5
C60
330
C9FD
100
AcDbEntity
  8
FRAME_070
100
AcDbLine
 10
555.0
 20
404.0
 30
0.0
 11
555.0
 21
410.0
 31
0.0
  0
LINE
  5
C61
330
C9FD
100
AcDbEntity
  8
FRAME_070
100
AcDbLine
 10
535.0
 20
404.0
 30
0.0
 11
535.0
 21
410.0
 31
0.0
  0
LINE
  5
C62
330
C9FD
100
AcDbEntity
  8
FRAME_050
100
AcDbLine
 10
512.25
 20
410.0
 30
0.0
 11
512.25
 21
415.0
 31
0.0
  0
TEXT
  5
C63
330
C9FD
100
AcDbEntity
  8
FRAME_050
100
AcDbText
 10
546.7249999999999
 20
410.5
 30
0.0
 40
4.0
  1
8
  7
ISO_PROPORTIONAL
 72
     4
 11
548.125
 21
412.5
 31
0.0
100
AcDbText
  0
LINE
  5
C64
330
C9FD
100
AcDbEntity
  8
FRAME_050
100
AcDbLine
 10
589.0
 20
360.0
 30
0.0
 11
584.0
 21
360.0
 31
0.0
  0
TEXT
  5
C65
330
C9FD
100
AcDbEntity
  8
FRAME_050
100
AcDbText
 10
584.7
 20
385.0
 30
0.0
 40
4.0
  1
A
  7
ISO_PROPORTIONAL
 72
     4
 11
586.5
 21
387.0
 31
0.0
100
AcDbText
  0
LINE
  5
C66
330
C9FD
100
AcDbEntity
  8
FRAME_200
100
AcDbLine
 10
594.0
 20
420.0
 30
0.0
 11
584.0
 21
420.0
 31
0.0
  0
LINE
  5
C67
330
C9FD
100
AcDbEntity
  8
FRAME_200
100
AcDbLine
 10
594.0
 20
410.0
 30
0.0
 11
594.0
 21
420.0
 31
0.0
  0
ENDBLK
  5
C69
330
C9FD
100
AcDbEntity
  8
0
100
AcDbBlockEnd
  0
BLOCK
  5
CA00
330
C9FF
100
AcDbEntity
  8
0
100
AcDbBlockBegin
  2
WOBB001END
 70
     0
 10
0.0
 20
0.0
 30
0.0
  3
WOBB001END
  1

  0
LINE
  5
4D66
330
C9FF
100
AcDbEntity
  8
0
  6
Continuous
100
AcDbLine
 10
0.0
 20
0.0
 30
0.0
 11
0.8749999999999998
 21
0.0
 31
0.0
  0
ARC
  5
4D67
330
C9FF
100
AcDbEntity
  8
0
  6
Continuous
100
AcDbCircle
 10
0.0331648379439287
 20
-0.5087238935900233
 30
0.0
 40
0.8790130605592324
100
AcDbArc
 50
284.0649024366044
 51
312.1922298192436
  0
ARC
  5
4D68
330
C9FF
100
AcDbEntity
  8
0
  6
Continuous
100
AcDbCircle
 10
0.2841534338796767
 20
-1.510548310625538
 30
0.0
 40
0.1537731892806598
100
AcDbArc
 50
104.0649024366044
 51
179.4721730735024
  0
LINE
  5
4D69
330
C9FF
100
AcDbEntity
  8
0
  6
Continuous
100
AcDbLine
 10
0.0
 20
0.0
 30
0.0
 11
-0.0000000000000003
 21
-1.750156447666191
 31
0.0
  0
ARC
  5
4D6A
330
C9FF
100
AcDbEntity
  8
0
  6
Continuous
100
AcDbCircle
 10
0.1404622019506122
 20
-1.630313718354619
 30
0.0
 40
0.1198427293115722
100
AcDbArc
 50
275.0
 51
85.00000000000005
  0
LINE
  5
4D6B
330
C9FF
100
AcDbEntity
  8
0
  6
Continuous
100
AcDbLine
 10
-0.0000000000000003
 20
-1.750156447666191
 30
0.0
 11
0.1456946485130855
 21
-1.750156447666191
 31
0.0
  0
LINE
  5
4D6C
330
C9FF
100
AcDbEntity
  8
0
  6
Continuous
100
AcDbLine
 10
0.1377603739254348
 20
-1.750850606745913
 30
0.0
 11
0.150907184036669
 21
-1.749700409899651
 31
0.0
  0
LINE
  5
4D6D
330
C9FF
100
AcDbEntity
  8
0
  6
Continuous
100
AcDbLine
 10
0.1303867696719884
 20
-1.509131723181823
 30
0.0
 11
0.1509071840366689
 21
-1.510927026809586
 31
0.0
  0
LINE
  5
4D6E
330
C9FF
100
AcDbEntity
  8
0
  6
Continuous
100
AcDbLine
 10
0.8749999999999998
 20
0.0
 30
0.0
 11
0.8749999999999996
 21
-0.8649327026588228
 31
0.0
  0
LINE
  5
4D6F
330
C9FF
100
AcDbEntity
  8
0
  6
Continuous
100
AcDbLine
 10
0.727014513830997
 20
-0.872688293355061
 30
0.0
 11
0.727014513830997
 21
-0.9264923397184784
 31
0.0
  0
ARC
  5
4D70
330
C9FF
100
AcDbEntity
  8
0
  6
Continuous
100
AcDbCircle
 10
0.41187090827646
 20
-0.9264923397184784
 30
0.0
 40
0.3151436055545369
100
AcDbArc
 50
312.1922298192436
 51
0.0
  0
LINE
  5
4D71
330
C9FF
100
AcDbEntity
  8
0
  6
Continuous
100
AcDbLine
 10
0.727014513830997
 20
-0.872688293355061
 30
0.0
 11
0.8749999999999996
 21
-0.8649327026588228
 31
0.0
  0
ENDBLK
  5
4D72
330
C9FF
100
AcDbEntity
  8
0
100
AcDbBlockEnd
  0
BLOCK
  5
CA02
330
CA01
100
AcDbEntity
  8
0
100
AcDbBlockBegin
  2
A$C0A61123B
 70
     0
 10
0.0
 20
0.0
 30
0.0
  3
A$C0A61123B
  1

  0
LINE
  5
C0AD
330
CA01
100
AcDbEntity
  8
PROF
  6
Continuous
100
AcDbLine
 10
4.901201679869416
 20
13.32502585335089
 30
0.0000000000000002
 11
4.901201679869416
 21
12.88585218805485
 31
0.0000000000000003
  0
INSERT
  5
C0AE
330
CA01
100
AcDbEntity
  8
0
100
AcDbBlockReference
  2
*U7
 10
0.0
 20
0.0
 30
0.0
  0
LINE
  5
C0AF
330
CA01
100
AcDbEntity
  8
PROF
100
AcDbLine
 10
4.519857503186925
 20
12.72227734589444
 30
0.0000000000000001
 11
4.519857503186925
 21
12.88585218805485
 31
0.0000000000000001
  0
LINE
  5
C0B0
330
CA01
100
AcDbEntity
  8
PROF
  6
Continuous
100
AcDbLine
 10
3.630627119588836
 20
13.32502585335089
 30
0.0000000000000002
 11
4.901201679869416
 21
13.32502585335089
 31
0.0000000000000002
  0
LINE
  5
C0B1
330
CA01
100
AcDbEntity
  8
PROF
100
AcDbLine
 10
1.975029514874734
 20
10.37671325491794
 30
0.0000000000000002
 11
1.975029514874734
 21
10.11391186758919
 31
0.0000000000000002
  0
LINE
  5
C0B2
330
CA01
100
AcDbEntity
  8
PROF
100
AcDbLine
 10
1.60796733575563
 20
10.11391186758919
 30
0.0000000000000001
 11
1.975029514874734
 21
10.11391186758919
 31
0.0000000000000001
  0
LINE
  5
C0B3
330
CA01
100
AcDbEntity
  8
PROF
100
AcDbLine
 10
1.975029514874734
 20
10.11391186758919
 30
0.0000000000000001
 11
1.944958486898144
 21
10.11391186758919
 31
0.0000000000000001
  0
LINE
  5
C0B4
330
CA01
100
AcDbEntity
  8
PROF
100
AcDbLine
 10
1.975029514874734
 20
10.11391186758919
 30
0.0000000000000001
 11
1.944958486898144
 21
10.11391186758919
 31
0.0000000000000001
  0
LINE
  5
C0B5
330
CA01
100
AcDbEntity
  8
PROF
100
AcDbLine
 10
0.3222605517169654
 20
7.524747335105645
 30
-0.0000000000000002
 11
-0.0000008570117416
 21
7.524747335105645
 31
0.0
  0
LINE
  5
C0B6
330
CA01
100
AcDbEntity
  8
PROF
100
AcDbLine
 10
-0.0000008570117416
 20
7.524747335105645
 30
0.0
 11
-0.0000008570117416
 21
9.194333695736984
 31
0.0
  0
POLYLINE
  5
C0B7
330
CA01
100
AcDbEntity
  8
PROF
100
AcDb2dPolyline
 66
     1
 10
0.0
 20
0.0
 30
0.0000000000000001
 70
     4
 75
     6
  0
VERTEX
  5
C0B8
330
C0B7
100
AcDbEntity
  8
PROF
100
AcDbVertex
100
AcDb2dVertex
 10
1.60796733575563
 20
10.11391186758919
 30
0.0000000000000001
 70
    16
  0
VERTEX
  5
C0B9
330
C0B7
100
AcDbEntity
  8
PROF
100
AcDbVertex
100
AcDb2dVertex
 10
1.60796733575563
 20
10.11391186758919
 30
0.0000000000000001
 70
     8
  0
VERTEX
  5
C0BA
330
C0B7
100
AcDbEntity
  8
PROF
100
AcDbVertex
100
AcDb2dVertex
 10
1.646813232648581
 20
10.02198069336111
 30
0.0000000000000001
 70
     8
  0
VERTEX
  5
C0BB
330
C0B7
100
AcDbEntity
  8
PROF
100
AcDbVertex
100
AcDb2dVertex
 10
1.67335966680929
 20
9.934413416301024
 30
0.0000000000000001
 70
     8
  0
VERTEX
  5
C0BC
330
C0B7
100
AcDbEntity
  8
PROF
100
AcDbVertex
100
AcDb2dVertex
 10
1.689008640046323
 20
9.851257664448096
 30
0.0000000000000001
 70
     8
  0
VERTEX
  5
C0BD
330
C0B7
100
AcDbEntity
  8
PROF
100
AcDbVertex
100
AcDb2dVertex
 10
1.695162154168257
 20
9.772561065841728
 30
0.0000000000000001
 70
     8
  0
VERTEX
  5
C0BE
330
C0B7
100
AcDbEntity
  8
PROF
100
AcDbVertex
100
AcDb2dVertex
 10
1.693222210983605
 20
9.698371248521423
 30
0.0000000000000001
 70
     8
  0
VERTEX
  5
C0BF
330
C0B7
100
AcDbEntity
  8
PROF
100
AcDbVertex
100
AcDb2dVertex
 10
1.684590812300996
 20
9.62873584052636
 30
0.0000000000000001
 70
     8
  0
VERTEX
  5
C0C0
330
C0B7
100
AcDbEntity
  8
PROF
100
AcDbVertex
100
AcDb2dVertex
 10
1.670669959928885
 20
9.563702469896044
 30
0.0000000000000001
 70
     8
  0
VERTEX
  5
C0C1
330
C0B7
100
AcDbEntity
  8
PROF
100
AcDbVertex
100
AcDb2dVertex
 10
1.652861655675962
 20
9.503318764669755
 30
0.0000000000000001
 70
     8
  0
VERTEX
  5
C0C2
330
C0B7
100
AcDbEntity
  8
PROF
100
AcDbVertex
100
AcDb2dVertex
 10
1.632356299273054
 20
9.447584325965069
 30
0.0000000000000001
 70
     8
  0
VERTEX
  5
C0C3
330
C0B7
100
AcDbEntity
  8
PROF
100
AcDbVertex
100
AcDb2dVertex
 10
1.609497882140658
 20
9.396306647212327
 30
0.0000000000000001
 70
     8
  0
VERTEX
  5
C0C4
330
C0B7
100
AcDbEntity
  8
PROF
100
AcDbVertex
100
AcDb2dVertex
 10
1.584418793621637
 20
9.349245194920284
 30
0.0000000000000001
 70
     8
  0
VERTEX
  5
C0C5
330
C0B7
100
AcDbEntity
  8
PROF
100
AcDbVertex
100
AcDb2dVertex
 10
1.557251423058743
 20
9.306159435597235
 30
0.0000000000000001
 70
     8
  0
VERTEX
  5
C0C6
330
C0B7
100
AcDbEntity
  8
PROF
100
AcDbVertex
100
AcDb2dVertex
 10
1.52812815979496
 20
9.266808835751927
 30
0.0000000000000001
 70
     8
  0
VERTEX
  5
C0C7
330
C0B7
100
AcDbEntity
  8
PROF
100
AcDbVertex
100
AcDb2dVertex
 10
1.497181393172978
 20
9.230952861892999
 30
0.0000000000000001
 70
     8
  0
VERTEX
  5
C0C8
330
C0B7
100
AcDbEntity
  8
PROF
100
AcDbVertex
100
AcDb2dVertex
 10
1.464543512535725
 20
9.198350980528855
 30
0.0000000000000001
 70
     8
  0
VERTEX
  5
C0C9
330
C0B7
100
AcDbEntity
  8
PROF
100
AcDbVertex
100
AcDb2dVertex
 10
1.430346907226009
 20
9.168762658168246
 30
0.0000000000000001
 70
     8
  0
VERTEX
  5
C0CA
330
C0B7
100
AcDbEntity
  8
PROF
100
AcDbVertex
100
AcDb2dVertex
 10
1.394736033257401
 20
9.141954791867533
 30
0.0000000000000001
 70
     8
  0
VERTEX
  5
C0CB
330
C0B7
100
AcDbEntity
  8
PROF
100
AcDbVertex
100
AcDb2dVertex
 10
1.357903613326413
 20
9.117724000874771
 30
0.0000000000000001
 70
     8
  0
VERTEX
  5
C0CC
330
C0B7
100
AcDbEntity
  8
PROF
100
AcDbVertex
100
AcDb2dVertex
 10
1.320054436800432
 20
9.095874334986092
 30
0.0000000000000001
 70
     8
  0
VERTEX
  5
C0CD
330
C0B7
100
AcDbEntity
  8
PROF
100
AcDbVertex
100
AcDb2dVertex
 10
1.281393293046676
 20
9.076209843997503
 30
0.0000000000000001
 70
     8
  0
VERTEX
  5
C0CE
330
C0B7
100
AcDbEntity
  8
PROF
100
AcDbVertex
100
AcDb2dVertex
 10
1.242124971432416
 20
9.058534577704904
 30
0.0000000000000001
 70
     8
  0
VERTEX
  5
C0CF
330
C0B7
100
AcDbEntity
  8
PROF
100
AcDbVertex
100
AcDb2dVertex
 10
1.202454261324986
 20
9.042652585904418
 30
0.0000000000000001
 70
     8
  0
VERTEX
  5
C0D0
330
C0B7
100
AcDbEntity
  8
PROF
100
AcDbVertex
100
AcDb2dVertex
 10
1.162585952091659
 20
9.02836791839195
 30
0.0000000000000001
 70
     8
  0
VERTEX
  5
C0D1
330
C0B7
100
AcDbEntity
  8
PROF
100
AcDbVertex
100
AcDb2dVertex
 10
1.122724833099709
 20
9.015484624963503
 30
0.0000000000000001
 70
     8
  0
VERTEX
  5
C0D2
330
C0B7
100
AcDbEntity
  8
PROF
100
AcDbVertex
100
AcDb2dVertex
 10
1.0829726247361
 20
9.003464386246605
 30
0.0000000000000001
 70
     8
  0
VERTEX
  5
C0D3
330
C0B7
100
AcDbEntity
  8
PROF
100
AcDbVertex
100
AcDb2dVertex
 10
1.043018771466222
 20
8.990399406194683
 30
0.0000000000000001
 70
     8
  0
VERTEX
  5
C0D4
330
C0B7
100
AcDbEntity
  8
PROF
100
AcDbVertex
100
AcDb2dVertex
 10
1.002449648775211
 20
8.974039519592563
 30
0.0000000000000001
 70
     8
  0
VERTEX
  5
C0D5
330
C0B7
100
AcDbEntity
  8
PROF
100
AcDbVertex
100
AcDb2dVertex
 10
0.9608516321480919
 20
8.952134561225193
 30
0.0000000000000001
 70
     8
  0
VERTEX
  5
C0D6
330
C0B7
100
AcDbEntity
  8
PROF
100
AcDbVertex
100
AcDb2dVertex
 10
0.9178110970699435
 20
8.922434365877505
 30
0.0000000000000001
 70
     8
  0
VERTEX
  5
C0D7
330
C0B7
100
AcDbEntity
  8
PROF
100
AcDbVertex
100
AcDb2dVertex
 10
0.8729144190259033
 20
8.882688768334331
 30
0.0000000000000001
 70
     8
  0
VERTEX
  5
C0D8
330
C0B7
100
AcDbEntity
  8
PROF
100
AcDbVertex
100
AcDb2dVertex
 10
0.8257479735009949
 20
8.830647603380612
 30
0.0000000000000001
 70
     8
  0
VERTEX
  5
C0D9
330
C0B7
100
AcDbEntity
  8
PROF
100
AcDbVertex
100
AcDb2dVertex
 10
0.7758981359802988
 20
8.764060705801171
 30
0.0000000000000001
 70
     8
  0
VERTEX
  5
C0DA
330
C0B7
100
AcDbEntity
  8
PROF
100
AcDbVertex
100
AcDb2dVertex
 10
1.729201901609655
 20
9.862985876125549
 30
0.0000000000000001
 70
    16
  0
VERTEX
  5
C0DB
330
C0B7
100
AcDbEntity
  8
PROF
100
AcDbVertex
100
AcDb2dVertex
 10
1.679373123114088
 20
9.453214301273421
 30
0.0000000000000001
 70
    16
  0
VERTEX
  5
C0DC
330
C0B7
100
AcDbEntity
  8
PROF
100
AcDbVertex
100
AcDb2dVertex
 10
1.44556115074198
 20
9.139183719373248
 30
0.0000000000000001
 70
    16
  0
VERTEX
  5
C0DD
330
C0B7
100
AcDbEntity
  8
PROF
100
AcDbVertex
100
AcDb2dVertex
 10
1.12046371727382
 20
9.002626770242841
 30
0.0000000000000001
 70
    16
  0
VERTEX
  5
C0DE
330
C0B7
100
AcDbEntity
  8
PROF
100
AcDbVertex
100
AcDb2dVertex
 10
0.9127765582653637
 20
8.96302022303837
 30
0.0000000000000001
 70
    16
  0
VERTEX
  5
C0DF
330
C0B7
100
AcDbEntity
  8
PROF
100
AcDbVertex
100
AcDb2dVertex
 10
0.7758981359802988
 20
8.764060705801171
 30
0.0000000000000001
 70
    16
  0
SEQEND
  5
C0E0
330
C0B7
100
AcDbEntity
  8
PROF
  0
ARC
  5
C0E1
330
CA01
100
AcDbEntity
  8
PROF
100
AcDbCircle
 10
0.733429816733235
 20
8.484950695216525
 30
0.0000000000000001
 40
0.2823224329524727
100
AcDbArc
 50
269.736520208319
 51
81.34844999317691
  0
LINE
  5
C0E2
330
CA01
100
AcDbEntity
  8
PROF
  6
Continuous
100
AcDbLine
 10
-0.0000008570117416
 20
9.194333695736984
 30
-0.0000000000000001
 11
3.630627119588836
 21
13.32502585335089
 31
0.0000000000000002
  0
POLYLINE
  5
C0E3
330
CA01
100
AcDbEntity
  8
PROF
100
AcDb2dPolyline
 66
     1
 10
0.0
 20
0.0
 30
0.0000000000000001
 70
     4
 75
     6
  0
VERTEX
  5
C0E4
330
C0E3
100
AcDbEntity
  8
PROF
100
AcDbVertex
100
AcDb2dVertex
 10
4.519857503186925
 20
12.72227734589444
 30
0.0000000000000001
 70
    16
  0
VERTEX
  5
C0E5
330
C0E3
100
AcDbEntity
  8
PROF
100
AcDbVertex
100
AcDb2dVertex
 10
4.519857503186925
 20
12.72227734589444
 30
0.0000000000000001
 70
     8
  0
VERTEX
  5
C0E6
330
C0E3
100
AcDbEntity
  8
PROF
100
AcDbVertex
100
AcDb2dVertex
 10
4.446703536688629
 20
12.74112810877807
 30
0.0000000000000001
 70
     8
  0
VERTEX
  5
C0E7
330
C0E3
100
AcDbEntity
  8
PROF
100
AcDbVertex
100
AcDb2dVertex
 10
4.37866457612688
 20
12.75467526991394
 30
0.0000000000000001
 70
     8
  0
VERTEX
  5
C0E8
330
C0E3
100
AcDbEntity
  8
PROF
100
AcDbVertex
100
AcDb2dVertex
 10
4.315436411144047
 20
12.76334314092332
 30
0.0000000000000001
 70
     8
  0
VERTEX
  5
C0E9
330
C0E3
100
AcDbEntity
  8
PROF
100
AcDbVertex
100
AcDb2dVertex
 10
4.256714831382566
 20
12.76755603342724
 30
0.0000000000000001
 70
     8
  0
VERTEX
  5
C0EA
330
C0E3
100
AcDbEntity
  8
PROF
100
AcDbVertex
100
AcDb2dVertex
 10
4.202195626484979
 20
12.76773825904672
 30
0.0000000000000001
 70
     8
  0
VERTEX
  5
C0EB
330
C0E3
100
AcDbEntity
  8
PROF
100
AcDbVertex
100
AcDb2dVertex
 10
4.151574586093544
 20
12.76431412940314
 30
0.0000000000000001
 70
     8
  0
VERTEX
  5
C0EC
330
C0E3
100
AcDbEntity
  8
PROF
100
AcDbVertex
100
AcDb2dVertex
 10
4.104547499850865
 20
12.75770795611743
 30
0.0000000000000001
 70
     8
  0
VERTEX
  5
C0ED
330
C0E3
100
AcDbEntity
  8
PROF
100
AcDbVertex
100
AcDb2dVertex
 10
4.060810157399315
 20
12.74834405081083
 30
0.0000000000000001
 70
     8
  0
VERTEX
  5
C0EE
330
C0E3
100
AcDbEntity
  8
PROF
100
AcDbVertex
100
AcDb2dVertex
 10
4.020058348381326
 20
12.73664672510449
 30
0.0000000000000001
 70
     8
  0
VERTEX
  5
C0EF
330
C0E3
100
AcDbEntity
  8
PROF
100
AcDbVertex
100
AcDb2dVertex
 10
3.981987862439381
 20
12.72304029061945
 30
0.0000000000000001
 70
     8
  0
VERTEX
  5
C0F0
330
C0E3
100
AcDbEntity
  8
PROF
100
AcDbVertex
100
AcDb2dVertex
 10
3.946294489215858
 20
12.70794905897696
 30
0.0000000000000001
 70
     8
  0
VERTEX
  5
C0F1
330
C0E3
100
AcDbEntity
  8
PROF
100
AcDbVertex
100
AcDb2dVertex
 10
3.912674018353242
 20
12.69179734179806
 30
0.0000000000000001
 70
     8
  0
VERTEX
  5
C0F2
330
C0E3
100
AcDbEntity
  8
PROF
100
AcDbVertex
100
AcDb2dVertex
 10
3.88086383507425
 20
12.67494295718654
 30
0.0000000000000001
 70
     8
  0
VERTEX
  5
C0F3
330
C0E3
100
AcDbEntity
  8
PROF
100
AcDbVertex
100
AcDb2dVertex
 10
3.850767706922738
 20
12.65747774917668
 30
0.0000000000000001
 70
     8
  0
VERTEX
  5
C0F4
330
C0E3
100
AcDbEntity
  8
PROF
100
AcDbVertex
100
AcDb2dVertex
 10
3.822330997022844
 20
12.6394270682855
 30
0.0000000000000001
 70
     8
  0
VERTEX
  5
C0F5
330
C0E3
100
AcDbEntity
  8
PROF
100
AcDbVertex
100
AcDb2dVertex
 10
3.795499068498712
 20
12.62081626503004
 30
0.0000000000000001
 70
     8
  0
VERTEX
  5
C0F6
330
C0E3
100
AcDbEntity
  8
PROF
100
AcDbVertex
100
AcDb2dVertex
 10
3.770217284474482
 20
12.601670689927
 30
0.0000000000000001
 70
     8
  0
VERTEX
  5
C0F7
330
C0E3
100
AcDbEntity
  8
PROF
100
AcDbVertex
100
AcDb2dVertex
 10
3.746431008074352
 20
12.58201569349364
 30
0.0000000000000001
 70
     8
  0
VERTEX
  5
C0F8
330
C0E3
100
AcDbEntity
  8
PROF
100
AcDbVertex
100
AcDb2dVertex
 10
3.724085602422461
 20
12.56187662624666
 30
0.0000000000000001
 70
     8
  0
VERTEX
  5
C0F9
330
C0E3
100
AcDbEntity
  8
PROF
100
AcDbVertex
100
AcDb2dVertex
 10
3.703126430642896
 20
12.54127883870319
 30
0.0000000000000001
 70
     8
  0
VERTEX
  5
C0FA
330
C0E3
100
AcDbEntity
  8
PROF
100
AcDbVertex
100
AcDb2dVertex
 10
3.683498855859908
 20
12.52024768138005
 30
0.0000000000000001
 70
     8
  0
VERTEX
  5
C0FB
330
C0E3
100
AcDbEntity
  8
PROF
100
AcDbVertex
100
AcDb2dVertex
 10
3.665148241197528
 20
12.49880850479428
 30
0.0000000000000001
 70
     8
  0
VERTEX
  5
C0FC
330
C0E3
100
AcDbEntity
  8
PROF
100
AcDbVertex
100
AcDb2dVertex
 10
3.648019949779949
 20
12.47698665946279
 30
0.0000000000000001
 70
     8
  0
VERTEX
  5
C0FD
330
C0E3
100
AcDbEntity
  8
PROF
100
AcDbVertex
100
AcDb2dVertex
 10
3.632059344731316
 20
12.45480749590263
 30
0.0000000000000001
 70
     8
  0
VERTEX
  5
C0FE
330
C0E3
100
AcDbEntity
  8
PROF
100
AcDbVertex
100
AcDb2dVertex
 10
3.617189584886658
 20
12.43223790353807
 30
0.0000000000000001
 70
     8
  0
VERTEX
  5
C0FF
330
C0E3
100
AcDbEntity
  8
PROF
100
AcDbVertex
100
AcDb2dVertex
 10
3.603245011924285
 20
12.40901092742285
 30
0.0000000000000001
 70
     8
  0
VERTEX
  5
C100
330
C0E3
100
AcDbEntity
  8
PROF
100
AcDbVertex
100
AcDb2dVertex
 10
3.590037763233453
 20
12.38480115151844
 30
0.0000000000000001
 70
     8
  0
VERTEX
  5
C101
330
C0E3
100
AcDbEntity
  8
PROF
100
AcDbVertex
100
AcDb2dVertex
 10
3.577379976203303
 20
12.35928315978594
 30
0.0000000000000001
 70
     8
  0
VERTEX
  5
C102
330
C0E3
100
AcDbEntity
  8
PROF
100
AcDbVertex
100
AcDb2dVertex
 10
3.56508378822309
 20
12.33213153618658
 30
0.0000000000000001
 70
     8
  0
VERTEX
  5
C103
330
C0E3
100
AcDbEntity
  8
PROF
100
AcDbVertex
100
AcDb2dVertex
 10
3.552961336681959
 20
12.30302086468157
 30
0.0000000000000001
 70
     8
  0
VERTEX
  5
C104
330
C0E3
100
AcDbEntity
  8
PROF
100
AcDbVertex
100
AcDb2dVertex
 10
3.540824758969165
 20
12.27162572923237
 30
0.0000000000000001
 70
     8
  0
VERTEX
  5
C105
330
C0E3
100
AcDbEntity
  8
PROF
100
AcDbVertex
100
AcDb2dVertex
 10
3.528486192473848
 20
12.23762071379997
 30
0.0000000000000001
 70
     8
  0
VERTEX
  5
C106
330
C0E3
100
AcDbEntity
  8
PROF
100
AcDbVertex
100
AcDb2dVertex
 10
3.515757774585266
 20
12.20068040234571
 30
0.0000000000000001
 70
     8
  0
VERTEX
  5
C107
330
C0E3
100
AcDbEntity
  8
PROF
100
AcDbVertex
100
AcDb2dVertex
 10
3.502451642692618
 20
12.16047937883093
 30
0.0000000000000001
 70
     8
  0
VERTEX
  5
C108
330
C0E3
100
AcDbEntity
  8
PROF
100
AcDbVertex
100
AcDb2dVertex
 10
3.488379934185104
 20
12.11669222721662
 30
0.0000000000000001
 70
     8
  0
VERTEX
  5
C109
330
C0E3
100
AcDbEntity
  8
PROF
100
AcDbVertex
100
AcDb2dVertex
 10
3.47335478645192
 20
12.06899353146423
 30
0.0000000000000001
 70
     8
  0
VERTEX
  5
C10A
330
C0E3
100
AcDbEntity
  8
PROF
100
AcDbVertex
100
AcDb2dVertex
 10
3.45723654619428
 20
12.0172095445447
 30
0.0000000000000001
 70
     8
  0
VERTEX
  5
C10B
330
C0E3
100
AcDbEntity
  8
PROF
100
AcDbVertex
100
AcDb2dVertex
 10
3.440078397361388
 20
11.9617731954678
 30
0.0000000000000001
 70
     8
  0
VERTEX
  5
C10C
330
C0E3
100
AcDbEntity
  8
PROF
100
AcDbVertex
100
AcDb2dVertex
 10
3.421981733214578
 20
11.90326908225302
 30
0.0000000000000001
 70
     8
  0
VERTEX
  5
C10D
330
C0E3
100
AcDbEntity
  8
PROF
100
AcDbVertex
100
AcDb2dVertex
 10
3.40304794701501
 20
11.84228180291995
 30
0.0000000000000001
 70
     8
  0
VERTEX
  5
C10E
330
C0E3
100
AcDbEntity
  8
PROF
100
AcDbVertex
100
AcDb2dVertex
 10
3.383378432024017
 20
11.77939595548798
 30
0.0000000000000001
 70
     8
  0
VERTEX
  5
C10F
330
C0E3
100
AcDbEntity
  8
PROF
100
AcDbVertex
100
AcDb2dVertex
 10
3.36307458150287
 20
11.7151961379768
 30
0.0000000000000001
 70
     8
  0
VERTEX
  5
C110
330
C0E3
100
AcDbEntity
  8
PROF
100
AcDbVertex
100
AcDb2dVertex
 10
3.342237788712735
 20
11.65026694840583
 30
0.0000000000000001
 70
     8
  0
VERTEX
  5
C111
330
C0E3
100
AcDbEntity
  8
PROF
100
AcDbVertex
100
AcDb2dVertex
 10
3.320969446914999
 20
11.58519298479461
 30
0.0000000000000001
 70
     8
  0
VERTEX
  5
C112
330
C0E3
100
AcDbEntity
  8
PROF
100
AcDbVertex
100
AcDb2dVertex
 10
3.299370949370767
 20
11.52055884516254
 30
0.0000000000000001
 70
     8
  0
VERTEX
  5
C113
330
C0E3
100
AcDbEntity
  8
PROF
100
AcDbVertex
100
AcDb2dVertex
 10
3.277543689341428
 20
11.45694912752946
 30
0.0000000000000001
 70
     8
  0
VERTEX
  5
C114
330
C0E3
100
AcDbEntity
  8
PROF
100
AcDbVertex
100
AcDb2dVertex
 10
3.25558906008814
 20
11.3949484299145
 30
0.0000000000000001
 70
     8
  0
VERTEX
  5
C115
330
C0E3
100
AcDbEntity
  8
PROF
100
AcDbVertex
100
AcDb2dVertex
 10
3.233608454872181
 20
11.33514135033749
 30
0.0000000000000001
 70
     8
  0
VERTEX
  5
C116
330
C0E3
100
AcDbEntity
  8
PROF
100
AcDbVertex
100
AcDb2dVertex
 10
3.211671564121218
 20
11.27799544797777
 30
0.0000000000000001
 70
     8
  0
VERTEX
  5
C117
330
C0E3
100
AcDbEntity
  8
PROF
100
AcDbVertex
100
AcDb2dVertex
 10
3.189721266927846
 20
11.22351012665467
 30
0.0000000000000001
 70
     8
  0
VERTEX
  5
C118
330
C0E3
100
AcDbEntity
  8
PROF
100
AcDbVertex
100
AcDb2dVertex
 10
3.167668739551288
 20
11.17156775134765
 30
0.0000000000000001
 70
     8
  0
VERTEX
  5
C119
330
C0E3
100
AcDbEntity
  8
PROF
100
AcDbVertex
100
AcDb2dVertex
 10
3.145425158250532
 20
11.12205068703588
 30
0.0000000000000001
 70
     8
  0
VERTEX
  5
C11A
330
C0E3
100
AcDbEntity
  8
PROF
100
AcDbVertex
100
AcDb2dVertex
 10
3.122901699284625
 20
11.07484129869874
 30
0.0000000000000001
 70
     8
  0
VERTEX
  5
C11B
330
C0E3
100
AcDbEntity
  8
PROF
100
AcDbVertex
100
AcDb2dVertex
 10
3.100009538912728
 20
11.02982195131551
 30
0.0000000000000001
 70
     8
  0
VERTEX
  5
C11C
330
C0E3
100
AcDbEntity
  8
PROF
100
AcDbVertex
100
AcDb2dVertex
 10
3.07665985339389
 20
10.98687500986568
 30
0.0000000000000001
 70
     8
  0
VERTEX
  5
C11D
330
C0E3
100
AcDbEntity
  8
PROF
100
AcDbVertex
100
AcDb2dVertex
 10
3.052763818987159
 20
10.9458828393283
 30
0.0000000000000001
 70
     8
  0
VERTEX
  5
C11E
330
C0E3
100
AcDbEntity
  8
PROF
100
AcDbVertex
100
AcDb2dVertex
 10
3.028232611951636
 20
10.90672780468298
 30
0.0000000000000001
 70
     8
  0
VERTEX
  5
C11F
330
C0E3
100
AcDbEntity
  8
PROF
100
AcDbVertex
100
AcDb2dVertex
 10
3.00297740854637
 20
10.86929227090877
 30
0.0000000000000001
 70
     8
  0
VERTEX
  5
C120
330
C0E3
100
AcDbEntity
  8
PROF
100
AcDbVertex
100
AcDb2dVertex
 10
2.976909385030409
 20
10.83345860298516
 30
0.0000000000000001
 70
     8
  0
VERTEX
  5
C121
330
C0E3
100
AcDbEntity
  8
PROF
100
AcDbVertex
100
AcDb2dVertex
 10
2.949939717662856
 20
10.79910916589142
 30
0.0000000000000001
 70
     8
  0
VERTEX
  5
C122
330
C0E3
100
AcDbEntity
  8
PROF
100
AcDbVertex
100
AcDb2dVertex
 10
2.922000609840437
 20
10.76614363969508
 30
0.0000000000000001
 70
     8
  0
VERTEX
  5
C123
330
C0E3
100
AcDbEntity
  8
PROF
100
AcDbVertex
100
AcDb2dVertex
 10
2.8931083735103
 20
10.7345309648158
 30
0.0000000000000001
 70
     8
  0
VERTEX
  5
C124
330
C0E3
100
AcDbEntity
  8
PROF
100
AcDbVertex
100
AcDb2dVertex
 10
2.863300347757273
 20
10.70425739676193
 30
0.0000000000000001
 70
     8
  0
VERTEX
  5
C125
330
C0E3
100
AcDbEntity
  8
PROF
100
AcDbVertex
100
AcDb2dVertex
 10
2.832613871666069
 20
10.67530919104115
 30
0.0000000000000001
 70
     8
  0
VERTEX
  5
C126
330
C0E3
100
AcDbEntity
  8
PROF
100
AcDbVertex
100
AcDb2dVertex
 10
2.801086284321626
 20
10.64767260316171
 30
0.0000000000000001
 70
     8
  0
VERTEX
  5
C127
330
C0E3
100
AcDbEntity
  8
PROF
100
AcDbVertex
100
AcDb2dVertex
 10
2.768754924808716
 20
10.62133388863162
 30
0.0000000000000001
 70
     8
  0
VERTEX
  5
C128
330
C0E3
100
AcDbEntity
  8
PROF
100
AcDbVertex
100
AcDb2dVertex
 10
2.735657132212053
 20
10.5962793029588
 30
0.0000000000000001
 70
     8
  0
VERTEX
  5
C129
330
C0E3
100
AcDbEntity
  8
PROF
100
AcDbVertex
100
AcDb2dVertex
 10
2.70183024561652
 20
10.57249510165138
 30
0.0000000000000001
 70
     8
  0
VERTEX
  5
C12A
330
C0E3
100
AcDbEntity
  8
PROF
100
AcDbVertex
100
AcDb2dVertex
 10
2.667311604106884
 20
10.54996754021726
 30
0.0000000000000001
 70
     8
  0
VERTEX
  5
C12B
330
C0E3
100
AcDbEntity
  8
PROF
100
AcDbVertex
100
AcDb2dVertex
 10
2.632138546768032
 20
10.52868287416458
 30
0.0000000000000001
 70
     8
  0
VERTEX
  5
C12C
330
C0E3
100
AcDbEntity
  8
PROF
100
AcDbVertex
100
AcDb2dVertex
 10
2.596348412684618
 20
10.50862735900125
 30
0.0000000000000001
 70
     8
  0
VERTEX
  5
C12D
330
C0E3
100
AcDbEntity
  8
PROF
100
AcDbVertex
100
AcDb2dVertex
 10
2.559978540941584
 20
10.48978725023528
 30
0.0000000000000001
 70
     8
  0
VERTEX
  5
C12E
330
C0E3
100
AcDbEntity
  8
PROF
100
AcDbVertex
100
AcDb2dVertex
 10
2.522998630314361
 20
10.47216223428108
 30
0.0000000000000001
 70
     8
  0
VERTEX
  5
C12F
330
C0E3
100
AcDbEntity
  8
PROF
100
AcDbVertex
100
AcDb2dVertex
 10
2.485107818340907
 20
10.45580572117762
 30
0.0000000000000001
 70
     8
  0
VERTEX
  5
C130
330
C0E3
100
AcDbEntity
  8
PROF
100
AcDbVertex
100
AcDb2dVertex
 10
2.445937602249898
 20
10.44078455187036
 30
0.0000000000000001
 70
     8
  0
VERTEX
  5
C131
330
C0E3
100
AcDbEntity
  8
PROF
100
AcDbVertex
100
AcDb2dVertex
 10
2.405119479270125
 20
10.42716556730465
 30
0.0000000000000001
 70
     8
  0
VERTEX
  5
C132
330
C0E3
100
AcDbEntity
  8
PROF
100
AcDbVertex
100
AcDb2dVertex
 10
2.362284946630154
 20
10.41501560842585
 30
0.0000000000000001
 70
     8
  0
VERTEX
  5
C133
330
C0E3
100
AcDbEntity
  8
PROF
100
AcDbVertex
100
AcDb2dVertex
 10
2.317065501558714
 20
10.40440151617929
 30
0.0000000000000001
 70
     8
  0
VERTEX
  5
C134
330
C0E3
100
AcDbEntity
  8
PROF
100
AcDbVertex
100
AcDb2dVertex
 10
2.26909264128443
 20
10.39539013151034
 30
0.0000000000000001
 70
     8
  0
VERTEX
  5
C135
330
C0E3
100
AcDbEntity
  8
PROF
100
AcDbVertex
100
AcDb2dVertex
 10
2.217997863036088
 20
10.38804829536445
 30
0.0000000000000001
 70
     8
  0
VERTEX
  5
C136
330
C0E3
100
AcDbEntity
  8
PROF
100
AcDbVertex
100
AcDb2dVertex
 10
2.163412664042255
 20
10.38244284868688
 30
0.0000000000000001
 70
     8
  0
VERTEX
  5
C137
330
C0E3
100
AcDbEntity
  8
PROF
100
AcDbVertex
100
AcDb2dVertex
 10
2.104968541531603
 20
10.37864063242295
 30
0.0000000000000001
 70
     8
  0
VERTEX
  5
C138
330
C0E3
100
AcDbEntity
  8
PROF
100
AcDbVertex
100
AcDb2dVertex
 10
2.042296992732871
 20
10.37670848751816
 30
0.0000000000000001
 70
     8
  0
VERTEX
  5
C139
330
C0E3
100
AcDbEntity
  8
PROF
100
AcDbVertex
100
AcDb2dVertex
 10
1.975029514874734
 20
10.37671325491794
 30
0.0000000000000001
 70
     8
  0
VERTEX
  5
C13A
330
C0E3
100
AcDbEntity
  8
PROF
100
AcDbVertex
100
AcDb2dVertex
 10
4.216606011510748
 20
12.80885334975255
 30
0.0000000000000001
 70
    16
  0
VERTEX
  5
C13B
330
C0E3
100
AcDbEntity
  8
PROF
100
AcDbVertex
100
AcDb2dVertex
 10
3.870225410273291
 20
12.70706551576393
 30
0.0000000000000001
 70
    16
  0
VERTEX
  5
C13C
330
C0E3
100
AcDbEntity
  8
PROF
100
AcDbVertex
100
AcDb2dVertex
 10
3.605346156896871
 20
12.46277472098552
 30
0.0000000000000001
 70
    16
  0
VERTEX
  5
C13D
330
C0E3
100
AcDbEntity
  8
PROF
100
AcDbVertex
100
AcDb2dVertex
 10
3.500746030527238
 20
12.17068057570975
 30
0.0000000000000001
 70
    16
  0
VERTEX
  5
C13E
330
C0E3
100
AcDbEntity
  8
PROF
100
AcDbVertex
100
AcDb2dVertex
 10
3.231798439705698
 20
11.26846416496107
 30
0.0000000000000001
 70
    16
  0
VERTEX
  5
C13F
330
C0E3
100
AcDbEntity
  8
PROF
100
AcDbVertex
100
AcDb2dVertex
 10
2.973710939883288
 20
10.76631086647069
 30
0.0000000000000001
 70
    16
  0
VERTEX
  5
C140
330
C0E3
100
AcDbEntity
  8
PROF
100
AcDbVertex
100
AcDb2dVertex
 10
2.5729961067384
 20
10.4609473645047
 30
0.0000000000000001
 70
    16
  0
VERTEX
  5
C141
330
C0E3
100
AcDbEntity
  8
PROF
100
AcDbVertex
100
AcDb2dVertex
 10
2.253782621454603
 20
10.37273123944976
 30
0.0000000000000001
 70
    16
  0
VERTEX
  5
C142
330
C0E3
100
AcDbEntity
  8
PROF
100
AcDbVertex
100
AcDb2dVertex
 10
1.975029514874734
 20
10.37671325491794
 30
0.0000000000000001
 70
    16
  0
SEQEND
  5
C143
330
C0E3
100
AcDbEntity
  8
PROF
  0
LINE
  5
C144
330
CA01
100
AcDbEntity
  8
PROF
100
AcDbLine
 10
4.901201679869416
 20
12.88585218805485
 30
0.0000000000000003
 11
4.519857503186925
 21
12.88585218805485
 31
0.0000000000000003
  0
LINE
  5
C145
330
CA01
100
AcDbEntity
  8
PROF
100
AcDbLine
 10
0.7321315362267457
 20
8.202631247399155
 30
0.0000000000000006
 11
0.7321315362267457
 21
8.051185396343496
 31
0.0000000000000006
  0
ARC
  5
C146
330
CA01
100
AcDbEntity
  8
PROF
100
AcDbCircle
 10
0.7977322214551919
 20
7.577333933202679
 30
0.0000000000000006
 40
0.4783708383912013
100
AcDbArc
 50
97.88201016894255
 51
186.3111950569864
  0
LINE
  5
C147
330
CA01
100
AcDbEntity
  8
FRAME_050
100
AcDbLine
 10
7.801637719743212
 20
17.99371054969447
 30
0.0
 11
7.801637719743212
 21
0.0000000000002274
 31
0.0
  0
ENDBLK
  5
C149
330
CA01
100
AcDbEntity
  8
0
100
AcDbBlockEnd
  0
BLOCK
  5
CA04
330
CA03
100
AcDbEntity
  8
0
100
AcDbBlockBegin
  2
*U7
 70
     1
 10
0.0
 20
0.0
 30
0.0
  3
*U7
  1

  0
TEXT
  5
C8C3
330
CA03
100
AcDbEntity
  8
0
100
AcDbText
 10
3.517783292889907
 20
10.38601584255777
 30
0.0
 40
0.125
  1
Crown Moulding
100
AcDbText
  0
TEXT
  5
C8C4
330
CA03
100
AcDbEntity
  8
0
100
AcDbText
 10
3.522387658510643
 20
10.17717091304435
 30
0.0
 40
0.125
  1
TL-AB509
100
AcDbText
  0
TEXT
  5
C8C5
330
CA03
100
AcDbEntity
  8
0
100
AcDbText
 10
3.507466103258256
 20
9.96670592896068
 30
0.0
 40
0.125
  1
1-5/16" x 7-9/16"
100
AcDbText
  0
TEXT
  5
C8C6
330
CA03
100
AcDbEntity
  8
0
100
AcDbText
 10
3.519403347460166
 20
9.756240944877005
 30
0.0
 40
0.125
  1
800.66.TAGUE
100
AcDbText
  0
ENDBLK
  5
C8C8
330
CA03
100
AcDbEntity
  8
0
100
AcDbBlockEnd
  0
BLOCK
  5
CA06
330
CA05
100
AcDbEntity
  8
0
100
AcDbBlockBegin
  2
*U8
 70
     1
 10
0.0
 20
0.0
 30
0.0
  3
*U8
  1

  0
TEXT
  5
C8CA
330
CA05
100
AcDbEntity
  8
0
100
AcDbText
 10
5.306686827787569
 20
1.767659498411035
 30
0.0
 40
0.125
  1
Back Band
100
AcDbText
  0
TEXT
  5
C8CB
330
CA05
100
AcDbEntity
  8
0
100
AcDbText
 10
5.31538396284896
 20
1.55881456889762
 30
0.0
 40
0.125
  1
TL-1
100
AcDbText
  0
TEXT
  5
C8CC
330
CA05
100
AcDbEntity
  8
0
100
AcDbText
 10
5.300462407596572
 20
1.348349584813945
 30
0.0
 40
0.125
  1
1-3/8" x 1-9/16"
100
AcDbText
  0
TEXT
  5
C8CD
330
CA05
100
AcDbEntity
  8
0
100
AcDbText
 10
5.312399651798481
 20
1.13788460073027
 30
0.0
 40
0.125
  1
800.66.TAGUE
100
AcDbText
  0
ENDBLK
  5
C8CF
330
CA05
100
AcDbEntity
  8
0
100
AcDbBlockEnd
  0
BLOCK
  5
CA08
330
CA07
100
AcDbEntity
  8
0
100
AcDbBlockBegin
  2
*U9
 70
     1
 10
0.0
 20
0.0
 30
0.0
  3
*U9
  1

  0
TEXT
  5
C8D1
330
CA07
100
AcDbEntity
  8
0
100
AcDbText
 10
-385.7580743253551
 20
838.2627455404056
 30
0.0
 40
0.125
  1
Back Band
100
AcDbText
  0
TEXT
  5
C8D2
330
CA07
100
AcDbEntity
  8
0
100
AcDbText
 10
-385.7493771902937
 20
838.0539006108925
 30
0.0
 40
0.125
  1
TL-1
100
AcDbText
  0
TEXT
  5
C8D3
330
CA07
100
AcDbEntity
  8
0
100
AcDbText
 10
-385.7642987455461
 20
837.8434356268085
 30
0.0
 40
0.125
  1
1-3/8" x 1-9/16"
100
AcDbText
  0
TEXT
  5
C8D4
330
CA07
100
AcDbEntity
  8
0
100
AcDbText
 10
-385.7523615013442
 20
837.6329706427251
 30
0.0
 40
0.125
  1
800.66.TAGUE
100
AcDbText
  0
ENDBLK
  5
C8D6
330
CA07
100
AcDbEntity
  8
0
100
AcDbBlockEnd
  0
BLOCK
  5
CDAA
330
CDA9
100
AcDbEntity
  8
0
100
AcDbBlockBegin
  2
*D21
 70
     1
 10
0.0
 20
0.0
 30
0.0
  3
*D21
  1

  0
LINE
  5
CDAB
330
CDA9
100
AcDbEntity
  8
0
 62
     0
370
    -2
100
AcDbLine
 10
-346.6457373298446
 20
509.4219186358683
 30
0.0
 11
-346.0326610647122
 21
509.4219186358683
 31
0.0
  0
LINE
  5
CDAC
330
CDA9
100
AcDbEntity
  8
0
 62
     0
370
    -2
100
AcDbLine
 10
-347.5946141497438
 20
507.611667091992
 30
0.0
 11
-346.0326610647122
 21
507.611667091992
 31
0.0
  0
LINE
  5
CDAD
330
CDA9
100
AcDbEntity
  8
0
 62
     0
370
    -2
100
AcDbLine
 10
-346.0951610647122
 20
509.4219186358683
 30
0.0
 11
-346.0951610647122
 21
507.611667091992
 31
0.0
  0
INSERT
  5
CDAE
330
CDA9
100
AcDbEntity
  8
0
 62
     0
370
    -2
100
AcDbBlockReference
  2
_ARCHTICK
 10
-346.0951610647122
 20
509.4219186358683
 30
0.0
 41
0.046875
 42
0.046875
 43
0.046875
 50
90.0
  0
INSERT
  5
CDAF
330
CDA9
100
AcDbEntity
  8
0
 62
     0
370
    -2
100
AcDbBlockReference
  2
_ARCHTICK
 10
-346.0951610647122
 20
507.611667091992
 30
0.0
 41
0.046875
 42
0.046875
 43
0.046875
 50
270.0
  0
MTEXT
  5
CDB0
330
CDA9
100
AcDbEntity
  8
0
 62
     0
100
AcDbMText
 10
-346.2222927154626
 20
508.51679286393
 30
0.0
 40
0.125
 41
0.0
 71
     5
 72
     1
  1
\A1;Cutter
 11
0.0000000000000001
 21
1.0
 31
0.0
 73
     1
 44
1.0
1001
ACAD
1000
MTEXTBEGIN
1070
    73
1070
     1
1070
    44
1040
1.0
1070
    74
1070
     0
1000
MTEXTEND
  0
POINT
  5
CDB1
330
CDA9
100
AcDbEntity
  8
DEFPOINTS
 62
     0
100
AcDbPoint
 10
-346.7394873298446
 20
509.4219186358683
 30
0.0
  0
POINT
  5
CDB2
330
CDA9
100
AcDbEntity
  8
DEFPOINTS
 62
     0
100
AcDbPoint
 10
-347.6883641497438
 20
507.611667091992
 30
0.0
  0
POINT
  5
CDB3
330
CDA9
100
AcDbEntity
  8
DEFPOINTS
 62
     0
100
AcDbPoint
 10
-346.0951610647122
 20
507.611667091992
 30
0.0
  0
ENDBLK
  5
CDB4
330
CDA9
100
AcDbEntity
  8
0
100
AcDbBlockEnd
  0
BLOCK
  5
CDE9
330
CDDF
100
AcDbEntity
  8
0
100
AcDbBlockBegin
  2
*D23
 70
     1
 10
0.0
 20
0.0
 30
0.0
  3
*D23
  1

  0
LINE
  5
CDEB
330
CDDF
100
AcDbEntity
  8
0
 62
     0
370
    -2
100
AcDbLine
 10
-387.0271415770925
 20
839.5796995792867
 30
0.0
 11
-386.4140653119601
 21
839.5796995792867
 31
0.0
  0
LINE
  5
CDEC
330
CDDF
100
AcDbEntity
  8
0
 62
     0
370
    -2
100
AcDbLine
 10
-387.9760183969917
 20
837.7694480354104
 30
0.0
 11
-386.4140653119601
 21
837.7694480354104
 31
0.0
  0
LINE
  5
CDED
330
CDDF
100
AcDbEntity
  8
0
 62
     0
370
    -2
100
AcDbLine
 10
-386.4765653119601
 20
839.5796995792867
 30
0.0
 11
-386.4765653119601
 21
837.7694480354104
 31
0.0
  0
INSERT
  5
CDEE
330
CDDF
100
AcDbEntity
  8
0
 62
     0
370
    -2
100
AcDbBlockReference
  2
_ARCHTICK
 10
-386.4765653119601
 20
839.5796995792867
 30
0.0
 41
0.046875
 42
0.046875
 43
0.046875
 50
90.0
  0
INSERT
  5
CDEF
330
CDDF
100
AcDbEntity
  8
0
 62
     0
370
    -2
100
AcDbBlockReference
  2
_ARCHTICK
 10
-386.4765653119601
 20
837.7694480354104
 30
0.0
 41
0.046875
 42
0.046875
 43
0.046875
 50
270.0
  0
MTEXT
  5
CDF0
330
CDDF
100
AcDbEntity
  8
0
 62
     0
100
AcDbMText
 10
-386.6015653119602
 20
838.6745738073484
 30
0.0
 40
0.125
 41
0.0
 71
     5
 72
     1
  1
\A1;Cutter
 11
0.0000000000000001
 21
1.0
 31
0.0
 73
     1
 44
1.0
1001
ACAD
1000
MTEXTBEGIN
1070
    73
1070
     1
1070
    44
1040
1.0
1070
    74
1070
     0
1000
MTEXTEND
  0
POINT
  5
CDF1
330
CDDF
100
AcDbEntity
  8
DEFPOINTS
 62
     0
100
AcDbPoint
 10
-387.1208915770925
 20
839.5796995792867
 30
0.0
  0
POINT
  5
CDF2
330
CDDF
100
AcDbEntity
  8
DEFPOINTS
 62
     0
100
AcDbPoint
 10
-388.0697683969917
 20
837.7694480354104
 30
0.0
  0
POINT
  5
CDF3
330
CDDF
100
AcDbEntity
  8
DEFPOINTS
 62
     0
100
AcDbPoint
 10
-386.4765653119601
 20
837.7694480354104
 30
0.0
  0
ENDBLK
  5
CDEA
330
CDDF
100
AcDbEntity
  8
0
100
AcDbBlockEnd
  0
BLOCK
  5
11680
330
1167F
100
AcDbEntity
  8
0
100
AcDbBlockBegin
  2
*D79
 70
     1
 10
0.0
 20
0.0
 30
0.0
  3
*D79
  1

  0
LINE
  5
11681
330
1167F
100
AcDbEntity
  8
0
 62
     0
370
    -2
100
AcDbLine
 10
-365.8181830748637
 20
427.3542985833116
 30
0.0
 11
-366.9395554454704
 21
427.3542985833116
 31
0.0
  0
LINE
  5
11682
330
1167F
100
AcDbEntity
  8
0
 62
     0
370
    -2
100
AcDbLine
 10
-365.8181830748637
 20
425.6042985833117
 30
0.0
 11
-366.9395554454704
 21
425.6042985833117
 31
0.0
  0
LINE
  5
11683
330
1167F
100
AcDbEntity
  8
0
 62
     0
370
    -2
100
AcDbLine
 10
-366.8770554454704
 20
427.3542985833116
 30
0.0
 11
-366.8770554454704
 21
425.6042985833117
 31
0.0
  0
INSERT
  5
11684
330
1167F
100
AcDbEntity
  8
0
 62
     0
370
    -2
100
AcDbBlockReference
  2
_ARCHTICK
 10
-366.8770554454704
 20
427.3542985833116
 30
0.0
 41
0.046875
 42
0.046875
 43
0.046875
 50
90.0
  0
INSERT
  5
11685
330
1167F
100
AcDbEntity
  8
0
 62
     0
370
    -2
100
AcDbBlockReference
  2
_ARCHTICK
 10
-366.8770554454704
 20
425.6042985833117
 30
0.0
 41
0.046875
 42
0.046875
 43
0.046875
 50
270.0
  0
MTEXT
  5
11686
330
1167F
100
AcDbEntity
  8
0
 62
     0
100
AcDbMText
 10
-367.0867530352841
 20
426.4792985833116
 30
0.0
 40
0.125
 41
0.0
 71
     5
 72
     1
  1
\A1;1{\H1.000000x;\S3/4;}"
 11
0.0000000000000001
 21
1.0
 31
0.0
 73
     1
 44
1.0
1001
ACAD
1000
MTEXTBEGIN
1070
    73
1070
     1
1070
    44
1040
1.0
1070
    74
1070
     0
1000
MTEXTEND
  0
POINT
  5
11687
330
1167F
100
AcDbEntity
  8
DEFPOINTS
 62
     0
100
AcDbPoint
 10
-365.7244330748637
 20
427.3542985833116
 30
0.0
  0
POINT
  5
11688
330
1167F
100
AcDbEntity
  8
DEFPOINTS
 62
     0
100
AcDbPoint
 10
-365.7244330748637
 20
425.6042985833117
 30
0.0
  0
POINT
  5
11689
330
1167F
100
AcDbEntity
  8
DEFPOINTS
 62
     0
100
AcDbPoint
 10
-366.8770554454704
 20
425.6042985833117
 30
0.0
  0
ENDBLK
  5
1168A
330
1167F
100
AcDbEntity
  8
0
100
AcDbBlockEnd
  0
BLOCK
  5
1168C
330
1168B
100
AcDbEntity
  8
0
100
AcDbBlockBegin
  2
*D80
 70
     1
 10
0.0
 20
0.0
 30
0.0
  3
*D80
  1

  0
LINE
  5
1168D
330
1168B
100
AcDbEntity
  8
0
 62
     0
370
    -2
100
AcDbLine
 10
-364.5441747203145
 20
426.2118055251731
 30
0.0
 11
-364.5441747203145
 21
424.9965934786342
 31
0.0
  0
LINE
  5
1168E
330
1168B
100
AcDbEntity
  8
0
 62
     0
370
    -2
100
AcDbLine
 10
-363.6691747203145
 20
426.2118055251731
 30
0.0
 11
-363.6691747203145
 21
424.9965934786342
 31
0.0
  0
LINE
  5
1168F
330
1168B
100
AcDbEntity
  8
0
 62
     0
370
    -2
100
AcDbLine
 10
-364.5441747203145
 20
425.0590934786343
 30
0.0
 11
-363.6691747203145
 21
425.0590934786343
 31
0.0
  0
INSERT
  5
11690
330
1168B
100
AcDbEntity
  8
0
 62
     0
370
    -2
100
AcDbBlockReference
  2
_ARCHTICK
 10
-364.5441747203145
 20
425.0590934786343
 30
0.0
 41
0.046875
 42
0.046875
 43
0.046875
 50
180.0
  0
INSERT
  5
11691
330
1168B
100
AcDbEntity
  8
0
 62
     0
370
    -2
100
AcDbBlockReference
  2
_ARCHTICK
 10
-363.6691747203145
 20
425.0590934786343
 30
0.0
 41
0.046875
 42
0.046875
 43
0.046875
  0
MTEXT
  5
11692
330
1168B
100
AcDbEntity
  8
0
 62
     0
100
AcDbMText
 10
-364.1066747203145
 20
425.2679384081477
 30
0.0
 40
0.125
 41
0.0
 71
     5
 72
     1
  1
\A1;{\H1.000000x;\S7/8;}"
 73
     1
 44
1.0
1001
ACAD
1000
MTEXTBEGIN
1070
    73
1070
     1
1070
    44
1040
1.0
1070
    74
1070
     0
1000
MTEXTEND
  0
POINT
  5
11693
330
1168B
100
AcDbEntity
  8
DEFPOINTS
 62
     0
100
AcDbPoint
 10
-364.5441747203145
 20
426.305555525173
 30
0.0
  0
POINT
  5
11694
330
1168B
100
AcDbEntity
  8
DEFPOINTS
 62
     0
100
AcDbPoint
 10
-363.6691747203145
 20
426.305555525173
 30
0.0
  0
POINT
  5
11695
330
1168B
100
AcDbEntity
  8
DEFPOINTS
 62
     0
100
AcDbPoint
 10
-363.6691747203145
 20
425.0590934786343
 30
0.0
  0
ENDBLK
  5
11696
330
1168B
100
AcDbEntity
  8
0
100
AcDbBlockEnd
  0
BLOCK
  5
11698
330
11697
100
AcDbEntity
  8
0
100
AcDbBlockBegin
  2
*D81
 70
     1
 10
0.0
 20
0.0
 30
0.0
  3
*D81
  1

  0
LINE
  5
11699
330
11697
100
AcDbEntity
  8
0
 62
     0
370
    -2
100
AcDbLine
 10
-363.8879247203145
 20
427.243055525173
 30
0.0
 11
-362.9374500301021
 21
427.243055525173
 31
0.0
  0
LINE
  5
1169A
330
11697
100
AcDbEntity
  8
0
 62
     0
370
    -2
100
AcDbLine
 10
-364.0129247203148
 20
425.7292985833116
 30
0.0
 11
-362.9374500301021
 21
425.7292985833116
 31
0.0
  0
LINE
  5
1169B
330
11697
100
AcDbEntity
  8
0
 62
     0
370
    -2
100
AcDbLine
 10
-362.9999500301021
 20
427.243055525173
 30
0.0
 11
-362.9999500301021
 21
425.7292985833116
 31
0.0
  0
INSERT
  5
1169C
330
11697
100
AcDbEntity
  8
0
 62
     0
370
    -2
100
AcDbBlockReference
  2
_ARCHTICK
 10
-362.9999500301021
 20
427.243055525173
 30
0.0
 41
0.046875
 42
0.046875
 43
0.046875
 50
90.0
  0
INSERT
  5
1169D
330
11697
100
AcDbEntity
  8
0
 62
     0
370
    -2
100
AcDbBlockReference
  2
_ARCHTICK
 10
-362.9999500301021
 20
425.7292985833116
 30
0.0
 41
0.046875
 42
0.046875
 43
0.046875
 50
270.0
  0
MTEXT
  5
1169E
330
11697
100
AcDbEntity
  8
0
 62
     0
100
AcDbMText
 10
-363.2087949596157
 20
426.4861770542423
 30
0.0
 40
0.125
 41
0.0
 71
     5
 72
     1
  1
\A1;1{\H1.000000x;\S1/2;}"
 11
0.0000000000000001
 21
1.0
 31
0.0
 73
     1
 44
1.0
1001
ACAD
1000
MTEXTBEGIN
1070
    73
1070
     1
1070
    44
1040
1.0
1070
    74
1070
     0
1000
MTEXTEND
  0
POINT
  5
1169F
330
11697
100
AcDbEntity
  8
DEFPOINTS
 62
     0
100
AcDbPoint
 10
-363.9816747203145
 20
427.243055525173
 30
0.0
  0
POINT
  5
116A0
330
11697
100
AcDbEntity
  8
DEFPOINTS
 62
     0
100
AcDbPoint
 10
-364.1066747203148
 20
425.7292985833116
 30
0.0
  0
POINT
  5
116A1
330
11697
100
AcDbEntity
  8
DEFPOINTS
 62
     0
100
AcDbPoint
 10
-362.9999500301021
 20
425.7292985833116
 30
0.0
  0
ENDBLK
  5
116A2
330
11697
100
AcDbEntity
  8
0
100
AcDbBlockEnd
  0
BLOCK
  5
116E7
330
116DD
100
AcDbEntity
  8
0
100
AcDbBlockBegin
  2
*D83
 70
     1
 10
0.0
 20
0.0
 30
0.0
  3
*D83
  1

  0
LINE
  5
11701
330
116DD
100
AcDbEntity
  8
0
 62
     0
370
    -2
100
AcDbLine
 10
-386.7605416922034
 20
839.7451809866344
 30
0.0
 11
-387.8819140628102
 21
839.7451809866344
 31
0.0
  0
LINE
  5
11702
330
116DD
100
AcDbEntity
  8
0
 62
     0
370
    -2
100
AcDbLine
 10
-386.7605416922034
 20
837.9951809866344
 30
0.0
 11
-387.8819140628102
 21
837.9951809866344
 31
0.0
  0
LINE
  5
11703
330
116DD
100
AcDbEntity
  8
0
 62
     0
370
    -2
100
AcDbLine
 10
-387.8194140628102
 20
839.7451809866344
 30
0.0
 11
-387.8194140628102
 21
837.9951809866344
 31
0.0
  0
INSERT
  5
11704
330
116DD
100
AcDbEntity
  8
0
 62
     0
370
    -2
100
AcDbBlockReference
  2
_ARCHTICK
 10
-387.8194140628102
 20
839.7451809866344
 30
0.0
 41
0.046875
 42
0.046875
 43
0.046875
 50
90.0
  0
INSERT
  5
11705
330
116DD
100
AcDbEntity
  8
0
 62
     0
370
    -2
100
AcDbBlockReference
  2
_ARCHTICK
 10
-387.8194140628102
 20
837.9951809866344
 30
0.0
 41
0.046875
 42
0.046875
 43
0.046875
 50
270.0
  0
MTEXT
  5
11706
330
116DD
100
AcDbEntity
  8
0
 62
     0
100
AcDbMText
 10
-388.0277473961436
 20
838.8701809866343
 30
0.0
 40
0.125
 41
0.0
 71
     5
 72
     1
  1
\A1;1{\H1.000000x;\S3/4;}"
 11
0.0000000000000001
 21
1.0
 31
0.0
 73
     1
 44
1.0
1001
ACAD
1000
MTEXTBEGIN
1070
    73
1070
     1
1070
    44
1040
1.0
1070
    74
1070
     0
1000
MTEXTEND
  0
POINT
  5
11707
330
116DD
100
AcDbEntity
  8
DEFPOINTS
 62
     0
100
AcDbPoint
 10
-386.6667916922034
 20
839.7451809866344
 30
0.0
  0
POINT
  5
11708
330
116DD
100
AcDbEntity
  8
DEFPOINTS
 62
     0
100
AcDbPoint
 10
-386.6667916922034
 20
837.9951809866344
 30
0.0
  0
POINT
  5
11709
330
116DD
100
AcDbEntity
  8
DEFPOINTS
 62
     0
100
AcDbPoint
 10
-387.8194140628102
 20
837.9951809866344
 30
0.0
  0
ENDBLK
  5
116E8
330
116DD
100
AcDbEntity
  8
0
100
AcDbBlockEnd
  0
BLOCK
  5
116F3
330
116E9
100
AcDbEntity
  8
0
100
AcDbBlockBegin
  2
*D84
 70
     1
 10
0.0
 20
0.0
 30
0.0
  3
*D84
  1

  0
LINE
  5
1170A
330
116E9
100
AcDbEntity
  8
0
 62
     0
370
    -2
100
AcDbLine
 10
-385.4865333376543
 20
838.6026879284958
 30
0.0
 11
-385.4865333376543
 21
837.3874758819569
 31
0.0
  0
LINE
  5
1170B
330
116E9
100
AcDbEntity
  8
0
 62
     0
370
    -2
100
AcDbLine
 10
-384.6115333376543
 20
838.6026879284958
 30
0.0
 11
-384.6115333376543
 21
837.3874758819569
 31
0.0
  0
LINE
  5
1170C
330
116E9
100
AcDbEntity
  8
0
 62
     0
370
    -2
100
AcDbLine
 10
-385.4865333376543
 20
837.449975881957
 30
0.0
 11
-384.6115333376543
 21
837.449975881957
 31
0.0
  0
INSERT
  5
1170D
330
116E9
100
AcDbEntity
  8
0
 62
     0
370
    -2
100
AcDbBlockReference
  2
_ARCHTICK
 10
-385.4865333376543
 20
837.449975881957
 30
0.0
 41
0.046875
 42
0.046875
 43
0.046875
 50
180.0
  0
INSERT
  5
1170E
330
116E9
100
AcDbEntity
  8
0
 62
     0
370
    -2
100
AcDbBlockReference
  2
_ARCHTICK
 10
-384.6115333376543
 20
837.449975881957
 30
0.0
 41
0.046875
 42
0.046875
 43
0.046875
  0
MTEXT
  5
1170F
330
116E9
100
AcDbEntity
  8
0
 62
     0
100
AcDbMText
 10
-385.0490333376543
 20
837.6583092152904
 30
0.0
 40
0.125
 41
0.0
 71
     5
 72
     1
  1
\A1;{\H1.000000x;\S7/8;}"
 73
     1
 44
1.0
1001
ACAD
1000
MTEXTBEGIN
1070
    73
1070
     1
1070
    44
1040
1.0
1070
    74
1070
     0
1000
MTEXTEND
  0
POINT
  5
11710
330
116E9
100
AcDbEntity
  8
DEFPOINTS
 62
     0
100
AcDbPoint
 10
-385.4865333376543
 20
838.6964379284957
 30
0.0
  0
POINT
  5
11711
330
116E9
100
AcDbEntity
  8
DEFPOINTS
 62
     0
100
AcDbPoint
 10
-384.6115333376543
 20
838.6964379284957
 30
0.0
  0
POINT
  5
11712
330
116E9
100
AcDbEntity
  8
DEFPOINTS
 62
     0
100
AcDbPoint
 10
-384.6115333376543
 20
837.449975881957
 30
0.0
  0
ENDBLK
  5
116F4
330
116E9
100
AcDbEntity
  8
0
100
AcDbBlockEnd
  0
BLOCK
  5
116FF
330
116F5
100
AcDbEntity
  8
0
100
AcDbBlockBegin
  2
*D85
 70
     1
 10
0.0
 20
0.0
 30
0.0
  3
*D85
  1

  0
LINE
  5
11713
330
116F5
100
AcDbEntity
  8
0
 62
     0
370
    -2
100
AcDbLine
 10
-384.8302833376543
 20
839.6339379284958
 30
0.0
 11
-383.8798086474419
 21
839.6339379284958
 31
0.0
  0
LINE
  5
11714
330
116F5
100
AcDbEntity
  8
0
 62
     0
370
    -2
100
AcDbLine
 10
-384.9552833376545
 20
838.1201809866343
 30
0.0
 11
-383.8798086474419
 21
838.1201809866343
 31
0.0
  0
LINE
  5
11715
330
116F5
100
AcDbEntity
  8
0
 62
     0
370
    -2
100
AcDbLine
 10
-383.9423086474419
 20
839.6339379284958
 30
0.0
 11
-383.9423086474419
 21
838.1201809866343
 31
0.0
  0
INSERT
  5
11716
330
116F5
100
AcDbEntity
  8
0
 62
     0
370
    -2
100
AcDbBlockReference
  2
_ARCHTICK
 10
-383.9423086474419
 20
839.6339379284958
 30
0.0
 41
0.046875
 42
0.046875
 43
0.046875
 50
90.0
  0
INSERT
  5
11717
330
116F5
100
AcDbEntity
  8
0
 62
     0
370
    -2
100
AcDbBlockReference
  2
_ARCHTICK
 10
-383.9423086474419
 20
838.1201809866343
 30
0.0
 41
0.046875
 42
0.046875
 43
0.046875
 50
270.0
  0
MTEXT
  5
11718
330
116F5
100
AcDbEntity
  8
0
 62
     0
100
AcDbMText
 10
-384.1506419807753
 20
838.877059457565
 30
0.0
 40
0.125
 41
0.0
 71
     5
 72
     1
  1
\A1;1{\H1.000000x;\S1/2;}"
 11
0.0000000000000001
 21
1.0
 31
0.0
 73
     1
 44
1.0
1001
ACAD
1000
MTEXTBEGIN
1070
    73
1070
     1
1070
    44
1040
1.0
1070
    74
1070
     0
1000
MTEXTEND
  0
POINT
  5
11719
330
116F5
100
AcDbEntity
  8
DEFPOINTS
 62
     0
100
AcDbPoint
 10
-384.9240333376543
 20
839.6339379284958
 30
0.0
  0
POINT
  5
1171A
330
116F5
100
AcDbEntity
  8
DEFPOINTS
 62
     0
100
AcDbPoint
 10
-385.0490333376545
 20
838.1201809866343
 30
0.0
  0
POINT
  5
1171B
330
116F5
100
AcDbEntity
  8
DEFPOINTS
 62
     0
100
AcDbPoint
 10
-383.9423086474419
 20
838.1201809866343
 30
0.0
  0
ENDBLK
  5
11700
330
116F5
100
AcDbEntity
  8
0
100
AcDbBlockEnd
  0
BLOCK
  5
11B0B
330
11B0A
100
AcDbEntity
  8
0
100
AcDbBlockBegin
  2
*D87
 70
     1
 10
0.0
 20
0.0
 30
0.0
  3
*D87
  1

  0
LINE
  5
11B0C
330
11B0A
100
AcDbEntity
  8
0
 62
     0
370
    -2
100
AcDbLine
 10
-321.4967715029747
 20
426.1155916981347
 30
0.0
 11
-323.0465006077027
 21
426.1155916981347
 31
0.0
  0
LINE
  5
11B0D
330
11B0A
100
AcDbEntity
  8
0
 62
     0
370
    -2
100
AcDbLine
 10
-321.4967715029747
 20
424.3655916981347
 30
0.0
 11
-323.0465006077027
 21
424.3655916981347
 31
0.0
  0
LINE
  5
11B0E
330
11B0A
100
AcDbEntity
  8
0
 62
     0
370
    -2
100
AcDbLine
 10
-322.9840006077027
 20
426.1155916981347
 30
0.0
 11
-322.9840006077027
 21
424.3655916981347
 31
0.0
  0
INSERT
  5
11B0F
330
11B0A
100
AcDbEntity
  8
0
 62
     0
370
    -2
100
AcDbBlockReference
  2
_ARCHTICK
 10
-322.9840006077027
 20
426.1155916981347
 30
0.0
 41
0.046875
 42
0.046875
 43
0.046875
 50
90.0
  0
INSERT
  5
11B10
330
11B0A
100
AcDbEntity
  8
0
 62
     0
370
    -2
100
AcDbBlockReference
  2
_ARCHTICK
 10
-322.9840006077027
 20
424.3655916981347
 30
0.0
 41
0.046875
 42
0.046875
 43
0.046875
 50
270.0
  0
MTEXT
  5
11B11
330
11B0A
100
AcDbEntity
  8
0
 62
     0
100
AcDbMText
 10
-323.1936981975163
 20
425.2405916981346
 30
0.0
 40
0.125
 41
0.0
 71
     5
 72
     1
  1
\A1;1{\H1.000000x;\S3/4;}"
 11
0.0000000000000001
 21
1.0
 31
0.0
 73
     1
 44
1.0
1001
ACAD
1000
MTEXTBEGIN
1070
    73
1070
     1
1070
    44
1040
1.0
1070
    74
1070
     0
1000
MTEXTEND
  0
POINT
  5
11B12
330
11B0A
100
AcDbEntity
  8
DEFPOINTS
 62
     0
100
AcDbPoint
 10
-321.4030215029747
 20
426.1155916981347
 30
0.0
  0
POINT
  5
11B13
330
11B0A
100
AcDbEntity
  8
DEFPOINTS
 62
     0
100
AcDbPoint
 10
-321.4030215029747
 20
424.3655916981347
 30
0.0
  0
POINT
  5
11B14
330
11B0A
100
AcDbEntity
  8
DEFPOINTS
 62
     0
100
AcDbPoint
 10
-322.9840006077027
 20
424.3655916981347
 30
0.0
  0
ENDBLK
  5
11B15
330
11B0A
100
AcDbEntity
  8
0
100
AcDbBlockEnd
  0
BLOCK
  5
11B17
330
11B16
100
AcDbEntity
  8
0
100
AcDbBlockBegin
  2
*D88
 70
     1
 10
0.0
 20
0.0
 30
0.0
  3
*D88
  1

  0
LINE
  5
11B18
330
11B16
100
AcDbEntity
  8
0
 62
     0
370
    -2
100
AcDbLine
 10
-319.2825616939604
 20
425.9280916981347
 30
0.0
 11
-318.4104805535555
 21
425.9280916981347
 31
0.0
  0
LINE
  5
11B19
330
11B16
100
AcDbEntity
  8
0
 62
     0
370
    -2
100
AcDbLine
 10
-319.2825616939604
 20
424.5530916981347
 30
0.0
 11
-318.4104805535555
 21
424.5530916981347
 31
0.0
  0
LINE
  5
11B1A
330
11B16
100
AcDbEntity
  8
0
 62
     0
370
    -2
100
AcDbLine
 10
-318.4729805535555
 20
425.9280916981347
 30
0.0
 11
-318.4729805535555
 21
424.5530916981347
 31
0.0
  0
INSERT
  5
11B1B
330
11B16
100
AcDbEntity
  8
0
 62
     0
370
    -2
100
AcDbBlockReference
  2
_ARCHTICK
 10
-318.4729805535555
 20
425.9280916981347
 30
0.0
 41
0.046875
 42
0.046875
 43
0.046875
 50
90.0
  0
INSERT
  5
11B1C
330
11B16
100
AcDbEntity
  8
0
 62
     0
370
    -2
100
AcDbBlockReference
  2
_ARCHTICK
 10
-318.4729805535555
 20
424.5530916981347
 30
0.0
 41
0.046875
 42
0.046875
 43
0.046875
 50
270.0
  0
MTEXT
  5
11B1D
330
11B16
100
AcDbEntity
  8
0
 62
     0
100
AcDbMText
 10
-318.6839997668343
 20
425.2405916981346
 30
0.0
 40
0.125
 41
0.0
 71
     5
 72
     1
  1
\A1;1{\H1.000000x;\S3/8;}"
 11
0.0000000000000001
 21
1.0
 31
0.0
 73
     1
 44
1.0
1001
ACAD
1000
MTEXTBEGIN
1070
    73
1070
     1
1070
    44
1040
1.0
1070
    74
1070
     0
1000
MTEXTEND
  0
POINT
  5
11B1E
330
11B16
100
AcDbEntity
  8
DEFPOINTS
 62
     0
100
AcDbPoint
 10
-319.3763116939604
 20
425.9280916981347
 30
0.0
  0
POINT
  5
11B1F
330
11B16
100
AcDbEntity
  8
DEFPOINTS
 62
     0
100
AcDbPoint
 10
-319.3763116939604
 20
424.5530916981347
 30
0.0
  0
POINT
  5
11B20
330
11B16
100
AcDbEntity
  8
DEFPOINTS
 62
     0
100
AcDbPoint
 10
-318.4729805535555
 20
424.5530916981347
 30
0.0
  0
ENDBLK
  5
11B21
330
11B16
100
AcDbEntity
  8
0
100
AcDbBlockEnd
  0
BLOCK
  5
11B74
330
11B6A
100
AcDbEntity
  8
0
100
AcDbBlockBegin
  2
*D90
 70
     1
 10
0.0
 20
0.0
 30
0.0
  3
*D90
  1

  0
LINE
  5
11B82
330
11B6A
100
AcDbEntity
  8
0
 62
     0
370
    -2
100
AcDbLine
 10
-385.9315520641541
 20
839.8928851248868
 30
0.0
 11
-387.4812811688821
 21
839.8928851248868
 31
0.0
  0
LINE
  5
11B83
330
11B6A
100
AcDbEntity
  8
0
 62
     0
370
    -2
100
AcDbLine
 10
-385.9315520641541
 20
838.1428851248868
 30
0.0
 11
-387.4812811688821
 21
838.1428851248868
 31
0.0
  0
LINE
  5
11B84
330
11B6A
100
AcDbEntity
  8
0
 62
     0
370
    -2
100
AcDbLine
 10
-387.4187811688821
 20
839.8928851248868
 30
0.0
 11
-387.4187811688821
 21
838.1428851248868
 31
0.0
  0
INSERT
  5
11B85
330
11B6A
100
AcDbEntity
  8
0
 62
     0
370
    -2
100
AcDbBlockReference
  2
_ARCHTICK
 10
-387.4187811688821
 20
839.8928851248868
 30
0.0
 41
0.046875
 42
0.046875
 43
0.046875
 50
90.0
  0
INSERT
  5
11B86
330
11B6A
100
AcDbEntity
  8
0
 62
     0
370
    -2
100
AcDbBlockReference
  2
_ARCHTICK
 10
-387.4187811688821
 20
838.1428851248868
 30
0.0
 41
0.046875
 42
0.046875
 43
0.046875
 50
270.0
  0
MTEXT
  5
11B87
330
11B6A
100
AcDbEntity
  8
0
 62
     0
100
AcDbMText
 10
-387.6271145022155
 20
839.0178851248867
 30
0.0
 40
0.125
 41
0.0
 71
     5
 72
     1
  1
\A1;1{\H1.000000x;\S3/4;}"
 11
0.0000000000000001
 21
1.0
 31
0.0
 73
     1
 44
1.0
1001
ACAD
1000
MTEXTBEGIN
1070
    73
1070
     1
1070
    44
1040
1.0
1070
    74
1070
     0
1000
MTEXTEND
  0
POINT
  5
11B88
330
11B6A
100
AcDbEntity
  8
DEFPOINTS
 62
     0
100
AcDbPoint
 10
-385.8378020641541
 20
839.8928851248868
 30
0.0
  0
POINT
  5
11B89
330
11B6A
100
AcDbEntity
  8
DEFPOINTS
 62
     0
100
AcDbPoint
 10
-385.8378020641541
 20
838.1428851248868
 30
0.0
  0
POINT
  5
11B8A
330
11B6A
100
AcDbEntity
  8
DEFPOINTS
 62
     0
100
AcDbPoint
 10
-387.4187811688821
 20
838.1428851248868
 30
0.0
  0
ENDBLK
  5
11B75
330
11B6A
100
AcDbEntity
  8
0
100
AcDbBlockEnd
  0
BLOCK
  5
11B80
330
11B76
100
AcDbEntity
  8
0
100
AcDbBlockBegin
  2
*D91
 70
     1
 10
0.0
 20
0.0
 30
0.0
  3
*D91
  1

  0
LINE
  5
11B8B
330
11B76
100
AcDbEntity
  8
0
 62
     0
370
    -2
100
AcDbLine
 10
-383.7173422551398
 20
839.7053851248868
 30
0.0
 11
-382.8452611147349
 21
839.7053851248868
 31
0.0
  0
LINE
  5
11B8C
330
11B76
100
AcDbEntity
  8
0
 62
     0
370
    -2
100
AcDbLine
 10
-383.7173422551398
 20
838.3303851248868
 30
0.0
 11
-382.8452611147349
 21
838.3303851248868
 31
0.0
  0
LINE
  5
11B8D
330
11B76
100
AcDbEntity
  8
0
 62
     0
370
    -2
100
AcDbLine
 10
-382.9077611147349
 20
839.7053851248868
 30
0.0
 11
-382.9077611147349
 21
838.3303851248868
 31
0.0
  0
INSERT
  5
11B8E
330
11B76
100
AcDbEntity
  8
0
 62
     0
370
    -2
100
AcDbBlockReference
  2
_ARCHTICK
 10
-382.9077611147349
 20
839.7053851248868
 30
0.0
 41
0.046875
 42
0.046875
 43
0.046875
 50
90.0
  0
INSERT
  5
11B8F
330
11B76
100
AcDbEntity
  8
0
 62
     0
370
    -2
100
AcDbBlockReference
  2
_ARCHTICK
 10
-382.9077611147349
 20
838.3303851248868
 30
0.0
 41
0.046875
 42
0.046875
 43
0.046875
 50
270.0
  0
MTEXT
  5
11B90
330
11B76
100
AcDbEntity
  8
0
 62
     0
100
AcDbMText
 10
-383.1160944480683
 20
839.0178851248867
 30
0.0
 40
0.125
 41
0.0
 71
     5
 72
     1
  1
\A1;1{\H1.000000x;\S3/8;}"
 11
0.0000000000000001
 21
1.0
 31
0.0
 73
     1
 44
1.0
1001
ACAD
1000
MTEXTBEGIN
1070
    73
1070
     1
1070
    44
1040
1.0
1070
    74
1070
     0
1000
MTEXTEND
  0
POINT
  5
11B91
330
11B76
100
AcDbEntity
  8
DEFPOINTS
 62
     0
100
AcDbPoint
 10
-383.8110922551398
 20
839.7053851248868
 30
0.0
  0
POINT
  5
11B92
330
11B76
100
AcDbEntity
  8
DEFPOINTS
 62
     0
100
AcDbPoint
 10
-383.8110922551398
 20
838.3303851248868
 30
0.0
  0
POINT
  5
11B93
330
11B76
100
AcDbEntity
  8
DEFPOINTS
 62
     0
100
AcDbPoint
 10
-382.9077611147349
 20
838.3303851248868
 30
0.0
  0
ENDBLK
  5
11B81
330
11B76
100
AcDbEntity
  8
0
100
AcDbBlockEnd
  0
BLOCK
  5
17AEC
330
17AEB
100
AcDbEntity
  8
0
100
AcDbBlockBegin
  2
*D128
 70
     1
 10
0.0
 20
0.0
 30
0.0
  3
*D128
  1

  0
LINE
  5
17AED
330
17AEB
100
AcDbEntity
  8
0
 62
     0
370
    -2
100
AcDbLine
 10
-265.8571504945659
 20
274.4203834568739
 30
0.0
 11
-266.2204797534347
 21
274.4203834568739
 31
0.0
  0
LINE
  5
17AEE
330
17AEB
100
AcDbEntity
  8
0
 62
     0
370
    -2
100
AcDbLine
 10
-265.5269634997861
 20
273.0982069977163
 30
0.0
 11
-266.2204797534347
 21
273.0982069977163
 31
0.0
  0
LINE
  5
17AEF
330
17AEB
100
AcDbEntity
  8
0
 62
     0
370
    -2
100
AcDbLine
 10
-266.1579797534346
 20
274.4203834568739
 30
0.0
 11
-266.1579797534346
 21
273.0982069977163
 31
0.0
  0
INSERT
  5
17AF0
330
17AEB
100
AcDbEntity
  8
0
 62
     0
370
    -2
100
AcDbBlockReference
  2
_ARCHTICK
 10
-266.1579797534346
 20
274.4203834568739
 30
0.0
 41
0.046875
 42
0.046875
 43
0.046875
 50
90.0
  0
INSERT
  5
17AF1
330
17AEB
100
AcDbEntity
  8
0
 62
     0
370
    -2
100
AcDbBlockReference
  2
_ARCHTICK
 10
-266.1579797534346
 20
273.0982069977163
 30
0.0
 41
0.046875
 42
0.046875
 43
0.046875
 50
270.0
  0
MTEXT
  5
17AF2
330
17AEB
100
AcDbEntity
  8
0
 62
     0
100
AcDbMText
 10
-266.3678478753082
 20
273.759295227295
 30
0.0
 40
0.125
 41
0.0
 71
     5
 72
     1
  1
\A1;1{\H1.000000x;\S5/16;}"
 11
0.0000000000000001
 21
1.0
 31
0.0
 73
     1
 44
1.0
1001
ACAD
1000
MTEXTBEGIN
1070
    73
1070
     1
1070
    44
1040
1.0
1070
    74
1070
     0
1000
MTEXTEND
  0
POINT
  5
17AF3
330
17AEB
100
AcDbEntity
  8
DEFPOINTS
 62
     0
100
AcDbPoint
 10
-265.7634004945659
 20
274.4203834568739
 30
0.0
  0
POINT
  5
17AF4
330
17AEB
100
AcDbEntity
  8
DEFPOINTS
 62
     0
100
AcDbPoint
 10
-265.4332134997861
 20
273.0982069977163
 30
0.0
  0
POINT
  5
17AF5
330
17AEB
100
AcDbEntity
  8
DEFPOINTS
 62
     0
100
AcDbPoint
 10
-266.1579797534346
 20
273.0982069977163
 30
0.0
  0
ENDBLK
  5
17AF6
330
17AEB
100
AcDbEntity
  8
0
100
AcDbBlockEnd
  0
BLOCK
  5
17AF8
330
17AF7
100
AcDbEntity
  8
0
100
AcDbBlockBegin
  2
*D129
 70
     1
 10
0.0
 20
0.0
 30
0.0
  3
*D129
  1

  0
LINE
  5
17AF9
330
17AF7
100
AcDbEntity
  8
0
 62
     0
370
    -2
100
AcDbLine
 10
-265.7634004945659
 20
274.3266334568739
 30
0.0
 11
-265.7634004945659
 21
273.6967952272951
 31
0.0
  0
LINE
  5
17AFA
330
17AF7
100
AcDbEntity
  8
0
 62
     0
370
    -2
100
AcDbLine
 10
-265.4332134997861
 20
274.3266334568739
 30
0.0
 11
-265.4332134997861
 21
273.6967952272951
 31
0.0
  0
LINE
  5
17AFB
330
17AF7
100
AcDbEntity
  8
0
 62
     0
370
    -2
100
AcDbLine
 10
-265.7634004945659
 20
273.7592952272951
 30
0.0
 11
-265.8102754945659
 21
273.7592952272951
 31
0.0
  0
LINE
  5
17AFC
330
17AF7
100
AcDbEntity
  8
0
 62
     0
370
    -2
100
AcDbLine
 10
-265.4332134997861
 20
273.7592952272951
 30
0.0
 11
-265.3863384997861
 21
273.7592952272951
 31
0.0
  0
INSERT
  5
17AFD
330
17AF7
100
AcDbEntity
  8
0
 62
     0
370
    -2
100
AcDbBlockReference
  2
_ARCHTICK
 10
-265.7634004945659
 20
273.7592952272951
 30
0.0
 41
0.046875
 42
0.046875
 43
0.046875
  0
INSERT
  5
17AFE
330
17AF7
100
AcDbEntity
  8
0
 62
     0
370
    -2
100
AcDbBlockReference
  2
_ARCHTICK
 10
-265.4332134997861
 20
273.7592952272951
 30
0.0
 41
0.046875
 42
0.046875
 43
0.046875
 50
180.0
  0
MTEXT
  5
17AFF
330
17AF7
100
AcDbEntity
  8
0
 62
     0
100
AcDbMText
 10
-265.598306997176
 20
273.9692486151986
 30
0.0
 40
0.125
 41
0.0
 71
     5
 72
     1
  1
\A1;{\H1.000000x;\S11/32;}"
 73
     1
 44
1.0
1001
ACAD
1000
MTEXTBEGIN
1070
    73
1070
     1
1070
    44
1040
1.0
1070
    74
1070
     0
1000
MTEXTEND
  0
POINT
  5
17B00
330
17AF7
100
AcDbEntity
  8
DEFPOINTS
 62
     0
100
AcDbPoint
 10
-265.7634004945659
 20
274.4203834568739
 30
0.0
  0
POINT
  5
17B01
330
17AF7
100
AcDbEntity
  8
DEFPOINTS
 62
     0
100
AcDbPoint
 10
-265.4332134997861
 20
274.4203834568739
 30
0.0
  0
POINT
  5
17B02
330
17AF7
100
AcDbEntity
  8
DEFPOINTS
 62
     0
100
AcDbPoint
 10
-265.4332134997861
 20
273.7592952272951
 30
0.0
  0
ENDBLK
  5
17B03
330
17AF7
100
AcDbEntity
  8
0
100
AcDbBlockEnd
  0
BLOCK
  5
17B2A
330
17B20
100
AcDbEntity
  8
0
100
AcDbBlockBegin
  2
*D131
 70
     1
 10
0.0
 20
0.0
 30
0.0
  3
*D131
  1

  0
LINE
  5
17B39
330
17B20
100
AcDbEntity
  8
0
 62
     0
370
    -2
100
AcDbLine
 10
-387.654295063192
 20
839.3072488675189
 30
0.0
 11
-388.0176243220608
 21
839.3072488675189
 31
0.0
  0
LINE
  5
17B3A
330
17B20
100
AcDbEntity
  8
0
 62
     0
370
    -2
100
AcDbLine
 10
-387.3241080684122
 20
837.9850724083613
 30
0.0
 11
-388.0176243220608
 21
837.9850724083613
 31
0.0
  0
LINE
  5
17B3B
330
17B20
100
AcDbEntity
  8
0
 62
     0
370
    -2
100
AcDbLine
 10
-387.9551243220608
 20
839.3072488675189
 30
0.0
 11
-387.9551243220608
 21
837.9850724083613
 31
0.0
  0
INSERT
  5
17B3C
330
17B20
100
AcDbEntity
  8
0
 62
     0
370
    -2
100
AcDbBlockReference
  2
_ARCHTICK
 10
-387.9551243220608
 20
839.3072488675189
 30
0.0
 41
0.046875
 42
0.046875
 43
0.046875
 50
90.0
  0
INSERT
  5
17B3D
330
17B20
100
AcDbEntity
  8
0
 62
     0
370
    -2
100
AcDbBlockReference
  2
_ARCHTICK
 10
-387.9551243220608
 20
837.9850724083613
 30
0.0
 41
0.046875
 42
0.046875
 43
0.046875
 50
270.0
  0
MTEXT
  5
17B3E
330
17B20
100
AcDbEntity
  8
0
 62
     0
100
AcDbMText
 10
-388.1634576553942
 20
838.64616063794
 30
0.0
 40
0.125
 41
0.0
 71
     5
 72
     1
  1
\A1;1{\H1.000000x;\S5/16;}"
 11
0.0000000000000001
 21
1.0
 31
0.0
 73
     1
 44
1.0
1001
ACAD
1000
MTEXTBEGIN
1070
    73
1070
     1
1070
    44
1040
1.0
1070
    74
1070
     0
1000
MTEXTEND
  0
POINT
  5
17B3F
330
17B20
100
AcDbEntity
  8
DEFPOINTS
 62
     0
100
AcDbPoint
 10
-387.560545063192
 20
839.3072488675189
 30
0.0
  0
POINT
  5
17B40
330
17B20
100
AcDbEntity
  8
DEFPOINTS
 62
     0
100
AcDbPoint
 10
-387.2303580684122
 20
837.9850724083613
 30
0.0
  0
POINT
  5
17B41
330
17B20
100
AcDbEntity
  8
DEFPOINTS
 62
     0
100
AcDbPoint
 10
-387.9551243220608
 20
837.9850724083613
 30
0.0
  0
ENDBLK
  5
17B2B
330
17B20
100
AcDbEntity
  8
0
100
AcDbBlockEnd
  0
BLOCK
  5
17B37
330
17B2C
100
AcDbEntity
  8
0
100
AcDbBlockBegin
  2
*D132
 70
     1
 10
0.0
 20
0.0
 30
0.0
  3
*D132
  1

  0
LINE
  5
17B42
330
17B2C
100
AcDbEntity
  8
0
 62
     0
370
    -2
100
AcDbLine
 10
-387.560545063192
 20
839.213498867519
 30
0.0
 11
-387.560545063192
 21
838.5836606379401
 31
0.0
  0
LINE
  5
17B43
330
17B2C
100
AcDbEntity
  8
0
 62
     0
370
    -2
100
AcDbLine
 10
-387.2303580684122
 20
839.213498867519
 30
0.0
 11
-387.2303580684122
 21
838.5836606379401
 31
0.0
  0
LINE
  5
17B44
330
17B2C
100
AcDbEntity
  8
0
 62
     0
370
    -2
100
AcDbLine
 10
-387.560545063192
 20
838.6461606379402
 30
0.0
 11
-387.607420063192
 21
838.6461606379402
 31
0.0
  0
LINE
  5
17B45
330
17B2C
100
AcDbEntity
  8
0
 62
     0
370
    -2
100
AcDbLine
 10
-387.2303580684122
 20
838.6461606379402
 30
0.0
 11
-387.1834830684122
 21
838.6461606379402
 31
0.0
  0
INSERT
  5
17B46
330
17B2C
100
AcDbEntity
  8
0
 62
     0
370
    -2
100
AcDbBlockReference
  2
_ARCHTICK
 10
-387.560545063192
 20
838.6461606379402
 30
0.0
 41
0.046875
 42
0.046875
 43
0.046875
  0
INSERT
  5
17B47
330
17B2C
100
AcDbEntity
  8
0
 62
     0
370
    -2
100
AcDbBlockReference
  2
_ARCHTICK
 10
-387.2303580684122
 20
838.6461606379402
 30
0.0
 41
0.046875
 42
0.046875
 43
0.046875
 50
180.0
  0
MTEXT
  5
17B48
330
17B2C
100
AcDbEntity
  8
0
 62
     0
100
AcDbMText
 10
-387.3954515658021
 20
838.8544939712735
 30
0.0
 40
0.125
 41
0.0
 71
     5
 72
     1
  1
\A1;{\H1.000000x;\S11/32;}"
 73
     1
 44
1.0
1001
ACAD
1000
MTEXTBEGIN
1070
    73
1070
     1
1070
    44
1040
1.0
1070
    74
1070
     0
1000
MTEXTEND
  0
POINT
  5
17B49
330
17B2C
100
AcDbEntity
  8
DEFPOINTS
 62
     0
100
AcDbPoint
 10
-387.560545063192
 20
839.3072488675189
 30
0.0
  0
POINT
  5
17B4A
330
17B2C
100
AcDbEntity
  8
DEFPOINTS
 62
     0
100
AcDbPoint
 10
-387.2303580684122
 20
839.3072488675189
 30
0.0
  0
POINT
  5
17B4B
330
17B2C
100
AcDbEntity
  8
DEFPOINTS
 62
     0
100
AcDbPoint
 10
-387.2303580684122
 20
838.6461606379402
 30
0.0
  0
ENDBLK
  5
17B38
330
17B2C
100
AcDbEntity
  8
0
100
AcDbBlockEnd
  0
ENDSEC
  0
SECTION
  2
ENTITIES
  0
MTEXT
  5
19ABF
330
C9DA
100
AcDbEntity
  8
0
100
AcDbMText
 10
-383.276033173072
 20
840.7543356093443
 30
0.0
 40
0.125
 41
3.1939
 71
     1
 72
     5
  1
Plinth Block\PTL-724\P1-1/4" x 4" x Any Height\PFor use w/ TL-310 & TL-311 Casing\P800.66.TAGUE
 73
     1
 44
1.0
1001
ACAD
1000
ACAD_MTEXT_DEFINED_HEIGHT_BEGIN
1070
    46
1040
0.0
1000
ACAD_MTEXT_DEFINED_HEIGHT_END
1000
MTEXTBEGIN
1070
    73
1070
     1
1070
    44
1040
1.0
1070
    74
1070
     0
1000
MTEXTEND
  0
LINE
  5
19AC0
330
C9DA
100
AcDbEntity
  8
0
100
AcDbLine
 10
-384.7036397724318
 20
844.510862544965
 30
0.0
 11
-387.7036397724318
 21
844.135862544965
 31
0.0
  0
LINE
  5
19AC1
330
C9DA
100
AcDbEntity
  8
0
100
AcDbLine
 10
-388.6668726120894
 20
835.3527481977657
 30
0.0
 11
-384.6668726120894
 21
835.3527481977657
 31
0.0
  0
LINE
  5
19AC2
330
C9DA
100
AcDbEntity
  8
0
100
AcDbLine
 10
-384.6668726120894
 20
843.3527481977657
 30
0.0
 11
-388.6668726120894
 21
843.3527481977657
 31
0.0
  0
LINE
  5
19AC3
330
C9DA
100
AcDbEntity
  8
0
100
AcDbLine
 10
-387.7036397724318
 20
844.135862544965
 30
0.0
 11
-388.7036397724318
 21
844.135862544965
 31
0.0
  0
LINE
  5
19AC4
330
C9DA
100
AcDbEntity
  8
0
100
AcDbLine
 10
-384.7036397724318
 20
845.3858625449649
 30
0.0
 11
-388.7036397724318
 21
845.3858625449649
 31
0.0
  0
LINE
  5
19AC5
330
C9DA
100
AcDbEntity
  8
0
100
AcDbLine
 10
-384.6668726120894
 20
843.3527481977657
 30
0.0
 11
-384.6668726120894
 21
835.3527481977657
 31
0.0
  0
LINE
  5
19AC6
330
C9DA
100
AcDbEntity
  8
0
100
AcDbLine
 10
-388.6668726120894
 20
835.3527481977657
 30
0.0
 11
-388.6668726120894
 21
843.3527481977657
 31
0.0
  0
LINE
  5
19AC7
330
C9DA
100
AcDbEntity
  8
0
100
AcDbLine
 10
-387.7036397724318
 20
843.3527481977657
 30
0.0
 11
-387.7036397724318
 21
835.3527481977657
 31
0.0
  0
LINE
  5
19AC8
330
C9DA
100
AcDbEntity
  8
0
100
AcDbLine
 10
-388.7036397724318
 20
844.135862544965
 30
0.0
 11
-388.7036397724318
 21
845.3858625449649
 31
0.0
  0
LINE
  5
19AC9
330
C9DA
100
AcDbEntity
  8
0
100
AcDbLine
 10
-384.7036397724318
 20
845.3858625449649
 30
0.0
 11
-384.7036397724318
 21
844.510862544965
 31
0.0
  0
VIEWPORT
  5
BADA
102
{ACAD_XDICTIONARY
360
19ACB
102
}
330
C9D6
100
AcDbEntity
 67
     1
  8
0
100
AcDbViewport
 10
5.24986664435422
 20
4.01686065148742
 30
0.0
 40
16.25961145983742
 41
8.015942904569708
 68
     1
 69
     1
 12
5.24986664435422
 22
4.01686065148742
 13
0.0
 23
0.0
 14
0.5
 24
0.5
 15
0.5
 25
0.5
 16
0.0
 26
0.0
 36
1.0
 17
0.0
 27
0.0
 37
0.0
 42
50.0
 43
0.0
 44
0.0
 45
8.015942904569708
 50
0.0
 51
0.0
 72
   100
 90
    32800
  1

281
     0
 71
     0
 74
     0
110
0.0
120
0.0
130
0.0
111
0.0
121
0.0
131
0.0
112
0.0
122
0.0
132
0.0
 79
     0
146
0.0
  0
VIEWPORT
  5
BADD
102
{ACAD_XDICTIONARY
360
19ACD
102
}
330
C9D6
100
AcDbEntity
 67
     1
  8
0
100
AcDbViewport
 10
5.249999629487192
 20
4.016674180763468
 30
0.0
 40
10.44245679893058
 41
7.881380513199989
 68
     2
 69
     2
 12
-385.8300674920873
 22
840.1462348144894
 13
0.0
 23
0.0
 14
0.5
 24
0.5
 15
0.5
 25
0.5
 16
0.0
 26
0.0
 36
1.0
 17
0.0
 27
0.0
 37
0.0
 42
50.0
 43
0.0
 44
0.0
 45
12.60104442741897
 50
0.0
 51
0.0
 72
   100
 90
    32832
  1

281
     0
 71
     0
 74
     0
110
0.0
120
0.0
130
0.0
111
0.0
121
0.0
131
0.0
112
0.0
122
0.0
132
0.0
 79
     0
146
0.0
  0
ENDSEC
  0
SECTION
  2
OBJECTS
  0
DICTIONARY
  5
C9C4
330
0
100
AcDbDictionary
281
     1
  3
ACAD_COLOR
350
C9D3
  3
ACAD_GROUP
350
C9C5
  3
ACAD_LAYOUT
350
C9D1
  3
ACAD_MATERIAL
350
C9D2
  3
ACAD_MLINESTYLE
350
C9CE
  3
ACAD_PLOTSETTINGS
350
C9D0
  3
ACAD_PLOTSTYLENAME
350
C9C6
  3
ACAD_TABLESTYLE
350
C9D4
  3
ACDBHEADERROUNDTRIPXREC
350
19ACA
  3
AcDbVariableDictionary
350
CA44
  0
DICTIONARY
  5
CA12
330
C9BA
100
AcDbDictionary
280
     1
281
     1
  3
ACAD_LAYERSTATES
360
CA13
  0
DICTIONARY
  5
19ACB
330
BADA
100
AcDbDictionary
280
     1
281
     1
  3
ACAD_XREC_ROUNDTRIP
360
19ACC
  0
DICTIONARY
  5
19ACD
330
BADD
100
AcDbDictionary
280
     1
281
     1
  3
ACAD_XREC_ROUNDTRIP
360
19ACE
  0
DICTIONARY
  5
C9D3
102
{ACAD_REACTORS
330
C9C4
102
}
330
C9C4
100
AcDbDictionary
281
     1
  0
DICTIONARY
  5
C9C5
102
{ACAD_REACTORS
330
C9C4
102
}
330
C9C4
100
AcDbDictionary
281
     1
  0
DICTIONARY
  5
C9D1
102
{ACAD_REACTORS
330
C9C4
102
}
330
C9C4
100
AcDbDictionary
281
     1
  3
Layout1
350
C9D9
  3
Model
350
C9DD
  0
DICTIONARY
  5
C9D2
102
{ACAD_REACTORS
330
C9C4
102
}
330
C9C4
100
AcDbDictionary
281
     1
  0
DICTIONARY
  5
C9CE
102
{ACAD_REACTORS
330
C9C4
102
}
330
C9C4
100
AcDbDictionary
281
     1
  3
Standard
350
C9CF
  0
DICTIONARY
  5
C9D0
102
{ACAD_REACTORS
330
C9C4
102
}
330
C9C4
100
AcDbDictionary
281
     1
  0
ACDBDICTIONARYWDFLT
  5
C9C6
102
{ACAD_REACTORS
330
C9C4
102
}
330
C9C4
100
AcDbDictionary
281
     1
  3
Normal
350
C9C7
100
AcDbDictionaryWithDefault
340
C9C7
  0
DICTIONARY
  5
C9D4
102
{ACAD_REACTORS
330
C9C4
102
}
330
C9C4
100
AcDbDictionary
281
     1
  3
Standard
350
C9D5
  0
DICTIONARY
  5
19ACA
102
{ACAD_REACTORS
330
C9C4
102
}
330
C9C4
100
AcDbDictionary
281
     1
  0
DICTIONARY
  5
CA44
102
{ACAD_REACTORS
330
C9C4
102
}
330
C9C4
100
AcDbDictionary
281
     1
  3
CTABLESTYLE
350
CA45
  3
DIMASSOC
350
CA46
  3
PROJECTNAME
350
CA47
  0
DICTIONARY
  5
CA13
102
{ACAD_REACTORS
330
CA12
102
}
330
CA12
100
AcDbDictionary
281
     1
  0
XRECORD
  5
19ACC
102
{ACAD_REACTORS
330
19ACB
102
}
330
19ACB
100
AcDbXrecord
280
     1
102
SHADEPLOT
 70
     0
  0
XRECORD
  5
19ACE
102
{ACAD_REACTORS
330
19ACD
102
}
330
19ACD
100
AcDbXrecord
280
     1
102
SHADEPLOT
 70
     0
  0
LAYOUT
  5
C9D9
102
{ACAD_XDICTIONARY
360
16E70
102
}
102
{ACAD_REACTORS
330
C9D1
102
}
330
C9D1
100
AcDbPlotSettings
  1

  2
Auto HP LaserJet 6P on PX-0003
  4
Letter
  6

 40
7.143749713897705
 41
5.027085304260253
 42
7.14373779296875
 43
5.027069091796875
 44
215.8999938964844
 45
279.3999938964844
 46
0.0
 47
0.0
 48
0.0
 49
0.0
140
0.0
141
0.0
142
1.0
143
0.9929890674585944
 70
   688
 72
     0
 73
     1
 74
     1
  7

 75
     0
147
1.007060432759193
148
-0.7185551918443956
149
-1.928758613391291
100
AcDbLayout
  1
Layout1
 70
     1
 71
     1
 10
-0.1682389550263349
 20
-0.2033427855578579
 11
10.75464054840701
 21
8.237064049229001
 12
0.0
 22
0.0
 32
0.0
 14
0.0280982296770773
 24
0.0758747945053777
 34
-0.0000000000112498
 15
10.47163505903136
 25
7.957846508469465
 35
0.0000000000002956
146
0.0
 13
0.0
 23
0.0
 33
0.0
 16
1.0
 26
0.0
 36
0.0
 17
0.0
 27
1.0
 37
0.0
 76
     0
330
C9D6
331
BADA
1001
ACAD_PSEXT
1000
Auto HP LaserJet 6P on PX-0003
1000
HP LaserJet 6P
1000
\\PX-0003\HPLJ6PACCT
1000

1070
     0
  0
LAYOUT
  5
C9DD
102
{ACAD_XDICTIONARY
360
19AD0
102
}
102
{ACAD_REACTORS
330
C9D1
102
}
330
C9D1
100
AcDbPlotSettings
  1

  2
Auto HP LaserJet 6P on PX-0003
  4

  6

 40
0.0
 41
0.0
 42
0.0
 43
0.0
 44
0.0
 45
0.0
 46
0.0
 47
0.0
 48
0.0
 49
0.0
140
0.0
141
0.0
142
1.0
143
1.0
 70
  1712
 72
     0
 73
     0
 74
     0
  7

 75
     0
147
1.0
148
0.0
149
0.0
100
AcDbLayout
  1
Model
 70
     1
 71
     0
 10
0.0
 20
0.0
 11
12.0
 21
9.0
 12
0.0
 22
0.0
 32
0.0
 14
0.0
 24
0.0
 34
0.0
 15
0.0
 25
0.0
 35
0.0
146
0.0
 13
0.0
 23
0.0
 33
0.0
 16
1.0
 26
0.0
 36
0.0
 17
0.0
 27
1.0
 37
0.0
 76
     0
330
C9DA
  0
MLINESTYLE
  5
C9CF
102
{ACAD_REACTORS
330
C9CE
102
}
330
C9CE
100
AcDbMlineStyle
  2
STANDARD
 70
     0
  3

 62
   256
 51
90.0
 52
90.0
 71
     2
 49
0.5
 62
   256
  6
BYLAYER
 49
-0.5
 62
   256
  6
BYLAYER
  0
ACDBPLACEHOLDER
  5
C9C7
102
{ACAD_REACTORS
330
C9C6
102
}
330
C9C6
  0
TABLESTYLE
  5
C9D5
102
{ACAD_REACTORS
330
C9D4
102
}
330
C9D4
100
AcDbTableStyle
  3
Standard
 70
     0
 71
     0
 40
0.06
 41
0.06
280
     0
281
     0
  7
STANDARD
140
0.18
170
     2
 62
     0
 63
     7
283
     0
274
    -2
284
     1
 64
     0
275
    -2
285
     1
 65
     0
276
    -2
286
     1
 66
     0
277
    -2
287
     1
 67
     0
278
    -2
288
     1
 68
     0
279
    -2
289
     1
 69
     0
  7
STANDARD
140
0.25
170
     5
 62
     0
 63
     7
283
     0
274
    -2
284
     1
 64
     0
275
    -2
285
     1
 65
     0
276
    -2
286
     1
 66
     0
277
    -2
287
     1
 67
     0
278
    -2
288
     1
 68
     0
279
    -2
289
     1
 69
     0
  7
STANDARD
140
0.18
170
     5
 62
     0
 63
     7
283
     0
274
    -2
284
     1
 64
     0
275
    -2
285
     1
 65
     0
276
    -2
286
     1
 66
     0
277
    -2
287
     1
 67
     0
278
    -2
288
     1
 68
     0
279
    -2
289
     1
 69
     0
  0
DICTIONARYVAR
  5
CA45
102
{ACAD_REACTORS
330
CA44
102
}
330
CA44
100
DictionaryVariables
280
     0
  1
STANDARD
  0
DICTIONARYVAR
  5
CA46
102
{ACAD_REACTORS
330
CA44
102
}
330
CA44
100
DictionaryVariables
280
     0
  1
1
  0
DICTIONARYVAR
  5
CA47
102
{ACAD_REACTORS
330
CA44
102
}
330
CA44
100
DictionaryVariables
280
     0
  1

  0
DICTIONARY
  5
16E70
330
C9D9
100
AcDbDictionary
280
     1
281
     1
  3
ACAD_XREC_ROUNDTRIP
360
19ACF
  3
ADSK_XREC_LAYOUTTHUMBNAIL
360
16E71
  0
DICTIONARY
  5
19AD0
330
C9DD
100
AcDbDictionary
280
     1
281
     1
  3
ACAD_XREC_ROUNDTRIP
360
19AD1
  0
XRECORD
  5
19ACF
102
{ACAD_REACTORS
330
16E70
102
}
330
16E70
100
AcDbXrecord
280
     1
102
SHADEPLOT
 70
     0
102
SHADEPLOTRESLEVEL
 70
     2
102
SHADEPLOTCUSTOMDPI
 70
   300
  0
XRECORD
  5
16E71
102
{ACAD_REACTORS
330
16E70
102
}
330
16E70
100
AcDbXrecord
280
     1
310
28000000B40000008B0000000100080000000000BC61000000000000000000000001000000000000FFFFFF0000000000FFFFFF000000000000000000000000000000000000000000000000000000000000000000330000006600000099000000CC000000FF00000000330000333300006633000099330000CC330000FF3300
310
0000660000336600006666000099660000CC660000FF66000000990000339900006699000099990000CC990000FF99000000CC000033CC000066CC000099CC0000CCCC0000FFCC000000FF000033FF000066FF000099FF0000CCFF0000FFFF000000003300330033006600330099003300CC003300FF003300003333003333
310
33006633330099333300CC333300FF33330000663300336633006666330099663300CC663300FF66330000993300339933006699330099993300CC993300FF99330000CC330033CC330066CC330099CC3300CCCC3300FFCC330000FF330033FF330066FF330099FF3300CCFF3300FFFF330000006600330066006600660099
310
006600CC006600FF00660000336600333366006633660099336600CC336600FF33660000666600336666006666660099666600CC666600FF66660000996600339966006699660099996600CC996600FF99660000CC660033CC660066CC660099CC6600CCCC6600FFCC660000FF660033FF660066FF660099FF6600CCFF6600
310
FFFF660000009900330099006600990099009900CC009900FF00990000339900333399006633990099339900CC339900FF33990000669900336699006666990099669900CC669900FF66990000999900339999006699990099999900CC999900FF99990000CC990033CC990066CC990099CC9900CCCC9900FFCC990000FF99
310
0033FF990066FF990099FF9900CCFF9900FFFF99000000CC003300CC006600CC009900CC00CC00CC00FF00CC000033CC003333CC006633CC009933CC00CC33CC00FF33CC000066CC003366CC006666CC009966CC00CC66CC00FF66CC000099CC003399CC006699CC009999CC00CC99CC00FF99CC0000CCCC0033CCCC0066CC
310
CC0099CCCC00CCCCCC00FFCCCC0000FFCC0033FFCC0066FFCC0099FFCC00CCFFCC00FFFFCC000000FF003300FF006600FF009900FF00CC00FF00FF00FF000033FF003333FF006633FF009933FF00CC33FF00FF33FF000066FF003366FF006666FF009966FF00CC66FF00FF66FF000099FF003399FF006699FF009999FF00CC
310
99FF00FF99FF0000CCFF0033CCFF0066CCFF0099CCFF00CCCCFF00FFCCFF0000FFFF0033FFFF0066FFFF0099FFFF00CCFFFF00FFFFFF00000000000D0D0D001A1A1A00282828003535350043434300505050005D5D5D006B6B6B00787878008686860093939300A1A1A100AEAEAE00BBBBBB00C9C9C900D6D6D600E4E4E400
310
F1F1F100FFFFFF0000000000000000000000000000000000000000000000000000000000000000000000000000000000E2E2E2E2E2E2E2E2E2E2E2E2E2E2E2E2E2E2E2E2E2E2E2E2E2E2E2E2E2E2E2E2E2E2E2E2E2E2E2E2E2E2E2E2E2E2E2E2E2E2E2E2E2E2E2E2E2E2E2E2E2E2E2E2E2E2E2E2E2E2E2E2E2E2E2E2E2E2E2
310
E2E2E2E2E2E2E2E2E2E2E2E2E2E2E2E2E2E2E2E2E2E2E2E2E2E2E2E2E2E2E2E2E2E2E2E2E2E2E2E2E2E2E2E2E2E2E2E2E2E2E2E2E2E2E2E2E2E2E2E2E2E2E2E2E2E2E2E2E2E2E2E2E2E2E2E2E2E2E2E2E2E2E2E2E2E2E2E2E2E2E2E2E2E2E2E2E2E2E2E2E2E2F5F5F5F5F5F5F5F5F5F5F5F5F5F5F5F5F5F5F5F5F5F5F5F5F5
310
F5F5F5F5F5F5F5F5F5F5F5F5F5F5F5F5F5F5F5F5F5F5F5F5F5F5F5F5F5F5F5F5F5F5F5F5F5F5F5F5F5F5F5F5F5F5F5F5F5F5F5F5F5F5F5F5F5F5F5F5F5F5F5F5F5F5F5F5F5F5F5F5F5F5F5F5F5F5F5F5F5F5F5F5F5F5F5F5F5F5F5F5F5F5F5F5F5F5F5F5F5F5F5F5F5F5F5F5F5F5F5F5F5F5F5F5F5F5F5F5F5F5F5F5F5F5F5
310
F5F5F5F5F5F5F5F5F5F5F5F5F5F5F5F5F5F5F5F5F5F5F5F5F5E2E2E2F5F5F5F5F5F5F5F5F5F5F5F5F5F5F5F5F5F5F5F5F5F5F5F5F5F5F5F5F5F5F5F5F5F5F5F5F5F5F5F5F5F5F5F5F5F5F5F5F5F5F5F5F5F5F5F5F5F5F5F5F5F5F5F5F5F5F5F5F5F5F5F5F5F5F5F5F5F5F5F5F5F5F5F5F5F5F5F5F5F5F5F5F5F5F5F5F5F5F5
310
F5F5F5F5F5F5F5F5F5F5F5F5F5F5F5F5F5F5F5F5F5F5F5F5F5F5F5F5F5F5F5F5F5F5F5F5F5F5F5F5F5F5F5F5F5F5F5F5F5F5F5F5F5F5F5F5F5F5F5F5F5F5F5F5F5F5F5F5F5F5F5F5F5F5F5F5F5F5E2E2E2F5F5F5F5F5F5F5F5F5F5F5F5F5F5F5F5F5F5F5F5F5F5F5F5F5F5F5F5F5F5F5F5F5F5F5F5F5F5F5F5F5F5F5F5F5F5
310
F5F5F5F5F5F5F5F5F5F5F5F5F5F5F5F5F5F5F5F5F5F5F5F5F5F5F5F5F5F5F5F5F5F5F5F5F5F5F5F5F5F5F5F5F5F5F5F5F5F5F5F5F5F5F5F5F5F5F5F5F5F5F5F5F5F5F5F5F5F5F5F5F5F5F5F5F5F5F5F5F5F5F5F5F5F5F5F5F5F5F5F5F5F5F5F5F5F5F5F5F5F5F5F5F5F5F5F5F5F5F5F5F5F5F5F5F5F5F5F5F5F5F5F5F5F5F5
310
F5F5F5F5E2E2E2F5F5F5F5F5F5F5F5F5F5F5F5F5F5F5F5F5F5F5F5F5F5F5F5F5F5F5F5F5F5F5F5F5F5F5F5F5F5F5F5F5F5F5F5F5F5F5F5F5F5F5F5F5F5F5F5F5F5F5F5F5F5F5F5F5F5F5F5F5F5F5F5F5F5F5F5F5F5F5F5F5F5F5F5F5F5F5F5F5F5F5F5F5F5F5F5F5F5F5F5F5F5F5F5F5F5F5F5F5F5F5F5F5F5F5F5F5F5F5F5
310
F5F5F5F5F5F5F5F5F5F5F5F5F5F5F5F5F5F5F5F5F5F5F5F5F5F5F5F5F5F5F5F5F5F5F5F5F5F5F5F5F5F5F5F5F5F5F5F5F5F5F5F5F5F5F5F5F5E2E2E2F5F5E2E2E2E2E2E2E2E2E2E2E2E2E2E2E2E2E2E2E2E2E2E2E2E2E2E2E2E2E2E2E2E2E2E2E2E2E2E2E2E2E2E2E2E2E2E2E2E2E2E2E2E2E2E2E2E2E2E2E2E2E2E2E2E2E2
310
E2E2E2E2E2E2E2E2E2E2E2E2E2E2E2E2E2E2E2E2E2E2E2E2E2E2E2E2E2E2E2E2E2E2E2E2E2E2E2E2E2E2E2E2E2E2E2E2E2E2E2E2E2E2E2E2E2E2E2E2E2E2E2E2E2E2E2E2E2E2E2E2E2E2E2E2E2E2E2E2E2E2E2E2E2E2E2E2E2E2E2E2E2E2E2E2E2E2E2E2E2E2E2E2E2E2E2E2F5F5E2E2E2F5F5E2F5F5F5F5F5F5F5F5F5F5F5
310
F5F5F5F5F5F5F5F5F5F5F5F5F5F5F5F5F5F5F5F5F5F5F5F5F5F5F5F5F5F5F5F5F5F5F5F5F5F5F5F5F5F5F5F5F5F5F5F5F5F5F5F5F5F5F5F5F5F5F5F5F5F5F5F5F5F5F5F5F5F5F5F5F5F5F5F5F5F5F5F5F5F5F5F5F5F5F5F5F5F5F5F5F5F5F5F5F5F5F5F5F5F5F5F5F5F5F5F5F5F5F5F5F5F5F5F5F5F5F5F5F5F5F5F5F5F5F5
310
F5F5F5F5F5F5F5F5F5F5F5F5F5F5F5F5F5F5F5F5F5F5F5F5F5F5F5F5F5F5F5E2F5E2F5F5E2E2E2F5F5E2F5F5F5F5F5F5F5F5F5F5F5F5F5F5F5F5F5F5F5F5F5F5F5F5F5F5F5F5F5F5F5F5F5F5F5F5F5F5F5F5F5F5F5F5F5F5F5F5F5F5F5F5F5F5F5F5F5F5F5F5F5F5F5F5F5F5F5F5F5F5F5F5F5F5F5F5F5F5F5F5F5F5F5F5F5
310
F5F5F5F5F5F5F5F5F5F5F5F5F5F5F5F5F5F5F5F5F5F5F5F5F5F5F5F5F5F5F5F5F5F5F5F5F5F5F5F5F5F5F5F5F5F5F5F5F5F5F5F5F5F5F5F5F5F5F5F5F5F5F5F5F5F5F5F5F5F5F5F5F5F5F5F5F5F5F5F5F5F5F5F5E2F5E2F5F5E2E2E2F5F5E2F5F5F5F5F5F5F5F5F5F5F5F5F5F5F5F5F5F5F5F5F5F5F5F5F5F5F5F5F5F5F5F5
310
F5F5F5F5F5F5F5F5F5F5F5F5F5F5F5F5F5F5F5F5F5F5F5F5F5F5F5F5F5F5F5F5F5F5F5F5F5F5F5F5F5F5F5F5F5F5F5F5F5F5F5F5F5F5F5F5F5F5F5F5F5F5F5F5F5F5F5F5F5F5F5F5F5F5F5F5F5F5F5F5F5F5F5F5F5F5F5F5F5F5F5F5F5F5F5F5F5F5F5F5F5F5F5F5F5F5F5F5F5F5F5F5F5F5F5F5F5F5F5F5F5F5F5F5F5F5F5
310
F5F5F5F5F5F5F5F5F5F5E2F5E2F5F5E2E2E2F5F5E2F5F5F5F5F5F5F5F5F5F5F5F5F5F5F5F5F5F5F5F5F5F5F5F5F5F5F5F5F5F5F5F5F5F5F5F5F5F5F5F5F5F5F5F5F5F5F5F5F5F5F5F5F5F5F5F5F5F5F5F5F5F5F5F5F5F5F5F5F5F5F5F5F5F5F5F5F5F5F5F5F5F5F5F5F5F5F5F5F5F5F5F5F5F5F5F5F5F5F5F5F5F5F5F5F5F5
310
F5F5F5F5F5F5F5F5F5F5F5F5F5F5F5F5F5F5F5F5F5F5F5F5F5F5F5F5F5F5F5F5F5F5F5F5F5F5F5F5F5F5F5F5F5F5F5F5F5F5F5F5F5F5F5F5F5F5F5F5F5F5F5E2F5E2F5F5E2E2E2F5F5E2F5F5F5F5F5F5F5F5F5F5F5F5F5F5F5F5F5F5F5F5F5F5F5F5F5F5F5F5F5F5F5F5F5F5F5F5F5F5F5F5F5F5F5F5F5F5F5F5F5F5F5F5F5
310
F5F5F5F5F5F5F5F5F5F5F5F5F5F5F5F5F5F5F5F5F5F5F5F5F5F5F5F5F5F5F5F5F5F5F5F5F5F5F5F5F5F5F5F5F5F5F5F5F5F5F5F5F5F5F5F5F5F5F5F5F5F5F5F5F5F5F5F5F5F5F5F5F5F5F5F5F5F5F5F5F5F5F5F5F5F5F5F5F5F5F5F5F5F5F5F5F5F5F5F5F5F5F5F5F5F5F5F5F5F5F5F5F5F5F5F5E2F5E2F5F5E2E2E2F5F5E2
310
F5F5F5F5F5F5F5F5F5F5F5F5F5F5F5F5F5F5F5F5F5F5F5F5F5F5F5F5F5F5F5F5F5F5F5F5F5F5F5F5F5F5F5F5F5F5F5F5F5F5F5F5F5F5F5F5F5F5F5F5F5F5F5F5F5F5F5F5F5F5F5F5F5F5F5F5F5F5F5F5F5F5F5F5F5F5F5F5F5F5F5F5F5F5F5F5F5F5F5F5F5F5F5F5F5F5F5F5F5F5F5F5F5F5F5F5F5F5F5F5F5F5F5F5F5F5F5
310
F5F5F5F5F5F5F5F5F5F5F5F5F5F5F5F5F5F5F5F5F5F5F5F5F5F5F5F5F5F5F5F5F5F5F5F5F5F5F5F5F5F5E2F5E2F5F5E2E2E2F5F5E2F5F5F5F5F5F5F5F5F5F5F5F5F5F5F5F5F5F5F5F5F5F5F5F5F5F5F5F5F5F5F5F5F5F5F5F5F5F5F5F5F5F5F5F5F5F5F5F5F5F5F5F5F5F5F5F5F5F5F5F5F5F5F5F5F5F5F5F5F5F5F5F5F5F5
310
F5F5F5F5F5F5F5F5F5F5F5F5F5F5F5F5F5F5F5F5F5F5F5F5F5F5F5F5F5F5F5F5F5F5F5F5F5F5F5F5F5F5F5F5F5F5F5F5F5F5F5F5F5F5F5F5F5F5F5F5F5F5F5F5F5F5F5F5F5F5F5F5F5F5F5F5F5F5F5F5F5F5F5F5F5F5F5F5F5F5F5F5F5F5F5E2F5E2F5F5E2E2E2F5F5E2F5F5F5F5F5F5F5F5F5F5F5F5F5F5F5F5F5F5F5F5F5
310
F5F5F5F5F5F5F5F5F5F5F5F5F5F5F5F5F5F5F5F5F5F5F5F5F5F5F5F5F5F5F5F5F5F5F5F5F5F5F5F5F5F5F5F5F5F5F5F5F5F5F5F5F5F5F5F5F5F5F5F5F5F5F5F5F5F5F5F5F5F5F5F5F5F5F5F5F5F5F5F5F5F5F5F5F5F5F5F5F5F5F5F5F5F5F5F5F5F5F5F5F5F5F5F5F5F5F5F5F5F5F5F5F5F5F5F5F5F5F5F5F5F5F5F5F5F5F5
310
F5F5F5F5F5F5F5F5F5F5F5F5F5F5F5F5F5F5F5F5F5E2F5E2F5F5E2E2E2F5F5E2F5F5F5F5F5F5F5F5F5F5F5F5F5F5F5F5F5F5F5F5F5F5F5F5F5F5F5F5F5F5F5F5F5F5F5F5F5F5F5F5F5F5F5F5F5F5F5F5F5F5F5F5F5F5F5F5F5F5F5F5F5F5F5F5F5F5F5F5F5F5F5F5F5F5F5F5F5F5F5F5F5F5F5F5F5F5F5F5F5F5F5F5F5F5F5
310
F5F5F5F5F5F5F5F5F5F5F5F5F5F5F5F5F5F5F5F5F5F5F5F5F5F5F5F5F5F5F5F5F5F5F5F5F5F5F5F5F5F5F5F5F5F5F5F5F5F5F5F5F5F5F5F5F5F5F5F5F5F5F5F5F5F5F5F5F5F5F5F5F5F5E2F5F5F5F5E2E2E2F5F5E2F5F5F5F5F5F5F5F5F5F5F5F5F5F5F5F5F5F5F5F5F5F5F5F5F5F5F5F5F5F5F5F5F5F5F5F5F5F5F5F5F5F5
310
F5F5F5F5F5F5F5F5F5F5F5F5F5F5F5F5F5F5F5F5F5F5F5F5F5F5F5F5F5F5F5F5F5F5F5F5F5F5F5F5F5F5F5F5F5F5F5F5F5F5F5F5F5F5F5F5F5F5F5F5F5F5F5F5F5F5F5F5F5F5F5F5F5F5F5F5F5F5F5F5F5F5F5F5F5F5F5F5F5F5F5F5F5F5F5F5F5F5F5F5F5F5F5F5F5F5F5F5F5F5F5F5F5F5F5F5F5F5F5F5F5F5F5F5F5F5F5
310
E2F5F5F5F5E2E2E2F5F5E2F5F5F5F5F5F5F5F5F5F5F5F5F5F5F5F5F5F5F5F5F5F5F5F5F5F5F5F5F5F5F5F5F5F5F5F5F5F5F5F5F5F5F5F5F5F5F5F5F5F5F5F5F5F5F5F5F5F5F5F5F5F5F5F5F5F5F5F5F5F5F5F5F5F5F5F5F5F5F5F5F5F5F5F5F5F5F5F5F5F5F5F5F5F5F5F5F5F5F5F5F5F5F5F5F5F5F5F5F5F5F5F5F5F5F5F5
310
F5F5F5F5F5F5F5F5F5F5F5F5F5F5F5F5F5F5F5F5F5F5F5F5F5F5F5F5F5F5F5F5F5F5F5F5F5F5F5F5F5F5F5F5F5F5F5F5F5F5F5F5F5E2F5F5F5F5E2E2E2F5F5E2F5F5F5F5F5F5F5F5F5F5F5F5F5F5F5F5F5F5F5F5F5F5F5F5F5F5F5F5F5F5F5F5F5F5F5F5F5F5F5F5F5F5F5F5F5F5F5F5F5F5F5F5F5F5F5F5F5F5F5F5F5F5F5
310
F5F5F5F5F5F5F5F5F5F5F5F5F5F5F5F5F5F5F5F5F5F5F5F5F5F5F5F5F5F5F5F5F5F5F5F5F5F5F5F5F5F5F5F5F5F5F5F5F5F5F5F5F5F5F5F5F5F5F5F5F5F5F5F5F5F5F5F5F5F5F5F5F5F5F5F5F5F5F5F5F5F5F5F5F5F5F5F5F5F5F5F5F5F5F5F5F5F5F5F5F5F5F5F5F5F5E2F5F5F5F5E2E2E2F5F5E2F5F5F5F5F5F5F5F5F5F5
310
F5F5F5F5F5F5F5F5F5F5F5F5F5F5F5F5F5F5F5F5F5F5F5F5F5F5F5F5F5F5F5F5F5F5F5F5F5F5F5F5F5F5F5F5F5F5F5F5F5F5F5F5F5F5F5F5F5F5F5F5F5F5F5F5F5F5F5F5F5F5F5F5F5F5F5F5F5F5F5F5F5F5F5F5F5F5F5F5F5F5F5F5F5F5F5F5F5F5F5F5F5F5F5F5F5F5F5F5F5F5F5F5F5F5F5F5F5F5F5F5F5F5F5F5F5F5F5
310
F5F5F5F5F5F5F5F5F5F5F5F5F5F5F5F5F5F5F5F5F5F5F5F5F5F5F5F5F5F5F5F5E2F5F5F5F5E2E2E2F5F5E2F5F5F5F5F5F5F5F5F5F5F5F5F5F5F5F5F5F5F5F5F5F5F5F5F5F5F5F5F5F5F5F5F5F5F5F5F5F5F5F5F5F5F5F5F5F5F5F5F5F5F5F5F5F5F5F5F5F5F5F5F5F5F5F5F5F5F5F5F5F5F5F5F5F5F5F5F5F5F5F5F5F5F5F5
310
F5F5F5F5F5F5F5F5F5F5F5F5F5F5F5F5F5F5F5F5F5F5F5F5F5F5F5F5F5F5F5F5F5F5F5F5F5F5F5F5F5F5F5F5F5F5F5F5F5F5F5F5F5F5F5F5F5F5F5F5F5F5F5F5F5F5F5F5F5F5F5F5F5F5F5F5F5F5F5F5F5F5F5F5F5E2F5F5F5F5E2E2E2F5F5E2F5F5F5F5F5F5F5F5F5F5F5F5F5F5F5F5F5F5F5F5F5F5F5F5F5F5F5F5F5F5F5
310
F5F5F5F5F5F5F5F5F5F5F5F5F5F5F5F5F5F5F5F5F5F5F5F5F5F5F5F5F5F5F5F5F5F5F5F5F5F5F5F5F5F5F5F5F5F5F5F5F5F5F5F5F5F5F5F5F5F5F5F5F5F5F5F5F5F5F5F5F5F5F5F5F5F5F5F5F5F5F5F5F5F5F5F5F5F5F5F5F5F5F5F5F5F5F5F5F5F5F5F5F5F5F5F5F5F5F5F5F5F5F5F5F5F5F5F5F5F5F5F5F5F5F5F5F5F5F5
310
F5F5F5F5F5F5F5F5F5F5F5E2F5F5F5F5E2E2E2F5F5E2F5F5F5F5F5F5F5F5F5F5F5F5F5F5F5F5F5F5F5F5F5F5F5F5F5F5F5F5F5F5F5F5F5F5F5F5F5F5F5F5F5F5F5F5F5F5F5F5F5F5F5F5F5F5F5F5F5F5F5F5F5F5F5F5F5F5F5F5F5F5F5F5F5F5F5F5F5F5F5F5F5F5F5F5F5F5F5F5F5F5F5F5F5F5F5F5F5F5F5F5F5F5F5F5F5
310
F5F5F5F5F5F5F5F5F5F5F5F5F5F5F5F5F5F5F5F5F5F5F5F5F5F5F5F5F5F5F5F5F5F5F5F5F5F5F5F5F5F5F5F5F5F5F5F5F5F5F5F5F5F5F5F5F5F5F5F5F5F5F5F5E2F5F5F5F5E2E2E2F5F5E2F5F5F5F5F5F5F5F5F5F5F5F5F5F5F5F5F5F5F5F5F5F5F5F5F5F5F5F5F5F5F5F5F5F5F5F5F5F5F5F5F5F5F5F5F5F5F5F5F5F5F5F5
310
F5F5F5F5F5F5F5F5F5F5F5F5F5F5F5F5F5F5F5F5F5F5F5F5F5F5F5F5F5F5F5F5F5F5F5F5F5F5F5F5F5F5F5F5F5F5F5F5F5F5F5F5F5F5F5F5F5F5F5F5F5F5F5F5F5F5F5F5F5F5F5F5F5F5F5F5F5F5F5F5F5F5F5F5F5F5F5F5F5F5F5F5F5F5F5F5F5F5F5F5F5F5F5F5F5F5F5F5F5F5F5F5F5F5F5F5F5E2F5F5F5F5E2E2E2F5F5
310
E2F5F5F5F5F5F5F5F5F5F5F5F5F5F5F5F5F5F5F5F5F5F5F5F5F5F5F5F5F5F5F5F5F5F5F5F5F5F5F5F5F5F5F5F5F5F5F5F5F5F5F5F5F5F5F5F5F5F5F5F5F5F5F5F5F5F5F5F5F5F5F5F5F5F5F5F5F5F5F5F5F5F5F5F5F5F5F5F5F5F5F5F5F5F5F5F5F5F5F5F5F5F5F5F5F5F5F5F5F5F5F5F5F5F5F5F5F5F5F5F5F5F5F5F5F5F5
310
F5F5F5F5F5F5F5F5F5F5F5F5F5F5F5F5F5F5F5F5F5F5F5F5F5F5F5F5F5F5F5F5F5F5F5F5F5F5F5F5F5F5F5E2F5E2F5F5E2E2E2F5F5E2F5F5F5F5F5F5F5F5F5F5F5F5F5F5F5F5F5F5F5F5F5F5F5F5F5F5F5F5F5F5F5F5F5F5F5F5F5F5F5F5F5F5F5F5F5F5F5F5F5F5F5F5F5F5F5F5F5F5F5F5F5F5F5F5F5F5F5F5F5F5F5F5F5
310
F5F5F5F5F5F5F5F5F5F5F5F5F5F5F5F5F5F5F5F5F5F5F5F5F5F5F5F5F5F5F5F5F5F5F5F5F5F5F5F5F5F5F5F5F5F5F5F5F5F5F5F5F5F5F5F5F5F5F5F5F5F5F5F5F5F5F5F5F5F5F5F5F5F5F5F5F5F5F5F5F5F5F5F5F5F5F5F5F5F5F5F5F5F5F5F5E2F5E2F5F5E2E2E2F5F5E2F5F5F5F5F5F5F5F5F5F5F5F5F5F5F5F5F5F5F5F5
310
F5F5F5F5F5F5F5F5F5F5F5F5F5F5F5F5F5F5F5F5F5F5F5F5F5F5F5F5F5F5F5F5F5F5F5F5F5F5F5F5F5F5F5F5F5F5F5F5F5F5F5F5F5F5F5F5F5F5F5F5F5F5F5F5F5F5F5F5F5F5F5F5F5F5F5F5F5F5F5F5F5F5F5F5F5F5F5F5F5F5F5F5F5F5F5F5F5F5F5F5F5F5F5F5F5F5F5F5F5F5F5F5F5F5F5F5F5F5F5F5F5F5F5F5F5F5F5
310
F5F5F5F5F5F5F5F5F5F5F5F5F5F5F5F5F5F5F5F5F5F5E2F5E2F5F5E2E2E2F5F5E2F5F5F5F5F5F5F5F5F5F5F5F5F5F5F5F5F5F5F5F5F5F5F5F5F5F5F5F5F5F5F5F5F5F5F5F5F5F5F5F5F5F5F5F5F5F5F5F5F5F5F5F5F5F5F5F5F5F5F5F5F5F5F5F5F5F5F5F5F5F5F5F5F5F5F5F5F5F5F5F5F5F5F5F5F5F5F5F5F5F5F5F5F5F5
310
F5F5F5F5F5F5F5F5F5F5F5F5F5F5F5F5F5F5F5F5F5F5F5F5F5F5F5F5F5F5F5F5F5F5F5F5F5F5F5F5F5F5F5F5F5F5F5F5F5F5F5F5F5F5F5F5F5F5F5F5F5F5F5F5F5F5F5F5F5F5F5F5F5F5F5E2F5E2F5F5E2E2E2F5F5E2F5F5F5F5F5F5F5F5F5F5F5F5F5F5F5F5F5F5F5F5F5F5F5F5F5F5F5F5F5F5F5F5F5F5F5F5F5F5F5F5F5
310
F5F5F5F5F5F5F5F5F5F5F5F5F5F5F5F5F5F5F5F5F5F5F5F5F5F5F5F5F5F5F5F5F5F5F5F5F5F5F5F5F5F5F5F5F5F5F5F5F5F5F5F5F5F5F5F5F5F5F5F5F5F5F5F5F5F5F5F5F5F5F5F5F5F5F5F5F5F5F5F5F5F5F5F5F5F5F5F5F5F5F5F5F5F5F5F5F5F5F5F5F5F5F5F5F5F5F5F5F5F5F5F5F5F5F5F5F5F5F5F5F5F5F5F5F5F5F5
310
F5E2F5E2F5F5E2E2E2F5F5E2F5F5F5F5F5F5F5F5F5F5F5F5F5F5F5F5F5F5F5F5F5F5F5F5F5F5F5F5F5F5F5F5F5F5F5F5F5F5F5F5F5F5F5F5F5F5F5F5F5F5F5F5F5F5F5F5F5F5F5F5F5F5F5F5F5F5F5F5F5F5F5F5F5F5F5F5F5F5F5F5F5F5F5F5F5F5F5F5F5F5F5F5F5F5F5F5F5F5F5F5F5F5F5F5F5F5F5F5F5F5F5F5F5F5F5
310
F5F5F5F5F5F5F5F5F5F5F5F5F5F5F5F5F5F5F5F5F5F5F5F5F5F5F5F5F5F5F5F5F5F5F5F5F5F5F5F5F5F5F5F5F5F5F5F5F5F5F5F5F5F5E2F5E2F5F5E2E2E2F5F5E2F5F5F5F5F5F5F5F5F5F5F5F5F5F5F5F5F5F5F5F5F5F5F5F5F5F5F5F5F5F5F5F5F5F5F5F5F5F5F5F5F5F5F5F5F5F5F5F5F5F5F5F5F5F5F5F5F5F5F5F5F5F5
310
F5F5F5F5F5F5F5F5F5F5F5F5F5F5F5F5F5F5F5F5F5F5F5F5F5F5F5F5F5F5F5F5F5F5F5F5F5F5F5F5F5F5F5F5F5F5F5F5F5F5F5F5F5F5F5F5F5F5F5F5F5F5F5F5F5F5F5F5F5F5F5F5F5F5F5F5F5F5F5F5F5F5F5F5F5F5F5F5F5F5F5F5F5F5F5F5F5F5F5F5F5F5F5F5F5F5F5E2F5E2F5F5E2E2E2F5F5E2F5F5F5F5F5F5F5F5F5
310
F5F5F5F5F5F5F5F5F5F5F5F5F5F5F5F5F5F5F5F5F5F5F5F5F5F5F5F5F5F5F5F5F5F5F5F5F5F5F5F5F5F5F5F5F5F5F5F5F5F5F5F5F5F5F5F5F5F5F5F5F5F5F5F5F5F5F5F5F5F5F5F5F5F5F5F5F5F5F5F5F5F5F5F5F5F5F5F5F5F5F5F5F5F5F5F5F5F5F5F5F5F5F5F5F5F5F5F5F5F5F5F5F5F5F5F5F5F5F5F5F5F5F5F5F5F5F5
310
F5F5F5F5F5F5F5F5F5F5F5F5F5F5F5F5F5F5F5F5F5F5F5F5F5F5F5F5F5F5F5F5F5E2F5E2F5F5E2E2E2F5F5E2F5F5F5F5F5F5F5F5F5F5F5F5F5F5F5F5F5F5F5F5F5F5F5F5F5F5F5F5F5F5F5F5F5F5F5F5F5F5F5F5F5F5F5F5F5F5F5F5F5F5F5F5F5F5F5F5F5F5F5F5F5F5F5F5F5F5F5F5F5F5F5F5F5F5F5F5F5F5F5F5F5F5F5
310
F5F5F5F5F5F5F5F5F5F5F5F5F5F5F5F5F5F5F5F5F5F5F5F5F5F5F5F5F5F5F5F5F5F5F5F5F5F5F5F5F5F5F5F5F5F5F5F5F5F5F5F5F5F5F5F5F5F5F5F5F5F5F5F5F5F5F5F5F5F5F5F5F5F5F5F5F5F5F5F5F5F5F5F5F5F5E2F5E2F5F5E2E2E2F5F5E2F5F5F5F5F5F5F5F5F5F5F5F5F5F5F5F5F5F5F5F5F5F5F5F5F5F5F5F5F5F5
310
F5F5F5F5F5F5F5F5F5F5F5F5F5F5F5F5F5F5F5F5F5F5F5F5F5F5F5F5F5F5F5F5F5F5F5F5F5F5F5F5F5F5F5F5F5F5F5F5F5F5F5F5F5F5F5F5F5F5F5F5F5F5F5F5F5F5F5F5F5F5F5F5F5F5F5F5F5F5F5F5F5F5F5F5F5F5F5F5F5F5F5F5F5F5F5F5F5F5F5F5F5F5F5F5F5F5F5F5F5F5F5F5F5F5F5F5F5F5F5F5F5F5F5F5F5F5F5
310
F5F5F5F5F5F5F5F5F5F5F5F5E2F5E2F5F5E2E2E2F5F5E2F5F5F5F5F5F5F5F5F5F5F5F5F5F5F5F5F5F5F5F5F5F5F5F5F5F5F5F5F5F5F5F5F5F5F5F5F5F5F5F5F5F5F5F5F5F5F5F5F5F5F5F5F5F5F5F5F5F5F5F5F5F5F5F5F5F5F5F5F5F5F5F5F5F5F5F5F5F5F5F5F5F5F5F5F5F5F5F5F5F5F5F5F5F5F5F5F5F5F5F5F5F5F5F5
310
F5F5F5F5F5F5F5F5F5F5F5F5F5F5F5F5F5F5F5F5F5F5F5F5F5F5F5F5F5F5F5F5F5F5F5F5F5F5F5F5F5F5F5F5F5F5F5F5F5F5F5F5F5F5F5F5F5F5F5F5F5F5F5F5F5E2F5E2F5F5E2E2E2F5F5E2F5F5F5F5F5F5F5F5F5F5F5F5F5F5F5F5F5F5F5F5F5F5F5F5F5F5F5F5F5F5F5F5F5F5F5F5F5F5F5F5F5F5F5F5F5F5F5F5F5F5F5
310
F5F5F5F5F5F5F5F5F5F5F5F5F5F5F5F5F5F5F5F5F5F5F5F5F5F5F5F5F5F5F5F5F5F5F5F5F5F5F5F5F5F5F5F5F5F5F5F5F5F5F5F5F5F5F5F5F5F5F5F5F5F5F5F5F5F5F5F5F5F5F5F5F5F5F5F5F5F5F5F5F5F5F5F5F5F5F5F5F5F5F5F5F5F5F5F5F5F5F5F5F5F5F5F5F5F5F5F5F5F5F5F5F5F5F5F5F5F5E2F5E2F5F5E2E2E2F5
310
F5E2F5F5F5F5F5F5F5F5F5F5F5F5F5F5F5F5F5F5F5F5F5F5F5F5F5F5F5F5F5F5F5F5F5F5F5F5F5F5F5F5F5F5F5F5F5F5F5F5F5F5F5F5F5F5F5F5F5F5F5F5F5F5F5F5F5F5F5F5F5F5F5F5F5F5F5F5F5F5F5F5F5F5F5F5F5F5F5F5F5F5F5F5F5F5F5F5F5F5F5F5F5F5F5F5F5F5F5F5F5F5F5F5F5F5F5F5F5F5F5F5F5F5F5F5F5
310
F5F5F5F5F5F5F5F5F5F5F5F5F5F5F5F5F5F5F5F5F5F5F5F5F5F5F5F5F5F5F5F5F5F5F5F5F5F5F5F5F5F5F5F5E2F5E2F5F5E2E2E2F5F5E2F5F5F5F5F5F5F5F5F5F5F5F5F5F5F5F5F5F5F5F5F5F5F5F5F5F5F5F5F5F5F5F5F5F5F5F5F5F5F5F5F5F5F5F5F5F5F5F5F5F5F5F5F5F5F5F5F5F5F5F5F5F5F5F5F5F5F5F5F5F5F5F5
310
F5F5F5F5F5F5F5F5F5F5F5F5F5F5F5F5F5F5F5F5F5F5F5F5F5F5F5F5F5F5F5F5F5F5F5F5F5F5F5F5F5F5F5F5F5F5F5F5F5F5F5F5F5F5F5F5F5F5F5F5F5F5F5F5F5F5F5F5F5F5F5F5F5F5F5F5F5F5F5F5F5F5F5F5F5F5F5F5F5F5F5F5F5F5F5F5F5E2F5E2F5F5E2E2E2F5F5E2F5F5F5F5F5F5F5F5F5F5F5F5F5F5F5F5F5F5F5
310
F5F5F5F5F5F5F5F5F5F5F5F5F5F5F5F5F5F5F5F5F5F5F5F5F5F5F5F5F5F5F5F5F5F5F5F5F5F5F5F5F5F5F5F5F5F5F5F5F5F5F5F5F5F5F5F5F5F5F5F5F5F5F5F5F5F5F5F5F5F5F5F5F5F5F5F5F5F5F5F5F5F5F5F5F5F5F5F5F5F5F5F5F5F5F5F5F5F5F5F5F5F5F5F5F5F5F5F5F5F5F5F5F5F5F5F5F5F5F5F5F5F5F5F5F5F5F5
310
F5F5F5F5F5F5F5F5F5F5F5F5F5F5F5F5F5F5F5F5F5F5F5E2F5E2F5F5E2E2E2F5F5E2F5F5F5F5F5F5F5F5F5F5F5F5F5F5F5F5F5F5F5F5F5F5F5F5F5F5F5F5F5F5F5F5F5F5F5F5F5F5F5F5F5F5F5F5F5F5F5F5F5F5F5F5F5F5F5F5F5F5F5F5F5F5F5F5F5F5F5F5F5F5F5F5F5F5F5F5F5F5F5F5F5F5F5F5F5F5F5F5F5F5F5F5F5
310
F5F5F5F5F5F5F5F5F5F5F5F5F5F5F5F5F5F5F5F5F5F5F5F5F5F5F5F5F5F5F5F5F5F5F5F5F5F5F5F5F5F5F5F5F5F5F5F5F5F5F5F5F5F5F5F5F5F5F5F5F5F5F5F5F5F5F5F5F5F5F5F5F5F5F5F5E2F5E2F5F5E2E2E2F5F5E2F5F5F5F5F5F5F5F5F5F5F5F5F5F5F5F5F5F5F5F5F5F5F5F5F5F5F5F5F5F5F5F5F5F5F5F5F5F5F5F5
310
F5F5F5F5F5F5F5F5F5F5F5F5F5F5F5F5F5F5F5F5F5F5F5F5F5F5F5F5F5F5F5F5F5F5F5F5F5F5F5F5F5F5F5F5F5F5F5F5F5F5F5F5F5F5F5F5F5F5F5F5F5F5F5F5F5F5F5F5F5F5F5F5F5F5F5F5F5F5F5F5F5F5F5F5F5F5F5F5F5F5F5F5F5F5F5F5F5F5F5F5F5F5F5F5F5F5F5F5F5F5F5F5F5F5F5F5F5F5F5F5F5F5F5F5F5F5F5
310
F5F5E2F5F5F5F5E2E2E2F5F5E2F5F5F5F5F5F5F5F5F5F5F5F5F5F5F5F5F5F5F5F5F5F5F5F5F5F5F5F5F5F5F5F5F5F5F5F5F5F5F5F5F5F5F5F5F5F5F5F5F5F5F5F5F5F5F5F5F5F5F5F5F5F5F5F5F5F5F5F5F5F5F5F5F5F5F5F5F5F5F5F5F5F5F5F5F5F5F5F5F5F5F5F5F5F5F5F5F5F5F5F5F5F5F5F5F5F5F5F5F5F5F5F5F5F5
310
F5F5F5F5F5F5F5F5F5F5F5F5F5F5F5F5F5F5F5F5F5F5F5F5F5F5F5F5F5F5F5F5F5F5F5F5F5F5F5F5F5F5F5F5F5F5F5F5F5F5F5F5F5F5F5E2F5F5F5F5E2E2E2F5F5E2F5F5F5F5F5F5F5F5F5F5F5F5F5F5F5F5F5F5F5F5F5F5F5F5F5F5F5F5F5F5F5F5F5F5F5F5F5F5F5F5F5F5F5F5F5F5F5F5F5F5F5F5F5F5F5F5F5F5F5F5F5
310
F5F5F5F5F5F5F5F5F5F5F5F5F5F5F5F5F5F5F5F5F5F5F5F5F5F5F5F5F5F5F5F5F5F5F5F5F5F5F5F5F5F5F5F5F5F5F5F5F5F5F5F5F5F5F5F5F5F5F5F5F5F5F5F5F5F5F5F5F5F5F5F5F5F5F5F5F5F5F5F5F5F5F5F5F5F5F5F5F5F5F5F5F5F5F5F5F5F5F5F5F5F5F5F5F5F5F5F5E2F5F5F5F5E2E2E2F5F5E2F5F5F5F5F5F5F5F5
310
F5F5F5F5F5F5F5F5F5F5F5F5F5F5F5F5F5F5F5F5F5F5F5F5F5F5F5F5F5F5F5F5F5F5F5F5F5F5F5F5F5F5F5F5F5F5F5F5F5F5F5F5F5F5F5F5F5F5F5F5F5F5F5F5F5F5F5F5F5F5F5F5F5F5F5F5F5F5F5F5F5F5F5F5F5F5F5F5F5F5F5F5F5F5F5F5F5F5F5F5F5F5F5F5F5F5F5F5F5F5F5F5F5F5F5F5F5F5F5F5F5F5F5F5F5F5F5
310
F5F5F5F5F5F5F5F5F5F5F5F5F5F5F5F5F5F5F5F5F5F5F5F5F5F5F5F5F5F5F5F5F5F5E2F5F5F5F5E2E2E2F5F5E2F5F5F5F5F5F5F5F5F5F5F5F5F5F5F5F5F5F5F5F5F5F5F5F5F5F5F5F5F5F5F5F5F5F5F5F5F5F5F5F5F5F5F5F5F5F5F5F5F5F5F5F5F5F5F5F5F5F5F5F5F5F5F5F5F5F5F5F5F5F5F5F5F5F5F5F5F5F5F5F5F5F5
310
F5F5F5F5F5F5F5F5F5F5F5F5F5F5F5F5F5F5F5F5F5F5F5F5F5F5F5F5F5F5F5F5F5F5F5F5F5F5F5F5F5F5F5F5F5F5F5F5F5F5F5F5F5F5F5F5F5F5F5F5F5F5F5F5F5F5F5F5F5F5F5F5F5F5F5F5F5F5F5F5F5F5F5F5F5F5F5E2F5F5F5F5E2E2E2F5F5E2F5F5F5F5F5F5F5F5F5F5F5F5F5F5F5F5F5F5F5F5F5F5F5F5F5F5F5F5F5
310
F5F5F5F5F5F5F5F5F5F5F5F5F5F5F5F5F5F5F5F5F5F5F5F5F5F5F5F5F5F5F5F5F5F5F5F5F5F5F5F5F5F5F5F5F5F5F5F5F5F5F5F5F5F5F5F5F5F5F5F5F5F5F5F5F5F5F5F5F5F5F5F5F5F5F5F5F5F5F5F5F5F5F5F5F5F5F5F5F5F5F5F5F5F5F5F5F5F5F5F5F5F5F5F5F5F5F5F5F5F5F5F5F5F5F5F5F5F5F5F5F5F5F5F5F5F5F5
310
F5F5F5F5F5F5F5F5F5F5F5F5F5E2F5F5F5F5E2E2E2F5F5E2F5F5F5F5F5F5F5F5F5F5F5F5F5F5F5F5F5F5F5F5F5F5F5F5F5F5F5F5F5F5F5F5F5F5F5F5F5F5F5F5F5F5F5F5F5F5F5F5F5F5F5F5F5F5F5F5F5F5F5F5F5F5F5F5F5F5F5F5F5F5F5F5F5F5F5F5F5F5F5F5F5F5F5F5F5F5F5F5F5F5F5F5F5F5F5F5F5F5F5F5F5F5F5
310
F5F5F5F5F5F5F5F5F5F5F5F5F5F5F5F5F5F5F5F5F5F5F5F5F5F5F5F5F5F5F5F5F5F5F5F5F5F5F5F5F5F5F5F5F5F5F5F5F5F5F5F5F5F5F5F5F5F5F5F5F5F5F5F5F5F5E2F5F5F5F5E2E2E2F5F5E2F5F5F5F5F5F5F5F5F5F5F5F5F5F5F5F5F5F5F5F5F5F5F5F5F5F5F5F5F5F5F5F5F5F5F5F5F5F5F5F5F5F5F5F5F5F5F5F5F5F5
310
F5F5F5F5F5F5F5F5F5F5F5F5F5F5F5F5F5F5F5F5F5F5F5F5F5F5F5F5F5F5F5F5F5F5F5F5F5F5F5F5F5F5F5F5F5F5F5F5F5F5F5F5F5F5F5F5F5F5F5F5F5F5F5F5F5F5F5F5F5F5F5F5F5F5F5F5F5F5F5F5F5F5F5F5F5F5F5F5F5F5F5F5F5F5F5F5F5F5F5F5F5F5F5F5F5F5F5F5F5F5F5F5F5F5F5F5F5F5F5E2F5F5F5F5E2E2E2
310
F5F5E2F5F5F5F5F5F5F5F5F5F5F5F5F5F5F5F5F5F5F5F5F5F5F5F5F5F5F5F5F5F5F5F5F5F5F5F5F5F5F5F5F5F5F5F5F5F5F5F5F5F5F5F5F5F5F5F5F5F5F5F5F5F5F5F5F5F5F5F5F5F5F5F5F5F5F5F5F5F5F5F5F5F5F5F5F5F5F5F5F5F5F5F5F5F5F5F5F5F5F5F5F5F5F5F5F5F5F5F5F5F5F5F5F5F5F5F5F5F5F5F5F5F5F5F5
310
F5F5F5F5F5F5F5F5F5F5F5F5F5F5F5F5F5F5F5F5F5F5F5F5F5F5F5F5F5F5F5F5F5F5F5F5F5F5F5F5F5F5F5F5F5E2F5F5F5F5E2E2E2F5F5E2F5F5F5F5F5F5F5F5F5F5F5F5F5F5F5F5F5F5F5F5F5F5F5F5F5F5F5F5F5F5F5F5F5F5F5F5F5F5F5F5F5F5F5F5F5F5F5F5F5F5F5F5F5F5F5F5F5F5F5F5F5F5F5F5F5F5F5F5F5F5F5
310
F5F5F5F5F5F5F5F5F5F5F5F5F5F5F5F5F5F5F5F5F5F5F5F5F5F5F5F5F5F5F5F5F5F5F5F5F5F5F5F5F5F5F5F5F5F5F5F5F5F5F5F5F5F5F5F5F5F5F5F5F5F5F5F5F5F5F5F5F5F5F5F5F5F5F5F5F5F5F5F5F5F5F5F5F5F5F5F5F5F5F5F5F5F5F5F5F5F5E2F5F5F5F5E2E2E2F5F5E2F5F5F5F5F5F5F5F5F5F5F5F5F5F5F5F5F5F5
310
F5F5F5F5F5F5F5F5F5F5F5F5F5F5F5F5F5F5F5F5F5F5F5F5F5F5F5F5F5F5F5F5F5F5F5F5F5F5F5F5F5F5F5F5F5F5F5F5F5F5F5F5F5F5F5F5F5F5F5F5F5F5F5F5F5F5F5F5F5F5F5F5F5F5F5F5F5F5F5F5F5F5F5F5F5F5F5F5F5F5F5F5F5F5F5F5F5F5F5F5F5F5F5F5F5F5F5F5F5F5F5F5F5F5F5F5F5F5F5F5F5F5F5F5F5F5F5
310
F5F5F5F5F5F5F5F5F5F5F5F5F5F5F5F5F5F5F5F5F5F5F5F5E2F5E2F5F5E2E2E2F5F5E2F5F5F5F5F5F5F5F5F5F5F5F5F5F5F5F5F5F5F5F5F5F5F5F5F5F5F5F5F5F5F5F5F5F5F5F5F5F5F5F5F5F5F5F5F5F5F5F5F5F5F5F5F5F5F5F5F5F5F5F5F5F5F5F5F5F5F5F5F5F5F5F5F5F5F5F5F5F5F5F5F5F5F5F5F5F5F5F5F5F5F5F5
310
F5F5F5F5F5F5F5F5F5F5F5F5F5F5F5F5F5F5F5F5F5F5F5F5F5F5F5F5F5F5F5F5F5F5F5F5F5F5F5F5F5F5F5F5F5F5F5F5F5F5F5F5F5F5F5F5F5F5F5F5F5F5F5F5F5F5F5F5F5F5F5F5F5F5F5F5F5E2F5E2F5F5E2E2E2F5F5E2F5F5F5F5F5F5F5F5F5F5F5F5F5F5F5F5F5F5F5F5F5F5F5F5F5F5F5F5F5F5F5F5F5F5F5F5F5F5F5
310
F5F5F5F5F5F5F5F5F5F5F5F5F5F5F5F5F5F5F5F5F5F5F5F5F5F5F5F5F5F5F5F5F5F5F5F5F5F5F5F5F5F5F5F5F5F5F5F5F5F5F5F5F5F5F5F5F5F5F5F5F5F5F5F5F5F5F5F5F5F5F5F5F5F5F5F5F5F5F5F5F5F5F5F5F5F5F5F5F5F5F5F5F5F5F5F5F5F5F5F5F5F5F5F5F5F5F5F5F5F5F5F5F5F5F5F5F5F5F5F5F5F5F5F5F5F5F5
310
F5F5F5E2F5E2F5F5E2E2E2F5F5E2F5F5F5F5F5F5F5F5F5F5F5F5F5F5F5F5F5F5F5F5F5F5F5F5F5F5F5F5F5F5F5F5F5F5F5F5F5F5F5F5F5F5F5F5F5F5F5F5F5F5F5F5F5F5F5F5F5F5F5F5F5F5F5F5F5F5F5F5F5F5F5F5F5F5F5F5F5F5F5F5F5F5F5F5F5F5F5F5F5F5F5F5F5F5F5F5F5F5F5F5F5F5F5F5F5F5F5F5F5F5F5F5F5
310
F5F5F5F5F5F5F5F5F5F5F5F5F5F5F5F5F5F5F5F5F5F5F5F5F5F5F5F5F5F5F5F5F5F5F5F5F5F5F5F5F5F5F5F5F5F5F5F5F5F5F5F5F5F5F5F5E2F5E2F5F5E2E2E2F5F5E2F5F5F5F5F5F5F5F5F5F5F5F5F5F5F5F5F5F5F5F5F5F5F5F5F5F5F5F5F5F5F5F5F5F5F5F5F5F5F5F5F5F5F5F5F5F5F5F5F5F5F5F5F5F5F5F5F5F5F5F5
310
F5F5F5F5F5F5F5F5F5F5F5F5F5F5F5F5F5F5F5F5F5F5F5F5F5F5F5F5F5F5F5F5F5F5F5F5F5F5F5F5F5F5F5F5F5F5F5F5F5F5F5F5F5F5F5F5F5F5F5F5F5F5F5F5F5F5F5F5F5F5F5F5F5F5F5F5F5F5F5F5F5F5F5F5F5F5F5F5F5F5F5F5F5F5F5F5F5F5F5F5F5F5F5F5F5F5F5F5F5E2F5E2F5F5E2E2E2F5F5E2F5F5F5F5F5F5F5
310
F5F5F5F5F5F5F5F5F5F5F5F5F5F5F5F5F5F5F5F5F5F5F5F5F5F5F5F5F5F5F5F5F5F5F5F5F5F5F5F5F5F5F5F5F5F5F5F5F5F5F5F5F5F5F5F5F5F5F5F5F5F5F5F5F5F5F5F5F5F5F5F5F5F5F5F5F5F5F5F5F5F5F5F5F5F5F5F5F5F5F5F5F5F5F5F5F5F5F5F5F5F5F5F5F5F5F5F5F5F5F5F5F5F5F5F5F5F5F5F5F5F5F5F5F5F5F5
310
F5F5F5F5F5F5F5F5F5F5F5F5F5F5F5F5F5F5F5F5F5F5F5F5F5F5F5F5F5F5F5F5F5F5F5E2F5E2F5F5E2E2E2F5F5E2F5F5F5F5F5F5F5F5F5F5F5F5F5F5F5F5F5F5F5F5F5F5F5F5F5F5F5F5F5F5F5F5F5F5F5F5F5F5F5F5F5F5F5F5F5F5F5F5F5F5F5F5F5F5F5F5F5F5F5F5F5F5F5F5F5F5F5F5F5F5F5F5F5F5F5F5F5F5F5F5F5
310
F5F5F5F5F5F5F5F5F5F5F5F5F5F5F5F5F5F5F5F5F5F5F5F5F5F5F5F5F5F5F5F5F5F5F5F5F5F5F5F5F5F5F5F5F5F5F5F5F5F5F5F5F5F5F5F5F5F5F5F5F5F5F5F5F5F5F5F5F5F5F5F5F5F5F5F5F5F5F5F5F5F5F5F5F5F5F5F5E2F5E2F5F5E2E2E2F5F5E2F5F5F5F5F5F5F5F5F5F5F5F5F5F5F5F5F5F5F5F5F5F5F5F5F5F5F5F5
310
F5F5F5F5F5F5F5F5F5F5F5F5F5F5F5F5F5F5F5F5F5F5F5F5F5F5F5F5F5F5F5F5F5F5F5F5F5F5F5F5F5F5F5F5F5F5F5F5F5F5F5F5F5F5F5F5F5F5F5F5F5F5F5F5F5F5F5F5F5F5F5F5F5F5F5F5F5F5F5F5F5F5F5F5F5F5F5F5F5F5F5F5F5F5F5F5F5F5F5F5F5F5F5F5F5F5F5F5F5F5F5F5F5F5F5F5F5F5F5F5F5F5F5F5F5F5F5
310
F5F5F5F5F5F5F5F5F5F5F5F5F5F5E2F5E2F5F5E2E2E2F5F5E2F5F5F5F5F5F5F5F5F5F5F5F5F5F5F5F5F5F5F5F5F5F5F5F5F5F5F5F5F5F5F5F5F5F5F5F5F5F5F5F5F5F5F5F5F5F5F5F5F5F5F5F5F5F5F5F5F5F5F5F5F5F5F5F5F5F5F5F5F5F5F5F5F5F5F5F5F5F5F5F5F5F5F5F5F5F5F5F5F5F5F5F5F5F5F5F5F5F5F5F5F5F5
310
F5F5F5F5F5F5F5F5F5F5F5F5F5F5F5F5F5F5F5F5F5F5F5F5F5F5F5F5F5F5F5F5F5F5F5F5F5F5F5F5F5F5F5F5F5F5F5F5F5F5F5F5F5F5F5F5F5F5F5F5F5F5F5F5F5F5F5E2F5E2F5F5E2E2E2F5F5E2F5F5F5F5F5F5F5F5F5F5F5F5F5F5F5F5F5F5F5F5F5F5F5F5F5F5F5F5F5F5F5F5F5F5F5F5F5F5F5F5F5F5F5F5F5F5F5F5F5
310
F5F5F5F5F5F5F5F5F5F5F5F5F5F5F5F5F5F5F5F5F5F5F5F5F5F5F5F5F5F5F5F5F5F5F5F5F5F5F5F5F5F5F5F5F5F5F5F5F5F5F5F5F5F5F5F5F5F5F5F5F5F5F5F5F5F5F5F5F5F5F5F5F5F5F5F5F5F5F5F5F5F5F5F5F5F5F5F5F5F5F5F5F5F5F5F5F5F5F5F5F5F5F5F5F5F5F5F5F5F5F5F5F5F5F5F5F5F5F5F5E2F5E2F5F5E2E2
310
E2F5F5E2F5F5F5F5F5F5F5F5F5F5F5F5F5F5F5F5F5F5F5F5F5F5F5F5F5F5F5F5F5F5F5F5F5F5F5F5F5F5F5F5F5F5F5F5F5F5F5F5F5F5F5F5F5F5F5F5F5F5F5F5F5F5F5F5F5F5F5F5F5F5F5F5F5F5F5F5F5F5F5F5F5F5F5F5F5F5F5F5F5F5F5F5F5F5F5F5F5F5F5F5F5F5F5F5F5F5F5F5F5F5F5F5F5F5F5F5F5F5F5F5F5F5F5
310
F5F5F5F5F5F5F5F5F5F5F5F5F5F5F5F5F5F5F5F5F5F5F5F5F5F5F5F5F5F5F5F5F5F5F5F5F5F5F5F5F5F5F5F5F5F5E2F5E2F5F5E2E2E2F5F5E2F5F5F5F5F5F5F5F5F5F5F5F5F5F5F5F5F5F5F5F5F5F5F5F5F5F5F5F5F5F5F5F5F5F5F5F5F5F5F5F5F5F5F5F5F5F5F5F5F5F5F5F5F5F5F5F5F5F5F5F5F5F5F5F5F5F5F5F5F5F5
310
F5F5F5F5F5F5F5F5F5F5F5F5F5F5F5F5F5F5F5F5F5F5F5F5F5F5F5F5F5F5F5F5F5F5F5F5F5F5F5F5F5F5F5F5F5F5F5F5F5F5F5F5F5F5F5F5F5F5F5F5F5F5F5F5F5F5F5F5F5F5F5F5F5F5F5F5F5F5F5F5F5F5F5F5F5F5F5F5F5F5F5F5F5F5F5F5F5F5F5E2F5E2F5F5E2E2E2F5F5E2F5F5F5F5F5F5F5F5F5F5F5F5F5F5F5F5F5
310
F5F5F5F5F5F5F5F5F5F5F5F5F5F5F5F5F5F5F5F5F5F5F5F5F5F5F5F5F5F5F5F5F5F5F5F5F5F5F5F5F5F5F5F5F5F5F5F5F5F5F5F5F5F5F5F5F5F5F5F5F5F5F5F5F5F5F5F5F5F5F5F5F5F5F5F5F5F5F5F5F5F5F5F5F5F5F5F5F5F5F5F5F5F5F5F5F5F5F5F5F5F5F5F5F5F5F5F5F5F5F5F5F5F5F5F5F5F5F5F5F5F5F5F5F5F5F5
310
F5F5F5F5F5F5F5F5F5F5F5F5F5F5F5F5F5F5F5F5F5F5F5F5F5E2F5E2F5F5E2E2E2F5F5E2F5F5F5F5F5F5F5F5F5F5F5F5F5F5F5F5F5F5F5F5F5F5F5F5F5F5F5F5F5F5F5F5F5F5F5F5F5F5F5F5F5F5F5F5F5F5F5F5F5F5F5F5F5F5F5F5F5F5F5E2E2E2E2F5F5F5F5F5F5F5F5F5F5F5F5F5F5F5F5F5F5F5F5F5F5F5F5F5F5F5F5
310
F5F5F5F5F5F5F5F5F5F5F5F5F5F5F5F5F5F5F5F5F5F5F5F5F5F5F5F5F5F5F5F5F5F5F5F5F5F5F5F5F5F5F5F5F5F5F5F5F5F5F5F5F5F5F5F5F5F5F5F5F5F5F5F5F5F5F5F5F5F5F5F5F5F5F5F5F5F5E2F5E2F5F5E2E2E2F5F5E2F5F5F5F5F5F5F5F5F5F5F5F5F5F5F5F5F5F5F5F5F5F5F5F5F5F5F5F5F5F5F5F5F5F5F5F5F5F5
310
F5F5F5F5F5F5F5F5F5F5F5F5F5F5F5F5F5F5F5F5F5E2F5F5E2F5F5F5F5F5F5F5F5F5F5F5F5F5F5F5F5F5F5F5F5F5F5F5F5F5F5F5F5F5F5F5F5F5F5F5F5F5F5F5F5F5F5F5F5F5F5F5F5F5F5F5F5F5F5F5F5F5F5F5F5F5F5F5F5F5F5F5F5F5F5F5F5F5F5F5F5F5F5F5F5F5F5F5F5F5F5F5F5F5F5F5F5F5F5F5F5F5F5F5F5F5F5
310
F5F5F5F5E2F5E2F5F5E2E2E2F5F5E2F5F5F5F5F5F5F5F5F5F5F5F5F5F5F5F5F5F5F5F5F5F5F5F5F5F5F5F5F5F5F5F5F5F5F5F5F5F5F5F5F5F5F5F5F5F5F5F5F5F5F5F5F5F5F5F5F5F5F5E2F5F5F5E2F5F5F5F5F5F5F5F5F5F5F5F5F5F5F5F5F5F5F5F5F5F5F5F5F5F5F5F5F5F5F5F5F5F5F5F5F5F5F5F5F5F5F5F5F5F5F5F5
310
F5F5F5F5F5F5F5F5F5F5F5F5F5F5F5F5F5F5F5F5F5F5F5F5F5F5F5F5F5F5F5F5F5F5F5F5F5F5F5F5F5F5F5F5F5F5F5F5F5F5F5F5F5F5F5F5F5E2F5E2F5F5E2E2E2F5F5E2F5F5F5F5F5F5F5F5F5F5F5F5F5F5F5F5F5F5F5F5F5F5F5F5F5F5F5F5F5F5F5F5F5F5F5F5F5F5F5F5F5F5F5F5F5F5F5F5F5F5F5F5F5F5F5F5F5F5F5
310
E2F5F5F5E2F5F5F5F5F5F5F5F5F5F5F5F5F5F5F5F5F5F5F5F5F5F5F5F5F5F5F5F5F5F5F5F5F5F5F5F5F5F5F5F5F5F5F5F5F5F5F5F5F5F5F5F5F5F5F5F5F5F5F5F5F5F5F5F5F5F5F5F5F5F5F5F5F5F5F5F5F5F5F5F5F5F5F5F5F5F5F5F5F5F5F5F5F5F5F5F5F5F5F5F5F5F5F5F5F5E2F5F5F5F5E2E2E2F5F5E2F5F5F5F5F5F5
310
F5F5F5F5F5F5F5F5F5F5F5F5F5F5F5F5F5F5F5F5F5F5F5F5F5F5F5F5F5F5F5F5F5F5F5F5F5F5F5F5F5F5F5F5F5F5F5F5F5F5F5F5F5E2F5F5F5E2F5F5F5F5F5F5F5F5F5F5F5F5F5F5F5F5F5F5F5F5F5E2E2E2E2E2E2E2E2E2E2E2E2F5E2E2E2E2E2E2E2E2F5F5F5F5F5F5F5F5F5F5F5F5F5F5F5F5F5F5F5F5F5F5F5F5F5F5F5
310
F5F5F5F5F5F5F5F5F5F5F5F5F5F5F5F5F5F5F5F5F5F5F5F5F5F5F5F5F5F5F5F5F5F5F5F5E2F5F5F5F5E2E2E2F5F5E2F5F5F5F5F5F5F5F5F5F5F5F5F5F5F5F5F5F5F5F5F5F5F5F5F5F5F5F5F5F5F5F5F5F5F5F5F5F5F5F5F5F5F5F5F5F5F5F5F5F5F5F5F5F5F5F5F5F5F5E2F5F5F5E2F5F5F5F5F5F5F5F5F5F5F5F5F5F5F5F5
310
F5F5F5F5F5E2E2E2E2E2F5E2E2E2E2F5E2F5E2E2E2E2E2E2E2F5F5F5F5F5F5F5F5F5F5F5F5F5F5F5F5F5F5F5F5F5F5F5F5F5F5F5F5F5F5F5F5F5F5F5F5F5F5F5F5F5F5F5F5F5F5F5F5F5F5F5F5F5F5F5F5F5F5F5F5F5F5F5F5E2F5F5F5F5E2E2E2F5F5E2F5F5F5F5F5F5F5F5F5F5F5F5F5F5F5F5F5F5F5F5F5F5F5F5F5F5F5
310
F5F5F5F5F5F5F5F5F5F5F5F5F5F5F5F5F5F5F5F5F5F5F5F5F5F5F5F5F5F5F5F5E2F5F5F5F5E2F5F5F5F5F5F5F5F5F5F5F5F5F5F5F5F5F5F5F5F5E2E2E2F5E2F5E2E2F5E2F5E2E2E2F5E2E2E2E2E2E2F5F5F5F5F5F5F5F5F5F5F5F5F5F5F5F5F5F5F5F5F5F5F5F5F5F5F5F5F5F5F5F5F5F5F5F5F5F5F5F5F5F5F5F5F5F5F5F5
310
F5F5F5F5F5F5F5F5F5F5F5F5F5F5F5E2F5F5F5F5E2E2E2F5F5E2F5F5F5F5F5F5F5F5F5F5F5F5F5F5F5F5F5F5F5F5F5F5F5F5F5F5F5F5F5F5F5F5F5F5F5F5F5F5F5F5F5F5F5F5F5F5F5F5F5F5F5F5F5F5F5F5F5F5F5E2F5F5F5F5F5E2E2F5F5F5F5F5F5F5F5F5F5F5F5F5F5F5F5F5F5E2E2E2E2F5E2E2E2E2F5F5F5E2E2F5F5
310
E2E2F5E2E2E2F5E2E2F5F5F5F5F5F5F5F5F5F5F5F5F5F5F5F5F5F5F5F5F5F5F5F5F5F5F5F5F5F5F5F5F5F5F5F5F5F5F5F5F5F5F5F5F5F5F5F5F5F5F5F5F5F5F5F5F5F5F5E2F5F5F5F5E2E2E2F5F5E2F5F5F5F5F5F5F5F5F5F5F5F5F5F5F5F5F5F5F5F5F5F5F5F5F5F5F5F5F5F5F5F5F5F5F5F5F5F5F5F5F5F5F5F5F5F5F5F5
310
F5F5F5F5F5F5F5F5F5F5F5E2F5F5F5F5F5F5F5E2F5F5F5F5F5F5F5F5F5F5F5F5F5F5F5F5F5E2F5E2F5E2E2E2E2E2E2F5F5E2E2F5F5E2E2E2E2E2F5E2E2E2E2F5F5F5F5F5F5F5F5F5F5F5F5F5F5F5F5F5F5F5F5F5F5F5F5F5F5F5F5F5F5F5F5F5F5F5F5F5F5F5F5F5F5F5F5F5F5F5F5F5F5F5F5F5F5F5F5F5F5E2F5F5F5F5E2
310
E2E2F5F5E2F5F5F5F5F5F5F5F5F5F5F5F5F5F5F5F5F5F5F5F5F5F5F5F5F5F5F5F5F5F5F5F5F5F5F5F5F5F5F5F5F5F5F5F5F5F5F5F5F5F5F5F5F5F5F5F5F5F5F5E2F5F5F5F5F5F5F5E2F5F5F5F5F5F5F5F5F5F5F5F5F5F5F5F5F5E2E2E2F5E2E2F5E2E2E2F5F5F5F5F5F5E2F5F5E2E2F5E2E2E2E2F5F5F5F5F5F5F5F5F5F5F5
310
F5F5F5F5F5F5F5F5F5F5F5F5F5F5F5F5F5F5F5F5F5F5F5F5F5F5F5F5F5F5F5F5F5F5F5F5F5F5F5F5F5F5F5F5F5F5F5E2F5F5F5F5E2E2E2F5F5E2F5F5F5F5F5F5F5F5F5F5F5F5F5F5F5F5F5F5F5F5F5F5F5F5F5F5F5F5F5F5F5F5F5F5F5F5F5F5F5F5F5F5F5F5F5F5F5F5F5F5F5F5F5F5F5F5F5F5F5E2F5F5F5F5F5F5F5E2F5
310
F5F5F5F5F5F5F5F5F5F5F5F5F5F5F5F5E2F5E2E2F5F5E2E2E2E2E2F5E2F5F5F5F5F5F5F5F5F5F5F5F5F5F5F5F5F5F5F5F5F5F5F5F5F5F5F5F5F5F5F5F5F5F5F5F5F5F5F5F5F5F5F5F5F5F5F5F5F5F5F5F5F5F5F5F5F5F5F5F5F5F5F5F5F5F5F5F5F5F5F5E2F5F5F5F5E2E2E2F5F5E2F5F5F5F5F5F5F5F5F5F5F5F5F5F5F5F5
310
F5F5F5F5F5F5F5F5F5F5F5F5F5F5F5F5F5F5F5F5F5F5F5F5F5F5F5F5F5F5F5F5F5F5F5F5F5F5F5F5F5F5F5E2F5F5F5F5F5F5F5E2F5F5F5F5F5F5F5F5F5F5F5F5F5F5F5F5F5E2F5E2F5E2E2E2E2E2F5F5E2E2E2F5F5F5F5F5F5F5F5F5F5F5F5F5F5F5F5F5F5F5F5F5F5F5F5F5F5F5F5F5F5F5F5F5F5F5F5F5F5F5F5F5F5F5F5
310
F5F5F5F5F5F5F5F5F5F5F5F5F5F5F5F5F5F5F5F5F5F5F5F5F5F5E2F5F5F5F5E2E2E2F5F5E2F5F5F5F5F5F5F5F5F5F5F5F5F5F5F5F5F5F5F5F5F5F5F5F5F5F5F5F5F5F5F5F5F5F5F5F5F5F5F5F5F5F5F5F5F5F5F5F5F5F5F5F5F5F5F5F5F5F5F5E2F5F5F5F5F5F5F5E2F5F5F5F5F5F5F5F5F5F5F5F5F5F5F5F5F5E2E2E2F5F5
310
F5E2E2E2E2E2E2E2E2F5F5F5F5F5F5F5F5F5F5F5F5F5F5F5F5F5F5F5F5F5F5F5F5F5F5F5F5F5F5F5F5F5F5F5F5F5F5F5F5F5F5F5F5F5F5F5F5F5F5F5F5F5F5F5F5F5F5F5F5F5F5F5F5F5F5F5F5F5F5E2F5E2F5F5E2E2E2F5F5E2F5F5F5F5F5F5F5F5F5F5F5F5F5F5F5F5F5F5F5F5F5F5F5F5F5F5F5F5F5F5F5F5F5F5F5F5F5
310
F5F5F5F5F5F5F5F5F5F5F5F5F5F5F5F5F5F5F5F5F5F5E2F5F5F5F5F5F5F5F5E2E2F5F5F5F5F5F5F5F5F5F5F5F5F5F5F5F5F5F5F5F5F5F5F5F5F5F5F5F5F5F5F5F5F5F5F5F5F5F5F5F5F5E2E2E2F5F5F5F5F5F5F5F5F5F5F5F5F5F5F5F5F5F5F5F5F5F5F5F5F5F5F5F5F5F5F5F5F5F5F5F5F5F5F5F5F5F5F5F5F5F5F5F5F5F5
310
F5F5F5F5F5E2F5E2F5F5E2E2E2F5F5E2F5F5F5F5F5F5F5F5F5F5F5F5F5F5F5F5F5F5F5F5F5F5F5F5F5F5F5F5F5F5F5F5F5F5F5F5F5F5F5F5F5F5F5F5F5F5F5F5F5F5F5F5F5F5F5F5F5F5F5E2F5F5F5F5F5F5F5F5F5F5E2F5F5F5F5F5F5F5F5F5F5F5F5F5F5E2F5E2E2E2E2E2E2E2E2F5E2E2F5F5E2E2E2E2E2E2E2E2E2E2F5
310
E2E2E2F5F5F5F5F5F5F5F5F5F5F5F5F5F5F5F5F5F5F5F5F5F5F5F5F5F5F5F5F5F5F5F5F5F5F5F5F5F5F5F5F5F5F5F5F5F5F5F5F5F5F5F5F5F5F5E2F5E2F5F5E2E2E2F5F5E2F5F5F5F5F5F5F5F5F5F5F5F5F5F5F5F5F5F5F5F5F5F5F5F5F5F5F5F5F5F5F5F5F5F5F5F5F5F5F5F5F5F5F5F5F5F5F5F5F5F5F5F5F5F5F5F5F5F5
310
F5E2F5F5F5F5F5F5F5F5F5F5F5E2F5F5F5F5F5F5F5F5F5F5F5F5F5E2E2E2E2E2E2E2F5E2E2E2E2E2F5F5E2E2E2E2E2E2E2E2E2E2E2E2E2E2F5F5F5F5F5F5F5F5F5F5F5F5F5F5F5F5F5F5F5F5F5F5F5F5F5F5F5F5F5F5F5F5F5F5F5F5F5F5F5F5F5F5F5F5F5F5F5F5F5F5F5F5F5F5F5E2F5E2F5F5E2E2E2F5F5E2F5F5F5F5F5
310
F5F5F5F5F5F5F5F5F5F5F5F5F5F5F5F5F5F5F5F5F5F5F5F5F5F5F5F5F5F5F5F5F5F5F5F5F5F5F5F5F5F5F5F5F5F5F5F5F5F5F5F5F5F5E2F5F5F5F5F5F5F5F5F5F5F5F5E2F5F5F5F5F5F5F5F5F5F5F5F5E2E2E2F5F5E2F5F5F5F5F5F5F5F5F5E2E2F5F5F5F5E2F5E2E2F5F5F5F5F5F5F5F5F5F5F5F5F5F5F5F5F5F5F5F5F5F5
310
F5F5F5F5F5F5F5F5F5F5F5F5F5F5F5F5F5F5F5F5F5F5F5F5F5F5F5F5F5F5F5F5F5F5F5F5F5E2F5E2F5F5E2E2E2F5F5E2F5F5F5F5F5F5F5F5F5F5F5F5F5F5F5F5F5F5F5F5F5F5F5F5F5F5F5F5F5F5F5F5F5F5F5F5F5F5F5F5F5F5F5F5F5F5F5F5F5F5F5F5F5F5F5F5F5F5F5E2E2F5F5F5F5F5F5F5F5F5F5F5E2F5F5F5F5F5F5
310
F5F5F5F5F5F5F5F5F5F5F5F5F5F5F5F5F5F5F5F5F5F5F5F5F5F5F5F5F5F5F5F5F5F5F5F5F5F5F5F5F5F5F5F5F5F5F5F5F5F5F5F5F5F5F5F5F5F5F5F5F5F5F5F5F5F5F5F5F5F5F5F5F5F5F5F5F5F5F5F5F5F5F5F5F5F5F5F5F5F5E2F5E2F5F5E2E2E2F5F5E2F5F5F5F5F5F5F5F5F5F5F5F5F5F5F5F5F5F5F5F5F5F5F5F5F5F5
310
F5F5F5F5F5F5F5F5F5F5F5F5F5F5F5F5F5F5F5F5F5F5F5F5F5F5F5F5F5F5F5F5F5F5E2F5F5F5F5F5F5F5F5F5F5F5E2F5F5F5F5F5F5F5F5F5F5F5F5F5F5F5F5F5F5F5F5F5F5F5F5F5F5F5F5F5F5F5F5F5F5F5F5F5F5F5F5F5F5F5F5F5F5F5F5F5F5F5F5F5F5F5F5F5F5F5F5F5F5F5F5F5F5F5F5F5F5F5F5F5F5F5F5F5F5F5F5
310
F5F5F5F5F5F5F5F5F5F5F5F5F5F5F5F5E2F5E2F5F5E2E2E2F5F5E2F5F5F5F5F5F5F5F5F5F5F5F5F5F5F5F5F5F5F5F5F5F5F5F5F5F5F5F5F5F5F5F5F5F5F5F5F5F5F5F5F5F5F5F5F5F5F5F5F5F5F5F5F5F5F5F5F5F5F5F5E2F5F5F5F5F5F5F5F5F5F5F5E2F5F5F5F5F5F5F5F5F5F5F5F5F5F5F5F5F5F5F5F5F5F5F5F5F5F5F5
310
F5F5F5F5F5F5F5F5F5F5F5F5F5F5F5F5F5F5F5F5F5F5F5F5F5F5F5F5F5F5F5F5F5F5F5F5F5F5F5F5F5F5F5F5F5F5F5F5F5F5F5F5F5F5F5F5F5F5F5F5F5F5F5F5F5F5F5F5F5E2F5E2F5F5E2E2E2F5F5E2F5F5F5F5F5F5F5F5F5F5F5F5F5F5F5F5F5F5F5F5F5F5F5F5F5F5F5F5F5F5F5F5F5F5F5F5F5F5F5F5F5F5F5F5F5F5F5
310
F5F5F5F5F5F5F5F5F5F5F5F5F5F5E2F5F5F5F5F5F5F5F5F5F5E2F5F5F5F5F5F5F5F5F5F5F5F5F5F5F5F5F5F5F5F5F5F5F5F5F5F5F5F5F5F5F5F5F5F5F5F5F5F5F5F5F5F5F5F5F5F5F5F5F5F5F5F5F5F5F5F5F5F5F5F5F5F5F5F5F5F5F5F5F5F5F5F5F5F5F5F5F5F5F5F5F5F5F5F5F5F5F5F5F5F5F5F5F5F5F5F5E2F5E2F5F5
310
E2E2E2F5F5E2F5F5F5F5F5F5F5F5F5F5F5F5F5F5F5F5F5F5F5F5F5F5F5F5F5F5F5F5F5F5F5F5F5F5F5F5F5F5F5F5F5F5F5F5F5F5F5F5F5F5F5F5F5F5F5F5F5F5F5F5F5F5E2F5F5F5F5F5F5F5F5F5E2F5F5F5F5F5F5F5F5F5F5F5F5F5F5F5F5F5F5F5F5F5F5F5F5F5F5F5F5F5F5F5F5F5F5F5F5F5F5F5F5F5F5F5F5F5F5F5F5
310
F5F5F5F5F5F5F5F5F5F5F5F5F5F5F5F5F5F5F5F5F5F5F5F5F5F5F5F5F5F5F5F5F5F5F5F5F5F5F5F5F5F5F5F5F5F5F5F5E2F5E2F5F5E2E2E2F5F5E2F5F5F5F5F5F5F5F5F5F5F5F5F5F5F5F5F5F5F5F5F5F5F5F5F5F5F5F5F5F5F5F5F5F5F5F5F5F5F5F5F5F5F5F5F5F5F5F5F5F5F5F5F5F5F5F5F5F5F5F5F5F5E2F5F5F5F5F5
310
F5F5F5E2F5F5F5F5F5F5F5F5F5F5F5F5F5F5F5F5F5F5F5F5F5F5F5F5F5F5F5F5F5F5F5F5F5F5F5F5F5F5F5F5F5F5F5F5F5F5F5F5F5F5F5F5F5F5F5F5F5F5F5F5F5F5F5F5F5F5F5F5F5F5F5F5F5F5F5F5F5F5F5F5F5F5F5F5F5F5F5F5F5F5F5F5F5F5F5F5F5E2F5E2F5F5E2E2E2F5F5E2F5F5F5F5F5F5F5F5F5F5F5F5F5F5F5
310
F5F5F5F5F5F5F5F5F5F5F5F5F5F5F5F5F5F5F5F5F5F5F5F5F5F5F5F5F5F5F5F5F5F5F5F5F5F5F5F5F5F5F5F5F5F5F5F5E2F5F5F5F5F5F5E2F5F5F5F5F5F5F5F5F5F5F5F5F5F5F5F5F5F5F5F5F5F5F5F5F5F5F5F5F5F5F5F5F5F5F5F5F5F5F5F5F5F5F5F5F5F5F5F5F5F5F5F5F5F5F5F5F5F5F5F5F5F5F5F5F5F5F5F5F5F5F5
310
F5F5F5F5F5F5F5F5F5F5F5F5F5F5F5F5F5F5F5F5F5F5F5F5F5F5F5E2F5E2F5F5E2E2E2F5F5E2F5F5F5F5F5F5F5F5F5F5F5F5F5F5F5F5F5F5F5F5F5F5F5F5F5F5F5F5F5F5F5F5F5F5F5F5F5F5F5F5F5F5F5F5F5F5F5F5F5F5F5F5F5F5F5F5F5F5F5F5F5F5F5F5E2E2E2E2E2E2F5F5F5F5F5F5F5F5F5F5F5F5F5F5F5F5F5F5F5
310
F5F5F5F5F5F5F5F5F5F5F5F5F5F5F5F5F5F5F5F5F5F5F5F5F5F5F5F5F5F5F5F5F5F5F5F5F5F5F5F5F5F5F5F5F5F5F5F5F5F5F5F5F5F5F5F5F5F5F5F5F5F5F5F5F5F5F5F5F5F5F5F5F5F5F5F5F5F5F5F5E2F5E2F5F5E2E2E2F5F5E2F5F5F5F5F5F5F5F5F5F5F5F5F5F5F5F5F5F5F5F5F5F5F5F5F5F5F5F5F5F5F5F5F5F5F5F5
310
F5F5F5F5F5F5F5F5F5F5F5F5F5F5F5F5F5F5F5F5F5F5F5F5F5F5F5F5F5F5F5F5F5F5F5F5F5F5F5F5F5F5F5F5F5F5F5F5F5F5F5F5F5F5F5F5F5F5F5F5F5F5F5F5F5F5F5F5F5F5F5F5F5F5F5F5F5F5F5F5F5F5F5F5F5F5F5F5F5F5F5F5F5F5F5F5F5F5F5F5F5F5F5F5F5F5F5F5F5F5F5F5F5F5F5F5F5F5F5F5F5F5F5F5F5F5F5
310
F5F5F5F5F5F5E2F5E2F5F5E2E2E2F5F5E2F5F5F5F5F5F5F5F5F5F5F5F5F5F5F5F5F5F5F5F5F5F5F5F5F5F5F5F5F5F5F5F5F5F5F5F5F5F5F5F5F5F5F5F5F5F5F5F5F5F5F5F5F5F5F5F5F5F5F5F5F5F5F5F5F5F5F5F5F5F5F5F5F5F5F5F5F5F5F5F5F5F5F5F5F5F5F5F5F5F5F5F5F5F5F5F5F5F5F5F5F5F5F5F5F5F5F5F5F5F5
310
F5F5F5F5F5F5F5F5F5F5F5F5F5F5F5F5F5F5F5F5F5F5F5F5F5F5F5F5F5F5F5F5F5F5F5F5F5F5F5F5F5F5F5F5F5F5F5F5F5F5F5F5F5F5F5F5F5F5F5E2F5E2F5F5E2E2E2F5F5E2F5F5F5F5F5F5F5F5F5F5F5F5F5F5F5F5F5F5F5F5F5F5F5F5F5F5F5F5F5F5F5F5F5F5F5F5F5F5F5F5F5F5F5F5F5F5F5F5F5F5F5F5F5F5F5F5F5
310
F5F5F5F5F5F5F5F5F5F5F5F5F5F5F5F5F5F5F5F5F5F5F5F5F5F5F5F5F5F5F5F5F5F5F5F5F5F5F5F5F5F5F5F5F5F5F5F5F5F5F5F5F5F5F5F5F5F5F5F5F5F5F5F5F5F5F5F5F5F5F5F5F5F5F5F5F5F5F5F5F5F5F5F5F5F5F5F5F5F5F5F5F5F5F5F5F5F5F5F5F5F5F5F5F5F5F5F5F5F5F5F5E2F5E2F5F5E2E2E2F5F5E2F5F5F5F5
310
F5F5F5F5F5F5F5F5F5F5F5F5F5F5F5F5F5F5F5F5F5F5F5F5F5F5F5F5F5F5F5F5F5F5F5F5F5F5F5F5F5F5F5F5F5F5F5F5F5F5F5F5F5F5F5F5F5F5F5F5F5F5F5F5F5F5F5F5F5F5F5F5F5F5F5F5F5F5F5F5F5F5F5F5F5F5F5F5F5F5F5F5F5F5F5F5F5F5F5F5F5F5F5F5F5F5F5F5F5F5F5F5F5F5F5F5F5F5F5F5F5F5F5F5F5F5F5
310
F5F5F5F5F5F5F5F5F5F5F5F5F5F5F5F5F5F5F5F5F5F5F5F5F5F5F5F5F5F5F5F5F5F5F5F5F5F5E2F5F5F5F5E2E2E2F5F5E2F5F5F5F5F5F5F5F5F5F5F5F5F5F5F5F5F5F5F5F5F5F5F5F5F5F5F5F5F5F5F5F5F5F5F5F5F5F5F5F5F5F5F5F5F5F5F5F5F5F5F5F5F5F5F5F5F5F5F5F5F5F5F5F5F5F5F5F5F5F5F5F5F5F5F5F5F5F5
310
F5F5F5F5F5F5F5F5F5F5F5F5F5F5F5F5F5F5F5F5F5F5F5F5F5F5F5F5F5F5F5F5F5F5F5F5F5F5F5F5F5F5F5F5F5F5F5F5F5F5F5F5F5F5F5F5F5F5F5F5F5F5F5F5F5F5F5F5F5F5F5F5F5F5F5F5F5F5F5F5F5F5F5F5F5F5F5F5F5F5F5E2F5F5F5F5E2E2E2F5F5E2F5F5F5F5F5F5F5F5F5F5F5F5F5F5F5F5F5F5F5F5F5F5F5F5F5
310
F5F5F5F5F5F5F5F5F5F5F5F5F5F5F5F5F5F5F5F5F5F5F5F5F5F5F5F5F5F5F5F5F5F5F5F5F5F5F5F5F5F5F5F5F5F5F5F5F5F5F5F5F5F5F5F5F5F5F5F5F5F5F5F5F5F5F5F5F5F5F5F5F5F5F5F5F5F5F5F5F5F5F5F5F5F5F5F5F5F5F5F5F5F5F5F5F5F5F5F5F5F5F5F5F5F5F5F5F5F5F5F5F5F5F5F5F5F5F5F5F5F5F5F5F5F5F5
310
F5F5F5F5F5F5F5F5F5F5F5F5F5F5F5F5F5E2F5F5F5F5E2E2E2F5F5E2F5F5F5F5F5F5F5F5F5F5F5F5F5F5F5F5F5F5F5F5F5F5F5F5F5F5F5F5F5F5F5F5F5F5F5F5F5F5F5F5F5F5F5F5F5F5F5F5F5F5F5F5F5F5F5F5F5F5F5F5F5F5F5F5F5F5F5F5F5F5F5F5F5F5F5F5F5F5F5F5F5F5F5F5F5F5F5F5F5F5F5F5F5F5F5F5F5F5F5
310
F5F5F5F5F5F5F5F5F5F5F5F5F5F5F5F5F5F5F5F5F5F5F5F5F5F5F5F5F5F5F5F5F5F5F5F5F5F5F5F5F5F5F5F5F5F5F5F5F5F5F5F5F5F5F5F5F5F5F5F5F5F5F5F5F5F5F5F5F5F5E2F5F5F5F5E2E2E2F5F5E2F5F5F5F5F5F5F5F5F5F5F5F5F5F5F5F5F5F5F5F5F5F5F5F5F5F5F5F5F5F5F5F5F5F5F5F5F5F5F5F5F5F5F5F5F5F5
310
F5F5F5F5F5F5F5F5F5F5F5F5F5F5F5F5F5F5F5F5F5F5F5F5F5F5F5F5F5F5F5F5F5F5F5F5F5F5F5F5F5F5F5F5F5F5F5F5F5F5F5F5F5F5F5F5F5F5F5F5F5F5F5F5F5F5F5F5F5F5F5F5F5F5F5F5F5F5F5F5F5F5F5F5F5F5F5F5F5F5F5F5F5F5F5F5F5F5F5F5F5F5F5F5F5F5F5F5F5F5F5F5F5F5F5F5F5F5F5F5F5F5F5E2F5F5F5
310
F5E2E2E2F5F5E2F5F5F5F5F5F5F5F5F5F5F5F5F5F5F5F5F5F5F5F5F5F5F5F5F5F5F5F5F5F5F5F5F5F5F5F5F5F5F5F5F5F5F5F5F5F5F5F5F5F5F5F5F5F5F5F5F5F5F5F5F5F5F5F5F5F5F5F5F5F5F5F5F5F5F5F5F5F5F5F5F5F5F5F5F5F5F5F5F5F5F5F5F5F5F5F5F5F5F5F5F5F5F5F5F5F5F5F5F5F5F5F5F5F5F5F5F5F5F5F5
310
F5F5F5F5F5F5F5F5F5F5F5F5F5F5F5F5F5F5F5F5F5F5F5F5F5F5F5F5F5F5F5F5F5F5F5F5F5F5F5F5F5F5F5F5F5F5F5F5F5E2F5F5F5F5E2E2E2F5F5E2F5F5F5F5F5F5F5F5F5F5F5F5F5F5F5F5F5F5F5F5F5F5F5F5F5F5F5F5F5F5F5F5F5F5F5F5F5F5F5F5F5F5F5F5F5F5F5F5F5F5F5F5F5F5F5F5F5F5F5F5F5F5F5F5F5F5F5
310
F5F5F5F5F5F5F5F5F5F5F5F5F5F5F5F5F5F5F5F5F5F5F5F5F5F5F5F5F5F5F5F5F5F5F5F5F5F5F5F5F5F5F5F5F5F5F5F5F5F5F5F5F5F5F5F5F5F5F5F5F5F5F5F5F5F5F5F5F5F5F5F5F5F5F5F5F5F5F5F5F5F5F5F5F5F5F5F5F5F5F5F5F5F5F5F5F5F5F5F5F5F5E2F5F5F5F5E2E2E2F5F5E2F5F5F5F5F5F5F5F5F5F5F5F5F5F5
310
F5F5F5F5F5F5F5F5F5F5F5F5F5F5F5F5F5F5F5F5F5F5F5F5F5F5F5F5F5F5F5F5F5F5F5F5F5F5F5F5F5F5F5F5F5F5F5F5F5F5F5F5F5F5F5F5F5F5F5F5F5F5F5F5F5F5F5F5F5F5F5F5F5F5F5F5F5F5F5F5F5F5F5F5F5F5F5F5F5F5F5F5F5F5F5F5F5F5F5F5F5F5F5F5F5F5F5F5F5F5F5F5F5F5F5F5F5F5F5F5F5F5F5F5F5F5F5
310
F5F5F5F5F5F5F5F5F5F5F5F5F5F5F5F5F5F5F5F5F5F5F5F5F5F5F5F5E2F5F5F5F5E2E2E2F5F5E2F5F5F5F5F5F5F5F5F5F5F5F5F5F5F5F5F5F5F5F5F5F5F5F5F5F5F5F5F5F5F5F5F5F5F5F5F5F5F5F5F5F5F5F5F5F5F5F5F5F5F5F5F5F5F5F5F5F5F5F5F5F5F5F5F5F5F5F5F5F5F5F5F5F5F5F5F5F5F5F5F5F5F5F5F5F5F5F5
310
F5F5F5F5F5F5F5F5F5F5F5F5F5F5F5F5F5F5F5F5F5F5F5F5F5F5F5F5F5F5F5F5F5F5F5F5F5F5F5F5F5F5F5F5F5F5F5F5F5F5F5F5F5F5F5F5F5F5F5F5F5F5F5F5F5F5F5F5F5F5F5F5F5F5F5F5F5F5F5F5F5E2F5F5F5F5E2E2E2F5F5E2F5F5F5F5F5F5F5F5F5F5F5F5F5F5F5F5F5F5F5F5F5F5F5F5F5F5F5F5F5F5F5F5F5F5F5
310
F5F5F5F5F5F5F5F5F5F5F5F5F5F5F5F5F5F5F5F5F5F5F5F5F5F5F5F5F5F5F5F5F5F5F5F5F5F5F5F5F5F5F5F5F5F5F5F5F5F5F5F5F5F5F5F5F5F5F5F5F5F5F5F5F5F5F5F5F5F5F5F5F5F5F5F5F5F5F5F5F5F5F5F5F5F5F5F5F5F5F5F5F5F5F5F5F5F5F5F5F5F5F5F5F5F5F5F5F5F5F5F5F5F5F5F5F5F5F5F5F5F5F5F5F5F5F5
310
F5F5F5F5F5F5F5E2F5F5F5F5E2E2E2F5F5E2F5F5F5F5F5F5F5F5F5F5F5F5F5F5F5F5F5F5F5F5F5F5F5F5F5F5F5F5F5F5F5F5F5F5F5F5F5F5F5F5F5F5F5F5F5F5F5F5F5F5F5F5F5F5F5F5F5F5F5F5F5F5F5F5F5F5F5F5F5F5F5F5F5F5F5F5F5F5F5F5F5F5F5F5F5F5F5F5F5F5F5F5F5F5F5F5F5F5F5F5F5F5F5F5F5F5F5F5F5
310
F5F5F5F5F5F5F5F5F5F5F5F5F5F5F5F5F5F5F5F5F5F5F5F5F5F5F5F5F5F5F5F5F5F5F5F5F5F5F5F5F5F5F5F5F5F5F5F5F5F5F5F5F5F5F5F5F5F5F5F5E2F5E2F5F5E2E2E2F5F5E2F5F5F5F5F5F5F5F5F5F5F5F5F5F5F5F5F5F5F5F5F5F5F5F5F5F5F5F5F5F5F5F5F5F5F5F5F5F5F5F5F5F5F5F5F5F5F5F5F5F5F5F5F5F5F5F5
310
F5F5F5F5F5F5F5F5F5F5F5F5F5F5F5F5F5F5F5F5F5F5F5F5F5F5F5F5F5F5F5F5F5F5F5F5F5F5F5F5F5F5F5F5F5F5F5F5F5F5F5F5F5F5F5F5F5F5F5F5F5F5F5F5F5F5F5F5F5F5F5F5F5F5F5F5F5F5F5F5F5F5F5F5F5F5F5F5F5F5F5F5F5F5F5F5F5F5F5F5F5F5F5F5F5F5F5F5F5F5F5F5F5E2F5E2F5F5E2E2E2F5F5E2F5F5F5
310
F5F5F5F5F5F5F5F5F5F5F5F5F5F5F5F5F5F5F5F5F5F5F5F5F5F5F5F5F5F5F5F5F5F5F5F5F5F5F5F5F5F5F5F5F5F5F5F5F5F5F5F5F5F5F5F5F5F5F5F5F5F5F5F5F5F5F5F5F5F5F5F5F5F5F5F5F5F5F5F5F5F5F5F5F5F5F5F5F5F5F5F5F5F5F5F5F5F5F5F5F5F5F5F5F5F5F5F5F5F5F5F5F5F5F5F5F5F5F5F5F5F5F5F5F5F5F5
310
F5F5F5F5F5F5F5F5F5F5F5F5F5F5F5F5F5F5F5F5F5F5F5F5F5F5F5F5F5F5F5F5F5F5F5F5F5F5F5E2F5E2F5F5E2E2E2F5F5E2F5F5F5F5F5F5F5F5F5F5F5F5F5F5F5F5F5F5F5F5F5F5F5F5F5F5F5F5F5F5F5F5F5F5F5F5F5F5F5F5F5F5F5F5F5F5F5F5F5F5F5F5F5F5F5F5F5F5F5F5F5F5F5F5F5F5F5F5F5F5F5F5F5F5F5F5F5
310
F5F5F5F5F5F5F5F5F5F5F5F5F5F5F5F5F5F5F5F5F5F5F5F5F5F5F5F5F5F5F5F5F5F5F5F5F5F5F5F5F5F5F5F5F5F5F5F5F5F5F5F5F5F5F5F5F5F5F5F5F5F5F5F5F5F5F5F5F5F5F5F5F5F5F5F5F5F5F5F5F5F5F5F5F5F5F5F5F5F5F5F5E2F5E2F5F5E2E2E2F5F5E2F5F5F5F5F5F5F5F5F5F5F5F5F5F5F5F5F5F5F5F5F5F5F5F5
310
F5F5F5F5F5F5F5F5F5F5F5F5F5F5F5F5F5F5F5F5F5F5F5F5F5F5F5F5F5F5F5F5F5F5F5F5F5F5F5F5F5F5F5F5F5F5F5F5F5F5F5F5F5F5F5F5F5F5F5F5F5F5F5F5F5F5F5F5F5F5F5F5F5F5F5F5F5F5F5F5F5F5F5F5F5F5F5F5F5F5F5F5F5F5F5F5F5F5F5F5F5F5F5F5F5F5F5F5F5F5F5F5F5F5F5F5F5F5F5F5F5F5F5F5F5F5F5
310
F5F5F5F5F5F5F5F5F5F5F5F5F5F5F5F5F5F5E2F5E2F5F5E2E2E2F5F5E2F5F5F5F5F5F5F5F5F5F5F5F5F5F5F5F5F5F5F5F5F5F5F5F5F5F5F5F5F5F5F5F5F5F5F5F5F5F5F5F5F5F5F5F5F5F5F5F5F5F5F5F5F5F5F5F5F5F5F5F5F5F5F5F5F5F5F5F5F5F5F5F5F5F5F5F5F5F5F5F5F5F5F5F5F5F5F5F5F5F5F5F5F5F5F5F5F5F5
310
F5F5F5F5F5F5F5F5F5F5F5F5F5F5F5F5F5F5F5F5F5F5F5F5F5F5F5F5F5F5F5F5F5F5F5F5F5F5F5F5F5F5F5F5F5F5F5F5F5F5F5F5F5F5F5F5F5F5F5F5F5F5F5F5F5F5F5F5F5F5F5E2F5E2F5F5E2E2E2F5F5E2F5F5F5F5F5F5F5F5F5F5F5F5F5F5F5F5F5F5F5F5F5F5F5F5F5F5F5F5F5F5F5F5F5F5F5F5F5F5F5F5F5F5F5F5F5
310
F5F5F5F5F5F5F5F5F5F5F5F5F5F5F5F5F5F5F5F5F5F5F5F5F5F5F5F5F5F5F5F5F5F5F5F5F5F5F5F5F5F5F5F5F5F5F5F5F5F5F5F5F5F5F5F5F5F5F5F5F5F5F5F5F5F5F5F5F5F5F5F5F5F5F5F5F5F5F5F5F5F5F5F5F5F5F5F5F5F5F5F5F5F5F5F5F5F5F5F5F5F5F5F5F5F5F5F5F5F5F5F5F5F5F5F5F5F5F5F5F5F5F5F5E2F5E2
310
F5F5E2E2E2F5F5E2F5F5F5F5F5F5F5F5F5F5F5F5F5F5F5F5F5F5F5F5F5F5F5F5F5F5F5F5F5F5F5F5F5F5F5F5F5F5F5F5F5F5F5F5F5F5F5F5F5F5F5F5F5F5F5F5F5F5F5F5F5F5F5F5F5F5F5F5F5F5F5F5F5F5F5F5F5F5F5F5F5F5F5F5F5F5F5F5F5F5F5F5F5F5F5F5F5F5F5F5F5F5F5F5F5F5F5F5F5F5F5F5F5F5F5F5F5F5F5
310
F5F5F5F5F5F5F5F5F5F5F5F5F5F5F5F5F5F5F5F5F5F5F5F5F5F5F5F5F5F5F5F5F5F5F5F5F5F5F5F5F5F5F5F5F5F5F5F5F5F5E2F5E2F5F5E2E2E2F5F5E2F5F5F5F5F5F5F5F5F5F5F5F5F5F5F5F5F5F5F5F5F5F5F5F5F5F5F5F5F5F5F5F5F5F5F5F5F5F5F5F5F5F5F5F5F5F5F5F5F5F5F5F5F5F5F5F5F5F5F5F5F5F5F5F5F5F5
310
F5F5F5F5F5F5F5F5F5F5F5F5F5F5F5F5F5F5F5F5F5F5F5F5F5F5F5F5F5F5F5F5F5F5F5F5F5F5F5F5F5F5F5F5F5F5F5F5F5F5F5F5F5F5F5F5F5F5F5F5F5F5F5F5F5F5F5F5F5F5F5F5F5F5F5F5F5F5F5F5F5F5F5F5F5F5F5F5F5F5F5F5F5F5F5F5F5F5F5F5F5F5F5E2F5E2F5F5E2E2E2F5F5E2F5F5F5F5F5F5F5F5F5F5F5F5F5
310
F5F5F5F5F5F5F5F5F5F5F5F5F5F5F5F5F5F5F5F5F5F5F5F5F5F5F5F5F5F5F5F5F5F5F5F5F5F5F5F5F5F5F5F5F5F5F5F5F5F5F5F5F5F5F5F5F5F5F5F5F5F5F5F5F5F5F5F5F5F5F5F5F5F5F5F5F5F5F5F5F5F5F5F5F5F5F5F5F5F5F5F5F5F5F5F5F5F5F5F5F5F5F5F5F5F5F5F5F5F5F5F5F5F5F5F5F5F5F5F5F5F5F5F5F5F5F5
310
F5F5F5F5F5F5F5F5F5F5F5F5F5F5F5F5F5F5F5F5F5F5F5F5F5F5F5F5F5E2F5E2F5F5E2E2E2F5F5E2F5F5F5F5F5F5F5F5F5F5F5F5F5F5F5F5F5F5F5F5F5F5F5F5F5F5F5F5F5F5F5F5F5F5F5F5F5F5F5F5F5F5F5F5F5F5F5F5F5F5F5F5F5F5F5F5F5F5F5F5F5F5F5F5F5F5F5F5F5F5F5F5F5F5F5F5F5F5F5F5F5F5F5F5F5F5F5
310
F5F5F5F5F5F5F5F5F5F5F5F5F5F5F5F5F5F5F5F5F5F5F5F5F5F5F5F5F5F5F5F5F5F5F5F5F5F5F5F5F5F5F5F5F5F5F5F5F5F5F5F5F5F5F5F5F5F5F5F5F5F5F5F5F5F5F5F5F5F5F5F5F5F5F5F5F5F5F5F5F5F5E2F5E2F5F5E2E2E2F5F5E2F5F5F5F5F5F5F5F5F5F5F5F5F5F5F5F5F5F5F5F5F5F5F5F5F5F5F5F5F5F5F5F5F5F5
310
F5F5F5F5F5F5F5F5F5F5F5F5F5F5F5F5F5F5F5F5F5F5F5F5F5F5F5F5F5F5F5F5F5F5F5F5F5F5F5F5F5F5F5F5F5F5F5F5F5F5F5F5F5F5F5F5F5F5F5F5F5F5F5F5F5F5F5F5F5F5F5F5F5F5F5F5F5F5F5F5F5F5F5F5F5F5F5F5F5F5F5F5F5F5F5F5F5F5F5F5F5F5F5F5F5F5F5F5F5F5F5F5F5F5F5F5F5F5F5F5F5F5F5F5F5F5F5
310
F5F5F5F5F5F5F5F5E2F5E2F5F5E2E2E2F5F5E2F5F5F5F5F5F5F5F5F5F5F5F5F5F5F5F5F5F5F5F5F5F5F5F5F5F5F5F5F5F5F5F5F5F5F5F5F5F5F5F5F5F5F5F5F5F5F5F5F5F5F5F5F5F5F5F5F5F5F5F5F5F5F5F5F5F5F5F5F5F5F5F5F5F5F5F5F5F5F5F5F5F5F5F5F5F5F5F5F5F5F5F5F5F5F5F5F5F5F5F5F5F5F5F5F5F5F5F5
310
F5F5F5F5F5F5F5F5F5F5F5F5F5F5F5F5F5F5F5F5F5F5F5F5F5F5F5F5F5F5F5F5F5F5F5F5F5F5F5F5F5F5F5F5F5F5F5F5F5F5F5F5F5F5F5F5F5F5F5F5F5E2F5E2F5F5E2E2E2F5F5E2F5F5F5F5F5F5F5F5F5F5F5F5F5F5F5F5F5F5F5F5F5F5F5F5F5F5F5F5F5F5F5F5F5F5F5F5F5F5F5F5F5F5F5F5F5F5F5F5F5F5F5F5F5F5F5
310
F5F5F5F5F5F5F5F5F5F5F5F5F5F5F5F5F5F5F5F5F5F5F5F5F5F5F5F5F5F5F5F5F5F5F5F5F5F5F5F5F5F5F5F5F5F5F5F5F5F5F5F5F5F5F5F5F5F5F5F5F5F5F5F5F5F5F5F5F5F5F5F5F5F5F5F5F5F5F5F5F5F5F5F5F5F5F5F5F5F5F5F5F5F5F5F5F5F5F5F5F5F5F5F5F5F5F5F5F5F5F5F5F5F5E2F5E2F5F5E2E2E2F5F5E2F5F5
310
F5F5F5F5F5F5F5F5F5F5F5F5F5F5F5F5F5F5F5F5F5F5F5F5F5F5F5F5F5F5F5F5F5F5F5F5F5F5F5F5F5F5F5F5F5F5F5F5F5F5F5F5F5F5F5F5F5F5F5F5F5F5F5F5F5F5F5F5F5F5F5F5F5F5F5F5F5F5F5F5F5F5F5F5F5F5F5F5F5F5F5F5F5F5F5F5F5F5F5F5F5F5F5F5F5F5F5F5F5F5F5F5F5F5F5F5F5F5F5F5F5F5F5F5F5F5F5
310
F5F5F5F5F5F5F5F5F5F5F5F5F5F5F5F5F5F5F5F5F5F5F5F5F5F5F5F5F5F5F5F5F5F5F5F5F5F5F5F5E2F5E2F5F5E2E2E2F5F5E2F5F5F5F5F5F5F5F5F5F5F5F5F5F5F5F5F5F5F5F5F5F5F5F5F5F5F5F5F5F5F5F5F5F5F5F5F5F5F5F5F5F5F5F5F5F5F5F5F5F5F5F5F5F5F5F5F5F5F5F5F5F5F5F5F5F5F5F5F5F5F5F5F5F5F5F5
310
F5F5F5F5F5F5F5F5F5F5F5F5F5F5F5F5F5F5F5F5F5F5F5F5F5F5F5F5F5F5F5F5F5F5F5F5F5F5F5F5F5F5F5F5F5F5F5F5F5F5F5F5F5F5F5F5F5F5F5F5F5F5F5F5F5F5F5F5F5F5F5F5F5F5F5F5F5F5F5F5F5F5F5F5F5F5F5F5F5F5F5F5F5E2F5E2F5F5E2E2E2F5F5E2F5F5F5F5F5F5F5F5F5F5F5F5F5F5F5F5F5F5F5F5F5F5F5
310
F5F5F5F5F5F5F5F5F5F5F5F5F5F5F5F5F5F5F5F5F5F5F5F5F5F5F5F5F5F5F5F5F5F5F5F5F5F5F5F5F5F5F5F5F5F5F5F5F5F5F5F5F5F5F5F5F5F5F5F5F5F5F5F5F5F5F5F5F5F5F5F5F5F5F5F5F5F5F5F5F5F5F5F5F5F5F5F5F5F5F5F5F5F5F5F5F5F5F5F5F5F5F5F5F5F5F5F5F5F5F5F5F5F5F5F5F5F5F5F5F5F5F5F5F5F5F5
310
F5F5F5F5F5F5F5F5F5F5F5F5F5F5F5F5F5F5F5E2F5F5F5F5E2E2E2F5F5E2F5F5F5F5F5F5F5F5F5F5F5F5F5F5F5F5F5F5F5F5F5F5F5F5F5F5F5F5F5F5F5F5F5F5F5F5F5F5F5F5F5F5F5F5F5F5F5F5F5F5F5F5F5F5F5F5F5F5F5F5F5F5F5F5F5F5F5F5F5F5F5F5F5F5F5F5F5F5F5F5F5F5F5F5F5F5F5F5F5F5F5F5F5F5F5F5F5
310
F5F5F5F5F5F5F5F5F5F5F5F5F5F5F5F5F5F5F5F5F5F5F5F5F5F5F5F5F5F5F5F5F5F5F5F5F5F5F5F5F5F5F5F5F5F5F5F5F5F5F5F5F5F5F5F5F5F5F5F5F5F5F5F5F5F5F5F5F5F5F5F5E2F5F5F5F5E2E2E2F5F5E2F5F5F5F5F5F5F5F5F5F5F5F5F5F5F5F5F5F5F5F5F5F5F5F5F5F5F5F5F5F5F5F5F5F5F5F5F5F5F5F5F5F5F5F5
310
F5F5F5F5F5F5F5F5F5F5F5F5F5F5F5F5F5F5F5F5F5F5F5F5F5F5F5F5F5F5F5F5F5F5F5F5F5F5F5F5F5F5F5F5F5F5F5F5F5F5F5F5F5F5F5F5F5F5F5F5F5F5F5F5F5F5F5F5F5F5F5F5F5F5F5F5F5F5F5F5F5F5F5F5F5F5F5F5F5F5F5F5F5F5F5F5F5F5F5F5F5F5F5F5F5F5F5F5F5F5F5F5F5F5F5F5F5F5F5F5F5F5F5F5F5E2F5
310
F5F5F5E2E2E2F5F5E2F5F5F5F5F5F5F5F5F5F5F5F5F5F5F5F5F5F5F5F5F5F5F5F5F5F5F5F5F5F5F5F5F5F5F5F5F5F5F5F5F5F5F5F5F5F5F5F5F5F5F5F5F5F5F5F5F5F5F5F5F5F5F5F5F5F5F5F5F5F5F5F5F5F5F5F5F5F5F5F5F5F5F5F5F5F5F5F5F5F5F5F5F5F5F5F5F5F5F5F5F5F5F5F5F5F5F5F5F5F5F5F5F5F5F5F5F5F5
310
F5F5F5F5F5F5F5F5F5F5F5F5F5F5F5F5F5F5F5F5F5F5F5F5F5F5F5F5F5F5F5F5F5F5F5F5F5F5F5F5F5F5F5F5F5F5F5F5F5F5F5E2F5F5F5F5E2E2E2F5F5E2F5F5F5F5F5F5F5F5F5F5F5F5F5F5F5F5F5F5F5F5F5F5F5F5F5F5F5F5F5F5F5F5F5F5F5F5F5F5F5F5F5F5F5F5F5F5F5F5F5F5F5F5F5F5F5F5F5F5F5F5F5F5F5F5F5
310
F5F5F5F5F5F5F5F5F5F5F5F5F5F5F5F5F5F5F5F5F5F5F5F5F5F5F5F5F5F5F5F5F5F5F5F5F5F5F5F5F5F5F5F5F5F5F5F5F5F5F5F5F5F5F5F5F5F5F5F5F5F5F5F5F5F5F5F5F5F5F5F5F5F5F5F5F5F5F5F5F5F5F5F5F5F5F5F5F5F5F5F5F5F5F5F5F5F5F5F5F5F5F5F5E2F5F5F5F5E2E2E2F5F5E2F5F5F5F5F5F5F5F5F5F5F5F5
310
F5F5F5F5F5F5F5F5F5F5F5F5F5F5F5F5F5F5F5F5F5F5F5F5F5F5F5F5F5F5F5F5F5F5F5F5F5F5F5F5F5F5F5F5F5F5F5F5F5F5F5F5F5F5F5F5F5F5F5F5F5F5F5F5F5F5F5F5F5F5F5F5F5F5F5F5F5F5F5F5F5F5F5F5F5F5F5F5F5F5F5F5F5F5F5F5F5F5F5F5F5F5F5F5F5F5F5F5F5F5F5F5F5F5F5F5F5F5F5F5F5F5F5F5F5F5F5
310
F5F5F5F5F5F5F5F5F5F5F5F5F5F5F5F5F5F5F5F5F5F5F5F5F5F5F5F5F5F5E2F5F5F5F5E2E2E2F5F5E2F5F5F5F5F5F5F5F5F5F5F5F5F5F5F5F5F5F5F5F5F5F5F5F5F5F5F5F5F5F5F5F5F5F5F5F5F5F5F5F5F5F5F5F5F5F5F5F5F5F5F5F5F5F5F5F5F5F5F5F5F5F5F5F5F5F5F5F5F5F5F5F5F5F5F5F5F5F5F5F5F5F5F5F5F5F5
310
F5F5F5F5F5F5F5F5F5F5F5F5F5F5F5F5F5F5F5F5F5F5F5F5F5F5F5F5F5F5F5F5F5F5F5F5F5F5F5F5F5F5F5F5F5F5F5F5F5F5F5F5F5F5F5F5F5F5F5F5F5F5F5F5F5F5F5F5F5F5F5F5F5F5F5F5F5F5F5F5F5F5F5E2F5F5F5F5E2E2E2F5F5E2F5F5F5F5F5F5F5F5F5F5F5F5F5F5F5F5F5F5F5F5F5F5F5F5F5F5F5F5F5F5F5F5F5
310
F5F5F5F5F5F5F5F5F5F5F5F5F5F5F5F5F5F5F5F5F5F5F5F5F5F5F5F5F5F5F5F5F5F5F5F5F5F5F5F5F5F5F5F5F5F5F5F5F5F5F5F5F5F5F5F5F5F5F5F5F5F5F5F5F5F5F5F5F5F5F5F5F5F5F5F5F5F5F5F5F5F5F5F5F5F5F5F5F5F5F5F5F5F5F5F5F5F5F5F5F5F5F5F5F5F5F5F5F5F5F5F5F5F5F5F5F5F5F5F5F5F5F5F5F5F5F5
310
F5F5F5F5F5F5F5F5F5E2F5F5F5F5E2E2E2F5F5E2F5F5F5F5F5F5F5F5F5F5F5F5F5F5F5F5F5F5F5F5F5F5F5F5F5F5F5F5F5F5F5F5F5F5F5F5F5F5F5F5F5F5F5F5F5F5F5F5F5F5F5F5F5F5F5F5F5F5F5F5F5F5F5F5F5F5F5F5F5F5F5F5F5F5F5F5F5F5F5F5F5F5F5F5F5F5F5F5F5F5F5F5F5F5F5F5F5F5F5F5F5F5F5F5F5F5F5
310
F5F5F5F5F5F5F5F5F5F5F5F5F5F5F5F5F5F5F5F5F5F5F5F5F5F5F5F5F5F5F5F5F5F5F5F5F5F5F5F5F5F5F5F5F5F5F5F5F5F5F5F5F5F5F5F5F5F5F5F5F5F5E2F5F5F5F5E2E2E2F5F5E2F5F5F5F5F5F5F5F5F5F5F5F5F5F5F5F5F5F5F5F5F5F5F5F5F5F5F5F5F5F5F5F5F5F5F5F5F5F5F5F5F5F5F5F5F5F5F5F5F5F5F5F5F5F5
310
F5F5F5F5F5F5F5F5F5F5F5F5F5F5F5F5F5F5F5F5F5F5F5F5F5F5F5F5F5F5F5F5F5F5F5F5F5F5F5F5F5F5F5F5F5F5F5F5F5F5F5F5F5F5F5F5F5F5F5F5F5F5F5F5F5F5F5F5F5F5F5F5F5F5F5F5F5F5F5F5F5F5F5F5F5F5F5F5F5F5F5F5F5F5F5F5F5F5F5F5F5F5F5F5F5F5F5F5F5F5F5F5F5F5F5E2F5E2F5F5E2E2E2F5F5E2F5
310
F5F5F5F5F5F5F5F5F5F5F5F5F5F5F5F5F5F5F5F5F5F5F5F5F5F5F5F5F5F5F5F5F5F5F5F5F5F5F5F5F5F5F5F5F5F5F5F5F5F5F5F5F5F5F5F5F5F5F5F5F5F5F5F5F5F5F5F5F5F5F5F5F5F5F5F5F5F5F5F5F5F5F5F5F5F5F5F5F5F5F5F5F5F5F5F5F5F5F5F5F5F5F5F5F5F5F5F5F5F5F5F5F5F5F5F5F5F5F5F5F5F5F5F5F5F5F5
310
F5F5F5F5F5F5F5F5F5F5F5F5F5F5F5F5F5F5F5F5F5F5F5F5F5F5F5F5F5F5F5F5F5F5F5F5F5F5F5F5F5E2F5E2F5F5E2E2E2F5F5E2F5F5F5F5F5F5F5F5F5F5F5F5F5F5F5F5F5F5F5F5F5F5F5F5F5F5F5F5F5F5F5F5F5F5F5F5F5F5F5F5F5F5F5F5F5F5F5F5F5F5F5F5F5F5F5F5F5F5F5F5F5F5F5F5F5F5F5F5F5F5F5F5F5F5F5
310
F5F5F5F5F5F5F5F5F5F5F5F5F5F5F5F5F5F5F5F5F5F5F5F5F5F5F5F5F5F5F5F5F5F5F5F5F5F5F5F5F5F5F5F5F5F5F5F5F5F5F5F5F5F5F5F5F5F5F5F5F5F5F5F5F5F5F5F5F5F5F5F5F5F5F5F5F5F5F5F5F5F5F5F5F5F5F5F5F5F5F5F5F5F5E2F5E2F5F5E2E2E2F5F5E2F5F5F5F5F5F5F5F5F5F5F5F5F5F5F5F5F5F5F5F5F5F5
310
F5F5F5F5F5F5F5F5F5F5F5F5F5F5F5F5F5F5F5F5F5F5F5F5F5F5F5F5F5F5F5F5F5F5F5F5F5F5F5F5F5F5F5F5F5F5F5F5F5F5F5F5F5F5F5F5F5F5F5F5F5F5F5F5F5F5F5F5F5F5F5F5F5F5F5F5F5F5F5F5F5F5F5F5F5F5F5F5F5F5F5F5F5F5F5F5F5F5F5F5F5F5F5F5F5F5F5F5F5F5F5F5F5F5F5F5F5F5F5F5F5F5F5F5F5F5F5
310
F5F5F5F5F5F5F5F5F5F5F5F5F5F5F5F5F5F5F5F5E2F5E2F5F5E2E2E2F5F5E2F5F5F5F5F5F5F5F5F5F5F5F5F5F5F5F5F5F5F5F5F5F5F5F5F5F5F5F5F5F5F5F5F5F5F5F5F5F5F5F5F5F5F5F5F5F5F5F5F5F5F5F5F5F5F5F5F5F5F5F5F5F5F5F5F5F5F5F5F5F5F5F5F5F5F5F5F5F5F5F5F5F5F5F5F5F5F5F5F5F5F5F5F5F5F5F5
310
F5F5F5F5F5F5F5F5F5F5F5F5F5F5F5F5F5F5F5F5F5F5F5F5F5F5F5F5F5F5F5F5F5F5F5F5F5F5F5F5F5F5F5F5F5F5F5F5F5F5F5F5F5F5F5F5F5F5F5F5F5F5F5F5F5F5F5F5F5F5F5F5F5E2F5E2F5F5E2E2E2F5F5E2F5F5F5F5F5F5F5F5F5F5F5F5F5F5F5F5F5F5F5F5F5F5F5F5F5F5F5F5F5F5F5F5F5F5F5F5F5F5F5F5F5F5F5
310
F5F5F5F5F5F5F5F5F5F5F5F5F5F5F5F5F5F5F5F5F5F5F5F5F5F5F5F5F5F5F5F5F5F5F5F5F5F5F5F5F5F5F5F5F5F5F5F5F5F5F5F5F5F5F5F5F5F5F5F5F5F5F5F5F5F5F5F5F5F5F5F5F5F5F5F5F5F5F5F5F5F5F5F5F5F5F5F5F5F5F5F5F5F5F5F5F5F5F5F5F5F5F5F5F5F5F5F5F5F5F5F5F5F5F5F5F5F5F5F5F5F5F5F5F5F5E2
310
F5E2F5F5E2E2E2F5F5E2F5F5F5F5F5F5F5F5F5F5F5F5F5F5F5F5F5F5F5F5F5F5F5F5F5F5F5F5F5F5F5F5F5F5F5F5F5F5F5F5F5F5F5F5F5F5F5F5F5F5F5F5F5F5F5F5F5F5F5F5F5F5F5F5F5F5F5F5F5F5F5F5F5F5F5F5F5F5F5F5F5F5F5F5F5F5F5F5F5F5F5F5F5F5F5F5F5F5F5F5F5F5F5F5F5F5F5F5F5F5F5F5F5F5F5F5F5
310
F5F5F5F5F5F5F5F5F5F5F5F5F5F5F5F5F5F5F5F5F5F5F5F5F5F5F5F5F5F5F5F5F5F5F5F5F5F5F5F5F5F5F5F5F5F5F5F5F5F5F5F5E2F5E2F5F5E2E2E2F5F5E2F5F5F5F5F5F5F5F5F5F5F5F5F5F5F5F5F5F5F5F5F5F5F5F5F5F5F5F5F5F5F5F5F5F5F5F5F5F5F5F5F5F5F5F5F5F5F5F5F5F5F5F5F5F5F5F5F5F5F5F5F5F5F5F5
310
F5F5F5F5F5F5F5F5F5F5F5F5F5F5F5F5F5F5F5F5F5F5F5F5F5F5F5F5F5F5F5F5F5F5F5F5F5F5F5F5F5F5F5F5F5F5F5F5F5F5F5F5F5F5F5F5F5F5F5F5F5F5F5F5F5F5F5F5F5F5F5F5F5F5F5F5F5F5F5F5F5F5F5F5F5F5F5F5F5F5F5F5F5F5F5F5F5F5F5F5F5F5F5F5F5E2F5E2F5F5E2E2E2F5F5E2E2E2E2E2E2E2E2E2E2E2E2
310
E2E2E2E2E2E2E2E2E2E2E2E2E2E2E2E2E2E2E2E2E2E2E2E2E2E2E2E2E2E2E2E2E2E2E2E2E2E2E2E2E2E2E2E2E2E2E2E2E2E2E2E2E2E2E2E2E2E2E2E2E2E2E2E2E2E2E2E2E2E2E2E2E2E2E2E2E2E2E2E2E2E2E2E2E2E2E2E2E2E2E2E2E2E2E2E2E2E2E2E2E2E2E2E2E2E2E2E2E2E2E2E2E2E2E2E2E2E2E2E2E2E2E2E2E2E2E2
310
E2E2E2E2E2E2E2E2E2E2E2E2E2E2E2E2E2E2E2E2E2E2E2E2E2E2E2E2E2E2E2E2E2E2F5F5E2E2E2F5F5F5F5F5F5F5F5F5F5F5F5F5F5F5F5F5F5F5F5F5F5F5F5F5F5F5F5F5F5F5F5F5F5F5F5F5F5F5F5F5F5F5F5F5F5F5F5F5F5F5F5F5F5F5F5F5F5F5F5F5F5F5F5F5F5F5F5F5F5F5F5F5F5F5F5F5F5F5F5F5F5F5F5F5F5F5F5
310
F5F5F5F5F5F5F5F5F5F5F5F5F5F5F5F5F5F5F5F5F5F5F5F5F5F5F5F5F5F5F5F5F5F5F5F5F5F5F5F5F5F5F5F5F5F5F5F5F5F5F5F5F5F5F5F5F5F5F5F5F5F5F5F5F5F5F5F5F5F5F5F5F5F5F5F5F5F5F5F5F5F5F5F5F5F5F5F5F5E2E2E2F5F5F5F5F5F5F5F5F5F5F5F5F5F5F5F5F5F5F5F5F5F5F5F5F5F5F5F5F5F5F5F5F5F5F5
310
F5F5F5F5F5F5F5F5F5F5F5F5F5F5F5F5F5F5F5F5F5F5F5F5F5F5F5F5F5F5F5F5F5F5F5F5F5F5F5F5F5F5F5F5F5F5F5F5F5F5F5F5F5F5F5F5F5F5F5F5F5F5F5F5F5F5F5F5F5F5F5F5F5F5F5F5F5F5F5F5F5F5F5F5F5F5F5F5F5F5F5F5F5F5F5F5F5F5F5F5F5F5F5F5F5F5F5F5F5F5F5F5F5F5F5F5F5F5F5F5F5F5F5F5F5F5F5
310
F5F5F5F5F5F5F5F5F5F5F5F5F5F5F5E2E2E2F5F5F5F5F5F5F5F5F5F5F5F5F5F5F5F5F5F5F5F5F5F5F5F5F5F5F5F5F5F5F5F5F5F5F5F5F5F5F5F5F5F5F5F5F5F5F5F5F5F5F5F5F5F5F5F5F5F5F5F5F5F5F5F5F5F5F5F5F5F5F5F5F5F5F5F5F5F5F5F5F5F5F5F5F5F5F5F5F5F5F5F5F5F5F5F5F5F5F5F5F5F5F5F5F5F5F5F5F5
310
F5F5F5F5F5F5F5F5F5F5F5F5F5F5F5F5F5F5F5F5F5F5F5F5F5F5F5F5F5F5F5F5F5F5F5F5F5F5F5F5F5F5F5F5F5F5F5F5F5F5F5F5F5F5F5F5F5F5F5F5F5F5F5F5F5F5F5F5E2EFE2F5F5F5F5F5F5F5F5F5F5F5F5F5F5F5F5F5F5F5F5F5F5F5F5F5F5F5F5F5F5F5F5F5F5F5F5F5F5F5F5F5F5F5F5F5F5F5F5F5F5F5F5F5F5F5F5
310
F5F5F5F5F5F5F5F5F5F5F5F5F5F5F5F5F5F5F5F5F5F5F5F5F5F5F5F5F5F5F5F5F5F5F5F5F5F5F5F5F5F5F5F5F5F5F5F5F5F5F5F5F5F5F5F5F5F5F5F5F5F5F5F5F5F5F5F5F5F5F5F5F5F5F5F5F5F5F5F5F5F5F5F5F5F5F5F5F5F5F5F5F5F5F5F5F5F5F5F5F5F5F5F5F5F5F5F5F5F5F5F5F5F5F5F5F5F5F5F5F5E2EFE2E2E2E2
310
E2E2E2E2E2E2E2E2E2E2E2E2E2E2E2E2E2E2E2E2E2E2E2E2E2E2E2E2E2E2E2E2E2E2E2E2E2E2E2E2E2E2E2E2E2E2E2E2E2E2E2E2E2E2E2E2E2E2E2E2E2E2E2E2E2E2E2E2E2E2E2E2E2E2E2E2E2E2E2E2E2E2E2E2E2E2E2E2E2E2E2E2E2E2E2E2E2E2E2E2E2E2E2E2E2E2E2E2E2E2E2E2E2E2E2E2E2E2E2E2E2E2E2E2E2E2E2
310
E2E2E2E2E2E2E2E2E2E2E2E2E2E2E2E2E2E2E2E2E2E2E2E2E2E2E2E2E2E2E2E2E2E2E2E2E2E2E2E2E2E2E2E2E2E2E2E2EF
  0
XRECORD
  5
19AD1
102
{ACAD_REACTORS
330
19AD0
102
}
330
19AD0
100
AcDbXrecord
280
     1
102
SHADEPLOT
 70
     0
102
SHADEPLOTRESLEVEL
 70
     2
102
SHADEPLOTCUSTOMDPI
 70
   300
  0
ENDSEC
  0
EOF
