  0
SECTION
  2
HEADER
  9
$ACADVER
  1
AC1009
  9
$INSBASE
 10
0.0
 20
0.0
 30
0.0
  9
$EXTMIN
 10
-389.5360427358076
 20
835.96080962296742
 30
0.0
  9
$EXTMAX
 10
-380.28604273580743
 20
854.46080962296776
 30
0.0
  9
$LIMMIN
 10
0.0
 20
0.0
  9
$LIMMAX
 10
1500.0
 20
1500.0
  9
$ORTHOMODE
 70
     0
  9
$REGENMODE
 70
     1
  9
$FILLMODE
 70
     1
  9
$QTEXTMODE
 70
     0
  9
$MIRRTEXT
 70
     1
  9
$DRAGMODE
 70
     2
  9
$LTSCALE
 40
1.0
  9
$OSMODE
 70
    37
  9
$ATTMODE
 70
     1
  9
$TEXTSIZE
 40
1.5
  9
$TRACEWID
 40
0.05
  9
$TEXTSTYLE
  7
STANDARD
  9
$CLAYER
  8
0
  9
$CELTYPE
  6
BYLAYER
  9
$CECOLOR
 62
   256
  9
$DIMSCALE
 40
1.0
  9
$DIMASZ
 40
0.75
  9
$DIMEXO
 40
1.5
  9
$DIMDLI
 40
2.0
  9
$DIMRND
 40
0.0
  9
$DIMDLE
 40
0.0
  9
$DIMEXE
 40
1.0
  9
$DIMTP
 40
0.0
  9
$DIMTM
 40
0.0
  9
$DIMTXT
 40
1.5
  9
$DIMCEN
 40
2.0
  9
$DIMTSZ
 40
0.0
  9
$DIMTOL
 70
     0
  9
$DIMLIM
 70
     0
  9
$DIMTIH
 70
     0
  9
$DIMTOH
 70
     0
  9
$DIMSE1
 70
     0
  9
$DIMSE2
 70
     0
  9
$DIMTAD
 70
     1
  9
$DIMZIN
 70
     0
  9
$DIMBLK
  1
ARCHTICK
  9
$DIMASO
 70
     1
  9
$DIMSHO
 70
     1
  9
$DIMPOST
  1
"
  9
$DIMAPOST
  1

  9
$DIMALT
 70
     0
  9
$DIMALTD
 70
     2
  9
$DIMALTF
 40
25.399999999999999
  9
$DIMLFAC
 40
1.0
  9
$DIMTOFL
 70
     0
  9
$DIMTVP
 40
0.0
  9
$DIMTIX
 70
     1
  9
$DIMSOXD
 70
     0
  9
$DIMSAH
 70
     0
  9
$DIMBLK1
  1

  9
$DIMBLK2
  1

  9
$DIMSTYLE
  2
THREE_QUARTER_INCH_SCALE
  9
$DIMCLRD
 70
     0
  9
$DIMCLRE
 70
     0
  9
$DIMCLRT
 70
     0
  9
$DIMTFAC
 40
1.0
  9
$DIMGAP
 40
1.0
  9
$LUNITS
 70
     2
  9
$LUPREC
 70
     4
  9
$SKETCHINC
 40
0.1
  9
$FILLETRAD
 40
0.0
  9
$AUNITS
 70
     0
  9
$AUPREC
 70
     0
  9
$MENU
  1
.
  9
$ELEVATION
 40
0.0
  9
$PELEVATION
 40
0.0
  9
$THICKNESS
 40
0.0
  9
$LIMCHECK
 70
     0
  9
$BLIPMODE
 70
     0
  9
$CHAMFERA
 40
0.5
  9
$CHAMFERB
 40
0.5
  9
$SKPOLY
 70
     0
  9
$TDCREATE
 40
2452089.395738773
  9
$TDUPDATE
 40
2453607.3797869561
  9
$TDINDWG
 40
1.0431371759000001
  9
$TDUSRTIMER
 40
1.0431371759000001
  9
$USRTIMER
 70
     1
  9
$ANGBASE
 50
0.0
  9
$ANGDIR
 70
     0
  9
$PDMODE
 70
     0
  9
$PDSIZE
 40
10.0
  9
$PLINEWID
 40
0.0
  9
$COORDS
 70
     1
  9
$SPLFRAME
 70
     0
  9
$SPLINETYPE
 70
     6
  9
$SPLINESEGS
 70
     8
  9
$ATTDIA
 70
     0
  9
$ATTREQ
 70
     1
  9
$HANDLING
 70
     1
  9
$HANDSEED
  5
D487
  9
$SURFTAB1
 70
     6
  9
$SURFTAB2
 70
     6
  9
$SURFTYPE
 70
     6
  9
$SURFU
 70
     6
  9
$SURFV
 70
     6
  9
$UCSNAME
  2

  9
$UCSORG
 10
0.0
 20
0.0
 30
0.0
  9
$UCSXDIR
 10
1.0
 20
0.0
 30
0.0
  9
$UCSYDIR
 10
0.0
 20
1.0
 30
0.0
  9
$PUCSNAME
  2

  9
$PUCSORG
 10
0.0
 20
0.0
 30
0.0
  9
$PUCSXDIR
 10
1.0
 20
0.0
 30
0.0
  9
$PUCSYDIR
 10
0.0
 20
1.0
 30
0.0
  9
$USERI1
 70
     0
  9
$USERI2
 70
     0
  9
$USERI3
 70
     0
  9
$USERI4
 70
     0
  9
$USERI5
 70
     0
  9
$USERR1
 40
0.0
  9
$USERR2
 40
0.0
  9
$USERR3
 40
0.0
  9
$USERR4
 40
0.0
  9
$USERR5
 40
0.0
  9
$WORLDVIEW
 70
     1
  9
$SHADEDGE
 70
     3
  9
$SHADEDIF
 70
    70
  9
$TILEMODE
 70
     0
  9
$MAXACTVP
 70
    64
  9
$PLIMCHECK
 70
     0
  9
$PEXTMIN
 10
0.0282895744820664
 20
0.0759353784799721
 30
-0.0015258207003583
  9
$PEXTMAX
 10
10.471709755853
 20
7.9577863512286546
 30
0.0000000349246037
  9
$PLIMMIN
 10
-0.2500002402958907
 20
-0.2499999962453767
  9
$PLIMMAX
 10
10.74999951940821
 20
8.2499997634587316
  9
$UNITMODE
 70
     0
  9
$VISRETAIN
 70
     1
  9
$PLINEGEN
 70
     0
  9
$PSLTSCALE
 70
     1
  0
ENDSEC
  0
SECTION
  2
TABLES
  0
TABLE
  2
VPORT
 70
     4
  0
VPORT
  2
*ACTIVE
 70
     0
 10
0.0
 20
0.0
 11
1.0
 21
1.0
 12
-383.15737829544111
 22
849.96886792936562
 13
0.0
 23
0.0
 14
0.5
 24
0.5
 15
0.5
 25
0.5
 16
0.0
 26
0.0
 36
1.0
 17
0.0
 27
0.0
 37
0.0
 40
8.5361479376363132
 41
2.0226628895184131
 42
50.0
 43
0.0
 44
0.0
 50
0.0
 51
0.0
 71
     0
 72
   100
 73
     1
 74
     2
 75
     0
 76
     0
 77
     0
 78
     0
  0
ENDTAB
  0
TABLE
  2
LTYPE
 70
     1
  0
LTYPE
  2
CONTINUOUS
 70
     0
  3
Solid line
 72
    65
 73
     0
 40
0.0
  0
ENDTAB
  0
TABLE
  2
LAYER
 70
    10
  0
LAYER
  2
0
 70
     0
 62
     7
  6
CONTINUOUS
  0
LAYER
  2
DEFPOINTS
 70
     0
 62
     7
  6
CONTINUOUS
  0
LAYER
  2
FRAME_200
 70
     0
 62
     8
  6
CONTINUOUS
  0
LAYER
  2
FRAME_070
 70
     0
 62
     5
  6
CONTINUOUS
  0
LAYER
  2
FRAME_050
 70
     0
 62
     6
  6
CONTINUOUS
  0
LAYER
  2
TITLE_BLOCK
 70
     0
 62
     7
  6
CONTINUOUS
  0
LAYER
  2
FRAME_025
 70
     0
 62
     7
  6
CONTINUOUS
  0
LAYER
  2
VIEWPORT
 70
     0
 62
     7
  6
CONTINUOUS
  0
LAYER
  2
PROF
 70
     0
 62
     7
  6
CONTINUOUS
  0
LAYER
  2
PROFILE
 70
     0
 62
     7
  6
CONTINUOUS
  0
ENDTAB
  0
TABLE
  2
STYLE
 70
     2
  0
STYLE
  2
STANDARD
 70
     0
 40
0.0
 41
1.0
 50
0.0
 71
     0
 42
1.5
  3
txt
  4

  0
STYLE
  2
ISO_PROPORTIONAL
 70
     0
 40
0.0
 41
1.0
 50
0.0
 71
     0
 42
2.5
  3
isocp.shx
  4

  0
ENDTAB
  0
TABLE
  2
VIEW
 70
     2
  0
ENDTAB
  0
TABLE
  2
UCS
 70
     0
  0
ENDTAB
  0
TABLE
  2
APPID
 70
     6
  0
APPID
  2
ACAD
 70
     0
  0
APPID
  2
DCO15
 70
     0
  0
APPID
  2
ACAD_EXEMPT_FROM_CAD_STANDARDS
 70
     0
  0
APPID
  2
ACAD_PSEXT
 70
     0
  0
APPID
  2
CONTENTBLOCKDESCRIPTION
 70
     0
  0
APPID
  2
CONTENTBLOCKICON
 70
     0
  0
ENDTAB
  0
TABLE
  2
DIMSTYLE
 70
     5
  0
DIMSTYLE
  2
FULL_SCALE
 70
     0
  3
"
  4

  5
ARCHTICK
  6

  7

 40
1.0
 41
0.046875
 42
0.09375
 43
0.125
 44
0.0625
 45
0.0
 46
0.0
 47
0.0
 48
0.0
140
0.125
141
0.125
142
0.0
143
25.399999999999999
144
1.0
145
0.0
146
1.0
147
0.0625
 71
     0
 72
     0
 73
     0
 74
     0
 75
     0
 76
     0
 77
     1
 78
     0
170
     0
171
     2
172
     0
173
     0
174
     1
175
     0
176
     0
177
     0
178
     0
  0
DIMSTYLE
  2
HALF_SCALE
 70
     0
  3
"
  4

  5
ARCHTICK
  6

  7

 40
1.0
 41
0.09375
 42
0.1875
 43
0.25
 44
0.125
 45
0.0
 46
0.0
 47
0.0
 48
0.0
140
0.25
141
0.25
142
0.0
143
25.399999999999999
144
1.0
145
0.0
146
1.0
147
0.125
 71
     0
 72
     0
 73
     0
 74
     0
 75
     0
 76
     0
 77
     1
 78
     0
170
     0
171
     2
172
     0
173
     0
174
     1
175
     0
176
     0
177
     0
178
     0
  0
DIMSTYLE
  2
INCH_SCALE
 70
     0
  3
"
  4

  5
ARCHTICK
  6

  7

 40
1.0
 41
0.5625
 42
1.125
 43
1.5
 44
0.75
 45
0.0
 46
0.0
 47
0.0
 48
0.0
140
1.125
141
1.5
142
0.0
143
25.399999999999999
144
1.0
145
0.0
146
1.0
147
0.75
 71
     0
 72
     0
 73
     0
 74
     0
 75
     0
 76
     0
 77
     1
 78
     0
170
     0
171
     2
172
     0
173
     0
174
     1
175
     0
176
     0
177
     0
178
     0
  0
DIMSTYLE
  2
THREE_QUARTER_INCH_SCALE
 70
     0
  3
"
  4

  5
ARCHTICK
  6

  7

 40
1.0
 41
0.75
 42
1.5
 43
2.0
 44
1.0
 45
0.0
 46
0.0
 47
0.0
 48
0.0
140
1.5
141
2.0
142
0.0
143
25.399999999999999
144
1.0
145
0.0
146
1.0
147
1.0
 71
     0
 72
     0
 73
     0
 74
     0
 75
     0
 76
     0
 77
     1
 78
     0
170
     0
171
     2
172
     0
173
     0
174
     1
175
     0
176
     0
177
     0
178
     0
  0
DIMSTYLE
  2
ZHALF_INCH_SCALE
 70
     0
  3
"
  4

  5
ARCHTICK
  6

  7

 40
1.0
 41
1.125
 42
2.25
 43
3.0
 44
1.5
 45
0.0
 46
0.0
 47
0.0
 48
0.0
140
2.25
141
3.0
142
0.0
143
25.399999999999999
144
1.0
145
0.0
146
1.0
147
1.5
 71
     0
 72
     0
 73
     0
 74
     0
 75
     0
 76
     0
 77
     1
 78
     0
170
     0
171
     2
172
     0
173
     0
174
     1
175
     0
176
     0
177
     0
178
     0
  0
ENDTAB
  0
ENDSEC
  0
SECTION
  2
BLOCKS
  0
BLOCK
  8
0
  2
$MODEL_SPACE
 70
     0
 10
0.0
 20
0.0
 30
0.0
  3
$MODEL_SPACE
  1

  0
ENDBLK
  5
21
  8
0
  0
BLOCK
 67
     1
  8
0
  2
$PAPER_SPACE
 70
     0
 10
0.0
 20
0.0
 30
0.0
  3
$PAPER_SPACE
  1

  0
ENDBLK
  5
BAD5
 67
     1
  8
0
  0
BLOCK
  8
0
  2
_ARCHTICK
 70
     0
 10
0.0
 20
0.0
 30
0.0
  3
_ARCHTICK
  1

  0
POLYLINE
  5
158
  8
0
  6
BYBLOCK
 62
     0
 66
     1
 10
0.0
 20
0.0
 30
0.0
 40
0.15
 41
0.15
  0
VERTEX
  5
D2D0
  8
0
  6
BYBLOCK
 62
     0
 10
-0.5
 20
-0.5
 30
0.0
  0
VERTEX
  5
D2D1
  8
0
  6
BYBLOCK
 62
     0
 10
0.5
 20
0.5
 30
0.0
  0
SEQEND
  5
D2D2
  8
0
  6
BYBLOCK
 62
     0
  0
ENDBLK
  5
15A
  8
0
  0
BLOCK
  8
0
  2
_OPEN30
 70
     0
 10
0.0
 20
0.0
 30
0.0
  3
_OPEN30
  1

  0
LINE
  5
15C
  8
0
  6
BYBLOCK
 62
     0
 10
-1.0
 20
0.26794919
 30
0.0
 11
0.0
 21
0.0
 31
0.0
  0
LINE
  5
15D
  8
0
  6
BYBLOCK
 62
     0
 10
0.0
 20
0.0
 30
0.0
 11
-1.0
 21
-0.26794919
 31
0.0
  0
LINE
  5
15E
  8
0
  6
BYBLOCK
 62
     0
 10
0.0
 20
0.0
 30
0.0
 11
-1.0
 21
0.0
 31
0.0
  0
ENDBLK
  5
160
  8
0
  0
BLOCK
  8
0
  2
ISO_A2_TITLE_BLOCK
 70
     2
 10
0.0
 20
0.0
 30
0.0
  3
ISO_A2_TITLE_BLOCK
  1

  0
LINE
  5
BDD
  8
FRAME_050
 10
299.5
 20
12.5
 30
0.0
 11
297.0
 21
7.5
 31
0.0
  0
LINE
  5
BDE
  8
FRAME_050
 10
294.5
 20
12.5
 30
0.0
 11
299.5
 21
12.5
 31
0.0
  0
LINE
  5
BDF
  8
FRAME_050
 10
247.0
 20
5.0
 30
0.0
 11
347.0
 21
5.0
 31
0.0
  0
LINE
  5
BE0
  8
FRAME_070
 10
584.0
 20
410.0
 30
0.0
 11
10.0
 21
410.0
 31
0.0
  0
LINE
  5
BE1
  8
FRAME_070
 10
10.0
 20
10.0
 30
0.0
 11
584.0
 21
10.0
 31
0.0
  0
LINE
  5
BE2
  8
FRAME_050
 10
12.5
 20
207.5
 30
0.0
 11
7.5
 21
210.0
 31
0.0
  0
LINE
  5
BE3
  8
FRAME_050
 10
12.5
 20
212.5
 30
0.0
 11
12.5
 21
207.5
 31
0.0
  0
LINE
  5
BE4
  8
FRAME_070
 10
10.0
 20
410.0
 30
0.0
 11
10.0
 21
10.0
 31
0.0
  0
LINE
  5
BE5
  8
FRAME_200
 10
0.0
 20
0.0
 30
0.0
 11
0.0
 21
10.0
 31
0.0
  0
LINE
  5
BE6
  8
FRAME_200
 10
0.0
 20
0.0
 30
0.0
 11
10.0
 21
0.0
 31
0.0
  0
TEXT
  5
BE7
  8
FRAME_050
 10
5.9000000000000004
 20
35.0
 30
0.0
 40
4.0
  1
H
  7
ISO_PROPORTIONAL
 72
     4
 11
7.5
 21
37.0
 31
0.0
  0
LINE
  5
BE8
  8
FRAME_050
 10
10.0
 20
60.0
 30
0.0
 11
5.0
 21
60.0
 31
0.0
  0
LINE
  5
BE9
  8
FRAME_050
 10
81.75
 20
5.0
 30
0.0
 11
81.75
 21
10.0
 31
0.0
  0
TEXT
  5
BEA
  8
FRAME_050
 10
44.874999999999993
 20
5.5
 30
0.0
 40
4.0
  1
1
  7
ISO_PROPORTIONAL
 72
     4
 11
45.875
 21
7.5
 31
0.0
  0
TEXT
  5
BEB
  8
FRAME_050
 10
6.0035533905932743
 20
85.0
 30
0.0
 40
4.0
  1
G
  7
ISO_PROPORTIONAL
 72
     4
 11
7.5
 21
87.0
 31
0.0
  0
LINE
  5
BEC
  8
FRAME_050
 10
10.0
 20
110.0
 30
0.0
 11
5.0
 21
110.0
 31
0.0
  0
TEXT
  5
BED
  8
FRAME_050
 10
6.0999999999999988
 20
135.0
 30
0.0
 40
4.0
  1
F
  7
ISO_PROPORTIONAL
 72
     4
 11
7.5
 21
137.0
 31
0.0
  0
LINE
  5
BEE
  8
FRAME_050
 10
10.0
 20
160.0
 30
0.0
 11
5.0
 21
160.0
 31
0.0
  0
TEXT
  5
BEF
  8
FRAME_050
 10
6.0999999999999988
 20
185.0
 30
0.0
 40
4.0
  1
E
  7
ISO_PROPORTIONAL
 72
     4
 11
7.5
 21
187.0
 31
0.0
  0
LINE
  5
BF0
  8
FRAME_050
 10
153.5
 20
5.0
 30
0.0
 11
153.5
 21
10.0
 31
0.0
  0
TEXT
  5
BF1
  8
FRAME_050
 10
116.1556692913386
 20
5.3996062992125982
 30
0.0
 40
4.0
  1
2
  7
ISO_PROPORTIONAL
 72
     4
 11
117.625
 21
7.5
 31
0.0
  0
TEXT
  5
BF2
  8
FRAME_050
 10
187.89215728752529
 20
5.5828427124746138
 30
0.0
 40
4.0
  1
3
  7
ISO_PROPORTIONAL
 72
     4
 11
189.375
 21
7.5
 31
0.0
  0
LINE
  5
BF3
  8
FRAME_050
 10
225.25
 20
5.0
 30
0.0
 11
225.25
 21
10.0
 31
0.0
  0
LINE
  5
BF4
  8
FRAME_050
 10
297.0
 20
7.5
 30
0.0
 11
294.5
 21
12.5
 31
0.0
  0
LINE
  5
BF5
  8
FRAME_050
 10
287.0
 20
5.0
 30
0.0
 11
287.0
 21
10.0
 31
0.0
  0
LINE
  5
BF6
  8
FRAME_050
 10
277.0
 20
5.0
 30
0.0
 11
277.0
 21
10.0
 31
0.0
  0
LINE
  5
BF7
  8
FRAME_050
 10
267.0
 20
5.0
 30
0.0
 11
267.0
 21
10.0
 31
0.0
  0
LINE
  5
BF8
  8
FRAME_050
 10
257.0
 20
5.0
 30
0.0
 11
257.0
 21
10.0
 31
0.0
  0
LINE
  5
BF9
  8
FRAME_050
 10
247.0
 20
5.0
 30
0.0
 11
247.0
 21
10.0
 31
0.0
  0
LINE
  5
BFA
  8
FRAME_050
 10
297.0
 20
10.0
 30
0.0
 11
297.0
 21
5.0
 31
0.0
  0
LINE
  5
BFB
  8
FRAME_050
 10
297.0
 20
10.0
 30
0.0
 11
297.0
 21
15.0
 31
0.0
  0
LINE
  5
BFC
  8
FRAME_050
 10
5.0
 20
210.0
 30
0.0
 11
15.0
 21
210.0
 31
0.0
  0
LINE
  5
BFD
  8
FRAME_050
 10
7.5
 20
210.0
 30
0.0
 11
12.5
 21
212.5
 31
0.0
  0
TEXT
  5
BFE
  8
FRAME_050
 10
5.7860912703473977
 20
235.0
 30
0.0
 40
4.0
  1
D
  7
ISO_PROPORTIONAL
 72
     4
 11
7.5
 21
237.0
 31
0.0
  0
LINE
  5
BFF
  8
FRAME_050
 10
10.0
 20
260.0
 30
0.0
 11
5.0
 21
260.0
 31
0.0
  0
TEXT
  5
C00
  8
FRAME_050
 10
6.1931980515339466
 20
285.0
 30
0.0
 40
4.0
  1
C
  7
ISO_PROPORTIONAL
 72
     4
 11
7.5
 21
287.0
 31
0.0
  0
LINE
  5
C01
  8
FRAME_050
 10
10.0
 20
310.0
 30
0.0
 11
5.0
 21
310.0
 31
0.0
  0
TEXT
  5
C02
  8
FRAME_050
 10
5.8999999999999959
 20
335.0
 30
0.0
 40
4.0
  1
B
  7
ISO_PROPORTIONAL
 72
     4
 11
7.5
 21
337.0
 31
0.0
  0
LINE
  5
C03
  8
FRAME_050
 10
10.0
 20
360.0
 30
0.0
 11
5.0
 21
360.0
 31
0.0
  0
TEXT
  5
C04
  8
FRAME_050
 10
5.6999999999999993
 20
385.0
 30
0.0
 40
4.0
  1
A
  7
ISO_PROPORTIONAL
 72
     4
 11
7.5
 21
387.0
 31
0.0
  0
LINE
  5
C05
  8
FRAME_200
 10
10.0
 20
420.0
 30
0.0
 11
0.0
 21
420.0
 31
0.0
  0
LINE
  5
C06
  8
FRAME_200
 10
0.0
 20
420.0
 30
0.0
 11
0.0
 21
410.0
 31
0.0
  0
TEXT
  5
C07
  8
FRAME_050
 10
44.874999999999993
 20
410.5
 30
0.0
 40
4.0
  1
1
  7
ISO_PROPORTIONAL
 72
     4
 11
45.875
 21
412.5
 31
0.0
  0
LINE
  5
C08
  8
FRAME_050
 10
81.75
 20
410.0
 30
0.0
 11
81.75
 21
415.0
 31
0.0
  0
TEXT
  5
C09
  8
FRAME_050
 10
116.1556692913386
 20
410.39960629921262
 30
0.0
 40
4.0
  1
2
  7
ISO_PROPORTIONAL
 72
     4
 11
117.625
 21
412.5
 31
0.0
  0
LINE
  5
C0A
  8
FRAME_050
 10
153.5
 20
410.0
 30
0.0
 11
153.5
 21
415.0
 31
0.0
  0
TEXT
  5
C0B
  8
FRAME_050
 10
187.89215728752529
 20
410.58284271247459
 30
0.0
 40
4.0
  1
3
  7
ISO_PROPORTIONAL
 72
     4
 11
189.375
 21
412.5
 31
0.0
  0
LINE
  5
C0C
  8
FRAME_050
 10
297.0
 20
405.0
 30
0.0
 11
297.0
 21
415.0
 31
0.0
  0
LINE
  5
C0D
  8
FRAME_050
 10
225.25
 20
410.0
 30
0.0
 11
225.25
 21
415.0
 31
0.0
  0
TEXT
  5
C0E
  8
FRAME_050
 10
259.52499999999998
 20
410.5
 30
0.0
 40
4.0
  1
4
  7
ISO_PROPORTIONAL
 72
     4
 11
261.125
 21
412.5
 31
0.0
  0
LINE
  5
C0F
  8
FRAME_070
 10
584.0
 20
10.0
 30
0.0
 11
584.0
 21
410.0
 31
0.0
  0
ATTDEF
  5
C10
  8
FRAME_025
 10
473.0
 20
31.75
 30
0.0
 40
2.5
  1
XXX - 00/00/00
  7
ISO_PROPORTIONAL
 11
473.0
 21
33.0
 31
0.0
  3
Approved by - Date
  2
APPROVED_BY_DATE
 70
     8
 74
     2
  0
TEXT
  5
C11
  8
FRAME_025
 10
448.0
 20
41.749999999999993
 30
0.0
 40
2.5
  1
Title/Name, designation, material, dimension etc
  7
ISO_PROPORTIONAL
 11
448.0
 21
43.0
 31
0.0
 73
     2
  0
TEXT
  5
C12
  8
FRAME_025
 10
473.0
 20
35.75
 30
0.0
 40
2.5
  1
Approved by - date
  7
ISO_PROPORTIONAL
 11
473.0
 21
37.0
 31
0.0
 73
     2
  0
LINE
  5
C13
  8
FRAME_070
 10
414.0
 20
46.0
 30
0.0
 11
584.0
 21
46.0
 31
0.0
  0
LINE
  5
C14
  8
FRAME_070
 10
414.0
 20
40.0
 30
0.0
 11
584.0
 21
40.0
 31
0.0
  0
LINE
  5
C15
  8
FRAME_070
 10
414.0
 20
30.0
 30
0.0
 11
584.0
 21
30.0
 31
0.0
  0
LINE
  5
C16
  8
FRAME_050
 10
368.75
 20
5.0
 30
0.0
 11
368.75
 21
10.0
 31
0.0
  0
LINE
  5
C17
  8
FRAME_050
 10
337.0
 20
5.0
 30
0.0
 11
337.0
 21
10.0
 31
0.0
  0
LINE
  5
C18
  8
FRAME_050
 10
327.0
 20
5.0
 30
0.0
 11
327.0
 21
10.0
 31
0.0
  0
LINE
  5
C19
  8
FRAME_050
 10
317.0
 20
5.0
 30
0.0
 11
317.0
 21
10.0
 31
0.0
  0
LINE
  5
C1A
  8
FRAME_050
 10
307.0
 20
5.0
 30
0.0
 11
307.0
 21
10.0
 31
0.0
  0
LINE
  5
C1B
  8
FRAME_050
 10
347.0
 20
5.0
 30
0.0
 11
347.0
 21
10.0
 31
0.0
  0
LINE
  5
C1C
  8
FRAME_050
 10
440.5
 20
5.0
 30
0.0
 11
440.5
 21
10.0
 31
0.0
  0
TEXT
  5
C1D
  8
FRAME_050
 10
403.24547244094481
 20
5.4102362204724406
 30
0.0
 40
4.0
  1
6
  7
ISO_PROPORTIONAL
 72
     4
 11
404.62499999999989
 21
7.5
 31
0.0
  0
TEXT
  5
C1E
  8
FRAME_050
 10
474.97500000000002
 20
5.5
 30
0.0
 40
4.0
  1
7
  7
ISO_PROPORTIONAL
 72
     4
 11
476.37499999999989
 21
7.5
 31
0.0
  0
TEXT
  5
C1F
  8
FRAME_025
 10
431.0
 20
41.749999999999993
 30
0.0
 40
2.5
  1
Quantity
  7
ISO_PROPORTIONAL
 11
431.0
 21
43.0
 31
0.0
 73
     2
  0
TEXT
  5
C20
  8
FRAME_025
 10
416.0
 20
41.749999999999993
 30
0.0
 40
2.5
  1
Itemref
  7
ISO_PROPORTIONAL
 11
416.0
 21
43.0
 31
0.0
 73
     2
  0
LINE
  5
C21
  8
FRAME_070
 10
414.0
 20
40.0
 30
0.0
 11
414.0
 21
46.0
 31
0.0
  0
LINE
  5
C22
  8
FRAME_070
 10
429.0
 20
40.0
 30
0.0
 11
429.0
 21
46.0
 31
0.0
  0
LINE
  5
C23
  8
FRAME_070
 10
414.0
 20
10.0
 30
0.0
 11
414.0
 21
40.0
 31
0.0
  0
ATTDEF
  5
C24
  8
FRAME_025
 10
416.0
 20
31.75
 30
0.0
 40
2.5
  1
XXX
  7
ISO_PROPORTIONAL
 11
416.0
 21
33.0
 31
0.0
  3
Designed by
  2
DESIGNED_BY
 70
     8
 74
     2
  0
TEXT
  5
C25
  8
FRAME_025
 10
416.0
 20
35.75
 30
0.0
 40
2.5
  1
Designed by
  7
ISO_PROPORTIONAL
 11
416.0
 21
37.0
 31
0.0
 73
     2
  0
LINE
  5
C26
  8
FRAME_070
 10
446.0
 20
40.0
 30
0.0
 11
446.0
 21
46.0
 31
0.0
  0
ATTDEF
  5
C27
  8
FRAME_025
 10
448.0
 20
31.75
 30
0.0
 40
2.5
  1
XXX
  7
ISO_PROPORTIONAL
 11
448.0
 21
33.0
 31
0.0
  3
Checked by
  2
CHECKED_BY
 70
     8
 74
     2
  0
TEXT
  5
C28
  8
FRAME_025
 10
448.0
 20
35.75
 30
0.0
 40
2.5
  1
Checked by
  7
ISO_PROPORTIONAL
 11
448.0
 21
37.0
 31
0.0
 73
     2
  0
ATTDEF
  5
C29
  8
FRAME_050
 10
444.74999999999989
 20
17.5
 30
0.0
 40
5.0
  1
XXX
  7
ISO_PROPORTIONAL
 72
     4
 11
451.49999999999989
 21
20.0
 31
0.0
  3
Owner
  2
OWNER
 70
     8
  0
LINE
  5
C2A
  8
FRAME_070
 10
446.0
 20
30.0
 30
0.0
 11
446.0
 21
40.0
 31
0.0
  0
LINE
  5
C2B
  8
FRAME_070
 10
471.0
 20
30.0
 30
0.0
 11
471.0
 21
40.0
 31
0.0
  0
LINE
  5
C2C
  8
FRAME_070
 10
489.0
 20
20.0
 30
0.0
 11
584.0
 21
20.0
 31
0.0
  0
LINE
  5
C2D
  8
FRAME_050
 10
512.25
 20
5.0
 30
0.0
 11
512.25
 21
10.0
 31
0.0
  0
TEXT
  5
C2E
  8
FRAME_050
 10
546.72499999999991
 20
5.5
 30
0.0
 40
4.0
  1
8
  7
ISO_PROPORTIONAL
 72
     4
 11
548.125
 21
7.5
 31
0.0
  0
ATTDEF
  5
C2F
  8
FRAME_050
 10
517.64999999999986
 20
13.5
 30
0.0
 40
3.0
  1
X
  7
ISO_PROPORTIONAL
 72
     4
 11
519.0
 21
15.0
 31
0.0
  3
Drawing number
  2
DRAWING_NUMBER
 70
     8
  0
ATTDEF
  5
C30
  8
FRAME_050
 10
529.75
 20
22.5
 30
0.0
 40
5.0
  1
XXX
  7
ISO_PROPORTIONAL
 72
     4
 11
536.5
 21
25.0
 31
0.0
  3
Title / Name
  2
TITLE
 70
     8
  0
LINE
  5
C31
  8
FRAME_070
 10
489.0
 20
10.0
 30
0.0
 11
489.0
 21
30.0
 31
0.0
  0
ATTDEF
  5
C32
  8
FRAME_025
 10
511.0
 20
31.75
 30
0.0
 40
2.5
  1
XXX
  7
ISO_PROPORTIONAL
 11
511.0
 21
33.0
 31
0.0
  3
Filename
  2
FILENAME
 70
     8
 74
     2
  0
TEXT
  5
C33
  8
FRAME_025
 10
511.0
 20
35.75
 30
0.0
 40
2.5
  1
Filename
  7
ISO_PROPORTIONAL
 11
511.0
 21
37.0
 31
0.0
 73
     2
  0
LINE
  5
C34
  8
FRAME_070
 10
509.0
 20
30.0
 30
0.0
 11
509.0
 21
40.0
 31
0.0
  0
TEXT
  5
C35
  8
FRAME_025
 10
536.0
 20
41.749999999999993
 30
0.0
 40
2.5
  1
Article No./Reference
  7
ISO_PROPORTIONAL
 11
536.0
 21
43.0
 31
0.0
 73
     2
  0
LINE
  5
C36
  8
FRAME_070
 10
534.0
 20
40.0
 30
0.0
 11
534.0
 21
46.0
 31
0.0
  0
ATTDEF
  5
C37
  8
FRAME_025
 10
551.0
 20
11.75
 30
0.0
 40
2.5
  1
0
  7
ISO_PROPORTIONAL
 11
551.0
 21
13.0
 31
0.0
  3
Edition
  2
EDITION
 70
     8
 74
     2
  0
TEXT
  5
C38
  8
FRAME_025
 10
551.0
 20
15.75
 30
0.0
 40
2.5
  1
Edition
  7
ISO_PROPORTIONAL
 11
551.0
 21
17.0
 31
0.0
 73
     2
  0
LINE
  5
C39
  8
FRAME_070
 10
549.0
 20
10.0
 30
0.0
 11
549.0
 21
20.0
 31
0.0
  0
ATTDEF
  5
C3A
  8
FRAME_025
 10
536.0
 20
31.75
 30
0.0
 40
2.5
  1
00/00/00
  7
ISO_PROPORTIONAL
 11
536.0
 21
33.0
 31
0.0
  3
Date
  2
DATE
 70
     8
 74
     2
  0
TEXT
  5
C3B
  8
FRAME_025
 10
536.0
 20
35.75
 30
0.0
 40
2.5
  1
Date
  7
ISO_PROPORTIONAL
 11
536.0
 21
37.0
 31
0.0
 73
     2
  0
LINE
  5
C3C
  8
FRAME_070
 10
534.0
 20
30.0
 30
0.0
 11
534.0
 21
40.0
 31
0.0
  0
ATTDEF
  5
C3D
  8
FRAME_025
 10
566.0
 20
11.75
 30
0.0
 40
2.5
  1
1/1
  7
ISO_PROPORTIONAL
 11
566.0
 21
13.0
 31
0.0
  3
Sheet
  2
SHEET
 70
     8
 74
     2
  0
TEXT
  5
C3E
  8
FRAME_025
 10
566.0
 20
15.75
 30
0.0
 40
2.5
  1
Sheet
  7
ISO_PROPORTIONAL
 11
566.0
 21
17.0
 31
0.0
 73
     2
  0
LINE
  5
C3F
  8
FRAME_070
 10
564.0
 20
10.0
 30
0.0
 11
564.0
 21
20.0
 31
0.0
  0
ATTDEF
  5
C40
  8
FRAME_025
 10
566.0
 20
31.75
 30
0.0
 40
2.5
  1
1:1
  7
ISO_PROPORTIONAL
 11
566.0
 21
33.0
 31
0.0
  3
Scale
  2
SCALE
 70
     8
 74
     2
  0
TEXT
  5
C41
  8
FRAME_025
 10
566.0
 20
35.75
 30
0.0
 40
2.5
  1
Scale
  7
ISO_PROPORTIONAL
 11
566.0
 21
37.0
 31
0.0
 73
     2
  0
LINE
  5
C42
  8
FRAME_070
 10
564.0
 20
30.0
 30
0.0
 11
564.0
 21
40.0
 31
0.0
  0
LINE
  5
C43
  8
FRAME_200
 10
594.0
 20
0.0
 30
0.0
 11
594.0
 21
10.0
 31
0.0
  0
LINE
  5
C44
  8
FRAME_200
 10
594.0
 20
0.0
 30
0.0
 11
584.0
 21
0.0
 31
0.0
  0
TEXT
  5
C45
  8
FRAME_050
 10
584.89999999999998
 20
35.0
 30
0.0
 40
4.0
  1
H
  7
ISO_PROPORTIONAL
 72
     4
 11
586.5
 21
37.0
 31
0.0
  0
LINE
  5
C46
  8
FRAME_050
 10
589.0
 20
60.0
 30
0.0
 11
584.0
 21
60.0
 31
0.0
  0
TEXT
  5
C47
  8
FRAME_050
 10
585.0035533905932
 20
85.0
 30
0.0
 40
4.0
  1
G
  7
ISO_PROPORTIONAL
 72
     4
 11
586.5
 21
87.0
 31
0.0
  0
LINE
  5
C48
  8
FRAME_050
 10
589.0
 20
110.0
 30
0.0
 11
584.0
 21
110.0
 31
0.0
  0
TEXT
  5
C49
  8
FRAME_050
 10
585.09999999999991
 20
135.0
 30
0.0
 40
4.0
  1
F
  7
ISO_PROPORTIONAL
 72
     4
 11
586.5
 21
137.0
 31
0.0
  0
LINE
  5
C4A
  8
FRAME_050
 10
589.0
 20
160.0
 30
0.0
 11
584.0
 21
160.0
 31
0.0
  0
TEXT
  5
C4B
  8
FRAME_050
 10
585.09999999999991
 20
185.0
 30
0.0
 40
4.0
  1
E
  7
ISO_PROPORTIONAL
 72
     4
 11
586.5
 21
187.0
 31
0.0
  0
LINE
  5
C4C
  8
FRAME_070
 10
414.0
 20
404.0
 30
0.0
 11
584.0
 21
404.0
 31
0.0
  0
TEXT
  5
C4D
  8
FRAME_050
 10
331.39215728752538
 20
410.58284271247459
 30
0.0
 40
4.0
  1
5
  7
ISO_PROPORTIONAL
 72
     4
 11
332.875
 21
412.5
 31
0.0
  0
LINE
  5
C4E
  8
FRAME_050
 10
368.75
 20
410.0
 30
0.0
 11
368.75
 21
415.0
 31
0.0
  0
TEXT
  5
C4F
  8
FRAME_025
 10
428.0
 20
405.75
 30
0.0
 40
2.5
  1
Revision note
  7
ISO_PROPORTIONAL
 11
428.0
 21
407.0
 31
0.0
 73
     2
  0
TEXT
  5
C50
  8
FRAME_025
 10
416.0
 20
405.75
 30
0.0
 40
2.5
  1
RevNo
  7
ISO_PROPORTIONAL
 11
416.0
 21
407.0
 31
0.0
 73
     2
  0
LINE
  5
C51
  8
FRAME_070
 10
426.0
 20
404.0
 30
0.0
 11
426.0
 21
410.0
 31
0.0
  0
LINE
  5
C52
  8
FRAME_070
 10
414.0
 20
404.0
 30
0.0
 11
414.0
 21
410.0
 31
0.0
  0
TEXT
  5
C53
  8
FRAME_050
 10
403.24547244094481
 20
410.41023622047243
 30
0.0
 40
4.0
  1
6
  7
ISO_PROPORTIONAL
 72
     4
 11
404.62499999999989
 21
412.5
 31
0.0
  0
LINE
  5
C54
  8
FRAME_050
 10
440.5
 20
410.0
 30
0.0
 11
440.5
 21
415.0
 31
0.0
  0
TEXT
  5
C55
  8
FRAME_050
 10
474.97500000000002
 20
410.5
 30
0.0
 40
4.0
  1
7
  7
ISO_PROPORTIONAL
 72
     4
 11
476.37499999999989
 21
412.5
 31
0.0
  0
LINE
  5
C56
  8
FRAME_050
 10
579.0
 20
210.0
 30
0.0
 11
589.0
 21
210.0
 31
0.0
  0
TEXT
  5
C57
  8
FRAME_050
 10
584.78609127034736
 20
235.0
 30
0.0
 40
4.0
  1
D
  7
ISO_PROPORTIONAL
 72
     4
 11
586.5
 21
237.0
 31
0.0
  0
LINE
  5
C58
  8
FRAME_050
 10
589.0
 20
260.0
 30
0.0
 11
584.0
 21
260.0
 31
0.0
  0
TEXT
  5
C59
  8
FRAME_050
 10
585.19319805153395
 20
285.0
 30
0.0
 40
4.0
  1
C
  7
ISO_PROPORTIONAL
 72
     4
 11
586.5
 21
287.0
 31
0.0
  0
LINE
  5
C5A
  8
FRAME_050
 10
589.0
 20
310.0
 30
0.0
 11
584.0
 21
310.0
 31
0.0
  0
TEXT
  5
C5B
  8
FRAME_050
 10
584.89999999999998
 20
335.0
 30
0.0
 40
4.0
  1
B
  7
ISO_PROPORTIONAL
 72
     4
 11
586.5
 21
337.0
 31
0.0
  0
TEXT
  5
C5C
  8
FRAME_025
 10
571.08299391850551
 20
405.75
 30
0.0
 40
2.5
  1
Checked
  7
ISO_PROPORTIONAL
 11
571.08299391850551
 21
407.0
 31
0.0
 73
     2
  0
TEXT
  5
C5D
  8
FRAME_025
 10
555.36099797283532
 20
405.75
 30
0.0
 40
2.5
  1
Signature
  7
ISO_PROPORTIONAL
 11
555.36099797283532
 21
407.0
 31
0.0
 73
     2
  0
TEXT
  5
C5E
  8
FRAME_025
 10
537.0
 20
405.75
 30
0.0
 40
2.5
  1
Date
  7
ISO_PROPORTIONAL
 11
537.0
 21
407.0
 31
0.0
 73
     2
  0
LINE
  5
C5F
  8
FRAME_070
 10
570.0
 20
404.0
 30
0.0
 11
570.0
 21
410.0
 31
0.0
  0
LINE
  5
C60
  8
FRAME_070
 10
555.0
 20
404.0
 30
0.0
 11
555.0
 21
410.0
 31
0.0
  0
LINE
  5
C61
  8
FRAME_070
 10
535.0
 20
404.0
 30
0.0
 11
535.0
 21
410.0
 31
0.0
  0
LINE
  5
C62
  8
FRAME_050
 10
512.25
 20
410.0
 30
0.0
 11
512.25
 21
415.0
 31
0.0
  0
TEXT
  5
C63
  8
FRAME_050
 10
546.72499999999991
 20
410.5
 30
0.0
 40
4.0
  1
8
  7
ISO_PROPORTIONAL
 72
     4
 11
548.125
 21
412.5
 31
0.0
  0
LINE
  5
C64
  8
FRAME_050
 10
589.0
 20
360.0
 30
0.0
 11
584.0
 21
360.0
 31
0.0
  0
TEXT
  5
C65
  8
FRAME_050
 10
584.70000000000005
 20
385.0
 30
0.0
 40
4.0
  1
A
  7
ISO_PROPORTIONAL
 72
     4
 11
586.5
 21
387.0
 31
0.0
  0
LINE
  5
C66
  8
FRAME_200
 10
594.0
 20
420.0
 30
0.0
 11
584.0
 21
420.0
 31
0.0
  0
LINE
  5
C67
  8
FRAME_200
 10
594.0
 20
410.0
 30
0.0
 11
594.0
 21
420.0
 31
0.0
  0
ENDBLK
  5
C69
  8
0
  0
BLOCK
  8
0
  2
WOBB001END
 70
     0
 10
0.0
 20
0.0
 30
0.0
  3
WOBB001END
  1

  0
LINE
  5
4D66
  8
0
  6
CONTINUOUS
 10
0.0
 20
0.0
 30
0.0
 11
0.8749999999999998
 21
0.0
 31
0.0
  0
ARC
  5
4D67
  8
0
  6
CONTINUOUS
 10
0.0331648379439287
 20
-0.5087238935900232
 30
0.0
 40
0.8790130605592325
 50
284.06490243660443
 51
312.19222981924361
  0
ARC
  5
4D68
  8
0
  6
CONTINUOUS
 10
0.2841534338796767
 20
-1.510548310625538
 30
0.0
 40
0.1537731892806598
 50
104.0649024366044
 51
179.4721730735024
  0
LINE
  5
4D69
  8
0
  6
CONTINUOUS
 10
0.0
 20
0.0
 30
0.0
 11
-0.0000000000000003
 21
-1.7501564476661919
 31
0.0
  0
ARC
  5
4D6A
  8
0
  6
CONTINUOUS
 10
0.1404622019506122
 20
-1.6303137183546199
 30
0.0
 40
0.1198427293115722
 50
275.0
 51
85.000000000000057
  0
LINE
  5
4D6B
  8
0
  6
CONTINUOUS
 10
-0.0000000000000003
 20
-1.7501564476661919
 30
0.0
 11
0.1456946485130855
 21
-1.7501564476661919
 31
0.0
  0
LINE
  5
4D6C
  8
0
  6
CONTINUOUS
 10
0.1377603739254348
 20
-1.7508506067459131
 30
0.0
 11
0.150907184036669
 21
-1.749700409899652
 31
0.0
  0
LINE
  5
4D6D
  8
0
  6
CONTINUOUS
 10
0.1303867696719884
 20
-1.5091317231818231
 30
0.0
 11
0.1509071840366689
 21
-1.5109270268095869
 31
0.0
  0
LINE
  5
4D6E
  8
0
  6
CONTINUOUS
 10
0.8749999999999998
 20
0.0
 30
0.0
 11
0.8749999999999996
 21
-0.8649327026588228
 31
0.0
  0
LINE
  5
4D6F
  8
0
  6
CONTINUOUS
 10
0.727014513830997
 20
-0.8726882933550612
 30
0.0
 11
0.727014513830997
 21
-0.9264923397184784
 31
0.0
  0
ARC
  5
4D70
  8
0
  6
CONTINUOUS
 10
0.41187090827646
 20
-0.9264923397184784
 30
0.0
 40
0.315143605554537
 50
312.19222981924361
 51
0.0
  0
LINE
  5
4D71
  8
0
  6
CONTINUOUS
 10
0.727014513830997
 20
-0.8726882933550612
 30
0.0
 11
0.8749999999999996
 21
-0.8649327026588228
 31
0.0
  0
ENDBLK
  5
4D72
  8
0
  0
BLOCK
  8
0
  2
A$C0A61123B
 70
     0
 10
0.0
 20
0.0
 30
0.0
  3
A$C0A61123B
  1

  0
LINE
  5
C0AD
  8
PROF
  6
CONTINUOUS
 10
4.9012016798694162
 20
13.325025853350891
 30
0.0000000000000002
 11
4.9012016798694162
 21
12.88585218805485
 31
0.0000000000000003
  0
INSERT
  5
C0AE
  8
0
  2
*U5
 10
0.0
 20
0.0
 30
0.0
  0
LINE
  5
C0AF
  8
PROF
 10
4.5198575031869259
 20
12.72227734589444
 30
0.0000000000000001
 11
4.5198575031869259
 21
12.88585218805485
 31
0.0000000000000001
  0
LINE
  5
C0B0
  8
PROF
  6
CONTINUOUS
 10
3.6306271195888371
 20
13.325025853350891
 30
0.0000000000000002
 11
4.9012016798694162
 21
13.325025853350891
 31
0.0000000000000002
  0
LINE
  5
C0B1
  8
PROF
 10
1.9750295148747341
 20
10.37671325491794
 30
0.0000000000000002
 11
1.9750295148747341
 21
10.11391186758919
 31
0.0000000000000002
  0
LINE
  5
C0B2
  8
PROF
 10
1.607967335755631
 20
10.11391186758919
 30
0.0000000000000001
 11
1.9750295148747341
 21
10.11391186758919
 31
0.0000000000000001
  0
LINE
  5
C0B3
  8
PROF
 10
1.9750295148747341
 20
10.11391186758919
 30
0.0000000000000001
 11
1.944958486898144
 21
10.11391186758919
 31
0.0000000000000001
  0
LINE
  5
C0B4
  8
PROF
 10
1.9750295148747341
 20
10.11391186758919
 30
0.0000000000000001
 11
1.944958486898144
 21
10.11391186758919
 31
0.0000000000000001
  0
LINE
  5
C0B5
  8
PROF
 10
0.3222605517169654
 20
7.5247473351056442
 30
-0.0000000000000002
 11
-0.0000008570117416
 21
7.5247473351056442
 31
0.0
  0
LINE
  5
C0B6
  8
PROF
 10
-0.0000008570117416
 20
7.5247473351056442
 30
0.0
 11
-0.0000008570117416
 21
9.1943336957369866
 31
0.0
  0
POLYLINE
  5
C0B7
  8
PROF
 66
     1
 10
0.0
 20
0.0
 30
0.0000000000000001
 70
     4
 75
     6
  0
VERTEX
  5
C0B8
  8
PROF
 10
1.607967335755631
 20
10.11391186758919
 30
0.0000000000000001
 70
    16
  0
VERTEX
  5
C0B9
  8
PROF
 10
1.607967335755631
 20
10.11391186758919
 30
0.0000000000000001
 70
     8
  0
VERTEX
  5
C0BA
  8
PROF
 10
1.646813232648582
 20
10.02198069336111
 30
0.0000000000000001
 70
     8
  0
VERTEX
  5
C0BB
  8
PROF
 10
1.67335966680929
 20
9.9344134163010267
 30
0.0000000000000001
 70
     8
  0
VERTEX
  5
C0BC
  8
PROF
 10
1.689008640046324
 20
9.8512576644480987
 30
0.0000000000000001
 70
     8
  0
VERTEX
  5
C0BD
  8
PROF
 10
1.695162154168258
 20
9.7725610658417281
 30
0.0000000000000001
 70
     8
  0
VERTEX
  5
C0BE
  8
PROF
 10
1.6932222109836059
 20
9.6983712485214255
 30
0.0000000000000001
 70
     8
  0
VERTEX
  5
C0BF
  8
PROF
 10
1.6845908123009961
 20
9.6287358405263603
 30
0.0000000000000001
 70
     8
  0
VERTEX
  5
C0C0
  8
PROF
 10
1.6706699599288859
 20
9.5637024698960431
 30
0.0000000000000001
 70
     8
  0
VERTEX
  5
C0C1
  8
PROF
 10
1.6528616556759621
 20
9.503318764669757
 30
0.0000000000000001
 70
     8
  0
VERTEX
  5
C0C2
  8
PROF
 10
1.6323562992730549
 20
9.4475843259650674
 30
0.0000000000000001
 70
     8
  0
VERTEX
  5
C0C3
  8
PROF
 10
1.609497882140658
 20
9.3963066472123273
 30
0.0000000000000001
 70
     8
  0
VERTEX
  5
C0C4
  8
PROF
 10
1.584418793621637
 20
9.3492451949202842
 30
0.0000000000000001
 70
     8
  0
VERTEX
  5
C0C5
  8
PROF
 10
1.557251423058744
 20
9.3061594355972375
 30
0.0000000000000001
 70
     8
  0
VERTEX
  5
C0C6
  8
PROF
 10
1.5281281597949601
 20
9.2668088357519292
 30
0.0000000000000001
 70
     8
  0
VERTEX
  5
C0C7
  8
PROF
 10
1.4971813931729789
 20
9.2309528618930017
 30
0.0000000000000001
 70
     8
  0
VERTEX
  5
C0C8
  8
PROF
 10
1.464543512535726
 20
9.1983509805288577
 30
0.0000000000000001
 70
     8
  0
VERTEX
  5
C0C9
  8
PROF
 10
1.4303469072260091
 20
9.1687626581682462
 30
0.0000000000000001
 70
     8
  0
VERTEX
  5
C0CA
  8
PROF
 10
1.3947360332574019
 20
9.1419547918675335
 30
0.0000000000000001
 70
     8
  0
VERTEX
  5
C0CB
  8
PROF
 10
1.3579036133264131
 20
9.1177240008747731
 30
0.0000000000000001
 70
     8
  0
VERTEX
  5
C0CC
  8
PROF
 10
1.3200544368004321
 20
9.0958743349860924
 30
0.0000000000000001
 70
     8
  0
VERTEX
  5
C0CD
  8
PROF
 10
1.281393293046676
 20
9.0762098439975034
 30
0.0000000000000001
 70
     8
  0
VERTEX
  5
C0CE
  8
PROF
 10
1.242124971432417
 20
9.0585345777049042
 30
0.0000000000000001
 70
     8
  0
VERTEX
  5
C0CF
  8
PROF
 10
1.2024542613249869
 20
9.0426525859044204
 30
0.0000000000000001
 70
     8
  0
VERTEX
  5
C0D0
  8
PROF
 10
1.1625859520916599
 20
9.0283679183919503
 30
0.0000000000000001
 70
     8
  0
VERTEX
  5
C0D1
  8
PROF
 10
1.1227248330997091
 20
9.0154846249635057
 30
0.0000000000000001
 70
     8
  0
VERTEX
  5
C0D2
  8
PROF
 10
1.0829726247361
 20
9.0034643862466055
 30
0.0000000000000001
 70
     8
  0
VERTEX
  5
C0D3
  8
PROF
 10
1.043018771466222
 20
8.9903994061946833
 30
0.0000000000000001
 70
     8
  0
VERTEX
  5
C0D4
  8
PROF
 10
1.002449648775211
 20
8.9740395195925657
 30
0.0000000000000001
 70
     8
  0
VERTEX
  5
C0D5
  8
PROF
 10
0.9608516321480919
 20
8.9521345612251935
 30
0.0000000000000001
 70
     8
  0
VERTEX
  5
C0D6
  8
PROF
 10
0.9178110970699435
 20
8.9224343658775052
 30
0.0000000000000001
 70
     8
  0
VERTEX
  5
C0D7
  8
PROF
 10
0.8729144190259034
 20
8.8826887683343312
 30
0.0000000000000001
 70
     8
  0
VERTEX
  5
C0D8
  8
PROF
 10
0.8257479735009951
 20
8.8306476033806121
 30
0.0000000000000001
 70
     8
  0
VERTEX
  5
C0D9
  8
PROF
 10
0.7758981359802988
 20
8.764060705801171
 30
0.0000000000000001
 70
     8
  0
VERTEX
  5
C0DA
  8
PROF
 10
1.729201901609656
 20
9.8629858761255491
 30
0.0000000000000001
 70
    16
  0
VERTEX
  5
C0DB
  8
PROF
 10
1.6793731231140889
 20
9.4532143012734196
 30
0.0000000000000001
 70
    16
  0
VERTEX
  5
C0DC
  8
PROF
 10
1.4455611507419801
 20
9.1391837193732481
 30
0.0000000000000001
 70
    16
  0
VERTEX
  5
C0DD
  8
PROF
 10
1.120463717273821
 20
9.0026267702428413
 30
0.0000000000000001
 70
    16
  0
VERTEX
  5
C0DE
  8
PROF
 10
0.9127765582653638
 20
8.9630202230383702
 30
0.0000000000000001
 70
    16
  0
VERTEX
  5
C0DF
  8
PROF
 10
0.7758981359802988
 20
8.764060705801171
 30
0.0000000000000001
 70
    16
  0
SEQEND
  5
C0E0
  8
PROF
  0
ARC
  5
C0E1
  8
PROF
 10
0.733429816733235
 20
8.4849506952165257
 30
0.0000000000000001
 40
0.2823224329524727
 50
269.73652020831901
 51
81.348449993176914
  0
LINE
  5
C0E2
  8
PROF
  6
CONTINUOUS
 10
-0.0000008570117416
 20
9.1943336957369866
 30
-0.0000000000000001
 11
3.6306271195888371
 21
13.325025853350891
 31
0.0000000000000002
  0
POLYLINE
  5
C0E3
  8
PROF
 66
     1
 10
0.0
 20
0.0
 30
0.0000000000000001
 70
     4
 75
     6
  0
VERTEX
  5
C0E4
  8
PROF
 10
4.5198575031869259
 20
12.72227734589444
 30
0.0000000000000001
 70
    16
  0
VERTEX
  5
C0E5
  8
PROF
 10
4.5198575031869259
 20
12.72227734589444
 30
0.0000000000000001
 70
     8
  0
VERTEX
  5
C0E6
  8
PROF
 10
4.4467035366886298
 20
12.741128108778071
 30
0.0000000000000001
 70
     8
  0
VERTEX
  5
C0E7
  8
PROF
 10
4.3786645761268801
 20
12.754675269913941
 30
0.0000000000000001
 70
     8
  0
VERTEX
  5
C0E8
  8
PROF
 10
4.3154364111440477
 20
12.76334314092332
 30
0.0000000000000001
 70
     8
  0
VERTEX
  5
C0E9
  8
PROF
 10
4.256714831382566
 20
12.76755603342724
 30
0.0000000000000001
 70
     8
  0
VERTEX
  5
C0EA
  8
PROF
 10
4.2021956264849791
 20
12.76773825904672
 30
0.0000000000000001
 70
     8
  0
VERTEX
  5
C0EB
  8
PROF
 10
4.1515745860935453
 20
12.764314129403139
 30
0.0000000000000001
 70
     8
  0
VERTEX
  5
C0EC
  8
PROF
 10
4.1045474998508658
 20
12.75770795611743
 30
0.0000000000000001
 70
     8
  0
VERTEX
  5
C0ED
  8
PROF
 10
4.0608101573993158
 20
12.748344050810831
 30
0.0000000000000001
 70
     8
  0
VERTEX
  5
C0EE
  8
PROF
 10
4.0200583483813261
 20
12.736646725104491
 30
0.0000000000000001
 70
     8
  0
VERTEX
  5
C0EF
  8
PROF
 10
3.9819878624393819
 20
12.72304029061945
 30
0.0000000000000001
 70
     8
  0
VERTEX
  5
C0F0
  8
PROF
 10
3.946294489215858
 20
12.707949058976959
 30
0.0000000000000001
 70
     8
  0
VERTEX
  5
C0F1
  8
PROF
 10
3.9126740183532429
 20
12.691797341798059
 30
0.0000000000000001
 70
     8
  0
VERTEX
  5
C0F2
  8
PROF
 10
3.8808638350742508
 20
12.67494295718654
 30
0.0000000000000001
 70
     8
  0
VERTEX
  5
C0F3
  8
PROF
 10
3.850767706922738
 20
12.65747774917668
 30
0.0000000000000001
 70
     8
  0
VERTEX
  5
C0F4
  8
PROF
 10
3.8223309970228452
 20
12.639427068285499
 30
0.0000000000000001
 70
     8
  0
VERTEX
  5
C0F5
  8
PROF
 10
3.7954990684987129
 20
12.62081626503004
 30
0.0000000000000001
 70
     8
  0
VERTEX
  5
C0F6
  8
PROF
 10
3.7702172844744828
 20
12.601670689926999
 30
0.0000000000000001
 70
     8
  0
VERTEX
  5
C0F7
  8
PROF
 10
3.746431008074353
 20
12.58201569349364
 30
0.0000000000000001
 70
     8
  0
VERTEX
  5
C0F8
  8
PROF
 10
3.7240856024224618
 20
12.56187662624666
 30
0.0000000000000001
 70
     8
  0
VERTEX
  5
C0F9
  8
PROF
 10
3.7031264306428961
 20
12.541278838703191
 30
0.0000000000000001
 70
     8
  0
VERTEX
  5
C0FA
  8
PROF
 10
3.6834988558599089
 20
12.520247681380051
 30
0.0000000000000001
 70
     8
  0
VERTEX
  5
C0FB
  8
PROF
 10
3.665148241197528
 20
12.49880850479428
 30
0.0000000000000001
 70
     8
  0
VERTEX
  5
C0FC
  8
PROF
 10
3.6480199497799499
 20
12.47698665946279
 30
0.0000000000000001
 70
     8
  0
VERTEX
  5
C0FD
  8
PROF
 10
3.6320593447313172
 20
12.45480749590263
 30
0.0000000000000001
 70
     8
  0
VERTEX
  5
C0FE
  8
PROF
 10
3.6171895848866589
 20
12.43223790353807
 30
0.0000000000000001
 70
     8
  0
VERTEX
  5
C0FF
  8
PROF
 10
3.6032450119242858
 20
12.40901092742285
 30
0.0000000000000001
 70
     8
  0
VERTEX
  5
C100
  8
PROF
 10
3.590037763233453
 20
12.38480115151844
 30
0.0000000000000001
 70
     8
  0
VERTEX
  5
C101
  8
PROF
 10
3.5773799762033032
 20
12.35928315978594
 30
0.0000000000000001
 70
     8
  0
VERTEX
  5
C102
  8
PROF
 10
3.5650837882230908
 20
12.33213153618658
 30
0.0000000000000001
 70
     8
  0
VERTEX
  5
C103
  8
PROF
 10
3.5529613366819599
 20
12.303020864681571
 30
0.0000000000000001
 70
     8
  0
VERTEX
  5
C104
  8
PROF
 10
3.540824758969165
 20
12.271625729232371
 30
0.0000000000000001
 70
     8
  0
VERTEX
  5
C105
  8
PROF
 10
3.5284861924738489
 20
12.23762071379997
 30
0.0000000000000001
 70
     8
  0
VERTEX
  5
C106
  8
PROF
 10
3.5157577745852668
 20
12.200680402345711
 30
0.0000000000000001
 70
     8
  0
VERTEX
  5
C107
  8
PROF
 10
3.5024516426926189
 20
12.16047937883093
 30
0.0000000000000001
 70
     8
  0
VERTEX
  5
C108
  8
PROF
 10
3.4883799341851041
 20
12.116692227216619
 30
0.0000000000000001
 70
     8
  0
VERTEX
  5
C109
  8
PROF
 10
3.4733547864519201
 20
12.06899353146423
 30
0.0000000000000001
 70
     8
  0
VERTEX
  5
C10A
  8
PROF
 10
3.45723654619428
 20
12.0172095445447
 30
0.0000000000000001
 70
     8
  0
VERTEX
  5
C10B
  8
PROF
 10
3.4400783973613889
 20
11.961773195467799
 30
0.0000000000000001
 70
     8
  0
VERTEX
  5
C10C
  8
PROF
 10
3.421981733214579
 20
11.90326908225302
 30
0.0000000000000001
 70
     8
  0
VERTEX
  5
C10D
  8
PROF
 10
3.4030479470150108
 20
11.842281802919951
 30
0.0000000000000001
 70
     8
  0
VERTEX
  5
C10E
  8
PROF
 10
3.383378432024017
 20
11.779395955487979
 30
0.0000000000000001
 70
     8
  0
VERTEX
  5
C10F
  8
PROF
 10
3.3630745815028709
 20
11.715196137976809
 30
0.0000000000000001
 70
     8
  0
VERTEX
  5
C110
  8
PROF
 10
3.3422377887127359
 20
11.650266948405831
 30
0.0000000000000001
 70
     8
  0
VERTEX
  5
C111
  8
PROF
 10
3.320969446915
 20
11.58519298479461
 30
0.0000000000000001
 70
     8
  0
VERTEX
  5
C112
  8
PROF
 10
3.2993709493707679
 20
11.520558845162549
 30
0.0000000000000001
 70
     8
  0
VERTEX
  5
C113
  8
PROF
 10
3.277543689341428
 20
11.456949127529469
 30
0.0000000000000001
 70
     8
  0
VERTEX
  5
C114
  8
PROF
 10
3.2555890600881412
 20
11.3949484299145
 30
0.0000000000000001
 70
     8
  0
VERTEX
  5
C115
  8
PROF
 10
3.233608454872182
 20
11.335141350337491
 30
0.0000000000000001
 70
     8
  0
VERTEX
  5
C116
  8
PROF
 10
3.2116715641212181
 20
11.27799544797778
 30
0.0000000000000001
 70
     8
  0
VERTEX
  5
C117
  8
PROF
 10
3.189721266927847
 20
11.22351012665467
 30
0.0000000000000001
 70
     8
  0
VERTEX
  5
C118
  8
PROF
 10
3.1676687395512881
 20
11.17156775134765
 30
0.0000000000000001
 70
     8
  0
VERTEX
  5
C119
  8
PROF
 10
3.1454251582505321
 20
11.12205068703588
 30
0.0000000000000001
 70
     8
  0
VERTEX
  5
C11A
  8
PROF
 10
3.122901699284625
 20
11.07484129869874
 30
0.0000000000000001
 70
     8
  0
VERTEX
  5
C11B
  8
PROF
 10
3.1000095389127291
 20
11.02982195131551
 30
0.0000000000000001
 70
     8
  0
VERTEX
  5
C11C
  8
PROF
 10
3.0766598533938909
 20
10.986875009865679
 30
0.0000000000000001
 70
     8
  0
VERTEX
  5
C11D
  8
PROF
 10
3.0527638189871591
 20
10.9458828393283
 30
0.0000000000000001
 70
     8
  0
VERTEX
  5
C11E
  8
PROF
 10
3.0282326119516361
 20
10.90672780468298
 30
0.0000000000000001
 70
     8
  0
VERTEX
  5
C11F
  8
PROF
 10
3.002977408546371
 20
10.869292270908771
 30
0.0000000000000001
 70
     8
  0
VERTEX
  5
C120
  8
PROF
 10
2.9769093850304098
 20
10.833458602985161
 30
0.0000000000000001
 70
     8
  0
VERTEX
  5
C121
  8
PROF
 10
2.9499397176628568
 20
10.799109165891419
 30
0.0000000000000001
 70
     8
  0
VERTEX
  5
C122
  8
PROF
 10
2.9220006098404379
 20
10.76614363969508
 30
0.0000000000000001
 70
     8
  0
VERTEX
  5
C123
  8
PROF
 10
2.8931083735103011
 20
10.7345309648158
 30
0.0000000000000001
 70
     8
  0
VERTEX
  5
C124
  8
PROF
 10
2.8633003477572738
 20
10.70425739676193
 30
0.0000000000000001
 70
     8
  0
VERTEX
  5
C125
  8
PROF
 10
2.8326138716660689
 20
10.67530919104115
 30
0.0000000000000001
 70
     8
  0
VERTEX
  5
C126
  8
PROF
 10
2.8010862843216269
 20
10.647672603161711
 30
0.0000000000000001
 70
     8
  0
VERTEX
  5
C127
  8
PROF
 10
2.7687549248087171
 20
10.62133388863162
 30
0.0000000000000001
 70
     8
  0
VERTEX
  5
C128
  8
PROF
 10
2.735657132212054
 20
10.5962793029588
 30
0.0000000000000001
 70
     8
  0
VERTEX
  5
C129
  8
PROF
 10
2.7018302456165202
 20
10.572495101651381
 30
0.0000000000000001
 70
     8
  0
VERTEX
  5
C12A
  8
PROF
 10
2.6673116041068852
 20
10.54996754021726
 30
0.0000000000000001
 70
     8
  0
VERTEX
  5
C12B
  8
PROF
 10
2.6321385467680321
 20
10.528682874164581
 30
0.0000000000000001
 70
     8
  0
VERTEX
  5
C12C
  8
PROF
 10
2.5963484126846188
 20
10.508627359001251
 30
0.0000000000000001
 70
     8
  0
VERTEX
  5
C12D
  8
PROF
 10
2.5599785409415849
 20
10.489787250235279
 30
0.0000000000000001
 70
     8
  0
VERTEX
  5
C12E
  8
PROF
 10
2.522998630314361
 20
10.472162234281081
 30
0.0000000000000001
 70
     8
  0
VERTEX
  5
C12F
  8
PROF
 10
2.4851078183409072
 20
10.455805721177621
 30
0.0000000000000001
 70
     8
  0
VERTEX
  5
C130
  8
PROF
 10
2.4459376022498982
 20
10.44078455187036
 30
0.0000000000000001
 70
     8
  0
VERTEX
  5
C131
  8
PROF
 10
2.4051194792701258
 20
10.42716556730465
 30
0.0000000000000001
 70
     8
  0
VERTEX
  5
C132
  8
PROF
 10
2.3622849466301541
 20
10.415015608425851
 30
0.0000000000000001
 70
     8
  0
VERTEX
  5
C133
  8
PROF
 10
2.3170655015587149
 20
10.40440151617929
 30
0.0000000000000001
 70
     8
  0
VERTEX
  5
C134
  8
PROF
 10
2.2690926412844301
 20
10.395390131510339
 30
0.0000000000000001
 70
     8
  0
VERTEX
  5
C135
  8
PROF
 10
2.2179978630360888
 20
10.388048295364451
 30
0.0000000000000001
 70
     8
  0
VERTEX
  5
C136
  8
PROF
 10
2.1634126640422551
 20
10.38244284868688
 30
0.0000000000000001
 70
     8
  0
VERTEX
  5
C137
  8
PROF
 10
2.104968541531604
 20
10.37864063242295
 30
0.0000000000000001
 70
     8
  0
VERTEX
  5
C138
  8
PROF
 10
2.0422969927328718
 20
10.37670848751816
 30
0.0000000000000001
 70
     8
  0
VERTEX
  5
C139
  8
PROF
 10
1.9750295148747341
 20
10.37671325491794
 30
0.0000000000000001
 70
     8
  0
VERTEX
  5
C13A
  8
PROF
 10
4.2166060115107484
 20
12.80885334975255
 30
0.0000000000000001
 70
    16
  0
VERTEX
  5
C13B
  8
PROF
 10
3.8702254102732918
 20
12.707065515763929
 30
0.0000000000000001
 70
    16
  0
VERTEX
  5
C13C
  8
PROF
 10
3.605346156896871
 20
12.46277472098552
 30
0.0000000000000001
 70
    16
  0
VERTEX
  5
C13D
  8
PROF
 10
3.500746030527238
 20
12.170680575709749
 30
0.0000000000000001
 70
    16
  0
VERTEX
  5
C13E
  8
PROF
 10
3.231798439705698
 20
11.26846416496107
 30
0.0000000000000001
 70
    16
  0
VERTEX
  5
C13F
  8
PROF
 10
2.9737109398832891
 20
10.76631086647069
 30
0.0000000000000001
 70
    16
  0
VERTEX
  5
C140
  8
PROF
 10
2.5729961067384011
 20
10.460947364504699
 30
0.0000000000000001
 70
    16
  0
VERTEX
  5
C141
  8
PROF
 10
2.253782621454604
 20
10.372731239449759
 30
0.0000000000000001
 70
    16
  0
VERTEX
  5
C142
  8
PROF
 10
1.9750295148747341
 20
10.37671325491794
 30
0.0000000000000001
 70
    16
  0
SEQEND
  5
C143
  8
PROF
  0
LINE
  5
C144
  8
PROF
 10
4.9012016798694162
 20
12.88585218805485
 30
0.0000000000000003
 11
4.5198575031869259
 21
12.88585218805485
 31
0.0000000000000003
  0
LINE
  5
C145
  8
PROF
 10
0.7321315362267457
 20
8.2026312473991538
 30
0.0000000000000006
 11
0.7321315362267457
 21
8.0511853963434987
 31
0.0000000000000006
  0
ARC
  5
C146
  8
PROF
 10
0.7977322214551919
 20
7.5773339332026799
 30
0.0000000000000006
 40
0.4783708383912012
 50
97.882010168942529
 51
186.31119505698649
  0
LINE
  5
C147
  8
FRAME_050
 10
7.8016377197432121
 20
17.99371054969447
 30
0.0
 11
7.8016377197432121
 21
0.0000000000002274
 31
0.0
  0
ENDBLK
  5
C149
  8
0
  0
BLOCK
  8
0
  2
*U5
 70
     1
 10
0.0
 20
0.0
 30
0.0
  3
*U5
  1

  0
TEXT
  5
D2DE
  8
0
 10
3.5177832928899071
 20
10.38601584255777
 30
0.0
 40
0.125
  1
Crown Moulding
  0
TEXT
  5
D2DF
  8
0
 10
3.5223876585106431
 20
10.17717091304435
 30
0.0
 40
0.125
  1
TL-AB509
  0
TEXT
  5
D2E0
  8
0
 10
3.5074661032582561
 20
9.9667059289606801
 30
0.0
 40
0.125
  1
1-5/16" x 7-9/16"
  0
TEXT
  5
D2E1
  8
0
 10
3.519403347460166
 20
9.7562409448770051
 30
0.0
 40
0.125
  1
800.66.TAGUE
  0
ENDBLK
  5
D2E3
  8
0
  0
BLOCK
  8
0
  2
*U6
 70
     1
 10
0.0
 20
0.0
 30
0.0
  3
*U6
  1

  0
TEXT
  5
D2E5
  8
0
 10
-383.41054701029577
 20
849.89272093071668
 30
0.0
 40
0.125
  1
Base Board Assembly
 50
360.0
  0
TEXT
  5
D2E6
  8
0
 10
-383.4018498752344
 20
849.68387600120343
 30
0.0
 40
0.125
  1
TL-681
 50
360.0
  0
TEXT
  5
D2E7
  8
0
 10
-383.41677143048679
 20
849.4734110171197
 30
0.0
 40
0.125
  1
1" x 9-1/4"
 50
360.0
  0
TEXT
  5
D2E8
  8
0
 10
-383.40483418628492
 20
849.26294603303586
 30
0.0
 40
0.125
  1
800.66.TAGUE
 50
360.0
  0
ENDBLK
  5
D2EA
  8
0
  0
BLOCK
  8
0
  2
*U7
 70
     1
 10
0.0
 20
0.0
 30
0.0
  3
*U7
  1

  0
INSERT
  5
D2EC
  8
0
  6
CONTINUOUS
  2
_OPEN30
 10
-383.5485054711674
 20
851.79866252480315
 30
0.0
 41
0.046875
 42
0.046875
 43
0.046875
 50
224.09146837719419
  0
POLYLINE
  5
D2ED
  8
0
  6
CONTINUOUS
 66
     1
 10
0.0
 20
0.0
 30
0.0
  0
VERTEX
  5
D2EE
  8
0
  6
CONTINUOUS
 10
-383.51483844391902
 20
851.83127842431941
 30
0.0
  0
VERTEX
  5
D2EF
  8
0
  6
CONTINUOUS
 10
-382.58511035450601
 20
852.73197921141286
 30
0.0
  0
VERTEX
  5
D2F0
  8
0
  6
CONTINUOUS
 10
-382.39843075097161
 20
852.73197921141286
 30
0.0
  0
SEQEND
  5
D2F1
  8
0
  6
CONTINUOUS
  0
ENDBLK
  5
D2F3
  8
0
  0
BLOCK
  8
0
  2
*U8
 70
     1
 10
0.0
 20
0.0
 30
0.0
  3
*U8
  1

  0
TEXT
  5
D2F5
  8
0
 10
-382.34002352041227
 20
852.66922341332281
 30
0.0
 40
0.125
  1
TL-602
  0
ENDBLK
  5
D2F7
  8
0
  0
BLOCK
  8
0
  2
*U9
 70
     1
 10
0.0
 20
0.0
 30
0.0
  3
*U9
  1

  0
INSERT
  5
D2F9
  8
0
  6
CONTINUOUS
  2
_OPEN30
 10
-383.2985054711674
 20
846.02330962296764
 30
0.0
 41
0.046875
 42
0.046875
 43
0.046875
 50
224.09146837719419
  0
POLYLINE
  5
D2FA
  8
0
  6
CONTINUOUS
 66
     1
 10
0.0
 20
0.0
 30
0.0
  0
VERTEX
  5
D2FB
  8
0
  6
CONTINUOUS
 10
-383.26483844391902
 20
846.05592552248379
 30
0.0
  0
VERTEX
  5
D2FC
  8
0
  6
CONTINUOUS
 10
-382.33511035450601
 20
846.95662630957725
 30
0.0
  0
VERTEX
  5
D2FD
  8
0
  6
CONTINUOUS
 10
-382.14843075097173
 20
846.95662630957725
 30
0.0
  0
SEQEND
  5
D2FE
  8
0
  6
CONTINUOUS
  0
ENDBLK
  5
D300
  8
0
  0
BLOCK
  8
0
  2
*U10
 70
     1
 10
0.0
 20
0.0
 30
0.0
  3
*U10
  1

  0
TEXT
  5
D302
  8
0
 10
-382.09002352041227
 20
846.89361471339714
 30
0.0
 40
0.125
  1
TL-266
  0
ENDBLK
  5
D304
  8
0
  0
ENDSEC
  0
SECTION
  2
ENTITIES
  0
INSERT
  5
D263
  8
0
  2
*U6
 10
0.0
 20
0.0
 30
0.0
  0
LINE
  5
D264
  8
0
  6
CONTINUOUS
 10
-384.29850547116729
 20
854.46080962296764
 30
0.0
 11
-384.11555248466448
 21
854.46080962296764
 31
0.0
  0
LINE
  5
D265
  8
0
  6
CONTINUOUS
 10
-383.91691777065211
 20
854.25965738128264
 30
0.0
 11
-383.91691777065211
 21
854.11075248271925
 31
0.0
  0
LINE
  5
D266
  8
0
  6
CONTINUOUS
 10
-383.93267287182761
 20
853.71086963785842
 30
0.0
 11
-383.93267287182761
 21
853.6429481064672
 31
0.0
  0
ARC
  5
D267
  8
0
  6
CONTINUOUS
 10
-383.8684575384649
 20
854.50616157591105
 30
0.0
 40
0.2512224354494102
 50
190.40034633873029
 51
258.8780603134968
  0
ARC
  5
D268
  8
0
  6
CONTINUOUS
 10
-383.97681310479129
 20
853.91286052415899
 30
0.0
 40
0.2067575350852115
 50
282.32683111165488
 51
73.160676489417597
  0
ARC
  5
D269
  8
0
  6
CONTINUOUS
 10
-383.28614243074378
 20
852.13986086499278
 30
0.0
 40
0.4304075653708857
 50
189.3734776337875
 51
232.4416661720719
  0
INSERT
  5
D26A
  8
0
  2
*U7
 10
0.0
 20
0.0
 30
0.0
1001
ACAD
1000
DSTYLE
1002
{
1070
   147
1040
0.0625
1070
    77
1070
     0
1002
}
  0
INSERT
  5
D26B
  8
0
  2
*U8
 10
0.0
 20
0.0
 30
0.0
  0
LINE
  5
D26C
  8
0
  6
CONTINUOUS
 10
-383.75313797645299
 20
852.25077375506135
 30
0.0
 11
-383.75313797645299
 21
852.0697607042157
 31
0.0
  0
LINE
  5
D26D
  8
0
  6
CONTINUOUS
 10
-383.75313797645299
 20
852.0697607042157
 30
0.0
 11
-383.71080304792832
 21
852.0697607042157
 31
0.0
  0
POLYLINE
  8
0
  5
D305
  66
     1
 10
0.000000
 20
0.000000
 30
0.000000
  70
     8
  0
VERTEX
  8
0
  5
D306
 10
-383.933
 20
853.643
 30
0.000000
  70
    32
  0
VERTEX
  8
0
  5
D307
 10
-383.936
 20
853.640
 30
0.000000
  70
    32
  0
VERTEX
  8
0
  5
D308
 10
-383.939
 20
853.638
 30
0.000000
  70
    32
  0
VERTEX
  8
0
  5
D309
 10
-383.943
 20
853.635
 30
0.000000
  70
    32
  0
VERTEX
  8
0
  5
D30A
 10
-383.946
 20
853.632
 30
0.000000
  70
    32
  0
VERTEX
  8
0
  5
D30B
 10
-383.949
 20
853.629
 30
0.000000
  70
    32
  0
VERTEX
  8
0
  5
D30C
 10
-383.952
 20
853.626
 30
0.000000
  70
    32
  0
VERTEX
  8
0
  5
D30D
 10
-383.954
 20
853.623
 30
0.000000
  70
    32
  0
VERTEX
  8
0
  5
D30E
 10
-383.957
 20
853.620
 30
0.000000
  70
    32
  0
VERTEX
  8
0
  5
D30F
 10
-383.960
 20
853.616
 30
0.000000
  70
    32
  0
VERTEX
  8
0
  5
D310
 10
-383.963
 20
853.613
 30
0.000000
  70
    32
  0
VERTEX
  8
0
  5
D311
 10
-383.965
 20
853.610
 30
0.000000
  70
    32
  0
VERTEX
  8
0
  5
D312
 10
-383.968
 20
853.606
 30
0.000000
  70
    32
  0
VERTEX
  8
0
  5
D313
 10
-383.970
 20
853.603
 30
0.000000
  70
    32
  0
VERTEX
  8
0
  5
D314
 10
-383.973
 20
853.599
 30
0.000000
  70
    32
  0
VERTEX
  8
0
  5
D315
 10
-383.975
 20
853.596
 30
0.000000
  70
    32
  0
VERTEX
  8
0
  5
D316
 10
-383.978
 20
853.592
 30
0.000000
  70
    32
  0
VERTEX
  8
0
  5
D317
 10
-383.980
 20
853.588
 30
0.000000
  70
    32
  0
VERTEX
  8
0
  5
D318
 10
-383.982
 20
853.585
 30
0.000000
  70
    32
  0
VERTEX
  8
0
  5
D319
 10
-383.984
 20
853.581
 30
0.000000
  70
    32
  0
VERTEX
  8
0
  5
D31A
 10
-383.987
 20
853.577
 30
0.000000
  70
    32
  0
VERTEX
  8
0
  5
D31B
 10
-383.989
 20
853.573
 30
0.000000
  70
    32
  0
VERTEX
  8
0
  5
D31C
 10
-383.991
 20
853.569
 30
0.000000
  70
    32
  0
VERTEX
  8
0
  5
D31D
 10
-383.993
 20
853.566
 30
0.000000
  70
    32
  0
VERTEX
  8
0
  5
D31E
 10
-383.995
 20
853.562
 30
0.000000
  70
    32
  0
VERTEX
  8
0
  5
D31F
 10
-383.997
 20
853.558
 30
0.000000
  70
    32
  0
VERTEX
  8
0
  5
D320
 10
-383.999
 20
853.554
 30
0.000000
  70
    32
  0
VERTEX
  8
0
  5
D321
 10
-384.001
 20
853.550
 30
0.000000
  70
    32
  0
VERTEX
  8
0
  5
D322
 10
-384.003
 20
853.546
 30
0.000000
  70
    32
  0
VERTEX
  8
0
  5
D323
 10
-384.005
 20
853.542
 30
0.000000
  70
    32
  0
VERTEX
  8
0
  5
D324
 10
-384.007
 20
853.538
 30
0.000000
  70
    32
  0
VERTEX
  8
0
  5
D325
 10
-384.008
 20
853.534
 30
0.000000
  70
    32
  0
VERTEX
  8
0
  5
D326
 10
-384.010
 20
853.530
 30
0.000000
  70
    32
  0
VERTEX
  8
0
  5
D327
 10
-384.012
 20
853.526
 30
0.000000
  70
    32
  0
VERTEX
  8
0
  5
D328
 10
-384.013
 20
853.522
 30
0.000000
  70
    32
  0
VERTEX
  8
0
  5
D329
 10
-384.015
 20
853.518
 30
0.000000
  70
    32
  0
VERTEX
  8
0
  5
D32A
 10
-384.016
 20
853.514
 30
0.000000
  70
    32
  0
VERTEX
  8
0
  5
D32B
 10
-384.017
 20
853.510
 30
0.000000
  70
    32
  0
VERTEX
  8
0
  5
D32C
 10
-384.019
 20
853.506
 30
0.000000
  70
    32
  0
VERTEX
  8
0
  5
D32D
 10
-384.020
 20
853.502
 30
0.000000
  70
    32
  0
VERTEX
  8
0
  5
D32E
 10
-384.021
 20
853.498
 30
0.000000
  70
    32
  0
VERTEX
  8
0
  5
D32F
 10
-384.022
 20
853.494
 30
0.000000
  70
    32
  0
VERTEX
  8
0
  5
D330
 10
-384.023
 20
853.490
 30
0.000000
  70
    32
  0
VERTEX
  8
0
  5
D331
 10
-384.023
 20
853.486
 30
0.000000
  70
    32
  0
VERTEX
  8
0
  5
D332
 10
-384.024
 20
853.482
 30
0.000000
  70
    32
  0
VERTEX
  8
0
  5
D333
 10
-384.024
 20
853.477
 30
0.000000
  70
    32
  0
VERTEX
  8
0
  5
D334
 10
-384.025
 20
853.473
 30
0.000000
  70
    32
  0
VERTEX
  8
0
  5
D335
 10
-384.025
 20
853.469
 30
0.000000
  70
    32
  0
VERTEX
  8
0
  5
D336
 10
-384.025
 20
853.465
 30
0.000000
  70
    32
  0
VERTEX
  8
0
  5
D337
 10
-384.025
 20
853.461
 30
0.000000
  70
    32
  0
VERTEX
  8
0
  5
D338
 10
-384.025
 20
853.456
 30
0.000000
  70
    32
  0
VERTEX
  8
0
  5
D339
 10
-384.025
 20
853.452
 30
0.000000
  70
    32
  0
VERTEX
  8
0
  5
D33A
 10
-384.025
 20
853.448
 30
0.000000
  70
    32
  0
VERTEX
  8
0
  5
D33B
 10
-384.025
 20
853.444
 30
0.000000
  70
    32
  0
VERTEX
  8
0
  5
D33C
 10
-384.024
 20
853.440
 30
0.000000
  70
    32
  0
VERTEX
  8
0
  5
D33D
 10
-384.024
 20
853.435
 30
0.000000
  70
    32
  0
VERTEX
  8
0
  5
D33E
 10
-384.023
 20
853.431
 30
0.000000
  70
    32
  0
VERTEX
  8
0
  5
D33F
 10
-384.023
 20
853.427
 30
0.000000
  70
    32
  0
VERTEX
  8
0
  5
D340
 10
-384.022
 20
853.423
 30
0.000000
  70
    32
  0
VERTEX
  8
0
  5
D341
 10
-384.021
 20
853.418
 30
0.000000
  70
    32
  0
VERTEX
  8
0
  5
D342
 10
-384.020
 20
853.414
 30
0.000000
  70
    32
  0
VERTEX
  8
0
  5
D343
 10
-384.019
 20
853.410
 30
0.000000
  70
    32
  0
VERTEX
  8
0
  5
D344
 10
-384.018
 20
853.406
 30
0.000000
  70
    32
  0
VERTEX
  8
0
  5
D345
 10
-384.017
 20
853.402
 30
0.000000
  70
    32
  0
VERTEX
  8
0
  5
D346
 10
-384.016
 20
853.397
 30
0.000000
  70
    32
  0
VERTEX
  8
0
  5
D347
 10
-384.014
 20
853.393
 30
0.000000
  70
    32
  0
VERTEX
  8
0
  5
D348
 10
-384.013
 20
853.389
 30
0.000000
  70
    32
  0
VERTEX
  8
0
  5
D349
 10
-384.012
 20
853.385
 30
0.000000
  70
    32
  0
VERTEX
  8
0
  5
D34A
 10
-384.010
 20
853.381
 30
0.000000
  70
    32
  0
VERTEX
  8
0
  5
D34B
 10
-384.009
 20
853.377
 30
0.000000
  70
    32
  0
VERTEX
  8
0
  5
D34C
 10
-384.007
 20
853.372
 30
0.000000
  70
    32
  0
VERTEX
  8
0
  5
D34D
 10
-384.006
 20
853.368
 30
0.000000
  70
    32
  0
VERTEX
  8
0
  5
D34E
 10
-384.004
 20
853.364
 30
0.000000
  70
    32
  0
VERTEX
  8
0
  5
D34F
 10
-384.002
 20
853.360
 30
0.000000
  70
    32
  0
VERTEX
  8
0
  5
D350
 10
-384.001
 20
853.356
 30
0.000000
  70
    32
  0
VERTEX
  8
0
  5
D351
 10
-383.999
 20
853.352
 30
0.000000
  70
    32
  0
VERTEX
  8
0
  5
D352
 10
-383.997
 20
853.348
 30
0.000000
  70
    32
  0
VERTEX
  8
0
  5
D353
 10
-383.996
 20
853.344
 30
0.000000
  70
    32
  0
VERTEX
  8
0
  5
D354
 10
-383.994
 20
853.340
 30
0.000000
  70
    32
  0
VERTEX
  8
0
  5
D355
 10
-383.992
 20
853.336
 30
0.000000
  70
    32
  0
VERTEX
  8
0
  5
D356
 10
-383.990
 20
853.332
 30
0.000000
  70
    32
  0
VERTEX
  8
0
  5
D357
 10
-383.988
 20
853.328
 30
0.000000
  70
    32
  0
VERTEX
  8
0
  5
D358
 10
-383.986
 20
853.324
 30
0.000000
  70
    32
  0
VERTEX
  8
0
  5
D359
 10
-383.984
 20
853.321
 30
0.000000
  70
    32
  0
VERTEX
  8
0
  5
D35A
 10
-383.982
 20
853.317
 30
0.000000
  70
    32
  0
VERTEX
  8
0
  5
D35B
 10
-383.980
 20
853.313
 30
0.000000
  70
    32
  0
VERTEX
  8
0
  5
D35C
 10
-383.978
 20
853.309
 30
0.000000
  70
    32
  0
VERTEX
  8
0
  5
D35D
 10
-383.976
 20
853.305
 30
0.000000
  70
    32
  0
VERTEX
  8
0
  5
D35E
 10
-383.974
 20
853.302
 30
0.000000
  70
    32
  0
VERTEX
  8
0
  5
D35F
 10
-383.972
 20
853.298
 30
0.000000
  70
    32
  0
VERTEX
  8
0
  5
D360
 10
-383.970
 20
853.294
 30
0.000000
  70
    32
  0
VERTEX
  8
0
  5
D361
 10
-383.968
 20
853.290
 30
0.000000
  70
    32
  0
VERTEX
  8
0
  5
D362
 10
-383.965
 20
853.287
 30
0.000000
  70
    32
  0
VERTEX
  8
0
  5
D363
 10
-383.963
 20
853.283
 30
0.000000
  70
    32
  0
VERTEX
  8
0
  5
D364
 10
-383.961
 20
853.279
 30
0.000000
  70
    32
  0
VERTEX
  8
0
  5
D365
 10
-383.959
 20
853.276
 30
0.000000
  70
    32
  0
VERTEX
  8
0
  5
D366
 10
-383.956
 20
853.272
 30
0.000000
  70
    32
  0
VERTEX
  8
0
  5
D367
 10
-383.954
 20
853.269
 30
0.000000
  70
    32
  0
VERTEX
  8
0
  5
D368
 10
-383.952
 20
853.265
 30
0.000000
  70
    32
  0
VERTEX
  8
0
  5
D369
 10
-383.949
 20
853.261
 30
0.000000
  70
    32
  0
VERTEX
  8
0
  5
D36A
 10
-383.947
 20
853.258
 30
0.000000
  70
    32
  0
VERTEX
  8
0
  5
D36B
 10
-383.945
 20
853.254
 30
0.000000
  70
    32
  0
VERTEX
  8
0
  5
D36C
 10
-383.942
 20
853.251
 30
0.000000
  70
    32
  0
VERTEX
  8
0
  5
D36D
 10
-383.940
 20
853.247
 30
0.000000
  70
    32
  0
VERTEX
  8
0
  5
D36E
 10
-383.938
 20
853.244
 30
0.000000
  70
    32
  0
VERTEX
  8
0
  5
D36F
 10
-383.935
 20
853.240
 30
0.000000
  70
    32
  0
VERTEX
  8
0
  5
D370
 10
-383.933
 20
853.237
 30
0.000000
  70
    32
  0
VERTEX
  8
0
  5
D371
 10
-383.930
 20
853.233
 30
0.000000
  70
    32
  0
VERTEX
  8
0
  5
D372
 10
-383.928
 20
853.230
 30
0.000000
  70
    32
  0
VERTEX
  8
0
  5
D373
 10
-383.925
 20
853.227
 30
0.000000
  70
    32
  0
VERTEX
  8
0
  5
D374
 10
-383.923
 20
853.223
 30
0.000000
  70
    32
  0
VERTEX
  8
0
  5
D375
 10
-383.920
 20
853.220
 30
0.000000
  70
    32
  0
VERTEX
  8
0
  5
D376
 10
-383.918
 20
853.216
 30
0.000000
  70
    32
  0
VERTEX
  8
0
  5
D377
 10
-383.915
 20
853.213
 30
0.000000
  70
    32
  0
VERTEX
  8
0
  5
D378
 10
-383.912
 20
853.209
 30
0.000000
  70
    32
  0
VERTEX
  8
0
  5
D379
 10
-383.910
 20
853.206
 30
0.000000
  70
    32
  0
VERTEX
  8
0
  5
D37A
 10
-383.907
 20
853.203
 30
0.000000
  70
    32
  0
VERTEX
  8
0
  5
D37B
 10
-383.905
 20
853.199
 30
0.000000
  70
    32
  0
VERTEX
  8
0
  5
D37C
 10
-383.902
 20
853.196
 30
0.000000
  70
    32
  0
VERTEX
  8
0
  5
D37D
 10
-383.899
 20
853.193
 30
0.000000
  70
    32
  0
VERTEX
  8
0
  5
D37E
 10
-383.897
 20
853.189
 30
0.000000
  70
    32
  0
VERTEX
  8
0
  5
D37F
 10
-383.894
 20
853.186
 30
0.000000
  70
    32
  0
VERTEX
  8
0
  5
D380
 10
-383.891
 20
853.183
 30
0.000000
  70
    32
  0
VERTEX
  8
0
  5
D381
 10
-383.889
 20
853.179
 30
0.000000
  70
    32
  0
VERTEX
  8
0
  5
D382
 10
-383.886
 20
853.176
 30
0.000000
  70
    32
  0
VERTEX
  8
0
  5
D383
 10
-383.883
 20
853.173
 30
0.000000
  70
    32
  0
VERTEX
  8
0
  5
D384
 10
-383.881
 20
853.170
 30
0.000000
  70
    32
  0
VERTEX
  8
0
  5
D385
 10
-383.878
 20
853.166
 30
0.000000
  70
    32
  0
VERTEX
  8
0
  5
D386
 10
-383.875
 20
853.163
 30
0.000000
  70
    32
  0
VERTEX
  8
0
  5
D387
 10
-383.872
 20
853.160
 30
0.000000
  70
    32
  0
VERTEX
  8
0
  5
D388
 10
-383.870
 20
853.157
 30
0.000000
  70
    32
  0
VERTEX
  8
0
  5
D389
 10
-383.867
 20
853.153
 30
0.000000
  70
    32
  0
VERTEX
  8
0
  5
D38A
 10
-383.864
 20
853.150
 30
0.000000
  70
    32
  0
VERTEX
  8
0
  5
D38B
 10
-383.861
 20
853.147
 30
0.000000
  70
    32
  0
VERTEX
  8
0
  5
D38C
 10
-383.859
 20
853.143
 30
0.000000
  70
    32
  0
VERTEX
  8
0
  5
D38D
 10
-383.856
 20
853.140
 30
0.000000
  70
    32
  0
VERTEX
  8
0
  5
D38E
 10
-383.853
 20
853.137
 30
0.000000
  70
    32
  0
VERTEX
  8
0
  5
D38F
 10
-383.850
 20
853.134
 30
0.000000
  70
    32
  0
VERTEX
  8
0
  5
D390
 10
-383.848
 20
853.131
 30
0.000000
  70
    32
  0
VERTEX
  8
0
  5
D391
 10
-383.845
 20
853.127
 30
0.000000
  70
    32
  0
VERTEX
  8
0
  5
D392
 10
-383.842
 20
853.124
 30
0.000000
  70
    32
  0
VERTEX
  8
0
  5
D393
 10
-383.839
 20
853.121
 30
0.000000
  70
    32
  0
VERTEX
  8
0
  5
D394
 10
-383.837
 20
853.118
 30
0.000000
  70
    32
  0
VERTEX
  8
0
  5
D395
 10
-383.834
 20
853.114
 30
0.000000
  70
    32
  0
VERTEX
  8
0
  5
D396
 10
-383.831
 20
853.111
 30
0.000000
  70
    32
  0
VERTEX
  8
0
  5
D397
 10
-383.828
 20
853.108
 30
0.000000
  70
    32
  0
VERTEX
  8
0
  5
D398
 10
-383.826
 20
853.105
 30
0.000000
  70
    32
  0
VERTEX
  8
0
  5
D399
 10
-383.823
 20
853.101
 30
0.000000
  70
    32
  0
VERTEX
  8
0
  5
D39A
 10
-383.820
 20
853.098
 30
0.000000
  70
    32
  0
VERTEX
  8
0
  5
D39B
 10
-383.817
 20
853.095
 30
0.000000
  70
    32
  0
VERTEX
  8
0
  5
D39C
 10
-383.814
 20
853.092
 30
0.000000
  70
    32
  0
VERTEX
  8
0
  5
D39D
 10
-383.812
 20
853.089
 30
0.000000
  70
    32
  0
VERTEX
  8
0
  5
D39E
 10
-383.809
 20
853.085
 30
0.000000
  70
    32
  0
VERTEX
  8
0
  5
D39F
 10
-383.806
 20
853.082
 30
0.000000
  70
    32
  0
VERTEX
  8
0
  5
D3A0
 10
-383.803
 20
853.079
 30
0.000000
  70
    32
  0
VERTEX
  8
0
  5
D3A1
 10
-383.801
 20
853.076
 30
0.000000
  70
    32
  0
VERTEX
  8
0
  5
D3A2
 10
-383.798
 20
853.073
 30
0.000000
  70
    32
  0
VERTEX
  8
0
  5
D3A3
 10
-383.795
 20
853.069
 30
0.000000
  70
    32
  0
VERTEX
  8
0
  5
D3A4
 10
-383.792
 20
853.066
 30
0.000000
  70
    32
  0
VERTEX
  8
0
  5
D3A5
 10
-383.789
 20
853.063
 30
0.000000
  70
    32
  0
VERTEX
  8
0
  5
D3A6
 10
-383.787
 20
853.060
 30
0.000000
  70
    32
  0
VERTEX
  8
0
  5
D3A7
 10
-383.784
 20
853.056
 30
0.000000
  70
    32
  0
VERTEX
  8
0
  5
D3A8
 10
-383.781
 20
853.053
 30
0.000000
  70
    32
  0
VERTEX
  8
0
  5
D3A9
 10
-383.778
 20
853.050
 30
0.000000
  70
    32
  0
VERTEX
  8
0
  5
D3AA
 10
-383.776
 20
853.047
 30
0.000000
  70
    32
  0
VERTEX
  8
0
  5
D3AB
 10
-383.773
 20
853.043
 30
0.000000
  70
    32
  0
VERTEX
  8
0
  5
D3AC
 10
-383.770
 20
853.040
 30
0.000000
  70
    32
  0
VERTEX
  8
0
  5
D3AD
 10
-383.767
 20
853.037
 30
0.000000
  70
    32
  0
VERTEX
  8
0
  5
D3AE
 10
-383.765
 20
853.034
 30
0.000000
  70
    32
  0
VERTEX
  8
0
  5
D3AF
 10
-383.762
 20
853.031
 30
0.000000
  70
    32
  0
VERTEX
  8
0
  5
D3B0
 10
-383.759
 20
853.027
 30
0.000000
  70
    32
  0
VERTEX
  8
0
  5
D3B1
 10
-383.756
 20
853.024
 30
0.000000
  70
    32
  0
VERTEX
  8
0
  5
D3B2
 10
-383.754
 20
853.021
 30
0.000000
  70
    32
  0
VERTEX
  8
0
  5
D3B3
 10
-383.751
 20
853.018
 30
0.000000
  70
    32
  0
VERTEX
  8
0
  5
D3B4
 10
-383.748
 20
853.014
 30
0.000000
  70
    32
  0
VERTEX
  8
0
  5
D3B5
 10
-383.745
 20
853.011
 30
0.000000
  70
    32
  0
VERTEX
  8
0
  5
D3B6
 10
-383.743
 20
853.008
 30
0.000000
  70
    32
  0
VERTEX
  8
0
  5
D3B7
 10
-383.740
 20
853.004
 30
0.000000
  70
    32
  0
VERTEX
  8
0
  5
D3B8
 10
-383.737
 20
853.001
 30
0.000000
  70
    32
  0
VERTEX
  8
0
  5
D3B9
 10
-383.735
 20
852.998
 30
0.000000
  70
    32
  0
VERTEX
  8
0
  5
D3BA
 10
-383.732
 20
852.995
 30
0.000000
  70
    32
  0
VERTEX
  8
0
  5
D3BB
 10
-383.729
 20
852.991
 30
0.000000
  70
    32
  0
VERTEX
  8
0
  5
D3BC
 10
-383.727
 20
852.988
 30
0.000000
  70
    32
  0
VERTEX
  8
0
  5
D3BD
 10
-383.724
 20
852.985
 30
0.000000
  70
    32
  0
VERTEX
  8
0
  5
D3BE
 10
-383.721
 20
852.981
 30
0.000000
  70
    32
  0
VERTEX
  8
0
  5
D3BF
 10
-383.719
 20
852.978
 30
0.000000
  70
    32
  0
VERTEX
  8
0
  5
D3C0
 10
-383.716
 20
852.975
 30
0.000000
  70
    32
  0
VERTEX
  8
0
  5
D3C1
 10
-383.713
 20
852.971
 30
0.000000
  70
    32
  0
VERTEX
  8
0
  5
D3C2
 10
-383.711
 20
852.968
 30
0.000000
  70
    32
  0
VERTEX
  8
0
  5
D3C3
 10
-383.708
 20
852.965
 30
0.000000
  70
    32
  0
VERTEX
  8
0
  5
D3C4
 10
-383.705
 20
852.961
 30
0.000000
  70
    32
  0
VERTEX
  8
0
  5
D3C5
 10
-383.703
 20
852.958
 30
0.000000
  70
    32
  0
VERTEX
  8
0
  5
D3C6
 10
-383.700
 20
852.954
 30
0.000000
  70
    32
  0
VERTEX
  8
0
  5
D3C7
 10
-383.697
 20
852.951
 30
0.000000
  70
    32
  0
VERTEX
  8
0
  5
D3C8
 10
-383.695
 20
852.948
 30
0.000000
  70
    32
  0
VERTEX
  8
0
  5
D3C9
 10
-383.692
 20
852.944
 30
0.000000
  70
    32
  0
VERTEX
  8
0
  5
D3CA
 10
-383.690
 20
852.941
 30
0.000000
  70
    32
  0
VERTEX
  8
0
  5
D3CB
 10
-383.687
 20
852.937
 30
0.000000
  70
    32
  0
VERTEX
  8
0
  5
D3CC
 10
-383.685
 20
852.934
 30
0.000000
  70
    32
  0
VERTEX
  8
0
  5
D3CD
 10
-383.682
 20
852.931
 30
0.000000
  70
    32
  0
VERTEX
  8
0
  5
D3CE
 10
-383.680
 20
852.927
 30
0.000000
  70
    32
  0
VERTEX
  8
0
  5
D3CF
 10
-383.677
 20
852.924
 30
0.000000
  70
    32
  0
VERTEX
  8
0
  5
D3D0
 10
-383.674
 20
852.920
 30
0.000000
  70
    32
  0
VERTEX
  8
0
  5
D3D1
 10
-383.672
 20
852.917
 30
0.000000
  70
    32
  0
VERTEX
  8
0
  5
D3D2
 10
-383.670
 20
852.913
 30
0.000000
  70
    32
  0
VERTEX
  8
0
  5
D3D3
 10
-383.667
 20
852.910
 30
0.000000
  70
    32
  0
VERTEX
  8
0
  5
D3D4
 10
-383.665
 20
852.906
 30
0.000000
  70
    32
  0
VERTEX
  8
0
  5
D3D5
 10
-383.662
 20
852.903
 30
0.000000
  70
    32
  0
VERTEX
  8
0
  5
D3D6
 10
-383.660
 20
852.899
 30
0.000000
  70
    32
  0
VERTEX
  8
0
  5
D3D7
 10
-383.657
 20
852.896
 30
0.000000
  70
    32
  0
VERTEX
  8
0
  5
D3D8
 10
-383.655
 20
852.892
 30
0.000000
  70
    32
  0
VERTEX
  8
0
  5
D3D9
 10
-383.652
 20
852.889
 30
0.000000
  70
    32
  0
VERTEX
  8
0
  5
D3DA
 10
-383.650
 20
852.885
 30
0.000000
  70
    32
  0
VERTEX
  8
0
  5
D3DB
 10
-383.648
 20
852.881
 30
0.000000
  70
    32
  0
VERTEX
  8
0
  5
D3DC
 10
-383.645
 20
852.878
 30
0.000000
  70
    32
  0
VERTEX
  8
0
  5
D3DD
 10
-383.643
 20
852.874
 30
0.000000
  70
    32
  0
VERTEX
  8
0
  5
D3DE
 10
-383.641
 20
852.871
 30
0.000000
  70
    32
  0
VERTEX
  8
0
  5
D3DF
 10
-383.638
 20
852.867
 30
0.000000
  70
    32
  0
VERTEX
  8
0
  5
D3E0
 10
-383.636
 20
852.863
 30
0.000000
  70
    32
  0
VERTEX
  8
0
  5
D3E1
 10
-383.634
 20
852.860
 30
0.000000
  70
    32
  0
VERTEX
  8
0
  5
D3E2
 10
-383.631
 20
852.856
 30
0.000000
  70
    32
  0
VERTEX
  8
0
  5
D3E3
 10
-383.629
 20
852.852
 30
0.000000
  70
    32
  0
VERTEX
  8
0
  5
D3E4
 10
-383.627
 20
852.849
 30
0.000000
  70
    32
  0
VERTEX
  8
0
  5
D3E5
 10
-383.625
 20
852.845
 30
0.000000
  70
    32
  0
VERTEX
  8
0
  5
D3E6
 10
-383.622
 20
852.841
 30
0.000000
  70
    32
  0
VERTEX
  8
0
  5
D3E7
 10
-383.620
 20
852.837
 30
0.000000
  70
    32
  0
VERTEX
  8
0
  5
D3E8
 10
-383.618
 20
852.834
 30
0.000000
  70
    32
  0
VERTEX
  8
0
  5
D3E9
 10
-383.616
 20
852.830
 30
0.000000
  70
    32
  0
VERTEX
  8
0
  5
D3EA
 10
-383.614
 20
852.826
 30
0.000000
  70
    32
  0
VERTEX
  8
0
  5
D3EB
 10
-383.611
 20
852.822
 30
0.000000
  70
    32
  0
VERTEX
  8
0
  5
D3EC
 10
-383.609
 20
852.819
 30
0.000000
  70
    32
  0
VERTEX
  8
0
  5
D3ED
 10
-383.607
 20
852.815
 30
0.000000
  70
    32
  0
VERTEX
  8
0
  5
D3EE
 10
-383.605
 20
852.811
 30
0.000000
  70
    32
  0
VERTEX
  8
0
  5
D3EF
 10
-383.603
 20
852.807
 30
0.000000
  70
    32
  0
VERTEX
  8
0
  5
D3F0
 10
-383.601
 20
852.803
 30
0.000000
  70
    32
  0
VERTEX
  8
0
  5
D3F1
 10
-383.599
 20
852.799
 30
0.000000
  70
    32
  0
VERTEX
  8
0
  5
D3F2
 10
-383.597
 20
852.796
 30
0.000000
  70
    32
  0
VERTEX
  8
0
  5
D3F3
 10
-383.595
 20
852.792
 30
0.000000
  70
    32
  0
VERTEX
  8
0
  5
D3F4
 10
-383.593
 20
852.788
 30
0.000000
  70
    32
  0
VERTEX
  8
0
  5
D3F5
 10
-383.592
 20
852.784
 30
0.000000
  70
    32
  0
VERTEX
  8
0
  5
D3F6
 10
-383.590
 20
852.780
 30
0.000000
  70
    32
  0
VERTEX
  8
0
  5
D3F7
 10
-383.588
 20
852.776
 30
0.000000
  70
    32
  0
VERTEX
  8
0
  5
D3F8
 10
-383.586
 20
852.772
 30
0.000000
  70
    32
  0
VERTEX
  8
0
  5
D3F9
 10
-383.584
 20
852.768
 30
0.000000
  70
    32
  0
VERTEX
  8
0
  5
D3FA
 10
-383.583
 20
852.764
 30
0.000000
  70
    32
  0
VERTEX
  8
0
  5
D3FB
 10
-383.581
 20
852.760
 30
0.000000
  70
    32
  0
VERTEX
  8
0
  5
D3FC
 10
-383.579
 20
852.756
 30
0.000000
  70
    32
  0
VERTEX
  8
0
  5
D3FD
 10
-383.578
 20
852.752
 30
0.000000
  70
    32
  0
VERTEX
  8
0
  5
D3FE
 10
-383.576
 20
852.748
 30
0.000000
  70
    32
  0
VERTEX
  8
0
  5
D3FF
 10
-383.574
 20
852.744
 30
0.000000
  70
    32
  0
VERTEX
  8
0
  5
D400
 10
-383.573
 20
852.740
 30
0.000000
  70
    32
  0
VERTEX
  8
0
  5
D401
 10
-383.571
 20
852.736
 30
0.000000
  70
    32
  0
VERTEX
  8
0
  5
D402
 10
-383.570
 20
852.732
 30
0.000000
  70
    32
  0
VERTEX
  8
0
  5
D403
 10
-383.569
 20
852.728
 30
0.000000
  70
    32
  0
VERTEX
  8
0
  5
D404
 10
-383.567
 20
852.724
 30
0.000000
  70
    32
  0
VERTEX
  8
0
  5
D405
 10
-383.566
 20
852.720
 30
0.000000
  70
    32
  0
VERTEX
  8
0
  5
D406
 10
-383.565
 20
852.716
 30
0.000000
  70
    32
  0
VERTEX
  8
0
  5
D407
 10
-383.563
 20
852.712
 30
0.000000
  70
    32
  0
VERTEX
  8
0
  5
D408
 10
-383.562
 20
852.708
 30
0.000000
  70
    32
  0
VERTEX
  8
0
  5
D409
 10
-383.561
 20
852.704
 30
0.000000
  70
    32
  0
VERTEX
  8
0
  5
D40A
 10
-383.560
 20
852.700
 30
0.000000
  70
    32
  0
VERTEX
  8
0
  5
D40B
 10
-383.559
 20
852.695
 30
0.000000
  70
    32
  0
VERTEX
  8
0
  5
D40C
 10
-383.558
 20
852.691
 30
0.000000
  70
    32
  0
VERTEX
  8
0
  5
D40D
 10
-383.557
 20
852.687
 30
0.000000
  70
    32
  0
VERTEX
  8
0
  5
D40E
 10
-383.556
 20
852.683
 30
0.000000
  70
    32
  0
VERTEX
  8
0
  5
D40F
 10
-383.555
 20
852.679
 30
0.000000
  70
    32
  0
VERTEX
  8
0
  5
D410
 10
-383.554
 20
852.675
 30
0.000000
  70
    32
  0
VERTEX
  8
0
  5
D411
 10
-383.553
 20
852.671
 30
0.000000
  70
    32
  0
VERTEX
  8
0
  5
D412
 10
-383.552
 20
852.666
 30
0.000000
  70
    32
  0
VERTEX
  8
0
  5
D413
 10
-383.552
 20
852.662
 30
0.000000
  70
    32
  0
VERTEX
  8
0
  5
D414
 10
-383.551
 20
852.658
 30
0.000000
  70
    32
  0
VERTEX
  8
0
  5
D415
 10
-383.550
 20
852.654
 30
0.000000
  70
    32
  0
VERTEX
  8
0
  5
D416
 10
-383.550
 20
852.650
 30
0.000000
  70
    32
  0
VERTEX
  8
0
  5
D417
 10
-383.549
 20
852.645
 30
0.000000
  70
    32
  0
VERTEX
  8
0
  5
D418
 10
-383.549
 20
852.641
 30
0.000000
  70
    32
  0
VERTEX
  8
0
  5
D419
 10
-383.548
 20
852.637
 30
0.000000
  70
    32
  0
VERTEX
  8
0
  5
D41A
 10
-383.548
 20
852.633
 30
0.000000
  70
    32
  0
VERTEX
  8
0
  5
D41B
 10
-383.548
 20
852.629
 30
0.000000
  70
    32
  0
VERTEX
  8
0
  5
D41C
 10
-383.547
 20
852.624
 30
0.000000
  70
    32
  0
VERTEX
  8
0
  5
D41D
 10
-383.547
 20
852.620
 30
0.000000
  70
    32
  0
VERTEX
  8
0
  5
D41E
 10
-383.547
 20
852.616
 30
0.000000
  70
    32
  0
VERTEX
  8
0
  5
D41F
 10
-383.547
 20
852.612
 30
0.000000
  70
    32
  0
VERTEX
  8
0
  5
D420
 10
-383.547
 20
852.607
 30
0.000000
  70
    32
  0
VERTEX
  8
0
  5
D421
 10
-383.547
 20
852.603
 30
0.000000
  70
    32
  0
VERTEX
  8
0
  5
D422
 10
-383.547
 20
852.599
 30
0.000000
  70
    32
  0
VERTEX
  8
0
  5
D423
 10
-383.547
 20
852.595
 30
0.000000
  70
    32
  0
VERTEX
  8
0
  5
D424
 10
-383.547
 20
852.590
 30
0.000000
  70
    32
  0
VERTEX
  8
0
  5
D425
 10
-383.547
 20
852.586
 30
0.000000
  70
    32
  0
VERTEX
  8
0
  5
D426
 10
-383.547
 20
852.582
 30
0.000000
  70
    32
  0
VERTEX
  8
0
  5
D427
 10
-383.548
 20
852.577
 30
0.000000
  70
    32
  0
VERTEX
  8
0
  5
D428
 10
-383.548
 20
852.573
 30
0.000000
  70
    32
  0
VERTEX
  8
0
  5
D429
 10
-383.548
 20
852.569
 30
0.000000
  70
    32
  0
VERTEX
  8
0
  5
D42A
 10
-383.549
 20
852.565
 30
0.000000
  70
    32
  0
VERTEX
  8
0
  5
D42B
 10
-383.549
 20
852.560
 30
0.000000
  70
    32
  0
VERTEX
  8
0
  5
D42C
 10
-383.550
 20
852.556
 30
0.000000
  70
    32
  0
VERTEX
  8
0
  5
D42D
 10
-383.550
 20
852.552
 30
0.000000
  70
    32
  0
VERTEX
  8
0
  5
D42E
 10
-383.551
 20
852.548
 30
0.000000
  70
    32
  0
VERTEX
  8
0
  5
D42F
 10
-383.551
 20
852.543
 30
0.000000
  70
    32
  0
VERTEX
  8
0
  5
D430
 10
-383.552
 20
852.539
 30
0.000000
  70
    32
  0
VERTEX
  8
0
  5
D431
 10
-383.553
 20
852.535
 30
0.000000
  70
    32
  0
VERTEX
  8
0
  5
D432
 10
-383.554
 20
852.531
 30
0.000000
  70
    32
  0
VERTEX
  8
0
  5
D433
 10
-383.554
 20
852.526
 30
0.000000
  70
    32
  0
VERTEX
  8
0
  5
D434
 10
-383.555
 20
852.522
 30
0.000000
  70
    32
  0
VERTEX
  8
0
  5
D435
 10
-383.556
 20
852.518
 30
0.000000
  70
    32
  0
VERTEX
  8
0
  5
D436
 10
-383.557
 20
852.514
 30
0.000000
  70
    32
  0
VERTEX
  8
0
  5
D437
 10
-383.558
 20
852.509
 30
0.000000
  70
    32
  0
VERTEX
  8
0
  5
D438
 10
-383.559
 20
852.505
 30
0.000000
  70
    32
  0
VERTEX
  8
0
  5
D439
 10
-383.560
 20
852.501
 30
0.000000
  70
    32
  0
VERTEX
  8
0
  5
D43A
 10
-383.561
 20
852.497
 30
0.000000
  70
    32
  0
VERTEX
  8
0
  5
D43B
 10
-383.562
 20
852.493
 30
0.000000
  70
    32
  0
VERTEX
  8
0
  5
D43C
 10
-383.563
 20
852.488
 30
0.000000
  70
    32
  0
VERTEX
  8
0
  5
D43D
 10
-383.565
 20
852.484
 30
0.000000
  70
    32
  0
VERTEX
  8
0
  5
D43E
 10
-383.566
 20
852.480
 30
0.000000
  70
    32
  0
VERTEX
  8
0
  5
D43F
 10
-383.567
 20
852.476
 30
0.000000
  70
    32
  0
VERTEX
  8
0
  5
D440
 10
-383.568
 20
852.472
 30
0.000000
  70
    32
  0
VERTEX
  8
0
  5
D441
 10
-383.570
 20
852.468
 30
0.000000
  70
    32
  0
VERTEX
  8
0
  5
D442
 10
-383.571
 20
852.464
 30
0.000000
  70
    32
  0
VERTEX
  8
0
  5
D443
 10
-383.573
 20
852.459
 30
0.000000
  70
    32
  0
VERTEX
  8
0
  5
D444
 10
-383.574
 20
852.455
 30
0.000000
  70
    32
  0
VERTEX
  8
0
  5
D445
 10
-383.576
 20
852.451
 30
0.000000
  70
    32
  0
VERTEX
  8
0
  5
D446
 10
-383.577
 20
852.447
 30
0.000000
  70
    32
  0
VERTEX
  8
0
  5
D447
 10
-383.579
 20
852.443
 30
0.000000
  70
    32
  0
VERTEX
  8
0
  5
D448
 10
-383.580
 20
852.439
 30
0.000000
  70
    32
  0
VERTEX
  8
0
  5
D449
 10
-383.582
 20
852.435
 30
0.000000
  70
    32
  0
VERTEX
  8
0
  5
D44A
 10
-383.584
 20
852.431
 30
0.000000
  70
    32
  0
VERTEX
  8
0
  5
D44B
 10
-383.585
 20
852.427
 30
0.000000
  70
    32
  0
VERTEX
  8
0
  5
D44C
 10
-383.587
 20
852.423
 30
0.000000
  70
    32
  0
VERTEX
  8
0
  5
D44D
 10
-383.589
 20
852.419
 30
0.000000
  70
    32
  0
VERTEX
  8
0
  5
D44E
 10
-383.591
 20
852.415
 30
0.000000
  70
    32
  0
VERTEX
  8
0
  5
D44F
 10
-383.593
 20
852.411
 30
0.000000
  70
    32
  0
VERTEX
  8
0
  5
D450
 10
-383.594
 20
852.408
 30
0.000000
  70
    32
  0
VERTEX
  8
0
  5
D451
 10
-383.596
 20
852.404
 30
0.000000
  70
    32
  0
VERTEX
  8
0
  5
D452
 10
-383.598
 20
852.400
 30
0.000000
  70
    32
  0
VERTEX
  8
0
  5
D453
 10
-383.600
 20
852.396
 30
0.000000
  70
    32
  0
VERTEX
  8
0
  5
D454
 10
-383.603
 20
852.392
 30
0.000000
  70
    32
  0
VERTEX
  8
0
  5
D455
 10
-383.605
 20
852.389
 30
0.000000
  70
    32
  0
VERTEX
  8
0
  5
D456
 10
-383.607
 20
852.385
 30
0.000000
  70
    32
  0
VERTEX
  8
0
  5
D457
 10
-383.609
 20
852.381
 30
0.000000
  70
    32
  0
VERTEX
  8
0
  5
D458
 10
-383.611
 20
852.378
 30
0.000000
  70
    32
  0
VERTEX
  8
0
  5
D459
 10
-383.614
 20
852.374
 30
0.000000
  70
    32
  0
VERTEX
  8
0
  5
D45A
 10
-383.616
 20
852.371
 30
0.000000
  70
    32
  0
VERTEX
  8
0
  5
D45B
 10
-383.618
 20
852.367
 30
0.000000
  70
    32
  0
VERTEX
  8
0
  5
D45C
 10
-383.621
 20
852.364
 30
0.000000
  70
    32
  0
VERTEX
  8
0
  5
D45D
 10
-383.623
 20
852.360
 30
0.000000
  70
    32
  0
VERTEX
  8
0
  5
D45E
 10
-383.626
 20
852.357
 30
0.000000
  70
    32
  0
VERTEX
  8
0
  5
D45F
 10
-383.629
 20
852.353
 30
0.000000
  70
    32
  0
VERTEX
  8
0
  5
D460
 10
-383.631
 20
852.350
 30
0.000000
  70
    32
  0
VERTEX
  8
0
  5
D461
 10
-383.634
 20
852.347
 30
0.000000
  70
    32
  0
VERTEX
  8
0
  5
D462
 10
-383.637
 20
852.344
 30
0.000000
  70
    32
  0
VERTEX
  8
0
  5
D463
 10
-383.639
 20
852.340
 30
0.000000
  70
    32
  0
VERTEX
  8
0
  5
D464
 10
-383.642
 20
852.337
 30
0.000000
  70
    32
  0
VERTEX
  8
0
  5
D465
 10
-383.645
 20
852.334
 30
0.000000
  70
    32
  0
VERTEX
  8
0
  5
D466
 10
-383.648
 20
852.331
 30
0.000000
  70
    32
  0
VERTEX
  8
0
  5
D467
 10
-383.651
 20
852.328
 30
0.000000
  70
    32
  0
VERTEX
  8
0
  5
D468
 10
-383.654
 20
852.325
 30
0.000000
  70
    32
  0
VERTEX
  8
0
  5
D469
 10
-383.657
 20
852.322
 30
0.000000
  70
    32
  0
VERTEX
  8
0
  5
D46A
 10
-383.660
 20
852.319
 30
0.000000
  70
    32
  0
VERTEX
  8
0
  5
D46B
 10
-383.664
 20
852.317
 30
0.000000
  70
    32
  0
VERTEX
  8
0
  5
D46C
 10
-383.667
 20
852.314
 30
0.000000
  70
    32
  0
VERTEX
  8
0
  5
D46D
 10
-383.670
 20
852.311
 30
0.000000
  70
    32
  0
VERTEX
  8
0
  5
D46E
 10
-383.673
 20
852.308
 30
0.000000
  70
    32
  0
VERTEX
  8
0
  5
D46F
 10
-383.677
 20
852.306
 30
0.000000
  70
    32
  0
VERTEX
  8
0
  5
D470
 10
-383.680
 20
852.303
 30
0.000000
  70
    32
  0
VERTEX
  8
0
  5
D471
 10
-383.683
 20
852.300
 30
0.000000
  70
    32
  0
VERTEX
  8
0
  5
D472
 10
-383.687
 20
852.298
 30
0.000000
  70
    32
  0
VERTEX
  8
0
  5
D473
 10
-383.690
 20
852.295
 30
0.000000
  70
    32
  0
VERTEX
  8
0
  5
D474
 10
-383.693
 20
852.293
 30
0.000000
  70
    32
  0
VERTEX
  8
0
  5
D475
 10
-383.697
 20
852.290
 30
0.000000
  70
    32
  0
VERTEX
  8
0
  5
D476
 10
-383.700
 20
852.288
 30
0.000000
  70
    32
  0
VERTEX
  8
0
  5
D477
 10
-383.704
 20
852.285
 30
0.000000
  70
    32
  0
VERTEX
  8
0
  5
D478
 10
-383.707
 20
852.283
 30
0.000000
  70
    32
  0
VERTEX
  8
0
  5
D479
 10
-383.711
 20
852.280
 30
0.000000
  70
    32
  0
VERTEX
  8
0
  5
D47A
 10
-383.714
 20
852.278
 30
0.000000
  70
    32
  0
VERTEX
  8
0
  5
D47B
 10
-383.718
 20
852.275
 30
0.000000
  70
    32
  0
VERTEX
  8
0
  5
D47C
 10
-383.721
 20
852.273
 30
0.000000
  70
    32
  0
VERTEX
  8
0
  5
D47D
 10
-383.725
 20
852.270
 30
0.000000
  70
    32
  0
VERTEX
  8
0
  5
D47E
 10
-383.729
 20
852.268
 30
0.000000
  70
    32
  0
VERTEX
  8
0
  5
D47F
 10
-383.732
 20
852.265
 30
0.000000
  70
    32
  0
VERTEX
  8
0
  5
D480
 10
-383.736
 20
852.263
 30
0.000000
  70
    32
  0
VERTEX
  8
0
  5
D481
 10
-383.739
 20
852.261
 30
0.000000
  70
    32
  0
VERTEX
  8
0
  5
D482
 10
-383.743
 20
852.258
 30
0.000000
  70
    32
  0
VERTEX
  8
0
  5
D483
 10
-383.746
 20
852.256
 30
0.000000
  70
    32
  0
VERTEX
  8
0
  5
D484
 10
-383.750
 20
852.253
 30
0.000000
  70
    32
  0
VERTEX
  8
0
  5
D485
 10
-383.753
 20
852.251
 30
0.000000
  70
    32
  0
SEQEND
  8
0
  5
D486
  0
LINE
  5
D26F
  8
0
  6
CONTINUOUS
 10
-383.2985054711674
 20
846.83580962296764
 30
0.0
 11
-383.5485054711674
 21
846.83580962296764
 31
0.0
  0
LINE
  5
D270
  8
0
  6
CONTINUOUS
 10
-383.5485054711674
 20
845.21080962296753
 30
0.0
 11
-383.2985054711674
 21
845.21080962296753
 31
0.0
  0
LINE
  5
D271
  8
0
  6
CONTINUOUS
 10
-383.2985054711674
 20
845.21080962296753
 30
0.0
 11
-383.2985054711674
 21
846.83580962296764
 31
0.0
  0
INSERT
  5
D272
  8
0
  2
*U9
 10
0.0
 20
0.0
 30
0.0
1001
ACAD
1000
DSTYLE
1002
{
1070
   147
1040
0.0625
1070
    77
1070
     0
1002
}
  0
INSERT
  5
D273
  8
0
  2
*U10
 10
0.0
 20
0.0
 30
0.0
  0
LINE
  5
D274
  8
0
  6
CONTINUOUS
 10
-384.29850547116729
 20
845.21080962296753
 30
0.0
 11
-383.5485054711674
 21
845.21080962296753
 31
0.0
  0
LINE
  5
D275
  8
0
  6
CONTINUOUS
 10
-384.29850547116729
 20
854.46080962296764
 30
0.0
 11
-384.29850547116729
 21
845.21080962296753
 31
0.0
  0
LINE
  5
D276
  8
0
  6
CONTINUOUS
 10
-383.5485054711674
 20
845.21080962296753
 30
0.0
 11
-383.5485054711674
 21
851.79866252480315
 31
0.0
  0
VIEWPORT
  5
BADA
 67
     1
  8
0
 10
5.249999665167536
 20
4.0168608648543129
 30
0.0
 40
16.212536403349191
 41
8.0154416672020492
 68
     1
 69
     1
1001
ACAD
1000
MVIEW
1002
{
1070
    16
1010
0.0
1020
0.0
1030
0.0
1010
0.0
1020
0.0
1030
1.0
1040
0.0
1040
8.0154416672020492
1040
5.249999665167536
1040
4.0168608648543129
1040
50.0
1040
0.0
1040
0.0
1070
     0
1070
   100
1070
     1
1070
     1
1070
     0
1070
     0
1070
     0
1070
     0
1040
0.0
1040
0.0
1040
0.0
1040
0.5
1040
0.5
1040
0.5
1040
0.5
1070
     0
1002
{
1002
}
1002
}
  0
VIEWPORT
  5
BADD
 67
     1
  8
0
 10
5.2499996294871929
 20
4.0166741807634683
 30
0.0
 40
10.44245679893058
 41
7.8813805131999892
 68
     2
 69
     2
1001
ACAD
1000
MVIEW
1002
{
1070
    16
1010
0.0
1020
0.0
1030
0.0
1010
0.0
1020
0.0
1030
1.0
1040
0.0
1040
9.6940980360517823
1040
-383.57216735450572
1040
849.78399145391245
1040
50.0
1040
0.0
1040
0.0
1070
     0
1070
   100
1070
     1
1070
     2
1070
     0
1070
     0
1070
     0
1070
     0
1040
0.0
1040
0.0
1040
0.0
1040
0.5
1040
0.5
1040
0.5
1040
0.5
1070
     0
1002
{
1002
}
1002
}
  0
ENDSEC
  0
EOF
