  0
SECTION
  2
HEADER
  9
$ACADVER
  1
AC1009
  9
$INSBASE
 10
0.0
 20
0.0
 30
0.0
  9
$EXTMIN
 10
-388.0615153254812
 20
830.71141642465341
 30
-0.0015258207003583
  9
$EXTMAX
 10
-378.42084040166412
 20
854.92308910391705
 30
0.0000000349246037
  9
$LIMMIN
 10
0.0
 20
0.0
  9
$LIMMAX
 10
1500.0
 20
1500.0
  9
$ORTHOMODE
 70
     0
  9
$REGENMODE
 70
     1
  9
$FILLMODE
 70
     1
  9
$QTEXTMODE
 70
     0
  9
$MIRRTEXT
 70
     1
  9
$DRAGMODE
 70
     2
  9
$LTSCALE
 40
1.0
  9
$OSMODE
 70
    37
  9
$ATTMODE
 70
     1
  9
$TEXTSIZE
 40
1.5
  9
$TRACEWID
 40
0.05
  9
$TEXTSTYLE
  7
STANDARD
  9
$CLAYER
  8
0
  9
$CELTYPE
  6
BYLAYER
  9
$CECOLOR
 62
   256
  9
$DIMSCALE
 40
1.0
  9
$DIMASZ
 40
0.75
  9
$DIMEXO
 40
1.5
  9
$DIMDLI
 40
2.0
  9
$DIMRND
 40
0.0
  9
$DIMDLE
 40
0.0
  9
$DIMEXE
 40
1.0
  9
$DIMTP
 40
0.0
  9
$DIMTM
 40
0.0
  9
$DIMTXT
 40
1.5
  9
$DIMCEN
 40
2.0
  9
$DIMTSZ
 40
0.0
  9
$DIMTOL
 70
     0
  9
$DIMLIM
 70
     0
  9
$DIMTIH
 70
     0
  9
$DIMTOH
 70
     0
  9
$DIMSE1
 70
     0
  9
$DIMSE2
 70
     0
  9
$DIMTAD
 70
     1
  9
$DIMZIN
 70
     0
  9
$DIMBLK
  1
ARCHTICK
  9
$DIMASO
 70
     1
  9
$DIMSHO
 70
     1
  9
$DIMPOST
  1
"
  9
$DIMAPOST
  1

  9
$DIMALT
 70
     0
  9
$DIMALTD
 70
     2
  9
$DIMALTF
 40
25.399999999999999
  9
$DIMLFAC
 40
1.0
  9
$DIMTOFL
 70
     0
  9
$DIMTVP
 40
0.0
  9
$DIMTIX
 70
     1
  9
$DIMSOXD
 70
     0
  9
$DIMSAH
 70
     0
  9
$DIMBLK1
  1

  9
$DIMBLK2
  1

  9
$DIMSTYLE
  2
THREE_QUARTER_INCH_SCALE
  9
$DIMCLRD
 70
     0
  9
$DIMCLRE
 70
     0
  9
$DIMCLRT
 70
     0
  9
$DIMTFAC
 40
1.0
  9
$DIMGAP
 40
1.0
  9
$LUNITS
 70
     2
  9
$LUPREC
 70
     4
  9
$SKETCHINC
 40
0.1
  9
$FILLETRAD
 40
0.0
  9
$AUNITS
 70
     0
  9
$AUPREC
 70
     0
  9
$MENU
  1
.
  9
$ELEVATION
 40
0.0
  9
$PELEVATION
 40
0.0
  9
$THICKNESS
 40
0.0
  9
$LIMCHECK
 70
     0
  9
$BLIPMODE
 70
     0
  9
$CHAMFERA
 40
0.5
  9
$CHAMFERB
 40
0.5
  9
$SKPOLY
 70
     0
  9
$TDCREATE
 40
2452089.395738773
  9
$TDUPDATE
 40
2453607.633306921
  9
$TDINDWG
 40
1.3126429397999999
  9
$TDUSRTIMER
 40
1.3126429397999999
  9
$USRTIMER
 70
     1
  9
$ANGBASE
 50
0.0
  9
$ANGDIR
 70
     0
  9
$PDMODE
 70
     0
  9
$PDSIZE
 40
10.0
  9
$PLINEWID
 40
0.0
  9
$COORDS
 70
     1
  9
$SPLFRAME
 70
     0
  9
$SPLINETYPE
 70
     6
  9
$SPLINESEGS
 70
     8
  9
$ATTDIA
 70
     0
  9
$ATTREQ
 70
     1
  9
$HANDLING
 70
     1
  9
$HANDSEED
  5
2BAF8
  9
$SURFTAB1
 70
     6
  9
$SURFTAB2
 70
     6
  9
$SURFTYPE
 70
     6
  9
$SURFU
 70
     6
  9
$SURFV
 70
     6
  9
$UCSNAME
  2

  9
$UCSORG
 10
0.0
 20
0.0
 30
0.0
  9
$UCSXDIR
 10
1.0
 20
0.0
 30
0.0
  9
$UCSYDIR
 10
0.0
 20
1.0
 30
0.0
  9
$PUCSNAME
  2

  9
$PUCSORG
 10
0.0
 20
0.0
 30
0.0
  9
$PUCSXDIR
 10
1.0
 20
0.0
 30
0.0
  9
$PUCSYDIR
 10
0.0
 20
1.0
 30
0.0
  9
$USERI1
 70
     0
  9
$USERI2
 70
     0
  9
$USERI3
 70
     0
  9
$USERI4
 70
     0
  9
$USERI5
 70
     0
  9
$USERR1
 40
0.0
  9
$USERR2
 40
0.0
  9
$USERR3
 40
0.0
  9
$USERR4
 40
0.0
  9
$USERR5
 40
0.0
  9
$WORLDVIEW
 70
     1
  9
$SHADEDGE
 70
     3
  9
$SHADEDIF
 70
    70
  9
$TILEMODE
 70
     0
  9
$MAXACTVP
 70
    64
  9
$PLIMCHECK
 70
     0
  9
$PEXTMIN
 10
0.0287712300219028
 20
0.0759839241634737
 30
0.0
  9
$PEXTMAX
 10
10.47122802895248
 20
7.957364437363462
 30
0.0
  9
$PLIMMIN
 10
-0.2500002402958907
 20
-0.2499999962453767
  9
$PLIMMAX
 10
10.74999951940821
 20
8.2499997634587316
  9
$UNITMODE
 70
     0
  9
$VISRETAIN
 70
     1
  9
$PLINEGEN
 70
     0
  9
$PSLTSCALE
 70
     1
  0
ENDSEC
  0
SECTION
  2
TABLES
  0
TABLE
  2
VPORT
 70
   167
  0
VPORT
  2
*ACTIVE
 70
     0
 10
0.0
 20
0.0
 11
1.0
 21
1.0
 12
-381.52600122126211
 22
845.16779400026962
 13
0.0
 23
0.0
 14
0.5
 24
0.5
 15
0.5
 25
0.5
 16
0.0
 26
0.0
 36
1.0
 17
0.0
 27
0.0
 37
0.0
 40
7.7974136879046219
 41
2.0
 42
50.0
 43
0.0
 44
0.0
 50
0.0
 51
0.0
 71
     0
 72
   100
 73
     1
 74
     2
 75
     0
 76
     0
 77
     0
 78
     0
  0
ENDTAB
  0
TABLE
  2
LTYPE
 70
     1
  0
LTYPE
  2
CONTINUOUS
 70
     0
  3
Solid line
 72
    65
 73
     0
 40
0.0
  0
ENDTAB
  0
TABLE
  2
LAYER
 70
    10
  0
LAYER
  2
0
 70
     0
 62
     7
  6
CONTINUOUS
  0
LAYER
  2
DEFPOINTS
 70
     0
 62
     7
  6
CONTINUOUS
  0
LAYER
  2
FRAME_200
 70
     0
 62
     8
  6
CONTINUOUS
  0
LAYER
  2
FRAME_070
 70
     0
 62
     5
  6
CONTINUOUS
  0
LAYER
  2
FRAME_050
 70
     0
 62
     6
  6
CONTINUOUS
  0
LAYER
  2
TITLE_BLOCK
 70
     0
 62
     7
  6
CONTINUOUS
  0
LAYER
  2
FRAME_025
 70
     0
 62
     7
  6
CONTINUOUS
  0
LAYER
  2
VIEWPORT
 70
     0
 62
     7
  6
CONTINUOUS
  0
LAYER
  2
PROF
 70
     0
 62
     7
  6
CONTINUOUS
  0
LAYER
  2
PROFILE
 70
     0
 62
     7
  6
CONTINUOUS
  0
ENDTAB
  0
TABLE
  2
STYLE
 70
     2
  0
STYLE
  2
STANDARD
 70
     0
 40
0.0
 41
1.0
 50
0.0
 71
     0
 42
1.5
  3
txt
  4

  0
STYLE
  2
ISO_PROPORTIONAL
 70
     0
 40
0.0
 41
1.0
 50
0.0
 71
     0
 42
2.5
  3
isocp.shx
  4

  0
ENDTAB
  0
TABLE
  2
VIEW
 70
   172
  0
ENDTAB
  0
TABLE
  2
UCS
 70
     0
  0
ENDTAB
  0
TABLE
  2
APPID
 70
     6
  0
APPID
  2
ACAD
 70
     0
  0
APPID
  2
DCO15
 70
     0
  0
APPID
  2
ACAD_EXEMPT_FROM_CAD_STANDARDS
 70
     0
  0
APPID
  2
ACAD_PSEXT
 70
     0
  0
APPID
  2
CONTENTBLOCKDESCRIPTION
 70
     0
  0
APPID
  2
CONTENTBLOCKICON
 70
     0
  0
ENDTAB
  0
TABLE
  2
DIMSTYLE
 70
     5
  0
DIMSTYLE
  2
FULL_SCALE
 70
     0
  3
"
  4

  5
ARCHTICK
  6

  7

 40
1.0
 41
0.046875
 42
0.09375
 43
0.125
 44
0.0625
 45
0.0
 46
0.0
 47
0.0
 48
0.0
140
0.125
141
0.125
142
0.0
143
25.399999999999999
144
1.0
145
0.0
146
1.0
147
0.0625
 71
     0
 72
     0
 73
     0
 74
     0
 75
     0
 76
     0
 77
     1
 78
     0
170
     0
171
     2
172
     0
173
     0
174
     1
175
     0
176
     0
177
     0
178
     0
  0
DIMSTYLE
  2
HALF_SCALE
 70
     0
  3
"
  4

  5
ARCHTICK
  6

  7

 40
1.0
 41
0.09375
 42
0.1875
 43
0.25
 44
0.125
 45
0.0
 46
0.0
 47
0.0
 48
0.0
140
0.25
141
0.25
142
0.0
143
25.399999999999999
144
1.0
145
0.0
146
1.0
147
0.125
 71
     0
 72
     0
 73
     0
 74
     0
 75
     0
 76
     0
 77
     1
 78
     0
170
     0
171
     2
172
     0
173
     0
174
     1
175
     0
176
     0
177
     0
178
     0
  0
DIMSTYLE
  2
INCH_SCALE
 70
     0
  3
"
  4

  5
ARCHTICK
  6

  7

 40
1.0
 41
0.5625
 42
1.125
 43
1.5
 44
0.75
 45
0.0
 46
0.0
 47
0.0
 48
0.0
140
1.125
141
1.5
142
0.0
143
25.399999999999999
144
1.0
145
0.0
146
1.0
147
0.75
 71
     0
 72
     0
 73
     0
 74
     0
 75
     0
 76
     0
 77
     1
 78
     0
170
     0
171
     2
172
     0
173
     0
174
     1
175
     0
176
     0
177
     0
178
     0
  0
DIMSTYLE
  2
THREE_QUARTER_INCH_SCALE
 70
     0
  3
"
  4

  5
ARCHTICK
  6

  7

 40
1.0
 41
0.75
 42
1.5
 43
2.0
 44
1.0
 45
0.0
 46
0.0
 47
0.0
 48
0.0
140
1.5
141
2.0
142
0.0
143
25.399999999999999
144
1.0
145
0.0
146
1.0
147
1.0
 71
     0
 72
     0
 73
     0
 74
     0
 75
     0
 76
     0
 77
     1
 78
     0
170
     0
171
     2
172
     0
173
     0
174
     1
175
     0
176
     0
177
     0
178
     0
  0
DIMSTYLE
  2
ZHALF_INCH_SCALE
 70
     0
  3
"
  4

  5
ARCHTICK
  6

  7

 40
1.0
 41
1.125
 42
2.25
 43
3.0
 44
1.5
 45
0.0
 46
0.0
 47
0.0
 48
0.0
140
2.25
141
3.0
142
0.0
143
25.399999999999999
144
1.0
145
0.0
146
1.0
147
1.5
 71
     0
 72
     0
 73
     0
 74
     0
 75
     0
 76
     0
 77
     1
 78
     0
170
     0
171
     2
172
     0
173
     0
174
     1
175
     0
176
     0
177
     0
178
     0
  0
ENDTAB
  0
ENDSEC
  0
SECTION
  2
BLOCKS
  0
BLOCK
  8
0
  2
$MODEL_SPACE
 70
     0
 10
0.0
 20
0.0
 30
0.0
  3
$MODEL_SPACE
  1

  0
ENDBLK
  5
21
  8
0
  0
BLOCK
 67
     1
  8
0
  2
$PAPER_SPACE
 70
     0
 10
0.0
 20
0.0
 30
0.0
  3
$PAPER_SPACE
  1

  0
ENDBLK
  5
BAD5
 67
     1
  8
0
  0
BLOCK
  8
0
  2
_ARCHTICK
 70
     0
 10
0.0
 20
0.0
 30
0.0
  3
_ARCHTICK
  1

  0
POLYLINE
  5
158
  8
0
  6
BYBLOCK
 62
     0
 66
     1
 10
0.0
 20
0.0
 30
0.0
 40
0.15
 41
0.15
  0
VERTEX
  5
2B29C
  8
0
  6
BYBLOCK
 62
     0
 10
-0.5
 20
-0.5
 30
0.0
  0
VERTEX
  5
2B29D
  8
0
  6
BYBLOCK
 62
     0
 10
0.5
 20
0.5
 30
0.0
  0
SEQEND
  5
2B29E
  8
0
  6
BYBLOCK
 62
     0
  0
ENDBLK
  5
15A
  8
0
  0
BLOCK
  8
0
  2
_OPEN30
 70
     0
 10
0.0
 20
0.0
 30
0.0
  3
_OPEN30
  1

  0
LINE
  5
15C
  8
0
  6
BYBLOCK
 62
     0
 10
-1.0
 20
0.26794919
 30
0.0
 11
0.0
 21
0.0
 31
0.0
  0
LINE
  5
15D
  8
0
  6
BYBLOCK
 62
     0
 10
0.0
 20
0.0
 30
0.0
 11
-1.0
 21
-0.26794919
 31
0.0
  0
LINE
  5
15E
  8
0
  6
BYBLOCK
 62
     0
 10
0.0
 20
0.0
 30
0.0
 11
-1.0
 21
0.0
 31
0.0
  0
ENDBLK
  5
160
  8
0
  0
BLOCK
  8
0
  2
ISO_A2_TITLE_BLOCK
 70
     2
 10
0.0
 20
0.0
 30
0.0
  3
ISO_A2_TITLE_BLOCK
  1

  0
LINE
  5
BDD
  8
FRAME_050
 10
299.5
 20
12.5
 30
0.0
 11
297.0
 21
7.5
 31
0.0
  0
LINE
  5
BDE
  8
FRAME_050
 10
294.5
 20
12.5
 30
0.0
 11
299.5
 21
12.5
 31
0.0
  0
LINE
  5
BDF
  8
FRAME_050
 10
247.0
 20
5.0
 30
0.0
 11
347.0
 21
5.0
 31
0.0
  0
LINE
  5
BE0
  8
FRAME_070
 10
584.0
 20
410.0
 30
0.0
 11
10.0
 21
410.0
 31
0.0
  0
LINE
  5
BE1
  8
FRAME_070
 10
10.0
 20
10.0
 30
0.0
 11
584.0
 21
10.0
 31
0.0
  0
LINE
  5
BE2
  8
FRAME_050
 10
12.5
 20
207.5
 30
0.0
 11
7.5
 21
210.0
 31
0.0
  0
LINE
  5
BE3
  8
FRAME_050
 10
12.5
 20
212.5
 30
0.0
 11
12.5
 21
207.5
 31
0.0
  0
LINE
  5
BE4
  8
FRAME_070
 10
10.0
 20
410.0
 30
0.0
 11
10.0
 21
10.0
 31
0.0
  0
LINE
  5
BE5
  8
FRAME_200
 10
0.0
 20
0.0
 30
0.0
 11
0.0
 21
10.0
 31
0.0
  0
LINE
  5
BE6
  8
FRAME_200
 10
0.0
 20
0.0
 30
0.0
 11
10.0
 21
0.0
 31
0.0
  0
TEXT
  5
BE7
  8
FRAME_050
 10
5.9000000000000004
 20
35.0
 30
0.0
 40
4.0
  1
H
  7
ISO_PROPORTIONAL
 72
     4
 11
7.5
 21
37.0
 31
0.0
  0
LINE
  5
BE8
  8
FRAME_050
 10
10.0
 20
60.0
 30
0.0
 11
5.0
 21
60.0
 31
0.0
  0
LINE
  5
BE9
  8
FRAME_050
 10
81.75
 20
5.0
 30
0.0
 11
81.75
 21
10.0
 31
0.0
  0
TEXT
  5
BEA
  8
FRAME_050
 10
44.874999999999993
 20
5.5
 30
0.0
 40
4.0
  1
1
  7
ISO_PROPORTIONAL
 72
     4
 11
45.875
 21
7.5
 31
0.0
  0
TEXT
  5
BEB
  8
FRAME_050
 10
6.0035533905932743
 20
85.0
 30
0.0
 40
4.0
  1
G
  7
ISO_PROPORTIONAL
 72
     4
 11
7.5
 21
87.0
 31
0.0
  0
LINE
  5
BEC
  8
FRAME_050
 10
10.0
 20
110.0
 30
0.0
 11
5.0
 21
110.0
 31
0.0
  0
TEXT
  5
BED
  8
FRAME_050
 10
6.0999999999999988
 20
135.0
 30
0.0
 40
4.0
  1
F
  7
ISO_PROPORTIONAL
 72
     4
 11
7.5
 21
137.0
 31
0.0
  0
LINE
  5
BEE
  8
FRAME_050
 10
10.0
 20
160.0
 30
0.0
 11
5.0
 21
160.0
 31
0.0
  0
TEXT
  5
BEF
  8
FRAME_050
 10
6.0999999999999988
 20
185.0
 30
0.0
 40
4.0
  1
E
  7
ISO_PROPORTIONAL
 72
     4
 11
7.5
 21
187.0
 31
0.0
  0
LINE
  5
BF0
  8
FRAME_050
 10
153.5
 20
5.0
 30
0.0
 11
153.5
 21
10.0
 31
0.0
  0
TEXT
  5
BF1
  8
FRAME_050
 10
116.1556692913386
 20
5.3996062992125982
 30
0.0
 40
4.0
  1
2
  7
ISO_PROPORTIONAL
 72
     4
 11
117.625
 21
7.5
 31
0.0
  0
TEXT
  5
BF2
  8
FRAME_050
 10
187.89215728752529
 20
5.5828427124746138
 30
0.0
 40
4.0
  1
3
  7
ISO_PROPORTIONAL
 72
     4
 11
189.375
 21
7.5
 31
0.0
  0
LINE
  5
BF3
  8
FRAME_050
 10
225.25
 20
5.0
 30
0.0
 11
225.25
 21
10.0
 31
0.0
  0
LINE
  5
BF4
  8
FRAME_050
 10
297.0
 20
7.5
 30
0.0
 11
294.5
 21
12.5
 31
0.0
  0
LINE
  5
BF5
  8
FRAME_050
 10
287.0
 20
5.0
 30
0.0
 11
287.0
 21
10.0
 31
0.0
  0
LINE
  5
BF6
  8
FRAME_050
 10
277.0
 20
5.0
 30
0.0
 11
277.0
 21
10.0
 31
0.0
  0
LINE
  5
BF7
  8
FRAME_050
 10
267.0
 20
5.0
 30
0.0
 11
267.0
 21
10.0
 31
0.0
  0
LINE
  5
BF8
  8
FRAME_050
 10
257.0
 20
5.0
 30
0.0
 11
257.0
 21
10.0
 31
0.0
  0
LINE
  5
BF9
  8
FRAME_050
 10
247.0
 20
5.0
 30
0.0
 11
247.0
 21
10.0
 31
0.0
  0
LINE
  5
BFA
  8
FRAME_050
 10
297.0
 20
10.0
 30
0.0
 11
297.0
 21
5.0
 31
0.0
  0
LINE
  5
BFB
  8
FRAME_050
 10
297.0
 20
10.0
 30
0.0
 11
297.0
 21
15.0
 31
0.0
  0
LINE
  5
BFC
  8
FRAME_050
 10
5.0
 20
210.0
 30
0.0
 11
15.0
 21
210.0
 31
0.0
  0
LINE
  5
BFD
  8
FRAME_050
 10
7.5
 20
210.0
 30
0.0
 11
12.5
 21
212.5
 31
0.0
  0
TEXT
  5
BFE
  8
FRAME_050
 10
5.7860912703473977
 20
235.0
 30
0.0
 40
4.0
  1
D
  7
ISO_PROPORTIONAL
 72
     4
 11
7.5
 21
237.0
 31
0.0
  0
LINE
  5
BFF
  8
FRAME_050
 10
10.0
 20
260.0
 30
0.0
 11
5.0
 21
260.0
 31
0.0
  0
TEXT
  5
C00
  8
FRAME_050
 10
6.1931980515339466
 20
285.0
 30
0.0
 40
4.0
  1
C
  7
ISO_PROPORTIONAL
 72
     4
 11
7.5
 21
287.0
 31
0.0
  0
LINE
  5
C01
  8
FRAME_050
 10
10.0
 20
310.0
 30
0.0
 11
5.0
 21
310.0
 31
0.0
  0
TEXT
  5
C02
  8
FRAME_050
 10
5.8999999999999959
 20
335.0
 30
0.0
 40
4.0
  1
B
  7
ISO_PROPORTIONAL
 72
     4
 11
7.5
 21
337.0
 31
0.0
  0
LINE
  5
C03
  8
FRAME_050
 10
10.0
 20
360.0
 30
0.0
 11
5.0
 21
360.0
 31
0.0
  0
TEXT
  5
C04
  8
FRAME_050
 10
5.6999999999999993
 20
385.0
 30
0.0
 40
4.0
  1
A
  7
ISO_PROPORTIONAL
 72
     4
 11
7.5
 21
387.0
 31
0.0
  0
LINE
  5
C05
  8
FRAME_200
 10
10.0
 20
420.0
 30
0.0
 11
0.0
 21
420.0
 31
0.0
  0
LINE
  5
C06
  8
FRAME_200
 10
0.0
 20
420.0
 30
0.0
 11
0.0
 21
410.0
 31
0.0
  0
TEXT
  5
C07
  8
FRAME_050
 10
44.874999999999993
 20
410.5
 30
0.0
 40
4.0
  1
1
  7
ISO_PROPORTIONAL
 72
     4
 11
45.875
 21
412.5
 31
0.0
  0
LINE
  5
C08
  8
FRAME_050
 10
81.75
 20
410.0
 30
0.0
 11
81.75
 21
415.0
 31
0.0
  0
TEXT
  5
C09
  8
FRAME_050
 10
116.1556692913386
 20
410.39960629921262
 30
0.0
 40
4.0
  1
2
  7
ISO_PROPORTIONAL
 72
     4
 11
117.625
 21
412.5
 31
0.0
  0
LINE
  5
C0A
  8
FRAME_050
 10
153.5
 20
410.0
 30
0.0
 11
153.5
 21
415.0
 31
0.0
  0
TEXT
  5
C0B
  8
FRAME_050
 10
187.89215728752529
 20
410.58284271247459
 30
0.0
 40
4.0
  1
3
  7
ISO_PROPORTIONAL
 72
     4
 11
189.375
 21
412.5
 31
0.0
  0
LINE
  5
C0C
  8
FRAME_050
 10
297.0
 20
405.0
 30
0.0
 11
297.0
 21
415.0
 31
0.0
  0
LINE
  5
C0D
  8
FRAME_050
 10
225.25
 20
410.0
 30
0.0
 11
225.25
 21
415.0
 31
0.0
  0
TEXT
  5
C0E
  8
FRAME_050
 10
259.52499999999998
 20
410.5
 30
0.0
 40
4.0
  1
4
  7
ISO_PROPORTIONAL
 72
     4
 11
261.125
 21
412.5
 31
0.0
  0
LINE
  5
C0F
  8
FRAME_070
 10
584.0
 20
10.0
 30
0.0
 11
584.0
 21
410.0
 31
0.0
  0
ATTDEF
  5
C10
  8
FRAME_025
 10
473.0
 20
31.75
 30
0.0
 40
2.5
  1
XXX - 00/00/00
  7
ISO_PROPORTIONAL
 11
473.0
 21
33.0
 31
0.0
  3
Approved by - Date
  2
APPROVED_BY_DATE
 70
     8
 74
     2
  0
TEXT
  5
C11
  8
FRAME_025
 10
448.0
 20
41.749999999999993
 30
0.0
 40
2.5
  1
Title/Name, designation, material, dimension etc
  7
ISO_PROPORTIONAL
 11
448.0
 21
43.0
 31
0.0
 73
     2
  0
TEXT
  5
C12
  8
FRAME_025
 10
473.0
 20
35.75
 30
0.0
 40
2.5
  1
Approved by - date
  7
ISO_PROPORTIONAL
 11
473.0
 21
37.0
 31
0.0
 73
     2
  0
LINE
  5
C13
  8
FRAME_070
 10
414.0
 20
46.0
 30
0.0
 11
584.0
 21
46.0
 31
0.0
  0
LINE
  5
C14
  8
FRAME_070
 10
414.0
 20
40.0
 30
0.0
 11
584.0
 21
40.0
 31
0.0
  0
LINE
  5
C15
  8
FRAME_070
 10
414.0
 20
30.0
 30
0.0
 11
584.0
 21
30.0
 31
0.0
  0
LINE
  5
C16
  8
FRAME_050
 10
368.75
 20
5.0
 30
0.0
 11
368.75
 21
10.0
 31
0.0
  0
LINE
  5
C17
  8
FRAME_050
 10
337.0
 20
5.0
 30
0.0
 11
337.0
 21
10.0
 31
0.0
  0
LINE
  5
C18
  8
FRAME_050
 10
327.0
 20
5.0
 30
0.0
 11
327.0
 21
10.0
 31
0.0
  0
LINE
  5
C19
  8
FRAME_050
 10
317.0
 20
5.0
 30
0.0
 11
317.0
 21
10.0
 31
0.0
  0
LINE
  5
C1A
  8
FRAME_050
 10
307.0
 20
5.0
 30
0.0
 11
307.0
 21
10.0
 31
0.0
  0
LINE
  5
C1B
  8
FRAME_050
 10
347.0
 20
5.0
 30
0.0
 11
347.0
 21
10.0
 31
0.0
  0
LINE
  5
C1C
  8
FRAME_050
 10
440.5
 20
5.0
 30
0.0
 11
440.5
 21
10.0
 31
0.0
  0
TEXT
  5
C1D
  8
FRAME_050
 10
403.24547244094481
 20
5.4102362204724406
 30
0.0
 40
4.0
  1
6
  7
ISO_PROPORTIONAL
 72
     4
 11
404.62499999999989
 21
7.5
 31
0.0
  0
TEXT
  5
C1E
  8
FRAME_050
 10
474.97500000000002
 20
5.5
 30
0.0
 40
4.0
  1
7
  7
ISO_PROPORTIONAL
 72
     4
 11
476.37499999999989
 21
7.5
 31
0.0
  0
TEXT
  5
C1F
  8
FRAME_025
 10
431.0
 20
41.749999999999993
 30
0.0
 40
2.5
  1
Quantity
  7
ISO_PROPORTIONAL
 11
431.0
 21
43.0
 31
0.0
 73
     2
  0
TEXT
  5
C20
  8
FRAME_025
 10
416.0
 20
41.749999999999993
 30
0.0
 40
2.5
  1
Itemref
  7
ISO_PROPORTIONAL
 11
416.0
 21
43.0
 31
0.0
 73
     2
  0
LINE
  5
C21
  8
FRAME_070
 10
414.0
 20
40.0
 30
0.0
 11
414.0
 21
46.0
 31
0.0
  0
LINE
  5
C22
  8
FRAME_070
 10
429.0
 20
40.0
 30
0.0
 11
429.0
 21
46.0
 31
0.0
  0
LINE
  5
C23
  8
FRAME_070
 10
414.0
 20
10.0
 30
0.0
 11
414.0
 21
40.0
 31
0.0
  0
ATTDEF
  5
C24
  8
FRAME_025
 10
416.0
 20
31.75
 30
0.0
 40
2.5
  1
XXX
  7
ISO_PROPORTIONAL
 11
416.0
 21
33.0
 31
0.0
  3
Designed by
  2
DESIGNED_BY
 70
     8
 74
     2
  0
TEXT
  5
C25
  8
FRAME_025
 10
416.0
 20
35.75
 30
0.0
 40
2.5
  1
Designed by
  7
ISO_PROPORTIONAL
 11
416.0
 21
37.0
 31
0.0
 73
     2
  0
LINE
  5
C26
  8
FRAME_070
 10
446.0
 20
40.0
 30
0.0
 11
446.0
 21
46.0
 31
0.0
  0
ATTDEF
  5
C27
  8
FRAME_025
 10
448.0
 20
31.75
 30
0.0
 40
2.5
  1
XXX
  7
ISO_PROPORTIONAL
 11
448.0
 21
33.0
 31
0.0
  3
Checked by
  2
CHECKED_BY
 70
     8
 74
     2
  0
TEXT
  5
C28
  8
FRAME_025
 10
448.0
 20
35.75
 30
0.0
 40
2.5
  1
Checked by
  7
ISO_PROPORTIONAL
 11
448.0
 21
37.0
 31
0.0
 73
     2
  0
ATTDEF
  5
C29
  8
FRAME_050
 10
444.74999999999989
 20
17.5
 30
0.0
 40
5.0
  1
XXX
  7
ISO_PROPORTIONAL
 72
     4
 11
451.49999999999989
 21
20.0
 31
0.0
  3
Owner
  2
OWNER
 70
     8
  0
LINE
  5
C2A
  8
FRAME_070
 10
446.0
 20
30.0
 30
0.0
 11
446.0
 21
40.0
 31
0.0
  0
LINE
  5
C2B
  8
FRAME_070
 10
471.0
 20
30.0
 30
0.0
 11
471.0
 21
40.0
 31
0.0
  0
LINE
  5
C2C
  8
FRAME_070
 10
489.0
 20
20.0
 30
0.0
 11
584.0
 21
20.0
 31
0.0
  0
LINE
  5
C2D
  8
FRAME_050
 10
512.25
 20
5.0
 30
0.0
 11
512.25
 21
10.0
 31
0.0
  0
TEXT
  5
C2E
  8
FRAME_050
 10
546.72499999999991
 20
5.5
 30
0.0
 40
4.0
  1
8
  7
ISO_PROPORTIONAL
 72
     4
 11
548.125
 21
7.5
 31
0.0
  0
ATTDEF
  5
C2F
  8
FRAME_050
 10
517.64999999999986
 20
13.5
 30
0.0
 40
3.0
  1
X
  7
ISO_PROPORTIONAL
 72
     4
 11
519.0
 21
15.0
 31
0.0
  3
Drawing number
  2
DRAWING_NUMBER
 70
     8
  0
ATTDEF
  5
C30
  8
FRAME_050
 10
529.75
 20
22.5
 30
0.0
 40
5.0
  1
XXX
  7
ISO_PROPORTIONAL
 72
     4
 11
536.5
 21
25.0
 31
0.0
  3
Title / Name
  2
TITLE
 70
     8
  0
LINE
  5
C31
  8
FRAME_070
 10
489.0
 20
10.0
 30
0.0
 11
489.0
 21
30.0
 31
0.0
  0
ATTDEF
  5
C32
  8
FRAME_025
 10
511.0
 20
31.75
 30
0.0
 40
2.5
  1
XXX
  7
ISO_PROPORTIONAL
 11
511.0
 21
33.0
 31
0.0
  3
Filename
  2
FILENAME
 70
     8
 74
     2
  0
TEXT
  5
C33
  8
FRAME_025
 10
511.0
 20
35.75
 30
0.0
 40
2.5
  1
Filename
  7
ISO_PROPORTIONAL
 11
511.0
 21
37.0
 31
0.0
 73
     2
  0
LINE
  5
C34
  8
FRAME_070
 10
509.0
 20
30.0
 30
0.0
 11
509.0
 21
40.0
 31
0.0
  0
TEXT
  5
C35
  8
FRAME_025
 10
536.0
 20
41.749999999999993
 30
0.0
 40
2.5
  1
Article No./Reference
  7
ISO_PROPORTIONAL
 11
536.0
 21
43.0
 31
0.0
 73
     2
  0
LINE
  5
C36
  8
FRAME_070
 10
534.0
 20
40.0
 30
0.0
 11
534.0
 21
46.0
 31
0.0
  0
ATTDEF
  5
C37
  8
FRAME_025
 10
551.0
 20
11.75
 30
0.0
 40
2.5
  1
0
  7
ISO_PROPORTIONAL
 11
551.0
 21
13.0
 31
0.0
  3
Edition
  2
EDITION
 70
     8
 74
     2
  0
TEXT
  5
C38
  8
FRAME_025
 10
551.0
 20
15.75
 30
0.0
 40
2.5
  1
Edition
  7
ISO_PROPORTIONAL
 11
551.0
 21
17.0
 31
0.0
 73
     2
  0
LINE
  5
C39
  8
FRAME_070
 10
549.0
 20
10.0
 30
0.0
 11
549.0
 21
20.0
 31
0.0
  0
ATTDEF
  5
C3A
  8
FRAME_025
 10
536.0
 20
31.75
 30
0.0
 40
2.5
  1
00/00/00
  7
ISO_PROPORTIONAL
 11
536.0
 21
33.0
 31
0.0
  3
Date
  2
DATE
 70
     8
 74
     2
  0
TEXT
  5
C3B
  8
FRAME_025
 10
536.0
 20
35.75
 30
0.0
 40
2.5
  1
Date
  7
ISO_PROPORTIONAL
 11
536.0
 21
37.0
 31
0.0
 73
     2
  0
LINE
  5
C3C
  8
FRAME_070
 10
534.0
 20
30.0
 30
0.0
 11
534.0
 21
40.0
 31
0.0
  0
ATTDEF
  5
C3D
  8
FRAME_025
 10
566.0
 20
11.75
 30
0.0
 40
2.5
  1
1/1
  7
ISO_PROPORTIONAL
 11
566.0
 21
13.0
 31
0.0
  3
Sheet
  2
SHEET
 70
     8
 74
     2
  0
TEXT
  5
C3E
  8
FRAME_025
 10
566.0
 20
15.75
 30
0.0
 40
2.5
  1
Sheet
  7
ISO_PROPORTIONAL
 11
566.0
 21
17.0
 31
0.0
 73
     2
  0
LINE
  5
C3F
  8
FRAME_070
 10
564.0
 20
10.0
 30
0.0
 11
564.0
 21
20.0
 31
0.0
  0
ATTDEF
  5
C40
  8
FRAME_025
 10
566.0
 20
31.75
 30
0.0
 40
2.5
  1
1:1
  7
ISO_PROPORTIONAL
 11
566.0
 21
33.0
 31
0.0
  3
Scale
  2
SCALE
 70
     8
 74
     2
  0
TEXT
  5
C41
  8
FRAME_025
 10
566.0
 20
35.75
 30
0.0
 40
2.5
  1
Scale
  7
ISO_PROPORTIONAL
 11
566.0
 21
37.0
 31
0.0
 73
     2
  0
LINE
  5
C42
  8
FRAME_070
 10
564.0
 20
30.0
 30
0.0
 11
564.0
 21
40.0
 31
0.0
  0
LINE
  5
C43
  8
FRAME_200
 10
594.0
 20
0.0
 30
0.0
 11
594.0
 21
10.0
 31
0.0
  0
LINE
  5
C44
  8
FRAME_200
 10
594.0
 20
0.0
 30
0.0
 11
584.0
 21
0.0
 31
0.0
  0
TEXT
  5
C45
  8
FRAME_050
 10
584.89999999999998
 20
35.0
 30
0.0
 40
4.0
  1
H
  7
ISO_PROPORTIONAL
 72
     4
 11
586.5
 21
37.0
 31
0.0
  0
LINE
  5
C46
  8
FRAME_050
 10
589.0
 20
60.0
 30
0.0
 11
584.0
 21
60.0
 31
0.0
  0
TEXT
  5
C47
  8
FRAME_050
 10
585.0035533905932
 20
85.0
 30
0.0
 40
4.0
  1
G
  7
ISO_PROPORTIONAL
 72
     4
 11
586.5
 21
87.0
 31
0.0
  0
LINE
  5
C48
  8
FRAME_050
 10
589.0
 20
110.0
 30
0.0
 11
584.0
 21
110.0
 31
0.0
  0
TEXT
  5
C49
  8
FRAME_050
 10
585.09999999999991
 20
135.0
 30
0.0
 40
4.0
  1
F
  7
ISO_PROPORTIONAL
 72
     4
 11
586.5
 21
137.0
 31
0.0
  0
LINE
  5
C4A
  8
FRAME_050
 10
589.0
 20
160.0
 30
0.0
 11
584.0
 21
160.0
 31
0.0
  0
TEXT
  5
C4B
  8
FRAME_050
 10
585.09999999999991
 20
185.0
 30
0.0
 40
4.0
  1
E
  7
ISO_PROPORTIONAL
 72
     4
 11
586.5
 21
187.0
 31
0.0
  0
LINE
  5
C4C
  8
FRAME_070
 10
414.0
 20
404.0
 30
0.0
 11
584.0
 21
404.0
 31
0.0
  0
TEXT
  5
C4D
  8
FRAME_050
 10
331.39215728752538
 20
410.58284271247459
 30
0.0
 40
4.0
  1
5
  7
ISO_PROPORTIONAL
 72
     4
 11
332.875
 21
412.5
 31
0.0
  0
LINE
  5
C4E
  8
FRAME_050
 10
368.75
 20
410.0
 30
0.0
 11
368.75
 21
415.0
 31
0.0
  0
TEXT
  5
C4F
  8
FRAME_025
 10
428.0
 20
405.75
 30
0.0
 40
2.5
  1
Revision note
  7
ISO_PROPORTIONAL
 11
428.0
 21
407.0
 31
0.0
 73
     2
  0
TEXT
  5
C50
  8
FRAME_025
 10
416.0
 20
405.75
 30
0.0
 40
2.5
  1
RevNo
  7
ISO_PROPORTIONAL
 11
416.0
 21
407.0
 31
0.0
 73
     2
  0
LINE
  5
C51
  8
FRAME_070
 10
426.0
 20
404.0
 30
0.0
 11
426.0
 21
410.0
 31
0.0
  0
LINE
  5
C52
  8
FRAME_070
 10
414.0
 20
404.0
 30
0.0
 11
414.0
 21
410.0
 31
0.0
  0
TEXT
  5
C53
  8
FRAME_050
 10
403.24547244094481
 20
410.41023622047243
 30
0.0
 40
4.0
  1
6
  7
ISO_PROPORTIONAL
 72
     4
 11
404.62499999999989
 21
412.5
 31
0.0
  0
LINE
  5
C54
  8
FRAME_050
 10
440.5
 20
410.0
 30
0.0
 11
440.5
 21
415.0
 31
0.0
  0
TEXT
  5
C55
  8
FRAME_050
 10
474.97500000000002
 20
410.5
 30
0.0
 40
4.0
  1
7
  7
ISO_PROPORTIONAL
 72
     4
 11
476.37499999999989
 21
412.5
 31
0.0
  0
LINE
  5
C56
  8
FRAME_050
 10
579.0
 20
210.0
 30
0.0
 11
589.0
 21
210.0
 31
0.0
  0
TEXT
  5
C57
  8
FRAME_050
 10
584.78609127034736
 20
235.0
 30
0.0
 40
4.0
  1
D
  7
ISO_PROPORTIONAL
 72
     4
 11
586.5
 21
237.0
 31
0.0
  0
LINE
  5
C58
  8
FRAME_050
 10
589.0
 20
260.0
 30
0.0
 11
584.0
 21
260.0
 31
0.0
  0
TEXT
  5
C59
  8
FRAME_050
 10
585.19319805153395
 20
285.0
 30
0.0
 40
4.0
  1
C
  7
ISO_PROPORTIONAL
 72
     4
 11
586.5
 21
287.0
 31
0.0
  0
LINE
  5
C5A
  8
FRAME_050
 10
589.0
 20
310.0
 30
0.0
 11
584.0
 21
310.0
 31
0.0
  0
TEXT
  5
C5B
  8
FRAME_050
 10
584.89999999999998
 20
335.0
 30
0.0
 40
4.0
  1
B
  7
ISO_PROPORTIONAL
 72
     4
 11
586.5
 21
337.0
 31
0.0
  0
TEXT
  5
C5C
  8
FRAME_025
 10
571.08299391850551
 20
405.75
 30
0.0
 40
2.5
  1
Checked
  7
ISO_PROPORTIONAL
 11
571.08299391850551
 21
407.0
 31
0.0
 73
     2
  0
TEXT
  5
C5D
  8
FRAME_025
 10
555.36099797283532
 20
405.75
 30
0.0
 40
2.5
  1
Signature
  7
ISO_PROPORTIONAL
 11
555.36099797283532
 21
407.0
 31
0.0
 73
     2
  0
TEXT
  5
C5E
  8
FRAME_025
 10
537.0
 20
405.75
 30
0.0
 40
2.5
  1
Date
  7
ISO_PROPORTIONAL
 11
537.0
 21
407.0
 31
0.0
 73
     2
  0
LINE
  5
C5F
  8
FRAME_070
 10
570.0
 20
404.0
 30
0.0
 11
570.0
 21
410.0
 31
0.0
  0
LINE
  5
C60
  8
FRAME_070
 10
555.0
 20
404.0
 30
0.0
 11
555.0
 21
410.0
 31
0.0
  0
LINE
  5
C61
  8
FRAME_070
 10
535.0
 20
404.0
 30
0.0
 11
535.0
 21
410.0
 31
0.0
  0
LINE
  5
C62
  8
FRAME_050
 10
512.25
 20
410.0
 30
0.0
 11
512.25
 21
415.0
 31
0.0
  0
TEXT
  5
C63
  8
FRAME_050
 10
546.72499999999991
 20
410.5
 30
0.0
 40
4.0
  1
8
  7
ISO_PROPORTIONAL
 72
     4
 11
548.125
 21
412.5
 31
0.0
  0
LINE
  5
C64
  8
FRAME_050
 10
589.0
 20
360.0
 30
0.0
 11
584.0
 21
360.0
 31
0.0
  0
TEXT
  5
C65
  8
FRAME_050
 10
584.70000000000005
 20
385.0
 30
0.0
 40
4.0
  1
A
  7
ISO_PROPORTIONAL
 72
     4
 11
586.5
 21
387.0
 31
0.0
  0
LINE
  5
C66
  8
FRAME_200
 10
594.0
 20
420.0
 30
0.0
 11
584.0
 21
420.0
 31
0.0
  0
LINE
  5
C67
  8
FRAME_200
 10
594.0
 20
410.0
 30
0.0
 11
594.0
 21
420.0
 31
0.0
  0
ENDBLK
  5
C69
  8
0
  0
BLOCK
  8
0
  2
WOBB001END
 70
     0
 10
0.0
 20
0.0
 30
0.0
  3
WOBB001END
  1

  0
LINE
  5
4D66
  8
0
  6
CONTINUOUS
 10
0.0
 20
0.0
 30
0.0
 11
0.8749999999999998
 21
0.0
 31
0.0
  0
ARC
  5
4D67
  8
0
  6
CONTINUOUS
 10
0.0331648379439287
 20
-0.5087238935900232
 30
0.0
 40
0.8790130605592325
 50
284.06490243660443
 51
312.19222981924361
  0
ARC
  5
4D68
  8
0
  6
CONTINUOUS
 10
0.2841534338796767
 20
-1.510548310625538
 30
0.0
 40
0.1537731892806598
 50
104.0649024366044
 51
179.4721730735024
  0
LINE
  5
4D69
  8
0
  6
CONTINUOUS
 10
0.0
 20
0.0
 30
0.0
 11
-0.0000000000000003
 21
-1.7501564476661919
 31
0.0
  0
ARC
  5
4D6A
  8
0
  6
CONTINUOUS
 10
0.1404622019506122
 20
-1.6303137183546199
 30
0.0
 40
0.1198427293115722
 50
275.0
 51
85.000000000000057
  0
LINE
  5
4D6B
  8
0
  6
CONTINUOUS
 10
-0.0000000000000003
 20
-1.7501564476661919
 30
0.0
 11
0.1456946485130855
 21
-1.7501564476661919
 31
0.0
  0
LINE
  5
4D6C
  8
0
  6
CONTINUOUS
 10
0.1377603739254348
 20
-1.7508506067459131
 30
0.0
 11
0.150907184036669
 21
-1.749700409899652
 31
0.0
  0
LINE
  5
4D6D
  8
0
  6
CONTINUOUS
 10
0.1303867696719884
 20
-1.5091317231818231
 30
0.0
 11
0.1509071840366689
 21
-1.5109270268095869
 31
0.0
  0
LINE
  5
4D6E
  8
0
  6
CONTINUOUS
 10
0.8749999999999998
 20
0.0
 30
0.0
 11
0.8749999999999996
 21
-0.8649327026588228
 31
0.0
  0
LINE
  5
4D6F
  8
0
  6
CONTINUOUS
 10
0.727014513830997
 20
-0.8726882933550612
 30
0.0
 11
0.727014513830997
 21
-0.9264923397184784
 31
0.0
  0
ARC
  5
4D70
  8
0
  6
CONTINUOUS
 10
0.41187090827646
 20
-0.9264923397184784
 30
0.0
 40
0.315143605554537
 50
312.19222981924361
 51
0.0
  0
LINE
  5
4D71
  8
0
  6
CONTINUOUS
 10
0.727014513830997
 20
-0.8726882933550612
 30
0.0
 11
0.8749999999999996
 21
-0.8649327026588228
 31
0.0
  0
ENDBLK
  5
4D72
  8
0
  0
BLOCK
  8
0
  2
A$C0A61123B
 70
     0
 10
0.0
 20
0.0
 30
0.0
  3
A$C0A61123B
  1

  0
LINE
  5
C0AD
  8
PROF
  6
CONTINUOUS
 10
4.9012016798694162
 20
13.325025853350891
 30
0.0000000000000002
 11
4.9012016798694162
 21
12.88585218805485
 31
0.0000000000000003
  0
INSERT
  5
C0AE
  8
0
  2
*U156
 10
0.0
 20
0.0
 30
0.0
  0
LINE
  5
C0AF
  8
PROF
 10
4.5198575031869259
 20
12.72227734589444
 30
0.0000000000000001
 11
4.5198575031869259
 21
12.88585218805485
 31
0.0000000000000001
  0
LINE
  5
C0B0
  8
PROF
  6
CONTINUOUS
 10
3.6306271195888371
 20
13.325025853350891
 30
0.0000000000000002
 11
4.9012016798694162
 21
13.325025853350891
 31
0.0000000000000002
  0
LINE
  5
C0B1
  8
PROF
 10
1.9750295148747341
 20
10.37671325491794
 30
0.0000000000000002
 11
1.9750295148747341
 21
10.11391186758919
 31
0.0000000000000002
  0
LINE
  5
C0B2
  8
PROF
 10
1.607967335755631
 20
10.11391186758919
 30
0.0000000000000001
 11
1.9750295148747341
 21
10.11391186758919
 31
0.0000000000000001
  0
LINE
  5
C0B3
  8
PROF
 10
1.9750295148747341
 20
10.11391186758919
 30
0.0000000000000001
 11
1.944958486898144
 21
10.11391186758919
 31
0.0000000000000001
  0
LINE
  5
C0B4
  8
PROF
 10
1.9750295148747341
 20
10.11391186758919
 30
0.0000000000000001
 11
1.944958486898144
 21
10.11391186758919
 31
0.0000000000000001
  0
LINE
  5
C0B5
  8
PROF
 10
0.3222605517169654
 20
7.5247473351056442
 30
-0.0000000000000002
 11
-0.0000008570117416
 21
7.5247473351056442
 31
0.0
  0
LINE
  5
C0B6
  8
PROF
 10
-0.0000008570117416
 20
7.5247473351056442
 30
0.0
 11
-0.0000008570117416
 21
9.1943336957369866
 31
0.0
  0
POLYLINE
  5
C0B7
  8
PROF
 66
     1
 10
0.0
 20
0.0
 30
0.0000000000000001
 70
     4
 75
     6
  0
VERTEX
  5
C0B8
  8
PROF
 10
1.607967335755631
 20
10.11391186758919
 30
0.0000000000000001
 70
    16
  0
VERTEX
  5
C0B9
  8
PROF
 10
1.607967335755631
 20
10.11391186758919
 30
0.0000000000000001
 70
     8
  0
VERTEX
  5
C0BA
  8
PROF
 10
1.646813232648582
 20
10.02198069336111
 30
0.0000000000000001
 70
     8
  0
VERTEX
  5
C0BB
  8
PROF
 10
1.67335966680929
 20
9.9344134163010267
 30
0.0000000000000001
 70
     8
  0
VERTEX
  5
C0BC
  8
PROF
 10
1.689008640046324
 20
9.8512576644480987
 30
0.0000000000000001
 70
     8
  0
VERTEX
  5
C0BD
  8
PROF
 10
1.695162154168258
 20
9.7725610658417281
 30
0.0000000000000001
 70
     8
  0
VERTEX
  5
C0BE
  8
PROF
 10
1.6932222109836059
 20
9.6983712485214255
 30
0.0000000000000001
 70
     8
  0
VERTEX
  5
C0BF
  8
PROF
 10
1.6845908123009961
 20
9.6287358405263603
 30
0.0000000000000001
 70
     8
  0
VERTEX
  5
C0C0
  8
PROF
 10
1.6706699599288859
 20
9.5637024698960431
 30
0.0000000000000001
 70
     8
  0
VERTEX
  5
C0C1
  8
PROF
 10
1.6528616556759621
 20
9.503318764669757
 30
0.0000000000000001
 70
     8
  0
VERTEX
  5
C0C2
  8
PROF
 10
1.6323562992730549
 20
9.4475843259650674
 30
0.0000000000000001
 70
     8
  0
VERTEX
  5
C0C3
  8
PROF
 10
1.609497882140658
 20
9.3963066472123273
 30
0.0000000000000001
 70
     8
  0
VERTEX
  5
C0C4
  8
PROF
 10
1.584418793621637
 20
9.3492451949202842
 30
0.0000000000000001
 70
     8
  0
VERTEX
  5
C0C5
  8
PROF
 10
1.557251423058744
 20
9.3061594355972375
 30
0.0000000000000001
 70
     8
  0
VERTEX
  5
C0C6
  8
PROF
 10
1.5281281597949601
 20
9.2668088357519292
 30
0.0000000000000001
 70
     8
  0
VERTEX
  5
C0C7
  8
PROF
 10
1.4971813931729789
 20
9.2309528618930017
 30
0.0000000000000001
 70
     8
  0
VERTEX
  5
C0C8
  8
PROF
 10
1.464543512535726
 20
9.1983509805288577
 30
0.0000000000000001
 70
     8
  0
VERTEX
  5
C0C9
  8
PROF
 10
1.4303469072260091
 20
9.1687626581682462
 30
0.0000000000000001
 70
     8
  0
VERTEX
  5
C0CA
  8
PROF
 10
1.3947360332574019
 20
9.1419547918675335
 30
0.0000000000000001
 70
     8
  0
VERTEX
  5
C0CB
  8
PROF
 10
1.3579036133264131
 20
9.1177240008747731
 30
0.0000000000000001
 70
     8
  0
VERTEX
  5
C0CC
  8
PROF
 10
1.3200544368004321
 20
9.0958743349860924
 30
0.0000000000000001
 70
     8
  0
VERTEX
  5
C0CD
  8
PROF
 10
1.281393293046676
 20
9.0762098439975034
 30
0.0000000000000001
 70
     8
  0
VERTEX
  5
C0CE
  8
PROF
 10
1.242124971432417
 20
9.0585345777049042
 30
0.0000000000000001
 70
     8
  0
VERTEX
  5
C0CF
  8
PROF
 10
1.2024542613249869
 20
9.0426525859044204
 30
0.0000000000000001
 70
     8
  0
VERTEX
  5
C0D0
  8
PROF
 10
1.1625859520916599
 20
9.0283679183919503
 30
0.0000000000000001
 70
     8
  0
VERTEX
  5
C0D1
  8
PROF
 10
1.1227248330997091
 20
9.0154846249635057
 30
0.0000000000000001
 70
     8
  0
VERTEX
  5
C0D2
  8
PROF
 10
1.0829726247361
 20
9.0034643862466055
 30
0.0000000000000001
 70
     8
  0
VERTEX
  5
C0D3
  8
PROF
 10
1.043018771466222
 20
8.9903994061946833
 30
0.0000000000000001
 70
     8
  0
VERTEX
  5
C0D4
  8
PROF
 10
1.002449648775211
 20
8.9740395195925657
 30
0.0000000000000001
 70
     8
  0
VERTEX
  5
C0D5
  8
PROF
 10
0.9608516321480919
 20
8.9521345612251935
 30
0.0000000000000001
 70
     8
  0
VERTEX
  5
C0D6
  8
PROF
 10
0.9178110970699435
 20
8.9224343658775052
 30
0.0000000000000001
 70
     8
  0
VERTEX
  5
C0D7
  8
PROF
 10
0.8729144190259034
 20
8.8826887683343312
 30
0.0000000000000001
 70
     8
  0
VERTEX
  5
C0D8
  8
PROF
 10
0.8257479735009951
 20
8.8306476033806121
 30
0.0000000000000001
 70
     8
  0
VERTEX
  5
C0D9
  8
PROF
 10
0.7758981359802988
 20
8.764060705801171
 30
0.0000000000000001
 70
     8
  0
VERTEX
  5
C0DA
  8
PROF
 10
1.729201901609656
 20
9.8629858761255491
 30
0.0000000000000001
 70
    16
  0
VERTEX
  5
C0DB
  8
PROF
 10
1.6793731231140889
 20
9.4532143012734196
 30
0.0000000000000001
 70
    16
  0
VERTEX
  5
C0DC
  8
PROF
 10
1.4455611507419801
 20
9.1391837193732481
 30
0.0000000000000001
 70
    16
  0
VERTEX
  5
C0DD
  8
PROF
 10
1.120463717273821
 20
9.0026267702428413
 30
0.0000000000000001
 70
    16
  0
VERTEX
  5
C0DE
  8
PROF
 10
0.9127765582653638
 20
8.9630202230383702
 30
0.0000000000000001
 70
    16
  0
VERTEX
  5
C0DF
  8
PROF
 10
0.7758981359802988
 20
8.764060705801171
 30
0.0000000000000001
 70
    16
  0
SEQEND
  5
C0E0
  8
PROF
  0
ARC
  5
C0E1
  8
PROF
 10
0.733429816733235
 20
8.4849506952165257
 30
0.0000000000000001
 40
0.2823224329524727
 50
269.73652020831901
 51
81.348449993176914
  0
LINE
  5
C0E2
  8
PROF
  6
CONTINUOUS
 10
-0.0000008570117416
 20
9.1943336957369866
 30
-0.0000000000000001
 11
3.6306271195888371
 21
13.325025853350891
 31
0.0000000000000002
  0
POLYLINE
  5
C0E3
  8
PROF
 66
     1
 10
0.0
 20
0.0
 30
0.0000000000000001
 70
     4
 75
     6
  0
VERTEX
  5
C0E4
  8
PROF
 10
4.5198575031869259
 20
12.72227734589444
 30
0.0000000000000001
 70
    16
  0
VERTEX
  5
C0E5
  8
PROF
 10
4.5198575031869259
 20
12.72227734589444
 30
0.0000000000000001
 70
     8
  0
VERTEX
  5
C0E6
  8
PROF
 10
4.4467035366886298
 20
12.741128108778071
 30
0.0000000000000001
 70
     8
  0
VERTEX
  5
C0E7
  8
PROF
 10
4.3786645761268801
 20
12.754675269913941
 30
0.0000000000000001
 70
     8
  0
VERTEX
  5
C0E8
  8
PROF
 10
4.3154364111440477
 20
12.76334314092332
 30
0.0000000000000001
 70
     8
  0
VERTEX
  5
C0E9
  8
PROF
 10
4.256714831382566
 20
12.76755603342724
 30
0.0000000000000001
 70
     8
  0
VERTEX
  5
C0EA
  8
PROF
 10
4.2021956264849791
 20
12.76773825904672
 30
0.0000000000000001
 70
     8
  0
VERTEX
  5
C0EB
  8
PROF
 10
4.1515745860935453
 20
12.764314129403139
 30
0.0000000000000001
 70
     8
  0
VERTEX
  5
C0EC
  8
PROF
 10
4.1045474998508658
 20
12.75770795611743
 30
0.0000000000000001
 70
     8
  0
VERTEX
  5
C0ED
  8
PROF
 10
4.0608101573993158
 20
12.748344050810831
 30
0.0000000000000001
 70
     8
  0
VERTEX
  5
C0EE
  8
PROF
 10
4.0200583483813261
 20
12.736646725104491
 30
0.0000000000000001
 70
     8
  0
VERTEX
  5
C0EF
  8
PROF
 10
3.9819878624393819
 20
12.72304029061945
 30
0.0000000000000001
 70
     8
  0
VERTEX
  5
C0F0
  8
PROF
 10
3.946294489215858
 20
12.707949058976959
 30
0.0000000000000001
 70
     8
  0
VERTEX
  5
C0F1
  8
PROF
 10
3.9126740183532429
 20
12.691797341798059
 30
0.0000000000000001
 70
     8
  0
VERTEX
  5
C0F2
  8
PROF
 10
3.8808638350742508
 20
12.67494295718654
 30
0.0000000000000001
 70
     8
  0
VERTEX
  5
C0F3
  8
PROF
 10
3.850767706922738
 20
12.65747774917668
 30
0.0000000000000001
 70
     8
  0
VERTEX
  5
C0F4
  8
PROF
 10
3.8223309970228452
 20
12.639427068285499
 30
0.0000000000000001
 70
     8
  0
VERTEX
  5
C0F5
  8
PROF
 10
3.7954990684987129
 20
12.62081626503004
 30
0.0000000000000001
 70
     8
  0
VERTEX
  5
C0F6
  8
PROF
 10
3.7702172844744828
 20
12.601670689926999
 30
0.0000000000000001
 70
     8
  0
VERTEX
  5
C0F7
  8
PROF
 10
3.746431008074353
 20
12.58201569349364
 30
0.0000000000000001
 70
     8
  0
VERTEX
  5
C0F8
  8
PROF
 10
3.7240856024224618
 20
12.56187662624666
 30
0.0000000000000001
 70
     8
  0
VERTEX
  5
C0F9
  8
PROF
 10
3.7031264306428961
 20
12.541278838703191
 30
0.0000000000000001
 70
     8
  0
VERTEX
  5
C0FA
  8
PROF
 10
3.6834988558599089
 20
12.520247681380051
 30
0.0000000000000001
 70
     8
  0
VERTEX
  5
C0FB
  8
PROF
 10
3.665148241197528
 20
12.49880850479428
 30
0.0000000000000001
 70
     8
  0
VERTEX
  5
C0FC
  8
PROF
 10
3.6480199497799499
 20
12.47698665946279
 30
0.0000000000000001
 70
     8
  0
VERTEX
  5
C0FD
  8
PROF
 10
3.6320593447313172
 20
12.45480749590263
 30
0.0000000000000001
 70
     8
  0
VERTEX
  5
C0FE
  8
PROF
 10
3.6171895848866589
 20
12.43223790353807
 30
0.0000000000000001
 70
     8
  0
VERTEX
  5
C0FF
  8
PROF
 10
3.6032450119242858
 20
12.40901092742285
 30
0.0000000000000001
 70
     8
  0
VERTEX
  5
C100
  8
PROF
 10
3.590037763233453
 20
12.38480115151844
 30
0.0000000000000001
 70
     8
  0
VERTEX
  5
C101
  8
PROF
 10
3.5773799762033032
 20
12.35928315978594
 30
0.0000000000000001
 70
     8
  0
VERTEX
  5
C102
  8
PROF
 10
3.5650837882230908
 20
12.33213153618658
 30
0.0000000000000001
 70
     8
  0
VERTEX
  5
C103
  8
PROF
 10
3.5529613366819599
 20
12.303020864681571
 30
0.0000000000000001
 70
     8
  0
VERTEX
  5
C104
  8
PROF
 10
3.540824758969165
 20
12.271625729232371
 30
0.0000000000000001
 70
     8
  0
VERTEX
  5
C105
  8
PROF
 10
3.5284861924738489
 20
12.23762071379997
 30
0.0000000000000001
 70
     8
  0
VERTEX
  5
C106
  8
PROF
 10
3.5157577745852668
 20
12.200680402345711
 30
0.0000000000000001
 70
     8
  0
VERTEX
  5
C107
  8
PROF
 10
3.5024516426926189
 20
12.16047937883093
 30
0.0000000000000001
 70
     8
  0
VERTEX
  5
C108
  8
PROF
 10
3.4883799341851041
 20
12.116692227216619
 30
0.0000000000000001
 70
     8
  0
VERTEX
  5
C109
  8
PROF
 10
3.4733547864519201
 20
12.06899353146423
 30
0.0000000000000001
 70
     8
  0
VERTEX
  5
C10A
  8
PROF
 10
3.45723654619428
 20
12.0172095445447
 30
0.0000000000000001
 70
     8
  0
VERTEX
  5
C10B
  8
PROF
 10
3.4400783973613889
 20
11.961773195467799
 30
0.0000000000000001
 70
     8
  0
VERTEX
  5
C10C
  8
PROF
 10
3.421981733214579
 20
11.90326908225302
 30
0.0000000000000001
 70
     8
  0
VERTEX
  5
C10D
  8
PROF
 10
3.4030479470150108
 20
11.842281802919951
 30
0.0000000000000001
 70
     8
  0
VERTEX
  5
C10E
  8
PROF
 10
3.383378432024017
 20
11.779395955487979
 30
0.0000000000000001
 70
     8
  0
VERTEX
  5
C10F
  8
PROF
 10
3.3630745815028709
 20
11.715196137976809
 30
0.0000000000000001
 70
     8
  0
VERTEX
  5
C110
  8
PROF
 10
3.3422377887127359
 20
11.650266948405831
 30
0.0000000000000001
 70
     8
  0
VERTEX
  5
C111
  8
PROF
 10
3.320969446915
 20
11.58519298479461
 30
0.0000000000000001
 70
     8
  0
VERTEX
  5
C112
  8
PROF
 10
3.2993709493707679
 20
11.520558845162549
 30
0.0000000000000001
 70
     8
  0
VERTEX
  5
C113
  8
PROF
 10
3.277543689341428
 20
11.456949127529469
 30
0.0000000000000001
 70
     8
  0
VERTEX
  5
C114
  8
PROF
 10
3.2555890600881412
 20
11.3949484299145
 30
0.0000000000000001
 70
     8
  0
VERTEX
  5
C115
  8
PROF
 10
3.233608454872182
 20
11.335141350337491
 30
0.0000000000000001
 70
     8
  0
VERTEX
  5
C116
  8
PROF
 10
3.2116715641212181
 20
11.27799544797778
 30
0.0000000000000001
 70
     8
  0
VERTEX
  5
C117
  8
PROF
 10
3.189721266927847
 20
11.22351012665467
 30
0.0000000000000001
 70
     8
  0
VERTEX
  5
C118
  8
PROF
 10
3.1676687395512881
 20
11.17156775134765
 30
0.0000000000000001
 70
     8
  0
VERTEX
  5
C119
  8
PROF
 10
3.1454251582505321
 20
11.12205068703588
 30
0.0000000000000001
 70
     8
  0
VERTEX
  5
C11A
  8
PROF
 10
3.122901699284625
 20
11.07484129869874
 30
0.0000000000000001
 70
     8
  0
VERTEX
  5
C11B
  8
PROF
 10
3.1000095389127291
 20
11.02982195131551
 30
0.0000000000000001
 70
     8
  0
VERTEX
  5
C11C
  8
PROF
 10
3.0766598533938909
 20
10.986875009865679
 30
0.0000000000000001
 70
     8
  0
VERTEX
  5
C11D
  8
PROF
 10
3.0527638189871591
 20
10.9458828393283
 30
0.0000000000000001
 70
     8
  0
VERTEX
  5
C11E
  8
PROF
 10
3.0282326119516361
 20
10.90672780468298
 30
0.0000000000000001
 70
     8
  0
VERTEX
  5
C11F
  8
PROF
 10
3.002977408546371
 20
10.869292270908771
 30
0.0000000000000001
 70
     8
  0
VERTEX
  5
C120
  8
PROF
 10
2.9769093850304098
 20
10.833458602985161
 30
0.0000000000000001
 70
     8
  0
VERTEX
  5
C121
  8
PROF
 10
2.9499397176628568
 20
10.799109165891419
 30
0.0000000000000001
 70
     8
  0
VERTEX
  5
C122
  8
PROF
 10
2.9220006098404379
 20
10.76614363969508
 30
0.0000000000000001
 70
     8
  0
VERTEX
  5
C123
  8
PROF
 10
2.8931083735103011
 20
10.7345309648158
 30
0.0000000000000001
 70
     8
  0
VERTEX
  5
C124
  8
PROF
 10
2.8633003477572738
 20
10.70425739676193
 30
0.0000000000000001
 70
     8
  0
VERTEX
  5
C125
  8
PROF
 10
2.8326138716660689
 20
10.67530919104115
 30
0.0000000000000001
 70
     8
  0
VERTEX
  5
C126
  8
PROF
 10
2.8010862843216269
 20
10.647672603161711
 30
0.0000000000000001
 70
     8
  0
VERTEX
  5
C127
  8
PROF
 10
2.7687549248087171
 20
10.62133388863162
 30
0.0000000000000001
 70
     8
  0
VERTEX
  5
C128
  8
PROF
 10
2.735657132212054
 20
10.5962793029588
 30
0.0000000000000001
 70
     8
  0
VERTEX
  5
C129
  8
PROF
 10
2.7018302456165202
 20
10.572495101651381
 30
0.0000000000000001
 70
     8
  0
VERTEX
  5
C12A
  8
PROF
 10
2.6673116041068852
 20
10.54996754021726
 30
0.0000000000000001
 70
     8
  0
VERTEX
  5
C12B
  8
PROF
 10
2.6321385467680321
 20
10.528682874164581
 30
0.0000000000000001
 70
     8
  0
VERTEX
  5
C12C
  8
PROF
 10
2.5963484126846188
 20
10.508627359001251
 30
0.0000000000000001
 70
     8
  0
VERTEX
  5
C12D
  8
PROF
 10
2.5599785409415849
 20
10.489787250235279
 30
0.0000000000000001
 70
     8
  0
VERTEX
  5
C12E
  8
PROF
 10
2.522998630314361
 20
10.472162234281081
 30
0.0000000000000001
 70
     8
  0
VERTEX
  5
C12F
  8
PROF
 10
2.4851078183409072
 20
10.455805721177621
 30
0.0000000000000001
 70
     8
  0
VERTEX
  5
C130
  8
PROF
 10
2.4459376022498982
 20
10.44078455187036
 30
0.0000000000000001
 70
     8
  0
VERTEX
  5
C131
  8
PROF
 10
2.4051194792701258
 20
10.42716556730465
 30
0.0000000000000001
 70
     8
  0
VERTEX
  5
C132
  8
PROF
 10
2.3622849466301541
 20
10.415015608425851
 30
0.0000000000000001
 70
     8
  0
VERTEX
  5
C133
  8
PROF
 10
2.3170655015587149
 20
10.40440151617929
 30
0.0000000000000001
 70
     8
  0
VERTEX
  5
C134
  8
PROF
 10
2.2690926412844301
 20
10.395390131510339
 30
0.0000000000000001
 70
     8
  0
VERTEX
  5
C135
  8
PROF
 10
2.2179978630360888
 20
10.388048295364451
 30
0.0000000000000001
 70
     8
  0
VERTEX
  5
C136
  8
PROF
 10
2.1634126640422551
 20
10.38244284868688
 30
0.0000000000000001
 70
     8
  0
VERTEX
  5
C137
  8
PROF
 10
2.104968541531604
 20
10.37864063242295
 30
0.0000000000000001
 70
     8
  0
VERTEX
  5
C138
  8
PROF
 10
2.0422969927328718
 20
10.37670848751816
 30
0.0000000000000001
 70
     8
  0
VERTEX
  5
C139
  8
PROF
 10
1.9750295148747341
 20
10.37671325491794
 30
0.0000000000000001
 70
     8
  0
VERTEX
  5
C13A
  8
PROF
 10
4.2166060115107484
 20
12.80885334975255
 30
0.0000000000000001
 70
    16
  0
VERTEX
  5
C13B
  8
PROF
 10
3.8702254102732918
 20
12.707065515763929
 30
0.0000000000000001
 70
    16
  0
VERTEX
  5
C13C
  8
PROF
 10
3.605346156896871
 20
12.46277472098552
 30
0.0000000000000001
 70
    16
  0
VERTEX
  5
C13D
  8
PROF
 10
3.500746030527238
 20
12.170680575709749
 30
0.0000000000000001
 70
    16
  0
VERTEX
  5
C13E
  8
PROF
 10
3.231798439705698
 20
11.26846416496107
 30
0.0000000000000001
 70
    16
  0
VERTEX
  5
C13F
  8
PROF
 10
2.9737109398832891
 20
10.76631086647069
 30
0.0000000000000001
 70
    16
  0
VERTEX
  5
C140
  8
PROF
 10
2.5729961067384011
 20
10.460947364504699
 30
0.0000000000000001
 70
    16
  0
VERTEX
  5
C141
  8
PROF
 10
2.253782621454604
 20
10.372731239449759
 30
0.0000000000000001
 70
    16
  0
VERTEX
  5
C142
  8
PROF
 10
1.9750295148747341
 20
10.37671325491794
 30
0.0000000000000001
 70
    16
  0
SEQEND
  5
C143
  8
PROF
  0
LINE
  5
C144
  8
PROF
 10
4.9012016798694162
 20
12.88585218805485
 30
0.0000000000000003
 11
4.5198575031869259
 21
12.88585218805485
 31
0.0000000000000003
  0
LINE
  5
C145
  8
PROF
 10
0.7321315362267457
 20
8.2026312473991538
 30
0.0000000000000006
 11
0.7321315362267457
 21
8.0511853963434987
 31
0.0000000000000006
  0
ARC
  5
C146
  8
PROF
 10
0.7977322214551919
 20
7.5773339332026799
 30
0.0000000000000006
 40
0.4783708383912012
 50
97.882010168942529
 51
186.31119505698649
  0
LINE
  5
C147
  8
FRAME_050
 10
7.8016377197432121
 20
17.99371054969447
 30
0.0
 11
7.8016377197432121
 21
0.0000000000002274
 31
0.0
  0
ENDBLK
  5
C149
  8
0
  0
BLOCK
  8
0
  2
A$C3A7C6791
 70
     0
 10
0.0
 20
0.0
 30
0.0
  3
A$C3A7C6791
  1

  0
ARC
  5
1A561
  8
0
 10
1.0342682520551421
 20
11.169869575314801
 30
0.0
 40
0.3900479059662017
 50
183.5871702804647
 51
250.12003892297869
  0
ARC
  5
1A562
  8
0
 10
0.3331235273064408
 20
14.96835148878222
 30
0.0
 40
0.279776987736341
 50
290.26301102890392
 51
72.509116341854423
  0
ARC
  5
1A563
  8
0
 10
0.7948887850711232
 20
10.60700392177659
 30
0.0
 40
0.2232361910347119
 50
300.2914142988875
 51
61.434469032044603
  0
LINE
  5
1A564
  8
0
 10
-0.0000015027120526
 20
9.7351929270671462
 30
0.0
 11
1.0332573394856579
 21
9.7351929270671462
 31
0.0
  0
LINE
  5
1A565
  8
0
 10
1.0332573394856579
 20
10.377304601683591
 30
0.0
 11
0.9074887268004658
 21
10.377304601683591
 31
0.0
  0
LINE
  5
1A566
  8
0
 10
0.6449845421777241
 20
11.145465432783791
 30
0.0
 11
0.5554296092705046
 21
11.181249222917581
 31
0.0
  0
LINE
  5
1A567
  8
0
 10
0.5554296092705046
 20
14.67010534946894
 30
0.0
 11
0.430018718777319
 21
14.67010534946894
 31
0.0
  0
LINE
  5
1A568
  8
0
 10
0.4172116339615855
 20
15.235192927067139
 30
0.0
 11
-0.0000015027120526
 21
15.235192927067139
 31
0.0
  0
LINE
  5
1A569
  8
0
 10
-0.0000015027120526
 20
15.235192927067139
 30
0.0
 11
-0.0000015027120526
 21
9.7351929270671462
 31
0.0
  0
LINE
  5
1A56A
  8
0
 10
1.0332573394856579
 20
9.7351929270671462
 30
0.0
 11
1.0332573394856579
 21
10.377304601683591
 31
0.0
  0
LINE
  5
1A56B
  8
0
 10
0.9074887268004658
 20
10.377304601683591
 30
0.0
 11
0.9074887268003521
 21
10.414245912577821
 31
0.0
  0
LINE
  5
1A56C
  8
0
 10
0.5554296092705046
 20
11.181249222917581
 30
0.0
 11
0.5554296092705046
 21
14.67010534946894
 31
0.0
  0
LINE
  5
1A56D
  8
0
 10
0.430018718777319
 20
14.67010534946894
 30
0.0
 11
0.4300187187771485
 21
14.705889139602959
 31
0.0
  0
INSERT
  5
1A56E
  8
0
  2
*U281
 10
0.0
 20
0.0
 30
0.0
  0
LINE
  5
1A56F
  8
FRAME_050
 10
5.1382720395286006
 20
17.993710579095019
 30
0.0
 11
5.1382720395286006
 21
0.0000000294007805
 31
0.0
  0
ENDBLK
  5
1A571
  8
0
  0
BLOCK
  8
0
  2
A$C212248C0
 70
     0
 10
0.0
 20
0.0
 30
0.0
  3
A$C212248C0
  1

  0
LINE
  5
2846E
  8
0
 10
-0.0000002092490945
 20
10.41741894345523
 30
0.0
 11
-0.000000218823061
 21
12.91741894345523
 31
0.0
  0
LINE
  5
2846F
  8
0
 10
0.8061752779508424
 20
10.41741894654251
 30
0.0
 11
0.80617527442746
 21
11.337459194522349
 31
0.0
  0
LINE
  5
28470
  8
0
 10
-0.0000002092490945
 20
10.41741894345523
 30
0.0
 11
0.8061752779508424
 21
10.41741894654251
 31
0.0
  0
LINE
  5
28471
  8
0
 10
-0.000000218823061
 20
12.91741894345523
 30
0.0
 11
0.1835338022692099
 21
12.91741894415804
 31
0.0
  0
LINE
  5
28472
  8
0
 10
0.5432593756756888
 20
11.33745919351543
 30
0.0
 11
0.8061752744275167
 21
11.337459194522349
 31
0.0
  0
LINE
  5
28473
  8
0
 10
0.5432593756756888
 20
11.33745919351543
 30
0.0
 11
0.54325937522907
 21
11.454074799268589
 31
0.0
  0
ARC
  5
28474
  8
0
 10
0.5406585726453841
 20
11.69407225899795
 30
0.0
 40
0.2400115514942006
 50
270.62087814899439
 51
10.065567101317541
  0
ARC
  5
28475
  8
0
 10
0.3766221072655185
 20
12.57830290724473
 30
0.0
 40
0.1204493443528103
 50
92.075522465847911
 51
186.90606997904499
  0
ARC
  5
28476
  8
0
 10
0.3522648873053527
 20
11.66572609276443
 30
0.0
 40
0.4304889887359197
 50
9.3978639632316945
 51
32.979139282634932
  0
ARC
  5
28477
  8
0
 10
-3.1652042745943159
 20
9.0577862235478506
 30
0.0
 40
4.8085319198703189
 50
36.234313076985558
 51
42.402692063571678
  0
LINE
  5
28478
  8
0
 10
0.1835338022692099
 20
12.91741894415804
 30
0.0
 11
0.3722598200128004
 21
12.698673231681139
 31
0.0
  0
ARC
  5
28479
  8
0
 10
0.9319226152692294
 20
12.72987725098619
 30
0.0
 40
0.6950054723870779
 50
193.8233761419454
 51
218.1708864341492
  0
LINE
  5
2847A
  8
0
 10
-0.0000002092490945
 20
10.41741894345523
 30
0.0
 11
-0.0000002092490945
 21
12.91741894345523
 31
0.0
  0
INSERT
  5
2847B
  8
0
  2
*U335
 10
0.0
 20
0.0
 30
0.0
  0
LINE
  5
2847C
  8
FRAME_050
 10
6.2588202718825414
 20
17.993710579095019
 30
0.0
 11
6.2588202718825414
 21
0.0000000294007805
 31
0.0
  0
ENDBLK
  5
2847E
  8
0
  0
BLOCK
  8
0
  2
*U156
 70
     1
 10
0.0
 20
0.0
 30
0.0
  3
*U156
  1

  0
TEXT
  5
2B2AA
  8
0
 10
3.5177832928899071
 20
10.38601584255777
 30
0.0
 40
0.125
  1
Crown Moulding
  0
TEXT
  5
2B2AB
  8
0
 10
3.5223876585106431
 20
10.17717091304435
 30
0.0
 40
0.125
  1
TL-AB509
  0
TEXT
  5
2B2AC
  8
0
 10
3.5074661032582561
 20
9.9667059289606801
 30
0.0
 40
0.125
  1
1-5/16" x 7-9/16"
  0
TEXT
  5
2B2AD
  8
0
 10
3.519403347460166
 20
9.7562409448770051
 30
0.0
 40
0.125
  1
800.66.TAGUE
  0
ENDBLK
  5
2B2AF
  8
0
  0
BLOCK
  8
0
  2
*U157
 70
     1
 10
0.0
 20
0.0
 30
0.0
  3
*U157
  1

  0
TEXT
  5
2B2B1
  8
0
 10
5.3066868277875692
 20
1.767659498411035
 30
0.0
 40
0.125
  1
Back Band
  0
TEXT
  5
2B2B2
  8
0
 10
5.3153839628489603
 20
1.55881456889762
 30
0.0
 40
0.125
  1
TL-1
  0
TEXT
  5
2B2B3
  8
0
 10
5.3004624075965721
 20
1.3483495848139451
 30
0.0
 40
0.125
  1
1-3/8" x 1-9/16"
  0
TEXT
  5
2B2B4
  8
0
 10
5.3123996517984819
 20
1.137884600730271
 30
0.0
 40
0.125
  1
800.66.TAGUE
  0
ENDBLK
  5
2B2B6
  8
0
  0
BLOCK
  8
0
  2
*U158
 70
     1
 10
0.0
 20
0.0
 30
0.0
  3
*U158
  1

  0
TEXT
  5
2B2B8
  8
0
 10
2.551252809835812
 20
0.9623111621543785
 30
0.0
 40
0.125
  1
Back Band
  0
TEXT
  5
2B2B9
  8
0
 10
2.5599499448972041
 20
0.7534662326409634
 30
0.0
 40
0.125
  1
TL-288
  0
TEXT
  5
2B2BA
  8
0
 10
2.5450283896448158
 20
0.5430012485572889
 30
0.0
 40
0.125
  1
1-11/16" x 1-13/16"
  0
TEXT
  5
2B2BB
  8
0
 10
2.5569656338467261
 20
0.3325362644736145
 30
0.0
 40
0.125
  1
800.66.TAGUE
  0
ENDBLK
  5
2B2BD
  8
0
  0
BLOCK
  8
0
  2
*U159
 70
     1
 10
0.0
 20
0.0
 30
0.0
  3
*U159
  1

  0
TEXT
  5
2B2BF
  8
0
 10
1.8364329238504911
 20
0.882982778245946
 30
0.0
 40
0.125
  1
Back Band
  0
TEXT
  5
2B2C0
  8
0
 10
1.845130058911882
 20
0.6741378487325309
 30
0.0
 40
0.125
  1
TL-289
  0
TEXT
  5
2B2C1
  8
0
 10
1.8302085036594951
 20
0.4636728646488565
 30
0.0
 40
0.125
  1
1-1/16" x 1-11/16"
  0
TEXT
  5
2B2C2
  8
0
 10
1.8421457478614049
 20
0.2532078805651821
 30
0.0
 40
0.125
  1
800.66.TAGUE
  0
ENDBLK
  5
2B2C4
  8
0
  0
BLOCK
  8
0
  2
*U160
 70
     1
 10
0.0
 20
0.0
 30
0.0
  3
*U160
  1

  0
TEXT
  5
2B2C6
  8
0
 10
1.929931786774016
 20
0.8512665098620573
 30
0.0
 40
0.125
  1
Back Band
  0
TEXT
  5
2B2C7
  8
0
 10
1.9386289218354069
 20
0.6424215803486422
 30
0.0
 40
0.125
  1
TL-601
  0
TEXT
  5
2B2C8
  8
0
 10
1.92370736658302
 20
0.4319565962649678
 30
0.0
 40
0.125
  1
1-5/16" x 1-3/8"
  0
TEXT
  5
2B2C9
  8
0
 10
1.9356446107849301
 20
0.2214916121812933
 30
0.0
 40
0.125
  1
800.66.TAGUE
  0
ENDBLK
  5
2B2CB
  8
0
  0
BLOCK
  8
0
  2
*U161
 70
     1
 10
0.0
 20
0.0
 30
0.0
  3
*U161
  1

  0
TEXT
  5
2B2CD
  8
0
 10
1.8237739904796331
 20
0.9081704084311468
 30
0.0
 40
0.125
  1
Back Band
  0
TEXT
  5
2B2CE
  8
0
 10
1.832471125541024
 20
0.6993254789177317
 30
0.0
 40
0.125
  1
TL-2075
  0
TEXT
  5
2B2CF
  8
0
 10
1.8175495702886371
 20
0.4888604948340573
 30
0.0
 40
0.125
  1
1-5/16" x 1-5/8"
  0
TEXT
  5
2B2D0
  8
0
 10
1.829486814490547
 20
0.2783955107503828
 30
0.0
 40
0.125
  1
800.66.TAGUE
  0
ENDBLK
  5
2B2D2
  8
0
  0
BLOCK
  8
0
  2
*U162
 70
     1
 10
0.0
 20
0.0
 30
0.0
  3
*U162
  1

  0
TEXT
  5
2B2D4
  8
0
 10
1.9545668919090351
 20
0.8644213446237927
 30
0.0
 40
0.125
  1
Back Band
  0
TEXT
  5
2B2D5
  8
0
 10
1.963264026970426
 20
0.6555764151103776
 30
0.0
 40
0.125
  1
TL-2208 
  0
TEXT
  5
2B2D6
  8
0
 10
1.9483424717180391
 20
0.4451114310267032
 30
0.0
 40
0.125
  1
1-3/8" x 1-5/8"
  0
TEXT
  5
2B2D7
  8
0
 10
1.960279715919949
 20
0.2346464469430287
 30
0.0
 40
0.125
  1
800.66.TAGUE
  0
ENDBLK
  5
2B2D9
  8
0
  0
BLOCK
  8
0
  2
*U163
 70
     1
 10
0.0
 20
0.0
 30
0.0
  3
*U163
  1

  0
TEXT
  5
2B2DB
  8
0
 10
2.7644474121262692
 20
0.8344220463493456
 30
0.0
 40
0.125
  1
Back Band
  0
TEXT
  5
2B2DC
  8
0
 10
2.7731445471876608
 20
0.6255771168359307
 30
0.0
 40
0.125
  1
TL-2221 
  0
TEXT
  5
2B2DD
  8
0
 10
2.7689665117169922
 20
0.4151121327522561
 30
0.0
 40
0.125
  1
7/8" x 1-3/4"
  0
TEXT
  5
2B2DE
  8
0
 10
2.7701602361371829
 20
0.2046471486685817
 30
0.0
 40
0.125
  1
800.66.TAGUE
  0
ENDBLK
  5
2B2E0
  8
0
  0
BLOCK
  8
0
  2
*U164
 70
     1
 10
0.0
 20
0.0
 30
0.0
  3
*U164
  1

  0
TEXT
  5
2B2E2
  8
0
 10
2.6915324485008609
 20
1.1836703361148011
 30
0.0
 40
0.125
  1
Back Band
  0
TEXT
  5
2B2E3
  8
0
 10
2.700229583562253
 20
0.974825406601386
 30
0.0
 40
0.125
  1
TL-2266
  0
TEXT
  5
2B2E4
  8
0
 10
2.685308028309866
 20
0.7643604225177115
 30
0.0
 40
0.125
  1
1-11/32" x 1-15/32"
  0
TEXT
  5
2B2E5
  8
0
 10
2.697245272511775
 20
0.5538954384340372
 30
0.0
 40
0.125
  1
800.66.TAGUE
  0
ENDBLK
  5
2B2E7
  8
0
  0
BLOCK
  8
0
  2
*U165
 70
     1
 10
0.0
 20
0.0
 30
0.0
  3
*U165
  1

  0
TEXT
  5
2B2E9
  8
0
 10
3.1852595440213172
 20
1.4826139655959869
 30
0.0
 40
0.125
  1
Back Band
  0
TEXT
  5
2B2EA
  8
0
 10
3.1939566790827079
 20
1.273769036082572
 30
0.0
 40
0.125
  1
TL-2293
  0
TEXT
  5
2B2EB
  8
0
 10
3.1790351238303209
 20
1.0147194680971241
 30
0.0
 40
0.125
  1
1-
  0
TEXT
  5
2B2EC
  8
0
 10
3.3285150010472382
 20
1.1040697409484199
 30
0.0
 40
0.0875
  1
7
  0
LINE
  5
2B2ED
  8
0
 10
3.3553421833758441
 20
1.032393937073133
 30
0.0
 11
3.4557180597372761
 21
1.1757455448237071
 31
0.0
  0
TEXT
  5
2B2EE
  8
0
 10
3.4151594985461009
 20
0.9855528014304578
 30
0.0
 40
0.0875
  1
8
  0
TEXT
  5
2B2EF
  8
0
 10
3.483619594044054
 20
1.0147194680971241
 30
0.0
 40
0.125
  1
" x 2-
  0
TEXT
  5
2B2F0
  8
0
 10
3.8794330319703851
 20
1.1040697409484199
 30
0.0
 40
0.0875
  1
7
  0
LINE
  5
2B2F1
  8
0
 10
3.9062602142989902
 20
1.032393937073133
 30
0.0
 11
4.0066360906604244
 21
1.1757455448237071
 31
0.0
  0
TEXT
  5
2B2F2
  8
0
 10
3.957721458527911
 20
0.9855528014304578
 30
0.0
 40
0.0875
  1
16
  0
TEXT
  5
2B2F3
  8
0
 10
4.0939254148717028
 20
1.0147194680971241
 30
0.0
 40
0.125
  1
"
  0
TEXT
  5
2B2F4
  8
0
 10
3.1909723680322308
 20
0.8459211506801169
 30
0.0
 40
0.125
  1
800.66.TAGUE
  0
ENDBLK
  5
2B2F6
  8
0
  0
BLOCK
  8
0
  2
*U166
 70
     1
 10
0.0
 20
0.0
 30
0.0
  3
*U166
  1

  0
TEXT
  5
2B2F8
  8
0
 10
2.4900996379053408
 20
1.0092498715596481
 30
0.0
 40
0.125
  1
Baluster Stock
  0
TEXT
  5
2B2F9
  8
0
 10
2.4987967729667329
 20
0.800404942046233
 30
0.0
 40
0.125
  1
TL-236
  0
TEXT
  5
2B2FA
  8
0
 10
2.4838752177143451
 20
0.5899399579625585
 30
0.0
 40
0.125
  1
1-9/16" x 1-9/16"
  0
TEXT
  5
2B2FB
  8
0
 10
2.4958124619162549
 20
0.3794749738788841
 30
0.0
 40
0.125
  1
800.66.TAGUE
  0
ENDBLK
  5
2B2FD
  8
0
  0
BLOCK
  8
0
  2
*U167
 70
     1
 10
0.0
 20
0.0
 30
0.0
  3
*U167
  1

  0
TEXT
  5
2B2FF
  8
0
 10
2.3591545502839431
 20
0.9010435759007737
 30
0.0
 40
0.125
  1
Baluster Stock
  0
TEXT
  5
2B300
  8
0
 10
2.3678516853453342
 20
0.6921986463873587
 30
0.0
 40
0.125
  1
TL-237
  0
TEXT
  5
2B301
  8
0
 10
2.3529301300929468
 20
0.4817336623036842
 30
0.0
 40
0.125
  1
1-5/16" x 1-5/16"
  0
TEXT
  5
2B302
  8
0
 10
2.3648673742948572
 20
0.2712686782200098
 30
0.0
 40
0.125
  1
800.66.TAGUE
  0
ENDBLK
  5
2B304
  8
0
  0
BLOCK
  8
0
  2
*U168
 70
     1
 10
0.0
 20
0.0
 30
0.0
  3
*U168
  1

  0
TEXT
  5
2B306
  8
0
 10
2.098510450655322
 20
0.7826568183311498
 30
0.0
 40
0.125
  1
Baluster Stock
  0
TEXT
  5
2B307
  8
0
 10
2.1072075857167132
 20
0.5738118888177346
 30
0.0
 40
0.125
  1
TL-238
  0
TEXT
  5
2B308
  8
0
 10
2.0922860304643258
 20
0.3633469047340601
 30
0.0
 40
0.125
  1
1-1/16" x 1-1/16"
  0
TEXT
  5
2B309
  8
0
 10
2.1042232746662362
 20
0.1528819206503857
 30
0.0
 40
0.125
  1
800.66.TAGUE
  0
ENDBLK
  5
2B30B
  8
0
  0
BLOCK
  8
0
  2
*U169
 70
     1
 10
0.0
 20
0.0
 30
0.0
  3
*U169
  1

  0
TEXT
  5
2B30D
  8
0
 10
1.7835912292499461
 20
0.6784890753194919
 30
0.0
 40
0.125
  1
Baluster Stock
  0
TEXT
  5
2B30E
  8
0
 10
1.792288364311337
 20
0.4696441458060768
 30
0.0
 40
0.125
  1
TL-239
  0
TEXT
  5
2B30F
  8
0
 10
1.7890482551708189
 20
0.2591791617224023
 30
0.0
 40
0.125
  1
3/4" x 3/4"
  0
TEXT
  5
2B310
  8
0
 10
1.78930405326086
 20
0.0487141776387279
 30
0.0
 40
0.125
  1
800.66.TAGUE
  0
ENDBLK
  5
2B312
  8
0
  0
BLOCK
  8
0
  2
*U170
 70
     1
 10
0.0
 20
0.0
 30
0.0
  3
*U170
  1

  0
TEXT
  5
2B314
  8
0
 10
2.750346038648086
 20
1.209669783574115
 30
0.0
 40
0.125
  1
Baluster Stock
  0
TEXT
  5
2B315
  8
0
 10
2.7590431737094772
 20
1.0008248540607001
 30
0.0
 40
0.125
  1
TL-526
  0
TEXT
  5
2B316
  8
0
 10
2.7441216184570898
 20
0.7903598699770261
 30
0.0
 40
0.125
  1
1-3/4" x 1-3/4"
  0
TEXT
  5
2B317
  8
0
 10
2.7560588626590001
 20
0.5798948858933518
 30
0.0
 40
0.125
  1
800.66.TAGUE
  0
ENDBLK
  5
2B319
  8
0
  0
BLOCK
  8
0
  2
*U171
 70
     1
 10
0.0
 20
0.0
 30
0.0
  3
*U171
  1

  0
TEXT
  5
2B31B
  8
0
 10
4.1934393821158942
 20
3.6154353709422362
 30
0.0
 40
0.125
  1
Bar Rail
  0
TEXT
  5
2B31C
  8
0
 10
4.2021365171772853
 20
3.4065904414288211
 30
0.0
 40
0.125
  1
TL-13
  0
TEXT
  5
2B31D
  8
0
 10
4.19898167406678
 20
3.1961254573451461
 30
0.0
 40
0.125
  1
5-1/2" x 1-5/8"
  0
TEXT
  5
2B31E
  8
0
 10
4.199152206126807
 20
2.985660473261472
 30
0.0
 40
0.125
  1
800.66.TAGUE
  0
ENDBLK
  5
2B320
  8
0
  0
BLOCK
  8
0
  2
*U172
 70
     1
 10
0.0
 20
0.0
 30
0.0
  3
*U172
  1

  0
TEXT
  5
2B322
  8
0
 10
2.7915496004018041
 20
1.6928133759646471
 30
0.0
 40
0.125
  1
Bar Rail
  0
TEXT
  5
2B323
  8
0
 10
2.8002467354631961
 20
1.483968446451231
 30
0.0
 40
0.125
  1
TL-130
  0
TEXT
  5
2B324
  8
0
 10
2.7853251802108079
 20
1.273503462367557
 30
0.0
 40
0.125
  1
1-11/16" x 2-1/4"
  0
TEXT
  5
2B325
  8
0
 10
2.7972624244127182
 20
1.0630384782838831
 30
0.0
 40
0.125
  1
800.66.TAGUE
  0
ENDBLK
  5
2B327
  8
0
  0
BLOCK
  8
0
  2
*U173
 70
     1
 10
0.0
 20
0.0
 30
0.0
  3
*U173
  1

  0
TEXT
  5
2B329
  8
0
 10
0.7422973615718824
 20
1.83447380854534
 30
0.0
 40
0.125
  1
Bar Rail
  0
TEXT
  5
2B32A
  8
0
 10
0.750994496633274
 20
1.625628879031924
 30
0.0
 40
0.125
  1
TL-537
  0
TEXT
  5
2B32B
  8
0
 10
0.7360729413808864
 20
1.4151638949482499
 30
0.0
 40
0.125
  1
1-5/16" x 5-3/16" / 7/8" x 3-1/16"
  0
TEXT
  5
2B32C
  8
0
 10
0.7480101855827965
 20
1.204698910864576
 30
0.0
 40
0.125
  1
800.66.TAGUE
  0
ENDBLK
  5
2B32E
  8
0
  0
BLOCK
  8
0
  2
*U174
 70
     1
 10
0.0
 20
0.0
 30
0.0
  3
*U174
  1

  0
TEXT
  5
2B330
  8
0
 10
1.8164004611375999
 20
3.819697741885534
 30
0.0
 40
0.125
  1
Base Board Assembly
  0
TEXT
  5
2B331
  8
0
 10
1.8250975961989919
 20
3.610852812372118
 30
0.0
 40
0.125
  1
TL-680
  0
TEXT
  5
2B332
  8
0
 10
1.8101760409466039
 20
3.4003878282884439
 30
0.0
 40
0.125
  1
1-1/16" x 6-3/4"
  0
TEXT
  5
2B333
  8
0
 10
1.822113285148514
 20
3.1899228442047698
 30
0.0
 40
0.125
  1
800.66.TAGUE
  0
ENDBLK
  5
2B335
  8
0
  0
BLOCK
  8
0
  2
*U175
 70
     1
 10
0.0
 20
0.0
 30
0.0
  3
*U175
  1

  0
TEXT
  5
2B337
  8
0
 10
1.880121442934813
 20
2.5708737061797931
 30
0.0
 40
0.125
  1
TL-541
  0
ENDBLK
  5
2B339
  8
0
  0
BLOCK
  8
0
  2
*U176
 70
     1
 10
0.0
 20
0.0
 30
0.0
  3
*U176
  1

  0
INSERT
  5
2B33B
  8
0
  2
_OPEN30
 10
0.9370004965966245
 20
1.998969839043752
 30
0.0
 41
0.046875
 42
0.046875
 43
0.046875
 50
220.2352165150823
  0
POLYLINE
  5
2B33C
  8
0
 66
     1
 10
0.0
 20
0.0
 30
0.0
  0
VERTEX
  5
2B33D
  8
0
 10
0.9727848321090522
 20
2.0292476685058189
 30
0.0
  0
VERTEX
  5
2B33E
  8
0
 10
1.687083141229663
 20
2.633629504269833
 30
0.0
  0
VERTEX
  5
2B33F
  8
0
 10
1.8217142123754679
 20
2.633629504269833
 30
0.0
  0
SEQEND
  5
2B340
  8
0
  0
ENDBLK
  5
2B342
  8
0
  0
BLOCK
  8
0
  2
*U177
 70
     1
 10
0.0
 20
0.0
 30
0.0
  3
*U177
  1

  0
TEXT
  5
2B344
  8
0
 10
1.8608875418177091
 20
6.6078272811635204
 30
0.0
 40
0.125
  1
TL-540
  0
TEXT
  5
2B345
  8
0
 10
1.8649803112583641
 20
6.399238149740146
 30
0.0
 40
0.125
  1
 
  0
ENDBLK
  5
2B347
  8
0
  0
BLOCK
  8
0
  2
*U178
 70
     1
 10
0.0
 20
0.0
 30
0.0
  3
*U178
  1

  0
INSERT
  5
2B349
  8
0
  2
_OPEN30
 10
0.8157519259211198
 20
5.9858143171212532
 30
0.0
 41
0.046875
 42
0.046875
 43
0.046875
 50
218.1633806826421
  0
POLYLINE
  5
2B34A
  8
0
 66
     1
 10
0.0
 20
0.0
 30
0.0
  0
VERTEX
  5
2B34B
  8
0
 10
0.8526074872282775
 20
6.0147786611624072
 30
0.0
  0
VERTEX
  5
2B34C
  8
0
 10
1.687083141229663
 20
6.6705830792535599
 30
0.0
  0
VERTEX
  5
2B34D
  8
0
 10
1.8024803112583641
 20
6.6705830792535599
 30
0.0
  0
SEQEND
  5
2B34E
  8
0
  0
ENDBLK
  5
2B350
  8
0
  0
BLOCK
  8
0
  2
*U179
 70
     1
 10
0.0
 20
0.0
 30
0.0
  3
*U179
  1

  0
TEXT
  5
2B352
  8
0
 10
1.200091944455248
 20
3.6095250915403758
 30
0.0
 40
0.125
  1
Base Board Assembly
  0
TEXT
  5
2B353
  8
0
 10
1.2087890795166401
 20
3.4006801620269611
 30
0.0
 40
0.125
  1
TL-681
  0
TEXT
  5
2B354
  8
0
 10
1.193867524264252
 20
3.190215177943287
 30
0.0
 40
0.125
  1
1" x 9-1/4"
  0
TEXT
  5
2B355
  8
0
 10
1.2058047684661619
 20
2.979750193859612
 30
0.0
 40
0.125
  1
800.66.TAGUE
  0
ENDBLK
  5
2B357
  8
0
  0
BLOCK
  8
0
  2
*U180
 70
     1
 10
0.0
 20
0.0
 30
0.0
  3
*U180
  1

  0
INSERT
  5
2B359
  8
0
  6
CONTINUOUS
  2
_OPEN30
 10
0.7500005591156196
 20
6.587852449929982
 30
0.0
 41
0.046875
 42
0.046875
 43
0.046875
 50
224.09146837719419
  0
POLYLINE
  5
2B35A
  8
0
  6
CONTINUOUS
 66
     1
 10
0.0
 20
0.0
 30
0.0
  0
VERTEX
  5
2B35B
  8
0
  6
CONTINUOUS
 10
0.7836675863640283
 20
6.6204683494462451
 30
0.0
  0
VERTEX
  5
2B35C
  8
0
  6
CONTINUOUS
 10
1.7133956757769511
 20
7.5211691365396973
 30
0.0
  0
VERTEX
  5
2B35D
  8
0
  6
CONTINUOUS
 10
1.9000752793112949
 20
7.5211691365396973
 30
0.0
  0
SEQEND
  5
2B35E
  8
0
  6
CONTINUOUS
  0
ENDBLK
  5
2B360
  8
0
  0
BLOCK
  8
0
  2
*U181
 70
     1
 10
0.0
 20
0.0
 30
0.0
  3
*U181
  1

  0
TEXT
  5
2B362
  8
0
 10
1.95848250987064
 20
7.458413338449656
 30
0.0
 40
0.125
  1
TL-602
  0
ENDBLK
  5
2B364
  8
0
  0
BLOCK
  8
0
  2
*U182
 70
     1
 10
0.0
 20
0.0
 30
0.0
  3
*U182
  1

  0
INSERT
  5
2B366
  8
0
  6
CONTINUOUS
  2
_OPEN30
 10
1.0000005591156189
 20
0.8124995480944789
 30
0.0
 41
0.046875
 42
0.046875
 43
0.046875
 50
224.09146837719419
  0
POLYLINE
  5
2B367
  8
0
  6
CONTINUOUS
 66
     1
 10
0.0
 20
0.0
 30
0.0
  0
VERTEX
  5
2B368
  8
0
  6
CONTINUOUS
 10
1.0336675863640279
 20
0.8451154476107411
 30
0.0
  0
VERTEX
  5
2B369
  8
0
  6
CONTINUOUS
 10
1.9633956757769511
 20
1.745816234704193
 30
0.0
  0
VERTEX
  5
2B36A
  8
0
  6
CONTINUOUS
 10
2.1500752793112952
 20
1.745816234704193
 30
0.0
  0
SEQEND
  5
2B36B
  8
0
  6
CONTINUOUS
  0
ENDBLK
  5
2B36D
  8
0
  0
BLOCK
  8
0
  2
*U183
 70
     1
 10
0.0
 20
0.0
 30
0.0
  3
*U183
  1

  0
TEXT
  5
2B36F
  8
0
 10
2.20848250987064
 20
1.6828046385241111
 30
0.0
 40
0.125
  1
TL-266
  0
ENDBLK
  5
2B371
  8
0
  0
BLOCK
  8
0
  2
*U184
 70
     1
 10
0.0
 20
0.0
 30
0.0
  3
*U184
  1

  0
INSERT
  5
2B373
  8
0
  6
CONTINUOUS
  2
_OPEN30
 10
0.7500004105942253
 20
6.3960963538685291
 30
0.0
 41
0.046875
 42
0.046875
 43
0.046875
 50
219.47434747209351
  0
POLYLINE
  5
2B374
  8
0
  6
CONTINUOUS
 66
     1
 10
0.0
 20
0.0
 30
0.0
  0
VERTEX
  5
2B375
  8
0
  6
CONTINUOUS
 10
0.7861836586409798
 20
6.4258963234286979
 30
0.0
  0
VERTEX
  5
2B376
  8
0
  6
CONTINUOUS
 10
1.374056000801033
 20
6.9100589911637371
 30
0.0
  0
VERTEX
  5
2B377
  8
0
  6
CONTINUOUS
 10
1.5384924777565061
 20
6.9100589911637371
 30
0.0
  0
SEQEND
  5
2B378
  8
0
  6
CONTINUOUS
  0
ENDBLK
  5
2B37A
  8
0
  0
BLOCK
  8
0
  2
*U185
 70
     1
 10
0.0
 20
0.0
 30
0.0
  3
*U185
  1

  0
TEXT
  5
2B37C
  8
0
 10
1.5968997083158509
 20
6.8473031930736958
 30
0.0
 40
0.125
  1
TL-550
  0
ENDBLK
  5
2B37E
  8
0
  0
BLOCK
  8
0
  2
*U186
 70
     1
 10
0.0
 20
0.0
 30
0.0
  3
*U186
  1

  0
INSERT
  5
2B380
  8
0
  6
CONTINUOUS
  2
_OPEN30
 10
0.7500004105942253
 20
2.53267018701797
 30
0.0
 41
0.046875
 42
0.046875
 43
0.046875
 50
222.22478218143399
  0
POLYLINE
  5
2B381
  8
0
  6
CONTINUOUS
 66
     1
 10
0.0
 20
0.0
 30
0.0
  0
VERTEX
  5
2B382
  8
0
  6
CONTINUOUS
 10
0.7847120037465148
 20
2.5641721064171099
 30
0.0
  0
VERTEX
  5
2B383
  8
0
  6
CONTINUOUS
 10
1.5311175519539111
 20
3.2415598401215671
 30
0.0
  0
VERTEX
  5
2B384
  8
0
  6
CONTINUOUS
 10
1.6247289838881891
 20
3.2416177465441929
 30
0.0
  0
SEQEND
  5
2B385
  8
0
  6
CONTINUOUS
  0
ENDBLK
  5
2B387
  8
0
  0
BLOCK
  8
0
  2
*U187
 70
     1
 10
0.0
 20
0.0
 30
0.0
  3
*U187
  1

  0
TEXT
  5
2B389
  8
0
 10
1.6831362144475339
 20
3.178861948454152
 30
0.0
 40
0.125
  1
TL-551
  0
ENDBLK
  5
2B38B
  8
0
  0
BLOCK
  8
0
  2
*U188
 70
     1
 10
0.0
 20
0.0
 30
0.0
  3
*U188
  1

  0
INSERT
  5
2B38D
  8
0
  6
CONTINUOUS
  2
_OPEN30
 10
1.04738175721161
 20
0.4967917735383481
 30
0.0
 41
0.046875
 42
0.046875
 43
0.046875
 50
212.67418530855349
  0
POLYLINE
  5
2B38E
  8
0
  6
CONTINUOUS
 66
     1
 10
0.0
 20
0.0
 30
0.0
  0
VERTEX
  5
2B38F
  8
0
  6
CONTINUOUS
 10
1.0868389807680281
 20
0.5220977636240739
 30
0.0
  0
VERTEX
  5
2B390
  8
0
  6
CONTINUOUS
 10
1.4785839895729389
 20
0.7733444154513336
 30
0.0
  0
VERTEX
  5
2B391
  8
0
  6
CONTINUOUS
 10
1.535363721355395
 20
0.7733444154513336
 30
0.0
  0
SEQEND
  5
2B392
  8
0
  6
CONTINUOUS
  0
ENDBLK
  5
2B394
  8
0
  0
BLOCK
  8
0
  2
*U189
 70
     1
 10
0.0
 20
0.0
 30
0.0
  3
*U189
  1

  0
TEXT
  5
2B396
  8
0
 10
1.5937709519147401
 20
0.7105886173612928
 30
0.0
 40
0.125
  1
TL-127
  0
ENDBLK
  5
2B398
  8
0
  0
BLOCK
  8
0
  2
*U190
 70
     1
 10
0.0
 20
0.0
 30
0.0
  3
*U190
  1

  0
TEXT
  5
2B39A
  8
0
 10
2.1409458709672249
 20
2.6869009874993699
 30
0.0
 40
0.125
  1
Base Board Assembly
  0
TEXT
  5
2B39B
  8
0
 10
2.1496430060286169
 20
2.4780560579859552
 30
0.0
 40
0.125
  1
TL-682
  0
TEXT
  5
2B39C
  8
0
 10
2.1347214507762291
 20
2.2675910739022811
 30
0.0
 40
0.125
  1
1-1/16" x 7-3/8"
  0
TEXT
  5
2B39D
  8
0
 10
2.146658694978139
 20
2.057126089818607
 30
0.0
 40
0.125
  1
800.66.TAGUE
  0
ENDBLK
  5
2B39F
  8
0
  0
BLOCK
  8
0
  2
*U191
 70
     1
 10
0.0
 20
0.0
 30
0.0
  3
*U191
  1

  0
TEXT
  5
2B3A1
  8
0
 10
2.290801695922692
 20
2.6689022993974731
 30
0.0
 40
0.125
  1
Base Board Assembly
  0
TEXT
  5
2B3A2
  8
0
 10
2.2994988309840831
 20
2.4600573698840571
 30
0.0
 40
0.125
  1
TL-683
  0
TEXT
  5
2B3A3
  8
0
 10
2.2845772757316962
 20
2.249592385800383
 30
0.0
 40
0.125
  1
1-1/8" x 5-15/16"
  0
TEXT
  5
2B3A4
  8
0
 10
2.2965145199336061
 20
2.0391274017167089
 30
0.0
 40
0.125
  1
800.66.TAGUE
  0
ENDBLK
  5
2B3A6
  8
0
  0
BLOCK
  8
0
  2
*U192
 70
     1
 10
0.0
 20
0.0
 30
0.0
  3
*U192
  1

  0
INSERT
  5
2B3A8
  8
0
  6
CONTINUOUS
  2
_OPEN30
 10
1.12500054900903
 20
5.65624955358237
 30
0.0
 41
0.046875
 42
0.046875
 43
0.046875
 50
212.76268937863
  0
POLYLINE
  5
2B3A9
  8
0
  6
CONTINUOUS
 66
     1
 10
0.0
 20
0.0
 30
0.0
  0
VERTEX
  5
2B3AA
  8
0
  6
CONTINUOUS
 10
1.164418635662722
 20
5.6816164625300907
 30
0.0
  0
VERTEX
  5
2B3AB
  8
0
  6
CONTINUOUS
 10
1.5566905795914741
 20
5.9340570939541522
 30
0.0
  0
VERTEX
  5
2B3AC
  8
0
  6
CONTINUOUS
 10
1.625384535953855
 20
5.9340570939541522
 30
0.0
  0
SEQEND
  5
2B3AD
  8
0
  6
CONTINUOUS
  0
ENDBLK
  5
2B3AF
  8
0
  0
BLOCK
  8
0
  2
*U193
 70
     1
 10
0.0
 20
0.0
 30
0.0
  3
*U193
  1

  0
TEXT
  5
2B3B1
  8
0
 10
1.6837917665132001
 20
5.8710454977740696
 30
0.0
 40
0.125
  1
TL-522
  0
ENDBLK
  5
2B3B3
  8
0
  0
BLOCK
  8
0
  2
*U194
 70
     1
 10
0.0
 20
0.0
 30
0.0
  3
*U194
  1

  0
INSERT
  5
2B3B5
  8
0
  6
CONTINUOUS
  2
_OPEN30
 10
1.2500005459876879
 20
0.2499995505611423
 30
0.0
 41
0.046875
 42
0.046875
 43
0.046875
 50
202.31861548713121
  0
POLYLINE
  5
2B3B6
  8
0
  6
CONTINUOUS
 66
     1
 10
0.0
 20
0.0
 30
0.0
  0
VERTEX
  5
2B3B7
  8
0
  6
CONTINUOUS
 10
1.293363970221912
 20
0.2678006478217807
 30
0.0
  0
VERTEX
  5
2B3B8
  8
0
  6
CONTINUOUS
 10
2.1572010681318261
 20
0.6224139761923198
 30
0.0
  0
VERTEX
  5
2B3B9
  8
0
  6
CONTINUOUS
 10
2.2687807536349851
 20
0.626210466030102
 30
0.0
  0
SEQEND
  5
2B3BA
  8
0
  6
CONTINUOUS
  0
ENDBLK
  5
2B3BC
  8
0
  0
BLOCK
  8
0
  2
*U195
 70
     1
 10
0.0
 20
0.0
 30
0.0
  3
*U195
  1

  0
TEXT
  5
2B3BE
  8
0
 10
2.3271879841943299
 20
0.5634546679400611
 30
0.0
 40
0.125
  1
TL-126
  0
ENDBLK
  5
2B3C0
  8
0
  0
BLOCK
  8
0
  2
*U196
 70
     1
 10
0.0
 20
0.0
 30
0.0
  3
*U196
  1

  0
INSERT
  5
2B3C2
  8
0
  6
CONTINUOUS
  2
_OPEN30
 10
0.7500005490090304
 20
2.74999955358237
 30
0.0
 41
0.046875
 42
0.046875
 43
0.046875
 50
202.16313132933621
  0
POLYLINE
  5
2B3C3
  8
0
  6
CONTINUOUS
 66
     1
 10
0.0
 20
0.0
 30
0.0
  0
VERTEX
  5
2B3C4
  8
0
  6
CONTINUOUS
 10
0.7934121205394016
 20
2.7676829096626911
 30
0.0
  0
VERTEX
  5
2B3C5
  8
0
  6
CONTINUOUS
 10
1.403356379662966
 20
3.0161388199879862
 30
0.0
  0
VERTEX
  5
2B3C6
  8
0
  6
CONTINUOUS
 10
1.4759478210543191
 20
3.0161388199879862
 30
0.0
  0
SEQEND
  5
2B3C7
  8
0
  6
CONTINUOUS
  0
ENDBLK
  5
2B3C9
  8
0
  0
BLOCK
  8
0
  2
*U197
 70
     1
 10
0.0
 20
0.0
 30
0.0
  3
*U197
  1

  0
TEXT
  5
2B3CB
  8
0
 10
1.5194334963612759
 20
2.9533830218979449
 30
0.0
 40
0.125
  1
1 x 6
  0
ENDBLK
  5
2B3CD
  8
0
  0
BLOCK
  8
0
  2
*U198
 70
     1
 10
0.0
 20
0.0
 30
0.0
  3
*U198
  1

  0
TEXT
  5
2B3CF
  8
0
 10
2.704137288033603
 20
3.332115229613577
 30
0.0
 40
0.125
  1
Base Board Assembly
  0
TEXT
  5
2B3D0
  8
0
 10
2.712834423094995
 20
3.1232703001001618
 30
0.0
 40
0.125
  1
TL-684
  0
TEXT
  5
2B3D1
  8
0
 10
2.6979128678426072
 20
2.9128053160164882
 30
0.0
 40
0.125
  1
1-1/4" x 7-1/8"
  0
TEXT
  5
2B3D2
  8
0
 10
2.7098501120445171
 20
2.7023403319328141
 30
0.0
 40
0.125
  1
800.66.TAGUE
  0
ENDBLK
  5
2B3D4
  8
0
  0
BLOCK
  8
0
  2
*U199
 70
     1
 10
0.0
 20
0.0
 30
0.0
  3
*U199
  1

  0
INSERT
  5
2B3D6
  8
0
  6
CONTINUOUS
  2
_OPEN30
 10
0.7451914169819816
 20
2.7500006434855768
 30
0.0
 41
0.046875
 42
0.046875
 43
0.046875
 50
202.16313132933621
  0
POLYLINE
  5
2B3D7
  8
0
  6
CONTINUOUS
 66
     1
 10
0.0
 20
0.0
 30
0.0
  0
VERTEX
  5
2B3D8
  8
0
  6
CONTINUOUS
 10
0.7886029885123529
 20
2.7676839995658988
 30
0.0
  0
VERTEX
  5
2B3D9
  8
0
  6
CONTINUOUS
 10
1.3985472476359171
 20
3.0161399098911938
 30
0.0
  0
VERTEX
  5
2B3DA
  8
0
  6
CONTINUOUS
 10
1.47113868902727
 20
3.0161399098911938
 30
0.0
  0
SEQEND
  5
2B3DB
  8
0
  6
CONTINUOUS
  0
ENDBLK
  5
2B3DD
  8
0
  0
BLOCK
  8
0
  2
*U200
 70
     1
 10
0.0
 20
0.0
 30
0.0
  3
*U200
  1

  0
TEXT
  5
2B3DF
  8
0
 10
1.5146243643342281
 20
2.953384111801153
 30
0.0
 40
0.125
  1
1 x 6
  0
ENDBLK
  5
2B3E1
  8
0
  0
BLOCK
  8
0
  2
*U201
 70
     1
 10
0.0
 20
0.0
 30
0.0
  3
*U201
  1

  0
INSERT
  5
2B3E3
  8
0
  6
CONTINUOUS
  2
_OPEN30
 10
1.1801914169819829
 20
0.4698936434855341
 30
0.0
 41
0.046875
 42
0.046875
 43
0.046875
 50
202.3186154871324
  0
POLYLINE
  5
2B3E4
  8
0
  6
CONTINUOUS
 66
     1
 10
0.0
 20
0.0
 30
0.0
  0
VERTEX
  5
2B3E5
  8
0
  6
CONTINUOUS
 10
1.2235548412162069
 20
0.4876947407461734
 30
0.0
  0
VERTEX
  5
2B3E6
  8
0
  6
CONTINUOUS
 10
2.0873919391260638
 20
0.8423080691167115
 30
0.0
  0
VERTEX
  5
2B3E7
  8
0
  6
CONTINUOUS
 10
2.1989716246292801
 20
0.8461045589546075
 30
0.0
  0
SEQEND
  5
2B3E8
  8
0
  6
CONTINUOUS
  0
ENDBLK
  5
2B3EA
  8
0
  0
BLOCK
  8
0
  2
*U202
 70
     1
 10
0.0
 20
0.0
 30
0.0
  3
*U202
  1

  0
TEXT
  5
2B3EC
  8
0
 10
2.2573788551886249
 20
0.7830929627745256
 30
0.0
 40
0.125
  1
TL-936
  0
ENDBLK
  5
2B3EE
  8
0
  0
BLOCK
  8
0
  2
*U203
 70
     1
 10
0.0
 20
0.0
 30
0.0
  3
*U203
  1

  0
INSERT
  5
2B3F0
  8
0
  6
CONTINUOUS
  2
_OPEN30
 10
1.1140370353124349
 20
6.0172615651794104
 30
0.0
 41
0.046875
 42
0.046875
 43
0.046875
 50
212.76268937861931
  0
POLYLINE
  5
2B3F1
  8
0
  6
CONTINUOUS
 66
     1
 10
0.0
 20
0.0
 30
0.0
  0
VERTEX
  5
2B3F2
  8
0
  6
CONTINUOUS
 10
1.153455121966132
 20
6.0426284741271239
 30
0.0
  0
VERTEX
  5
2B3F3
  8
0
  6
CONTINUOUS
 10
1.5457270658948801
 20
6.2950691055510779
 30
0.0
  0
VERTEX
  5
2B3F4
  8
0
  6
CONTINUOUS
 10
1.614421022257261
 20
6.2950691055510779
 30
0.0
  0
SEQEND
  5
2B3F5
  8
0
  6
CONTINUOUS
  0
ENDBLK
  5
2B3F7
  8
0
  0
BLOCK
  8
0
  2
*U204
 70
     1
 10
0.0
 20
0.0
 30
0.0
  3
*U204
  1

  0
TEXT
  5
2B3F9
  8
0
 10
1.6728282528166061
 20
6.2320575093709971
 30
0.0
 40
0.125
  1
TL-64
  0
ENDBLK
  5
2B3FB
  8
0
  0
BLOCK
  8
0
  2
*U205
 70
     1
 10
0.0
 20
0.0
 30
0.0
  3
*U205
  1

  0
INSERT
  5
2B3FD
  8
0
  2
_OPEN30
 10
0.7499984483362711
 20
3.323717158281283
 30
0.0
 41
0.046875
 42
0.046875
 43
0.046875
 50
223.3453603417224
  0
POLYLINE
  5
2B3FE
  8
0
 66
     1
 10
0.0
 20
0.0
 30
0.0
  0
VERTEX
  5
2B3FF
  8
0
 10
0.7840873347090377
 20
3.3558918913938451
 30
0.0
  0
VERTEX
  5
2B400
  8
0
 10
1.5886209634041959
 20
4.1152494867193354
 30
0.0
  0
VERTEX
  5
2B401
  8
0
 10
1.696609421136031
 20
4.1152494867193354
 30
0.0
  0
SEQEND
  5
2B402
  8
0
  0
ENDBLK
  5
2B404
  8
0
  0
BLOCK
  8
0
  2
*U206
 70
     1
 10
0.0
 20
0.0
 30
0.0
  3
*U206
  1

  0
TEXT
  5
2B406
  8
0
 10
1.755016651695376
 20
4.0522378905392529
 30
0.0
 40
0.125
  1
TL-AB212
  0
ENDBLK
  5
2B408
  8
0
  0
BLOCK
  8
0
  2
*U207
 70
     1
 10
0.0
 20
0.0
 30
0.0
  3
*U207
  1

  0
INSERT
  5
2B40A
  8
0
  2
_OPEN30
 10
1.044936595452554
 20
0.5089059855812366
 30
0.0
 41
0.046875
 42
0.046875
 43
0.046875
 50
218.32432662178419
  0
POLYLINE
  5
2B40B
  8
0
 66
     1
 10
0.0
 20
0.0
 30
0.0
  0
VERTEX
  5
2B40C
  8
0
 10
1.0817106495577451
 20
0.5379737438310308
 30
0.0
  0
VERTEX
  5
2B40D
  8
0
 10
1.624617115981436
 20
0.9671098372601819
 30
0.0
  0
VERTEX
  5
2B40E
  8
0
 10
1.7056084592803691
 20
0.9671098372601819
 30
0.0
  0
SEQEND
  5
2B40F
  8
0
  0
ENDBLK
  5
2B411
  8
0
  0
BLOCK
  8
0
  2
*U208
 70
     1
 10
0.0
 20
0.0
 30
0.0
  3
*U208
  1

  0
TEXT
  5
2B413
  8
0
 10
1.7640156898397139
 20
0.9043540391701409
 30
0.0
 40
0.125
  1
TL-AB027
  0
ENDBLK
  5
2B415
  8
0
  0
BLOCK
  8
0
  2
*U209
 70
     1
 10
0.0
 20
0.0
 30
0.0
  3
*U209
  1

  0
TEXT
  5
2B417
  8
0
 10
2.1745549234235391
 20
2.6225473309813192
 30
0.0
 40
0.125
  1
Base Board Assembly
  0
TEXT
  5
2B418
  8
0
 10
2.1832520584849302
 20
2.413702401467904
 30
0.0
 40
0.125
  1
TL-685
  0
TEXT
  5
2B419
  8
0
 10
2.1683305032325428
 20
2.2032374173842291
 30
0.0
 40
0.125
  1
1-1/4" x 5-1/2"
  0
TEXT
  5
2B41A
  8
0
 10
2.1802677474344532
 20
1.992772433300555
 30
0.0
 40
0.125
  1
800.66.TAGUE
  0
ENDBLK
  5
2B41C
  8
0
  0
BLOCK
  8
0
  2
*U210
 70
     1
 10
0.0
 20
0.0
 30
0.0
  3
*U210
  1

  0
INSERT
  5
2B41E
  8
0
  2
_OPEN30
 10
1.237403731795552
 20
0.7228374639378217
 30
0.0
 41
0.046875
 42
0.046875
 43
0.046875
 50
218.32432662178419
  0
POLYLINE
  5
2B41F
  8
0
 66
     1
 10
0.0
 20
0.0
 30
0.0
  0
VERTEX
  5
2B420
  8
0
 10
1.274177785900743
 20
0.7519052221876159
 30
0.0
  0
VERTEX
  5
2B421
  8
0
 10
1.8170842523244339
 20
1.1810413156167661
 30
0.0
  0
VERTEX
  5
2B422
  8
0
 10
1.898075595623367
 20
1.1810413156167661
 30
0.0
  0
SEQEND
  5
2B423
  8
0
  0
ENDBLK
  5
2B425
  8
0
  0
BLOCK
  8
0
  2
*U211
 70
     1
 10
0.0
 20
0.0
 30
0.0
  3
*U211
  1

  0
TEXT
  5
2B427
  8
0
 10
1.9564828261827121
 20
1.1180297194366851
 30
0.0
 40
0.125
  1
TL-AB205-2
  0
ENDBLK
  5
2B429
  8
0
  0
BLOCK
  8
0
  2
*U212
 70
     1
 10
0.0
 20
0.0
 30
0.0
  3
*U212
  1

  0
INSERT
  5
2B42B
  8
0
  2
_OPEN30
 10
0.7805394140341379
 20
3.428009497764946
 30
0.0
 41
0.046875
 42
0.046875
 43
0.046875
 50
223.3453603417224
  0
POLYLINE
  5
2B42C
  8
0
 66
     1
 10
0.0
 20
0.0
 30
0.0
  0
VERTEX
  5
2B42D
  8
0
 10
0.8146283004069044
 20
3.460184230877509
 30
0.0
  0
VERTEX
  5
2B42E
  8
0
 10
1.619161929102062
 20
4.219541826202998
 30
0.0
  0
VERTEX
  5
2B42F
  8
0
 10
1.727150386833898
 20
4.219541826202998
 30
0.0
  0
SEQEND
  5
2B430
  8
0
  0
ENDBLK
  5
2B432
  8
0
  0
BLOCK
  8
0
  2
*U213
 70
     1
 10
0.0
 20
0.0
 30
0.0
  3
*U213
  1

  0
TEXT
  5
2B434
  8
0
 10
1.785557617393243
 20
4.1565302300229172
 30
0.0
 40
0.125
  1
TL-AB205-1
  0
ENDBLK
  5
2B436
  8
0
  0
BLOCK
  8
0
  2
*U214
 70
     1
 10
0.0
 20
0.0
 30
0.0
  3
*U214
  1

  0
TEXT
  5
2B438
  8
0
 10
1.775461282784117
 20
2.9617887573592721
 30
0.0
 40
0.125
  1
Base Board Assembly
  0
TEXT
  5
2B439
  8
0
 10
1.784158417845509
 20
2.7529438278458569
 30
0.0
 40
0.125
  1
TL-686
  0
TEXT
  5
2B43A
  8
0
 10
1.769236862593121
 20
2.5424788437621819
 30
0.0
 40
0.125
  1
1-1/4" x 6"
  0
TEXT
  5
2B43B
  8
0
 10
1.7811741067950311
 20
2.3320138596785078
 30
0.0
 40
0.125
  1
800.66.TAGUE
  0
ENDBLK
  5
2B43D
  8
0
  0
BLOCK
  8
0
  2
*U215
 70
     1
 10
0.0
 20
0.0
 30
0.0
  3
*U215
  1

  0
TEXT
  5
2B43F
  8
0
 10
1.8629812104003169
 20
1.3751718201384611
 30
0.0
 40
0.125
  1
Base Board
  0
TEXT
  5
2B440
  8
0
 10
1.8716783454617081
 20
1.1663268906250459
 30
0.0
 40
0.125
  1
TL-540
  0
TEXT
  5
2B441
  8
0
 10
1.8567567902093209
 20
0.9558619065413724
 30
0.0
 40
0.125
  1
1-1/16" x 1-7/8"
  0
TEXT
  5
2B442
  8
0
 10
1.8686940344112311
 20
0.745396922457698
 30
0.0
 40
0.125
  1
800.66.TAGUE
  0
ENDBLK
  5
2B444
  8
0
  0
BLOCK
  8
0
  2
*U216
 70
     1
 10
0.0
 20
0.0
 30
0.0
  3
*U216
  1

  0
TEXT
  5
2B446
  8
0
 10
2.095166123738732
 20
2.843700788541923
 30
0.0
 40
0.125
  1
Base Board
  0
TEXT
  5
2B447
  8
0
 10
2.1038632588001231
 20
2.6348558590285078
 30
0.0
 40
0.125
  1
TL-541
  0
TEXT
  5
2B448
  8
0
 10
2.0889417035477358
 20
2.4243908749448329
 30
0.0
 40
0.125
  1
1-5/16" x 5-1/8"
  0
TEXT
  5
2B449
  8
0
 10
2.1008789477496461
 20
2.2139258908611592
 30
0.0
 40
0.125
  1
800.66.TAGUE
  0
ENDBLK
  5
2B44B
  8
0
  0
BLOCK
  8
0
  2
*U217
 70
     1
 10
0.0
 20
0.0
 30
0.0
  3
*U217
  1

  0
TEXT
  5
2B44D
  8
0
 10
1.3029084100507859
 20
2.5127676930541152
 30
0.0
 40
0.125
  1
Base Board
  0
TEXT
  5
2B44E
  8
0
 10
1.3116055451121771
 20
2.3039227635407
 30
0.0
 40
0.125
  1
TL-36
  0
TEXT
  5
2B44F
  8
0
 10
1.3084507020016729
 20
2.093457779457025
 30
0.0
 40
0.125
  1
9/16" x 5-1/16"
  0
TEXT
  5
2B450
  8
0
 10
1.3086212340617001
 20
1.882992795373351
 30
0.0
 40
0.125
  1
800.66.TAGUE
  0
ENDBLK
  5
2B452
  8
0
  0
BLOCK
  8
0
  2
*U218
 70
     1
 10
0.0
 20
0.0
 30
0.0
  3
*U218
  1

  0
TEXT
  5
2B454
  8
0
 10
1.1612344098374301
 20
2.1628857347385511
 30
0.0
 40
0.125
  1
Base Board
  0
TEXT
  5
2B455
  8
0
 10
1.169931544898821
 20
1.9540408052251359
 30
0.0
 40
0.125
  1
TL-543
  0
TEXT
  5
2B456
  8
0
 10
1.1667767017883159
 20
1.743575821141462
 30
0.0
 40
0.125
  1
9/16" x 4-3/16"
  0
TEXT
  5
2B457
  8
0
 10
1.1669472338483431
 20
1.5331108370577871
 30
0.0
 40
0.125
  1
800.66.TAGUE
  0
ENDBLK
  5
2B459
  8
0
  0
BLOCK
  8
0
  2
*U219
 70
     1
 10
0.0
 20
0.0
 30
0.0
  3
*U219
  1

  0
TEXT
  5
2B45B
  8
0
 10
1.038992604214154
 20
2.7540114932149891
 30
0.0
 40
0.125
  1
Base Board
  0
TEXT
  5
2B45C
  8
0
 10
1.0476897392755451
 20
2.545166563701573
 30
0.0
 40
0.125
  1
TL-618
  0
TEXT
  5
2B45D
  8
0
 10
1.0445348961650409
 20
2.3347015796178989
 30
0.0
 40
0.125
  1
9/16" x 5-1/4"
  0
TEXT
  5
2B45E
  8
0
 10
1.0447054282250681
 20
2.1242365955342248
 30
0.0
 40
0.125
  1
800.66.TAGUE
  0
ENDBLK
  5
2B460
  8
0
  0
BLOCK
  8
0
  2
*U220
 70
     1
 10
0.0
 20
0.0
 30
0.0
  3
*U220
  1

  0
TEXT
  5
2B462
  8
0
 10
1.182401194441109
 20
1.819766214437663
 30
0.0
 40
0.125
  1
Base Board
  0
TEXT
  5
2B463
  8
0
 10
1.1910983295024999
 20
1.610921284924248
 30
0.0
 40
0.125
  1
TL-623
  0
TEXT
  5
2B464
  8
0
 10
1.1879434863919951
 20
1.400456300840573
 30
0.0
 40
0.125
  1
9/16" x 3-1/2"
  0
TEXT
  5
2B465
  8
0
 10
1.188114018452022
 20
1.189991316756899
 30
0.0
 40
0.125
  1
800.66.TAGUE
  0
ENDBLK
  5
2B467
  8
0
  0
BLOCK
  8
0
  2
*U221
 70
     1
 10
0.0
 20
0.0
 30
0.0
  3
*U221
  1

  0
TEXT
  5
2B469
  8
0
 10
1.300654159433843
 20
1.884782119222677
 30
0.0
 40
0.125
  1
Base Board
  0
TEXT
  5
2B46A
  8
0
 10
1.309351294495235
 20
1.6759371897092621
 30
0.0
 40
0.125
  1
TL-713
  0
TEXT
  5
2B46B
  8
0
 10
1.30619645138473
 20
1.4654722056255871
 30
0.0
 40
0.125
  1
9/16" x 3-1/4"
  0
TEXT
  5
2B46C
  8
0
 10
1.3063669834447571
 20
1.255007221541913
 30
0.0
 40
0.125
  1
800.66.TAGUE
  0
ENDBLK
  5
2B46E
  8
0
  0
BLOCK
  8
0
  2
*U222
 70
     1
 10
0.0
 20
0.0
 30
0.0
  3
*U222
  1

  0
TEXT
  5
2B470
  8
0
 10
1.5968605762384229
 20
3.9529851600731258
 30
0.0
 40
0.125
  1
Base Board
  0
TEXT
  5
2B471
  8
0
 10
1.6055577112998141
 20
3.7441402305597111
 30
0.0
 40
0.125
  1
TL-602
  0
TEXT
  5
2B472
  8
0
 10
1.602317602159296
 20
3.5336752464760361
 30
0.0
 40
0.125
  1
3/4" x 9-1/4"
  0
TEXT
  5
2B473
  8
0
 10
1.602573400249337
 20
3.3232102623923621
 30
0.0
 40
0.125
  1
800.66.TAGUE
  0
ENDBLK
  5
2B475
  8
0
  0
BLOCK
  8
0
  2
*U223
 70
     1
 10
0.0
 20
0.0
 30
0.0
  3
*U223
  1

  0
TEXT
  5
2B477
  8
0
 10
1.524246887462577
 20
2.1988362265429942
 30
0.0
 40
0.125
  1
Base Board
  0
TEXT
  5
2B478
  8
0
 10
1.532944022523969
 20
1.989991297029579
 30
0.0
 40
0.125
  1
TL-603
  0
TEXT
  5
2B479
  8
0
 10
1.52970391338345
 20
1.779526312945904
 30
0.0
 40
0.125
  1
3/4" x 4-1/2"
  0
TEXT
  5
2B47A
  8
0
 10
1.5299597114734911
 20
1.5690613288622299
 30
0.0
 40
0.125
  1
800.66.TAGUE
  0
ENDBLK
  5
2B47C
  8
0
  0
BLOCK
  8
0
  2
*U224
 70
     1
 10
0.0
 20
0.0
 30
0.0
  3
*U224
  1

  0
TEXT
  5
2B47E
  8
0
 10
1.222563432627662
 20
2.8332029065544471
 30
0.0
 40
0.125
  1
Base Board
  0
TEXT
  5
2B47F
  8
0
 10
1.231260567689054
 20
2.6243579770410319
 30
0.0
 40
0.125
  1
TL-2143
  0
TEXT
  5
2B480
  8
0
 10
1.228020458548535
 20
2.4138929929573569
 30
0.0
 40
0.125
  1
3/4" x 5-1/4"
  0
TEXT
  5
2B481
  8
0
 10
1.2282762566385761
 20
2.2034280088736828
 30
0.0
 40
0.125
  1
800.66.TAGUE
  0
ENDBLK
  5
2B483
  8
0
  0
BLOCK
  8
0
  2
*U225
 70
     1
 10
0.0
 20
0.0
 30
0.0
  3
*U225
  1

  0
TEXT
  5
2B485
  8
0
 10
1.40527247153032
 20
2.9709364495405448
 30
0.0
 40
0.125
  1
Base Board
  0
TEXT
  5
2B486
  8
0
 10
1.4139696065917109
 20
2.7620915200271301
 30
0.0
 40
0.125
  1
TL-2001
  0
TEXT
  5
2B487
  8
0
 10
1.410729497451193
 20
2.5516265359434551
 30
0.0
 40
0.125
  1
3/4" x 7-1/4"
  0
TEXT
  5
2B488
  8
0
 10
1.4109852955412341
 20
2.341161551859781
 30
0.0
 40
0.125
  1
800.66.TAGUE
  0
ENDBLK
  5
2B48A
  8
0
  0
BLOCK
  8
0
  2
*U226
 70
     1
 10
0.0
 20
0.0
 30
0.0
  3
*U226
  1

  0
TEXT
  5
2B48C
  8
0
 10
1.28063331752558
 20
2.7081572525072479
 30
0.0
 40
0.125
  1
Base Board
  0
TEXT
  5
2B48D
  8
0
 10
1.289330452586972
 20
2.4993123229938332
 30
0.0
 40
0.125
  1
TL-2022
  0
TEXT
  5
2B48E
  8
0
 10
1.286090343446453
 20
2.2888473389101591
 30
0.0
 40
0.125
  1
3/4" x 5-1/2"
  0
TEXT
  5
2B48F
  8
0
 10
1.2863461415364941
 20
2.078382354826485
 30
0.0
 40
0.125
  1
800.66.TAGUE
  0
ENDBLK
  5
2B491
  8
0
  0
BLOCK
  8
0
  2
*U227
 70
     1
 10
0.0
 20
0.0
 30
0.0
  3
*U227
  1

  0
TEXT
  5
2B493
  8
0
 10
1.3261446082858399
 20
3.4366400904110601
 30
0.0
 40
0.125
  1
Base Board
  0
TEXT
  5
2B494
  8
0
 10
1.334841743347231
 20
3.227795160897645
 30
0.0
 40
0.125
  1
TL-2153
  0
TEXT
  5
2B495
  8
0
 10
1.3338185509870679
 20
3.01733017681397
 30
0.0
 40
0.125
  1
27/32" x 7-1/4"
  0
TEXT
  5
2B496
  8
0
 10
1.331857432296754
 20
2.8068651927302959
 30
0.0
 40
0.125
  1
800.66.TAGUE
  0
ENDBLK
  5
2B498
  8
0
  0
BLOCK
  8
0
  2
*U228
 70
     1
 10
0.0
 20
0.0
 30
0.0
  3
*U228
  1

  0
TEXT
  5
2B49A
  8
0
 10
1.503489615688391
 20
2.5863204410039771
 30
0.0
 40
0.125
  1
Base Board
  0
TEXT
  5
2B49B
  8
0
 10
1.5121867507497819
 20
2.377475511490561
 30
0.0
 40
0.125
  1
TL-2165
  0
TEXT
  5
2B49C
  8
0
 10
1.5080087152791131
 20
2.1670105274068869
 30
0.0
 40
0.125
  1
7/8" x 6"
  0
TEXT
  5
2B49D
  8
0
 10
1.509202439699304
 20
1.9565455433232131
 30
0.0
 40
0.125
  1
800.66.TAGUE
  0
ENDBLK
  5
2B49F
  8
0
  0
BLOCK
  8
0
  2
*U229
 70
     1
 10
0.0
 20
0.0
 30
0.0
  3
*U229
  1

  0
TEXT
  5
2B4A1
  8
0
 10
1.5064754642446401
 20
2.3208047060226131
 30
0.0
 40
0.125
  1
Base Board
  0
TEXT
  5
2B4A2
  8
0
 10
1.5151725993060321
 20
2.111959776509198
 30
0.0
 40
0.125
  1
TL-2189
  0
TEXT
  5
2B4A3
  8
0
 10
1.511932490165514
 20
1.901494792425523
 30
0.0
 40
0.125
  1
3/4" x 4-7/8"
  0
TEXT
  5
2B4A4
  8
0
 10
1.512188288255554
 20
1.6910298083418489
 30
0.0
 40
0.125
  1
800.66.TAGUE
  0
ENDBLK
  5
2B4A6
  8
0
  0
BLOCK
  8
0
  2
*U230
 70
     1
 10
0.0
 20
0.0
 30
0.0
  3
*U230
  1

  0
TEXT
  5
2B4A8
  8
0
 10
1.548400335642536
 20
1.277467791325875
 30
0.0
 40
0.125
  1
Base Board
  0
TEXT
  5
2B4A9
  8
0
 10
1.557097470703928
 20
1.06862286181246
 30
0.0
 40
0.125
  1
TL-550
  0
TEXT
  5
2B4AA
  8
0
 10
1.553857361563409
 20
0.858157877728786
 30
0.0
 40
0.125
  1
3/4" x 2-3/16"
  0
TEXT
  5
2B4AB
  8
0
 10
1.5541131596534501
 20
0.6476928936451117
 30
0.0
 40
0.125
  1
800.66.TAGUE
  0
ENDBLK
  5
2B4AD
  8
0
  0
BLOCK
  8
0
  2
*U231
 70
     1
 10
0.0
 20
0.0
 30
0.0
  3
*U231
  1

  0
TEXT
  5
2B4AF
  8
0
 10
1.288066291210707
 20
2.8139586047301459
 30
0.0
 40
0.125
  1
Base Board
  0
TEXT
  5
2B4B0
  8
0
 10
1.2967634262720991
 20
2.6051136752167312
 30
0.0
 40
0.125
  1
TL-551
  0
TEXT
  5
2B4B1
  8
0
 10
1.2935233171315801
 20
2.3946486911330558
 30
0.0
 40
0.125
  1
3/4" x 5-1/2"
  0
TEXT
  5
2B4B2
  8
0
 10
1.2937791152216209
 20
2.1841837070493821
 30
0.0
 40
0.125
  1
800.66.TAGUE
  0
ENDBLK
  5
2B4B4
  8
0
  0
BLOCK
  8
0
  2
*U232
 70
     1
 10
0.0
 20
0.0
 30
0.0
  3
*U232
  1

  0
TEXT
  5
2B4B6
  8
0
 10
1.8159948421621079
 20
3.2870887232147652
 30
0.0
 40
0.125
  1
Base Board
  0
TEXT
  5
2B4B7
  8
0
 10
1.8246919772235
 20
3.07824379370135
 30
0.0
 40
0.125
  1
TL-2231
  0
TEXT
  5
2B4B8
  8
0
 10
1.8205139417528311
 20
2.8677788096176751
 30
0.0
 40
0.125
  1
7/8" x 6-3/8"
  0
TEXT
  5
2B4B9
  8
0
 10
1.821707666173022
 20
2.657313825534001
 30
0.0
 40
0.125
  1
800.66.TAGUE
  0
ENDBLK
  5
2B4BB
  8
0
  0
BLOCK
  8
0
  2
*U233
 70
     1
 10
0.0
 20
0.0
 30
0.0
  3
*U233
  1

  0
TEXT
  5
2B4BD
  8
0
 10
1.78408614611963
 20
2.2765211976219462
 30
0.0
 40
0.125
  1
Base Board
  0
TEXT
  5
2B4BE
  8
0
 10
1.7927832811810209
 20
2.067676268108531
 30
0.0
 40
0.125
  1
TL-2266
  0
TEXT
  5
2B4BF
  8
0
 10
1.7895431720405031
 20
1.857211284024856
 30
0.0
 40
0.125
  1
3/4" x 5-1/2"
  0
TEXT
  5
2B4C0
  8
0
 10
1.7897989701305439
 20
1.6467462999411819
 30
0.0
 40
0.125
  1
800.66.TAGUE
  0
ENDBLK
  5
2B4C2
  8
0
  0
BLOCK
  8
0
  2
*U234
 70
     1
 10
0.0
 20
0.0
 30
0.0
  3
*U234
  1

  0
TEXT
  5
2B4C4
  8
0
 10
1.6156709723986571
 20
2.0615835911685281
 30
0.0
 40
0.125
  1
Base Board
  0
TEXT
  5
2B4C5
  8
0
 10
1.624368107460048
 20
1.8527386616551129
 30
0.0
 40
0.125
  1
TL-2284
  0
TEXT
  5
2B4C6
  8
0
 10
1.623327861893882
 20
1.6799953692494729
 30
0.0
 40
0.0875
  1
3
  0
LINE
  5
2B4C7
  8
0
 10
1.6501550442224879
 20
1.6083195653741871
 30
0.0
 11
1.750530920583921
 21
1.7516711731247601
 31
0.0
  0
TEXT
  5
2B4C8
  8
0
 10
1.713374473990289
 20
1.5633287025828071
 30
0.0
 40
0.0875
  1
4
  0
TEXT
  5
2B4C9
  8
0
 10
1.7812973934991569
 20
1.592495369249473
 30
0.0
 40
0.125
  1
" x 4"
  0
TEXT
  5
2B4CA
  8
0
 10
1.621383796409571
 20
1.4236970518324661
 30
0.0
 40
0.125
  1
800.66.TAGUE
  0
ENDBLK
  5
2B4CC
  8
0
  0
BLOCK
  8
0
  2
*U235
 70
     1
 10
0.0
 20
0.0
 30
0.0
  3
*U235
  1

  0
TEXT
  5
2B4CE
  8
0
 10
1.985809015314014
 20
3.2420859682381429
 30
0.0
 40
0.125
  1
Base Board
  0
TEXT
  5
2B4CF
  8
0
 10
1.9945061503754049
 20
3.0332410387247282
 30
0.0
 40
0.125
  1
TL-2312
  0
TEXT
  5
2B4D0
  8
0
 10
1.991266041234887
 20
2.8227760546410532
 30
0.0
 40
0.125
  1
3/4" x 5-1/2"
  0
TEXT
  5
2B4D1
  8
0
 10
1.9915218393249281
 20
2.6123110705573791
 30
0.0
 40
0.125
  1
800.66.TAGUE
  0
ENDBLK
  5
2B4D3
  8
0
  0
BLOCK
  8
0
  2
*U236
 70
     1
 10
0.0
 20
0.0
 30
0.0
  3
*U236
  1

  0
TEXT
  5
2B4D5
  8
0
 10
1.5904625436382209
 20
1.187343171125592
 30
0.0
 40
0.125
  1
Base Cap
  0
TEXT
  5
2B4D6
  8
0
 10
1.5991596786996121
 20
0.9784982416121771
 30
0.0
 40
0.125
  1
TL-19
  0
TEXT
  5
2B4D7
  8
0
 10
1.595919569559094
 20
0.7680332575285026
 30
0.0
 40
0.125
  1
3/4" x 1-11/16"
  0
TEXT
  5
2B4D8
  8
0
 10
1.5961753676491339
 20
0.5575682734448283
 30
0.0
 40
0.125
  1
800.66.TAGUE
  0
ENDBLK
  5
2B4DA
  8
0
  0
BLOCK
  8
0
  2
*U237
 70
     1
 10
0.0
 20
0.0
 30
0.0
  3
*U237
  1

  0
TEXT
  5
2B4DC
  8
0
 10
1.4253430714126509
 20
0.9125752017053105
 30
0.0
 40
0.125
  1
Base Cap
  0
TEXT
  5
2B4DD
  8
0
 10
1.4340402064740421
 20
0.7037302721918956
 30
0.0
 40
0.125
  1
TL-163
  0
TEXT
  5
2B4DE
  8
0
 10
1.4191186512216549
 20
0.493265288108221
 30
0.0
 40
0.125
  1
11/16" x 1-3/8"
  0
TEXT
  5
2B4DF
  8
0
 10
1.431055895423565
 20
0.2828003040245466
 30
0.0
 40
0.125
  1
800.66.TAGUE
  0
ENDBLK
  5
2B4E1
  8
0
  0
BLOCK
  8
0
  2
*U238
 70
     1
 10
0.0
 20
0.0
 30
0.0
  3
*U238
  1

  0
TEXT
  5
2B4E3
  8
0
 10
1.7853447687182711
 20
1.162173847628553
 30
0.0
 40
0.125
  1
Base Cap
  0
TEXT
  5
2B4E4
  8
0
 10
1.794041903779662
 20
0.9533289181151381
 30
0.0
 40
0.125
  1
TL-215
  0
TEXT
  5
2B4E5
  8
0
 10
1.789863868308994
 20
0.7428639340314637
 30
0.0
 40
0.125
  1
7/8" x 1-15/16"
  0
TEXT
  5
2B4E6
  8
0
 10
1.791057592729185
 20
0.5323989499477893
 30
0.0
 40
0.125
  1
800.66.TAGUE
  0
ENDBLK
  5
2B4E8
  8
0
  0
BLOCK
  8
0
  2
*U239
 70
     1
 10
0.0
 20
0.0
 30
0.0
  3
*U239
  1

  0
TEXT
  5
2B4EA
  8
0
 10
1.5358763075020461
 20
8.1022165940801347
 30
0.0
 40
0.125
  1
Base Cap
  0
TEXT
  5
2B4EB
  8
0
 10
1.5445734425634381
 20
7.89337166456672
 30
0.0
 40
0.125
  1
TL-230
  0
TEXT
  5
2B4EC
  8
0
 10
1.540395407092769
 20
7.682906680483045
 30
0.0
 40
0.125
  1
7/8" x 1-15/16"
  0
TEXT
  5
2B4ED
  8
0
 10
1.54158913151296
 20
7.4724416963993701
 30
0.0
 40
0.125
  1
800.66.TAGUE
  0
ENDBLK
  5
2B4EF
  8
0
  0
BLOCK
  8
0
  2
*U240
 70
     1
 10
0.0
 20
0.0
 30
0.0
  3
*U240
  1

  0
TEXT
  5
2B4F1
  8
0
 10
1.6109911707451761
 20
1.18025645756599
 30
0.0
 40
0.125
  1
Base Cap
  0
TEXT
  5
2B4F2
  8
0
 10
1.619688305806567
 20
0.9714115280525753
 30
0.0
 40
0.125
  1
TL-406
  0
TEXT
  5
2B4F3
  8
0
 10
1.615510270335899
 20
0.7609465439689008
 30
0.0
 40
0.125
  1
7/8" x 1-11/16"
  0
TEXT
  5
2B4F4
  8
0
 10
1.6167039947560899
 20
0.5504815598852265
 30
0.0
 40
0.125
  1
800.66.TAGUE
  0
ENDBLK
  5
2B4F6
  8
0
  0
BLOCK
  8
0
  2
*U241
 70
     1
 10
0.0
 20
0.0
 30
0.0
  3
*U241
  1

  0
TEXT
  5
2B4F8
  8
0
 10
1.322001327344235
 20
1.081186133431872
 30
0.0
 40
0.125
  1
Base Cap
  0
TEXT
  5
2B4F9
  8
0
 10
1.3306984624056259
 20
0.8723412039184573
 30
0.0
 40
0.125
  1
TL-314
  0
TEXT
  5
2B4FA
  8
0
 10
1.3274583532651081
 20
0.661876219834783
 30
0.0
 40
0.125
  1
3/4" x 1-3/8"
  0
TEXT
  5
2B4FB
  8
0
 10
1.3277141513551489
 20
0.4514112357511085
 30
0.0
 40
0.125
  1
800.66.TAGUE
  0
ENDBLK
  5
2B4FD
  8
0
  0
BLOCK
  8
0
  2
*U242
 70
     1
 10
0.0
 20
0.0
 30
0.0
  3
*U242
  1

  0
TEXT
  5
2B4FF
  8
0
 10
1.545356558052088
 20
0.8011638535049475
 30
0.0
 40
0.125
  1
Base Cap
  0
TEXT
  5
2B500
  8
0
 10
1.554053693113479
 20
0.5923189239915323
 30
0.0
 40
0.125
  1
TL-2021
  0
TEXT
  5
2B501
  8
0
 10
1.5498756576428101
 20
0.3818539399078579
 30
0.0
 40
0.125
  1
7/8" x 1"
  0
TEXT
  5
2B502
  8
0
 10
1.551069382063001
 20
0.1713889558241834
 30
0.0
 40
0.125
  1
800.66.TAGUE
  0
ENDBLK
  5
2B504
  8
0
  0
BLOCK
  8
0
  2
*U243
 70
     1
 10
0.0
 20
0.0
 30
0.0
  3
*U243
  1

  0
TEXT
  5
2B506
  8
0
 10
1.849024073205253
 20
1.552839362160755
 30
0.0
 40
0.125
  1
Base Cap
  0
TEXT
  5
2B507
  8
0
 10
1.8577212082666441
 20
1.3439944326473401
 30
0.0
 40
0.125
  1
TL-2025
  0
TEXT
  5
2B508
  8
0
 10
1.842799653014257
 20
1.1335294485636651
 30
0.0
 40
0.125
  1
1-1/4" x 2"
  0
TEXT
  5
2B509
  8
0
 10
1.8547368972161671
 20
0.9230644644799912
 30
0.0
 40
0.125
  1
800.66.TAGUE
  0
ENDBLK
  5
2B50B
  8
0
  0
BLOCK
  8
0
  2
*U244
 70
     1
 10
0.0
 20
0.0
 30
0.0
  3
*U244
  1

  0
TEXT
  5
2B50D
  8
0
 10
1.3718096514217379
 20
1.0633370050964159
 30
0.0
 40
0.125
  1
Base Cap
  0
TEXT
  5
2B50E
  8
0
 10
1.3805067864831291
 20
0.8544920755830013
 30
0.0
 40
0.125
  1
TL-2085
  0
TEXT
  5
2B50F
  8
0
 10
1.377266677342611
 20
0.6440270914993268
 30
0.0
 40
0.125
  1
3/4" x 1-5/16"
  0
TEXT
  5
2B510
  8
0
 10
1.377522475432652
 20
0.4335621074156525
 30
0.0
 40
0.125
  1
800.66.TAGUE
  0
ENDBLK
  5
2B512
  8
0
  0
BLOCK
  8
0
  2
*U245
 70
     1
 10
0.0
 20
0.0
 30
0.0
  3
*U245
  1

  0
TEXT
  5
2B514
  8
0
 10
1.464885786847087
 20
0.8118267597790396
 30
0.0
 40
0.125
  1
Base Cap
  0
TEXT
  5
2B515
  8
0
 10
1.4735829219084791
 20
0.6029818302656245
 30
0.0
 40
0.125
  1
TL-2147
  0
TEXT
  5
2B516
  8
0
 10
1.4703428127679601
 20
0.39251684618195
 30
0.0
 40
0.125
  1
3/4" x 1-1/4"
  0
TEXT
  5
2B517
  8
0
 10
1.4705986108580009
 20
0.1820518620982756
 30
0.0
 40
0.125
  1
800.66.TAGUE
  0
ENDBLK
  5
2B519
  8
0
  0
BLOCK
  8
0
  2
*U246
 70
     1
 10
0.0
 20
0.0
 30
0.0
  3
*U246
  1

  0
TEXT
  5
2B51B
  8
0
 10
1.771984131257607
 20
0.8092216071741109
 30
0.0
 40
0.125
  1
Base Cap
  0
TEXT
  5
2B51C
  8
0
 10
1.7806812663189979
 20
0.6003766776606958
 30
0.0
 40
0.125
  1
TL-2086
  0
TEXT
  5
2B51D
  8
0
 10
1.7774411571784801
 20
0.3899116935770214
 30
0.0
 40
0.125
  1
3/4" x 1-1/4"
  0
TEXT
  5
2B51E
  8
0
 10
1.7776969552685209
 20
0.179446709493347
 30
0.0
 40
0.125
  1
800.66.TAGUE
  0
ENDBLK
  5
2B520
  8
0
  0
BLOCK
  8
0
  2
*U247
 70
     1
 10
0.0
 20
0.0
 30
0.0
  3
*U247
  1

  0
TEXT
  5
2B522
  8
0
 10
1.5885997392245299
 20
0.7688960449700222
 30
0.0
 40
0.125
  1
Base Cap
  0
TEXT
  5
2B523
  8
0
 10
1.5972968742859219
 20
0.5600511154566071
 30
0.0
 40
0.125
  1
TL-2140
  0
TEXT
  5
2B524
  8
0
 10
1.5941420311754171
 20
0.3495861313729326
 30
0.0
 40
0.125
  1
5/8" x 1-1/8"
  0
TEXT
  5
2B525
  8
0
 10
1.594312563235444
 20
0.1391211472892582
 30
0.0
 40
0.125
  1
800.66.TAGUE
  0
ENDBLK
  5
2B527
  8
0
  0
BLOCK
  8
0
  2
*U248
 70
     1
 10
0.0
 20
0.0
 30
0.0
  3
*U248
  1

  0
TEXT
  5
2B529
  8
0
 10
1.599800712551807
 20
0.7455601950585038
 30
0.0
 40
0.125
  1
Base Cap
  0
TEXT
  5
2B52A
  8
0
 10
1.608497847613199
 20
0.5367152655450888
 30
0.0
 40
0.125
  1
TL-2177
  0
TEXT
  5
2B52B
  8
0
 10
1.593576292360811
 20
0.3262502814614142
 30
0.0
 40
0.125
  1
11/16" x 13/16"
  0
TEXT
  5
2B52C
  8
0
 10
1.6055135365627211
 20
0.1157852973777398
 30
0.0
 40
0.125
  1
800.66.TAGUE
  0
ENDBLK
  5
2B52E
  8
0
  0
BLOCK
  8
0
  2
*U249
 70
     1
 10
0.0
 20
0.0
 30
0.0
  3
*U249
  1

  0
TEXT
  5
2B530
  8
0
 10
1.409121497152835
 20
1.100665305216368
 30
0.0
 40
0.125
  1
Base Cap
  0
TEXT
  5
2B531
  8
0
 10
1.4178186322142261
 20
0.8918203757029537
 30
0.0
 40
0.125
  1
TL-2223
  0
TEXT
  5
2B532
  8
0
 10
1.4167954398540621
 20
0.6813553916192793
 30
0.0
 40
0.125
  1
23/32" x 1-21/32"
  0
TEXT
  5
2B533
  8
0
 10
1.4148343211637491
 20
0.4708904075356049
 30
0.0
 40
0.125
  1
800.66.TAGUE
  0
ENDBLK
  5
2B535
  8
0
  0
BLOCK
  8
0
  2
*U250
 70
     1
 10
0.0
 20
0.0
 30
0.0
  3
*U250
  1

  0
TEXT
  5
2B537
  8
0
 10
1.5836197280722599
 20
0.9903470469529498
 30
0.0
 40
0.125
  1
Base Cap
  0
TEXT
  5
2B538
  8
0
 10
1.5923168631336519
 20
0.7815021174395347
 30
0.0
 40
0.125
  1
TL-2305
  0
TEXT
  5
2B539
  8
0
 10
1.5881388276629831
 20
0.5710371333558603
 30
0.0
 40
0.125
  1
7/8" x 1-5/8"
  0
TEXT
  5
2B53A
  8
0
 10
1.589332552083174
 20
0.3605721492721858
 30
0.0
 40
0.125
  1
800.66.TAGUE
  0
ENDBLK
  5
2B53C
  8
0
  0
BLOCK
  8
0
  2
*U251
 70
     1
 10
0.0
 20
0.0
 30
0.0
  3
*U251
  1

  0
TEXT
  5
2B53E
  8
0
 10
1.6244313742592269
 20
0.7971099757234175
 30
0.0
 40
0.125
  1
Base Cap
  0
TEXT
  5
2B53F
  8
0
 10
1.633128509320618
 20
0.5882650462100023
 30
0.0
 40
0.125
  1
TL-2316
  0
TEXT
  5
2B540
  8
0
 10
1.6299736662101141
 20
0.3778000621263279
 30
0.0
 40
0.125
  1
9/16" x 1"
  0
TEXT
  5
2B541
  8
0
 10
1.630144198270141
 20
0.1673350780426535
 30
0.0
 40
0.125
  1
800.66.TAGUE
  0
ENDBLK
  5
2B543
  8
0
  0
BLOCK
  8
0
  2
*U252
 70
     1
 10
0.0
 20
0.0
 30
0.0
  3
*U252
  1

  0
TEXT
  5
2B545
  8
0
 10
2.115043862769066
 20
1.229933704569248
 30
0.0
 40
0.125
  1
Bed Moulding
  0
TEXT
  5
2B546
  8
0
 10
2.123740997830458
 20
1.0216003712359141
 30
0.0
 40
0.125
  1
TL-5
  0
TEXT
  5
2B547
  8
0
 10
2.1088194425780711
 20
0.8111353871522405
 30
0.0
 40
0.125
  1
11/16" x 4-1/4"
  0
TEXT
  5
2B548
  8
0
 10
2.1207566867799801
 20
0.6006704030685662
 30
0.0
 40
0.125
  1
800.66.TAGUE
  0
ENDBLK
  5
2B54A
  8
0
  0
BLOCK
  8
0
  2
*U253
 70
     1
 10
0.0
 20
0.0
 30
0.0
  3
*U253
  1

  0
TEXT
  5
2B54C
  8
0
 10
1.629515168649714
 20
0.7172567633590461
 30
0.0
 40
0.125
  1
Bed Moulding
  0
TEXT
  5
2B54D
  8
0
 10
1.6382123037111049
 20
0.508411833845631
 30
0.0
 40
0.125
  1
TL-71
  0
TEXT
  5
2B54E
  8
0
 10
1.6350574606006001
 20
0.2979468497619565
 30
0.0
 40
0.125
  1
9/16" x 2-5/8"
  0
TEXT
  5
2B54F
  8
0
 10
1.6352279926606279
 20
0.0874818656782821
 30
0.0
 40
0.125
  1
800.66.TAGUE
  0
ENDBLK
  5
2B551
  8
0
  0
BLOCK
  8
0
  2
*U254
 70
     1
 10
0.0
 20
0.0
 30
0.0
  3
*U254
  1

  0
TEXT
  5
2B553
  8
0
 10
7.9006361773201483
 20
3.2038315196236899
 30
0.0
 40
0.125
  1
Bed Moulding
  0
TEXT
  5
2B554
  8
0
 10
7.9093333123815386
 20
2.9954981862903569
 30
0.0
 40
0.125
  1
TL-75
  0
TEXT
  5
2B555
  8
0
 10
7.9061784692710351
 20
2.7850332022066828
 30
0.0
 40
0.125
  1
9/16" x 1-5/8"
  0
TEXT
  5
2B556
  8
0
 10
7.9063490013310611
 20
2.5745682181230078
 30
0.0
 40
0.125
  1
800.66.TAGUE
  0
ENDBLK
  5
2B558
  8
0
  0
BLOCK
  8
0
  2
*U255
 70
     1
 10
0.0
 20
0.0
 30
0.0
  3
*U255
  1

  0
TEXT
  5
2B55A
  8
0
 10
2.2408914082736651
 20
1.3092809657421181
 30
0.0
 40
0.125
  1
Bed Moulding
  0
TEXT
  5
2B55B
  8
0
 10
2.2495885433350562
 20
1.1004360362287029
 30
0.0
 40
0.125
  1
TL-2029
  0
TEXT
  5
2B55C
  8
0
 10
2.2346669880826688
 20
0.8899710521450289
 30
0.0
 40
0.125
  1
1-5/16" x 5-1/2"
  0
TEXT
  5
2B55D
  8
0
 10
2.2466042322845792
 20
0.6795060680613546
 30
0.0
 40
0.125
  1
800.66.TAGUE
  0
ENDBLK
  5
2B55F
  8
0
  0
BLOCK
  8
0
  2
*U256
 70
     1
 10
0.0
 20
0.0
 30
0.0
  3
*U256
  1

  0
TEXT
  5
2B561
  8
0
 10
1.741152150489806
 20
0.8721200061611398
 30
0.0
 40
0.125
  1
Bed Moulding
  0
TEXT
  5
2B562
  8
0
 10
1.749849285551198
 20
0.6632750766477247
 30
0.0
 40
0.125
  1
TL-2131
  0
TEXT
  5
2B563
  8
0
 10
1.73492773029881
 20
0.4528100925640503
 30
0.0
 40
0.125
  1
11/16" x 1-3/4"
  0
TEXT
  5
2B564
  8
0
 10
1.7468649745007201
 20
0.2423451084803758
 30
0.0
 40
0.125
  1
800.66.TAGUE
  0
ENDBLK
  5
2B566
  8
0
  0
BLOCK
  8
0
  2
*U257
 70
     1
 10
0.0
 20
0.0
 30
0.0
  3
*U257
  1

  0
TEXT
  5
2B568
  8
0
 10
1.736669936528789
 20
1.087407220742322
 30
0.0
 40
0.125
  1
Cabinet Head
  0
TEXT
  5
2B569
  8
0
 10
1.7412743021495249
 20
0.8785622912289078
 30
0.0
 40
0.125
  1
TL-39
  0
TEXT
  5
2B56A
  8
0
 10
1.726352746897138
 20
0.6680973071452333
 30
0.0
 40
0.125
  1
1-1/8" x 2-1/4"
  0
TEXT
  5
2B56B
  8
0
 10
1.7382899910990479
 20
0.457632323061559
 30
0.0
 40
0.125
  1
800.66.TAGUE
  0
ENDBLK
  5
2B56D
  8
0
  0
BLOCK
  8
0
  2
*U258
 70
     1
 10
0.0
 20
0.0
 30
0.0
  3
*U258
  1

  0
TEXT
  5
2B56F
  8
0
 10
1.360420595476431
 20
0.9856411059979723
 30
0.0
 40
0.125
  1
Cabinet Head
  0
TEXT
  5
2B570
  8
0
 10
1.3650249610971681
 20
0.7767961764845573
 30
0.0
 40
0.125
  1
TL-210
  0
TEXT
  5
2B571
  8
0
 10
1.3501034058447801
 20
0.5663311924008828
 30
0.0
 40
0.125
  1
11/16" x 1-5/8"
  0
TEXT
  5
2B572
  8
0
 10
1.3620406500466899
 20
0.3558662083172084
 30
0.0
 40
0.125
  1
800.66.TAGUE
  0
ENDBLK
  5
2B574
  8
0
  0
BLOCK
  8
0
  2
*U259
 70
     1
 10
0.0
 20
0.0
 30
0.0
  3
*U259
  1

  0
TEXT
  5
2B576
  8
0
 10
1.689513912791232
 20
1.0073053043701219
 30
0.0
 40
0.125
  1
Cap Moulding
  0
TEXT
  5
2B577
  8
0
 10
1.6941182784119679
 20
0.7984603748567074
 30
0.0
 40
0.125
  1
TL-290
  0
TEXT
  5
2B578
  8
0
 10
1.679196723159581
 20
0.587995390773033
 30
0.0
 40
0.125
  1
11/16" x 1-3/8"
  0
TEXT
  5
2B579
  8
0
 10
1.6911339673614909
 20
0.3775304066893585
 30
0.0
 40
0.125
  1
800.66.TAGUE
  0
ENDBLK
  5
2B57B
  8
0
  0
BLOCK
  8
0
  2
*U260
 70
     1
 10
0.0
 20
0.0
 30
0.0
  3
*U260
  1

  0
TEXT
  5
2B57D
  8
0
 10
2.5350454110569318
 20
1.19171859651705
 30
0.0
 40
0.125
  1
Cap Moulding
  0
TEXT
  5
2B57E
  8
0
 10
2.5396497766776691
 20
0.9828736670036357
 30
0.0
 40
0.125
  1
TL-2194
  0
TEXT
  5
2B57F
  8
0
 10
2.5247282214252809
 20
0.7724086829199611
 30
0.0
 40
0.125
  1
1-5/8" x 2"
  0
TEXT
  5
2B580
  8
0
 10
2.5366654656271912
 20
0.5619436988362868
 30
0.0
 40
0.125
  1
800.66.TAGUE
  0
ENDBLK
  5
2B582
  8
0
  0
BLOCK
  8
0
  2
*U261
 70
     1
 10
0.0
 20
0.0
 30
0.0
  3
*U261
  1

  0
TEXT
  5
2B584
  8
0
 10
1.5935373926513181
 20
2.083424344800862
 30
0.0
 40
0.125
  1
Casing
  0
TEXT
  5
2B585
  8
0
 10
1.598141758272055
 20
1.8745794152874471
 30
0.0
 40
0.125
  1
TL-34
  0
TEXT
  5
2B586
  8
0
 10
1.5939637228013861
 20
1.6641144312037719
 30
0.0
 40
0.125
  1
7/8" x 3-11/16"
  0
TEXT
  5
2B587
  8
0
 10
1.595157447221577
 20
1.453649447120098
 30
0.0
 40
0.125
  1
800.66.TAGUE
  0
ENDBLK
  5
2B589
  8
0
  0
BLOCK
  8
0
  2
*U262
 70
     1
 10
0.0
 20
0.0
 30
0.0
  3
*U262
  1

  0
TEXT
  5
2B58B
  8
0
 10
1.5662690242219
 20
2.1084973644994012
 30
0.0
 40
0.125
  1
Casing
  0
TEXT
  5
2B58C
  8
0
 10
1.570873389842637
 20
1.899652434985986
 30
0.0
 40
0.125
  1
TL-38
  0
TEXT
  5
2B58D
  8
0
 10
1.5666953543719679
 20
1.689187450902311
 30
0.0
 40
0.125
  1
7/8" x 3-13/16"
  0
TEXT
  5
2B58E
  8
0
 10
1.5678890787921591
 20
1.4787224668186369
 30
0.0
 40
0.125
  1
800.66.TAGUE
  0
ENDBLK
  5
2B590
  8
0
  0
BLOCK
  8
0
  2
*U263
 70
     1
 10
0.0
 20
0.0
 30
0.0
  3
*U263
  1

  0
TEXT
  5
2B592
  8
0
 10
1.444573544634953
 20
1.9934166265428681
 30
0.0
 40
0.125
  1
Casing
  0
TEXT
  5
2B593
  8
0
 10
1.4491779102556901
 20
1.784571697029453
 30
0.0
 40
0.125
  1
TL-212
  0
TEXT
  5
2B594
  8
0
 10
1.445937801115172
 20
1.5741067129457791
 30
0.0
 40
0.125
  1
3/4" x 3-3/4"
  0
TEXT
  5
2B595
  8
0
 10
1.446193599205212
 20
1.3636417288621041
 30
0.0
 40
0.125
  1
800.66.TAGUE
  0
ENDBLK
  5
2B597
  8
0
  0
BLOCK
  8
0
  2
*U264
 70
     1
 10
0.0
 20
0.0
 30
0.0
  3
*U264
  1

  0
TEXT
  5
2B599
  8
0
 10
1.7897927446773321
 20
1.8760126601283831
 30
0.0
 40
0.125
  1
Casing
  0
TEXT
  5
2B59A
  8
0
 10
1.7943971102980689
 20
1.6671677306149679
 30
0.0
 40
0.125
  1
TL-310
  0
TEXT
  5
2B59B
  8
0
 10
1.779475555045682
 20
1.4567027465312929
 30
0.0
 40
0.125
  1
1-1/16" x 3-7/16"
  0
TEXT
  5
2B59C
  8
0
 10
1.7914127992475919
 20
1.2462377624476191
 30
0.0
 40
0.125
  1
800.66.TAGUE
  0
ENDBLK
  5
2B59E
  8
0
  0
BLOCK
  8
0
  2
*U265
 70
     1
 10
0.0
 20
0.0
 30
0.0
  3
*U265
  1

  0
TEXT
  5
2B5A0
  8
0
 10
1.6846224502081431
 20
1.926744489349987
 30
0.0
 40
0.125
  1
Casing
  0
TEXT
  5
2B5A1
  8
0
 10
1.689226815828879
 20
1.7178995598365721
 30
0.0
 40
0.125
  1
TL-311
  0
TEXT
  5
2B5A2
  8
0
 10
1.6743052605764921
 20
1.5074345757528971
 30
0.0
 40
0.125
  1
1" x 3-1/2"
  0
TEXT
  5
2B5A3
  8
0
 10
1.686242504778402
 20
1.296969591669223
 30
0.0
 40
0.125
  1
800.66.TAGUE
  0
ENDBLK
  5
2B5A5
  8
0
  0
BLOCK
  8
0
  2
*U266
 70
     1
 10
0.0
 20
0.0
 30
0.0
  3
*U266
  1

  0
TEXT
  5
2B5A7
  8
0
 10
1.520306519003928
 20
2.0258391013684491
 30
0.0
 40
0.125
  1
Casing
  0
TEXT
  5
2B5A8
  8
0
 10
1.5249108846246651
 20
1.816994171855034
 30
0.0
 40
0.125
  1
TL-312
  0
TEXT
  5
2B5A9
  8
0
 10
1.5207328491539971
 20
1.606529187771359
 30
0.0
 40
0.125
  1
7/8" x 3-7/8"
  0
TEXT
  5
2B5AA
  8
0
 10
1.5219265735741869
 20
1.3960642036876849
 30
0.0
 40
0.125
  1
800.66.TAGUE
  0
ENDBLK
  5
2B5AC
  8
0
  0
BLOCK
  8
0
  2
*U267
 70
     1
 10
0.0
 20
0.0
 30
0.0
  3
*U267
  1

  0
TEXT
  5
2B5AE
  8
0
 10
1.3328973168081331
 20
2.164714518610837
 30
0.0
 40
0.125
  1
Casing
  0
TEXT
  5
2B5AF
  8
0
 10
1.3375016824288699
 20
1.955869589097422
 30
0.0
 40
0.125
  1
TL-322
  0
TEXT
  5
2B5B0
  8
0
 10
1.334261573288352
 20
1.7454046050137479
 30
0.0
 40
0.125
  1
3/4" x 4"
  0
TEXT
  5
2B5B1
  8
0
 10
1.3345173713783931
 20
1.534939620930073
 30
0.0
 40
0.125
  1
800.66.TAGUE
  0
ENDBLK
  5
2B5B3
  8
0
  0
BLOCK
  8
0
  2
*U268
 70
     1
 10
0.0
 20
0.0
 30
0.0
  3
*U268
  1

  0
TEXT
  5
2B5B5
  8
0
 10
1.752676654927062
 20
1.326106447528802
 30
0.0
 40
0.125
  1
Casing
  0
TEXT
  5
2B5B6
  8
0
 10
1.7572810205477991
 20
1.1172615180153871
 30
0.0
 40
0.125
  1
TL-327
  0
TEXT
  5
2B5B7
  8
0
 10
1.7423594652954111
 20
0.9067965339317131
 30
0.0
 40
0.125
  1
11/16" x 2-1/4"
  0
TEXT
  5
2B5B8
  8
0
 10
1.754296709497321
 20
0.6963315498480388
 30
0.0
 40
0.125
  1
800.66.TAGUE
  0
ENDBLK
  5
2B5BA
  8
0
  0
BLOCK
  8
0
  2
*U269
 70
     1
 10
0.0
 20
0.0
 30
0.0
  3
*U269
  1

  0
TEXT
  5
2B5BC
  8
0
 10
1.353741116408945
 20
1.5097483307285
 30
0.0
 40
0.125
  1
Casing
  0
TEXT
  5
2B5BD
  8
0
 10
1.3583454820296821
 20
1.3009034012150851
 30
0.0
 40
0.125
  1
TL-331
  0
TEXT
  5
2B5BE
  8
0
 10
1.3434239267772941
 20
1.0904384171314101
 30
0.0
 40
0.125
  1
11/16" x 2-1/2"
  0
TEXT
  5
2B5BF
  8
0
 10
1.3553611709792039
 20
0.8799734330477367
 30
0.0
 40
0.125
  1
800.66.TAGUE
  0
ENDBLK
  5
2B5C1
  8
0
  0
BLOCK
  8
0
  2
*U270
 70
     1
 10
0.0
 20
0.0
 30
0.0
  3
*U270
  1

  0
TEXT
  5
2B5C3
  8
0
 10
1.5202473442910549
 20
2.054431738326131
 30
0.0
 40
0.125
  1
Casing
  0
TEXT
  5
2B5C4
  8
0
 10
1.5248517099117911
 20
1.8455868088127161
 30
0.0
 40
0.125
  1
TL-332
  0
TEXT
  5
2B5C5
  8
0
 10
1.5099301546594039
 20
1.635121824729042
 30
0.0
 40
0.125
  1
11/16" x 3-1/2"
  0
TEXT
  5
2B5C6
  8
0
 10
1.5218673988613141
 20
1.424656840645367
 30
0.0
 40
0.125
  1
800.66.TAGUE
  0
ENDBLK
  5
2B5C8
  8
0
  0
BLOCK
  8
0
  2
*U271
 70
     1
 10
0.0
 20
0.0
 30
0.0
  3
*U271
  1

  0
TEXT
  5
2B5CA
  8
0
 10
1.5320253747036969
 20
1.863596215278805
 30
0.0
 40
0.125
  1
Casing
  0
TEXT
  5
2B5CB
  8
0
 10
1.536629740324434
 20
1.6547512857653901
 30
0.0
 40
0.125
  1
TL-361
  0
TEXT
  5
2B5CC
  8
0
 10
1.5217081850720471
 20
1.444286301681716
 30
0.0
 40
0.125
  1
11/16" x 3-1/2"
  0
TEXT
  5
2B5CD
  8
0
 10
1.5336454292739561
 20
1.233821317598041
 30
0.0
 40
0.125
  1
800.66.TAGUE
  0
ENDBLK
  5
2B5CF
  8
0
  0
BLOCK
  8
0
  2
*U272
 70
     1
 10
0.0
 20
0.0
 30
0.0
  3
*U272
  1

  0
TEXT
  5
2B5D1
  8
0
 10
1.863826117951793
 20
1.4722460830886499
 30
0.0
 40
0.125
  1
Casing
  0
TEXT
  5
2B5D2
  8
0
 10
1.8684304835725289
 20
1.263401153575235
 30
0.0
 40
0.125
  1
TL-366
  0
TEXT
  5
2B5D3
  8
0
 10
1.853508928320142
 20
1.0529361694915611
 30
0.0
 40
0.125
  1
11/16" x 2-1/4"
  0
TEXT
  5
2B5D4
  8
0
 10
1.8654461725220519
 20
0.8424711854078868
 30
0.0
 40
0.125
  1
800.66.TAGUE
  0
ENDBLK
  5
2B5D6
  8
0
  0
BLOCK
  8
0
  2
*U273
 70
     1
 10
0.0
 20
0.0
 30
0.0
  3
*U273
  1

  0
TEXT
  5
2B5D8
  8
0
 10
1.5351274959142289
 20
1.561715576145063
 30
0.0
 40
0.125
  1
Casing
  0
TEXT
  5
2B5D9
  8
0
 10
1.5397318615349651
 20
1.352870646631648
 30
0.0
 40
0.125
  1
TL-376
  0
TEXT
  5
2B5DA
  8
0
 10
1.524810306282578
 20
1.142405662547973
 30
0.0
 40
0.125
  1
11/16" x 2-1/4"
  0
TEXT
  5
2B5DB
  8
0
 10
1.5367475504844881
 20
0.9319406784642996
 30
0.0
 40
0.125
  1
800.66.TAGUE
  0
ENDBLK
  5
2B5DD
  8
0
  0
BLOCK
  8
0
  2
*U274
 70
     1
 10
0.0
 20
0.0
 30
0.0
  3
*U274
  1

  0
TEXT
  5
2B5DF
  8
0
 10
1.521284911425572
 20
1.8194457406072091
 30
0.0
 40
0.125
  1
Casing
  0
TEXT
  5
2B5E0
  8
0
 10
1.5258892770463091
 20
1.6106008110937939
 30
0.0
 40
0.125
  1
TL-412
  0
TEXT
  5
2B5E1
  8
0
 10
1.510967721793921
 20
1.400135827010119
 30
0.0
 40
0.125
  1
11/16" x 3-1/2"
  0
TEXT
  5
2B5E2
  8
0
 10
1.5229049659958309
 20
1.1896708429264451
 30
0.0
 40
0.125
  1
800.66.TAGUE
  0
ENDBLK
  5
2B5E4
  8
0
  0
BLOCK
  8
0
  2
*U275
 70
     1
 10
0.0
 20
0.0
 30
0.0
  3
*U275
  1

  0
TEXT
  5
2B5E6
  8
0
 10
1.449823263841812
 20
2.0149514255241612
 30
0.0
 40
0.125
  1
Casing
  0
TEXT
  5
2B5E7
  8
0
 10
1.454427629462548
 20
1.8066180921908279
 30
0.0
 40
0.125
  1
TL-445
  0
TEXT
  5
2B5E8
  8
0
 10
1.4395060742101611
 20
1.5961531081071541
 30
0.0
 40
0.125
  1
11/16" x 3-1/4"
  0
TEXT
  5
2B5E9
  8
0
 10
1.451443318412071
 20
1.3856881240234791
 30
0.0
 40
0.125
  1
800.66.TAGUE
  0
ENDBLK
  5
2B5EB
  8
0
  0
BLOCK
  8
0
  2
*U276
 70
     1
 10
0.0
 20
0.0
 30
0.0
  3
*U276
  1

  0
TEXT
  5
2B5ED
  8
0
 10
1.715600805711323
 20
1.45748262831252
 30
0.0
 40
0.125
  1
Casing
  0
TEXT
  5
2B5EE
  8
0
 10
1.720205171332059
 20
1.248637698799105
 30
0.0
 40
0.125
  1
TL-452
  0
TEXT
  5
2B5EF
  8
0
 10
1.705283616079672
 20
1.0381727147154309
 30
0.0
 40
0.125
  1
11/16" x 2-1/2"
  0
TEXT
  5
2B5F0
  8
0
 10
1.7172208602815819
 20
0.8277077306317568
 30
0.0
 40
0.125
  1
800.66.TAGUE
  0
ENDBLK
  5
2B5F2
  8
0
  0
BLOCK
  8
0
  2
*U277
 70
     1
 10
0.0
 20
0.0
 30
0.0
  3
*U277
  1

  0
TEXT
  5
2B5F4
  8
0
 10
1.644662863092297
 20
2.4324649629210331
 30
0.0
 40
0.125
  1
Casing
  0
TEXT
  5
2B5F5
  8
0
 10
1.6492672287130341
 20
2.2241316295876992
 30
0.0
 40
0.125
  1
TL-545
  0
TEXT
  5
2B5F6
  8
0
 10
1.646027119572516
 20
2.0136666455040251
 30
0.0
 40
0.125
  1
3/4" x 5"
  0
TEXT
  5
2B5F7
  8
0
 10
1.6462829176625571
 20
1.8032016614203501
 30
0.0
 40
0.125
  1
800.66.TAGUE
  0
ENDBLK
  5
2B5F9
  8
0
  0
BLOCK
  8
0
  2
*U278
 70
     1
 10
0.0
 20
0.0
 30
0.0
  3
*U278
  1

  0
TEXT
  5
2B5FB
  8
0
 10
1.6083821826148079
 20
1.7190042649612149
 30
0.0
 40
0.125
  1
Casing
  0
TEXT
  5
2B5FC
  8
0
 10
1.612986548235545
 20
1.5101593354478
 30
0.0
 40
0.125
  1
TL-546
  0
TEXT
  5
2B5FD
  8
0
 10
1.6097464390950269
 20
1.299694351364125
 30
0.0
 40
0.125
  1
3/4" x 2-7/8"
  0
TEXT
  5
2B5FE
  8
0
 10
1.6100022371850671
 20
1.0892293672804509
 30
0.0
 40
0.125
  1
800.66.TAGUE
  0
ENDBLK
  5
2B600
  8
0
  0
BLOCK
  8
0
  2
*U279
 70
     1
 10
0.0
 20
0.0
 30
0.0
  3
*U279
  1

  0
TEXT
  5
2B602
  8
0
 10
1.611826571413677
 20
2.1893163161727371
 30
0.0
 40
0.125
  1
Casing
  0
TEXT
  5
2B603
  8
0
 10
1.6164309370344141
 20
1.980471386659322
 30
0.0
 40
0.125
  1
TL-548
  0
TEXT
  5
2B604
  8
0
 10
1.6131908278938949
 20
1.770006402575647
 30
0.0
 40
0.125
  1
3/4" x 3-7/16"
  0
TEXT
  5
2B605
  8
0
 10
1.613446625983936
 20
1.5595414184919729
 30
0.0
 40
0.125
  1
800.66.TAGUE
  0
ENDBLK
  5
2B607
  8
0
  0
BLOCK
  8
0
  2
*U280
 70
     1
 10
0.0
 20
0.0
 30
0.0
  3
*U280
  1

  0
TEXT
  5
2B609
  8
0
 10
1.2473910737773839
 20
2.7744627332396181
 30
0.0
 40
0.125
  1
Casing
  0
TEXT
  5
2B60A
  8
0
 10
1.2519954393981201
 20
2.5656178037262021
 30
0.0
 40
0.125
  1
TL-2018
  0
TEXT
  5
2B60B
  8
0
 10
1.2370738841457329
 20
2.355152819642528
 30
0.0
 40
0.125
  1
1-1/16" x 4-1/2"
  0
TEXT
  5
2B60C
  8
0
 10
1.2490111283476431
 20
2.1446878355588539
 30
0.0
 40
0.125
  1
800.66.TAGUE
  0
ENDBLK
  5
2B60E
  8
0
  0
BLOCK
  8
0
  2
*U281
 70
     1
 10
0.0
 20
0.0
 30
0.0
  3
*U281
  1

  0
TEXT
  5
2B610
  8
0
 10
1.4086740032724709
 20
13.04264108713495
 30
0.0
 40
0.125
  1
Casing
  0
TEXT
  5
2B611
  8
0
 10
1.4132783688932069
 20
12.83379615762154
 30
0.0
 40
0.125
  1
TL-2019
  0
TEXT
  5
2B612
  8
0
 10
1.39835681364082
 20
12.62333117353786
 30
0.0
 40
0.125
  1
1-1/16" x 5-1/2"
  0
TEXT
  5
2B613
  8
0
 10
1.4102940578427301
 20
12.41286618945419
 30
0.0
 40
0.125
  1
800.66.TAGUE
  0
ENDBLK
  5
2B615
  8
0
  0
BLOCK
  8
0
  2
*U282
 70
     1
 10
0.0
 20
0.0
 30
0.0
  3
*U282
  1

  0
TEXT
  5
2B617
  8
0
 10
1.4086740032724709
 20
3.3074481400532401
 30
0.0
 40
0.125
  1
Casing
  0
TEXT
  5
2B618
  8
0
 10
1.4132783688932069
 20
3.0986032105398249
 30
0.0
 40
0.125
  1
TL-2019
  0
TEXT
  5
2B619
  8
0
 10
1.39835681364082
 20
2.8881382264561508
 30
0.0
 40
0.125
  1
1-1/16" x 5-1/2"
  0
TEXT
  5
2B61A
  8
0
 10
1.4102940578427301
 20
2.6776732423724772
 30
0.0
 40
0.125
  1
800.66.TAGUE
  0
ENDBLK
  5
2B61C
  8
0
  0
BLOCK
  8
0
  2
*U283
 70
     1
 10
0.0
 20
0.0
 30
0.0
  3
*U283
  1

  0
TEXT
  5
2B61E
  8
0
 10
1.507291999899484
 20
1.8983804600503771
 30
0.0
 40
0.125
  1
Casing
  0
TEXT
  5
2B61F
  8
0
 10
1.51189636552022
 20
1.6895355305369619
 30
0.0
 40
0.125
  1
TL-B3
  0
TEXT
  5
2B620
  8
0
 10
1.5086562563797019
 20
1.4790705464532881
 30
0.0
 40
0.125
  1
3/4" x 3-1/2"
  0
TEXT
  5
2B621
  8
0
 10
1.508912054469743
 20
1.2686055623696131
 30
0.0
 40
0.125
  1
800.66.TAGUE
  0
ENDBLK
  5
2B623
  8
0
  0
BLOCK
  8
0
  2
*U284
 70
     1
 10
0.0
 20
0.0
 30
0.0
  3
*U284
  1

  0
TEXT
  5
2B625
  8
0
 10
1.63765621551588
 20
2.2121098391850338
 30
0.0
 40
0.125
  1
Casing
  0
TEXT
  5
2B626
  8
0
 10
1.642260581136616
 20
2.0032649096716191
 30
0.0
 40
0.125
  1
TL-600
  0
TEXT
  5
2B627
  8
0
 10
1.638082545665948
 20
1.7927999255879441
 30
0.0
 40
0.125
  1
7/8" x 3-3/4"
  0
TEXT
  5
2B628
  8
0
 10
1.639276270086139
 20
1.58233494150427
 30
0.0
 40
0.125
  1
800.66.TAGUE
  0
ENDBLK
  5
2B62A
  8
0
  0
BLOCK
  8
0
  2
*U285
 70
     1
 10
0.0
 20
0.0
 30
0.0
  3
*U285
  1

  0
TEXT
  5
2B62C
  8
0
 10
1.181403088863225
 20
2.596347862400437
 30
0.0
 40
0.125
  1
Casing
  0
TEXT
  5
2B62D
  8
0
 10
1.1860074544839609
 20
2.387502932887021
 30
0.0
 40
0.125
  1
TL-2056
  0
TEXT
  5
2B62E
  8
0
 10
1.171085899231574
 20
2.1770379488033469
 30
0.0
 40
0.125
  1
1" x 4-1/4"
  0
TEXT
  5
2B62F
  8
0
 10
1.1830231434334839
 20
1.966572964719673
 30
0.0
 40
0.125
  1
800.66.TAGUE
  0
ENDBLK
  5
2B631
  8
0
  0
BLOCK
  8
0
  2
*U286
 70
     1
 10
0.0
 20
0.0
 30
0.0
  3
*U286
  1

  0
TEXT
  5
2B633
  8
0
 10
1.566807269343802
 20
2.1619067565476531
 30
0.0
 40
0.125
  1
Casing
  0
TEXT
  5
2B634
  8
0
 10
1.5714116349645391
 20
1.9530618270342379
 30
0.0
 40
0.125
  1
TL-2008
  0
TEXT
  5
2B635
  8
0
 10
1.56723359949387
 20
1.7425968429505629
 30
0.0
 40
0.125
  1
7/8" x 3-3/4"
  0
TEXT
  5
2B636
  8
0
 10
1.5684273239140609
 20
1.5321318588668891
 30
0.0
 40
0.125
  1
800.66.TAGUE
  0
ENDBLK
  5
2B638
  8
0
  0
BLOCK
  8
0
  2
*U287
 70
     1
 10
0.0
 20
0.0
 30
0.0
  3
*U287
  1

  0
TEXT
  5
2B63A
  8
0
 10
1.7608832556955789
 20
2.6231890073942319
 30
0.0
 40
0.125
  1
Casing
  0
TEXT
  5
2B63B
  8
0
 10
1.765487621316316
 20
2.4143440778808172
 30
0.0
 40
0.125
  1
TL-2113
  0
TEXT
  5
2B63C
  8
0
 10
1.750566066063928
 20
2.2038790937971431
 30
0.0
 40
0.125
  1
1-3/8" x 3-3/4"
  0
TEXT
  5
2B63D
  8
0
 10
1.7625033102658381
 20
1.9934141097134681
 30
0.0
 40
0.125
  1
800.66.TAGUE
  0
ENDBLK
  5
2B63F
  8
0
  0
BLOCK
  8
0
  2
*U288
 70
     1
 10
0.0
 20
0.0
 30
0.0
  3
*U288
  1

  0
TEXT
  5
2B641
  8
0
 10
1.882662245739515
 20
2.0477187364191578
 30
0.0
 40
0.125
  1
Casing
  0
TEXT
  5
2B642
  8
0
 10
1.887266611360251
 20
1.8388738069057431
 30
0.0
 40
0.125
  1
TL-2166
  0
TEXT
  5
2B643
  8
0
 10
1.8723450561078641
 20
1.6284088228220679
 30
0.0
 40
0.125
  1
1-1/8" x 2-3/8"
  0
TEXT
  5
2B644
  8
0
 10
1.8842823003097739
 20
1.417943838738394
 30
0.0
 40
0.125
  1
800.66.TAGUE
  0
ENDBLK
  5
2B646
  8
0
  0
BLOCK
  8
0
  2
*U289
 70
     1
 10
0.0
 20
0.0
 30
0.0
  3
*U289
  1

  0
TEXT
  5
2B648
  8
0
 10
1.4725338863188191
 20
2.68154143214828
 30
0.0
 40
0.125
  1
Casing
  0
TEXT
  5
2B649
  8
0
 10
1.4771382519395551
 20
2.4726965026348648
 30
0.0
 40
0.125
  1
TL-2167
  0
TEXT
  5
2B64A
  8
0
 10
1.4729602164688871
 20
2.2622315185511912
 30
0.0
 40
0.125
  1
7/8" x 4-3/8"
  0
TEXT
  5
2B64B
  8
0
 10
1.474153940889078
 20
2.0517665344675171
 30
0.0
 40
0.125
  1
800.66.TAGUE
  0
ENDBLK
  5
2B64D
  8
0
  0
BLOCK
  8
0
  2
*U290
 70
     1
 10
0.0
 20
0.0
 30
0.0
  3
*U290
  1

  0
TEXT
  5
2B64F
  8
0
 10
1.510960258956378
 20
2.1823485407814061
 30
0.0
 40
0.125
  1
Casing
  0
TEXT
  5
2B650
  8
0
 10
1.5123245154365961
 20
1.971883556697732
 30
0.0
 40
0.125
  1
3/4" x 3-1/2" w/ 1/4" Bead
  0
TEXT
  5
2B651
  8
0
 10
1.5125803135266369
 20
1.761418572614057
 30
0.0
 40
0.125
  1
800.66.TAGUE
  0
ENDBLK
  5
2B653
  8
0
  0
BLOCK
  8
0
  2
*U291
 70
     1
 10
0.0
 20
0.0
 30
0.0
  3
*U291
  1

  0
TEXT
  5
2B655
  8
0
 10
1.8617124589241929
 20
2.809361495964497
 30
0.0
 40
0.125
  1
Casing
  0
TEXT
  5
2B656
  8
0
 10
1.8663168245449291
 20
2.600516566451081
 30
0.0
 40
0.125
  1
TL-2026
  0
TEXT
  5
2B657
  8
0
 10
1.8621387890742609
 20
2.3900515823674069
 30
0.0
 40
0.125
  1
7/8" x 5-1/16"
  0
TEXT
  5
2B658
  8
0
 10
1.8633325134944521
 20
2.1795865982837328
 30
0.0
 40
0.125
  1
800.66.TAGUE
  0
ENDBLK
  5
2B65A
  8
0
  0
BLOCK
  8
0
  2
*U292
 70
     1
 10
0.0
 20
0.0
 30
0.0
  3
*U292
  1

  0
TEXT
  5
2B65C
  8
0
 10
1.516908149010963
 20
2.1944099456046771
 30
0.0
 40
0.125
  1
Casing
  0
TEXT
  5
2B65D
  8
0
 10
1.5215125146316999
 20
1.9855650160912619
 30
0.0
 40
0.125
  1
TL-2106
  0
TEXT
  5
2B65E
  8
0
 10
1.506590959379313
 20
1.7751000320075869
 30
0.0
 40
0.125
  1
15/16" x 3-1/2"
  0
TEXT
  5
2B65F
  8
0
 10
1.5185282035812231
 20
1.5646350479239131
 30
0.0
 40
0.125
  1
800.66.TAGUE
  0
ENDBLK
  5
2B661
  8
0
  0
BLOCK
  8
0
  2
*U293
 70
     1
 10
0.0
 20
0.0
 30
0.0
  3
*U293
  1

  0
TEXT
  5
2B663
  8
0
 10
1.9420920778562489
 20
2.6286745445871862
 30
0.0
 40
0.125
  1
Casing
  0
TEXT
  5
2B664
  8
0
 10
1.946696443476986
 20
2.419829615073771
 30
0.0
 40
0.125
  1
TL-2107
  0
TEXT
  5
2B665
  8
0
 10
1.931774888224598
 20
2.2093646309900961
 30
0.0
 40
0.125
  1
1-1/8" x 3-7/8"
  0
TEXT
  5
2B666
  8
0
 10
1.9437121324265081
 20
1.998899646906422
 30
0.0
 40
0.125
  1
800.66.TAGUE
  0
ENDBLK
  5
2B668
  8
0
  0
BLOCK
  8
0
  2
*U294
 70
     1
 10
0.0
 20
0.0
 30
0.0
  3
*U294
  1

  0
TEXT
  5
2B66A
  8
0
 10
2.1221156602351572
 20
2.1104209249928241
 30
0.0
 40
0.125
  1
Casing
  0
TEXT
  5
2B66B
  8
0
 10
2.126720025855894
 20
1.9015759954794089
 30
0.0
 40
0.125
  1
TL-2109
  0
TEXT
  5
2B66C
  8
0
 10
2.1117984706035071
 20
1.6911110113957351
 30
0.0
 40
0.125
  1
1-7/16" x 4-1/4"
  0
TEXT
  5
2B66D
  8
0
 10
2.123735714805417
 20
1.480646027312061
 30
0.0
 40
0.125
  1
800.66.TAGUE
  0
ENDBLK
  5
2B66F
  8
0
  0
BLOCK
  8
0
  2
*U295
 70
     1
 10
0.0
 20
0.0
 30
0.0
  3
*U295
  1

  0
TEXT
  5
2B671
  8
0
 10
1.9395148625860421
 20
3.2332732845096799
 30
0.0
 40
0.125
  1
Casing
  0
TEXT
  5
2B672
  8
0
 10
1.9484677957374741
 20
3.0244283549962652
 30
0.0
 40
0.125
  1
AB-137
  0
TEXT
  5
2B673
  8
0
 10
1.9291976729543909
 20
2.8139633709125902
 30
0.0
 40
0.125
  1
1-9/16" x 5-1/2"
  0
TEXT
  5
2B674
  8
0
 10
1.941134917156301
 20
2.6034983868289161
 30
0.0
 40
0.125
  1
800.66.TAGUE
  0
ENDBLK
  5
2B676
  8
0
  0
BLOCK
  8
0
  2
*U296
 70
     1
 10
0.0
 20
0.0
 30
0.0
  3
*U296
  1

  0
TEXT
  5
2B678
  8
0
 10
1.8469634001896551
 20
1.8146748757402671
 30
0.0
 40
0.125
  1
Casing
  0
TEXT
  5
2B679
  8
0
 10
1.851567765810392
 20
1.6058299462268519
 30
0.0
 40
0.125
  1
TL-2151
  0
TEXT
  5
2B67A
  8
0
 10
1.847389730339724
 20
1.3953649621431781
 30
0.0
 40
0.125
  1
7/8" x 2-15/16"
  0
TEXT
  5
2B67B
  8
0
 10
1.848583454759914
 20
1.1848999780595031
 30
0.0
 40
0.125
  1
800.66.TAGUE
  0
ENDBLK
  5
2B67D
  8
0
  0
BLOCK
  8
0
  2
*U297
 70
     1
 10
0.0
 20
0.0
 30
0.0
  3
*U297
  1

  0
TEXT
  5
2B67F
  8
0
 10
1.2155109582168719
 20
2.3777075454089678
 30
0.0
 40
0.125
  1
Casing
  0
TEXT
  5
2B680
  8
0
 10
1.220115323837609
 20
2.1688626158955531
 30
0.0
 40
0.125
  1
TL-2146
  0
TEXT
  5
2B681
  8
0
 10
1.205193768585221
 20
1.9583976318118781
 30
0.0
 40
0.125
  1
15/16" x 3-3/4"
  0
TEXT
  5
2B682
  8
0
 10
1.2171310127871311
 20
1.747932647728204
 30
0.0
 40
0.125
  1
800.66.TAGUE
  0
ENDBLK
  5
2B684
  8
0
  0
BLOCK
  8
0
  2
*U298
 70
     1
 10
0.0
 20
0.0
 30
0.0
  3
*U298
  1

  0
TEXT
  5
2B686
  8
0
 10
1.0490029597574211
 20
2.6121442491900249
 30
0.0
 40
0.125
  1
Casing
  0
TEXT
  5
2B687
  8
0
 10
1.053607325378157
 20
2.4032993196766101
 30
0.0
 40
0.125
  1
TL-2160
  0
TEXT
  5
2B688
  8
0
 10
1.0386857701257699
 20
2.1928343355929361
 30
0.0
 40
0.125
  1
13/16" x 3-3/4"
  0
TEXT
  5
2B689
  8
0
 10
1.05062301432768
 20
1.9823693515092611
 30
0.0
 40
0.125
  1
800.66.TAGUE
  0
ENDBLK
  5
2B68B
  8
0
  0
BLOCK
  8
0
  2
*U299
 70
     1
 10
0.0
 20
0.0
 30
0.0
  3
*U299
  1

  0
TEXT
  5
2B68D
  8
0
 10
1.424758348422277
 20
2.0506624914647928
 30
0.0
 40
0.125
  1
Casing
  0
TEXT
  5
2B68E
  8
0
 10
1.4293627140430141
 20
1.8418175619513779
 30
0.0
 40
0.125
  1
TL-2164
  0
TEXT
  5
2B68F
  8
0
 10
1.426122604902496
 20
1.6313525778677029
 30
0.0
 40
0.125
  1
3/4" x 3-1/2"
  0
TEXT
  5
2B690
  8
0
 10
1.4263784029925359
 20
1.4208875937840291
 30
0.0
 40
0.125
  1
800.66.TAGUE
  0
ENDBLK
  5
2B692
  8
0
  0
BLOCK
  8
0
  2
*U300
 70
     1
 10
0.0
 20
0.0
 30
0.0
  3
*U300
  1

  0
TEXT
  5
2B694
  8
0
 10
2.7314568973245961
 20
2.1677132042112972
 30
0.0
 40
0.125
  1
Casing
  0
TEXT
  5
2B695
  8
0
 10
2.736061262945332
 20
1.9572482201276229
 30
0.0
 40
0.125
  1
TL-2161 / Tl-2162
  0
TEXT
  5
2B696
  8
0
 10
2.7211397076929451
 20
1.746783236043949
 30
0.0
 40
0.125
  1
1-9/32" x 3-13/16"
  0
TEXT
  5
2B697
  8
0
 10
2.733076951894855
 20
1.5363182519602741
 30
0.0
 40
0.125
  1
800.66.TAGUE
  0
ENDBLK
  5
2B699
  8
0
  0
BLOCK
  8
0
  2
*U301
 70
     1
 10
0.0
 20
0.0
 30
0.0
  3
*U301
  1

  0
TEXT
  5
2B69F
  8
0
 10
1.7775671720797901
 20
1.1296199632941111
 30
0.0
 40
0.125
  1
TL-2162
  0
TEXT
  5
2B6A0
  8
0
 10
1.7626456168274021
 20
0.9191549792104375
 30
0.0
 40
0.125
  1
1-7/32" x 1-9/32"
  0
ENDBLK
  5
2B6A2
  8
0
  0
BLOCK
  8
0
  2
*U302
 70
     1
 10
0.0
 20
0.0
 30
0.0
  3
*U302
  1

  0
TEXT
  5
2B6A4
  8
0
 10
1.1624621155843951
 20
2.649270246500588
 30
0.0
 40
0.125
  1
TL-2161
  0
TEXT
  5
2B6A5
  8
0
 10
1.147540560332007
 20
2.4396152897020431
 30
0.0
 40
0.125
  1
19/32" x 2-13/32"
  0
ENDBLK
  5
2B6A7
  8
0
  0
BLOCK
  8
0
  2
*U303
 70
     1
 10
0.0
 20
0.0
 30
0.0
  3
*U303
  1

  0
INSERT
  5
2B6A9
  8
0
  2
_OPEN30
 10
0.5956433484502101
 20
2.1596052674265129
 30
0.0
 41
0.046875
 42
0.046875
 43
0.046875
 50
233.0048332483891
  0
POLYLINE
  5
2B6AA
  8
0
 66
     1
 10
0.0
 20
0.0
 30
0.0
  0
VERTEX
  5
2B6AB
  8
0
 10
0.6238502696018772
 20
2.197043686518986
 30
0.0
  0
VERTEX
  5
2B6AC
  8
0
 10
1.011849205474334
 20
2.7120260445906288
 30
0.0
  0
VERTEX
  5
2B6AD
  8
0
 10
1.10405488502505
 20
2.7120260445906288
 30
0.0
  0
SEQEND
  5
2B6AE
  8
0
  0
ENDBLK
  5
2B6B0
  8
0
  0
BLOCK
  8
0
  2
*U304
 70
     1
 10
0.0
 20
0.0
 30
0.0
  3
*U304
  1

  0
TEXT
  5
2B6B2
  8
0
 10
1.105181323344913
 20
2.0947880342686331
 30
0.0
 40
0.125
  1
Casing
  0
TEXT
  5
2B6B3
  8
0
 10
1.109785688965649
 20
1.885943104755218
 30
0.0
 40
0.125
  1
TL-2168
  0
TEXT
  5
2B6B4
  8
0
 10
1.105607653494981
 20
1.675478120671543
 30
0.0
 40
0.125
  1
7/8" x 2-3/4"
  0
TEXT
  5
2B6B5
  8
0
 10
1.106801377915172
 20
1.4650131365878689
 30
0.0
 40
0.125
  1
800.66.TAGUE
  0
ENDBLK
  5
2B6B7
  8
0
  0
BLOCK
  8
0
  2
*U305
 70
     1
 10
0.0
 20
0.0
 30
0.0
  3
*U305
  1

  0
TEXT
  5
2B6B9
  8
0
 10
1.384055801306862
 20
2.1394862186629249
 30
0.0
 40
0.125
  1
Casing
  0
TEXT
  5
2B6BA
  8
0
 10
1.388660166927598
 20
1.9306412891495099
 30
0.0
 40
0.125
  1
TL-2180
  0
TEXT
  5
2B6BB
  8
0
 10
1.3854200577870801
 20
1.7201763050658361
 30
0.0
 40
0.125
  1
3/4" x 3-1/2"
  0
TEXT
  5
2B6BC
  8
0
 10
1.3856758558771209
 20
1.5097113209821611
 30
0.0
 40
0.125
  1
800.66.TAGUE
  0
ENDBLK
  5
2B6BE
  8
0
  0
BLOCK
  8
0
  2
*U306
 70
     1
 10
0.0
 20
0.0
 30
0.0
  3
*U306
  1

  0
TEXT
  5
2B6C0
  8
0
 10
1.3886551090457471
 20
1.9241695677066151
 30
0.0
 40
0.125
  1
Casing
  0
TEXT
  5
2B6C1
  8
0
 10
1.3932594746664839
 20
1.715324638193199
 30
0.0
 40
0.125
  1
TL-2192
  0
TEXT
  5
2B6C2
  8
0
 10
1.378337919414097
 20
1.5048596541095249
 30
0.0
 40
0.125
  1
11/16" x 3"
  0
TEXT
  5
2B6C3
  8
0
 10
1.3902751636160069
 20
1.2943946700258511
 30
0.0
 40
0.125
  1
800.66.TAGUE
  0
ENDBLK
  5
2B6C5
  8
0
  0
BLOCK
  8
0
  2
*U307
 70
     1
 10
0.0
 20
0.0
 30
0.0
  3
*U307
  1

  0
TEXT
  5
2B6C7
  8
0
 10
1.735844248321631
 20
1.632650773737752
 30
0.0
 40
0.125
  1
Casing
  0
TEXT
  5
2B6C8
  8
0
 10
1.7404486139423681
 20
1.4238058442243371
 30
0.0
 40
0.125
  1
TL-2216
  0
TEXT
  5
2B6C9
  8
0
 10
1.72552705868998
 20
1.213340860140663
 30
0.0
 40
0.125
  1
1-5/16" x 2-7/8"
  0
TEXT
  5
2B6CA
  8
0
 10
1.7374643028918899
 20
1.002875876056988
 30
0.0
 40
0.125
  1
800.66.TAGUE
  0
ENDBLK
  5
2B6CC
  8
0
  0
BLOCK
  8
0
  2
*U308
 70
     1
 10
0.0
 20
0.0
 30
0.0
  3
*U308
  1

  0
TEXT
  5
2B6CE
  8
0
 10
1.8313353790551661
 20
2.283538324422822
 30
0.0
 40
0.125
  1
Casing
  0
TEXT
  5
2B6CF
  8
0
 10
1.8359397446759029
 20
2.0746933949094069
 30
0.0
 40
0.125
  1
TL-2217
  0
TEXT
  5
2B6D0
  8
0
 10
1.8210181894235149
 20
1.864228410825733
 30
0.0
 40
0.125
  1
1" x 3-15/16"
  0
TEXT
  5
2B6D1
  8
0
 10
1.832955433625425
 20
1.653763426742058
 30
0.0
 40
0.125
  1
800.66.TAGUE
  0
ENDBLK
  5
2B6D3
  8
0
  0
BLOCK
  8
0
  2
*U309
 70
     1
 10
0.0
 20
0.0
 30
0.0
  3
*U309
  1

  0
TEXT
  5
2B6D5
  8
0
 10
2.3132503487693481
 20
2.7003342730909181
 30
0.0
 40
0.125
  1
Casing
  0
TEXT
  5
2B6D6
  8
0
 10
2.3178547143900849
 20
2.491489343577503
 30
0.0
 40
0.125
  1
TL-2228 
  0
TEXT
  5
2B6D7
  8
0
 10
2.302933159137698
 20
2.281024359493828
 30
0.0
 40
0.125
  1
1-1/4" x 4-3/4"
  0
TEXT
  5
2B6D8
  8
0
 10
2.3148704033396079
 20
2.0705593754101539
 30
0.0
 40
0.125
  1
800.66.TAGUE
  0
ENDBLK
  5
2B6DA
  8
0
  0
BLOCK
  8
0
  2
*U310
 70
     1
 10
0.0
 20
0.0
 30
0.0
  3
*U310
  1

  0
TEXT
  5
2B6DC
  8
0
 10
1.3915095624424549
 20
2.383385039296301
 30
0.0
 40
0.125
  1
Casing
  0
TEXT
  5
2B6DD
  8
0
 10
1.396113928063192
 20
2.1745401097828858
 30
0.0
 40
0.125
  1
TL-2229
  0
TEXT
  5
2B6DE
  8
0
 10
1.391935892592524
 20
1.9640751256992119
 30
0.0
 40
0.125
  1
7/8" x 3-3/4"
  0
TEXT
  5
2B6DF
  8
0
 10
1.3931296170127141
 20
1.753610141615537
 30
0.0
 40
0.125
  1
800.66.TAGUE
  0
ENDBLK
  5
2B6E1
  8
0
  0
BLOCK
  8
0
  2
*U311
 70
     1
 10
0.0
 20
0.0
 30
0.0
  3
*U311
  1

  0
TEXT
  5
2B6E3
  8
0
 10
1.87310343834
 20
2.0357620146510431
 30
0.0
 40
0.125
  1
Casing
  0
TEXT
  5
2B6E4
  8
0
 10
1.8777078039607371
 20
1.826917085137628
 30
0.0
 40
0.125
  1
TL-2233
  0
TEXT
  5
2B6E5
  8
0
 10
1.8627862487083491
 20
1.616452101053953
 30
0.0
 40
0.125
  1
13/16" x 3-3/16"
  0
TEXT
  5
2B6E6
  8
0
 10
1.874723492910259
 20
1.4059871169702789
 30
0.0
 40
0.125
  1
800.66.TAGUE
  0
ENDBLK
  5
2B6E8
  8
0
  0
BLOCK
  8
0
  2
*U312
 70
     1
 10
0.0
 20
0.0
 30
0.0
  3
*U312
  1

  0
TEXT
  5
2B6EA
  8
0
 10
1.7459153653937609
 20
1.9448879538140471
 30
0.0
 40
0.125
  1
Casing
  0
TEXT
  5
2B6EB
  8
0
 10
1.7505197310144971
 20
1.736043024300632
 30
0.0
 40
0.125
  1
TL-2250
  0
TEXT
  5
2B6EC
  8
0
 10
1.73559817576211
 20
1.5255780402169581
 30
0.0
 40
0.125
  1
1" x 3-1/2"
  0
TEXT
  5
2B6ED
  8
0
 10
1.7475354199640201
 20
1.3151130561332831
 30
0.0
 40
0.125
  1
800.66.TAGUE
  0
ENDBLK
  5
2B6EF
  8
0
  0
BLOCK
  8
0
  2
*U313
 70
     1
 10
0.0
 20
0.0
 30
0.0
  3
*U313
  1

  0
TEXT
  5
2B6F1
  8
0
 10
1.494383524796238
 20
1.9408940816920379
 30
0.0
 40
0.125
  1
Casing
  0
TEXT
  5
2B6F2
  8
0
 10
1.4989878904169751
 20
1.7320491521786221
 30
0.0
 40
0.125
  1
TL-2251
  0
TEXT
  5
2B6F3
  8
0
 10
1.484066335164588
 20
1.521584168094948
 30
0.0
 40
0.125
  1
11/16" x 2-13/16"
  0
TEXT
  5
2B6F4
  8
0
 10
1.4960035793664981
 20
1.3111191840112739
 30
0.0
 40
0.125
  1
800.66.TAGUE
  0
ENDBLK
  5
2B6F6
  8
0
  0
BLOCK
  8
0
  2
*U314
 70
     1
 10
0.0
 20
0.0
 30
0.0
  3
*U314
  1

  0
TEXT
  5
2B6F8
  8
0
 10
2.2056141602761028
 20
2.266239753984352
 30
0.0
 40
0.125
  1
Casing
  0
TEXT
  5
2B6F9
  8
0
 10
2.2102185258968401
 20
2.0573948244709368
 30
0.0
 40
0.125
  1
TL-2252
  0
TEXT
  5
2B6FA
  8
0
 10
2.1952969706444532
 20
1.8469298403872629
 30
0.0
 40
0.125
  1
1-1/2" x 3-1/2"
  0
TEXT
  5
2B6FB
  8
0
 10
2.2072342148463631
 20
1.636464856303588
 30
0.0
 40
0.125
  1
800.66.TAGUE
  0
ENDBLK
  5
2B6FD
  8
0
  0
BLOCK
  8
0
  2
*U315
 70
     1
 10
0.0
 20
0.0
 30
0.0
  3
*U315
  1

  0
TEXT
  5
2B6FF
  8
0
 10
1.4486104250858931
 20
2.7966822092987669
 30
0.0
 40
0.125
  1
Casing
  0
TEXT
  5
2B700
  8
0
 10
1.45321479070663
 20
2.5878372797853522
 30
0.0
 40
0.125
  1
TL-2262
  0
TEXT
  5
2B701
  8
0
 10
1.449974681566111
 20
2.3773722957016772
 30
0.0
 40
0.125
  1
3/4" x 4-9/16"
  0
TEXT
  5
2B702
  8
0
 10
1.450230479656152
 20
2.1669073116180031
 30
0.0
 40
0.125
  1
800.66.TAGUE
  0
ENDBLK
  5
2B704
  8
0
  0
BLOCK
  8
0
  2
*U316
 70
     1
 10
0.0
 20
0.0
 30
0.0
  3
*U316
  1

  0
TEXT
  5
2B706
  8
0
 10
1.2700763979575289
 20
2.7966822092987669
 30
0.0
 40
0.125
  1
Casing
  0
TEXT
  5
2B707
  8
0
 10
1.2746807635782651
 20
2.5878372797853522
 30
0.0
 40
0.125
  1
TL-2263
  0
TEXT
  5
2B708
  8
0
 10
1.271440654437747
 20
2.3773722957016772
 30
0.0
 40
0.125
  1
3/4" x 5-3/8"
  0
TEXT
  5
2B709
  8
0
 10
1.2716964525277881
 20
2.1669073116180031
 30
0.0
 40
0.125
  1
800.66.TAGUE
  0
ENDBLK
  5
2B70B
  8
0
  0
BLOCK
  8
0
  2
*U317
 70
     1
 10
0.0
 20
0.0
 30
0.0
  3
*U317
  1

  0
TEXT
  5
2B70D
  8
0
 10
1.35392311646459
 20
0.8401630564883522
 30
0.0
 40
0.125
  1
Casing
  0
TEXT
  5
2B70E
  8
0
 10
1.358527482085327
 20
0.6313181269749371
 30
0.0
 40
0.125
  1
TL-2264
  0
TEXT
  5
2B70F
  8
0
 10
1.3552873729448081
 20
0.4208531428912626
 30
0.0
 40
0.125
  1
3/4" x 2-1/2"
  0
TEXT
  5
2B710
  8
0
 10
1.3555431710348489
 20
0.2103881588075882
 30
0.0
 40
0.125
  1
800.66.TAGUE
  0
ENDBLK
  5
2B712
  8
0
  0
BLOCK
  8
0
  2
*U318
 70
     1
 10
0.0
 20
0.0
 30
0.0
  3
*U318
  1

  0
TEXT
  5
2B714
  8
0
 10
1.6100124769691651
 20
3.5240080799240028
 30
0.0
 40
0.125
  1
Casing
  0
TEXT
  5
2B715
  8
0
 10
1.614616842589901
 20
3.3151631504105881
 30
0.0
 40
0.125
  1
TL-2267
  0
TEXT
  5
2B716
  8
0
 10
1.6114619994793971
 20
3.1046981663269131
 30
0.0
 40
0.125
  1
5/8" x 5-9/16"
  0
TEXT
  5
2B717
  8
0
 10
1.611632531539424
 20
2.894233182243239
 30
0.0
 40
0.125
  1
800.66.TAGUE
  0
ENDBLK
  5
2B719
  8
0
  0
BLOCK
  8
0
  2
*U319
 70
     1
 10
0.0
 20
0.0
 30
0.0
  3
*U319
  1

  0
TEXT
  5
2B71B
  8
0
 10
1.7300385356994969
 20
3.5240080799240028
 30
0.0
 40
0.125
  1
Casing
  0
TEXT
  5
2B71C
  8
0
 10
1.7346429013202329
 20
3.3151631504105881
 30
0.0
 40
0.125
  1
TL-2268
  0
TEXT
  5
2B71D
  8
0
 10
1.731488058209729
 20
3.1046981663269131
 30
0.0
 40
0.125
  1
5/8" x 3-3/4"
  0
TEXT
  5
2B71E
  8
0
 10
1.7316585902697561
 20
2.894233182243239
 30
0.0
 40
0.125
  1
800.66.TAGUE
  0
ENDBLK
  5
2B720
  8
0
  0
BLOCK
  8
0
  2
*U320
 70
     1
 10
0.0
 20
0.0
 30
0.0
  3
*U320
  1

  0
TEXT
  5
2B722
  8
0
 10
1.702429561101529
 20
3.0113749150933851
 30
0.0
 40
0.125
  1
Casing
  0
TEXT
  5
2B723
  8
0
 10
1.7070339267222661
 20
2.8025299855799699
 30
0.0
 40
0.125
  1
TL-2273
  0
TEXT
  5
2B724
  8
0
 10
1.700553708441229
 20
2.5920650014962958
 30
0.0
 40
0.125
  1
(2 Piece)
  0
TEXT
  5
2B725
  8
0
 10
1.692112371469878
 20
2.3816000174126222
 30
0.0
 40
0.125
  1
15/16" x 4-1/4"
  0
TEXT
  5
2B726
  8
0
 10
1.7040496156717879
 20
2.1711350333289472
 30
0.0
 40
0.125
  1
800.66.TAGUE
  0
ENDBLK
  5
2B728
  8
0
  0
BLOCK
  8
0
  2
*U321
 70
     1
 10
0.0
 20
0.0
 30
0.0
  3
*U321
  1

  0
TEXT
  5
2B72A
  8
0
 10
1.814658211065681
 20
2.4638364444534928
 30
0.0
 40
0.125
  1
Casing
  0
TEXT
  5
2B72B
  8
0
 10
1.8192625766864181
 20
2.2549915149400781
 30
0.0
 40
0.125
  1
TL-2274
  0
TEXT
  5
2B72C
  8
0
 10
1.8043410214340301
 20
2.0445265308564031
 30
0.0
 40
0.125
  1
13/16" x 3-3/4"
  0
TEXT
  5
2B72D
  8
0
 10
1.81627826563594
 20
1.834061546772729
 30
0.0
 40
0.125
  1
800.66.TAGUE
  0
ENDBLK
  5
2B72F
  8
0
  0
BLOCK
  8
0
  2
*U322
 70
     1
 10
0.0
 20
0.0
 30
0.0
  3
*U322
  1

  0
TEXT
  5
2B731
  8
0
 10
2.0187695351766921
 20
2.0591011086625191
 30
0.0
 40
0.125
  1
Casing
  0
TEXT
  5
2B732
  8
0
 10
2.023373900797429
 20
1.850256179149103
 30
0.0
 40
0.125
  1
TL-2288
  0
TEXT
  5
2B733
  8
0
 10
2.0201337916569111
 20
1.6397911950654289
 30
0.0
 40
0.125
  1
3/4" x 3-3/4"
  0
TEXT
  5
2B734
  8
0
 10
2.020389589746951
 20
1.4293262109817551
 30
0.0
 40
0.125
  1
800.66.TAGUE
  0
ENDBLK
  5
2B736
  8
0
  0
BLOCK
  8
0
  2
*U323
 70
     1
 10
0.0
 20
0.0
 30
0.0
  3
*U323
  1

  0
TEXT
  5
2B738
  8
0
 10
2.1323396999586959
 20
2.058842744993187
 30
0.0
 40
0.125
  1
Casing
  0
TEXT
  5
2B739
  8
0
 10
2.1369440655794332
 20
1.849997815479772
 30
0.0
 40
0.125
  1
TL-2292
  0
TEXT
  5
2B73A
  8
0
 10
2.1220225103270458
 20
1.587963936443846
 30
0.0
 40
0.125
  1
1-
  0
TEXT
  5
2B73B
  8
0
 10
2.272218622196077
 20
1.6773142092951421
 30
0.0
 40
0.0875
  1
5
  0
LINE
  5
2B73C
  8
0
 10
2.2997023529557881
 20
1.6056384054198549
 30
0.0
 11
2.4000782293172209
 21
1.748990013170429
 31
0.0
  0
TEXT
  5
2B73D
  8
0
 10
2.351163597184708
 20
1.558797269777179
 30
0.0
 40
0.0875
  1
16
  0
TEXT
  5
2B73E
  8
0
 10
2.4873675535285011
 20
1.587963936443846
 30
0.0
 40
0.125
  1
" x 4-
  0
TEXT
  5
2B73F
  8
0
 10
2.8756605276076281
 20
1.6773142092951421
 30
0.0
 40
0.0875
  1
15
  0
LINE
  5
2B740
  8
0
 10
2.9711268640972159
 20
1.6056384054198549
 30
0.0
 11
3.0715027404586488
 21
1.748990013170429
 31
0.0
  0
TEXT
  5
2B741
  8
0
 10
3.0225881083261359
 20
1.558797269777179
 30
0.0
 40
0.0875
  1
16
  0
TEXT
  5
2B742
  8
0
 10
3.158792064669929
 20
1.587963936443846
 30
0.0
 40
0.125
  1
"
  0
TEXT
  5
2B743
  8
0
 10
2.1339597545289561
 20
1.4191656190268389
 30
0.0
 40
0.125
  1
800.66.TAGUE
  0
ENDBLK
  5
2B745
  8
0
  0
BLOCK
  8
0
  2
*U324
 70
     1
 10
0.0
 20
0.0
 30
0.0
  3
*U324
  1

  0
TEXT
  5
2B747
  8
0
 10
1.618263192279106
 20
1.1598393046174511
 30
0.0
 40
0.125
  1
Casing
  0
TEXT
  5
2B748
  8
0
 10
1.622867557899843
 20
0.950994375104036
 30
0.0
 40
0.125
  1
TL-2297
  0
TEXT
  5
2B749
  8
0
 10
1.621886998554686
 20
0.7782510826983971
 30
0.0
 40
0.0875
  1
5
  0
LINE
  5
2B74A
  8
0
 10
1.626960327340498
 20
0.7636677493650637
 30
0.0
 11
1.6849753341617799
 21
0.7636677493650637
 31
0.0
  0
TEXT
  5
2B74B
  8
0
 10
1.622185429659734
 20
0.6597341431804342
 30
0.0
 40
0.0875
  1
8
  0
TEXT
  5
2B74C
  8
0
 10
1.6908245838207161
 20
0.6597341431804342
 30
0.0
 40
0.125
  1
"x 2-
  0
TEXT
  5
2B74D
  8
0
 10
2.0389572577634172
 20
0.7782510826983971
 30
0.0
 40
0.0875
  1
3
  0
LINE
  5
2B74E
  8
0
 10
2.0439112141072102
 20
0.7636677493650637
 30
0.0
 11
2.101568103602435
 21
0.7636677493650637
 31
0.0
  0
TEXT
  5
2B74F
  8
0
 10
2.0389572577634172
 20
0.6597341431804342
 30
0.0
 40
0.0875
  1
8
  0
TEXT
  5
2B750
  8
0
 10
2.1074173532613711
 20
0.6597341431804342
 30
0.0
 40
0.125
  1
"
  0
TEXT
  5
2B751
  8
0
 10
1.6198832468493649
 20
0.4909358257634266
 30
0.0
 40
0.125
  1
800.66.TAGUE
  0
ENDBLK
  5
2B753
  8
0
  0
BLOCK
  8
0
  2
*U325
 70
     1
 10
0.0
 20
0.0
 30
0.0
  3
*U325
  1

  0
TEXT
  5
2B755
  8
0
 10
1.892040805761984
 20
1.3272283447324911
 30
0.0
 40
0.125
  1
Casing
  0
TEXT
  5
2B756
  8
0
 10
1.8966451713827199
 20
1.1183834152190759
 30
0.0
 40
0.125
  1
TL-2298
  0
TEXT
  5
2B757
  8
0
 10
1.8956049258165539
 20
0.9456401228134371
 30
0.0
 40
0.0875
  1
3
  0
LINE
  5
2B758
  8
0
 10
1.9224321081451601
 20
0.8739643189381503
 30
0.0
 11
2.0228079845065929
 21
1.0173159266887231
 31
0.0
  0
TEXT
  5
2B759
  8
0
 10
1.985651537912962
 20
0.8289734561467703
 30
0.0
 40
0.0875
  1
4
  0
TEXT
  5
2B75A
  8
0
 10
2.0535744574218291
 20
0.8581401228134371
 30
0.0
 40
0.125
  1
" x 3"
  0
TEXT
  5
2B75B
  8
0
 10
1.8936608603322429
 20
0.6893418053964294
 30
0.0
 40
0.125
  1
800.66.TAGUE
  0
ENDBLK
  5
2B75D
  8
0
  0
BLOCK
  8
0
  2
*U326
 70
     1
 10
0.0
 20
0.0
 30
0.0
  3
*U326
  1

  0
TEXT
  5
2B75F
  8
0
 10
2.2835738038492979
 20
1.7544184293141301
 30
0.0
 40
0.125
  1
Casing
  0
TEXT
  5
2B760
  8
0
 10
2.2881781694700352
 20
1.5455734998007149
 30
0.0
 40
0.125
  1
TL-2301
  0
TEXT
  5
2B761
  8
0
 10
2.2732566142176469
 20
1.3351085157170399
 30
0.0
 40
0.125
  1
1-1/2" x 5"
  0
TEXT
  5
2B762
  8
0
 10
2.2851938584195568
 20
1.1246435316333661
 30
0.0
 40
0.125
  1
800.66.TAGUE
  0
ENDBLK
  5
2B764
  8
0
  0
BLOCK
  8
0
  2
*U327
 70
     1
 10
0.0
 20
0.0
 30
0.0
  3
*U327
  1

  0
TEXT
  5
2B766
  8
0
 10
1.6582458032537251
 20
2.0798603824239459
 30
0.0
 40
0.125
  1
Casing
  0
TEXT
  5
2B767
  8
0
 10
1.662850168874461
 20
1.871015452910531
 30
0.0
 40
0.125
  1
TL-2303
  0
TEXT
  5
2B768
  8
0
 10
1.6596100597339429
 20
1.6605504688268571
 30
0.0
 40
0.125
  1
3/4" x 3-1/2"
  0
TEXT
  5
2B769
  8
0
 10
1.659865857823984
 20
1.4500854847431821
 30
0.0
 40
0.125
  1
800.66.TAGUE
  0
ENDBLK
  5
2B76B
  8
0
  0
BLOCK
  8
0
  2
*U328
 70
     1
 10
0.0
 20
0.0
 30
0.0
  3
*U328
  1

  0
TEXT
  5
2B76D
  8
0
 10
1.431203172034974
 20
1.5392983848263539
 30
0.0
 40
0.125
  1
Casing
  0
TEXT
  5
2B76E
  8
0
 10
1.43580753765571
 20
1.330453455312939
 30
0.0
 40
0.125
  1
TL-2306
  0
TEXT
  5
2B76F
  8
0
 10
1.4325674285151919
 20
1.119988471229264
 30
0.0
 40
0.125
  1
3/4" x 2-3/4"
  0
TEXT
  5
2B770
  8
0
 10
1.432823226605233
 20
0.9095234871455904
 30
0.0
 40
0.125
  1
800.66.TAGUE
  0
ENDBLK
  5
2B772
  8
0
  0
BLOCK
  8
0
  2
*U329
 70
     1
 10
0.0
 20
0.0
 30
0.0
  3
*U329
  1

  0
TEXT
  5
2B774
  8
0
 10
1.336772010030562
 20
1.348181215802599
 30
0.0
 40
0.125
  1
Casing
  0
TEXT
  5
2B775
  8
0
 10
1.3413763756512991
 20
1.139336286289184
 30
0.0
 40
0.125
  1
TL-2307
  0
TEXT
  5
2B776
  8
0
 10
1.338221532540794
 20
0.9288713022055096
 30
0.0
 40
0.125
  1
5/8" x 2-1/4"
  0
TEXT
  5
2B777
  8
0
 10
1.3383920646008209
 20
0.7184063181218353
 30
0.0
 40
0.125
  1
800.66.TAGUE
  0
ENDBLK
  5
2B779
  8
0
  0
BLOCK
  8
0
  2
*U330
 70
     1
 10
0.0
 20
0.0
 30
0.0
  3
*U330
  1

  0
TEXT
  5
2B77B
  8
0
 10
1.4522842025103031
 20
1.654299248457862
 30
0.0
 40
0.125
  1
Casing
  0
TEXT
  5
2B77C
  8
0
 10
1.45688856813104
 20
1.4454543189444471
 30
0.0
 40
0.125
  1
TL-2308
  0
TEXT
  5
2B77D
  8
0
 10
1.4536484589905221
 20
1.2349893348607719
 30
0.0
 40
0.125
  1
3/4" x 2-3/4"
  0
TEXT
  5
2B77E
  8
0
 10
1.453904257080562
 20
1.024524350777098
 30
0.0
 40
0.125
  1
800.66.TAGUE
  0
ENDBLK
  5
2B780
  8
0
  0
BLOCK
  8
0
  2
*U331
 70
     1
 10
0.0
 20
0.0
 30
0.0
  3
*U331
  1

  0
TEXT
  5
2B782
  8
0
 10
1.2779315120029411
 20
1.3905521502452001
 30
0.0
 40
0.125
  1
Casing
  0
TEXT
  5
2B783
  8
0
 10
1.2825358776236779
 20
1.1817072207317849
 30
0.0
 40
0.125
  1
TL-2310
  0
TEXT
  5
2B784
  8
0
 10
1.2793810345131731
 20
0.9712422366481112
 30
0.0
 40
0.125
  1
9/16" x 2-5/16"
  0
TEXT
  5
2B785
  8
0
 10
1.2795515665732
 20
0.7607772525644369
 30
0.0
 40
0.125
  1
800.66.TAGUE
  0
ENDBLK
  5
2B787
  8
0
  0
BLOCK
  8
0
  2
*U332
 70
     1
 10
0.0
 20
0.0
 30
0.0
  3
*U332
  1

  0
TEXT
  5
2B789
  8
0
 10
1.759997716165604
 20
1.572623553305236
 30
0.0
 40
0.125
  1
Casing
  0
TEXT
  5
2B78A
  8
0
 10
1.764602081786341
 20
1.363778623791821
 30
0.0
 40
0.125
  1
TL-2311
  0
TEXT
  5
2B78B
  8
0
 10
1.7613619726458229
 20
1.153313639708146
 30
0.0
 40
0.125
  1
3/4" x 2-1/4"
  0
TEXT
  5
2B78C
  8
0
 10
1.7616177707358629
 20
0.9428486556244724
 30
0.0
 40
0.125
  1
800.66.TAGUE
  0
ENDBLK
  5
2B78E
  8
0
  0
BLOCK
  8
0
  2
*U333
 70
     1
 10
0.0
 20
0.0
 30
0.0
  3
*U333
  1

  0
TEXT
  5
2B790
  8
0
 10
1.890060675979133
 20
1.754419613142902
 30
0.0
 40
0.125
  1
Casing
  0
TEXT
  5
2B791
  8
0
 10
1.89466504159987
 20
1.545574683629487
 30
0.0
 40
0.125
  1
TL-2313
  0
TEXT
  5
2B792
  8
0
 10
1.879743486347482
 20
1.335109699545812
 30
0.0
 40
0.125
  1
1-1/4" x 3-1/8"
  0
TEXT
  5
2B793
  8
0
 10
1.8916807305493919
 20
1.124644715462138
 30
0.0
 40
0.125
  1
800.66.TAGUE
  0
ENDBLK
  5
2B795
  8
0
  0
BLOCK
  8
0
  2
*U334
 70
     1
 10
0.0
 20
0.0
 30
0.0
  3
*U334
  1

  0
TEXT
  5
2B797
  8
0
 10
1.471679351084878
 20
1.534180818898351
 30
0.0
 40
0.125
  1
Casing
  0
TEXT
  5
2B798
  8
0
 10
1.476283716705614
 20
1.325335889384935
 30
0.0
 40
0.125
  1
TL-2317
  0
TEXT
  5
2B799
  8
0
 10
1.4730436075650959
 20
1.1148709053012611
 30
0.0
 40
0.125
  1
3/4" x 2-5/8"
  0
TEXT
  5
2B79A
  8
0
 10
1.473299405655137
 20
0.904405921217587
 30
0.0
 40
0.125
  1
800.66.TAGUE
  0
ENDBLK
  5
2B79C
  8
0
  0
BLOCK
  8
0
  2
*U335
 70
     1
 10
0.0
 20
0.0
 30
0.0
  3
*U335
  1

  0
TEXT
  5
2B79E
  8
0
 10
1.9061884295105971
 20
11.78127341408482
 30
0.0
 40
0.125
  1
Casing
  0
TEXT
  5
2B79F
  8
0
 10
1.9107927951313339
 20
11.572428484571409
 30
0.0
 40
0.125
  1
TL-2318
  0
TEXT
  5
2B7A0
  8
0
 10
1.8958712398789459
 20
11.361963500487731
 30
0.0
 40
0.125
  1
13/16" x 2-1/2"
  0
TEXT
  5
2B7A1
  8
0
 10
1.907808484080856
 20
11.151498516404059
 30
0.0
 40
0.125
  1
800.66.TAGUE
  0
ENDBLK
  5
2B7A3
  8
0
  0
BLOCK
  8
0
  2
*U336
 70
     1
 10
0.0
 20
0.0
 30
0.0
  3
*U336
  1

  0
TEXT
  5
2B7A5
  8
0
 10
1.9061884295105971
 20
1.363854033474142
 30
0.0
 40
0.125
  1
Casing
  0
TEXT
  5
2B7A6
  8
0
 10
1.9107927951313339
 20
1.1550091039607271
 30
0.0
 40
0.125
  1
TL-2318
  0
TEXT
  5
2B7A7
  8
0
 10
1.8958712398789459
 20
0.9445441198770529
 30
0.0
 40
0.125
  1
13/16" x 2-1/2"
  0
TEXT
  5
2B7A8
  8
0
 10
1.907808484080856
 20
0.7340791357933786
 30
0.0
 40
0.125
  1
800.66.TAGUE
  0
ENDBLK
  5
2B7AA
  8
0
  0
BLOCK
  8
0
  2
*U337
 70
     1
 10
0.0
 20
0.0
 30
0.0
  3
*U337
  1

  0
TEXT
  5
2B7AC
  8
0
 10
0.1012929032636172
 20
0.6784900366449325
 30
0.0
 40
0.125
  1
Casing
  0
TEXT
  5
2B7AD
  8
0
 10
0.1058972688843539
 20
0.4696451071315173
 30
0.0
 40
0.125
  1
TL-AB129
  0
TEXT
  5
2B7AE
  8
0
 10
0.0909757136319665
 20
0.2591801230478429
 30
0.0
 40
0.125
  1
1-1/16" x 4-3/8"
  0
TEXT
  5
2B7AF
  8
0
 10
0.1029129578338764
 20
0.0487151389641685
 30
0.0
 40
0.125
  1
800.66.TAGUE
  0
ENDBLK
  5
2B7B1
  8
0
  0
BLOCK
  8
0
  2
*U338
 70
     1
 10
0.0
 20
0.0
 30
0.0
  3
*U338
  1

  0
TEXT
  5
2B7B3
  8
0
 10
2.0942485375340749
 20
2.2769929820040189
 30
0.0
 40
0.125
  1
Casing
  0
TEXT
  5
2B7B4
  8
0
 10
2.0988529031548122
 20
2.0681480524906042
 30
0.0
 40
0.125
  1
TL-2323
  0
TEXT
  5
2B7B5
  8
0
 10
2.0839313479024248
 20
1.857683068406929
 30
0.0
 40
0.125
  1
1" x 3-13/16"
  0
TEXT
  5
2B7B6
  8
0
 10
2.0958685921043352
 20
1.6472180843232549
 30
0.0
 40
0.125
  1
800.66.TAGUE
  0
ENDBLK
  5
2B7B8
  8
0
  0
BLOCK
  8
0
  2
*U339
 70
     1
 10
0.0
 20
0.0
 30
0.0
  3
*U339
  1

  0
TEXT
  5
2B7BA
  8
0
 10
2.580584808171726
 20
2.7135639806379159
 30
0.0
 40
0.125
  1
Casing
  0
TEXT
  5
2B7BB
  8
0
 10
2.5851891737924628
 20
2.5047190511245012
 30
0.0
 40
0.125
  1
TL-2327
  0
TEXT
  5
2B7BC
  8
0
 10
2.570267618540075
 20
2.2942540670408258
 30
0.0
 40
0.125
  1
1-5/32" x 5-1/16"
  0
TEXT
  5
2B7BD
  8
0
 10
2.5822048627419849
 20
2.0837890829571522
 30
0.0
 40
0.125
  1
800.66.TAGUE
  0
ENDBLK
  5
2B7BF
  8
0
  0
BLOCK
  8
0
  2
*U340
 70
     1
 10
0.0
 20
0.0
 30
0.0
  3
*U340
  1

  0
TEXT
  5
2B7C1
  8
0
 10
1.9190613328479511
 20
1.295782999831214
 30
0.0
 40
0.125
  1
TL-1
  0
ENDBLK
  5
2B7C3
  8
0
  0
BLOCK
  8
0
  2
*U341
 70
     1
 10
0.0
 20
0.0
 30
0.0
  3
*U341
  1

  0
INSERT
  5
2B7C5
  8
0
  2
_OPEN30
 10
1.157627917966408
 20
0.91486614290352
 30
0.0
 41
0.046875
 42
0.046875
 43
0.046875
 50
216.7484296297819
  0
POLYLINE
  5
2B7C6
  8
0
 66
     1
 10
0.0
 20
0.0
 30
0.0
  0
VERTEX
  5
2B7C7
  8
0
 10
1.1951874591233931
 20
0.9429115791289877
 30
0.0
  0
VERTEX
  5
2B7C8
  8
0
 10
1.751183850989207
 20
1.3580700413820059
 30
0.0
  0
VERTEX
  5
2B7C9
  8
0
 10
1.8606541022886061
 20
1.3585387979212551
 30
0.0
  0
SEQEND
  5
2B7CA
  8
0
  0
ENDBLK
  5
2B7CC
  8
0
  0
BLOCK
  8
0
  2
*U342
 70
     1
 10
0.0
 20
0.0
 30
0.0
  3
*U342
  1

  0
TEXT
  5
2B7CE
  8
0
 10
1.8095910815485521
 20
3.079512928432802
 30
0.0
 40
0.125
  1
TL-B3
  0
ENDBLK
  5
2B7D0
  8
0
  0
BLOCK
  8
0
  2
*U343
 70
     1
 10
0.0
 20
0.0
 30
0.0
  3
*U343
  1

  0
INSERT
  5
2B7D2
  8
0
  2
_OPEN30
 10
0.7472055334187076
 20
2.413855508076721
 30
0.0
 41
0.046875
 42
0.046875
 43
0.046875
 50
218.96276986434211
  0
POLYLINE
  5
2B7D3
  8
0
 66
     1
 10
0.0
 20
0.0
 30
0.0
  0
VERTEX
  5
2B7D4
  8
0
 10
0.7836534110351114
 20
2.4433312242217049
 30
0.0
  0
VERTEX
  5
2B7D5
  8
0
 10
1.6479170109450361
 20
3.1422687265228428
 30
0.0
  0
VERTEX
  5
2B7D6
  8
0
 10
1.751183850989207
 20
3.1422687265228428
 30
0.0
  0
SEQEND
  5
2B7D7
  8
0
  0
ENDBLK
  5
2B7D9
  8
0
  0
BLOCK
  8
0
  2
*U344
 70
     1
 10
0.0
 20
0.0
 30
0.0
  3
*U344
  1

  0
TEXT
  5
2B7DB
  8
0
 10
2.2380626933440668
 20
2.3289691779722421
 30
0.0
 40
0.125
  1
Casing Assembly
  0
TEXT
  5
2B7DC
  8
0
 10
2.2426670589648041
 20
2.1201242484588261
 30
0.0
 40
0.125
  1
TL-671
  0
TEXT
  5
2B7DD
  8
0
 10
2.2277455037124159
 20
1.909659264375152
 30
0.0
 40
0.125
  1
1-9/16" x 4"
  0
TEXT
  5
2B7DE
  8
0
 10
2.2396827479143262
 20
1.6991942802914779
 30
0.0
 40
0.125
  1
800.66.TAGUE
  0
ENDBLK
  5
2B7E0
  8
0
  0
BLOCK
  8
0
  2
*U345
 70
     1
 10
0.0
 20
0.0
 30
0.0
  3
*U345
  1

  0
TEXT
  5
2B7E2
  8
0
 10
2.1291091216269011
 20
2.816826726523816
 30
0.0
 40
0.125
  1
Casing Assembly
  0
TEXT
  5
2B7E3
  8
0
 10
2.133713487247638
 20
2.6079817970104
 30
0.0
 40
0.125
  1
TL-672
  0
TEXT
  5
2B7E4
  8
0
 10
2.1187919319952511
 20
2.3975168129267259
 30
0.0
 40
0.125
  1
1-3/8" x 5"
  0
TEXT
  5
2B7E5
  8
0
 10
2.1307291761971601
 20
2.1870518288430518
 30
0.0
 40
0.125
  1
800.66.TAGUE
  0
ENDBLK
  5
2B7E7
  8
0
  0
BLOCK
  8
0
  2
*U346
 70
     1
 10
0.0
 20
0.0
 30
0.0
  3
*U346
  1

  0
INSERT
  5
2B7E9
  8
0
  6
CONTINUOUS
  2
_OPEN30
 10
0.8527161685473174
 20
3.6145566882109961
 30
0.0
 41
0.046875
 42
0.046875
 43
0.046875
 50
234.55815641125889
  0
POLYLINE
  5
2B7EA
  8
0
  6
CONTINUOUS
 66
     1
 10
0.0
 20
0.0
 30
0.0
  0
VERTEX
  5
2B7EB
  8
0
  6
CONTINUOUS
 10
0.8798978706948913
 20
3.6527459627964149
 30
0.0
  0
VERTEX
  5
2B7EC
  8
0
  6
CONTINUOUS
 10
1.3444205147814039
 20
4.3053828988445266
 30
0.0
  0
VERTEX
  5
2B7ED
  8
0
  6
CONTINUOUS
 10
1.4736493158457049
 20
4.3053828988445266
 30
0.0
  0
SEQEND
  5
2B7EE
  8
0
  6
CONTINUOUS
  0
ENDBLK
  5
2B7F0
  8
0
  0
BLOCK
  8
0
  2
*U347
 70
     1
 10
0.0
 20
0.0
 30
0.0
  3
*U347
  1

  0
TEXT
  5
2B7F2
  8
0
 10
1.53205654640505
 20
4.2426271007544871
 30
0.0
 40
0.125
  1
TL-600
  0
ENDBLK
  5
2B7F4
  8
0
  0
BLOCK
  8
0
  2
*U348
 70
     1
 10
0.0
 20
0.0
 30
0.0
  3
*U348
  1

  0
TEXT
  5
2B7F6
  8
0
 10
2.0535313020689099
 20
1.181258597845293
 30
0.0
 40
0.125
  1
TL-601
  0
ENDBLK
  5
2B7F8
  8
0
  0
BLOCK
  8
0
  2
*U349
 70
     1
 10
0.0
 20
0.0
 30
0.0
  3
*U349
  1

  0
INSERT
  5
2B7FA
  8
0
  6
CONTINUOUS
  2
_OPEN30
 10
1.3741909242111769
 20
0.5534439833918441
 30
0.0
 41
0.046875
 42
0.046875
 43
0.046875
 50
234.55815641125889
  0
POLYLINE
  5
2B7FB
  8
0
  6
CONTINUOUS
 66
     1
 10
0.0
 20
0.0
 30
0.0
  0
VERTEX
  5
2B7FC
  8
0
  6
CONTINUOUS
 10
1.4013726263587509
 20
0.5916332579772639
 30
0.0
  0
VERTEX
  5
2B7FD
  8
0
  6
CONTINUOUS
 10
1.865895270445264
 20
1.2442701940253751
 30
0.0
  0
VERTEX
  5
2B7FE
  8
0
  6
CONTINUOUS
 10
1.9951240715095651
 20
1.2442701940253751
 30
0.0
  0
SEQEND
  5
2B7FF
  8
0
  6
CONTINUOUS
  0
ENDBLK
  5
2B801
  8
0
  0
BLOCK
  8
0
  2
*U350
 70
     1
 10
0.0
 20
0.0
 30
0.0
  3
*U350
  1

  0
INSERT
  5
2B803
  8
0
  2
_OPEN30
 10
0.7350002852710987
 20
2.695530136402112
 30
0.0
 41
0.046875
 42
0.046875
 43
0.046875
 50
229.24315883358
  0
POLYLINE
  5
2B804
  8
0
 66
     1
 10
0.0
 20
0.0
 30
0.0
  0
VERTEX
  5
2B805
  8
0
 10
0.7656026384773922
 20
2.731037341350365
 30
0.0
  0
VERTEX
  5
2B806
  8
0
 10
1.428853988670084
 20
3.5005925930247481
 30
0.0
  0
VERTEX
  5
2B807
  8
0
 10
1.523894601830591
 20
3.5005925930247481
 30
0.0
  0
SEQEND
  5
2B808
  8
0
  0
ENDBLK
  5
2B80A
  8
0
  0
BLOCK
  8
0
  2
*U351
 70
     1
 10
0.0
 20
0.0
 30
0.0
  3
*U351
  1

  0
TEXT
  5
2B80C
  8
0
 10
1.582301832389936
 20
3.4378367949347068
 30
0.0
 40
0.125
  1
TL-548
  0
ENDBLK
  5
2B80E
  8
0
  0
BLOCK
  8
0
  2
*U352
 70
     1
 10
0.0
 20
0.0
 30
0.0
  3
*U352
  1

  0
INSERT
  5
2B810
  8
0
  2
_OPEN30
 10
1.6875002829754631
 20
0.2402104670816243
 30
0.0
 41
0.046875
 42
0.046875
 43
0.046875
 50
222.26620264229399
  0
POLYLINE
  5
2B811
  8
0
 66
     1
 10
0.0
 20
0.0
 30
0.0
  0
VERTEX
  5
2B812
  8
0
 10
1.722189093583981
 20
0.2717374720704648
 30
0.0
  0
VERTEX
  5
2B813
  8
0
 10
2.3792611196375901
 20
0.8689188882108282
 30
0.0
  0
VERTEX
  5
2B814
  8
0
 10
2.4878790703241971
 20
0.8689188882108282
 30
0.0
  0
SEQEND
  5
2B815
  8
0
  0
ENDBLK
  5
2B817
  8
0
  0
BLOCK
  8
0
  2
*U353
 70
     1
 10
0.0
 20
0.0
 30
0.0
  3
*U353
  1

  0
TEXT
  5
2B819
  8
0
 10
2.5462863008835419
 20
0.8061630901207874
 30
0.0
 40
0.125
  1
TL-288
  0
ENDBLK
  5
2B81B
  8
0
  0
BLOCK
  8
0
  2
*U354
 70
     1
 10
0.0
 20
0.0
 30
0.0
  3
*U354
  1

  0
TEXT
  5
2B81D
  8
0
 10
1.969753734268044
 20
2.5824193190047859
 30
0.0
 40
0.125
  1
Casing Assembly
  0
TEXT
  5
2B81E
  8
0
 10
1.97435809988878
 20
2.3735743894913708
 30
0.0
 40
0.125
  1
TL-673
  0
TEXT
  5
2B81F
  8
0
 10
1.9594365446363931
 20
2.1631094054076971
 30
0.0
 40
0.125
  1
1-11/16" x 4-7/8"
  0
TEXT
  5
2B820
  8
0
 10
1.9713737888383029
 20
1.9526444213240219
 30
0.0
 40
0.125
  1
800.66.TAGUE
  0
ENDBLK
  5
2B822
  8
0
  0
BLOCK
  8
0
  2
*U355
 70
     1
 10
0.0
 20
0.0
 30
0.0
  3
*U355
  1

  0
INSERT
  5
2B824
  8
0
  6
CONTINUOUS
  2
_OPEN30
 10
1.4994021531804831
 20
4.3629249403079484
 30
0.0
 41
0.046875
 42
0.046875
 43
0.046875
 50
134.00000000000509
  0
POLYLINE
  5
2B825
  8
0
  6
CONTINUOUS
 66
     1
 10
0.0
 20
0.0
 30
0.0
  0
VERTEX
  5
2B826
  8
0
  6
CONTINUOUS
 10
1.5319642642957509
 20
4.3292058871670758
 30
0.0
  0
VERTEX
  5
2B827
  8
0
  6
CONTINUOUS
 10
1.929846722834156
 20
3.9171865400251131
 30
0.0
  0
VERTEX
  5
2B828
  8
0
  6
CONTINUOUS
 10
2.0080997334262629
 20
3.9159487828992492
 30
0.0
  0
SEQEND
  5
2B829
  8
0
  6
CONTINUOUS
  0
ENDBLK
  5
2B82B
  8
0
  0
BLOCK
  8
0
  2
*U356
 70
     1
 10
0.0
 20
0.0
 30
0.0
  3
*U356
  1

  0
TEXT
  5
2B82D
  8
0
 10
2.0665069639856082
 20
3.8531929848092079
 30
0.0
 40
0.125
  1
TL-35
  0
ENDBLK
  5
2B82F
  8
0
  0
BLOCK
  8
0
  2
*U357
 70
     1
 10
0.0
 20
0.0
 30
0.0
  3
*U357
  1

  0
INSERT
  5
2B831
  8
0
  6
CONTINUOUS
  2
_OPEN30
 10
0.7500014986160295
 20
2.5599999477685742
 30
0.0
 41
0.046875
 42
0.046875
 43
0.046875
 50
211.22282036974971
  0
POLYLINE
  5
2B832
  8
0
  6
CONTINUOUS
 66
     1
 10
0.0
 20
0.0
 30
0.0
  0
VERTEX
  5
2B833
  8
0
  6
CONTINUOUS
 10
0.7900870236334329
 20
2.5842984314471731
 30
0.0
  0
VERTEX
  5
2B834
  8
0
  6
CONTINUOUS
 10
1.202239508309787
 20
2.8341312680547608
 30
0.0
  0
VERTEX
  5
2B835
  8
0
  6
CONTINUOUS
 10
1.296378713534295
 20
2.8341312680547608
 30
0.0
  0
SEQEND
  5
2B836
  8
0
  6
CONTINUOUS
  0
ENDBLK
  5
2B838
  8
0
  0
BLOCK
  8
0
  2
*U358
 70
     1
 10
0.0
 20
0.0
 30
0.0
  3
*U358
  1

  0
TEXT
  5
2B83A
  8
0
 10
1.351545834953122
 20
2.7694996173044202
 30
0.0
 40
0.125
  1
3/4" x 3-1/2" Board
  0
TEXT
  5
2B83B
  8
0
 10
1.358878713534295
 20
2.5611662839710871
 30
0.0
 40
0.125
  1
 
  0
ENDBLK
  5
2B83D
  8
0
  0
BLOCK
  8
0
  2
*U359
 70
     1
 10
0.0
 20
0.0
 30
0.0
  3
*U359
  1

  0
INSERT
  5
2B83F
  8
0
  6
CONTINUOUS
  2
_OPEN30
 10
1.125001498616029
 20
0.1562499477686288
 30
0.0
 41
0.046875
 42
0.046875
 43
0.046875
 50
212.76268937861931
  0
POLYLINE
  5
2B840
  8
0
  6
CONTINUOUS
 66
     1
 10
0.0
 20
0.0
 30
0.0
  0
VERTEX
  5
2B841
  8
0
  6
CONTINUOUS
 10
1.1644195852697261
 20
0.1816168567163431
 30
0.0
  0
VERTEX
  5
2B842
  8
0
  6
CONTINUOUS
 10
1.556691529198474
 20
0.4340574881402972
 30
0.0
  0
VERTEX
  5
2B843
  8
0
  6
CONTINUOUS
 10
1.6253854855608549
 20
0.4340574881402972
 30
0.0
  0
SEQEND
  5
2B844
  8
0
  6
CONTINUOUS
  0
ENDBLK
  5
2B846
  8
0
  0
BLOCK
  8
0
  2
*U360
 70
     1
 10
0.0
 20
0.0
 30
0.0
  3
*U360
  1

  0
TEXT
  5
2B848
  8
0
 10
1.6837927161202
 20
0.3710458919602153
 30
0.0
 40
0.125
  1
TL-522
  0
ENDBLK
  5
2B84A
  8
0
  0
BLOCK
  8
0
  2
*U361
 70
     1
 10
0.0
 20
0.0
 30
0.0
  3
*U361
  1

  0
TEXT
  5
2B84C
  8
0
 10
2.1851856010601169
 20
2.0762741395129911
 30
0.0
 40
0.125
  1
Casing Assembly
  0
TEXT
  5
2B84D
  8
0
 10
2.1897899666808538
 20
1.867429209999576
 30
0.0
 40
0.125
  1
TL-674
  0
TEXT
  5
2B84E
  8
0
 10
2.18876677432069
 20
1.6585842804861599
 30
0.0
 40
0.125
  1
2" x 5"
  0
TEXT
  5
2B84F
  8
0
 10
2.1868056556303759
 20
1.448119296402486
 30
0.0
 40
0.125
  1
800.66.TAGUE
  0
ENDBLK
  5
2B851
  8
0
  0
BLOCK
  8
0
  2
*U362
 70
     1
 10
0.0
 20
0.0
 30
0.0
  3
*U362
  1

  0
TEXT
  5
2B853
  8
0
 10
2.0887645313481231
 20
2.7935520515574281
 30
0.0
 40
0.125
  1
Casing Assembly
  0
TEXT
  5
2B854
  8
0
 10
2.09336889696886
 20
2.584707122044013
 30
0.0
 40
0.125
  1
TL-670
  0
TEXT
  5
2B855
  8
0
 10
2.0784473417164731
 20
2.374242137960338
 30
0.0
 40
0.125
  1
1-9/16" x 5-3/8"
  0
TEXT
  5
2B856
  8
0
 10
2.0903845859183821
 20
2.1637771538766639
 30
0.0
 40
0.125
  1
800.66.TAGUE
  0
ENDBLK
  5
2B858
  8
0
  0
BLOCK
  8
0
  2
*U363
 70
     1
 10
0.0
 20
0.0
 30
0.0
  3
*U363
  1

  0
INSERT
  5
2B85A
  8
0
  2
_OPEN30
 10
0.6613059133987349
 20
3.189559989571876
 30
0.0
 41
0.046875
 42
0.046875
 43
0.046875
 50
225.6431601394807
  0
POLYLINE
  5
2B85B
  8
0
 66
     1
 10
0.0
 20
0.0
 30
0.0
  0
VERTEX
  5
2B85C
  8
0
 10
0.6940773949332565
 20
3.223075592252306
 30
0.0
  0
VERTEX
  5
2B85D
  8
0
 10
1.38883535077133
 20
3.9336089742237159
 30
0.0
  0
VERTEX
  5
2B85E
  8
0
 10
1.503561038951772
 20
3.9336089742237159
 30
0.0
  0
SEQEND
  5
2B85F
  8
0
  0
ENDBLK
  5
2B861
  8
0
  0
BLOCK
  8
0
  2
*U364
 70
     1
 10
0.0
 20
0.0
 30
0.0
  3
*U364
  1

  0
TEXT
  5
2B863
  8
0
 10
1.561968269511117
 20
3.8711089742237159
 30
0.0
 40
0.125
  1
TL-545
  0
ENDBLK
  5
2B865
  8
0
  0
BLOCK
  8
0
  2
*U365
 70
     1
 10
0.0
 20
0.0
 30
0.0
  3
*U365
  1

  0
INSERT
  5
2B867
  8
0
  2
_OPEN30
 10
1.1604393609841279
 20
0.9148647183836828
 30
0.0
 41
0.046875
 42
0.046875
 43
0.046875
 50
216.74842962978889
  0
POLYLINE
  5
2B868
  8
0
 66
     1
 10
0.0
 20
0.0
 30
0.0
  0
VERTEX
  5
2B869
  8
0
 10
1.197998902141109
 20
0.942910154609155
 30
0.0
  0
VERTEX
  5
2B86A
  8
0
 10
1.7539952940069261
 20
1.3580686168622831
 30
0.0
  0
VERTEX
  5
2B86B
  8
0
 10
1.863465545306326
 20
1.358537373401532
 30
0.0
  0
SEQEND
  5
2B86C
  8
0
  0
ENDBLK
  5
2B86E
  8
0
  0
BLOCK
  8
0
  2
*U366
 70
     1
 10
0.0
 20
0.0
 30
0.0
  3
*U366
  1

  0
TEXT
  5
2B870
  8
0
 10
1.9218727758656711
 20
1.2957815753114901
 30
0.0
 40
0.125
  1
TL-1
  0
ENDBLK
  5
2B872
  8
0
  0
BLOCK
  8
0
  2
*U367
 70
     1
 10
0.0
 20
0.0
 30
0.0
  3
*U367
  1

  0
TEXT
  5
2B874
  8
0
 10
-380.40252861417719
 20
845.44432377621035
 30
0.0
 40
0.125
  1
Casing Assembly
  0
TEXT
  5
2B875
  8
0
 10
-380.39792424855648
 20
845.23547884669711
 30
0.0
 40
0.125
  1
TL-670
  0
TEXT
  5
2B876
  8
0
 10
-380.41284580380892
 20
845.02501386261326
 30
0.0
 40
0.125
  1
1-9/16" x 5-3/8"
  0
TEXT
  5
2B877
  8
0
 10
-380.40090855960688
 20
844.81454887852965
 30
0.0
 40
0.125
  1
800.66.TAGUE
  0
ENDBLK
  5
2B879
  8
0
  0
BLOCK
  8
0
  2
*U368
 70
     1
 10
0.0
 20
0.0
 30
0.0
  3
*U368
  1

  0
INSERT
  5
2B87B
  8
0
  2
_OPEN30
 10
-381.8299872321266
 20
845.84033171422493
 30
0.0
 41
0.046875
 42
0.046875
 43
0.046875
 50
225.6431601394807
  0
POLYLINE
  5
2B87C
  8
0
 66
     1
 10
0.0
 20
0.0
 30
0.0
  0
VERTEX
  5
2B87D
  8
0
 10
-381.7972157505921
 20
845.8738473169052
 30
0.0
  0
VERTEX
  5
2B87E
  8
0
 10
-381.102457794754
 20
846.58438069887677
 30
0.0
  0
VERTEX
  5
2B87F
  8
0
 10
-380.9877321065735
 20
846.58438069887677
 30
0.0
  0
SEQEND
  5
2B880
  8
0
  0
ENDBLK
  5
2B882
  8
0
  0
BLOCK
  8
0
  2
*U369
 70
     1
 10
0.0
 20
0.0
 30
0.0
  3
*U369
  1

  0
TEXT
  5
2B884
  8
0
 10
-380.92932487601422
 20
846.52188069887666
 30
0.0
 40
0.125
  1
TL-545
  0
ENDBLK
  5
2B886
  8
0
  0
BLOCK
  8
0
  2
*U370
 70
     1
 10
0.0
 20
0.0
 30
0.0
  3
*U370
  1

  0
INSERT
  5
2B888
  8
0
  2
_OPEN30
 10
-381.3308537845412
 20
843.56563644303685
 30
0.0
 41
0.046875
 42
0.046875
 43
0.046875
 50
216.74842962978889
  0
POLYLINE
  5
2B889
  8
0
 66
     1
 10
0.0
 20
0.0
 30
0.0
  0
VERTEX
  5
2B88A
  8
0
 10
-381.2932942433842
 20
843.59368187926225
 30
0.0
  0
VERTEX
  5
2B88B
  8
0
 10
-380.73729785151841
 20
844.00884034151534
 30
0.0
  0
VERTEX
  5
2B88C
  8
0
 10
-380.62782760021901
 20
844.00930909805459
 30
0.0
  0
SEQEND
  5
2B88D
  8
0
  0
ENDBLK
  5
2B88F
  8
0
  0
BLOCK
  8
0
  2
*U371
 70
     1
 10
0.0
 20
0.0
 30
0.0
  3
*U371
  1

  0
TEXT
  5
2B891
  8
0
 10
-380.56942036965972
 20
843.94655329996442
 30
0.0
 40
0.125
  1
TL-1
  0
ENDBLK
  5
2B893
  8
0
  0
ENDSEC
  0
SECTION
  2
ENTITIES
  0
INSERT
  5
2B281
  8
0
  2
*U367
 10
0.0
 20
0.0
 30
0.0
  0
INSERT
  5
2B282
  8
0
  2
*U368
 10
0.0
 20
0.0
 30
0.0
1001
ACAD
1000
DSTYLE
1002
{
1070
   147
1040
0.0625
1070
    77
1070
     0
1002
}
  0
INSERT
  5
2B283
  8
0
  2
*U369
 10
0.0
 20
0.0
 30
0.0
  0
ARC
  5
2B284
  8
0
 10
-381.63130710839562
 20
845.95880379395476
 30
0.0
 40
0.2313210436629734
 50
180.0
 51
241.61487407083351
  0
LINE
  5
2B285
  8
0
  6
CONTINUOUS
 10
-381.86262815205862
 20
845.95880379395476
 30
0.0
 11
-381.86262815205862
 21
846.00947197189976
 31
0.0
  0
POLYLINE
  8
0
  5
2B894
  66
     1
 10
0.000000
 20
0.000000
 30
0.000000
  70
     8
  0
VERTEX
  8
0
  5
2B895
 10
-382.134
 20
847.529
 30
0.000000
  70
    32
  0
VERTEX
  8
0
  5
2B896
 10
-382.132
 20
847.530
 30
0.000000
  70
    32
  0
VERTEX
  8
0
  5
2B897
 10
-382.129
 20
847.531
 30
0.000000
  70
    32
  0
VERTEX
  8
0
  5
2B898
 10
-382.127
 20
847.532
 30
0.000000
  70
    32
  0
VERTEX
  8
0
  5
2B899
 10
-382.124
 20
847.533
 30
0.000000
  70
    32
  0
VERTEX
  8
0
  5
2B89A
 10
-382.122
 20
847.534
 30
0.000000
  70
    32
  0
VERTEX
  8
0
  5
2B89B
 10
-382.119
 20
847.535
 30
0.000000
  70
    32
  0
VERTEX
  8
0
  5
2B89C
 10
-382.116
 20
847.537
 30
0.000000
  70
    32
  0
VERTEX
  8
0
  5
2B89D
 10
-382.114
 20
847.538
 30
0.000000
  70
    32
  0
VERTEX
  8
0
  5
2B89E
 10
-382.111
 20
847.539
 30
0.000000
  70
    32
  0
VERTEX
  8
0
  5
2B89F
 10
-382.109
 20
847.541
 30
0.000000
  70
    32
  0
VERTEX
  8
0
  5
2B8A0
 10
-382.107
 20
847.542
 30
0.000000
  70
    32
  0
VERTEX
  8
0
  5
2B8A1
 10
-382.104
 20
847.543
 30
0.000000
  70
    32
  0
VERTEX
  8
0
  5
2B8A2
 10
-382.102
 20
847.545
 30
0.000000
  70
    32
  0
VERTEX
  8
0
  5
2B8A3
 10
-382.099
 20
847.546
 30
0.000000
  70
    32
  0
VERTEX
  8
0
  5
2B8A4
 10
-382.097
 20
847.548
 30
0.000000
  70
    32
  0
VERTEX
  8
0
  5
2B8A5
 10
-382.095
 20
847.549
 30
0.000000
  70
    32
  0
VERTEX
  8
0
  5
2B8A6
 10
-382.092
 20
847.551
 30
0.000000
  70
    32
  0
VERTEX
  8
0
  5
2B8A7
 10
-382.090
 20
847.553
 30
0.000000
  70
    32
  0
VERTEX
  8
0
  5
2B8A8
 10
-382.088
 20
847.554
 30
0.000000
  70
    32
  0
VERTEX
  8
0
  5
2B8A9
 10
-382.085
 20
847.556
 30
0.000000
  70
    32
  0
VERTEX
  8
0
  5
2B8AA
 10
-382.083
 20
847.558
 30
0.000000
  70
    32
  0
VERTEX
  8
0
  5
2B8AB
 10
-382.081
 20
847.559
 30
0.000000
  70
    32
  0
VERTEX
  8
0
  5
2B8AC
 10
-382.079
 20
847.561
 30
0.000000
  70
    32
  0
VERTEX
  8
0
  5
2B8AD
 10
-382.076
 20
847.563
 30
0.000000
  70
    32
  0
VERTEX
  8
0
  5
2B8AE
 10
-382.074
 20
847.565
 30
0.000000
  70
    32
  0
VERTEX
  8
0
  5
2B8AF
 10
-382.072
 20
847.567
 30
0.000000
  70
    32
  0
VERTEX
  8
0
  5
2B8B0
 10
-382.070
 20
847.568
 30
0.000000
  70
    32
  0
VERTEX
  8
0
  5
2B8B1
 10
-382.068
 20
847.570
 30
0.000000
  70
    32
  0
VERTEX
  8
0
  5
2B8B2
 10
-382.066
 20
847.572
 30
0.000000
  70
    32
  0
VERTEX
  8
0
  5
2B8B3
 10
-382.063
 20
847.574
 30
0.000000
  70
    32
  0
VERTEX
  8
0
  5
2B8B4
 10
-382.061
 20
847.576
 30
0.000000
  70
    32
  0
VERTEX
  8
0
  5
2B8B5
 10
-382.059
 20
847.578
 30
0.000000
  70
    32
  0
VERTEX
  8
0
  5
2B8B6
 10
-382.057
 20
847.580
 30
0.000000
  70
    32
  0
VERTEX
  8
0
  5
2B8B7
 10
-382.055
 20
847.582
 30
0.000000
  70
    32
  0
VERTEX
  8
0
  5
2B8B8
 10
-382.053
 20
847.584
 30
0.000000
  70
    32
  0
VERTEX
  8
0
  5
2B8B9
 10
-382.051
 20
847.587
 30
0.000000
  70
    32
  0
VERTEX
  8
0
  5
2B8BA
 10
-382.049
 20
847.589
 30
0.000000
  70
    32
  0
VERTEX
  8
0
  5
2B8BB
 10
-382.047
 20
847.591
 30
0.000000
  70
    32
  0
VERTEX
  8
0
  5
2B8BC
 10
-382.046
 20
847.593
 30
0.000000
  70
    32
  0
VERTEX
  8
0
  5
2B8BD
 10
-382.044
 20
847.595
 30
0.000000
  70
    32
  0
VERTEX
  8
0
  5
2B8BE
 10
-382.042
 20
847.597
 30
0.000000
  70
    32
  0
VERTEX
  8
0
  5
2B8BF
 10
-382.040
 20
847.600
 30
0.000000
  70
    32
  0
VERTEX
  8
0
  5
2B8C0
 10
-382.038
 20
847.602
 30
0.000000
  70
    32
  0
VERTEX
  8
0
  5
2B8C1
 10
-382.036
 20
847.604
 30
0.000000
  70
    32
  0
VERTEX
  8
0
  5
2B8C2
 10
-382.035
 20
847.606
 30
0.000000
  70
    32
  0
VERTEX
  8
0
  5
2B8C3
 10
-382.033
 20
847.609
 30
0.000000
  70
    32
  0
VERTEX
  8
0
  5
2B8C4
 10
-382.031
 20
847.611
 30
0.000000
  70
    32
  0
VERTEX
  8
0
  5
2B8C5
 10
-382.030
 20
847.613
 30
0.000000
  70
    32
  0
VERTEX
  8
0
  5
2B8C6
 10
-382.028
 20
847.616
 30
0.000000
  70
    32
  0
VERTEX
  8
0
  5
2B8C7
 10
-382.026
 20
847.618
 30
0.000000
  70
    32
  0
VERTEX
  8
0
  5
2B8C8
 10
-382.025
 20
847.620
 30
0.000000
  70
    32
  0
VERTEX
  8
0
  5
2B8C9
 10
-382.023
 20
847.623
 30
0.000000
  70
    32
  0
VERTEX
  8
0
  5
2B8CA
 10
-382.022
 20
847.625
 30
0.000000
  70
    32
  0
VERTEX
  8
0
  5
2B8CB
 10
-382.020
 20
847.628
 30
0.000000
  70
    32
  0
VERTEX
  8
0
  5
2B8CC
 10
-382.018
 20
847.630
 30
0.000000
  70
    32
  0
VERTEX
  8
0
  5
2B8CD
 10
-382.017
 20
847.633
 30
0.000000
  70
    32
  0
VERTEX
  8
0
  5
2B8CE
 10
-382.016
 20
847.635
 30
0.000000
  70
    32
  0
VERTEX
  8
0
  5
2B8CF
 10
-382.014
 20
847.637
 30
0.000000
  70
    32
  0
VERTEX
  8
0
  5
2B8D0
 10
-382.013
 20
847.640
 30
0.000000
  70
    32
  0
VERTEX
  8
0
  5
2B8D1
 10
-382.011
 20
847.642
 30
0.000000
  70
    32
  0
VERTEX
  8
0
  5
2B8D2
 10
-382.010
 20
847.645
 30
0.000000
  70
    32
  0
VERTEX
  8
0
  5
2B8D3
 10
-382.009
 20
847.647
 30
0.000000
  70
    32
  0
VERTEX
  8
0
  5
2B8D4
 10
-382.007
 20
847.650
 30
0.000000
  70
    32
  0
VERTEX
  8
0
  5
2B8D5
 10
-382.006
 20
847.653
 30
0.000000
  70
    32
  0
VERTEX
  8
0
  5
2B8D6
 10
-382.005
 20
847.655
 30
0.000000
  70
    32
  0
VERTEX
  8
0
  5
2B8D7
 10
-382.004
 20
847.658
 30
0.000000
  70
    32
  0
VERTEX
  8
0
  5
2B8D8
 10
-382.002
 20
847.660
 30
0.000000
  70
    32
  0
VERTEX
  8
0
  5
2B8D9
 10
-382.001
 20
847.663
 30
0.000000
  70
    32
  0
VERTEX
  8
0
  5
2B8DA
 10
-382.000
 20
847.665
 30
0.000000
  70
    32
  0
VERTEX
  8
0
  5
2B8DB
 10
-381.999
 20
847.668
 30
0.000000
  70
    32
  0
VERTEX
  8
0
  5
2B8DC
 10
-381.998
 20
847.671
 30
0.000000
  70
    32
  0
VERTEX
  8
0
  5
2B8DD
 10
-381.997
 20
847.673
 30
0.000000
  70
    32
  0
VERTEX
  8
0
  5
2B8DE
 10
-381.996
 20
847.676
 30
0.000000
  70
    32
  0
VERTEX
  8
0
  5
2B8DF
 10
-381.995
 20
847.679
 30
0.000000
  70
    32
  0
VERTEX
  8
0
  5
2B8E0
 10
-381.994
 20
847.681
 30
0.000000
  70
    32
  0
VERTEX
  8
0
  5
2B8E1
 10
-381.993
 20
847.684
 30
0.000000
  70
    32
  0
VERTEX
  8
0
  5
2B8E2
 10
-381.992
 20
847.687
 30
0.000000
  70
    32
  0
VERTEX
  8
0
  5
2B8E3
 10
-381.991
 20
847.689
 30
0.000000
  70
    32
  0
VERTEX
  8
0
  5
2B8E4
 10
-381.990
 20
847.692
 30
0.000000
  70
    32
  0
VERTEX
  8
0
  5
2B8E5
 10
-381.989
 20
847.695
 30
0.000000
  70
    32
  0
VERTEX
  8
0
  5
2B8E6
 10
-381.988
 20
847.697
 30
0.000000
  70
    32
  0
VERTEX
  8
0
  5
2B8E7
 10
-381.987
 20
847.700
 30
0.000000
  70
    32
  0
VERTEX
  8
0
  5
2B8E8
 10
-381.987
 20
847.703
 30
0.000000
  70
    32
  0
VERTEX
  8
0
  5
2B8E9
 10
-381.986
 20
847.706
 30
0.000000
  70
    32
  0
VERTEX
  8
0
  5
2B8EA
 10
-381.985
 20
847.708
 30
0.000000
  70
    32
  0
VERTEX
  8
0
  5
2B8EB
 10
-381.984
 20
847.711
 30
0.000000
  70
    32
  0
VERTEX
  8
0
  5
2B8EC
 10
-381.984
 20
847.714
 30
0.000000
  70
    32
  0
VERTEX
  8
0
  5
2B8ED
 10
-381.983
 20
847.717
 30
0.000000
  70
    32
  0
VERTEX
  8
0
  5
2B8EE
 10
-381.982
 20
847.719
 30
0.000000
  70
    32
  0
VERTEX
  8
0
  5
2B8EF
 10
-381.982
 20
847.722
 30
0.000000
  70
    32
  0
VERTEX
  8
0
  5
2B8F0
 10
-381.981
 20
847.725
 30
0.000000
  70
    32
  0
VERTEX
  8
0
  5
2B8F1
 10
-381.981
 20
847.728
 30
0.000000
  70
    32
  0
VERTEX
  8
0
  5
2B8F2
 10
-381.980
 20
847.730
 30
0.000000
  70
    32
  0
VERTEX
  8
0
  5
2B8F3
 10
-381.980
 20
847.733
 30
0.000000
  70
    32
  0
VERTEX
  8
0
  5
2B8F4
 10
-381.979
 20
847.736
 30
0.000000
  70
    32
  0
VERTEX
  8
0
  5
2B8F5
 10
-381.979
 20
847.739
 30
0.000000
  70
    32
  0
VERTEX
  8
0
  5
2B8F6
 10
-381.978
 20
847.742
 30
0.000000
  70
    32
  0
VERTEX
  8
0
  5
2B8F7
 10
-381.978
 20
847.744
 30
0.000000
  70
    32
  0
VERTEX
  8
0
  5
2B8F8
 10
-381.978
 20
847.747
 30
0.000000
  70
    32
  0
VERTEX
  8
0
  5
2B8F9
 10
-381.977
 20
847.750
 30
0.000000
  70
    32
  0
VERTEX
  8
0
  5
2B8FA
 10
-381.977
 20
847.753
 30
0.000000
  70
    32
  0
VERTEX
  8
0
  5
2B8FB
 10
-381.977
 20
847.755
 30
0.000000
  70
    32
  0
VERTEX
  8
0
  5
2B8FC
 10
-381.977
 20
847.758
 30
0.000000
  70
    32
  0
VERTEX
  8
0
  5
2B8FD
 10
-381.976
 20
847.761
 30
0.000000
  70
    32
  0
VERTEX
  8
0
  5
2B8FE
 10
-381.976
 20
847.764
 30
0.000000
  70
    32
  0
VERTEX
  8
0
  5
2B8FF
 10
-381.976
 20
847.767
 30
0.000000
  70
    32
  0
VERTEX
  8
0
  5
2B900
 10
-381.976
 20
847.770
 30
0.000000
  70
    32
  0
VERTEX
  8
0
  5
2B901
 10
-381.976
 20
847.772
 30
0.000000
  70
    32
  0
VERTEX
  8
0
  5
2B902
 10
-381.976
 20
847.775
 30
0.000000
  70
    32
  0
VERTEX
  8
0
  5
2B903
 10
-381.976
 20
847.778
 30
0.000000
  70
    32
  0
VERTEX
  8
0
  5
2B904
 10
-381.976
 20
847.781
 30
0.000000
  70
    32
  0
VERTEX
  8
0
  5
2B905
 10
-381.976
 20
847.784
 30
0.000000
  70
    32
  0
VERTEX
  8
0
  5
2B906
 10
-381.976
 20
847.786
 30
0.000000
  70
    32
  0
VERTEX
  8
0
  5
2B907
 10
-381.976
 20
847.789
 30
0.000000
  70
    32
  0
VERTEX
  8
0
  5
2B908
 10
-381.976
 20
847.792
 30
0.000000
  70
    32
  0
VERTEX
  8
0
  5
2B909
 10
-381.976
 20
847.795
 30
0.000000
  70
    32
  0
VERTEX
  8
0
  5
2B90A
 10
-381.976
 20
847.798
 30
0.000000
  70
    32
  0
VERTEX
  8
0
  5
2B90B
 10
-381.976
 20
847.800
 30
0.000000
  70
    32
  0
VERTEX
  8
0
  5
2B90C
 10
-381.976
 20
847.803
 30
0.000000
  70
    32
  0
VERTEX
  8
0
  5
2B90D
 10
-381.977
 20
847.806
 30
0.000000
  70
    32
  0
VERTEX
  8
0
  5
2B90E
 10
-381.977
 20
847.809
 30
0.000000
  70
    32
  0
VERTEX
  8
0
  5
2B90F
 10
-381.977
 20
847.812
 30
0.000000
  70
    32
  0
VERTEX
  8
0
  5
2B910
 10
-381.978
 20
847.814
 30
0.000000
  70
    32
  0
VERTEX
  8
0
  5
2B911
 10
-381.978
 20
847.817
 30
0.000000
  70
    32
  0
VERTEX
  8
0
  5
2B912
 10
-381.978
 20
847.820
 30
0.000000
  70
    32
  0
VERTEX
  8
0
  5
2B913
 10
-381.979
 20
847.823
 30
0.000000
  70
    32
  0
VERTEX
  8
0
  5
2B914
 10
-381.979
 20
847.826
 30
0.000000
  70
    32
  0
VERTEX
  8
0
  5
2B915
 10
-381.979
 20
847.828
 30
0.000000
  70
    32
  0
VERTEX
  8
0
  5
2B916
 10
-381.980
 20
847.831
 30
0.000000
  70
    32
  0
VERTEX
  8
0
  5
2B917
 10
-381.980
 20
847.834
 30
0.000000
  70
    32
  0
VERTEX
  8
0
  5
2B918
 10
-381.981
 20
847.837
 30
0.000000
  70
    32
  0
VERTEX
  8
0
  5
2B919
 10
-381.981
 20
847.840
 30
0.000000
  70
    32
  0
VERTEX
  8
0
  5
2B91A
 10
-381.982
 20
847.842
 30
0.000000
  70
    32
  0
VERTEX
  8
0
  5
2B91B
 10
-381.983
 20
847.845
 30
0.000000
  70
    32
  0
VERTEX
  8
0
  5
2B91C
 10
-381.983
 20
847.848
 30
0.000000
  70
    32
  0
VERTEX
  8
0
  5
2B91D
 10
-381.984
 20
847.851
 30
0.000000
  70
    32
  0
VERTEX
  8
0
  5
2B91E
 10
-381.984
 20
847.853
 30
0.000000
  70
    32
  0
VERTEX
  8
0
  5
2B91F
 10
-381.985
 20
847.856
 30
0.000000
  70
    32
  0
VERTEX
  8
0
  5
2B920
 10
-381.986
 20
847.859
 30
0.000000
  70
    32
  0
VERTEX
  8
0
  5
2B921
 10
-381.987
 20
847.862
 30
0.000000
  70
    32
  0
VERTEX
  8
0
  5
2B922
 10
-381.987
 20
847.864
 30
0.000000
  70
    32
  0
VERTEX
  8
0
  5
2B923
 10
-381.988
 20
847.867
 30
0.000000
  70
    32
  0
VERTEX
  8
0
  5
2B924
 10
-381.989
 20
847.870
 30
0.000000
  70
    32
  0
VERTEX
  8
0
  5
2B925
 10
-381.990
 20
847.873
 30
0.000000
  70
    32
  0
VERTEX
  8
0
  5
2B926
 10
-381.991
 20
847.875
 30
0.000000
  70
    32
  0
VERTEX
  8
0
  5
2B927
 10
-381.991
 20
847.878
 30
0.000000
  70
    32
  0
VERTEX
  8
0
  5
2B928
 10
-381.992
 20
847.881
 30
0.000000
  70
    32
  0
VERTEX
  8
0
  5
2B929
 10
-381.993
 20
847.883
 30
0.000000
  70
    32
  0
VERTEX
  8
0
  5
2B92A
 10
-381.994
 20
847.886
 30
0.000000
  70
    32
  0
VERTEX
  8
0
  5
2B92B
 10
-381.995
 20
847.889
 30
0.000000
  70
    32
  0
VERTEX
  8
0
  5
2B92C
 10
-381.996
 20
847.891
 30
0.000000
  70
    32
  0
VERTEX
  8
0
  5
2B92D
 10
-381.997
 20
847.894
 30
0.000000
  70
    32
  0
VERTEX
  8
0
  5
2B92E
 10
-381.998
 20
847.897
 30
0.000000
  70
    32
  0
VERTEX
  8
0
  5
2B92F
 10
-381.999
 20
847.899
 30
0.000000
  70
    32
  0
VERTEX
  8
0
  5
2B930
 10
-382.000
 20
847.902
 30
0.000000
  70
    32
  0
VERTEX
  8
0
  5
2B931
 10
-382.002
 20
847.905
 30
0.000000
  70
    32
  0
VERTEX
  8
0
  5
2B932
 10
-382.003
 20
847.907
 30
0.000000
  70
    32
  0
VERTEX
  8
0
  5
2B933
 10
-382.004
 20
847.910
 30
0.000000
  70
    32
  0
VERTEX
  8
0
  5
2B934
 10
-382.005
 20
847.913
 30
0.000000
  70
    32
  0
VERTEX
  8
0
  5
2B935
 10
-382.006
 20
847.915
 30
0.000000
  70
    32
  0
VERTEX
  8
0
  5
2B936
 10
-382.007
 20
847.918
 30
0.000000
  70
    32
  0
VERTEX
  8
0
  5
2B937
 10
-382.009
 20
847.920
 30
0.000000
  70
    32
  0
VERTEX
  8
0
  5
2B938
 10
-382.010
 20
847.923
 30
0.000000
  70
    32
  0
VERTEX
  8
0
  5
2B939
 10
-382.011
 20
847.925
 30
0.000000
  70
    32
  0
VERTEX
  8
0
  5
2B93A
 10
-382.013
 20
847.928
 30
0.000000
  70
    32
  0
VERTEX
  8
0
  5
2B93B
 10
-382.014
 20
847.930
 30
0.000000
  70
    32
  0
VERTEX
  8
0
  5
2B93C
 10
-382.015
 20
847.933
 30
0.000000
  70
    32
  0
VERTEX
  8
0
  5
2B93D
 10
-382.017
 20
847.935
 30
0.000000
  70
    32
  0
VERTEX
  8
0
  5
2B93E
 10
-382.018
 20
847.938
 30
0.000000
  70
    32
  0
VERTEX
  8
0
  5
2B93F
 10
-382.020
 20
847.940
 30
0.000000
  70
    32
  0
VERTEX
  8
0
  5
2B940
 10
-382.021
 20
847.943
 30
0.000000
  70
    32
  0
VERTEX
  8
0
  5
2B941
 10
-382.022
 20
847.945
 30
0.000000
  70
    32
  0
VERTEX
  8
0
  5
2B942
 10
-382.024
 20
847.948
 30
0.000000
  70
    32
  0
VERTEX
  8
0
  5
2B943
 10
-382.026
 20
847.950
 30
0.000000
  70
    32
  0
VERTEX
  8
0
  5
2B944
 10
-382.027
 20
847.952
 30
0.000000
  70
    32
  0
VERTEX
  8
0
  5
2B945
 10
-382.029
 20
847.955
 30
0.000000
  70
    32
  0
VERTEX
  8
0
  5
2B946
 10
-382.030
 20
847.957
 30
0.000000
  70
    32
  0
VERTEX
  8
0
  5
2B947
 10
-382.032
 20
847.959
 30
0.000000
  70
    32
  0
VERTEX
  8
0
  5
2B948
 10
-382.034
 20
847.961
 30
0.000000
  70
    32
  0
VERTEX
  8
0
  5
2B949
 10
-382.035
 20
847.964
 30
0.000000
  70
    32
  0
VERTEX
  8
0
  5
2B94A
 10
-382.037
 20
847.966
 30
0.000000
  70
    32
  0
VERTEX
  8
0
  5
2B94B
 10
-382.039
 20
847.968
 30
0.000000
  70
    32
  0
VERTEX
  8
0
  5
2B94C
 10
-382.041
 20
847.970
 30
0.000000
  70
    32
  0
VERTEX
  8
0
  5
2B94D
 10
-382.043
 20
847.973
 30
0.000000
  70
    32
  0
VERTEX
  8
0
  5
2B94E
 10
-382.044
 20
847.975
 30
0.000000
  70
    32
  0
VERTEX
  8
0
  5
2B94F
 10
-382.046
 20
847.977
 30
0.000000
  70
    32
  0
VERTEX
  8
0
  5
2B950
 10
-382.048
 20
847.979
 30
0.000000
  70
    32
  0
VERTEX
  8
0
  5
2B951
 10
-382.050
 20
847.981
 30
0.000000
  70
    32
  0
VERTEX
  8
0
  5
2B952
 10
-382.052
 20
847.983
 30
0.000000
  70
    32
  0
VERTEX
  8
0
  5
2B953
 10
-382.054
 20
847.985
 30
0.000000
  70
    32
  0
VERTEX
  8
0
  5
2B954
 10
-382.056
 20
847.987
 30
0.000000
  70
    32
  0
VERTEX
  8
0
  5
2B955
 10
-382.058
 20
847.989
 30
0.000000
  70
    32
  0
VERTEX
  8
0
  5
2B956
 10
-382.060
 20
847.991
 30
0.000000
  70
    32
  0
VERTEX
  8
0
  5
2B957
 10
-382.062
 20
847.993
 30
0.000000
  70
    32
  0
VERTEX
  8
0
  5
2B958
 10
-382.064
 20
847.994
 30
0.000000
  70
    32
  0
VERTEX
  8
0
  5
2B959
 10
-382.067
 20
847.996
 30
0.000000
  70
    32
  0
VERTEX
  8
0
  5
2B95A
 10
-382.069
 20
847.998
 30
0.000000
  70
    32
  0
VERTEX
  8
0
  5
2B95B
 10
-382.071
 20
848.000
 30
0.000000
  70
    32
  0
VERTEX
  8
0
  5
2B95C
 10
-382.073
 20
848.002
 30
0.000000
  70
    32
  0
VERTEX
  8
0
  5
2B95D
 10
-382.076
 20
848.003
 30
0.000000
  70
    32
  0
VERTEX
  8
0
  5
2B95E
 10
-382.078
 20
848.005
 30
0.000000
  70
    32
  0
VERTEX
  8
0
  5
2B95F
 10
-382.080
 20
848.007
 30
0.000000
  70
    32
  0
VERTEX
  8
0
  5
2B960
 10
-382.082
 20
848.008
 30
0.000000
  70
    32
  0
VERTEX
  8
0
  5
2B961
 10
-382.085
 20
848.010
 30
0.000000
  70
    32
  0
VERTEX
  8
0
  5
2B962
 10
-382.087
 20
848.011
 30
0.000000
  70
    32
  0
VERTEX
  8
0
  5
2B963
 10
-382.090
 20
848.013
 30
0.000000
  70
    32
  0
VERTEX
  8
0
  5
2B964
 10
-382.092
 20
848.014
 30
0.000000
  70
    32
  0
VERTEX
  8
0
  5
2B965
 10
-382.095
 20
848.016
 30
0.000000
  70
    32
  0
VERTEX
  8
0
  5
2B966
 10
-382.097
 20
848.017
 30
0.000000
  70
    32
  0
VERTEX
  8
0
  5
2B967
 10
-382.100
 20
848.018
 30
0.000000
  70
    32
  0
VERTEX
  8
0
  5
2B968
 10
-382.102
 20
848.020
 30
0.000000
  70
    32
  0
VERTEX
  8
0
  5
2B969
 10
-382.105
 20
848.021
 30
0.000000
  70
    32
  0
VERTEX
  8
0
  5
2B96A
 10
-382.107
 20
848.022
 30
0.000000
  70
    32
  0
VERTEX
  8
0
  5
2B96B
 10
-382.110
 20
848.023
 30
0.000000
  70
    32
  0
VERTEX
  8
0
  5
2B96C
 10
-382.113
 20
848.024
 30
0.000000
  70
    32
  0
VERTEX
  8
0
  5
2B96D
 10
-382.115
 20
848.026
 30
0.000000
  70
    32
  0
VERTEX
  8
0
  5
2B96E
 10
-382.118
 20
848.027
 30
0.000000
  70
    32
  0
VERTEX
  8
0
  5
2B96F
 10
-382.120
 20
848.028
 30
0.000000
  70
    32
  0
VERTEX
  8
0
  5
2B970
 10
-382.123
 20
848.029
 30
0.000000
  70
    32
  0
VERTEX
  8
0
  5
2B971
 10
-382.126
 20
848.030
 30
0.000000
  70
    32
  0
VERTEX
  8
0
  5
2B972
 10
-382.129
 20
848.031
 30
0.000000
  70
    32
  0
VERTEX
  8
0
  5
2B973
 10
-382.131
 20
848.032
 30
0.000000
  70
    32
  0
VERTEX
  8
0
  5
2B974
 10
-382.134
 20
848.032
 30
0.000000
  70
    32
  0
VERTEX
  8
0
  5
2B975
 10
-382.137
 20
848.033
 30
0.000000
  70
    32
  0
VERTEX
  8
0
  5
2B976
 10
-382.139
 20
848.034
 30
0.000000
  70
    32
  0
VERTEX
  8
0
  5
2B977
 10
-382.142
 20
848.035
 30
0.000000
  70
    32
  0
VERTEX
  8
0
  5
2B978
 10
-382.145
 20
848.036
 30
0.000000
  70
    32
  0
VERTEX
  8
0
  5
2B979
 10
-382.148
 20
848.036
 30
0.000000
  70
    32
  0
VERTEX
  8
0
  5
2B97A
 10
-382.151
 20
848.037
 30
0.000000
  70
    32
  0
VERTEX
  8
0
  5
2B97B
 10
-382.153
 20
848.037
 30
0.000000
  70
    32
  0
VERTEX
  8
0
  5
2B97C
 10
-382.156
 20
848.038
 30
0.000000
  70
    32
  0
VERTEX
  8
0
  5
2B97D
 10
-382.159
 20
848.038
 30
0.000000
  70
    32
  0
VERTEX
  8
0
  5
2B97E
 10
-382.162
 20
848.039
 30
0.000000
  70
    32
  0
VERTEX
  8
0
  5
2B97F
 10
-382.165
 20
848.039
 30
0.000000
  70
    32
  0
VERTEX
  8
0
  5
2B980
 10
-382.167
 20
848.040
 30
0.000000
  70
    32
  0
VERTEX
  8
0
  5
2B981
 10
-382.170
 20
848.040
 30
0.000000
  70
    32
  0
VERTEX
  8
0
  5
2B982
 10
-382.173
 20
848.040
 30
0.000000
  70
    32
  0
VERTEX
  8
0
  5
2B983
 10
-382.176
 20
848.041
 30
0.000000
  70
    32
  0
VERTEX
  8
0
  5
2B984
 10
-382.179
 20
848.041
 30
0.000000
  70
    32
  0
VERTEX
  8
0
  5
2B985
 10
-382.182
 20
848.041
 30
0.000000
  70
    32
  0
VERTEX
  8
0
  5
2B986
 10
-382.185
 20
848.041
 30
0.000000
  70
    32
  0
VERTEX
  8
0
  5
2B987
 10
-382.187
 20
848.041
 30
0.000000
  70
    32
  0
VERTEX
  8
0
  5
2B988
 10
-382.190
 20
848.041
 30
0.000000
  70
    32
  0
VERTEX
  8
0
  5
2B989
 10
-382.193
 20
848.041
 30
0.000000
  70
    32
  0
VERTEX
  8
0
  5
2B98A
 10
-382.196
 20
848.041
 30
0.000000
  70
    32
  0
VERTEX
  8
0
  5
2B98B
 10
-382.199
 20
848.041
 30
0.000000
  70
    32
  0
VERTEX
  8
0
  5
2B98C
 10
-382.202
 20
848.041
 30
0.000000
  70
    32
  0
VERTEX
  8
0
  5
2B98D
 10
-382.204
 20
848.041
 30
0.000000
  70
    32
  0
VERTEX
  8
0
  5
2B98E
 10
-382.207
 20
848.040
 30
0.000000
  70
    32
  0
VERTEX
  8
0
  5
2B98F
 10
-382.210
 20
848.040
 30
0.000000
  70
    32
  0
VERTEX
  8
0
  5
2B990
 10
-382.213
 20
848.040
 30
0.000000
  70
    32
  0
VERTEX
  8
0
  5
2B991
 10
-382.216
 20
848.039
 30
0.000000
  70
    32
  0
VERTEX
  8
0
  5
2B992
 10
-382.218
 20
848.039
 30
0.000000
  70
    32
  0
VERTEX
  8
0
  5
2B993
 10
-382.221
 20
848.039
 30
0.000000
  70
    32
  0
VERTEX
  8
0
  5
2B994
 10
-382.224
 20
848.038
 30
0.000000
  70
    32
  0
VERTEX
  8
0
  5
2B995
 10
-382.227
 20
848.038
 30
0.000000
  70
    32
  0
VERTEX
  8
0
  5
2B996
 10
-382.230
 20
848.037
 30
0.000000
  70
    32
  0
VERTEX
  8
0
  5
2B997
 10
-382.232
 20
848.036
 30
0.000000
  70
    32
  0
VERTEX
  8
0
  5
2B998
 10
-382.235
 20
848.036
 30
0.000000
  70
    32
  0
VERTEX
  8
0
  5
2B999
 10
-382.238
 20
848.035
 30
0.000000
  70
    32
  0
VERTEX
  8
0
  5
2B99A
 10
-382.241
 20
848.034
 30
0.000000
  70
    32
  0
VERTEX
  8
0
  5
2B99B
 10
-382.244
 20
848.034
 30
0.000000
  70
    32
  0
VERTEX
  8
0
  5
2B99C
 10
-382.246
 20
848.033
 30
0.000000
  70
    32
  0
VERTEX
  8
0
  5
2B99D
 10
-382.249
 20
848.032
 30
0.000000
  70
    32
  0
VERTEX
  8
0
  5
2B99E
 10
-382.252
 20
848.031
 30
0.000000
  70
    32
  0
VERTEX
  8
0
  5
2B99F
 10
-382.254
 20
848.030
 30
0.000000
  70
    32
  0
VERTEX
  8
0
  5
2B9A0
 10
-382.257
 20
848.029
 30
0.000000
  70
    32
  0
VERTEX
  8
0
  5
2B9A1
 10
-382.260
 20
848.029
 30
0.000000
  70
    32
  0
VERTEX
  8
0
  5
2B9A2
 10
-382.263
 20
848.028
 30
0.000000
  70
    32
  0
VERTEX
  8
0
  5
2B9A3
 10
-382.265
 20
848.027
 30
0.000000
  70
    32
  0
VERTEX
  8
0
  5
2B9A4
 10
-382.268
 20
848.025
 30
0.000000
  70
    32
  0
VERTEX
  8
0
  5
2B9A5
 10
-382.271
 20
848.024
 30
0.000000
  70
    32
  0
VERTEX
  8
0
  5
2B9A6
 10
-382.273
 20
848.023
 30
0.000000
  70
    32
  0
VERTEX
  8
0
  5
2B9A7
 10
-382.276
 20
848.022
 30
0.000000
  70
    32
  0
VERTEX
  8
0
  5
2B9A8
 10
-382.278
 20
848.021
 30
0.000000
  70
    32
  0
VERTEX
  8
0
  5
2B9A9
 10
-382.281
 20
848.020
 30
0.000000
  70
    32
  0
VERTEX
  8
0
  5
2B9AA
 10
-382.284
 20
848.019
 30
0.000000
  70
    32
  0
VERTEX
  8
0
  5
2B9AB
 10
-382.286
 20
848.017
 30
0.000000
  70
    32
  0
VERTEX
  8
0
  5
2B9AC
 10
-382.289
 20
848.016
 30
0.000000
  70
    32
  0
VERTEX
  8
0
  5
2B9AD
 10
-382.291
 20
848.015
 30
0.000000
  70
    32
  0
VERTEX
  8
0
  5
2B9AE
 10
-382.294
 20
848.013
 30
0.000000
  70
    32
  0
VERTEX
  8
0
  5
2B9AF
 10
-382.296
 20
848.012
 30
0.000000
  70
    32
  0
VERTEX
  8
0
  5
2B9B0
 10
-382.299
 20
848.010
 30
0.000000
  70
    32
  0
VERTEX
  8
0
  5
2B9B1
 10
-382.301
 20
848.009
 30
0.000000
  70
    32
  0
VERTEX
  8
0
  5
2B9B2
 10
-382.304
 20
848.008
 30
0.000000
  70
    32
  0
VERTEX
  8
0
  5
2B9B3
 10
-382.306
 20
848.006
 30
0.000000
  70
    32
  0
VERTEX
  8
0
  5
2B9B4
 10
-382.309
 20
848.004
 30
0.000000
  70
    32
  0
VERTEX
  8
0
  5
2B9B5
 10
-382.311
 20
848.003
 30
0.000000
  70
    32
  0
VERTEX
  8
0
  5
2B9B6
 10
-382.313
 20
848.001
 30
0.000000
  70
    32
  0
VERTEX
  8
0
  5
2B9B7
 10
-382.316
 20
848.000
 30
0.000000
  70
    32
  0
VERTEX
  8
0
  5
2B9B8
 10
-382.318
 20
847.998
 30
0.000000
  70
    32
  0
VERTEX
  8
0
  5
2B9B9
 10
-382.320
 20
847.996
 30
0.000000
  70
    32
  0
VERTEX
  8
0
  5
2B9BA
 10
-382.323
 20
847.995
 30
0.000000
  70
    32
  0
VERTEX
  8
0
  5
2B9BB
 10
-382.325
 20
847.993
 30
0.000000
  70
    32
  0
VERTEX
  8
0
  5
2B9BC
 10
-382.327
 20
847.991
 30
0.000000
  70
    32
  0
VERTEX
  8
0
  5
2B9BD
 10
-382.330
 20
847.990
 30
0.000000
  70
    32
  0
VERTEX
  8
0
  5
2B9BE
 10
-382.332
 20
847.988
 30
0.000000
  70
    32
  0
VERTEX
  8
0
  5
2B9BF
 10
-382.334
 20
847.986
 30
0.000000
  70
    32
  0
VERTEX
  8
0
  5
2B9C0
 10
-382.336
 20
847.984
 30
0.000000
  70
    32
  0
VERTEX
  8
0
  5
2B9C1
 10
-382.338
 20
847.982
 30
0.000000
  70
    32
  0
VERTEX
  8
0
  5
2B9C2
 10
-382.340
 20
847.980
 30
0.000000
  70
    32
  0
VERTEX
  8
0
  5
2B9C3
 10
-382.343
 20
847.979
 30
0.000000
  70
    32
  0
VERTEX
  8
0
  5
2B9C4
 10
-382.345
 20
847.977
 30
0.000000
  70
    32
  0
VERTEX
  8
0
  5
2B9C5
 10
-382.347
 20
847.975
 30
0.000000
  70
    32
  0
VERTEX
  8
0
  5
2B9C6
 10
-382.349
 20
847.973
 30
0.000000
  70
    32
  0
VERTEX
  8
0
  5
2B9C7
 10
-382.351
 20
847.971
 30
0.000000
  70
    32
  0
VERTEX
  8
0
  5
2B9C8
 10
-382.353
 20
847.969
 30
0.000000
  70
    32
  0
VERTEX
  8
0
  5
2B9C9
 10
-382.355
 20
847.967
 30
0.000000
  70
    32
  0
VERTEX
  8
0
  5
2B9CA
 10
-382.357
 20
847.965
 30
0.000000
  70
    32
  0
VERTEX
  8
0
  5
2B9CB
 10
-382.359
 20
847.963
 30
0.000000
  70
    32
  0
VERTEX
  8
0
  5
2B9CC
 10
-382.360
 20
847.960
 30
0.000000
  70
    32
  0
VERTEX
  8
0
  5
2B9CD
 10
-382.362
 20
847.958
 30
0.000000
  70
    32
  0
VERTEX
  8
0
  5
2B9CE
 10
-382.364
 20
847.956
 30
0.000000
  70
    32
  0
VERTEX
  8
0
  5
2B9CF
 10
-382.366
 20
847.954
 30
0.000000
  70
    32
  0
VERTEX
  8
0
  5
2B9D0
 10
-382.368
 20
847.952
 30
0.000000
  70
    32
  0
VERTEX
  8
0
  5
2B9D1
 10
-382.369
 20
847.950
 30
0.000000
  70
    32
  0
VERTEX
  8
0
  5
2B9D2
 10
-382.371
 20
847.947
 30
0.000000
  70
    32
  0
VERTEX
  8
0
  5
2B9D3
 10
-382.373
 20
847.945
 30
0.000000
  70
    32
  0
VERTEX
  8
0
  5
2B9D4
 10
-382.375
 20
847.943
 30
0.000000
  70
    32
  0
VERTEX
  8
0
  5
2B9D5
 10
-382.376
 20
847.941
 30
0.000000
  70
    32
  0
VERTEX
  8
0
  5
2B9D6
 10
-382.378
 20
847.938
 30
0.000000
  70
    32
  0
VERTEX
  8
0
  5
2B9D7
 10
-382.379
 20
847.936
 30
0.000000
  70
    32
  0
VERTEX
  8
0
  5
2B9D8
 10
-382.381
 20
847.934
 30
0.000000
  70
    32
  0
VERTEX
  8
0
  5
2B9D9
 10
-382.382
 20
847.931
 30
0.000000
  70
    32
  0
VERTEX
  8
0
  5
2B9DA
 10
-382.384
 20
847.929
 30
0.000000
  70
    32
  0
VERTEX
  8
0
  5
2B9DB
 10
-382.385
 20
847.927
 30
0.000000
  70
    32
  0
VERTEX
  8
0
  5
2B9DC
 10
-382.387
 20
847.924
 30
0.000000
  70
    32
  0
VERTEX
  8
0
  5
2B9DD
 10
-382.388
 20
847.922
 30
0.000000
  70
    32
  0
VERTEX
  8
0
  5
2B9DE
 10
-382.390
 20
847.919
 30
0.000000
  70
    32
  0
VERTEX
  8
0
  5
2B9DF
 10
-382.391
 20
847.917
 30
0.000000
  70
    32
  0
VERTEX
  8
0
  5
2B9E0
 10
-382.392
 20
847.915
 30
0.000000
  70
    32
  0
VERTEX
  8
0
  5
2B9E1
 10
-382.394
 20
847.912
 30
0.000000
  70
    32
  0
VERTEX
  8
0
  5
2B9E2
 10
-382.395
 20
847.910
 30
0.000000
  70
    32
  0
VERTEX
  8
0
  5
2B9E3
 10
-382.396
 20
847.907
 30
0.000000
  70
    32
  0
VERTEX
  8
0
  5
2B9E4
 10
-382.397
 20
847.905
 30
0.000000
  70
    32
  0
VERTEX
  8
0
  5
2B9E5
 10
-382.399
 20
847.902
 30
0.000000
  70
    32
  0
VERTEX
  8
0
  5
2B9E6
 10
-382.400
 20
847.899
 30
0.000000
  70
    32
  0
VERTEX
  8
0
  5
2B9E7
 10
-382.401
 20
847.897
 30
0.000000
  70
    32
  0
VERTEX
  8
0
  5
2B9E8
 10
-382.402
 20
847.894
 30
0.000000
  70
    32
  0
VERTEX
  8
0
  5
2B9E9
 10
-382.403
 20
847.892
 30
0.000000
  70
    32
  0
VERTEX
  8
0
  5
2B9EA
 10
-382.404
 20
847.889
 30
0.000000
  70
    32
  0
VERTEX
  8
0
  5
2B9EB
 10
-382.405
 20
847.887
 30
0.000000
  70
    32
  0
VERTEX
  8
0
  5
2B9EC
 10
-382.407
 20
847.884
 30
0.000000
  70
    32
  0
VERTEX
  8
0
  5
2B9ED
 10
-382.408
 20
847.881
 30
0.000000
  70
    32
  0
VERTEX
  8
0
  5
2B9EE
 10
-382.409
 20
847.879
 30
0.000000
  70
    32
  0
VERTEX
  8
0
  5
2B9EF
 10
-382.410
 20
847.876
 30
0.000000
  70
    32
  0
VERTEX
  8
0
  5
2B9F0
 10
-382.411
 20
847.874
 30
0.000000
  70
    32
  0
VERTEX
  8
0
  5
2B9F1
 10
-382.412
 20
847.871
 30
0.000000
  70
    32
  0
VERTEX
  8
0
  5
2B9F2
 10
-382.413
 20
847.868
 30
0.000000
  70
    32
  0
VERTEX
  8
0
  5
2B9F3
 10
-382.414
 20
847.866
 30
0.000000
  70
    32
  0
VERTEX
  8
0
  5
2B9F4
 10
-382.415
 20
847.863
 30
0.000000
  70
    32
  0
VERTEX
  8
0
  5
2B9F5
 10
-382.416
 20
847.861
 30
0.000000
  70
    32
  0
VERTEX
  8
0
  5
2B9F6
 10
-382.417
 20
847.858
 30
0.000000
  70
    32
  0
VERTEX
  8
0
  5
2B9F7
 10
-382.418
 20
847.855
 30
0.000000
  70
    32
  0
VERTEX
  8
0
  5
2B9F8
 10
-382.419
 20
847.853
 30
0.000000
  70
    32
  0
VERTEX
  8
0
  5
2B9F9
 10
-382.420
 20
847.850
 30
0.000000
  70
    32
  0
VERTEX
  8
0
  5
2B9FA
 10
-382.421
 20
847.847
 30
0.000000
  70
    32
  0
VERTEX
  8
0
  5
2B9FB
 10
-382.422
 20
847.845
 30
0.000000
  70
    32
  0
VERTEX
  8
0
  5
2B9FC
 10
-382.423
 20
847.842
 30
0.000000
  70
    32
  0
VERTEX
  8
0
  5
2B9FD
 10
-382.424
 20
847.840
 30
0.000000
  70
    32
  0
VERTEX
  8
0
  5
2B9FE
 10
-382.426
 20
847.837
 30
0.000000
  70
    32
  0
VERTEX
  8
0
  5
2B9FF
 10
-382.427
 20
847.834
 30
0.000000
  70
    32
  0
VERTEX
  8
0
  5
2BA00
 10
-382.428
 20
847.832
 30
0.000000
  70
    32
  0
VERTEX
  8
0
  5
2BA01
 10
-382.429
 20
847.829
 30
0.000000
  70
    32
  0
VERTEX
  8
0
  5
2BA02
 10
-382.430
 20
847.826
 30
0.000000
  70
    32
  0
VERTEX
  8
0
  5
2BA03
 10
-382.431
 20
847.824
 30
0.000000
  70
    32
  0
VERTEX
  8
0
  5
2BA04
 10
-382.432
 20
847.821
 30
0.000000
  70
    32
  0
VERTEX
  8
0
  5
2BA05
 10
-382.433
 20
847.819
 30
0.000000
  70
    32
  0
VERTEX
  8
0
  5
2BA06
 10
-382.434
 20
847.816
 30
0.000000
  70
    32
  0
VERTEX
  8
0
  5
2BA07
 10
-382.435
 20
847.813
 30
0.000000
  70
    32
  0
VERTEX
  8
0
  5
2BA08
 10
-382.435
 20
847.811
 30
0.000000
  70
    32
  0
VERTEX
  8
0
  5
2BA09
 10
-382.436
 20
847.808
 30
0.000000
  70
    32
  0
VERTEX
  8
0
  5
2BA0A
 10
-382.437
 20
847.805
 30
0.000000
  70
    32
  0
VERTEX
  8
0
  5
2BA0B
 10
-382.438
 20
847.803
 30
0.000000
  70
    32
  0
VERTEX
  8
0
  5
2BA0C
 10
-382.439
 20
847.800
 30
0.000000
  70
    32
  0
VERTEX
  8
0
  5
2BA0D
 10
-382.440
 20
847.797
 30
0.000000
  70
    32
  0
VERTEX
  8
0
  5
2BA0E
 10
-382.441
 20
847.795
 30
0.000000
  70
    32
  0
VERTEX
  8
0
  5
2BA0F
 10
-382.441
 20
847.792
 30
0.000000
  70
    32
  0
VERTEX
  8
0
  5
2BA10
 10
-382.442
 20
847.789
 30
0.000000
  70
    32
  0
VERTEX
  8
0
  5
2BA11
 10
-382.443
 20
847.786
 30
0.000000
  70
    32
  0
VERTEX
  8
0
  5
2BA12
 10
-382.443
 20
847.784
 30
0.000000
  70
    32
  0
VERTEX
  8
0
  5
2BA13
 10
-382.444
 20
847.781
 30
0.000000
  70
    32
  0
VERTEX
  8
0
  5
2BA14
 10
-382.444
 20
847.778
 30
0.000000
  70
    32
  0
SEQEND
  8
0
  5
2BA15
  0
LINE
  5
2B287
  8
0
 10
-382.49129180818238
 20
843.0983548390825
 30
0.0
 11
-381.74127616908891
 21
843.0983548390825
 31
0.0
  0
LINE
  5
2B288
  8
0
 10
-381.86262815205862
 20
846.00947197189976
 30
0.0
 11
-381.97677195801782
 21
846.00947197189976
 31
0.0
  0
LINE
  5
2B289
  8
0
 10
-381.97677195801782
 20
847.40054376637863
 30
0.0
 11
-382.13442940617858
 21
847.52864044300895
 31
0.0
  0
LINE
  5
2B28A
  8
0
 10
-382.44441680818238
 20
847.77825200196548
 30
0.0
 11
-382.49129180818238
 21
847.77825200196548
 31
0.0
  0
LINE
  5
2B28B
  8
0
 10
-381.74127616908891
 20
843.0983548390825
 30
0.0
 11
-381.74127616908891
 21
845.7552940130314
 31
0.0
  0
LINE
  5
2B28C
  8
0
 10
-382.49129180818238
 20
842.650770918901
 30
0.0
 11
-382.49129180818238
 21
847.77825200196548
 31
0.0
  0
LINE
  5
2B28D
  8
0
 10
-381.97677195801782
 20
847.40054376637863
 30
0.0
 11
-381.97677195801782
 21
846.00947197189976
 31
0.0
  0
LINE
  5
2B28E
  8
0
 10
-381.74127616908891
 20
843.0983548390825
 30
0.0
 11
-381.74127616908891
 21
844.03051308607212
 31
0.0
  0
LINE
  5
2B28F
  8
0
 10
-382.48848238294562
 20
843.0983548390825
 30
0.0
 11
-381.74127616908891
 21
843.0983548390825
 31
0.0
  0
INSERT
  5
2B290
  8
0
  2
*U370
 10
0.0
 20
0.0
 30
0.0
1001
ACAD
1000
DSTYLE
1002
{
1070
   147
1040
0.0625
1070
    77
1070
     0
1002
}
  0
INSERT
  5
2B291
  8
0
  2
*U371
 10
0.0
 20
0.0
 30
0.0
  0
LINE
  5
2B292
  8
0
 10
-381.74408559432572
 20
844.03051308607212
 30
0.0
 11
-381.59612396781938
 21
844.03051308607235
 31
0.0
  0
POLYLINE
  8
0
  5
2BA16
  62
7
  66
     1
 10
0.000000
 20
0.000000
 30
0.000000
  70
     8
  0
VERTEX
  8
0
  5
2BA17
 10
-381.097
 20
843.098
 30
0.000000
  70
    32
  0
VERTEX
  8
0
  5
2BA18
 10
-381.097
 20
843.104
 30
0.000000
  70
    32
  0
VERTEX
  8
0
  5
2BA19
 10
-381.096
 20
843.109
 30
0.000000
  70
    32
  0
VERTEX
  8
0
  5
2BA1A
 10
-381.096
 20
843.114
 30
0.000000
  70
    32
  0
VERTEX
  8
0
  5
2BA1B
 10
-381.096
 20
843.119
 30
0.000000
  70
    32
  0
VERTEX
  8
0
  5
2BA1C
 10
-381.096
 20
843.124
 30
0.000000
  70
    32
  0
VERTEX
  8
0
  5
2BA1D
 10
-381.096
 20
843.129
 30
0.000000
  70
    32
  0
VERTEX
  8
0
  5
2BA1E
 10
-381.096
 20
843.135
 30
0.000000
  70
    32
  0
VERTEX
  8
0
  5
2BA1F
 10
-381.096
 20
843.140
 30
0.000000
  70
    32
  0
VERTEX
  8
0
  5
2BA20
 10
-381.096
 20
843.145
 30
0.000000
  70
    32
  0
VERTEX
  8
0
  5
2BA21
 10
-381.096
 20
843.150
 30
0.000000
  70
    32
  0
VERTEX
  8
0
  5
2BA22
 10
-381.096
 20
843.155
 30
0.000000
  70
    32
  0
VERTEX
  8
0
  5
2BA23
 10
-381.096
 20
843.160
 30
0.000000
  70
    32
  0
VERTEX
  8
0
  5
2BA24
 10
-381.096
 20
843.165
 30
0.000000
  70
    32
  0
VERTEX
  8
0
  5
2BA25
 10
-381.096
 20
843.170
 30
0.000000
  70
    32
  0
VERTEX
  8
0
  5
2BA26
 10
-381.096
 20
843.176
 30
0.000000
  70
    32
  0
VERTEX
  8
0
  5
2BA27
 10
-381.096
 20
843.181
 30
0.000000
  70
    32
  0
VERTEX
  8
0
  5
2BA28
 10
-381.096
 20
843.186
 30
0.000000
  70
    32
  0
VERTEX
  8
0
  5
2BA29
 10
-381.096
 20
843.191
 30
0.000000
  70
    32
  0
VERTEX
  8
0
  5
2BA2A
 10
-381.096
 20
843.196
 30
0.000000
  70
    32
  0
VERTEX
  8
0
  5
2BA2B
 10
-381.096
 20
843.201
 30
0.000000
  70
    32
  0
VERTEX
  8
0
  5
2BA2C
 10
-381.096
 20
843.206
 30
0.000000
  70
    32
  0
VERTEX
  8
0
  5
2BA2D
 10
-381.097
 20
843.211
 30
0.000000
  70
    32
  0
VERTEX
  8
0
  5
2BA2E
 10
-381.097
 20
843.216
 30
0.000000
  70
    32
  0
VERTEX
  8
0
  5
2BA2F
 10
-381.097
 20
843.221
 30
0.000000
  70
    32
  0
VERTEX
  8
0
  5
2BA30
 10
-381.098
 20
843.226
 30
0.000000
  70
    32
  0
VERTEX
  8
0
  5
2BA31
 10
-381.098
 20
843.231
 30
0.000000
  70
    32
  0
VERTEX
  8
0
  5
2BA32
 10
-381.099
 20
843.236
 30
0.000000
  70
    32
  0
VERTEX
  8
0
  5
2BA33
 10
-381.099
 20
843.240
 30
0.000000
  70
    32
  0
VERTEX
  8
0
  5
2BA34
 10
-381.100
 20
843.245
 30
0.000000
  70
    32
  0
VERTEX
  8
0
  5
2BA35
 10
-381.100
 20
843.250
 30
0.000000
  70
    32
  0
VERTEX
  8
0
  5
2BA36
 10
-381.101
 20
843.255
 30
0.000000
  70
    32
  0
VERTEX
  8
0
  5
2BA37
 10
-381.102
 20
843.260
 30
0.000000
  70
    32
  0
VERTEX
  8
0
  5
2BA38
 10
-381.102
 20
843.265
 30
0.000000
  70
    32
  0
VERTEX
  8
0
  5
2BA39
 10
-381.103
 20
843.269
 30
0.000000
  70
    32
  0
VERTEX
  8
0
  5
2BA3A
 10
-381.104
 20
843.274
 30
0.000000
  70
    32
  0
VERTEX
  8
0
  5
2BA3B
 10
-381.105
 20
843.279
 30
0.000000
  70
    32
  0
VERTEX
  8
0
  5
2BA3C
 10
-381.106
 20
843.283
 30
0.000000
  70
    32
  0
VERTEX
  8
0
  5
2BA3D
 10
-381.107
 20
843.288
 30
0.000000
  70
    32
  0
VERTEX
  8
0
  5
2BA3E
 10
-381.108
 20
843.293
 30
0.000000
  70
    32
  0
VERTEX
  8
0
  5
2BA3F
 10
-381.109
 20
843.297
 30
0.000000
  70
    32
  0
VERTEX
  8
0
  5
2BA40
 10
-381.111
 20
843.302
 30
0.000000
  70
    32
  0
VERTEX
  8
0
  5
2BA41
 10
-381.112
 20
843.306
 30
0.000000
  70
    32
  0
VERTEX
  8
0
  5
2BA42
 10
-381.113
 20
843.311
 30
0.000000
  70
    32
  0
VERTEX
  8
0
  5
2BA43
 10
-381.115
 20
843.315
 30
0.000000
  70
    32
  0
VERTEX
  8
0
  5
2BA44
 10
-381.116
 20
843.320
 30
0.000000
  70
    32
  0
VERTEX
  8
0
  5
2BA45
 10
-381.118
 20
843.324
 30
0.000000
  70
    32
  0
VERTEX
  8
0
  5
2BA46
 10
-381.120
 20
843.328
 30
0.000000
  70
    32
  0
VERTEX
  8
0
  5
2BA47
 10
-381.121
 20
843.333
 30
0.000000
  70
    32
  0
VERTEX
  8
0
  5
2BA48
 10
-381.123
 20
843.337
 30
0.000000
  70
    32
  0
VERTEX
  8
0
  5
2BA49
 10
-381.125
 20
843.341
 30
0.000000
  70
    32
  0
VERTEX
  8
0
  5
2BA4A
 10
-381.127
 20
843.345
 30
0.000000
  70
    32
  0
VERTEX
  8
0
  5
2BA4B
 10
-381.129
 20
843.350
 30
0.000000
  70
    32
  0
VERTEX
  8
0
  5
2BA4C
 10
-381.131
 20
843.354
 30
0.000000
  70
    32
  0
VERTEX
  8
0
  5
2BA4D
 10
-381.133
 20
843.358
 30
0.000000
  70
    32
  0
VERTEX
  8
0
  5
2BA4E
 10
-381.136
 20
843.362
 30
0.000000
  70
    32
  0
VERTEX
  8
0
  5
2BA4F
 10
-381.138
 20
843.366
 30
0.000000
  70
    32
  0
VERTEX
  8
0
  5
2BA50
 10
-381.140
 20
843.370
 30
0.000000
  70
    32
  0
VERTEX
  8
0
  5
2BA51
 10
-381.143
 20
843.374
 30
0.000000
  70
    32
  0
VERTEX
  8
0
  5
2BA52
 10
-381.145
 20
843.378
 30
0.000000
  70
    32
  0
VERTEX
  8
0
  5
2BA53
 10
-381.148
 20
843.382
 30
0.000000
  70
    32
  0
VERTEX
  8
0
  5
2BA54
 10
-381.150
 20
843.386
 30
0.000000
  70
    32
  0
VERTEX
  8
0
  5
2BA55
 10
-381.153
 20
843.390
 30
0.000000
  70
    32
  0
VERTEX
  8
0
  5
2BA56
 10
-381.156
 20
843.394
 30
0.000000
  70
    32
  0
VERTEX
  8
0
  5
2BA57
 10
-381.159
 20
843.398
 30
0.000000
  70
    32
  0
VERTEX
  8
0
  5
2BA58
 10
-381.161
 20
843.401
 30
0.000000
  70
    32
  0
VERTEX
  8
0
  5
2BA59
 10
-381.164
 20
843.405
 30
0.000000
  70
    32
  0
VERTEX
  8
0
  5
2BA5A
 10
-381.167
 20
843.409
 30
0.000000
  70
    32
  0
VERTEX
  8
0
  5
2BA5B
 10
-381.170
 20
843.413
 30
0.000000
  70
    32
  0
VERTEX
  8
0
  5
2BA5C
 10
-381.173
 20
843.417
 30
0.000000
  70
    32
  0
VERTEX
  8
0
  5
2BA5D
 10
-381.176
 20
843.420
 30
0.000000
  70
    32
  0
VERTEX
  8
0
  5
2BA5E
 10
-381.179
 20
843.424
 30
0.000000
  70
    32
  0
VERTEX
  8
0
  5
2BA5F
 10
-381.183
 20
843.428
 30
0.000000
  70
    32
  0
VERTEX
  8
0
  5
2BA60
 10
-381.186
 20
843.431
 30
0.000000
  70
    32
  0
VERTEX
  8
0
  5
2BA61
 10
-381.189
 20
843.435
 30
0.000000
  70
    32
  0
VERTEX
  8
0
  5
2BA62
 10
-381.192
 20
843.439
 30
0.000000
  70
    32
  0
VERTEX
  8
0
  5
2BA63
 10
-381.196
 20
843.442
 30
0.000000
  70
    32
  0
VERTEX
  8
0
  5
2BA64
 10
-381.199
 20
843.446
 30
0.000000
  70
    32
  0
VERTEX
  8
0
  5
2BA65
 10
-381.202
 20
843.449
 30
0.000000
  70
    32
  0
VERTEX
  8
0
  5
2BA66
 10
-381.206
 20
843.453
 30
0.000000
  70
    32
  0
VERTEX
  8
0
  5
2BA67
 10
-381.209
 20
843.457
 30
0.000000
  70
    32
  0
VERTEX
  8
0
  5
2BA68
 10
-381.213
 20
843.460
 30
0.000000
  70
    32
  0
VERTEX
  8
0
  5
2BA69
 10
-381.216
 20
843.464
 30
0.000000
  70
    32
  0
VERTEX
  8
0
  5
2BA6A
 10
-381.220
 20
843.467
 30
0.000000
  70
    32
  0
VERTEX
  8
0
  5
2BA6B
 10
-381.224
 20
843.471
 30
0.000000
  70
    32
  0
VERTEX
  8
0
  5
2BA6C
 10
-381.227
 20
843.474
 30
0.000000
  70
    32
  0
VERTEX
  8
0
  5
2BA6D
 10
-381.231
 20
843.478
 30
0.000000
  70
    32
  0
VERTEX
  8
0
  5
2BA6E
 10
-381.235
 20
843.481
 30
0.000000
  70
    32
  0
VERTEX
  8
0
  5
2BA6F
 10
-381.238
 20
843.484
 30
0.000000
  70
    32
  0
VERTEX
  8
0
  5
2BA70
 10
-381.242
 20
843.488
 30
0.000000
  70
    32
  0
VERTEX
  8
0
  5
2BA71
 10
-381.246
 20
843.491
 30
0.000000
  70
    32
  0
VERTEX
  8
0
  5
2BA72
 10
-381.250
 20
843.495
 30
0.000000
  70
    32
  0
VERTEX
  8
0
  5
2BA73
 10
-381.254
 20
843.498
 30
0.000000
  70
    32
  0
VERTEX
  8
0
  5
2BA74
 10
-381.258
 20
843.502
 30
0.000000
  70
    32
  0
VERTEX
  8
0
  5
2BA75
 10
-381.261
 20
843.505
 30
0.000000
  70
    32
  0
VERTEX
  8
0
  5
2BA76
 10
-381.265
 20
843.508
 30
0.000000
  70
    32
  0
VERTEX
  8
0
  5
2BA77
 10
-381.269
 20
843.512
 30
0.000000
  70
    32
  0
VERTEX
  8
0
  5
2BA78
 10
-381.273
 20
843.515
 30
0.000000
  70
    32
  0
VERTEX
  8
0
  5
2BA79
 10
-381.277
 20
843.518
 30
0.000000
  70
    32
  0
VERTEX
  8
0
  5
2BA7A
 10
-381.281
 20
843.522
 30
0.000000
  70
    32
  0
VERTEX
  8
0
  5
2BA7B
 10
-381.285
 20
843.525
 30
0.000000
  70
    32
  0
VERTEX
  8
0
  5
2BA7C
 10
-381.289
 20
843.529
 30
0.000000
  70
    32
  0
VERTEX
  8
0
  5
2BA7D
 10
-381.293
 20
843.532
 30
0.000000
  70
    32
  0
VERTEX
  8
0
  5
2BA7E
 10
-381.297
 20
843.535
 30
0.000000
  70
    32
  0
VERTEX
  8
0
  5
2BA7F
 10
-381.301
 20
843.539
 30
0.000000
  70
    32
  0
VERTEX
  8
0
  5
2BA80
 10
-381.305
 20
843.542
 30
0.000000
  70
    32
  0
VERTEX
  8
0
  5
2BA81
 10
-381.309
 20
843.545
 30
0.000000
  70
    32
  0
VERTEX
  8
0
  5
2BA82
 10
-381.313
 20
843.549
 30
0.000000
  70
    32
  0
VERTEX
  8
0
  5
2BA83
 10
-381.317
 20
843.552
 30
0.000000
  70
    32
  0
VERTEX
  8
0
  5
2BA84
 10
-381.321
 20
843.555
 30
0.000000
  70
    32
  0
VERTEX
  8
0
  5
2BA85
 10
-381.325
 20
843.559
 30
0.000000
  70
    32
  0
VERTEX
  8
0
  5
2BA86
 10
-381.329
 20
843.562
 30
0.000000
  70
    32
  0
VERTEX
  8
0
  5
2BA87
 10
-381.333
 20
843.565
 30
0.000000
  70
    32
  0
VERTEX
  8
0
  5
2BA88
 10
-381.337
 20
843.569
 30
0.000000
  70
    32
  0
VERTEX
  8
0
  5
2BA89
 10
-381.341
 20
843.572
 30
0.000000
  70
    32
  0
VERTEX
  8
0
  5
2BA8A
 10
-381.345
 20
843.575
 30
0.000000
  70
    32
  0
VERTEX
  8
0
  5
2BA8B
 10
-381.350
 20
843.579
 30
0.000000
  70
    32
  0
VERTEX
  8
0
  5
2BA8C
 10
-381.354
 20
843.582
 30
0.000000
  70
    32
  0
VERTEX
  8
0
  5
2BA8D
 10
-381.358
 20
843.586
 30
0.000000
  70
    32
  0
VERTEX
  8
0
  5
2BA8E
 10
-381.362
 20
843.589
 30
0.000000
  70
    32
  0
VERTEX
  8
0
  5
2BA8F
 10
-381.366
 20
843.592
 30
0.000000
  70
    32
  0
VERTEX
  8
0
  5
2BA90
 10
-381.370
 20
843.596
 30
0.000000
  70
    32
  0
VERTEX
  8
0
  5
2BA91
 10
-381.374
 20
843.599
 30
0.000000
  70
    32
  0
VERTEX
  8
0
  5
2BA92
 10
-381.378
 20
843.603
 30
0.000000
  70
    32
  0
VERTEX
  8
0
  5
2BA93
 10
-381.382
 20
843.606
 30
0.000000
  70
    32
  0
VERTEX
  8
0
  5
2BA94
 10
-381.385
 20
843.609
 30
0.000000
  70
    32
  0
VERTEX
  8
0
  5
2BA95
 10
-381.389
 20
843.613
 30
0.000000
  70
    32
  0
VERTEX
  8
0
  5
2BA96
 10
-381.393
 20
843.616
 30
0.000000
  70
    32
  0
VERTEX
  8
0
  5
2BA97
 10
-381.397
 20
843.620
 30
0.000000
  70
    32
  0
VERTEX
  8
0
  5
2BA98
 10
-381.401
 20
843.623
 30
0.000000
  70
    32
  0
VERTEX
  8
0
  5
2BA99
 10
-381.405
 20
843.627
 30
0.000000
  70
    32
  0
VERTEX
  8
0
  5
2BA9A
 10
-381.409
 20
843.630
 30
0.000000
  70
    32
  0
VERTEX
  8
0
  5
2BA9B
 10
-381.413
 20
843.634
 30
0.000000
  70
    32
  0
VERTEX
  8
0
  5
2BA9C
 10
-381.416
 20
843.637
 30
0.000000
  70
    32
  0
VERTEX
  8
0
  5
2BA9D
 10
-381.420
 20
843.641
 30
0.000000
  70
    32
  0
VERTEX
  8
0
  5
2BA9E
 10
-381.424
 20
843.644
 30
0.000000
  70
    32
  0
VERTEX
  8
0
  5
2BA9F
 10
-381.428
 20
843.648
 30
0.000000
  70
    32
  0
VERTEX
  8
0
  5
2BAA0
 10
-381.431
 20
843.652
 30
0.000000
  70
    32
  0
VERTEX
  8
0
  5
2BAA1
 10
-381.435
 20
843.655
 30
0.000000
  70
    32
  0
VERTEX
  8
0
  5
2BAA2
 10
-381.439
 20
843.659
 30
0.000000
  70
    32
  0
VERTEX
  8
0
  5
2BAA3
 10
-381.442
 20
843.662
 30
0.000000
  70
    32
  0
VERTEX
  8
0
  5
2BAA4
 10
-381.446
 20
843.666
 30
0.000000
  70
    32
  0
VERTEX
  8
0
  5
2BAA5
 10
-381.449
 20
843.670
 30
0.000000
  70
    32
  0
VERTEX
  8
0
  5
2BAA6
 10
-381.453
 20
843.673
 30
0.000000
  70
    32
  0
VERTEX
  8
0
  5
2BAA7
 10
-381.456
 20
843.677
 30
0.000000
  70
    32
  0
VERTEX
  8
0
  5
2BAA8
 10
-381.460
 20
843.681
 30
0.000000
  70
    32
  0
VERTEX
  8
0
  5
2BAA9
 10
-381.463
 20
843.684
 30
0.000000
  70
    32
  0
VERTEX
  8
0
  5
2BAAA
 10
-381.467
 20
843.688
 30
0.000000
  70
    32
  0
VERTEX
  8
0
  5
2BAAB
 10
-381.470
 20
843.692
 30
0.000000
  70
    32
  0
VERTEX
  8
0
  5
2BAAC
 10
-381.474
 20
843.696
 30
0.000000
  70
    32
  0
VERTEX
  8
0
  5
2BAAD
 10
-381.477
 20
843.699
 30
0.000000
  70
    32
  0
VERTEX
  8
0
  5
2BAAE
 10
-381.480
 20
843.703
 30
0.000000
  70
    32
  0
VERTEX
  8
0
  5
2BAAF
 10
-381.483
 20
843.707
 30
0.000000
  70
    32
  0
VERTEX
  8
0
  5
2BAB0
 10
-381.487
 20
843.711
 30
0.000000
  70
    32
  0
VERTEX
  8
0
  5
2BAB1
 10
-381.490
 20
843.715
 30
0.000000
  70
    32
  0
VERTEX
  8
0
  5
2BAB2
 10
-381.493
 20
843.719
 30
0.000000
  70
    32
  0
VERTEX
  8
0
  5
2BAB3
 10
-381.496
 20
843.723
 30
0.000000
  70
    32
  0
VERTEX
  8
0
  5
2BAB4
 10
-381.499
 20
843.726
 30
0.000000
  70
    32
  0
VERTEX
  8
0
  5
2BAB5
 10
-381.502
 20
843.730
 30
0.000000
  70
    32
  0
VERTEX
  8
0
  5
2BAB6
 10
-381.505
 20
843.734
 30
0.000000
  70
    32
  0
VERTEX
  8
0
  5
2BAB7
 10
-381.508
 20
843.738
 30
0.000000
  70
    32
  0
VERTEX
  8
0
  5
2BAB8
 10
-381.511
 20
843.742
 30
0.000000
  70
    32
  0
VERTEX
  8
0
  5
2BAB9
 10
-381.513
 20
843.746
 30
0.000000
  70
    32
  0
VERTEX
  8
0
  5
2BABA
 10
-381.516
 20
843.750
 30
0.000000
  70
    32
  0
VERTEX
  8
0
  5
2BABB
 10
-381.519
 20
843.754
 30
0.000000
  70
    32
  0
VERTEX
  8
0
  5
2BABC
 10
-381.522
 20
843.758
 30
0.000000
  70
    32
  0
VERTEX
  8
0
  5
2BABD
 10
-381.524
 20
843.763
 30
0.000000
  70
    32
  0
VERTEX
  8
0
  5
2BABE
 10
-381.527
 20
843.767
 30
0.000000
  70
    32
  0
VERTEX
  8
0
  5
2BABF
 10
-381.529
 20
843.771
 30
0.000000
  70
    32
  0
VERTEX
  8
0
  5
2BAC0
 10
-381.532
 20
843.775
 30
0.000000
  70
    32
  0
VERTEX
  8
0
  5
2BAC1
 10
-381.534
 20
843.779
 30
0.000000
  70
    32
  0
VERTEX
  8
0
  5
2BAC2
 10
-381.537
 20
843.783
 30
0.000000
  70
    32
  0
VERTEX
  8
0
  5
2BAC3
 10
-381.539
 20
843.788
 30
0.000000
  70
    32
  0
VERTEX
  8
0
  5
2BAC4
 10
-381.541
 20
843.792
 30
0.000000
  70
    32
  0
VERTEX
  8
0
  5
2BAC5
 10
-381.544
 20
843.796
 30
0.000000
  70
    32
  0
VERTEX
  8
0
  5
2BAC6
 10
-381.546
 20
843.800
 30
0.000000
  70
    32
  0
VERTEX
  8
0
  5
2BAC7
 10
-381.548
 20
843.805
 30
0.000000
  70
    32
  0
VERTEX
  8
0
  5
2BAC8
 10
-381.550
 20
843.809
 30
0.000000
  70
    32
  0
VERTEX
  8
0
  5
2BAC9
 10
-381.552
 20
843.813
 30
0.000000
  70
    32
  0
VERTEX
  8
0
  5
2BACA
 10
-381.554
 20
843.818
 30
0.000000
  70
    32
  0
VERTEX
  8
0
  5
2BACB
 10
-381.556
 20
843.822
 30
0.000000
  70
    32
  0
VERTEX
  8
0
  5
2BACC
 10
-381.558
 20
843.827
 30
0.000000
  70
    32
  0
VERTEX
  8
0
  5
2BACD
 10
-381.559
 20
843.831
 30
0.000000
  70
    32
  0
VERTEX
  8
0
  5
2BACE
 10
-381.561
 20
843.836
 30
0.000000
  70
    32
  0
VERTEX
  8
0
  5
2BACF
 10
-381.563
 20
843.840
 30
0.000000
  70
    32
  0
VERTEX
  8
0
  5
2BAD0
 10
-381.564
 20
843.845
 30
0.000000
  70
    32
  0
VERTEX
  8
0
  5
2BAD1
 10
-381.566
 20
843.849
 30
0.000000
  70
    32
  0
VERTEX
  8
0
  5
2BAD2
 10
-381.567
 20
843.854
 30
0.000000
  70
    32
  0
VERTEX
  8
0
  5
2BAD3
 10
-381.569
 20
843.859
 30
0.000000
  70
    32
  0
VERTEX
  8
0
  5
2BAD4
 10
-381.570
 20
843.863
 30
0.000000
  70
    32
  0
VERTEX
  8
0
  5
2BAD5
 10
-381.571
 20
843.868
 30
0.000000
  70
    32
  0
VERTEX
  8
0
  5
2BAD6
 10
-381.573
 20
843.873
 30
0.000000
  70
    32
  0
VERTEX
  8
0
  5
2BAD7
 10
-381.574
 20
843.877
 30
0.000000
  70
    32
  0
VERTEX
  8
0
  5
2BAD8
 10
-381.575
 20
843.882
 30
0.000000
  70
    32
  0
VERTEX
  8
0
  5
2BAD9
 10
-381.576
 20
843.887
 30
0.000000
  70
    32
  0
VERTEX
  8
0
  5
2BADA
 10
-381.577
 20
843.892
 30
0.000000
  70
    32
  0
VERTEX
  8
0
  5
2BADB
 10
-381.578
 20
843.897
 30
0.000000
  70
    32
  0
VERTEX
  8
0
  5
2BADC
 10
-381.579
 20
843.901
 30
0.000000
  70
    32
  0
VERTEX
  8
0
  5
2BADD
 10
-381.580
 20
843.906
 30
0.000000
  70
    32
  0
VERTEX
  8
0
  5
2BADE
 10
-381.581
 20
843.911
 30
0.000000
  70
    32
  0
VERTEX
  8
0
  5
2BADF
 10
-381.582
 20
843.916
 30
0.000000
  70
    32
  0
VERTEX
  8
0
  5
2BAE0
 10
-381.583
 20
843.921
 30
0.000000
  70
    32
  0
VERTEX
  8
0
  5
2BAE1
 10
-381.584
 20
843.926
 30
0.000000
  70
    32
  0
VERTEX
  8
0
  5
2BAE2
 10
-381.585
 20
843.931
 30
0.000000
  70
    32
  0
VERTEX
  8
0
  5
2BAE3
 10
-381.585
 20
843.935
 30
0.000000
  70
    32
  0
VERTEX
  8
0
  5
2BAE4
 10
-381.586
 20
843.940
 30
0.000000
  70
    32
  0
VERTEX
  8
0
  5
2BAE5
 10
-381.587
 20
843.945
 30
0.000000
  70
    32
  0
VERTEX
  8
0
  5
2BAE6
 10
-381.587
 20
843.950
 30
0.000000
  70
    32
  0
VERTEX
  8
0
  5
2BAE7
 10
-381.588
 20
843.955
 30
0.000000
  70
    32
  0
VERTEX
  8
0
  5
2BAE8
 10
-381.589
 20
843.960
 30
0.000000
  70
    32
  0
VERTEX
  8
0
  5
2BAE9
 10
-381.589
 20
843.965
 30
0.000000
  70
    32
  0
VERTEX
  8
0
  5
2BAEA
 10
-381.590
 20
843.970
 30
0.000000
  70
    32
  0
VERTEX
  8
0
  5
2BAEB
 10
-381.591
 20
843.975
 30
0.000000
  70
    32
  0
VERTEX
  8
0
  5
2BAEC
 10
-381.591
 20
843.980
 30
0.000000
  70
    32
  0
VERTEX
  8
0
  5
2BAED
 10
-381.592
 20
843.985
 30
0.000000
  70
    32
  0
VERTEX
  8
0
  5
2BAEE
 10
-381.592
 20
843.990
 30
0.000000
  70
    32
  0
VERTEX
  8
0
  5
2BAEF
 10
-381.593
 20
843.995
 30
0.000000
  70
    32
  0
VERTEX
  8
0
  5
2BAF0
 10
-381.593
 20
844.000
 30
0.000000
  70
    32
  0
VERTEX
  8
0
  5
2BAF1
 10
-381.594
 20
844.005
 30
0.000000
  70
    32
  0
VERTEX
  8
0
  5
2BAF2
 10
-381.594
 20
844.010
 30
0.000000
  70
    32
  0
VERTEX
  8
0
  5
2BAF3
 10
-381.595
 20
844.015
 30
0.000000
  70
    32
  0
VERTEX
  8
0
  5
2BAF4
 10
-381.595
 20
844.020
 30
0.000000
  70
    32
  0
VERTEX
  8
0
  5
2BAF5
 10
-381.596
 20
844.025
 30
0.000000
  70
    32
  0
VERTEX
  8
0
  5
2BAF6
 10
-381.596
 20
844.031
 30
0.000000
  70
    32
  0
SEQEND
  8
0
  5
2BAF7
  0
LINE
  5
2B294
  8
0
 10
-381.09675347836082
 20
843.09835483908273
 30
0.0
 11
-380.9672870551679
 21
843.09835483908273
 31
0.0
  0
LINE
  5
2B295
  8
0
 10
-380.9672870551679
 20
843.09835483908273
 30
0.0
 11
-380.9672870551679
 21
842.650770918901
 31
0.0
  0
LINE
  5
2B296
  8
0
 10
-382.49129180818238
 20
842.650770918901
 30
0.0
 11
-380.9672870551679
 21
842.650770918901
 31
0.0
  0
VIEWPORT
  5
BADA
 67
     1
  8
0
 10
5.249999665167536
 20
4.0168608648543138
 30
0.0
 40
16.023543186357209
 41
8.0117715931786062
 68
     1
 69
     1
1001
ACAD
1000
MVIEW
1002
{
1070
    16
1010
0.0
1020
0.0
1030
0.0
1010
0.0
1020
0.0
1030
1.0
1040
0.0
1040
8.0117715931786062
1040
5.249999665167536
1040
4.0168608648543138
1040
50.0
1040
0.0
1040
0.0
1070
     0
1070
   100
1070
     1
1070
     1
1070
     0
1070
     0
1070
     0
1070
     0
1040
0.0
1040
0.0
1040
0.0
1040
0.5
1040
0.5
1040
0.5
1040
0.5
1070
     0
1002
{
1002
}
1002
}
  0
VIEWPORT
  5
BADD
 67
     1
  8
0
 10
5.2499996294871929
 20
4.0166741807634683
 30
0.0
 40
10.44245679893058
 41
7.8813805131999892
 68
     2
 69
     2
1001
ACAD
1000
MVIEW
1002
{
1070
    16
1010
0.0
1020
0.0
1030
0.0
1010
0.0
1020
0.0
1030
1.0
1040
0.0
1040
7.8813805174158871
1040
-381.0435759103492
1040
845.36190234245703
1040
50.0
1040
0.0
1040
0.0
1070
     0
1070
   100
1070
     1
1070
     2
1070
     0
1070
     0
1070
     0
1070
     0
1040
0.0
1040
0.0
1040
0.0
1040
0.5
1040
0.5
1040
0.5
1040
0.5
1070
     0
1002
{
1002
}
1002
}
  0
ENDSEC
  0
EOF
