  0
SECTION
  2
HEADER
  9
$ACADVER
  1
AC1009
  9
$INSBASE
 10
0.0
 20
0.0
 30
0.0
  9
$EXTMIN
 10
-382.53419390346619
 20
843.22550599210876
 30
0.0
  9
$EXTMAX
 10
-357.79926896535028
 20
856.85260873210336
 30
0.0
  9
$LIMMIN
 10
0.0
 20
0.0
  9
$LIMMAX
 10
1500.0
 20
1500.0
  9
$ORTHOMODE
 70
     0
  9
$REGENMODE
 70
     1
  9
$FILLMODE
 70
     1
  9
$QTEXTMODE
 70
     0
  9
$MIRRTEXT
 70
     1
  9
$DRAGMODE
 70
     2
  9
$LTSCALE
 40
1.0
  9
$OSMODE
 70
    37
  9
$ATTMODE
 70
     1
  9
$TEXTSIZE
 40
1.5
  9
$TRACEWID
 40
0.05
  9
$TEXTSTYLE
  7
STANDARD
  9
$CLAYER
  8
0
  9
$CELTYPE
  6
BYLAYER
  9
$CECOLOR
 62
   256
  9
$DIMSCALE
 40
1.0
  9
$DIMASZ
 40
0.75
  9
$DIMEXO
 40
1.5
  9
$DIMDLI
 40
2.0
  9
$DIMRND
 40
0.0
  9
$DIMDLE
 40
0.0
  9
$DIMEXE
 40
1.0
  9
$DIMTP
 40
0.0
  9
$DIMTM
 40
0.0
  9
$DIMTXT
 40
1.5
  9
$DIMCEN
 40
2.0
  9
$DIMTSZ
 40
0.0
  9
$DIMTOL
 70
     0
  9
$DIMLIM
 70
     0
  9
$DIMTIH
 70
     0
  9
$DIMTOH
 70
     0
  9
$DIMSE1
 70
     0
  9
$DIMSE2
 70
     0
  9
$DIMTAD
 70
     1
  9
$DIMZIN
 70
     0
  9
$DIMBLK
  1
ARCHTICK
  9
$DIMASO
 70
     1
  9
$DIMSHO
 70
     1
  9
$DIMPOST
  1
"
  9
$DIMAPOST
  1

  9
$DIMALT
 70
     0
  9
$DIMALTD
 70
     2
  9
$DIMALTF
 40
25.399999999999999
  9
$DIMLFAC
 40
1.0
  9
$DIMTOFL
 70
     0
  9
$DIMTVP
 40
0.0
  9
$DIMTIX
 70
     1
  9
$DIMSOXD
 70
     0
  9
$DIMSAH
 70
     0
  9
$DIMBLK1
  1

  9
$DIMBLK2
  1

  9
$DIMSTYLE
  2
THREE_QUARTER_INCH_SCALE
  9
$DIMCLRD
 70
     0
  9
$DIMCLRE
 70
     0
  9
$DIMCLRT
 70
     0
  9
$DIMTFAC
 40
1.0
  9
$DIMGAP
 40
1.0
  9
$LUNITS
 70
     2
  9
$LUPREC
 70
     4
  9
$SKETCHINC
 40
0.1
  9
$FILLETRAD
 40
0.0
  9
$AUNITS
 70
     0
  9
$AUPREC
 70
     0
  9
$MENU
  1
.
  9
$ELEVATION
 40
0.0
  9
$PELEVATION
 40
0.0
  9
$THICKNESS
 40
0.0
  9
$LIMCHECK
 70
     0
  9
$BLIPMODE
 70
     0
  9
$CHAMFERA
 40
0.5
  9
$CHAMFERB
 40
0.5
  9
$SKPOLY
 70
     0
  9
$TDCREATE
 40
2452089.395738773
  9
$TDUPDATE
 40
2453608.513288171
  9
$TDINDWG
 40
1.5407082523
  9
$TDUSRTIMER
 40
1.5407082523
  9
$USRTIMER
 70
     1
  9
$ANGBASE
 50
0.0
  9
$ANGDIR
 70
     0
  9
$PDMODE
 70
     0
  9
$PDSIZE
 40
10.0
  9
$PLINEWID
 40
0.0
  9
$COORDS
 70
     1
  9
$SPLFRAME
 70
     0
  9
$SPLINETYPE
 70
     6
  9
$SPLINESEGS
 70
     8
  9
$ATTDIA
 70
     0
  9
$ATTREQ
 70
     1
  9
$HANDLING
 70
     1
  9
$HANDSEED
  5
32226
  9
$SURFTAB1
 70
     6
  9
$SURFTAB2
 70
     6
  9
$SURFTYPE
 70
     6
  9
$SURFU
 70
     6
  9
$SURFV
 70
     6
  9
$UCSNAME
  2

  9
$UCSORG
 10
0.0
 20
0.0
 30
0.0
  9
$UCSXDIR
 10
1.0
 20
0.0
 30
0.0
  9
$UCSYDIR
 10
0.0
 20
1.0
 30
0.0
  9
$PUCSNAME
  2

  9
$PUCSORG
 10
0.0
 20
0.0
 30
0.0
  9
$PUCSXDIR
 10
1.0
 20
0.0
 30
0.0
  9
$PUCSYDIR
 10
0.0
 20
1.0
 30
0.0
  9
$USERI1
 70
     0
  9
$USERI2
 70
     0
  9
$USERI3
 70
     0
  9
$USERI4
 70
     0
  9
$USERI5
 70
     0
  9
$USERR1
 40
0.0
  9
$USERR2
 40
0.0
  9
$USERR3
 40
0.0
  9
$USERR4
 40
0.0
  9
$USERR5
 40
0.0
  9
$WORLDVIEW
 70
     1
  9
$SHADEDGE
 70
     3
  9
$SHADEDIF
 70
    70
  9
$TILEMODE
 70
     0
  9
$MAXACTVP
 70
    64
  9
$PLIMCHECK
 70
     0
  9
$PEXTMIN
 10
0.0282895744820664
 20
0.0759353784799721
 30
-0.0015258207003583
  9
$PEXTMAX
 10
10.471709755853
 20
7.9577863512286546
 30
0.0000000349246037
  9
$PLIMMIN
 10
-0.2500002402958907
 20
-0.2499999962453767
  9
$PLIMMAX
 10
10.74999951940821
 20
8.2499997634587316
  9
$UNITMODE
 70
     0
  9
$VISRETAIN
 70
     1
  9
$PLINEGEN
 70
     0
  9
$PSLTSCALE
 70
     1
  0
ENDSEC
  0
SECTION
  2
TABLES
  0
TABLE
  2
VPORT
 70
     3
  0
VPORT
  2
*ACTIVE
 70
     0
 10
0.0
 20
0.0
 11
1.0
 21
1.0
 12
-380.70010693656201
 22
845.16779400026962
 13
0.0
 23
0.0
 14
0.5
 24
0.5
 15
0.5
 25
0.5
 16
0.0
 26
0.0
 36
1.0
 17
0.0
 27
0.0
 37
0.0
 40
8.8173627230431642
 41
2.0
 42
50.0
 43
0.0
 44
0.0
 50
0.0
 51
0.0
 71
     0
 72
   100
 73
     1
 74
     2
 75
     0
 76
     0
 77
     0
 78
     0
  0
ENDTAB
  0
TABLE
  2
LTYPE
 70
     1
  0
LTYPE
  2
CONTINUOUS
 70
     0
  3
Solid line
 72
    65
 73
     0
 40
0.0
  0
ENDTAB
  0
TABLE
  2
LAYER
 70
    10
  0
LAYER
  2
0
 70
     0
 62
     7
  6
CONTINUOUS
  0
LAYER
  2
DEFPOINTS
 70
     0
 62
     7
  6
CONTINUOUS
  0
LAYER
  2
FRAME_200
 70
     0
 62
     8
  6
CONTINUOUS
  0
LAYER
  2
FRAME_070
 70
     0
 62
     5
  6
CONTINUOUS
  0
LAYER
  2
FRAME_050
 70
     0
 62
     6
  6
CONTINUOUS
  0
LAYER
  2
TITLE_BLOCK
 70
     0
 62
     7
  6
CONTINUOUS
  0
LAYER
  2
FRAME_025
 70
     0
 62
     7
  6
CONTINUOUS
  0
LAYER
  2
VIEWPORT
 70
     0
 62
     7
  6
CONTINUOUS
  0
LAYER
  2
PROF
 70
     0
 62
     7
  6
CONTINUOUS
  0
LAYER
  2
PROFILE
 70
     0
 62
     7
  6
CONTINUOUS
  0
ENDTAB
  0
TABLE
  2
STYLE
 70
     2
  0
STYLE
  2
STANDARD
 70
     0
 40
0.0
 41
1.0
 50
0.0
 71
     0
 42
1.5
  3
txt
  4

  0
STYLE
  2
ISO_PROPORTIONAL
 70
     0
 40
0.0
 41
1.0
 50
0.0
 71
     0
 42
2.5
  3
isocp.shx
  4

  0
ENDTAB
  0
TABLE
  2
VIEW
 70
     7
  0
ENDTAB
  0
TABLE
  2
UCS
 70
     0
  0
ENDTAB
  0
TABLE
  2
APPID
 70
     6
  0
APPID
  2
ACAD
 70
     0
  0
APPID
  2
DCO15
 70
     0
  0
APPID
  2
ACAD_EXEMPT_FROM_CAD_STANDARDS
 70
     0
  0
APPID
  2
ACAD_PSEXT
 70
     0
  0
APPID
  2
CONTENTBLOCKDESCRIPTION
 70
     0
  0
APPID
  2
CONTENTBLOCKICON
 70
     0
  0
ENDTAB
  0
TABLE
  2
DIMSTYLE
 70
     5
  0
DIMSTYLE
  2
FULL_SCALE
 70
     0
  3
"
  4

  5
ARCHTICK
  6

  7

 40
1.0
 41
0.046875
 42
0.09375
 43
0.125
 44
0.0625
 45
0.0
 46
0.0
 47
0.0
 48
0.0
140
0.125
141
0.125
142
0.0
143
25.399999999999999
144
1.0
145
0.0
146
1.0
147
0.0625
 71
     0
 72
     0
 73
     0
 74
     0
 75
     0
 76
     0
 77
     1
 78
     0
170
     0
171
     2
172
     0
173
     0
174
     1
175
     0
176
     0
177
     0
178
     0
  0
DIMSTYLE
  2
HALF_SCALE
 70
     0
  3
"
  4

  5
ARCHTICK
  6

  7

 40
1.0
 41
0.09375
 42
0.1875
 43
0.25
 44
0.125
 45
0.0
 46
0.0
 47
0.0
 48
0.0
140
0.25
141
0.25
142
0.0
143
25.399999999999999
144
1.0
145
0.0
146
1.0
147
0.125
 71
     0
 72
     0
 73
     0
 74
     0
 75
     0
 76
     0
 77
     1
 78
     0
170
     0
171
     2
172
     0
173
     0
174
     1
175
     0
176
     0
177
     0
178
     0
  0
DIMSTYLE
  2
INCH_SCALE
 70
     0
  3
"
  4

  5
ARCHTICK
  6

  7

 40
1.0
 41
0.5625
 42
1.125
 43
1.5
 44
0.75
 45
0.0
 46
0.0
 47
0.0
 48
0.0
140
1.125
141
1.5
142
0.0
143
25.399999999999999
144
1.0
145
0.0
146
1.0
147
0.75
 71
     0
 72
     0
 73
     0
 74
     0
 75
     0
 76
     0
 77
     1
 78
     0
170
     0
171
     2
172
     0
173
     0
174
     1
175
     0
176
     0
177
     0
178
     0
  0
DIMSTYLE
  2
THREE_QUARTER_INCH_SCALE
 70
     0
  3
"
  4

  5
ARCHTICK
  6

  7

 40
1.0
 41
0.75
 42
1.5
 43
2.0
 44
1.0
 45
0.0
 46
0.0
 47
0.0
 48
0.0
140
1.5
141
2.0
142
0.0
143
25.399999999999999
144
1.0
145
0.0
146
1.0
147
1.0
 71
     0
 72
     0
 73
     0
 74
     0
 75
     0
 76
     0
 77
     1
 78
     0
170
     0
171
     2
172
     0
173
     0
174
     1
175
     0
176
     0
177
     0
178
     0
  0
DIMSTYLE
  2
ZHALF_INCH_SCALE
 70
     0
  3
"
  4

  5
ARCHTICK
  6

  7

 40
1.0
 41
1.125
 42
2.25
 43
3.0
 44
1.5
 45
0.0
 46
0.0
 47
0.0
 48
0.0
140
2.25
141
3.0
142
0.0
143
25.399999999999999
144
1.0
145
0.0
146
1.0
147
1.5
 71
     0
 72
     0
 73
     0
 74
     0
 75
     0
 76
     0
 77
     1
 78
     0
170
     0
171
     2
172
     0
173
     0
174
     1
175
     0
176
     0
177
     0
178
     0
  0
ENDTAB
  0
ENDSEC
  0
SECTION
  2
BLOCKS
  0
BLOCK
  8
0
  2
$MODEL_SPACE
 70
     0
 10
0.0
 20
0.0
 30
0.0
  3
$MODEL_SPACE
  1

  0
ENDBLK
  5
21
  8
0
  0
BLOCK
 67
     1
  8
0
  2
$PAPER_SPACE
 70
     0
 10
0.0
 20
0.0
 30
0.0
  3
$PAPER_SPACE
  1

  0
ENDBLK
  5
BAD5
 67
     1
  8
0
  0
BLOCK
  8
0
  2
_ARCHTICK
 70
     0
 10
0.0
 20
0.0
 30
0.0
  3
_ARCHTICK
  1

  0
POLYLINE
  5
158
  8
0
  6
BYBLOCK
 62
     0
 66
     1
 10
0.0
 20
0.0
 30
0.0
 40
0.15
 41
0.15
  0
VERTEX
  5
31C5A
  8
0
  6
BYBLOCK
 62
     0
 10
-0.5
 20
-0.5
 30
0.0
  0
VERTEX
  5
31C5B
  8
0
  6
BYBLOCK
 62
     0
 10
0.5
 20
0.5
 30
0.0
  0
SEQEND
  5
31C5C
  8
0
  6
BYBLOCK
 62
     0
  0
ENDBLK
  5
15A
  8
0
  0
BLOCK
  8
0
  2
_OPEN30
 70
     0
 10
0.0
 20
0.0
 30
0.0
  3
_OPEN30
  1

  0
LINE
  5
15C
  8
0
  6
BYBLOCK
 62
     0
 10
-1.0
 20
0.26794919
 30
0.0
 11
0.0
 21
0.0
 31
0.0
  0
LINE
  5
15D
  8
0
  6
BYBLOCK
 62
     0
 10
0.0
 20
0.0
 30
0.0
 11
-1.0
 21
-0.26794919
 31
0.0
  0
LINE
  5
15E
  8
0
  6
BYBLOCK
 62
     0
 10
0.0
 20
0.0
 30
0.0
 11
-1.0
 21
0.0
 31
0.0
  0
ENDBLK
  5
160
  8
0
  0
BLOCK
  8
0
  2
ISO_A2_TITLE_BLOCK
 70
     2
 10
0.0
 20
0.0
 30
0.0
  3
ISO_A2_TITLE_BLOCK
  1

  0
LINE
  5
BDD
  8
FRAME_050
 10
299.5
 20
12.5
 30
0.0
 11
297.0
 21
7.5
 31
0.0
  0
LINE
  5
BDE
  8
FRAME_050
 10
294.5
 20
12.5
 30
0.0
 11
299.5
 21
12.5
 31
0.0
  0
LINE
  5
BDF
  8
FRAME_050
 10
247.0
 20
5.0
 30
0.0
 11
347.0
 21
5.0
 31
0.0
  0
LINE
  5
BE0
  8
FRAME_070
 10
584.0
 20
410.0
 30
0.0
 11
10.0
 21
410.0
 31
0.0
  0
LINE
  5
BE1
  8
FRAME_070
 10
10.0
 20
10.0
 30
0.0
 11
584.0
 21
10.0
 31
0.0
  0
LINE
  5
BE2
  8
FRAME_050
 10
12.5
 20
207.5
 30
0.0
 11
7.5
 21
210.0
 31
0.0
  0
LINE
  5
BE3
  8
FRAME_050
 10
12.5
 20
212.5
 30
0.0
 11
12.5
 21
207.5
 31
0.0
  0
LINE
  5
BE4
  8
FRAME_070
 10
10.0
 20
410.0
 30
0.0
 11
10.0
 21
10.0
 31
0.0
  0
LINE
  5
BE5
  8
FRAME_200
 10
0.0
 20
0.0
 30
0.0
 11
0.0
 21
10.0
 31
0.0
  0
LINE
  5
BE6
  8
FRAME_200
 10
0.0
 20
0.0
 30
0.0
 11
10.0
 21
0.0
 31
0.0
  0
TEXT
  5
BE7
  8
FRAME_050
 10
5.9000000000000004
 20
35.0
 30
0.0
 40
4.0
  1
H
  7
ISO_PROPORTIONAL
 72
     4
 11
7.5
 21
37.0
 31
0.0
  0
LINE
  5
BE8
  8
FRAME_050
 10
10.0
 20
60.0
 30
0.0
 11
5.0
 21
60.0
 31
0.0
  0
LINE
  5
BE9
  8
FRAME_050
 10
81.75
 20
5.0
 30
0.0
 11
81.75
 21
10.0
 31
0.0
  0
TEXT
  5
BEA
  8
FRAME_050
 10
44.874999999999993
 20
5.5
 30
0.0
 40
4.0
  1
1
  7
ISO_PROPORTIONAL
 72
     4
 11
45.875
 21
7.5
 31
0.0
  0
TEXT
  5
BEB
  8
FRAME_050
 10
6.0035533905932743
 20
85.0
 30
0.0
 40
4.0
  1
G
  7
ISO_PROPORTIONAL
 72
     4
 11
7.5
 21
87.0
 31
0.0
  0
LINE
  5
BEC
  8
FRAME_050
 10
10.0
 20
110.0
 30
0.0
 11
5.0
 21
110.0
 31
0.0
  0
TEXT
  5
BED
  8
FRAME_050
 10
6.0999999999999988
 20
135.0
 30
0.0
 40
4.0
  1
F
  7
ISO_PROPORTIONAL
 72
     4
 11
7.5
 21
137.0
 31
0.0
  0
LINE
  5
BEE
  8
FRAME_050
 10
10.0
 20
160.0
 30
0.0
 11
5.0
 21
160.0
 31
0.0
  0
TEXT
  5
BEF
  8
FRAME_050
 10
6.0999999999999988
 20
185.0
 30
0.0
 40
4.0
  1
E
  7
ISO_PROPORTIONAL
 72
     4
 11
7.5
 21
187.0
 31
0.0
  0
LINE
  5
BF0
  8
FRAME_050
 10
153.5
 20
5.0
 30
0.0
 11
153.5
 21
10.0
 31
0.0
  0
TEXT
  5
BF1
  8
FRAME_050
 10
116.1556692913386
 20
5.3996062992125982
 30
0.0
 40
4.0
  1
2
  7
ISO_PROPORTIONAL
 72
     4
 11
117.625
 21
7.5
 31
0.0
  0
TEXT
  5
BF2
  8
FRAME_050
 10
187.89215728752529
 20
5.5828427124746138
 30
0.0
 40
4.0
  1
3
  7
ISO_PROPORTIONAL
 72
     4
 11
189.375
 21
7.5
 31
0.0
  0
LINE
  5
BF3
  8
FRAME_050
 10
225.25
 20
5.0
 30
0.0
 11
225.25
 21
10.0
 31
0.0
  0
LINE
  5
BF4
  8
FRAME_050
 10
297.0
 20
7.5
 30
0.0
 11
294.5
 21
12.5
 31
0.0
  0
LINE
  5
BF5
  8
FRAME_050
 10
287.0
 20
5.0
 30
0.0
 11
287.0
 21
10.0
 31
0.0
  0
LINE
  5
BF6
  8
FRAME_050
 10
277.0
 20
5.0
 30
0.0
 11
277.0
 21
10.0
 31
0.0
  0
LINE
  5
BF7
  8
FRAME_050
 10
267.0
 20
5.0
 30
0.0
 11
267.0
 21
10.0
 31
0.0
  0
LINE
  5
BF8
  8
FRAME_050
 10
257.0
 20
5.0
 30
0.0
 11
257.0
 21
10.0
 31
0.0
  0
LINE
  5
BF9
  8
FRAME_050
 10
247.0
 20
5.0
 30
0.0
 11
247.0
 21
10.0
 31
0.0
  0
LINE
  5
BFA
  8
FRAME_050
 10
297.0
 20
10.0
 30
0.0
 11
297.0
 21
5.0
 31
0.0
  0
LINE
  5
BFB
  8
FRAME_050
 10
297.0
 20
10.0
 30
0.0
 11
297.0
 21
15.0
 31
0.0
  0
LINE
  5
BFC
  8
FRAME_050
 10
5.0
 20
210.0
 30
0.0
 11
15.0
 21
210.0
 31
0.0
  0
LINE
  5
BFD
  8
FRAME_050
 10
7.5
 20
210.0
 30
0.0
 11
12.5
 21
212.5
 31
0.0
  0
TEXT
  5
BFE
  8
FRAME_050
 10
5.7860912703473977
 20
235.0
 30
0.0
 40
4.0
  1
D
  7
ISO_PROPORTIONAL
 72
     4
 11
7.5
 21
237.0
 31
0.0
  0
LINE
  5
BFF
  8
FRAME_050
 10
10.0
 20
260.0
 30
0.0
 11
5.0
 21
260.0
 31
0.0
  0
TEXT
  5
C00
  8
FRAME_050
 10
6.1931980515339466
 20
285.0
 30
0.0
 40
4.0
  1
C
  7
ISO_PROPORTIONAL
 72
     4
 11
7.5
 21
287.0
 31
0.0
  0
LINE
  5
C01
  8
FRAME_050
 10
10.0
 20
310.0
 30
0.0
 11
5.0
 21
310.0
 31
0.0
  0
TEXT
  5
C02
  8
FRAME_050
 10
5.8999999999999959
 20
335.0
 30
0.0
 40
4.0
  1
B
  7
ISO_PROPORTIONAL
 72
     4
 11
7.5
 21
337.0
 31
0.0
  0
LINE
  5
C03
  8
FRAME_050
 10
10.0
 20
360.0
 30
0.0
 11
5.0
 21
360.0
 31
0.0
  0
TEXT
  5
C04
  8
FRAME_050
 10
5.6999999999999993
 20
385.0
 30
0.0
 40
4.0
  1
A
  7
ISO_PROPORTIONAL
 72
     4
 11
7.5
 21
387.0
 31
0.0
  0
LINE
  5
C05
  8
FRAME_200
 10
10.0
 20
420.0
 30
0.0
 11
0.0
 21
420.0
 31
0.0
  0
LINE
  5
C06
  8
FRAME_200
 10
0.0
 20
420.0
 30
0.0
 11
0.0
 21
410.0
 31
0.0
  0
TEXT
  5
C07
  8
FRAME_050
 10
44.874999999999993
 20
410.5
 30
0.0
 40
4.0
  1
1
  7
ISO_PROPORTIONAL
 72
     4
 11
45.875
 21
412.5
 31
0.0
  0
LINE
  5
C08
  8
FRAME_050
 10
81.75
 20
410.0
 30
0.0
 11
81.75
 21
415.0
 31
0.0
  0
TEXT
  5
C09
  8
FRAME_050
 10
116.1556692913386
 20
410.39960629921262
 30
0.0
 40
4.0
  1
2
  7
ISO_PROPORTIONAL
 72
     4
 11
117.625
 21
412.5
 31
0.0
  0
LINE
  5
C0A
  8
FRAME_050
 10
153.5
 20
410.0
 30
0.0
 11
153.5
 21
415.0
 31
0.0
  0
TEXT
  5
C0B
  8
FRAME_050
 10
187.89215728752529
 20
410.58284271247459
 30
0.0
 40
4.0
  1
3
  7
ISO_PROPORTIONAL
 72
     4
 11
189.375
 21
412.5
 31
0.0
  0
LINE
  5
C0C
  8
FRAME_050
 10
297.0
 20
405.0
 30
0.0
 11
297.0
 21
415.0
 31
0.0
  0
LINE
  5
C0D
  8
FRAME_050
 10
225.25
 20
410.0
 30
0.0
 11
225.25
 21
415.0
 31
0.0
  0
TEXT
  5
C0E
  8
FRAME_050
 10
259.52499999999998
 20
410.5
 30
0.0
 40
4.0
  1
4
  7
ISO_PROPORTIONAL
 72
     4
 11
261.125
 21
412.5
 31
0.0
  0
LINE
  5
C0F
  8
FRAME_070
 10
584.0
 20
10.0
 30
0.0
 11
584.0
 21
410.0
 31
0.0
  0
ATTDEF
  5
C10
  8
FRAME_025
 10
473.0
 20
31.75
 30
0.0
 40
2.5
  1
XXX - 00/00/00
  7
ISO_PROPORTIONAL
 11
473.0
 21
33.0
 31
0.0
  3
Approved by - Date
  2
APPROVED_BY_DATE
 70
     8
 74
     2
  0
TEXT
  5
C11
  8
FRAME_025
 10
448.0
 20
41.749999999999993
 30
0.0
 40
2.5
  1
Title/Name, designation, material, dimension etc
  7
ISO_PROPORTIONAL
 11
448.0
 21
43.0
 31
0.0
 73
     2
  0
TEXT
  5
C12
  8
FRAME_025
 10
473.0
 20
35.75
 30
0.0
 40
2.5
  1
Approved by - date
  7
ISO_PROPORTIONAL
 11
473.0
 21
37.0
 31
0.0
 73
     2
  0
LINE
  5
C13
  8
FRAME_070
 10
414.0
 20
46.0
 30
0.0
 11
584.0
 21
46.0
 31
0.0
  0
LINE
  5
C14
  8
FRAME_070
 10
414.0
 20
40.0
 30
0.0
 11
584.0
 21
40.0
 31
0.0
  0
LINE
  5
C15
  8
FRAME_070
 10
414.0
 20
30.0
 30
0.0
 11
584.0
 21
30.0
 31
0.0
  0
LINE
  5
C16
  8
FRAME_050
 10
368.75
 20
5.0
 30
0.0
 11
368.75
 21
10.0
 31
0.0
  0
LINE
  5
C17
  8
FRAME_050
 10
337.0
 20
5.0
 30
0.0
 11
337.0
 21
10.0
 31
0.0
  0
LINE
  5
C18
  8
FRAME_050
 10
327.0
 20
5.0
 30
0.0
 11
327.0
 21
10.0
 31
0.0
  0
LINE
  5
C19
  8
FRAME_050
 10
317.0
 20
5.0
 30
0.0
 11
317.0
 21
10.0
 31
0.0
  0
LINE
  5
C1A
  8
FRAME_050
 10
307.0
 20
5.0
 30
0.0
 11
307.0
 21
10.0
 31
0.0
  0
LINE
  5
C1B
  8
FRAME_050
 10
347.0
 20
5.0
 30
0.0
 11
347.0
 21
10.0
 31
0.0
  0
LINE
  5
C1C
  8
FRAME_050
 10
440.5
 20
5.0
 30
0.0
 11
440.5
 21
10.0
 31
0.0
  0
TEXT
  5
C1D
  8
FRAME_050
 10
403.24547244094481
 20
5.4102362204724406
 30
0.0
 40
4.0
  1
6
  7
ISO_PROPORTIONAL
 72
     4
 11
404.62499999999989
 21
7.5
 31
0.0
  0
TEXT
  5
C1E
  8
FRAME_050
 10
474.97500000000002
 20
5.5
 30
0.0
 40
4.0
  1
7
  7
ISO_PROPORTIONAL
 72
     4
 11
476.37499999999989
 21
7.5
 31
0.0
  0
TEXT
  5
C1F
  8
FRAME_025
 10
431.0
 20
41.749999999999993
 30
0.0
 40
2.5
  1
Quantity
  7
ISO_PROPORTIONAL
 11
431.0
 21
43.0
 31
0.0
 73
     2
  0
TEXT
  5
C20
  8
FRAME_025
 10
416.0
 20
41.749999999999993
 30
0.0
 40
2.5
  1
Itemref
  7
ISO_PROPORTIONAL
 11
416.0
 21
43.0
 31
0.0
 73
     2
  0
LINE
  5
C21
  8
FRAME_070
 10
414.0
 20
40.0
 30
0.0
 11
414.0
 21
46.0
 31
0.0
  0
LINE
  5
C22
  8
FRAME_070
 10
429.0
 20
40.0
 30
0.0
 11
429.0
 21
46.0
 31
0.0
  0
LINE
  5
C23
  8
FRAME_070
 10
414.0
 20
10.0
 30
0.0
 11
414.0
 21
40.0
 31
0.0
  0
ATTDEF
  5
C24
  8
FRAME_025
 10
416.0
 20
31.75
 30
0.0
 40
2.5
  1
XXX
  7
ISO_PROPORTIONAL
 11
416.0
 21
33.0
 31
0.0
  3
Designed by
  2
DESIGNED_BY
 70
     8
 74
     2
  0
TEXT
  5
C25
  8
FRAME_025
 10
416.0
 20
35.75
 30
0.0
 40
2.5
  1
Designed by
  7
ISO_PROPORTIONAL
 11
416.0
 21
37.0
 31
0.0
 73
     2
  0
LINE
  5
C26
  8
FRAME_070
 10
446.0
 20
40.0
 30
0.0
 11
446.0
 21
46.0
 31
0.0
  0
ATTDEF
  5
C27
  8
FRAME_025
 10
448.0
 20
31.75
 30
0.0
 40
2.5
  1
XXX
  7
ISO_PROPORTIONAL
 11
448.0
 21
33.0
 31
0.0
  3
Checked by
  2
CHECKED_BY
 70
     8
 74
     2
  0
TEXT
  5
C28
  8
FRAME_025
 10
448.0
 20
35.75
 30
0.0
 40
2.5
  1
Checked by
  7
ISO_PROPORTIONAL
 11
448.0
 21
37.0
 31
0.0
 73
     2
  0
ATTDEF
  5
C29
  8
FRAME_050
 10
444.74999999999989
 20
17.5
 30
0.0
 40
5.0
  1
XXX
  7
ISO_PROPORTIONAL
 72
     4
 11
451.49999999999989
 21
20.0
 31
0.0
  3
Owner
  2
OWNER
 70
     8
  0
LINE
  5
C2A
  8
FRAME_070
 10
446.0
 20
30.0
 30
0.0
 11
446.0
 21
40.0
 31
0.0
  0
LINE
  5
C2B
  8
FRAME_070
 10
471.0
 20
30.0
 30
0.0
 11
471.0
 21
40.0
 31
0.0
  0
LINE
  5
C2C
  8
FRAME_070
 10
489.0
 20
20.0
 30
0.0
 11
584.0
 21
20.0
 31
0.0
  0
LINE
  5
C2D
  8
FRAME_050
 10
512.25
 20
5.0
 30
0.0
 11
512.25
 21
10.0
 31
0.0
  0
TEXT
  5
C2E
  8
FRAME_050
 10
546.72499999999991
 20
5.5
 30
0.0
 40
4.0
  1
8
  7
ISO_PROPORTIONAL
 72
     4
 11
548.125
 21
7.5
 31
0.0
  0
ATTDEF
  5
C2F
  8
FRAME_050
 10
517.64999999999986
 20
13.5
 30
0.0
 40
3.0
  1
X
  7
ISO_PROPORTIONAL
 72
     4
 11
519.0
 21
15.0
 31
0.0
  3
Drawing number
  2
DRAWING_NUMBER
 70
     8
  0
ATTDEF
  5
C30
  8
FRAME_050
 10
529.75
 20
22.5
 30
0.0
 40
5.0
  1
XXX
  7
ISO_PROPORTIONAL
 72
     4
 11
536.5
 21
25.0
 31
0.0
  3
Title / Name
  2
TITLE
 70
     8
  0
LINE
  5
C31
  8
FRAME_070
 10
489.0
 20
10.0
 30
0.0
 11
489.0
 21
30.0
 31
0.0
  0
ATTDEF
  5
C32
  8
FRAME_025
 10
511.0
 20
31.75
 30
0.0
 40
2.5
  1
XXX
  7
ISO_PROPORTIONAL
 11
511.0
 21
33.0
 31
0.0
  3
Filename
  2
FILENAME
 70
     8
 74
     2
  0
TEXT
  5
C33
  8
FRAME_025
 10
511.0
 20
35.75
 30
0.0
 40
2.5
  1
Filename
  7
ISO_PROPORTIONAL
 11
511.0
 21
37.0
 31
0.0
 73
     2
  0
LINE
  5
C34
  8
FRAME_070
 10
509.0
 20
30.0
 30
0.0
 11
509.0
 21
40.0
 31
0.0
  0
TEXT
  5
C35
  8
FRAME_025
 10
536.0
 20
41.749999999999993
 30
0.0
 40
2.5
  1
Article No./Reference
  7
ISO_PROPORTIONAL
 11
536.0
 21
43.0
 31
0.0
 73
     2
  0
LINE
  5
C36
  8
FRAME_070
 10
534.0
 20
40.0
 30
0.0
 11
534.0
 21
46.0
 31
0.0
  0
ATTDEF
  5
C37
  8
FRAME_025
 10
551.0
 20
11.75
 30
0.0
 40
2.5
  1
0
  7
ISO_PROPORTIONAL
 11
551.0
 21
13.0
 31
0.0
  3
Edition
  2
EDITION
 70
     8
 74
     2
  0
TEXT
  5
C38
  8
FRAME_025
 10
551.0
 20
15.75
 30
0.0
 40
2.5
  1
Edition
  7
ISO_PROPORTIONAL
 11
551.0
 21
17.0
 31
0.0
 73
     2
  0
LINE
  5
C39
  8
FRAME_070
 10
549.0
 20
10.0
 30
0.0
 11
549.0
 21
20.0
 31
0.0
  0
ATTDEF
  5
C3A
  8
FRAME_025
 10
536.0
 20
31.75
 30
0.0
 40
2.5
  1
00/00/00
  7
ISO_PROPORTIONAL
 11
536.0
 21
33.0
 31
0.0
  3
Date
  2
DATE
 70
     8
 74
     2
  0
TEXT
  5
C3B
  8
FRAME_025
 10
536.0
 20
35.75
 30
0.0
 40
2.5
  1
Date
  7
ISO_PROPORTIONAL
 11
536.0
 21
37.0
 31
0.0
 73
     2
  0
LINE
  5
C3C
  8
FRAME_070
 10
534.0
 20
30.0
 30
0.0
 11
534.0
 21
40.0
 31
0.0
  0
ATTDEF
  5
C3D
  8
FRAME_025
 10
566.0
 20
11.75
 30
0.0
 40
2.5
  1
1/1
  7
ISO_PROPORTIONAL
 11
566.0
 21
13.0
 31
0.0
  3
Sheet
  2
SHEET
 70
     8
 74
     2
  0
TEXT
  5
C3E
  8
FRAME_025
 10
566.0
 20
15.75
 30
0.0
 40
2.5
  1
Sheet
  7
ISO_PROPORTIONAL
 11
566.0
 21
17.0
 31
0.0
 73
     2
  0
LINE
  5
C3F
  8
FRAME_070
 10
564.0
 20
10.0
 30
0.0
 11
564.0
 21
20.0
 31
0.0
  0
ATTDEF
  5
C40
  8
FRAME_025
 10
566.0
 20
31.75
 30
0.0
 40
2.5
  1
1:1
  7
ISO_PROPORTIONAL
 11
566.0
 21
33.0
 31
0.0
  3
Scale
  2
SCALE
 70
     8
 74
     2
  0
TEXT
  5
C41
  8
FRAME_025
 10
566.0
 20
35.75
 30
0.0
 40
2.5
  1
Scale
  7
ISO_PROPORTIONAL
 11
566.0
 21
37.0
 31
0.0
 73
     2
  0
LINE
  5
C42
  8
FRAME_070
 10
564.0
 20
30.0
 30
0.0
 11
564.0
 21
40.0
 31
0.0
  0
LINE
  5
C43
  8
FRAME_200
 10
594.0
 20
0.0
 30
0.0
 11
594.0
 21
10.0
 31
0.0
  0
LINE
  5
C44
  8
FRAME_200
 10
594.0
 20
0.0
 30
0.0
 11
584.0
 21
0.0
 31
0.0
  0
TEXT
  5
C45
  8
FRAME_050
 10
584.89999999999998
 20
35.0
 30
0.0
 40
4.0
  1
H
  7
ISO_PROPORTIONAL
 72
     4
 11
586.5
 21
37.0
 31
0.0
  0
LINE
  5
C46
  8
FRAME_050
 10
589.0
 20
60.0
 30
0.0
 11
584.0
 21
60.0
 31
0.0
  0
TEXT
  5
C47
  8
FRAME_050
 10
585.0035533905932
 20
85.0
 30
0.0
 40
4.0
  1
G
  7
ISO_PROPORTIONAL
 72
     4
 11
586.5
 21
87.0
 31
0.0
  0
LINE
  5
C48
  8
FRAME_050
 10
589.0
 20
110.0
 30
0.0
 11
584.0
 21
110.0
 31
0.0
  0
TEXT
  5
C49
  8
FRAME_050
 10
585.09999999999991
 20
135.0
 30
0.0
 40
4.0
  1
F
  7
ISO_PROPORTIONAL
 72
     4
 11
586.5
 21
137.0
 31
0.0
  0
LINE
  5
C4A
  8
FRAME_050
 10
589.0
 20
160.0
 30
0.0
 11
584.0
 21
160.0
 31
0.0
  0
TEXT
  5
C4B
  8
FRAME_050
 10
585.09999999999991
 20
185.0
 30
0.0
 40
4.0
  1
E
  7
ISO_PROPORTIONAL
 72
     4
 11
586.5
 21
187.0
 31
0.0
  0
LINE
  5
C4C
  8
FRAME_070
 10
414.0
 20
404.0
 30
0.0
 11
584.0
 21
404.0
 31
0.0
  0
TEXT
  5
C4D
  8
FRAME_050
 10
331.39215728752538
 20
410.58284271247459
 30
0.0
 40
4.0
  1
5
  7
ISO_PROPORTIONAL
 72
     4
 11
332.875
 21
412.5
 31
0.0
  0
LINE
  5
C4E
  8
FRAME_050
 10
368.75
 20
410.0
 30
0.0
 11
368.75
 21
415.0
 31
0.0
  0
TEXT
  5
C4F
  8
FRAME_025
 10
428.0
 20
405.75
 30
0.0
 40
2.5
  1
Revision note
  7
ISO_PROPORTIONAL
 11
428.0
 21
407.0
 31
0.0
 73
     2
  0
TEXT
  5
C50
  8
FRAME_025
 10
416.0
 20
405.75
 30
0.0
 40
2.5
  1
RevNo
  7
ISO_PROPORTIONAL
 11
416.0
 21
407.0
 31
0.0
 73
     2
  0
LINE
  5
C51
  8
FRAME_070
 10
426.0
 20
404.0
 30
0.0
 11
426.0
 21
410.0
 31
0.0
  0
LINE
  5
C52
  8
FRAME_070
 10
414.0
 20
404.0
 30
0.0
 11
414.0
 21
410.0
 31
0.0
  0
TEXT
  5
C53
  8
FRAME_050
 10
403.24547244094481
 20
410.41023622047243
 30
0.0
 40
4.0
  1
6
  7
ISO_PROPORTIONAL
 72
     4
 11
404.62499999999989
 21
412.5
 31
0.0
  0
LINE
  5
C54
  8
FRAME_050
 10
440.5
 20
410.0
 30
0.0
 11
440.5
 21
415.0
 31
0.0
  0
TEXT
  5
C55
  8
FRAME_050
 10
474.97500000000002
 20
410.5
 30
0.0
 40
4.0
  1
7
  7
ISO_PROPORTIONAL
 72
     4
 11
476.37499999999989
 21
412.5
 31
0.0
  0
LINE
  5
C56
  8
FRAME_050
 10
579.0
 20
210.0
 30
0.0
 11
589.0
 21
210.0
 31
0.0
  0
TEXT
  5
C57
  8
FRAME_050
 10
584.78609127034736
 20
235.0
 30
0.0
 40
4.0
  1
D
  7
ISO_PROPORTIONAL
 72
     4
 11
586.5
 21
237.0
 31
0.0
  0
LINE
  5
C58
  8
FRAME_050
 10
589.0
 20
260.0
 30
0.0
 11
584.0
 21
260.0
 31
0.0
  0
TEXT
  5
C59
  8
FRAME_050
 10
585.19319805153395
 20
285.0
 30
0.0
 40
4.0
  1
C
  7
ISO_PROPORTIONAL
 72
     4
 11
586.5
 21
287.0
 31
0.0
  0
LINE
  5
C5A
  8
FRAME_050
 10
589.0
 20
310.0
 30
0.0
 11
584.0
 21
310.0
 31
0.0
  0
TEXT
  5
C5B
  8
FRAME_050
 10
584.89999999999998
 20
335.0
 30
0.0
 40
4.0
  1
B
  7
ISO_PROPORTIONAL
 72
     4
 11
586.5
 21
337.0
 31
0.0
  0
TEXT
  5
C5C
  8
FRAME_025
 10
571.08299391850551
 20
405.75
 30
0.0
 40
2.5
  1
Checked
  7
ISO_PROPORTIONAL
 11
571.08299391850551
 21
407.0
 31
0.0
 73
     2
  0
TEXT
  5
C5D
  8
FRAME_025
 10
555.36099797283532
 20
405.75
 30
0.0
 40
2.5
  1
Signature
  7
ISO_PROPORTIONAL
 11
555.36099797283532
 21
407.0
 31
0.0
 73
     2
  0
TEXT
  5
C5E
  8
FRAME_025
 10
537.0
 20
405.75
 30
0.0
 40
2.5
  1
Date
  7
ISO_PROPORTIONAL
 11
537.0
 21
407.0
 31
0.0
 73
     2
  0
LINE
  5
C5F
  8
FRAME_070
 10
570.0
 20
404.0
 30
0.0
 11
570.0
 21
410.0
 31
0.0
  0
LINE
  5
C60
  8
FRAME_070
 10
555.0
 20
404.0
 30
0.0
 11
555.0
 21
410.0
 31
0.0
  0
LINE
  5
C61
  8
FRAME_070
 10
535.0
 20
404.0
 30
0.0
 11
535.0
 21
410.0
 31
0.0
  0
LINE
  5
C62
  8
FRAME_050
 10
512.25
 20
410.0
 30
0.0
 11
512.25
 21
415.0
 31
0.0
  0
TEXT
  5
C63
  8
FRAME_050
 10
546.72499999999991
 20
410.5
 30
0.0
 40
4.0
  1
8
  7
ISO_PROPORTIONAL
 72
     4
 11
548.125
 21
412.5
 31
0.0
  0
LINE
  5
C64
  8
FRAME_050
 10
589.0
 20
360.0
 30
0.0
 11
584.0
 21
360.0
 31
0.0
  0
TEXT
  5
C65
  8
FRAME_050
 10
584.70000000000005
 20
385.0
 30
0.0
 40
4.0
  1
A
  7
ISO_PROPORTIONAL
 72
     4
 11
586.5
 21
387.0
 31
0.0
  0
LINE
  5
C66
  8
FRAME_200
 10
594.0
 20
420.0
 30
0.0
 11
584.0
 21
420.0
 31
0.0
  0
LINE
  5
C67
  8
FRAME_200
 10
594.0
 20
410.0
 30
0.0
 11
594.0
 21
420.0
 31
0.0
  0
ENDBLK
  5
C69
  8
0
  0
BLOCK
  8
0
  2
WOBB001END
 70
     0
 10
0.0
 20
0.0
 30
0.0
  3
WOBB001END
  1

  0
LINE
  5
4D66
  8
0
  6
CONTINUOUS
 10
0.0
 20
0.0
 30
0.0
 11
0.8749999999999998
 21
0.0
 31
0.0
  0
ARC
  5
4D67
  8
0
  6
CONTINUOUS
 10
0.0331648379439287
 20
-0.5087238935900232
 30
0.0
 40
0.8790130605592325
 50
284.06490243660443
 51
312.19222981924361
  0
ARC
  5
4D68
  8
0
  6
CONTINUOUS
 10
0.2841534338796767
 20
-1.510548310625538
 30
0.0
 40
0.1537731892806598
 50
104.0649024366044
 51
179.4721730735024
  0
LINE
  5
4D69
  8
0
  6
CONTINUOUS
 10
0.0
 20
0.0
 30
0.0
 11
-0.0000000000000003
 21
-1.7501564476661919
 31
0.0
  0
ARC
  5
4D6A
  8
0
  6
CONTINUOUS
 10
0.1404622019506122
 20
-1.6303137183546199
 30
0.0
 40
0.1198427293115722
 50
275.0
 51
85.000000000000057
  0
LINE
  5
4D6B
  8
0
  6
CONTINUOUS
 10
-0.0000000000000003
 20
-1.7501564476661919
 30
0.0
 11
0.1456946485130855
 21
-1.7501564476661919
 31
0.0
  0
LINE
  5
4D6C
  8
0
  6
CONTINUOUS
 10
0.1377603739254348
 20
-1.7508506067459131
 30
0.0
 11
0.150907184036669
 21
-1.749700409899652
 31
0.0
  0
LINE
  5
4D6D
  8
0
  6
CONTINUOUS
 10
0.1303867696719884
 20
-1.5091317231818231
 30
0.0
 11
0.1509071840366689
 21
-1.5109270268095869
 31
0.0
  0
LINE
  5
4D6E
  8
0
  6
CONTINUOUS
 10
0.8749999999999998
 20
0.0
 30
0.0
 11
0.8749999999999996
 21
-0.8649327026588228
 31
0.0
  0
LINE
  5
4D6F
  8
0
  6
CONTINUOUS
 10
0.727014513830997
 20
-0.8726882933550612
 30
0.0
 11
0.727014513830997
 21
-0.9264923397184784
 31
0.0
  0
ARC
  5
4D70
  8
0
  6
CONTINUOUS
 10
0.41187090827646
 20
-0.9264923397184784
 30
0.0
 40
0.315143605554537
 50
312.19222981924361
 51
0.0
  0
LINE
  5
4D71
  8
0
  6
CONTINUOUS
 10
0.727014513830997
 20
-0.8726882933550612
 30
0.0
 11
0.8749999999999996
 21
-0.8649327026588228
 31
0.0
  0
ENDBLK
  5
4D72
  8
0
  0
BLOCK
  8
0
  2
A$C0A61123B
 70
     0
 10
0.0
 20
0.0
 30
0.0
  3
A$C0A61123B
  1

  0
LINE
  5
C0AD
  8
PROF
  6
CONTINUOUS
 10
4.9012016798694162
 20
13.325025853350891
 30
0.0000000000000002
 11
4.9012016798694162
 21
12.88585218805485
 31
0.0000000000000003
  0
INSERT
  5
C0AE
  8
0
  2
*U47
 10
0.0
 20
0.0
 30
0.0
  0
LINE
  5
C0AF
  8
PROF
 10
4.5198575031869259
 20
12.72227734589444
 30
0.0000000000000001
 11
4.5198575031869259
 21
12.88585218805485
 31
0.0000000000000001
  0
LINE
  5
C0B0
  8
PROF
  6
CONTINUOUS
 10
3.6306271195888371
 20
13.325025853350891
 30
0.0000000000000002
 11
4.9012016798694162
 21
13.325025853350891
 31
0.0000000000000002
  0
LINE
  5
C0B1
  8
PROF
 10
1.9750295148747341
 20
10.37671325491794
 30
0.0000000000000002
 11
1.9750295148747341
 21
10.11391186758919
 31
0.0000000000000002
  0
LINE
  5
C0B2
  8
PROF
 10
1.607967335755631
 20
10.11391186758919
 30
0.0000000000000001
 11
1.9750295148747341
 21
10.11391186758919
 31
0.0000000000000001
  0
LINE
  5
C0B3
  8
PROF
 10
1.9750295148747341
 20
10.11391186758919
 30
0.0000000000000001
 11
1.944958486898144
 21
10.11391186758919
 31
0.0000000000000001
  0
LINE
  5
C0B4
  8
PROF
 10
1.9750295148747341
 20
10.11391186758919
 30
0.0000000000000001
 11
1.944958486898144
 21
10.11391186758919
 31
0.0000000000000001
  0
LINE
  5
C0B5
  8
PROF
 10
0.3222605517169654
 20
7.5247473351056442
 30
-0.0000000000000002
 11
-0.0000008570117416
 21
7.5247473351056442
 31
0.0
  0
LINE
  5
C0B6
  8
PROF
 10
-0.0000008570117416
 20
7.5247473351056442
 30
0.0
 11
-0.0000008570117416
 21
9.1943336957369866
 31
0.0
  0
POLYLINE
  5
C0B7
  8
PROF
 66
     1
 10
0.0
 20
0.0
 30
0.0000000000000001
 70
     4
 75
     6
  0
VERTEX
  5
C0B8
  8
PROF
 10
1.607967335755631
 20
10.11391186758919
 30
0.0000000000000001
 70
    16
  0
VERTEX
  5
C0B9
  8
PROF
 10
1.607967335755631
 20
10.11391186758919
 30
0.0000000000000001
 70
     8
  0
VERTEX
  5
C0BA
  8
PROF
 10
1.646813232648582
 20
10.02198069336111
 30
0.0000000000000001
 70
     8
  0
VERTEX
  5
C0BB
  8
PROF
 10
1.67335966680929
 20
9.9344134163010267
 30
0.0000000000000001
 70
     8
  0
VERTEX
  5
C0BC
  8
PROF
 10
1.689008640046324
 20
9.8512576644480987
 30
0.0000000000000001
 70
     8
  0
VERTEX
  5
C0BD
  8
PROF
 10
1.695162154168258
 20
9.7725610658417281
 30
0.0000000000000001
 70
     8
  0
VERTEX
  5
C0BE
  8
PROF
 10
1.6932222109836059
 20
9.6983712485214255
 30
0.0000000000000001
 70
     8
  0
VERTEX
  5
C0BF
  8
PROF
 10
1.6845908123009961
 20
9.6287358405263603
 30
0.0000000000000001
 70
     8
  0
VERTEX
  5
C0C0
  8
PROF
 10
1.6706699599288859
 20
9.5637024698960431
 30
0.0000000000000001
 70
     8
  0
VERTEX
  5
C0C1
  8
PROF
 10
1.6528616556759621
 20
9.503318764669757
 30
0.0000000000000001
 70
     8
  0
VERTEX
  5
C0C2
  8
PROF
 10
1.6323562992730549
 20
9.4475843259650674
 30
0.0000000000000001
 70
     8
  0
VERTEX
  5
C0C3
  8
PROF
 10
1.609497882140658
 20
9.3963066472123273
 30
0.0000000000000001
 70
     8
  0
VERTEX
  5
C0C4
  8
PROF
 10
1.584418793621637
 20
9.3492451949202842
 30
0.0000000000000001
 70
     8
  0
VERTEX
  5
C0C5
  8
PROF
 10
1.557251423058744
 20
9.3061594355972375
 30
0.0000000000000001
 70
     8
  0
VERTEX
  5
C0C6
  8
PROF
 10
1.5281281597949601
 20
9.2668088357519292
 30
0.0000000000000001
 70
     8
  0
VERTEX
  5
C0C7
  8
PROF
 10
1.4971813931729789
 20
9.2309528618930017
 30
0.0000000000000001
 70
     8
  0
VERTEX
  5
C0C8
  8
PROF
 10
1.464543512535726
 20
9.1983509805288577
 30
0.0000000000000001
 70
     8
  0
VERTEX
  5
C0C9
  8
PROF
 10
1.4303469072260091
 20
9.1687626581682462
 30
0.0000000000000001
 70
     8
  0
VERTEX
  5
C0CA
  8
PROF
 10
1.3947360332574019
 20
9.1419547918675335
 30
0.0000000000000001
 70
     8
  0
VERTEX
  5
C0CB
  8
PROF
 10
1.3579036133264131
 20
9.1177240008747731
 30
0.0000000000000001
 70
     8
  0
VERTEX
  5
C0CC
  8
PROF
 10
1.3200544368004321
 20
9.0958743349860924
 30
0.0000000000000001
 70
     8
  0
VERTEX
  5
C0CD
  8
PROF
 10
1.281393293046676
 20
9.0762098439975034
 30
0.0000000000000001
 70
     8
  0
VERTEX
  5
C0CE
  8
PROF
 10
1.242124971432417
 20
9.0585345777049042
 30
0.0000000000000001
 70
     8
  0
VERTEX
  5
C0CF
  8
PROF
 10
1.2024542613249869
 20
9.0426525859044204
 30
0.0000000000000001
 70
     8
  0
VERTEX
  5
C0D0
  8
PROF
 10
1.1625859520916599
 20
9.0283679183919503
 30
0.0000000000000001
 70
     8
  0
VERTEX
  5
C0D1
  8
PROF
 10
1.1227248330997091
 20
9.0154846249635057
 30
0.0000000000000001
 70
     8
  0
VERTEX
  5
C0D2
  8
PROF
 10
1.0829726247361
 20
9.0034643862466055
 30
0.0000000000000001
 70
     8
  0
VERTEX
  5
C0D3
  8
PROF
 10
1.043018771466222
 20
8.9903994061946833
 30
0.0000000000000001
 70
     8
  0
VERTEX
  5
C0D4
  8
PROF
 10
1.002449648775211
 20
8.9740395195925657
 30
0.0000000000000001
 70
     8
  0
VERTEX
  5
C0D5
  8
PROF
 10
0.9608516321480919
 20
8.9521345612251935
 30
0.0000000000000001
 70
     8
  0
VERTEX
  5
C0D6
  8
PROF
 10
0.9178110970699435
 20
8.9224343658775052
 30
0.0000000000000001
 70
     8
  0
VERTEX
  5
C0D7
  8
PROF
 10
0.8729144190259034
 20
8.8826887683343312
 30
0.0000000000000001
 70
     8
  0
VERTEX
  5
C0D8
  8
PROF
 10
0.8257479735009951
 20
8.8306476033806121
 30
0.0000000000000001
 70
     8
  0
VERTEX
  5
C0D9
  8
PROF
 10
0.7758981359802988
 20
8.764060705801171
 30
0.0000000000000001
 70
     8
  0
VERTEX
  5
C0DA
  8
PROF
 10
1.729201901609656
 20
9.8629858761255491
 30
0.0000000000000001
 70
    16
  0
VERTEX
  5
C0DB
  8
PROF
 10
1.6793731231140889
 20
9.4532143012734196
 30
0.0000000000000001
 70
    16
  0
VERTEX
  5
C0DC
  8
PROF
 10
1.4455611507419801
 20
9.1391837193732481
 30
0.0000000000000001
 70
    16
  0
VERTEX
  5
C0DD
  8
PROF
 10
1.120463717273821
 20
9.0026267702428413
 30
0.0000000000000001
 70
    16
  0
VERTEX
  5
C0DE
  8
PROF
 10
0.9127765582653638
 20
8.9630202230383702
 30
0.0000000000000001
 70
    16
  0
VERTEX
  5
C0DF
  8
PROF
 10
0.7758981359802988
 20
8.764060705801171
 30
0.0000000000000001
 70
    16
  0
SEQEND
  5
C0E0
  8
PROF
  0
ARC
  5
C0E1
  8
PROF
 10
0.733429816733235
 20
8.4849506952165257
 30
0.0000000000000001
 40
0.2823224329524727
 50
269.73652020831901
 51
81.348449993176914
  0
LINE
  5
C0E2
  8
PROF
  6
CONTINUOUS
 10
-0.0000008570117416
 20
9.1943336957369866
 30
-0.0000000000000001
 11
3.6306271195888371
 21
13.325025853350891
 31
0.0000000000000002
  0
POLYLINE
  5
C0E3
  8
PROF
 66
     1
 10
0.0
 20
0.0
 30
0.0000000000000001
 70
     4
 75
     6
  0
VERTEX
  5
C0E4
  8
PROF
 10
4.5198575031869259
 20
12.72227734589444
 30
0.0000000000000001
 70
    16
  0
VERTEX
  5
C0E5
  8
PROF
 10
4.5198575031869259
 20
12.72227734589444
 30
0.0000000000000001
 70
     8
  0
VERTEX
  5
C0E6
  8
PROF
 10
4.4467035366886298
 20
12.741128108778071
 30
0.0000000000000001
 70
     8
  0
VERTEX
  5
C0E7
  8
PROF
 10
4.3786645761268801
 20
12.754675269913941
 30
0.0000000000000001
 70
     8
  0
VERTEX
  5
C0E8
  8
PROF
 10
4.3154364111440477
 20
12.76334314092332
 30
0.0000000000000001
 70
     8
  0
VERTEX
  5
C0E9
  8
PROF
 10
4.256714831382566
 20
12.76755603342724
 30
0.0000000000000001
 70
     8
  0
VERTEX
  5
C0EA
  8
PROF
 10
4.2021956264849791
 20
12.76773825904672
 30
0.0000000000000001
 70
     8
  0
VERTEX
  5
C0EB
  8
PROF
 10
4.1515745860935453
 20
12.764314129403139
 30
0.0000000000000001
 70
     8
  0
VERTEX
  5
C0EC
  8
PROF
 10
4.1045474998508658
 20
12.75770795611743
 30
0.0000000000000001
 70
     8
  0
VERTEX
  5
C0ED
  8
PROF
 10
4.0608101573993158
 20
12.748344050810831
 30
0.0000000000000001
 70
     8
  0
VERTEX
  5
C0EE
  8
PROF
 10
4.0200583483813261
 20
12.736646725104491
 30
0.0000000000000001
 70
     8
  0
VERTEX
  5
C0EF
  8
PROF
 10
3.9819878624393819
 20
12.72304029061945
 30
0.0000000000000001
 70
     8
  0
VERTEX
  5
C0F0
  8
PROF
 10
3.946294489215858
 20
12.707949058976959
 30
0.0000000000000001
 70
     8
  0
VERTEX
  5
C0F1
  8
PROF
 10
3.9126740183532429
 20
12.691797341798059
 30
0.0000000000000001
 70
     8
  0
VERTEX
  5
C0F2
  8
PROF
 10
3.8808638350742508
 20
12.67494295718654
 30
0.0000000000000001
 70
     8
  0
VERTEX
  5
C0F3
  8
PROF
 10
3.850767706922738
 20
12.65747774917668
 30
0.0000000000000001
 70
     8
  0
VERTEX
  5
C0F4
  8
PROF
 10
3.8223309970228452
 20
12.639427068285499
 30
0.0000000000000001
 70
     8
  0
VERTEX
  5
C0F5
  8
PROF
 10
3.7954990684987129
 20
12.62081626503004
 30
0.0000000000000001
 70
     8
  0
VERTEX
  5
C0F6
  8
PROF
 10
3.7702172844744828
 20
12.601670689926999
 30
0.0000000000000001
 70
     8
  0
VERTEX
  5
C0F7
  8
PROF
 10
3.746431008074353
 20
12.58201569349364
 30
0.0000000000000001
 70
     8
  0
VERTEX
  5
C0F8
  8
PROF
 10
3.7240856024224618
 20
12.56187662624666
 30
0.0000000000000001
 70
     8
  0
VERTEX
  5
C0F9
  8
PROF
 10
3.7031264306428961
 20
12.541278838703191
 30
0.0000000000000001
 70
     8
  0
VERTEX
  5
C0FA
  8
PROF
 10
3.6834988558599089
 20
12.520247681380051
 30
0.0000000000000001
 70
     8
  0
VERTEX
  5
C0FB
  8
PROF
 10
3.665148241197528
 20
12.49880850479428
 30
0.0000000000000001
 70
     8
  0
VERTEX
  5
C0FC
  8
PROF
 10
3.6480199497799499
 20
12.47698665946279
 30
0.0000000000000001
 70
     8
  0
VERTEX
  5
C0FD
  8
PROF
 10
3.6320593447313172
 20
12.45480749590263
 30
0.0000000000000001
 70
     8
  0
VERTEX
  5
C0FE
  8
PROF
 10
3.6171895848866589
 20
12.43223790353807
 30
0.0000000000000001
 70
     8
  0
VERTEX
  5
C0FF
  8
PROF
 10
3.6032450119242858
 20
12.40901092742285
 30
0.0000000000000001
 70
     8
  0
VERTEX
  5
C100
  8
PROF
 10
3.590037763233453
 20
12.38480115151844
 30
0.0000000000000001
 70
     8
  0
VERTEX
  5
C101
  8
PROF
 10
3.5773799762033032
 20
12.35928315978594
 30
0.0000000000000001
 70
     8
  0
VERTEX
  5
C102
  8
PROF
 10
3.5650837882230908
 20
12.33213153618658
 30
0.0000000000000001
 70
     8
  0
VERTEX
  5
C103
  8
PROF
 10
3.5529613366819599
 20
12.303020864681571
 30
0.0000000000000001
 70
     8
  0
VERTEX
  5
C104
  8
PROF
 10
3.540824758969165
 20
12.271625729232371
 30
0.0000000000000001
 70
     8
  0
VERTEX
  5
C105
  8
PROF
 10
3.5284861924738489
 20
12.23762071379997
 30
0.0000000000000001
 70
     8
  0
VERTEX
  5
C106
  8
PROF
 10
3.5157577745852668
 20
12.200680402345711
 30
0.0000000000000001
 70
     8
  0
VERTEX
  5
C107
  8
PROF
 10
3.5024516426926189
 20
12.16047937883093
 30
0.0000000000000001
 70
     8
  0
VERTEX
  5
C108
  8
PROF
 10
3.4883799341851041
 20
12.116692227216619
 30
0.0000000000000001
 70
     8
  0
VERTEX
  5
C109
  8
PROF
 10
3.4733547864519201
 20
12.06899353146423
 30
0.0000000000000001
 70
     8
  0
VERTEX
  5
C10A
  8
PROF
 10
3.45723654619428
 20
12.0172095445447
 30
0.0000000000000001
 70
     8
  0
VERTEX
  5
C10B
  8
PROF
 10
3.4400783973613889
 20
11.961773195467799
 30
0.0000000000000001
 70
     8
  0
VERTEX
  5
C10C
  8
PROF
 10
3.421981733214579
 20
11.90326908225302
 30
0.0000000000000001
 70
     8
  0
VERTEX
  5
C10D
  8
PROF
 10
3.4030479470150108
 20
11.842281802919951
 30
0.0000000000000001
 70
     8
  0
VERTEX
  5
C10E
  8
PROF
 10
3.383378432024017
 20
11.779395955487979
 30
0.0000000000000001
 70
     8
  0
VERTEX
  5
C10F
  8
PROF
 10
3.3630745815028709
 20
11.715196137976809
 30
0.0000000000000001
 70
     8
  0
VERTEX
  5
C110
  8
PROF
 10
3.3422377887127359
 20
11.650266948405831
 30
0.0000000000000001
 70
     8
  0
VERTEX
  5
C111
  8
PROF
 10
3.320969446915
 20
11.58519298479461
 30
0.0000000000000001
 70
     8
  0
VERTEX
  5
C112
  8
PROF
 10
3.2993709493707679
 20
11.520558845162549
 30
0.0000000000000001
 70
     8
  0
VERTEX
  5
C113
  8
PROF
 10
3.277543689341428
 20
11.456949127529469
 30
0.0000000000000001
 70
     8
  0
VERTEX
  5
C114
  8
PROF
 10
3.2555890600881412
 20
11.3949484299145
 30
0.0000000000000001
 70
     8
  0
VERTEX
  5
C115
  8
PROF
 10
3.233608454872182
 20
11.335141350337491
 30
0.0000000000000001
 70
     8
  0
VERTEX
  5
C116
  8
PROF
 10
3.2116715641212181
 20
11.27799544797778
 30
0.0000000000000001
 70
     8
  0
VERTEX
  5
C117
  8
PROF
 10
3.189721266927847
 20
11.22351012665467
 30
0.0000000000000001
 70
     8
  0
VERTEX
  5
C118
  8
PROF
 10
3.1676687395512881
 20
11.17156775134765
 30
0.0000000000000001
 70
     8
  0
VERTEX
  5
C119
  8
PROF
 10
3.1454251582505321
 20
11.12205068703588
 30
0.0000000000000001
 70
     8
  0
VERTEX
  5
C11A
  8
PROF
 10
3.122901699284625
 20
11.07484129869874
 30
0.0000000000000001
 70
     8
  0
VERTEX
  5
C11B
  8
PROF
 10
3.1000095389127291
 20
11.02982195131551
 30
0.0000000000000001
 70
     8
  0
VERTEX
  5
C11C
  8
PROF
 10
3.0766598533938909
 20
10.986875009865679
 30
0.0000000000000001
 70
     8
  0
VERTEX
  5
C11D
  8
PROF
 10
3.0527638189871591
 20
10.9458828393283
 30
0.0000000000000001
 70
     8
  0
VERTEX
  5
C11E
  8
PROF
 10
3.0282326119516361
 20
10.90672780468298
 30
0.0000000000000001
 70
     8
  0
VERTEX
  5
C11F
  8
PROF
 10
3.002977408546371
 20
10.869292270908771
 30
0.0000000000000001
 70
     8
  0
VERTEX
  5
C120
  8
PROF
 10
2.9769093850304098
 20
10.833458602985161
 30
0.0000000000000001
 70
     8
  0
VERTEX
  5
C121
  8
PROF
 10
2.9499397176628568
 20
10.799109165891419
 30
0.0000000000000001
 70
     8
  0
VERTEX
  5
C122
  8
PROF
 10
2.9220006098404379
 20
10.76614363969508
 30
0.0000000000000001
 70
     8
  0
VERTEX
  5
C123
  8
PROF
 10
2.8931083735103011
 20
10.7345309648158
 30
0.0000000000000001
 70
     8
  0
VERTEX
  5
C124
  8
PROF
 10
2.8633003477572738
 20
10.70425739676193
 30
0.0000000000000001
 70
     8
  0
VERTEX
  5
C125
  8
PROF
 10
2.8326138716660689
 20
10.67530919104115
 30
0.0000000000000001
 70
     8
  0
VERTEX
  5
C126
  8
PROF
 10
2.8010862843216269
 20
10.647672603161711
 30
0.0000000000000001
 70
     8
  0
VERTEX
  5
C127
  8
PROF
 10
2.7687549248087171
 20
10.62133388863162
 30
0.0000000000000001
 70
     8
  0
VERTEX
  5
C128
  8
PROF
 10
2.735657132212054
 20
10.5962793029588
 30
0.0000000000000001
 70
     8
  0
VERTEX
  5
C129
  8
PROF
 10
2.7018302456165202
 20
10.572495101651381
 30
0.0000000000000001
 70
     8
  0
VERTEX
  5
C12A
  8
PROF
 10
2.6673116041068852
 20
10.54996754021726
 30
0.0000000000000001
 70
     8
  0
VERTEX
  5
C12B
  8
PROF
 10
2.6321385467680321
 20
10.528682874164581
 30
0.0000000000000001
 70
     8
  0
VERTEX
  5
C12C
  8
PROF
 10
2.5963484126846188
 20
10.508627359001251
 30
0.0000000000000001
 70
     8
  0
VERTEX
  5
C12D
  8
PROF
 10
2.5599785409415849
 20
10.489787250235279
 30
0.0000000000000001
 70
     8
  0
VERTEX
  5
C12E
  8
PROF
 10
2.522998630314361
 20
10.472162234281081
 30
0.0000000000000001
 70
     8
  0
VERTEX
  5
C12F
  8
PROF
 10
2.4851078183409072
 20
10.455805721177621
 30
0.0000000000000001
 70
     8
  0
VERTEX
  5
C130
  8
PROF
 10
2.4459376022498982
 20
10.44078455187036
 30
0.0000000000000001
 70
     8
  0
VERTEX
  5
C131
  8
PROF
 10
2.4051194792701258
 20
10.42716556730465
 30
0.0000000000000001
 70
     8
  0
VERTEX
  5
C132
  8
PROF
 10
2.3622849466301541
 20
10.415015608425851
 30
0.0000000000000001
 70
     8
  0
VERTEX
  5
C133
  8
PROF
 10
2.3170655015587149
 20
10.40440151617929
 30
0.0000000000000001
 70
     8
  0
VERTEX
  5
C134
  8
PROF
 10
2.2690926412844301
 20
10.395390131510339
 30
0.0000000000000001
 70
     8
  0
VERTEX
  5
C135
  8
PROF
 10
2.2179978630360888
 20
10.388048295364451
 30
0.0000000000000001
 70
     8
  0
VERTEX
  5
C136
  8
PROF
 10
2.1634126640422551
 20
10.38244284868688
 30
0.0000000000000001
 70
     8
  0
VERTEX
  5
C137
  8
PROF
 10
2.104968541531604
 20
10.37864063242295
 30
0.0000000000000001
 70
     8
  0
VERTEX
  5
C138
  8
PROF
 10
2.0422969927328718
 20
10.37670848751816
 30
0.0000000000000001
 70
     8
  0
VERTEX
  5
C139
  8
PROF
 10
1.9750295148747341
 20
10.37671325491794
 30
0.0000000000000001
 70
     8
  0
VERTEX
  5
C13A
  8
PROF
 10
4.2166060115107484
 20
12.80885334975255
 30
0.0000000000000001
 70
    16
  0
VERTEX
  5
C13B
  8
PROF
 10
3.8702254102732918
 20
12.707065515763929
 30
0.0000000000000001
 70
    16
  0
VERTEX
  5
C13C
  8
PROF
 10
3.605346156896871
 20
12.46277472098552
 30
0.0000000000000001
 70
    16
  0
VERTEX
  5
C13D
  8
PROF
 10
3.500746030527238
 20
12.170680575709749
 30
0.0000000000000001
 70
    16
  0
VERTEX
  5
C13E
  8
PROF
 10
3.231798439705698
 20
11.26846416496107
 30
0.0000000000000001
 70
    16
  0
VERTEX
  5
C13F
  8
PROF
 10
2.9737109398832891
 20
10.76631086647069
 30
0.0000000000000001
 70
    16
  0
VERTEX
  5
C140
  8
PROF
 10
2.5729961067384011
 20
10.460947364504699
 30
0.0000000000000001
 70
    16
  0
VERTEX
  5
C141
  8
PROF
 10
2.253782621454604
 20
10.372731239449759
 30
0.0000000000000001
 70
    16
  0
VERTEX
  5
C142
  8
PROF
 10
1.9750295148747341
 20
10.37671325491794
 30
0.0000000000000001
 70
    16
  0
SEQEND
  5
C143
  8
PROF
  0
LINE
  5
C144
  8
PROF
 10
4.9012016798694162
 20
12.88585218805485
 30
0.0000000000000003
 11
4.5198575031869259
 21
12.88585218805485
 31
0.0000000000000003
  0
LINE
  5
C145
  8
PROF
 10
0.7321315362267457
 20
8.2026312473991538
 30
0.0000000000000006
 11
0.7321315362267457
 21
8.0511853963434987
 31
0.0000000000000006
  0
ARC
  5
C146
  8
PROF
 10
0.7977322214551919
 20
7.5773339332026799
 30
0.0000000000000006
 40
0.4783708383912012
 50
97.882010168942529
 51
186.31119505698649
  0
LINE
  5
C147
  8
FRAME_050
 10
7.8016377197432121
 20
17.99371054969447
 30
0.0
 11
7.8016377197432121
 21
0.0000000000002274
 31
0.0
  0
ENDBLK
  5
C149
  8
0
  0
BLOCK
  8
0
  2
A$C3A7C6791
 70
     0
 10
0.0
 20
0.0
 30
0.0
  3
A$C3A7C6791
  1

  0
ARC
  5
1A561
  8
0
 10
1.0342682520551421
 20
11.169869575314801
 30
0.0
 40
0.3900479059662017
 50
183.5871702804647
 51
250.12003892297869
  0
ARC
  5
1A562
  8
0
 10
0.3331235273064408
 20
14.96835148878222
 30
0.0
 40
0.279776987736341
 50
290.26301102890392
 51
72.509116341854423
  0
ARC
  5
1A563
  8
0
 10
0.7948887850711232
 20
10.60700392177659
 30
0.0
 40
0.2232361910347119
 50
300.2914142988875
 51
61.434469032044603
  0
LINE
  5
1A564
  8
0
 10
-0.0000015027120526
 20
9.7351929270671462
 30
0.0
 11
1.0332573394856579
 21
9.7351929270671462
 31
0.0
  0
LINE
  5
1A565
  8
0
 10
1.0332573394856579
 20
10.377304601683591
 30
0.0
 11
0.9074887268004658
 21
10.377304601683591
 31
0.0
  0
LINE
  5
1A566
  8
0
 10
0.6449845421777241
 20
11.145465432783791
 30
0.0
 11
0.5554296092705046
 21
11.181249222917581
 31
0.0
  0
LINE
  5
1A567
  8
0
 10
0.5554296092705046
 20
14.67010534946894
 30
0.0
 11
0.430018718777319
 21
14.67010534946894
 31
0.0
  0
LINE
  5
1A568
  8
0
 10
0.4172116339615855
 20
15.235192927067139
 30
0.0
 11
-0.0000015027120526
 21
15.235192927067139
 31
0.0
  0
LINE
  5
1A569
  8
0
 10
-0.0000015027120526
 20
15.235192927067139
 30
0.0
 11
-0.0000015027120526
 21
9.7351929270671462
 31
0.0
  0
LINE
  5
1A56A
  8
0
 10
1.0332573394856579
 20
9.7351929270671462
 30
0.0
 11
1.0332573394856579
 21
10.377304601683591
 31
0.0
  0
LINE
  5
1A56B
  8
0
 10
0.9074887268004658
 20
10.377304601683591
 30
0.0
 11
0.9074887268003521
 21
10.414245912577821
 31
0.0
  0
LINE
  5
1A56C
  8
0
 10
0.5554296092705046
 20
11.181249222917581
 30
0.0
 11
0.5554296092705046
 21
14.67010534946894
 31
0.0
  0
LINE
  5
1A56D
  8
0
 10
0.430018718777319
 20
14.67010534946894
 30
0.0
 11
0.4300187187771485
 21
14.705889139602959
 31
0.0
  0
INSERT
  5
1A56E
  8
0
  2
*U48
 10
0.0
 20
0.0
 30
0.0
  0
LINE
  5
1A56F
  8
FRAME_050
 10
5.1382720395286006
 20
17.993710579095019
 30
0.0
 11
5.1382720395286006
 21
0.0000000294007805
 31
0.0
  0
ENDBLK
  5
1A571
  8
0
  0
BLOCK
  8
0
  2
A$C212248C0
 70
     0
 10
0.0
 20
0.0
 30
0.0
  3
A$C212248C0
  1

  0
LINE
  5
2846E
  8
0
 10
-0.0000002092490945
 20
10.41741894345523
 30
0.0
 11
-0.000000218823061
 21
12.91741894345523
 31
0.0
  0
LINE
  5
2846F
  8
0
 10
0.8061752779508424
 20
10.41741894654251
 30
0.0
 11
0.80617527442746
 21
11.337459194522349
 31
0.0
  0
LINE
  5
28470
  8
0
 10
-0.0000002092490945
 20
10.41741894345523
 30
0.0
 11
0.8061752779508424
 21
10.41741894654251
 31
0.0
  0
LINE
  5
28471
  8
0
 10
-0.000000218823061
 20
12.91741894345523
 30
0.0
 11
0.1835338022692099
 21
12.91741894415804
 31
0.0
  0
LINE
  5
28472
  8
0
 10
0.5432593756756888
 20
11.33745919351543
 30
0.0
 11
0.8061752744275167
 21
11.337459194522349
 31
0.0
  0
LINE
  5
28473
  8
0
 10
0.5432593756756888
 20
11.33745919351543
 30
0.0
 11
0.54325937522907
 21
11.454074799268589
 31
0.0
  0
ARC
  5
28474
  8
0
 10
0.5406585726453841
 20
11.69407225899795
 30
0.0
 40
0.2400115514942006
 50
270.62087814899439
 51
10.065567101317541
  0
ARC
  5
28475
  8
0
 10
0.3766221072655185
 20
12.57830290724473
 30
0.0
 40
0.1204493443528103
 50
92.075522465847911
 51
186.90606997904499
  0
ARC
  5
28476
  8
0
 10
0.3522648873053527
 20
11.66572609276443
 30
0.0
 40
0.4304889887359197
 50
9.3978639632316945
 51
32.979139282634932
  0
ARC
  5
28477
  8
0
 10
-3.1652042745943159
 20
9.0577862235478506
 30
0.0
 40
4.8085319198703189
 50
36.234313076985558
 51
42.402692063571678
  0
LINE
  5
28478
  8
0
 10
0.1835338022692099
 20
12.91741894415804
 30
0.0
 11
0.3722598200128004
 21
12.698673231681139
 31
0.0
  0
ARC
  5
28479
  8
0
 10
0.9319226152692294
 20
12.72987725098619
 30
0.0
 40
0.6950054723870779
 50
193.8233761419454
 51
218.1708864341492
  0
LINE
  5
2847A
  8
0
 10
-0.0000002092490945
 20
10.41741894345523
 30
0.0
 11
-0.0000002092490945
 21
12.91741894345523
 31
0.0
  0
INSERT
  5
2847B
  8
0
  2
*U49
 10
0.0
 20
0.0
 30
0.0
  0
LINE
  5
2847C
  8
FRAME_050
 10
6.2588202718825414
 20
17.993710579095019
 30
0.0
 11
6.2588202718825414
 21
0.0000000294007805
 31
0.0
  0
ENDBLK
  5
2847E
  8
0
  0
BLOCK
  8
0
  2
A$C52DE5D80
 70
     0
 10
0.0
 20
0.0
 30
0.0
  3
A$C52DE5D80
  1

  0
INSERT
  5
2B89A
  8
0
  2
*U50
 10
0.0
 20
0.0
 30
0.0
  0
LINE
  5
2B89B
  8
0
 10
0.0000014767382481
 20
7.878552666495465
 30
0.0
 11
1.5240062297528421
 21
7.8785526664953522
 31
0.0
  0
LINE
  5
2B89C
  8
0
 10
1.5240062297528421
 20
8.3261365866769665
 30
0.0
 11
1.5240062297528421
 21
7.8785526664953522
 31
0.0
  0
LINE
  5
2B89D
  8
0
 10
1.394539806559862
 20
8.3261365866769665
 30
0.0
 11
1.5240062297528421
 21
8.3261365866769665
 31
0.0
  0
LINE
  5
2B89E
  8
0
 10
0.7472076905950758
 20
9.2582948336663549
 30
0.0
 11
0.8951693171012493
 21
9.2582948336665822
 31
0.0
  0
POLYLINE
  8
0
  5
31EC0
  62
7
  66
     1
 10
0.000000
 20
0.000000
 30
0.000000
  70
     8
  0
VERTEX
  8
0
  5
31EC1
 10
1.39454
 20
8.32614
 30
0.000000
  70
    32
  0
VERTEX
  8
0
  5
31EC2
 10
1.39468
 20
8.33131
 30
0.000000
  70
    32
  0
VERTEX
  8
0
  5
31EC3
 10
1.39482
 20
8.33649
 30
0.000000
  70
    32
  0
VERTEX
  8
0
  5
31EC4
 10
1.39495
 20
8.34167
 30
0.000000
  70
    32
  0
VERTEX
  8
0
  5
31EC5
 10
1.39508
 20
8.34684
 30
0.000000
  70
    32
  0
VERTEX
  8
0
  5
31EC6
 10
1.39521
 20
8.35201
 30
0.000000
  70
    32
  0
VERTEX
  8
0
  5
31EC7
 10
1.39532
 20
8.35718
 30
0.000000
  70
    32
  0
VERTEX
  8
0
  5
31EC8
 10
1.39542
 20
8.36234
 30
0.000000
  70
    32
  0
VERTEX
  8
0
  5
31EC9
 10
1.39552
 20
8.36749
 30
0.000000
  70
    32
  0
VERTEX
  8
0
  5
31ECA
 10
1.39559
 20
8.37264
 30
0.000000
  70
    32
  0
VERTEX
  8
0
  5
31ECB
 10
1.39566
 20
8.37779
 30
0.000000
  70
    32
  0
VERTEX
  8
0
  5
31ECC
 10
1.39570
 20
8.38292
 30
0.000000
  70
    32
  0
VERTEX
  8
0
  5
31ECD
 10
1.39573
 20
8.38805
 30
0.000000
  70
    32
  0
VERTEX
  8
0
  5
31ECE
 10
1.39574
 20
8.39316
 30
0.000000
  70
    32
  0
VERTEX
  8
0
  5
31ECF
 10
1.39572
 20
8.39827
 30
0.000000
  70
    32
  0
VERTEX
  8
0
  5
31ED0
 10
1.39569
 20
8.40337
 30
0.000000
  70
    32
  0
VERTEX
  8
0
  5
31ED1
 10
1.39562
 20
8.40845
 30
0.000000
  70
    32
  0
VERTEX
  8
0
  5
31ED2
 10
1.39553
 20
8.41352
 30
0.000000
  70
    32
  0
VERTEX
  8
0
  5
31ED3
 10
1.39541
 20
8.41858
 30
0.000000
  70
    32
  0
VERTEX
  8
0
  5
31ED4
 10
1.39526
 20
8.42363
 30
0.000000
  70
    32
  0
VERTEX
  8
0
  5
31ED5
 10
1.39507
 20
8.42866
 30
0.000000
  70
    32
  0
VERTEX
  8
0
  5
31ED6
 10
1.39486
 20
8.43367
 30
0.000000
  70
    32
  0
VERTEX
  8
0
  5
31ED7
 10
1.39460
 20
8.43867
 30
0.000000
  70
    32
  0
VERTEX
  8
0
  5
31ED8
 10
1.39431
 20
8.44365
 30
0.000000
  70
    32
  0
VERTEX
  8
0
  5
31ED9
 10
1.39398
 20
8.44862
 30
0.000000
  70
    32
  0
VERTEX
  8
0
  5
31EDA
 10
1.39361
 20
8.45356
 30
0.000000
  70
    32
  0
VERTEX
  8
0
  5
31EDB
 10
1.39320
 20
8.45849
 30
0.000000
  70
    32
  0
VERTEX
  8
0
  5
31EDC
 10
1.39274
 20
8.46339
 30
0.000000
  70
    32
  0
VERTEX
  8
0
  5
31EDD
 10
1.39224
 20
8.46828
 30
0.000000
  70
    32
  0
VERTEX
  8
0
  5
31EDE
 10
1.39168
 20
8.47314
 30
0.000000
  70
    32
  0
VERTEX
  8
0
  5
31EDF
 10
1.39108
 20
8.47798
 30
0.000000
  70
    32
  0
VERTEX
  8
0
  5
31EE0
 10
1.39043
 20
8.48280
 30
0.000000
  70
    32
  0
VERTEX
  8
0
  5
31EE1
 10
1.38973
 20
8.48759
 30
0.000000
  70
    32
  0
VERTEX
  8
0
  5
31EE2
 10
1.38897
 20
8.49236
 30
0.000000
  70
    32
  0
VERTEX
  8
0
  5
31EE3
 10
1.38815
 20
8.49711
 30
0.000000
  70
    32
  0
VERTEX
  8
0
  5
31EE4
 10
1.38728
 20
8.50182
 30
0.000000
  70
    32
  0
VERTEX
  8
0
  5
31EE5
 10
1.38635
 20
8.50651
 30
0.000000
  70
    32
  0
VERTEX
  8
0
  5
31EE6
 10
1.38535
 20
8.51117
 30
0.000000
  70
    32
  0
VERTEX
  8
0
  5
31EE7
 10
1.38429
 20
8.51581
 30
0.000000
  70
    32
  0
VERTEX
  8
0
  5
31EE8
 10
1.38317
 20
8.52041
 30
0.000000
  70
    32
  0
VERTEX
  8
0
  5
31EE9
 10
1.38198
 20
8.52498
 30
0.000000
  70
    32
  0
VERTEX
  8
0
  5
31EEA
 10
1.38073
 20
8.52953
 30
0.000000
  70
    32
  0
VERTEX
  8
0
  5
31EEB
 10
1.37940
 20
8.53404
 30
0.000000
  70
    32
  0
VERTEX
  8
0
  5
31EEC
 10
1.37800
 20
8.53851
 30
0.000000
  70
    32
  0
VERTEX
  8
0
  5
31EED
 10
1.37653
 20
8.54296
 30
0.000000
  70
    32
  0
VERTEX
  8
0
  5
31EEE
 10
1.37499
 20
8.54737
 30
0.000000
  70
    32
  0
VERTEX
  8
0
  5
31EEF
 10
1.37337
 20
8.55175
 30
0.000000
  70
    32
  0
VERTEX
  8
0
  5
31EF0
 10
1.37167
 20
8.55609
 30
0.000000
  70
    32
  0
VERTEX
  8
0
  5
31EF1
 10
1.36991
 20
8.56040
 30
0.000000
  70
    32
  0
VERTEX
  8
0
  5
31EF2
 10
1.36807
 20
8.56468
 30
0.000000
  70
    32
  0
VERTEX
  8
0
  5
31EF3
 10
1.36616
 20
8.56893
 30
0.000000
  70
    32
  0
VERTEX
  8
0
  5
31EF4
 10
1.36418
 20
8.57314
 30
0.000000
  70
    32
  0
VERTEX
  8
0
  5
31EF5
 10
1.36214
 20
8.57733
 30
0.000000
  70
    32
  0
VERTEX
  8
0
  5
31EF6
 10
1.36003
 20
8.58148
 30
0.000000
  70
    32
  0
VERTEX
  8
0
  5
31EF7
 10
1.35785
 20
8.58560
 30
0.000000
  70
    32
  0
VERTEX
  8
0
  5
31EF8
 10
1.35561
 20
8.58970
 30
0.000000
  70
    32
  0
VERTEX
  8
0
  5
31EF9
 10
1.35330
 20
8.59377
 30
0.000000
  70
    32
  0
VERTEX
  8
0
  5
31EFA
 10
1.35093
 20
8.59781
 30
0.000000
  70
    32
  0
VERTEX
  8
0
  5
31EFB
 10
1.34851
 20
8.60182
 30
0.000000
  70
    32
  0
VERTEX
  8
0
  5
31EFC
 10
1.34602
 20
8.60581
 30
0.000000
  70
    32
  0
VERTEX
  8
0
  5
31EFD
 10
1.34347
 20
8.60976
 30
0.000000
  70
    32
  0
VERTEX
  8
0
  5
31EFE
 10
1.34086
 20
8.61370
 30
0.000000
  70
    32
  0
VERTEX
  8
0
  5
31EFF
 10
1.33820
 20
8.61761
 30
0.000000
  70
    32
  0
VERTEX
  8
0
  5
31F00
 10
1.33549
 20
8.62149
 30
0.000000
  70
    32
  0
VERTEX
  8
0
  5
31F01
 10
1.33271
 20
8.62535
 30
0.000000
  70
    32
  0
VERTEX
  8
0
  5
31F02
 10
1.32989
 20
8.62919
 30
0.000000
  70
    32
  0
VERTEX
  8
0
  5
31F03
 10
1.32701
 20
8.63300
 30
0.000000
  70
    32
  0
VERTEX
  8
0
  5
31F04
 10
1.32408
 20
8.63679
 30
0.000000
  70
    32
  0
VERTEX
  8
0
  5
31F05
 10
1.32111
 20
8.64056
 30
0.000000
  70
    32
  0
VERTEX
  8
0
  5
31F06
 10
1.31808
 20
8.64431
 30
0.000000
  70
    32
  0
VERTEX
  8
0
  5
31F07
 10
1.31501
 20
8.64803
 30
0.000000
  70
    32
  0
VERTEX
  8
0
  5
31F08
 10
1.31189
 20
8.65174
 30
0.000000
  70
    32
  0
VERTEX
  8
0
  5
31F09
 10
1.30872
 20
8.65543
 30
0.000000
  70
    32
  0
VERTEX
  8
0
  5
31F0A
 10
1.30551
 20
8.65910
 30
0.000000
  70
    32
  0
VERTEX
  8
0
  5
31F0B
 10
1.30226
 20
8.66275
 30
0.000000
  70
    32
  0
VERTEX
  8
0
  5
31F0C
 10
1.29896
 20
8.66638
 30
0.000000
  70
    32
  0
VERTEX
  8
0
  5
31F0D
 10
1.29563
 20
8.66999
 30
0.000000
  70
    32
  0
VERTEX
  8
0
  5
31F0E
 10
1.29225
 20
8.67359
 30
0.000000
  70
    32
  0
VERTEX
  8
0
  5
31F0F
 10
1.28884
 20
8.67717
 30
0.000000
  70
    32
  0
VERTEX
  8
0
  5
31F10
 10
1.28539
 20
8.68074
 30
0.000000
  70
    32
  0
VERTEX
  8
0
  5
31F11
 10
1.28190
 20
8.68429
 30
0.000000
  70
    32
  0
VERTEX
  8
0
  5
31F12
 10
1.27838
 20
8.68782
 30
0.000000
  70
    32
  0
VERTEX
  8
0
  5
31F13
 10
1.27482
 20
8.69134
 30
0.000000
  70
    32
  0
VERTEX
  8
0
  5
31F14
 10
1.27123
 20
8.69485
 30
0.000000
  70
    32
  0
VERTEX
  8
0
  5
31F15
 10
1.26761
 20
8.69835
 30
0.000000
  70
    32
  0
VERTEX
  8
0
  5
31F16
 10
1.26396
 20
8.70183
 30
0.000000
  70
    32
  0
VERTEX
  8
0
  5
31F17
 10
1.26028
 20
8.70530
 30
0.000000
  70
    32
  0
VERTEX
  8
0
  5
31F18
 10
1.25657
 20
8.70876
 30
0.000000
  70
    32
  0
VERTEX
  8
0
  5
31F19
 10
1.25283
 20
8.71220
 30
0.000000
  70
    32
  0
VERTEX
  8
0
  5
31F1A
 10
1.24907
 20
8.71564
 30
0.000000
  70
    32
  0
VERTEX
  8
0
  5
31F1B
 10
1.24528
 20
8.71907
 30
0.000000
  70
    32
  0
VERTEX
  8
0
  5
31F1C
 10
1.24147
 20
8.72249
 30
0.000000
  70
    32
  0
VERTEX
  8
0
  5
31F1D
 10
1.23764
 20
8.72590
 30
0.000000
  70
    32
  0
VERTEX
  8
0
  5
31F1E
 10
1.23379
 20
8.72930
 30
0.000000
  70
    32
  0
VERTEX
  8
0
  5
31F1F
 10
1.22991
 20
8.73270
 30
0.000000
  70
    32
  0
VERTEX
  8
0
  5
31F20
 10
1.22601
 20
8.73609
 30
0.000000
  70
    32
  0
VERTEX
  8
0
  5
31F21
 10
1.22210
 20
8.73947
 30
0.000000
  70
    32
  0
VERTEX
  8
0
  5
31F22
 10
1.21817
 20
8.74284
 30
0.000000
  70
    32
  0
VERTEX
  8
0
  5
31F23
 10
1.21423
 20
8.74621
 30
0.000000
  70
    32
  0
VERTEX
  8
0
  5
31F24
 10
1.21027
 20
8.74958
 30
0.000000
  70
    32
  0
VERTEX
  8
0
  5
31F25
 10
1.20629
 20
8.75294
 30
0.000000
  70
    32
  0
VERTEX
  8
0
  5
31F26
 10
1.20230
 20
8.75630
 30
0.000000
  70
    32
  0
VERTEX
  8
0
  5
31F27
 10
1.19831
 20
8.75965
 30
0.000000
  70
    32
  0
VERTEX
  8
0
  5
31F28
 10
1.19430
 20
8.76300
 30
0.000000
  70
    32
  0
VERTEX
  8
0
  5
31F29
 10
1.19028
 20
8.76636
 30
0.000000
  70
    32
  0
VERTEX
  8
0
  5
31F2A
 10
1.18626
 20
8.76970
 30
0.000000
  70
    32
  0
VERTEX
  8
0
  5
31F2B
 10
1.18222
 20
8.77305
 30
0.000000
  70
    32
  0
VERTEX
  8
0
  5
31F2C
 10
1.17819
 20
8.77640
 30
0.000000
  70
    32
  0
VERTEX
  8
0
  5
31F2D
 10
1.17414
 20
8.77975
 30
0.000000
  70
    32
  0
VERTEX
  8
0
  5
31F2E
 10
1.17010
 20
8.78310
 30
0.000000
  70
    32
  0
VERTEX
  8
0
  5
31F2F
 10
1.16605
 20
8.78645
 30
0.000000
  70
    32
  0
VERTEX
  8
0
  5
31F30
 10
1.16200
 20
8.78980
 30
0.000000
  70
    32
  0
VERTEX
  8
0
  5
31F31
 10
1.15795
 20
8.79315
 30
0.000000
  70
    32
  0
VERTEX
  8
0
  5
31F32
 10
1.15390
 20
8.79651
 30
0.000000
  70
    32
  0
VERTEX
  8
0
  5
31F33
 10
1.14986
 20
8.79987
 30
0.000000
  70
    32
  0
VERTEX
  8
0
  5
31F34
 10
1.14582
 20
8.80323
 30
0.000000
  70
    32
  0
VERTEX
  8
0
  5
31F35
 10
1.14178
 20
8.80660
 30
0.000000
  70
    32
  0
VERTEX
  8
0
  5
31F36
 10
1.13775
 20
8.80998
 30
0.000000
  70
    32
  0
VERTEX
  8
0
  5
31F37
 10
1.13372
 20
8.81336
 30
0.000000
  70
    32
  0
VERTEX
  8
0
  5
31F38
 10
1.12970
 20
8.81674
 30
0.000000
  70
    32
  0
VERTEX
  8
0
  5
31F39
 10
1.12569
 20
8.82014
 30
0.000000
  70
    32
  0
VERTEX
  8
0
  5
31F3A
 10
1.12170
 20
8.82354
 30
0.000000
  70
    32
  0
VERTEX
  8
0
  5
31F3B
 10
1.11771
 20
8.82695
 30
0.000000
  70
    32
  0
VERTEX
  8
0
  5
31F3C
 10
1.11373
 20
8.83036
 30
0.000000
  70
    32
  0
VERTEX
  8
0
  5
31F3D
 10
1.10977
 20
8.83379
 30
0.000000
  70
    32
  0
VERTEX
  8
0
  5
31F3E
 10
1.10583
 20
8.83723
 30
0.000000
  70
    32
  0
VERTEX
  8
0
  5
31F3F
 10
1.10190
 20
8.84067
 30
0.000000
  70
    32
  0
VERTEX
  8
0
  5
31F40
 10
1.09798
 20
8.84413
 30
0.000000
  70
    32
  0
VERTEX
  8
0
  5
31F41
 10
1.09409
 20
8.84760
 30
0.000000
  70
    32
  0
VERTEX
  8
0
  5
31F42
 10
1.09021
 20
8.85107
 30
0.000000
  70
    32
  0
VERTEX
  8
0
  5
31F43
 10
1.08635
 20
8.85457
 30
0.000000
  70
    32
  0
VERTEX
  8
0
  5
31F44
 10
1.08251
 20
8.85807
 30
0.000000
  70
    32
  0
VERTEX
  8
0
  5
31F45
 10
1.07870
 20
8.86158
 30
0.000000
  70
    32
  0
VERTEX
  8
0
  5
31F46
 10
1.07490
 20
8.86511
 30
0.000000
  70
    32
  0
VERTEX
  8
0
  5
31F47
 10
1.07113
 20
8.86865
 30
0.000000
  70
    32
  0
VERTEX
  8
0
  5
31F48
 10
1.06738
 20
8.87220
 30
0.000000
  70
    32
  0
VERTEX
  8
0
  5
31F49
 10
1.06365
 20
8.87576
 30
0.000000
  70
    32
  0
VERTEX
  8
0
  5
31F4A
 10
1.05995
 20
8.87934
 30
0.000000
  70
    32
  0
VERTEX
  8
0
  5
31F4B
 10
1.05628
 20
8.88294
 30
0.000000
  70
    32
  0
VERTEX
  8
0
  5
31F4C
 10
1.05263
 20
8.88654
 30
0.000000
  70
    32
  0
VERTEX
  8
0
  5
31F4D
 10
1.04900
 20
8.89016
 30
0.000000
  70
    32
  0
VERTEX
  8
0
  5
31F4E
 10
1.04541
 20
8.89380
 30
0.000000
  70
    32
  0
VERTEX
  8
0
  5
31F4F
 10
1.04185
 20
8.89745
 30
0.000000
  70
    32
  0
VERTEX
  8
0
  5
31F50
 10
1.03831
 20
8.90112
 30
0.000000
  70
    32
  0
VERTEX
  8
0
  5
31F51
 10
1.03481
 20
8.90480
 30
0.000000
  70
    32
  0
VERTEX
  8
0
  5
31F52
 10
1.03133
 20
8.90850
 30
0.000000
  70
    32
  0
VERTEX
  8
0
  5
31F53
 10
1.02789
 20
8.91221
 30
0.000000
  70
    32
  0
VERTEX
  8
0
  5
31F54
 10
1.02448
 20
8.91594
 30
0.000000
  70
    32
  0
VERTEX
  8
0
  5
31F55
 10
1.02111
 20
8.91969
 30
0.000000
  70
    32
  0
VERTEX
  8
0
  5
31F56
 10
1.01777
 20
8.92345
 30
0.000000
  70
    32
  0
VERTEX
  8
0
  5
31F57
 10
1.01446
 20
8.92723
 30
0.000000
  70
    32
  0
VERTEX
  8
0
  5
31F58
 10
1.01119
 20
8.93103
 30
0.000000
  70
    32
  0
VERTEX
  8
0
  5
31F59
 10
1.00796
 20
8.93484
 30
0.000000
  70
    32
  0
VERTEX
  8
0
  5
31F5A
 10
1.00476
 20
8.93868
 30
0.000000
  70
    32
  0
VERTEX
  8
0
  5
31F5B
 10
1.00160
 20
8.94253
 30
0.000000
  70
    32
  0
VERTEX
  8
0
  5
31F5C
 10
0.998485
 20
8.94640
 30
0.000000
  70
    32
  0
VERTEX
  8
0
  5
31F5D
 10
0.995407
 20
8.95029
 30
0.000000
  70
    32
  0
VERTEX
  8
0
  5
31F5E
 10
0.992369
 20
8.95420
 30
0.000000
  70
    32
  0
VERTEX
  8
0
  5
31F5F
 10
0.989373
 20
8.95813
 30
0.000000
  70
    32
  0
VERTEX
  8
0
  5
31F60
 10
0.986419
 20
8.96208
 30
0.000000
  70
    32
  0
VERTEX
  8
0
  5
31F61
 10
0.983508
 20
8.96605
 30
0.000000
  70
    32
  0
VERTEX
  8
0
  5
31F62
 10
0.980642
 20
8.97004
 30
0.000000
  70
    32
  0
VERTEX
  8
0
  5
31F63
 10
0.977819
 20
8.97405
 30
0.000000
  70
    32
  0
VERTEX
  8
0
  5
31F64
 10
0.975042
 20
8.97808
 30
0.000000
  70
    32
  0
VERTEX
  8
0
  5
31F65
 10
0.972312
 20
8.98213
 30
0.000000
  70
    32
  0
VERTEX
  8
0
  5
31F66
 10
0.969628
 20
8.98621
 30
0.000000
  70
    32
  0
VERTEX
  8
0
  5
31F67
 10
0.966993
 20
8.99030
 30
0.000000
  70
    32
  0
VERTEX
  8
0
  5
31F68
 10
0.964406
 20
8.99442
 30
0.000000
  70
    32
  0
VERTEX
  8
0
  5
31F69
 10
0.961868
 20
8.99856
 30
0.000000
  70
    32
  0
VERTEX
  8
0
  5
31F6A
 10
0.959381
 20
9.00272
 30
0.000000
  70
    32
  0
VERTEX
  8
0
  5
31F6B
 10
0.956944
 20
9.00691
 30
0.000000
  70
    32
  0
VERTEX
  8
0
  5
31F6C
 10
0.954559
 20
9.01112
 30
0.000000
  70
    32
  0
VERTEX
  8
0
  5
31F6D
 10
0.952227
 20
9.01535
 30
0.000000
  70
    32
  0
VERTEX
  8
0
  5
31F6E
 10
0.949949
 20
9.01960
 30
0.000000
  70
    32
  0
VERTEX
  8
0
  5
31F6F
 10
0.947724
 20
9.02388
 30
0.000000
  70
    32
  0
VERTEX
  8
0
  5
31F70
 10
0.945555
 20
9.02819
 30
0.000000
  70
    32
  0
VERTEX
  8
0
  5
31F71
 10
0.943441
 20
9.03252
 30
0.000000
  70
    32
  0
VERTEX
  8
0
  5
31F72
 10
0.941383
 20
9.03687
 30
0.000000
  70
    32
  0
VERTEX
  8
0
  5
31F73
 10
0.939384
 20
9.04125
 30
0.000000
  70
    32
  0
VERTEX
  8
0
  5
31F74
 10
0.937442
 20
9.04566
 30
0.000000
  70
    32
  0
VERTEX
  8
0
  5
31F75
 10
0.935559
 20
9.05009
 30
0.000000
  70
    32
  0
VERTEX
  8
0
  5
31F76
 10
0.933736
 20
9.05455
 30
0.000000
  70
    32
  0
VERTEX
  8
0
  5
31F77
 10
0.931973
 20
9.05903
 30
0.000000
  70
    32
  0
VERTEX
  8
0
  5
31F78
 10
0.930271
 20
9.06354
 30
0.000000
  70
    32
  0
VERTEX
  8
0
  5
31F79
 10
0.928629
 20
9.06808
 30
0.000000
  70
    32
  0
VERTEX
  8
0
  5
31F7A
 10
0.927045
 20
9.07264
 30
0.000000
  70
    32
  0
VERTEX
  8
0
  5
31F7B
 10
0.925517
 20
9.07722
 30
0.000000
  70
    32
  0
VERTEX
  8
0
  5
31F7C
 10
0.924045
 20
9.08183
 30
0.000000
  70
    32
  0
VERTEX
  8
0
  5
31F7D
 10
0.922626
 20
9.08647
 30
0.000000
  70
    32
  0
VERTEX
  8
0
  5
31F7E
 10
0.921259
 20
9.09112
 30
0.000000
  70
    32
  0
VERTEX
  8
0
  5
31F7F
 10
0.919943
 20
9.09580
 30
0.000000
  70
    32
  0
VERTEX
  8
0
  5
31F80
 10
0.918676
 20
9.10050
 30
0.000000
  70
    32
  0
VERTEX
  8
0
  5
31F81
 10
0.917457
 20
9.10522
 30
0.000000
  70
    32
  0
VERTEX
  8
0
  5
31F82
 10
0.916283
 20
9.10996
 30
0.000000
  70
    32
  0
VERTEX
  8
0
  5
31F83
 10
0.915155
 20
9.11472
 30
0.000000
  70
    32
  0
VERTEX
  8
0
  5
31F84
 10
0.914070
 20
9.11950
 30
0.000000
  70
    32
  0
VERTEX
  8
0
  5
31F85
 10
0.913026
 20
9.12429
 30
0.000000
  70
    32
  0
VERTEX
  8
0
  5
31F86
 10
0.912023
 20
9.12911
 30
0.000000
  70
    32
  0
VERTEX
  8
0
  5
31F87
 10
0.911058
 20
9.13394
 30
0.000000
  70
    32
  0
VERTEX
  8
0
  5
31F88
 10
0.910131
 20
9.13879
 30
0.000000
  70
    32
  0
VERTEX
  8
0
  5
31F89
 10
0.909239
 20
9.14365
 30
0.000000
  70
    32
  0
VERTEX
  8
0
  5
31F8A
 10
0.908381
 20
9.14853
 30
0.000000
  70
    32
  0
VERTEX
  8
0
  5
31F8B
 10
0.907557
 20
9.15342
 30
0.000000
  70
    32
  0
VERTEX
  8
0
  5
31F8C
 10
0.906763
 20
9.15832
 30
0.000000
  70
    32
  0
VERTEX
  8
0
  5
31F8D
 10
0.906000
 20
9.16324
 30
0.000000
  70
    32
  0
VERTEX
  8
0
  5
31F8E
 10
0.905264
 20
9.16817
 30
0.000000
  70
    32
  0
VERTEX
  8
0
  5
31F8F
 10
0.904556
 20
9.17312
 30
0.000000
  70
    32
  0
VERTEX
  8
0
  5
31F90
 10
0.903873
 20
9.17807
 30
0.000000
  70
    32
  0
VERTEX
  8
0
  5
31F91
 10
0.903213
 20
9.18303
 30
0.000000
  70
    32
  0
VERTEX
  8
0
  5
31F92
 10
0.902576
 20
9.18801
 30
0.000000
  70
    32
  0
VERTEX
  8
0
  5
31F93
 10
0.901960
 20
9.19299
 30
0.000000
  70
    32
  0
VERTEX
  8
0
  5
31F94
 10
0.901363
 20
9.19798
 30
0.000000
  70
    32
  0
VERTEX
  8
0
  5
31F95
 10
0.900784
 20
9.20298
 30
0.000000
  70
    32
  0
VERTEX
  8
0
  5
31F96
 10
0.900222
 20
9.20799
 30
0.000000
  70
    32
  0
VERTEX
  8
0
  5
31F97
 10
0.899674
 20
9.21300
 30
0.000000
  70
    32
  0
VERTEX
  8
0
  5
31F98
 10
0.899140
 20
9.21802
 30
0.000000
  70
    32
  0
VERTEX
  8
0
  5
31F99
 10
0.898617
 20
9.22304
 30
0.000000
  70
    32
  0
VERTEX
  8
0
  5
31F9A
 10
0.898105
 20
9.22807
 30
0.000000
  70
    32
  0
VERTEX
  8
0
  5
31F9B
 10
0.897602
 20
9.23310
 30
0.000000
  70
    32
  0
VERTEX
  8
0
  5
31F9C
 10
0.897107
 20
9.23813
 30
0.000000
  70
    32
  0
VERTEX
  8
0
  5
31F9D
 10
0.896617
 20
9.24317
 30
0.000000
  70
    32
  0
VERTEX
  8
0
  5
31F9E
 10
0.896132
 20
9.24821
 30
0.000000
  70
    32
  0
VERTEX
  8
0
  5
31F9F
 10
0.895650
 20
9.25325
 30
0.000000
  70
    32
  0
VERTEX
  8
0
  5
31FA0
 10
0.895169
 20
9.25829
 30
0.000000
  70
    32
  0
SEQEND
  8
0
  5
31FA1
  0
LINE
  5
2B8A0
  8
0
  6
CONTINUOUS
 62
     7
 10
0.7472076905950758
 20
9.2582948336663549
 30
0.0
 11
0.7472076905949621
 21
11.826520277942111
 31
0.0
  0
LINE
  5
2B8A1
  8
0
  6
CONTINUOUS
 62
     7
 10
0.4997076905949598
 20
12.389020277942111
 30
0.0
 11
0.000001476738305
 21
12.389020277942111
 31
0.0
  0
ARC
  5
2B8A2
  8
0
 10
0.4997076905949598
 20
12.139020277942111
 30
0.0
 40
0.2500000000000009
 50
269.42703265506509
 51
90.0
  0
LINE
  5
2B8A3
  8
0
  6
CONTINUOUS
 62
     7
 10
0.7472076905949621
 20
11.826520277942111
 30
0.0
 11
0.5597076905949621
 21
11.826520277942111
 31
0.0
  0
LINE
  5
2B8A4
  8
0
  6
CONTINUOUS
 62
     7
 10
0.4972076905949621
 20
11.826520277942111
 30
0.0
 11
0.4972076905949621
 21
11.88903277828603
 31
0.0
  0
LINE
  5
2B8A5
  8
0
 10
0.0000014767382481
 20
7.878552666495465
 30
0.0
 11
0.000001476738305
 21
12.389020277942111
 31
0.0
  0
LINE
  5
2B8A6
  8
0
 10
0.7472076905949621
 20
11.826520277942111
 30
0.0
 11
0.4972076905949621
 21
11.826520277942111
 31
0.0
  0
LINE
  5
2B8A7
  8
FRAME_050
 10
6.5744546621590407
 20
17.993710579095019
 30
0.0
 11
6.5744546621590407
 21
0.0000000294007805
 31
0.0
  0
ENDBLK
  5
2B8A9
  8
0
  0
BLOCK
  8
0
  2
A$C06786640
 70
     0
 10
0.0
 20
0.0
 30
0.0
  3
A$C06786640
  1

  0
LINE
  5
30DBD
  8
0
  6
CONTINUOUS
 10
6.9421460747584538
 20
5.3373952998996401
 30
0.0
 11
7.6921460747585684
 21
5.3373952998996401
 31
0.0
  0
INSERT
  5
30DBE
  8
0
  2
*U79
 10
0.0
 20
0.0
 30
0.0
  0
ARC
  5
30DBF
  8
0
 10
7.6921460747584538
 20
1.3373952998996399
 30
0.0
 40
0.4375
 50
90.0
 51
180.0
  0
LINE
  5
30DC0
  8
0
  6
CONTINUOUS
 10
6.9421460747584538
 20
1.3373952998996399
 30
0.0
 11
7.2546460747584538
 21
1.3373952998996399
 31
0.0
  0
LINE
  5
30DC1
  8
0
  6
CONTINUOUS
 10
6.9421460747584538
 20
5.3373952998996401
 30
0.0
 11
6.9421460747584538
 21
1.3373952998996399
 31
0.0
  0
LINE
  5
30DC2
  8
0
  6
CONTINUOUS
 10
7.6921460747585684
 20
5.3373952998996401
 30
0.0
 11
7.6921460747584538
 21
1.7748952998996399
 31
0.0
  0
LINE
  5
30DC3
  8
FRAME_050
 10
13.38021391661823
 20
10.43596704186257
 30
0.0
 11
13.38021391661823
 21
-7.557743507831673
 31
0.0
  0
ENDBLK
  5
30DC5
  8
0
  0
BLOCK
  8
0
  2
*U47
 70
     1
 10
0.0
 20
0.0
 30
0.0
  3
*U47
  1

  0
TEXT
  5
31C68
  8
0
 10
3.5177832928899071
 20
10.38601584255777
 30
0.0
 40
0.125
  1
Crown Moulding
  0
TEXT
  5
31C69
  8
0
 10
3.5223876585106431
 20
10.17717091304435
 30
0.0
 40
0.125
  1
TL-AB509
  0
TEXT
  5
31C6A
  8
0
 10
3.5074661032582561
 20
9.9667059289606801
 30
0.0
 40
0.125
  1
1-5/16" x 7-9/16"
  0
TEXT
  5
31C6B
  8
0
 10
3.519403347460166
 20
9.7562409448770051
 30
0.0
 40
0.125
  1
800.66.TAGUE
  0
ENDBLK
  5
31C6D
  8
0
  0
BLOCK
  8
0
  2
*U48
 70
     1
 10
0.0
 20
0.0
 30
0.0
  3
*U48
  1

  0
TEXT
  5
31C6F
  8
0
 10
1.4086740032724709
 20
13.04264108713495
 30
0.0
 40
0.125
  1
Casing
  0
TEXT
  5
31C70
  8
0
 10
1.4132783688932069
 20
12.83379615762154
 30
0.0
 40
0.125
  1
TL-2019
  0
TEXT
  5
31C71
  8
0
 10
1.39835681364082
 20
12.62333117353786
 30
0.0
 40
0.125
  1
1-1/16" x 5-1/2"
  0
TEXT
  5
31C72
  8
0
 10
1.4102940578427301
 20
12.41286618945419
 30
0.0
 40
0.125
  1
800.66.TAGUE
  0
ENDBLK
  5
31C74
  8
0
  0
BLOCK
  8
0
  2
*U49
 70
     1
 10
0.0
 20
0.0
 30
0.0
  3
*U49
  1

  0
TEXT
  5
31C76
  8
0
 10
1.9061884295105971
 20
11.78127341408482
 30
0.0
 40
0.125
  1
Casing
  0
TEXT
  5
31C77
  8
0
 10
1.9107927951313339
 20
11.572428484571409
 30
0.0
 40
0.125
  1
TL-2318
  0
TEXT
  5
31C78
  8
0
 10
1.8958712398789459
 20
11.361963500487731
 30
0.0
 40
0.125
  1
13/16" x 2-1/2"
  0
TEXT
  5
31C79
  8
0
 10
1.907808484080856
 20
11.151498516404059
 30
0.0
 40
0.125
  1
800.66.TAGUE
  0
ENDBLK
  5
31C7B
  8
0
  0
BLOCK
  8
0
  2
*U50
 70
     1
 10
0.0
 20
0.0
 30
0.0
  3
*U50
  1

  0
TEXT
  5
31C7D
  8
0
 10
2.2380648505203782
 20
10.70752122569969
 30
0.0
 40
0.125
  1
Casing Assembly
  0
TEXT
  5
31C7E
  8
0
 10
2.242669216141115
 20
10.498676296186281
 30
0.0
 40
0.125
  1
TL-2225
  0
TEXT
  5
31C7F
  8
0
 10
2.2277476608887281
 20
10.2882113121026
 30
0.0
 40
0.125
  1
1-9/16" x 4-1/2"
  0
TEXT
  5
31C80
  8
0
 10
2.239684905090638
 20
10.077746328018931
 30
0.0
 40
0.125
  1
800.66.TAGUE
  0
ENDBLK
  5
31C82
  8
0
  0
BLOCK
  8
0
  2
*U51
 70
     1
 10
0.0
 20
0.0
 30
0.0
  3
*U51
  1

  0
TEXT
  5
31C84
  8
0
 10
2.45740474597793
 20
2.5787099920155621
 30
0.0
 40
0.125
  1
Chair Rail
  0
TEXT
  5
31C85
  8
0
 10
2.462009111598666
 20
2.3698650625021469
 30
0.0
 40
0.125
  1
TL-300
  0
TEXT
  5
31C86
  8
0
 10
2.4470875563462791
 20
2.1594000784184728
 30
0.0
 40
0.125
  1
1-1/16" x 2-15/16"
  0
TEXT
  5
31C87
  8
0
 10
2.4590248005481889
 20
1.9489350943347981
 30
0.0
 40
0.125
  1
800.66.TAGUE
  0
ENDBLK
  5
31C89
  8
0
  0
BLOCK
  8
0
  2
*U52
 70
     1
 10
0.0
 20
0.0
 30
0.0
  3
*U52
  1

  0
TEXT
  5
31C8B
  8
0
 10
2.296373382618786
 20
2.154638056947094
 30
0.0
 40
0.125
  1
Chair Rail
  0
TEXT
  5
31C8C
  8
0
 10
2.3009777482395228
 20
1.945793127433679
 30
0.0
 40
0.125
  1
TL-384
  0
TEXT
  5
31C8D
  8
0
 10
2.2860561929871359
 20
1.7353281433500041
 30
0.0
 40
0.125
  1
1-1/8" x 2-3/4"
  0
TEXT
  5
31C8E
  8
0
 10
2.2979934371890458
 20
1.52486315926633
 30
0.0
 40
0.125
  1
800.66.TAGUE
  0
ENDBLK
  5
31C90
  8
0
  0
BLOCK
  8
0
  2
*U53
 70
     1
 10
0.0
 20
0.0
 30
0.0
  3
*U53
  1

  0
TEXT
  5
31C92
  8
0
 10
1.7903030854828661
 20
1.879104976913611
 30
0.0
 40
0.125
  1
Chair Rail
  0
TEXT
  5
31C93
  8
0
 10
1.7949074511036021
 20
1.6702600474001961
 30
0.0
 40
0.125
  1
TL-390
  0
TEXT
  5
31C94
  8
0
 10
1.7799858958512149
 20
1.4597950633165211
 30
0.0
 40
0.125
  1
11/16" x 2-9/16"
  0
TEXT
  5
31C95
  8
0
 10
1.791923140053125
 20
1.249330079232847
 30
0.0
 40
0.125
  1
800.66.TAGUE
  0
ENDBLK
  5
31C97
  8
0
  0
BLOCK
  8
0
  2
*U54
 70
     1
 10
0.0
 20
0.0
 30
0.0
  3
*U54
  1

  0
TEXT
  5
31C99
  8
0
 10
1.7790082072096181
 20
2.7163812729427419
 30
0.0
 40
0.125
  1
Chair Rail
  0
TEXT
  5
31C9A
  8
0
 10
1.7836125728303549
 20
2.5075363434293272
 30
0.0
 40
0.125
  1
TL-391
  0
TEXT
  5
31C9B
  8
0
 10
1.780372463689837
 20
2.2970713593456522
 30
0.0
 40
0.125
  1
3/4" x 3-1/2"
  0
TEXT
  5
31C9C
  8
0
 10
1.7806282617798781
 20
2.0866063752619781
 30
0.0
 40
0.125
  1
800.66.TAGUE
  0
ENDBLK
  5
31C9E
  8
0
  0
BLOCK
  8
0
  2
*U55
 70
     1
 10
0.0
 20
0.0
 30
0.0
  3
*U55
  1

  0
TEXT
  5
31CA0
  8
0
 10
1.979493109854592
 20
1.3931549873730249
 30
0.0
 40
0.125
  1
Chair Rail
  0
TEXT
  5
31CA1
  8
0
 10
1.984097475475328
 20
1.1843100578596091
 30
0.0
 40
0.125
  1
TL-393
  0
TEXT
  5
31CA2
  8
0
 10
1.9691759202229411
 20
0.9738450737759357
 30
0.0
 40
0.125
  1
1-1/4" x 2-1/2"
  0
TEXT
  5
31CA3
  8
0
 10
1.981113164424851
 20
0.7633800896922612
 30
0.0
 40
0.125
  1
800.66.TAGUE
  0
ENDBLK
  5
31CA5
  8
0
  0
BLOCK
  8
0
  2
*U56
 70
     1
 10
0.0
 20
0.0
 30
0.0
  3
*U56
  1

  0
TEXT
  5
31CA7
  8
0
 10
2.213601074382983
 20
2.6517246081325689
 30
0.0
 40
0.125
  1
Chair Rail
  0
TEXT
  5
31CA8
  8
0
 10
2.2182054400037199
 20
2.4428796786191538
 30
0.0
 40
0.125
  1
TL-538
  0
TEXT
  5
31CA9
  8
0
 10
2.2171822476435561
 20
2.2324146945354801
 30
0.0
 40
0.125
  1
27/32" x 3-1/4"
  0
TEXT
  5
31CAA
  8
0
 10
2.215221128953242
 20
2.021949710451806
 30
0.0
 40
0.125
  1
800.66.TAGUE
  0
ENDBLK
  5
31CAC
  8
0
  0
BLOCK
  8
0
  2
*U57
 70
     1
 10
0.0
 20
0.0
 30
0.0
  3
*U57
  1

  0
TEXT
  5
31CAE
  8
0
 10
2.143641095436839
 20
2.3625917493022981
 30
0.0
 40
0.125
  1
Chair Rail
  0
TEXT
  5
31CAF
  8
0
 10
2.148245461057575
 20
2.1537468197888829
 30
0.0
 40
0.125
  1
TL-2002
  0
TEXT
  5
31CB0
  8
0
 10
2.1450053519170571
 20
1.943281835705208
 30
0.0
 40
0.125
  1
3/4" x 3"
  0
TEXT
  5
31CB1
  8
0
 10
2.1452611500070979
 20
1.7328168516215341
 30
0.0
 40
0.125
  1
800.66.TAGUE
  0
ENDBLK
  5
31CB3
  8
0
  0
BLOCK
  8
0
  2
*U58
 70
     1
 10
0.0
 20
0.0
 30
0.0
  3
*U58
  1

  0
TEXT
  5
31CB5
  8
0
 10
2.0814022841362081
 20
2.4827230287430821
 30
0.0
 40
0.125
  1
Chair Rail
  0
TEXT
  5
31CB6
  8
0
 10
2.0860066497569441
 20
2.273878099229667
 30
0.0
 40
0.125
  1
TL-2003
  0
TEXT
  5
31CB7
  8
0
 10
2.0818286142862759
 20
2.063413115145992
 30
0.0
 40
0.125
  1
7/8" x 3-13/16"
  0
TEXT
  5
31CB8
  8
0
 10
2.083022338706467
 20
1.8529481310623179
 30
0.0
 40
0.125
  1
800.66.TAGUE
  0
ENDBLK
  5
31CBA
  8
0
  0
BLOCK
  8
0
  2
*U59
 70
     1
 10
0.0
 20
0.0
 30
0.0
  3
*U59
  1

  0
TEXT
  5
31CBC
  8
0
 10
2.396282120712645
 20
2.6371956792013558
 30
0.0
 40
0.125
  1
Chair Rail
  0
TEXT
  5
31CBD
  8
0
 10
2.4008864863333819
 20
2.4283507496879411
 30
0.0
 40
0.125
  1
TL-2097
  0
TEXT
  5
31CBE
  8
0
 10
2.3859649310809949
 20
2.2178857656042661
 30
0.0
 40
0.125
  1
1-1/4" x 2-7/8"
  0
TEXT
  5
31CBF
  8
0
 10
2.3979021752829048
 20
2.007420781520592
 30
0.0
 40
0.125
  1
800.66.TAGUE
  0
ENDBLK
  5
31CC1
  8
0
  0
BLOCK
  8
0
  2
*U60
 70
     1
 10
0.0
 20
0.0
 30
0.0
  3
*U60
  1

  0
TEXT
  5
31CC3
  8
0
 10
2.2497671895647828
 20
1.9038951213874651
 30
0.0
 40
0.125
  1
Chair Rail
  0
TEXT
  5
31CC4
  8
0
 10
2.2543715551855201
 20
1.6950501918740499
 30
0.0
 40
0.125
  1
TL-392
  0
TEXT
  5
31CC5
  8
0
 10
2.2394499999331319
 20
1.4845852077903761
 30
0.0
 40
0.125
  1
1-5/16" x 2-3/8"
  0
TEXT
  5
31CC6
  8
0
 10
2.2513872441350422
 20
1.2741202237067011
 30
0.0
 40
0.125
  1
800.66.TAGUE
  0
ENDBLK
  5
31CC8
  8
0
  0
BLOCK
  8
0
  2
*U61
 70
     1
 10
0.0
 20
0.0
 30
0.0
  3
*U61
  1

  0
TEXT
  5
31CCA
  8
0
 10
1.5498063030285369
 20
2.4826645605183031
 30
0.0
 40
0.125
  1
Chair Rail
  0
TEXT
  5
31CCB
  8
0
 10
1.5544106686492729
 20
2.2738196310048879
 30
0.0
 40
0.125
  1
TL-2152
  0
TEXT
  5
31CCC
  8
0
 10
1.539489113396886
 20
2.063354646921213
 30
0.0
 40
0.125
  1
1-9/32" x 3-15/16"
  0
TEXT
  5
31CCD
  8
0
 10
1.5514263575987961
 20
1.8528896628375391
 30
0.0
 40
0.125
  1
800.66.TAGUE
  0
ENDBLK
  5
31CCF
  8
0
  0
BLOCK
  8
0
  2
*U62
 70
     1
 10
0.0
 20
0.0
 30
0.0
  3
*U62
  1

  0
TEXT
  5
31CD1
  8
0
 10
1.425133411081934
 20
3.23616728770982
 30
0.0
 40
0.125
  1
Chair Rail
  0
TEXT
  5
31CD2
  8
0
 10
1.4297377767026711
 20
3.0273223581964048
 30
0.0
 40
0.125
  1
TL-2163
  0
TEXT
  5
31CD3
  8
0
 10
1.426497667562153
 20
2.8168573741127299
 30
0.0
 40
0.125
  1
3/4" x 2-3/8"
  0
TEXT
  5
31CD4
  8
0
 10
1.4267534656521941
 20
2.6063923900290562
 30
0.0
 40
0.125
  1
800.66.TAGUE
  0
ENDBLK
  5
31CD6
  8
0
  0
BLOCK
  8
0
  2
*U63
 70
     1
 10
0.0
 20
0.0
 30
0.0
  3
*U63
  1

  0
TEXT
  5
31CD8
  8
0
 10
1.3979859738694
 20
3.241688635672078
 30
0.0
 40
0.125
  1
Chair Rail
  0
TEXT
  5
31CD9
  8
0
 10
1.4025903394901369
 20
3.0328437061586628
 30
0.0
 40
0.125
  1
TL-2210
  0
TEXT
  5
31CDA
  8
0
 10
1.38766878423775
 20
2.8223787220749879
 30
0.0
 40
0.125
  1
11/16" x 3"
  0
TEXT
  5
31CDB
  8
0
 10
1.3996060284396601
 20
2.6119137379913142
 30
0.0
 40
0.125
  1
800.66.TAGUE
  0
ENDBLK
  5
31CDD
  8
0
  0
BLOCK
  8
0
  2
*U64
 70
     1
 10
0.0
 20
0.0
 30
0.0
  3
*U64
  1

  0
TEXT
  5
31CDF
  8
0
 10
1.9179554225799269
 20
1.5548149835556311
 30
0.0
 40
0.125
  1
Chamfer Strip
  0
TEXT
  5
31CE0
  8
0
 10
1.9225597882006631
 20
1.3459700540422159
 30
0.0
 40
0.125
  1
TL-994
  0
TEXT
  5
31CE1
  8
0
 10
1.9076382329482759
 20
1.137125124528801
 30
0.0
 40
0.125
  1
1" x 1"
  0
TEXT
  5
31CE2
  8
0
 10
1.9195754771501861
 20
0.9266601404451272
 30
0.0
 40
0.125
  1
800.66.TAGUE
  0
ENDBLK
  5
31CE4
  8
0
  0
BLOCK
  8
0
  2
*U65
 70
     1
 10
0.0
 20
0.0
 30
0.0
  3
*U65
  1

  0
TEXT
  5
31CE6
  8
0
 10
0.4278271454310577
 20
1.8307501971237501
 30
0.0
 40
0.125
  1
Chamfer Strip
  0
TEXT
  5
31CE7
  8
0
 10
0.4324315110517944
 20
1.6219052676103349
 30
0.0
 40
0.125
  1
TL-995
  0
TEXT
  5
31CE8
  8
0
 10
0.4175099557994069
 20
1.41144028352666
 30
0.0
 40
0.125
  1
11/16" x 11/16"
  0
TEXT
  5
31CE9
  8
0
 10
0.4294472000013169
 20
1.2009752994429861
 30
0.0
 40
0.125
  1
800.66.TAGUE
  0
ENDBLK
  5
31CEB
  8
0
  0
BLOCK
  8
0
  2
*U66
 70
     1
 10
0.0
 20
0.0
 30
0.0
  3
*U66
  1

  0
TEXT
  5
31CED
  8
0
 10
1.9926440979760729
 20
0.67862269993522
 30
0.0
 40
0.125
  1
Column Mouldings
  0
TEXT
  5
31CEE
  8
0
 10
1.9972484635968091
 20
0.4697777704218047
 30
0.0
 40
0.125
  1
TL-2212
  0
TEXT
  5
31CEF
  8
0
 10
1.9823269083444219
 20
0.2593127863381302
 30
0.0
 40
0.125
  1
1-13/16" x 1-7/8"
  0
TEXT
  5
31CF0
  8
0
 10
1.994264152546332
 20
0.0488478022544559
 30
0.0
 40
0.125
  1
800.66.TAGUE
  0
ENDBLK
  5
31CF2
  8
0
  0
BLOCK
  8
0
  2
*U67
 70
     1
 10
0.0
 20
0.0
 30
0.0
  3
*U67
  1

  0
TEXT
  5
31CF4
  8
0
 10
1.6834489538549959
 20
0.7751852708459115
 30
0.0
 40
0.125
  1
Column Mouldings
  0
TEXT
  5
31CF5
  8
0
 10
1.688053319475733
 20
0.5663403413324964
 30
0.0
 40
0.125
  1
TL-2215
  0
TEXT
  5
31CF6
  8
0
 10
1.673131764223345
 20
0.3558753572488219
 30
0.0
 40
0.125
  1
1/2" x 1"
  0
TEXT
  5
31CF7
  8
0
 10
1.6850690084252551
 20
0.1454103731651475
 30
0.0
 40
0.125
  1
800.66.TAGUE
  0
ENDBLK
  5
31CF9
  8
0
  0
BLOCK
  8
0
  2
*U68
 70
     1
 10
0.0
 20
0.0
 30
0.0
  3
*U68
  1

  0
TEXT
  5
31CFB
  8
0
 10
1.6834489538549959
 20
0.7751852708459115
 30
0.0
 40
0.125
  1
Column Mouldings
  0
TEXT
  5
31CFC
  8
0
 10
1.688053319475733
 20
0.5663403413324964
 30
0.0
 40
0.125
  1
TL-2215
  0
TEXT
  5
31CFD
  8
0
 10
1.673131764223345
 20
0.3558753572488219
 30
0.0
 40
0.125
  1
1/2" x 1"
  0
TEXT
  5
31CFE
  8
0
 10
1.6850690084252551
 20
0.1454103731651475
 30
0.0
 40
0.125
  1
800.66.TAGUE
  0
ENDBLK
  5
31D00
  8
0
  0
BLOCK
  8
0
  2
*U69
 70
     1
 10
0.0
 20
0.0
 30
0.0
  3
*U69
  1

  0
TEXT
  5
31D02
  8
0
 10
2.2199536060229881
 20
0.9507943810130132
 30
0.0
 40
0.125
  1
Corner Moulding
  0
TEXT
  5
31D03
  8
0
 10
2.224557971643724
 20
0.7419494514995982
 30
0.0
 40
0.125
  1
TL-201
  0
TEXT
  5
31D04
  8
0
 10
2.2096364163913371
 20
0.5314844674159237
 30
0.0
 40
0.125
  1
1-3/8" x 1-3/8"
  0
TEXT
  5
31D05
  8
0
 10
2.221573660593247
 20
0.3210194833322493
 30
0.0
 40
0.125
  1
800.66.TAGUE
  0
ENDBLK
  5
31D07
  8
0
  0
BLOCK
  8
0
  2
*U70
 70
     1
 10
0.0
 20
0.0
 30
0.0
  3
*U70
  1

  0
TEXT
  5
31D09
  8
0
 10
1.9663332328677019
 20
0.8425411796803405
 30
0.0
 40
0.125
  1
Corner Moulding
  0
TEXT
  5
31D0A
  8
0
 10
1.9709375984884381
 20
0.6336962501669256
 30
0.0
 40
0.125
  1
TL-202
  0
TEXT
  5
31D0B
  8
0
 10
1.9560160432360509
 20
0.423231266083251
 30
0.0
 40
0.125
  1
1-1/8" x 1-1/8"
  0
TEXT
  5
31D0C
  8
0
 10
1.9679532874379611
 20
0.2127662819995766
 30
0.0
 40
0.125
  1
800.66.TAGUE
  0
ENDBLK
  5
31D0E
  8
0
  0
BLOCK
  8
0
  2
*U71
 70
     1
 10
0.0
 20
0.0
 30
0.0
  3
*U71
  1

  0
TEXT
  5
31D10
  8
0
 10
1.5905291641242101
 20
0.7214840869431943
 30
0.0
 40
0.125
  1
Corner Moulding
  0
TEXT
  5
31D11
  8
0
 10
1.5951335297449469
 20
0.5126391574297791
 30
0.0
 40
0.125
  1
TL-203
  0
TEXT
  5
31D12
  8
0
 10
1.5918934206044291
 20
0.3021741733461046
 30
0.0
 40
0.125
  1
3/4" x 3/4"
  0
TEXT
  5
31D13
  8
0
 10
1.592149218694469
 20
0.0917091892624302
 30
0.0
 40
0.125
  1
800.66.TAGUE
  0
ENDBLK
  5
31D15
  8
0
  0
BLOCK
  8
0
  2
*U72
 70
     1
 10
0.0
 20
0.0
 30
0.0
  3
*U72
  1

  0
TEXT
  5
31D17
  8
0
 10
1.935358187968665
 20
1.031573183991797
 30
0.0
 40
0.125
  1
Corner Moulding
  0
TEXT
  5
31D18
  8
0
 10
1.939962553589401
 20
0.8227282544783825
 30
0.0
 40
0.125
  1
TL-204
  0
TEXT
  5
31D19
  8
0
 10
1.925040998337014
 20
0.6122632703947081
 30
0.0
 40
0.125
  1
1-3/8" x 1-3/8"
  0
TEXT
  5
31D1A
  8
0
 10
1.9369782425389239
 20
0.4017982863110337
 30
0.0
 40
0.125
  1
800.66.TAGUE
  0
ENDBLK
  5
31D1C
  8
0
  0
BLOCK
  8
0
  2
*U73
 70
     1
 10
0.0
 20
0.0
 30
0.0
  3
*U73
  1

  0
TEXT
  5
31D1E
  8
0
 10
1.8542205155787641
 20
0.9211791424976514
 30
0.0
 40
0.125
  1
Corner Moulding
  0
TEXT
  5
31D1F
  8
0
 10
1.858824881199501
 20
0.7123342129842363
 30
0.0
 40
0.125
  1
TL-205
  0
TEXT
  5
31D20
  8
0
 10
1.8439033259471129
 20
0.5018692289005619
 30
0.0
 40
0.125
  1
1-1/8" x 1-1/8"
  0
TEXT
  5
31D21
  8
0
 10
1.855840570149023
 20
0.2914042448168874
 30
0.0
 40
0.125
  1
800.66.TAGUE
  0
ENDBLK
  5
31D23
  8
0
  0
BLOCK
  8
0
  2
*U74
 70
     1
 10
0.0
 20
0.0
 30
0.0
  3
*U74
  1

  0
TEXT
  5
31D25
  8
0
 10
1.334185060618698
 20
0.6786227981105119
 30
0.0
 40
0.125
  1
Corner Moulding
  0
TEXT
  5
31D26
  8
0
 10
1.3387894262394351
 20
0.4697778685970966
 30
0.0
 40
0.125
  1
TL-206
  0
TEXT
  5
31D27
  8
0
 10
1.3355493170989159
 20
0.2593128845134221
 30
0.0
 40
0.125
  1
3/4" x 3/4"
  0
TEXT
  5
31D28
  8
0
 10
1.3358051151889569
 20
0.0488479004297477
 30
0.0
 40
0.125
  1
800.66.TAGUE
  0
ENDBLK
  5
31D2A
  8
0
  0
BLOCK
  8
0
  2
*U75
 70
     1
 10
0.0
 20
0.0
 30
0.0
  3
*U75
  1

  0
TEXT
  5
31D2C
  8
0
 10
1.823849037637477
 20
0.8585475398531504
 30
0.0
 40
0.125
  1
Cove
  0
TEXT
  5
31D2D
  8
0
 10
1.828453403258214
 20
0.6497026103397352
 30
0.0
 40
0.125
  1
TL-83
  0
TEXT
  5
31D2E
  8
0
 10
1.825298560147709
 20
0.4392376262560608
 30
0.0
 40
0.125
  1
9/16" x 2-5/8"
  0
TEXT
  5
31D2F
  8
0
 10
1.8254690922077359
 20
0.2287726421723863
 30
0.0
 40
0.125
  1
800.66.TAGUE
  0
ENDBLK
  5
31D31
  8
0
  0
BLOCK
  8
0
  2
*U76
 70
     1
 10
0.0
 20
0.0
 30
0.0
  3
*U76
  1

  0
TEXT
  5
31D33
  8
0
 10
1.4372220564187941
 20
0.6786219190419321
 30
0.0
 40
0.125
  1
Cove
  0
TEXT
  5
31D34
  8
0
 10
1.4418264220395309
 20
0.4697769895285169
 30
0.0
 40
0.125
  1
TL-86
  0
TEXT
  5
31D35
  8
0
 10
1.4386715789290261
 20
0.2593120054448424
 30
0.0
 40
0.125
  1
9/16" x 1-5/8"
  0
TEXT
  5
31D36
  8
0
 10
1.438842110989053
 20
0.048847021361168
 30
0.0
 40
0.125
  1
800.66.TAGUE
  0
ENDBLK
  5
31D38
  8
0
  0
BLOCK
  8
0
  2
*U77
 70
     1
 10
0.0
 20
0.0
 30
0.0
  3
*U77
  1

  0
TEXT
  5
31D3A
  8
0
 10
1.5163761963436611
 20
0.6786216177161056
 30
0.0
 40
0.125
  1
Cove
  0
TEXT
  5
31D3B
  8
0
 10
1.5209805619643979
 20
0.4697766882026904
 30
0.0
 40
0.125
  1
TL-100
  0
TEXT
  5
31D3C
  8
0
 10
1.506059006712011
 20
0.2593117041190159
 30
0.0
 40
0.125
  1
11/16" x 11/16"
  0
TEXT
  5
31D3D
  8
0
 10
1.5179962509139211
 20
0.0488467200353415
 30
0.0
 40
0.125
  1
800.66.TAGUE
  0
ENDBLK
  5
31D3F
  8
0
  0
BLOCK
  8
0
  2
*U78
 70
     1
 10
0.0
 20
0.0
 30
0.0
  3
*U78
  1

  0
TEXT
  5
31D41
  8
0
 10
1.281862643234239
 20
0.6786219754701666
 30
0.0
 40
0.125
  1
Cove
  0
TEXT
  5
31D42
  8
0
 10
1.286467008854975
 20
0.4697770459567514
 30
0.0
 40
0.125
  1
TL-101
  0
TEXT
  5
31D43
  8
0
 10
1.2715454536025881
 20
0.259312061873077
 30
0.0
 40
0.125
  1
1/2" x 1/2"
  0
TEXT
  5
31D44
  8
0
 10
1.283482697804498
 20
0.0488470777894026
 30
0.0
 40
0.125
  1
800.66.TAGUE
  0
ENDBLK
  5
31D46
  8
0
  0
BLOCK
  8
0
  2
*U79
 70
     1
 10
0.0
 20
0.0
 30
0.0
  3
*U79
  1

  0
TEXT
  5
31D48
  8
0
 10
8.9871190848671514
 20
3.8959346082645121
 30
0.0
 40
0.125
  1
Cove
  0
TEXT
  5
31D49
  8
0
 10
8.9917234504878873
 20
3.6870896787510969
 30
0.0
 40
0.125
  1
TL-542
  0
TEXT
  5
31D4A
  8
0
 10
8.9884833413473686
 20
3.4766246946674229
 30
0.0
 40
0.125
  1
3/4" x 4"
  0
TEXT
  5
31D4B
  8
0
 10
8.9887391394374099
 20
3.2661597105837492
 30
0.0
 40
0.125
  1
800.66.TAGUE
  0
ENDBLK
  5
31D4D
  8
0
  0
BLOCK
  8
0
  2
*U80
 70
     1
 10
0.0
 20
0.0
 30
0.0
  3
*U80
  1

  0
TEXT
  5
31D4F
  8
0
 10
2.0449744451125631
 20
2.5585391787528962
 30
0.0
 40
0.125
  1
Cove
  0
TEXT
  5
31D50
  8
0
 10
2.0495788107332991
 20
2.349694249239481
 30
0.0
 40
0.125
  1
TL-542
  0
TEXT
  5
31D51
  8
0
 10
2.0463387015927812
 20
2.139229265155806
 30
0.0
 40
0.125
  1
3/4" x 4"
  0
TEXT
  5
31D52
  8
0
 10
2.046594499682822
 20
1.9287642810721319
 30
0.0
 40
0.125
  1
800.66.TAGUE
  0
ENDBLK
  5
31D54
  8
0
  0
BLOCK
  8
0
  2
*U81
 70
     1
 10
0.0
 20
0.0
 30
0.0
  3
*U81
  1

  0
TEXT
  5
31D56
  8
0
 10
1.972901825589735
 20
0.6861779570716795
 30
0.0
 40
0.125
  1
Cove
  0
TEXT
  5
31D57
  8
0
 10
1.977506191210471
 20
0.4773330275582644
 30
0.0
 40
0.125
  1
TL-2285
  0
TEXT
  5
31D58
  8
0
 10
1.9625846359580841
 20
0.2176457378811383
 30
0.0
 40
0.125
  1
1-
  0
TEXT
  5
31D59
  8
0
 10
2.1127371939389841
 20
0.3048707378811382
 30
0.0
 40
0.087225
  1
3
  0
LINE
  5
31D5A
  8
0
 10
2.139480062265986
 20
0.233420200818031
 30
0.0
 11
2.2395404715874259
 21
0.3763212749442456
 31
0.0
  0
TEXT
  5
31D5B
  8
0
 10
2.202500802397374
 20
0.1885707378811383
 30
0.0
 40
0.087225
  1
4
  0
TEXT
  5
31D5C
  8
0
 10
2.2702102498735002
 20
0.2176457378811383
 30
0.0
 40
0.125
  1
" x 1-
  0
TEXT
  5
31D5D
  8
0
 10
2.6666963685638141
 20
0.3048707378811382
 30
0.0
 40
0.087225
  1
3
  0
LINE
  5
31D5E
  8
0
 10
2.6934392368908151
 20
0.233420200818031
 30
0.0
 11
2.793499646212255
 21
0.3763212749442456
 31
0.0
  0
TEXT
  5
31D5F
  8
0
 10
2.756459977022204
 20
0.1885707378811383
 30
0.0
 40
0.087225
  1
4
  0
TEXT
  5
31D60
  8
0
 10
2.8241694244983289
 20
0.2176457378811383
 30
0.0
 40
0.125
  1
"
  0
TEXT
  5
31D61
  8
0
 10
1.974521880159994
 20
0.0488474204641306
 30
0.0
 40
0.125
  1
800.66.TAGUE
  0
ENDBLK
  5
31D63
  8
0
  0
BLOCK
  8
0
  2
*U82
 70
     1
 10
0.0
 20
0.0
 30
0.0
  3
*U82
  1

  0
TEXT
  5
31D65
  8
0
 10
6.0916813895717663
 20
1.1589680224542569
 30
0.0
 40
0.125
  1
TL-539
  0
ENDBLK
  5
31D67
  8
0
  0
BLOCK
  8
0
  2
*U83
 70
     1
 10
0.0
 20
0.0
 30
0.0
  3
*U83
  1

  0
INSERT
  5
31D69
  8
0
  2
_OPEN30
 10
5.5297396917334254
 20
1.423040350996984
 30
0.0
 41
0.046875
 42
0.046875
 43
0.046875
 50
156.5115553320598
  0
POLYLINE
  5
31D6A
  8
0
 66
     1
 10
0.0
 20
0.0
 30
0.0
  0
VERTEX
  5
31D6B
  8
0
 10
5.5727306514936332
 20
1.404357658367275
 30
0.0
  0
VERTEX
  5
31D6C
  8
0
 10
5.992991484785648
 20
1.221723820544298
 30
0.0
  0
VERTEX
  5
31D6D
  8
0
 10
6.0332741590124206
 20
1.221723820544298
 30
0.0
  0
SEQEND
  5
31D6E
  8
0
  0
ENDBLK
  5
31D70
  8
0
  0
BLOCK
  8
0
  2
*U84
 70
     1
 10
0.0
 20
0.0
 30
0.0
  3
*U84
  1

  0
TEXT
  5
31D72
  8
0
 10
8.2506161076617612
 20
3.659671552769634
 30
0.0
 40
0.125
  1
TL-25
  0
ENDBLK
  5
31D74
  8
0
  0
BLOCK
  8
0
  2
*U85
 70
     1
 10
0.0
 20
0.0
 30
0.0
  3
*U85
  1

  0
INSERT
  5
31D76
  8
0
  2
_OPEN30
 10
7.5943396585593632
 20
4.1117705265849054
 30
0.0
 41
0.046875
 42
0.046875
 43
0.046875
 50
143.83030806409641
  0
POLYLINE
  5
31D77
  8
0
 66
     1
 10
0.0
 20
0.0
 30
0.0
  0
VERTEX
  5
31D78
  8
0
 10
7.6321805623951144
 20
4.0841058989551424
 30
0.0
  0
VERTEX
  5
31D79
  8
0
 10
8.1269005109553518
 20
3.7224273508596748
 30
0.0
  0
VERTEX
  5
31D7A
  8
0
 10
8.1922088771024164
 20
3.7224273508596748
 30
0.0
  0
SEQEND
  5
31D7B
  8
0
  0
ENDBLK
  5
31D7D
  8
0
  0
BLOCK
  8
0
  2
*U86
 70
     1
 10
0.0
 20
0.0
 30
0.0
  3
*U86
  1

  0
TEXT
  5
31D7F
  8
0
 10
7.4510287652605358
 20
2.3081779177865811
 30
0.0
 40
0.125
  1
Crown Assembly
  0
TEXT
  5
31D80
  8
0
 10
7.4556331308812718
 20
2.0993329882731659
 30
0.0
 40
0.125
  1
TL-660
  0
TEXT
  5
31D81
  8
0
 10
7.4523930217407539
 20
1.888868004189491
 30
0.0
 40
0.125
  1
3-1/4" x 5-5/8"
  0
TEXT
  5
31D82
  8
0
 10
7.4526488198307952
 20
1.6784030201058171
 30
0.0
 40
0.125
  1
800.66.TAGUE
  0
ENDBLK
  5
31D84
  8
0
  0
BLOCK
  8
0
  2
*U87
 70
     1
 10
0.0
 20
0.0
 30
0.0
  3
*U87
  1

  0
TEXT
  5
31D86
  8
0
 10
11.100877515101759
 20
4.3482389803681532
 30
0.0
 40
0.125
  1
Crown Assembly
  0
TEXT
  5
31D87
  8
0
 10
11.1054818807225
 20
4.1393940508547384
 30
0.0
 40
0.125
  1
TL-661
  0
TEXT
  5
31D88
  8
0
 10
11.1073577333828
 20
3.928929066771063
 30
0.0
 40
0.125
  1
4-1/2" x 9-3/8"
  0
TEXT
  5
31D89
  8
0
 10
11.102497569672019
 20
3.7184640826873889
 30
0.0
 40
0.125
  1
800.66.TAGUE
  0
ENDBLK
  5
31D8B
  8
0
  0
BLOCK
  8
0
  2
*U88
 70
     1
 10
0.0
 20
0.0
 30
0.0
  3
*U88
  1

  0
TEXT
  5
31D8D
  8
0
 10
9.9973648083120619
 20
4.7141156879961379
 30
0.0
 40
0.125
  1
TL-238
  0
ENDBLK
  5
31D8F
  8
0
  0
BLOCK
  8
0
  2
*U89
 70
     1
 10
0.0
 20
0.0
 30
0.0
  3
*U89
  1

  0
INSERT
  5
31D91
  8
0
  2
_OPEN30
 10
9.1771961149673302
 20
5.3422014599419754
 30
0.0
 41
0.046875
 42
0.046875
 43
0.046875
 50
140.13823031629951
  0
POLYLINE
  5
31D92
  8
0
 66
     1
 10
0.0
 20
0.0
 30
0.0
  0
VERTEX
  5
31D93
  8
0
 10
9.2131770361390952
 20
5.3121575098582854
 30
0.0
  0
VERTEX
  5
31D94
  8
0
 10
9.8542406836302234
 20
4.7768714860861792
 30
0.0
  0
VERTEX
  5
31D95
  8
0
 10
9.938957577752717
 20
4.7768714860861792
 30
0.0
  0
SEQEND
  5
31D96
  8
0
  0
ENDBLK
  5
31D98
  8
0
  0
BLOCK
  8
0
  2
*U90
 70
     1
 10
0.0
 20
0.0
 30
0.0
  3
*U90
  1

  0
TEXT
  5
31D9A
  8
0
 10
9.2979572148710243
 20
1.0810665778271971
 30
0.0
 40
0.125
  1
TL-64
  0
ENDBLK
  5
31D9C
  8
0
  0
BLOCK
  8
0
  2
*U91
 70
     1
 10
0.0
 20
0.0
 30
0.0
  3
*U91
  1

  0
INSERT
  5
31D9E
  8
0
  2
_OPEN30
 10
8.6422745705577313
 20
1.642559297640787
 30
0.0
 41
0.046875
 42
0.046875
 43
0.046875
 50
135.79936825235271
  0
POLYLINE
  5
31D9F
  8
0
 66
     1
 10
0.0
 20
0.0
 30
0.0
  0
VERTEX
  5
31DA0
  8
0
 10
8.6758793949613793
 20
1.6098793129131279
 30
0.0
  0
VERTEX
  5
31DA1
  8
0
 10
9.1442411396712941
 20
1.1544073699477619
 30
0.0
  0
VERTEX
  5
31DA2
  8
0
 10
9.2395499843116795
 20
1.1438223759172379
 30
0.0
  0
SEQEND
  5
31DA3
  8
0
  0
ENDBLK
  5
31DA5
  8
0
  0
BLOCK
  8
0
  2
*U92
 70
     1
 10
0.0
 20
0.0
 30
0.0
  3
*U92
  1

  0
TEXT
  5
31DA7
  8
0
 10
8.7532801379956631
 20
2.9571153571353181
 30
0.0
 40
0.125
  1
1 x 6 Board
  0
ENDBLK
  5
31DA9
  8
0
  0
BLOCK
  8
0
  2
*U93
 70
     1
 10
0.0
 20
0.0
 30
0.0
  3
*U93
  1

  0
INSERT
  5
31DAB
  8
0
  2
_OPEN30
 10
8.1167699671577793
 20
3.019871155225359
 30
0.0
 41
0.046875
 42
0.046875
 43
0.046875
 50
180.0
  0
POLYLINE
  5
31DAC
  8
0
 66
     1
 10
0.0
 20
0.0
 30
0.0
  0
VERTEX
  5
31DAD
  8
0
 10
8.1636449671577793
 20
3.019871155225359
 30
0.0
  0
VERTEX
  5
31DAE
  8
0
 10
8.7097944626887056
 20
3.019871155225359
 30
0.0
  0
SEQEND
  5
31DAF
  8
0
  0
ENDBLK
  5
31DB1
  8
0
  0
BLOCK
  8
0
  2
*U94
 70
     1
 10
0.0
 20
0.0
 30
0.0
  3
*U94
  1

  0
TEXT
  5
31DB3
  8
0
 10
9.3508379695960624
 20
3.9746409328325849
 30
0.0
 40
0.125
  1
TL-54
  0
ENDBLK
  5
31DB5
  8
0
  0
BLOCK
  8
0
  2
*U95
 70
     1
 10
0.0
 20
0.0
 30
0.0
  3
*U95
  1

  0
INSERT
  5
31DB7
  8
0
  2
_OPEN30
 10
8.5596004878627241
 20
4.5802047155393657
 30
0.0
 41
0.046875
 42
0.046875
 43
0.046875
 50
140.0397693589118
  0
POLYLINE
  5
31DB8
  8
0
 66
     1
 10
0.0
 20
0.0
 30
0.0
  0
VERTEX
  5
31DB9
  8
0
 10
8.59552972636817
 20
4.5500989777902472
 30
0.0
  0
VERTEX
  5
31DBA
  8
0
 10
9.2077117660230652
 20
4.0371409328325853
 30
0.0
  0
VERTEX
  5
31DBB
  8
0
 10
9.2924307390367176
 20
4.0371409328325853
 30
0.0
  0
SEQEND
  5
31DBC
  8
0
  0
ENDBLK
  5
31DBE
  8
0
  0
BLOCK
  8
0
  2
*U96
 70
     1
 10
0.0
 20
0.0
 30
0.0
  3
*U96
  1

  0
TEXT
  5
31DC0
  8
0
 10
11.67173909884349
 20
7.0992410855625394
 30
0.0
 40
0.125
  1
TL-47
  0
ENDBLK
  5
31DC2
  8
0
  0
BLOCK
  8
0
  2
*U97
 70
     1
 10
0.0
 20
0.0
 30
0.0
  3
*U97
  1

  0
INSERT
  5
31DC4
  8
0
  2
_OPEN30
 10
10.865727544193421
 20
7.6405095440040887
 30
0.0
 41
0.046875
 42
0.046875
 43
0.046875
 50
143.72235556643869
  0
POLYLINE
  5
31DC5
  8
0
 66
     1
 10
0.0
 20
0.0
 30
0.0
  0
VERTEX
  5
31DC6
  8
0
 10
10.903516257235109
 20
7.6127736684698251
 30
0.0
  0
VERTEX
  5
31DC7
  8
0
 10
11.518025102534921
 20
7.1617410855625394
 30
0.0
  0
VERTEX
  5
31DC8
  8
0
 10
11.613331868284151
 20
7.1617410855625394
 30
0.0
  0
SEQEND
  5
31DC9
  8
0
  0
ENDBLK
  5
31DCB
  8
0
  0
BLOCK
  8
0
  2
*U98
 70
     1
 10
0.0
 20
0.0
 30
0.0
  3
*U98
  1

  0
TEXT
  5
31DCD
  8
0
 10
10.306078575796199
 20
1.991254863143028
 30
0.0
 40
0.125
  1
Crown Assembly
  0
TEXT
  5
31DCE
  8
0
 10
10.31068294141693
 20
1.7824099336296131
 30
0.0
 40
0.125
  1
TL-662
  0
TEXT
  5
31DCF
  8
0
 10
10.31255879407723
 20
1.5719449495459381
 30
0.0
 40
0.125
  1
4-3/8" x 5"
  0
TEXT
  5
31DD0
  8
0
 10
10.307698630366451
 20
1.361479965462264
 30
0.0
 40
0.125
  1
800.66.TAGUE
  0
ENDBLK
  5
31DD2
  8
0
  0
BLOCK
  8
0
  2
*U99
 70
     1
 10
0.0
 20
0.0
 30
0.0
  3
*U99
  1

  0
TEXT
  5
31DD4
  8
0
 10
8.4907133848708494
 20
0.0967622511747205
 30
0.0
 40
0.125
  1
TL-623
  0
ENDBLK
  5
31DD6
  8
0
  0
BLOCK
  8
0
  2
*U100
 70
     1
 10
0.0
 20
0.0
 30
0.0
  3
*U100
  1

  0
INSERT
  5
31DD8
  8
0
  2
_OPEN30
 10
7.8166701362065956
 20
0.6199995871735382
 30
0.0
 41
0.046875
 42
0.046875
 43
0.046875
 50
138.3966245586565
  0
POLYLINE
  5
31DD9
  8
0
 66
     1
 10
0.0
 20
0.0
 30
0.0
  0
VERTEX
  5
31DDA
  8
0
 10
7.8517213381880619
 20
0.588875980945235
 30
0.0
  0
VERTEX
  5
31DDB
  8
0
 10
8.3352614355432024
 20
0.1595180492647614
 30
0.0
  0
VERTEX
  5
31DDC
  8
0
 10
8.4323061543115045
 20
0.1595180492647614
 30
0.0
  0
SEQEND
  5
31DDD
  8
0
  0
ENDBLK
  5
31DDF
  8
0
  0
BLOCK
  8
0
  2
*U101
 70
     1
 10
0.0
 20
0.0
 30
0.0
  3
*U101
  1

  0
TEXT
  5
31DE1
  8
0
 10
9.5905632324050352
 20
2.4357622671589061
 30
0.0
 40
0.125
  1
TL-547
  0
ENDBLK
  5
31DE3
  8
0
  0
BLOCK
  8
0
  2
*U102
 70
     1
 10
0.0
 20
0.0
 30
0.0
  3
*U102
  1

  0
INSERT
  5
31DE5
  8
0
  2
_OPEN30
 10
8.9379372763926312
 20
3.012476083171463
 30
0.0
 41
0.046875
 42
0.046875
 43
0.046875
 50
134.64930297028991
  0
POLYLINE
  5
31DE6
  8
0
 66
     1
 10
0.0
 20
0.0
 30
0.0
  0
VERTEX
  5
31DE7
  8
0
 10
8.9708794087728574
 20
2.9791281965930958
 30
0.0
  0
VERTEX
  5
31DE8
  8
0
 10
9.4458944915828624
 20
2.4982622671589061
 30
0.0
  0
VERTEX
  5
31DE9
  8
0
 10
9.5321560018456921
 20
2.4982622671589061
 30
0.0
  0
SEQEND
  5
31DEA
  8
0
  0
ENDBLK
  5
31DEC
  8
0
  0
BLOCK
  8
0
  2
*U103
 70
     1
 10
0.0
 20
0.0
 30
0.0
  3
*U103
  1

  0
TEXT
  5
31DEE
  8
0
 10
11.520691030397129
 20
3.912039811269675
 30
0.0
 40
0.125
  1
TL-623
  0
ENDBLK
  5
31DF0
  8
0
  0
BLOCK
  8
0
  2
*U104
 70
     1
 10
0.0
 20
0.0
 30
0.0
  3
*U104
  1

  0
INSERT
  5
31DF2
  8
0
  2
_OPEN30
 10
11.020454893837719
 20
4.3488596077285129
 30
0.0
 41
0.046875
 42
0.046875
 43
0.046875
 50
131.85755087258991
  0
POLYLINE
  5
31DF3
  8
0
 66
     1
 10
0.0
 20
0.0
 30
0.0
  0
VERTEX
  5
31DF4
  8
0
 10
11.051733687379979
 20
4.3139468206793472
 30
0.0
  0
VERTEX
  5
31DF5
  8
0
 10
11.36523908106949
 20
3.9640181370855312
 30
0.0
  0
VERTEX
  5
31DF6
  8
0
 10
11.46302804287723
 20
3.9642485872277571
 30
0.0
  0
SEQEND
  5
31DF7
  8
0
  0
ENDBLK
  5
31DF9
  8
0
  0
BLOCK
  8
0
  2
*U105
 70
     1
 10
0.0
 20
0.0
 30
0.0
  3
*U105
  1

  0
TEXT
  5
31DFB
  8
0
 10
9.2456145386519548
 20
1.830235825918082
 30
0.0
 40
0.125
  1
Crown Assembly
  0
TEXT
  5
31DFC
  8
0
 10
9.2502189042726908
 20
1.621390896404667
 30
0.0
 40
0.125
  1
TL-663
  0
TEXT
  5
31DFD
  8
0
 10
9.2491957119125274
 20
1.4109259123209921
 30
0.0
 40
0.125
  1
2-11/16" x 4-1/4"
  0
TEXT
  5
31DFE
  8
0
 10
9.2472345932222133
 20
1.200460928237318
 30
0.0
 40
0.125
  1
800.66.TAGUE
  0
ENDBLK
  5
31E00
  8
0
  0
BLOCK
  8
0
  2
*U106
 70
     1
 10
0.0
 20
0.0
 30
0.0
  3
*U106
  1

  0
TEXT
  5
31E02
  8
0
 10
7.0011486317315006
 20
0.0994237416013103
 30
0.0
 40
0.125
  1
TL-56
  0
ENDBLK
  5
31E04
  8
0
  0
BLOCK
  8
0
  2
*U107
 70
     1
 10
0.0
 20
0.0
 30
0.0
  3
*U107
  1

  0
INSERT
  5
31E06
  8
0
  2
_OPEN30
 10
6.1447636050547771
 20
0.8025867523464285
 30
0.0
 41
0.046875
 42
0.046875
 43
0.046875
 50
136.0557062383902
  0
POLYLINE
  5
31E07
  8
0
 66
     1
 10
0.0
 20
0.0
 30
0.0
  0
VERTEX
  5
31E08
  8
0
 10
6.1785143010030019
 20
0.7700574402109038
 30
0.0
  0
VERTEX
  5
31E09
  8
0
 10
6.8092163001293784
 20
0.1621795396913512
 30
0.0
  0
VERTEX
  5
31E0A
  8
0
 10
6.9427414011721558
 20
0.1621795396913512
 30
0.0
  0
SEQEND
  5
31E0B
  8
0
  0
ENDBLK
  5
31E0D
  8
0
  0
BLOCK
  8
0
  2
*U108
 70
     1
 10
0.0
 20
0.0
 30
0.0
  3
*U108
  1

  0
TEXT
  5
31E0F
  8
0
 10
7.4758184206721721
 20
1.2018846043570841
 30
0.0
 40
0.125
  1
1-1/16" x 1-7/8"
  0
TEXT
  5
31E10
  8
0
 10
7.4943211491851329
 20
0.9914196202734098
 30
0.0
 40
0.125
  1
w/ 3/8" Bead
  0
ENDBLK
  5
31E12
  8
0
  0
BLOCK
  8
0
  2
*U109
 70
     1
 10
0.0
 20
0.0
 30
0.0
  3
*U109
  1

  0
INSERT
  5
31E14
  8
0
  2
_OPEN30
 10
6.8403616286130378
 20
1.6201217739683209
 30
0.0
 41
0.046875
 42
0.046875
 43
0.046875
 50
143.32430708272619
  0
POLYLINE
  5
31E15
  8
0
 66
     1
 10
0.0
 20
0.0
 30
0.0
  0
VERTEX
  5
31E16
  8
0
 10
6.8779567430390864
 20
1.592124041983527
 30
0.0
  0
VERTEX
  5
31E17
  8
0
 10
7.316611268313749
 20
1.265450429732254
 30
0.0
  0
VERTEX
  5
31E18
  8
0
 10
7.4323327453652146
 20
1.265450429732254
 30
0.0
  0
SEQEND
  5
31E19
  8
0
  0
ENDBLK
  5
31E1B
  8
0
  0
BLOCK
  8
0
  2
*U110
 70
     1
 10
0.0
 20
0.0
 30
0.0
  3
*U110
  1

  0
TEXT
  5
31E1D
  8
0
 10
8.2206740073252771
 20
2.3682472913577719
 30
0.0
 40
0.125
  1
TL-71
  0
ENDBLK
  5
31E1F
  8
0
  0
BLOCK
  8
0
  2
*U111
 70
     1
 10
0.0
 20
0.0
 30
0.0
  3
*U111
  1

  0
INSERT
  5
31E21
  8
0
  2
_OPEN30
 10
7.732786633242994
 20
2.897502127018015
 30
0.0
 41
0.046875
 42
0.046875
 43
0.046875
 50
127.3606991348481
  0
POLYLINE
  5
31E22
  8
0
 66
     1
 10
0.0
 20
0.0
 30
0.0
  0
VERTEX
  5
31E23
  8
0
 10
7.7612318262646021
 20
2.8602444215201781
 30
0.0
  0
VERTEX
  5
31E24
  8
0
 10
8.0821525476966372
 20
2.4399002980619571
 30
0.0
  0
VERTEX
  5
31E25
  8
0
 10
8.1622667767659323
 20
2.4310030894478132
 30
0.0
  0
SEQEND
  5
31E26
  8
0
  0
ENDBLK
  5
31E28
  8
0
  0
BLOCK
  8
0
  2
*U112
 70
     1
 10
0.0
 20
0.0
 30
0.0
  3
*U112
  1

  0
TEXT
  5
31E2A
  8
0
 10
8.3234330435333614
 20
1.414021240929644
 30
0.0
 40
0.125
  1
Crown Assembly
  0
TEXT
  5
31E2B
  8
0
 10
8.3280374091540974
 20
1.2051763114162291
 30
0.0
 40
0.125
  1
TL-664
  0
TEXT
  5
31E2C
  8
0
 10
8.3247973000135786
 20
0.9947113273325546
 30
0.0
 40
0.125
  1
3-1/16" x 4-1/4"
  0
TEXT
  5
31E2D
  8
0
 10
8.3250530981036182
 20
0.7842463432488803
 30
0.0
 40
0.125
  1
800.66.TAGUE
  0
ENDBLK
  5
31E2F
  8
0
  0
BLOCK
  8
0
  2
*U113
 70
     1
 10
0.0
 20
0.0
 30
0.0
  3
*U113
  1

  0
TEXT
  5
31E31
  8
0
 10
6.7733031137018482
 20
0.0417615579446075
 30
0.0
 40
0.125
  1
TL-B3
  0
ENDBLK
  5
31E33
  8
0
  0
BLOCK
  8
0
  2
*U114
 70
     1
 10
0.0
 20
0.0
 30
0.0
  3
*U114
  1

  0
INSERT
  5
31E35
  8
0
  2
_OPEN30
 10
6.0277617672714987
 20
0.5589010370247252
 30
0.0
 41
0.046875
 42
0.046875
 43
0.046875
 50
143.10777595702231
  0
POLYLINE
  5
31E36
  8
0
 66
     1
 10
0.0
 20
0.0
 30
0.0
  0
VERTEX
  5
31E37
  8
0
 10
6.065250804980173
 20
0.5307614265676202
 30
0.0
  0
VERTEX
  5
31E38
  8
0
 10
6.6427250972388938
 20
0.0973040047092582
 30
0.0
  0
VERTEX
  5
31E39
  8
0
 10
6.716868750864136
 20
0.0942112590512352
 30
0.0
  0
SEQEND
  5
31E3A
  8
0
  0
ENDBLK
  5
31E3C
  8
0
  0
BLOCK
  8
0
  2
*U115
 70
     1
 10
0.0
 20
0.0
 30
0.0
  3
*U115
  1

  0
TEXT
  5
31E3E
  8
0
 10
7.886387182432661
 20
2.2482273942292861
 30
0.0
 40
0.125
  1
TL-49
  0
ENDBLK
  5
31E40
  8
0
  0
BLOCK
  8
0
  2
*U116
 70
     1
 10
0.0
 20
0.0
 30
0.0
  3
*U116
  1

  0
INSERT
  5
31E42
  8
0
  2
_OPEN30
 10
7.253797201372719
 20
2.7268635825205361
 30
0.0
 41
0.046875
 42
0.046875
 43
0.046875
 50
136.21869819866211
  0
POLYLINE
  5
31E43
  8
0
 66
     1
 10
0.0
 20
0.0
 30
0.0
  0
VERTEX
  5
31E44
  8
0
 10
7.2876402982734163
 20
2.6944304140479658
 30
0.0
  0
VERTEX
  5
31E45
  8
0
 10
7.6877566634765344
 20
2.310983192319326
 30
0.0
  0
VERTEX
  5
31E46
  8
0
 10
7.8279799518733171
 20
2.310983192319326
 30
0.0
  0
SEQEND
  5
31E47
  8
0
  0
ENDBLK
  5
31E49
  8
0
  0
BLOCK
  8
0
  2
*U117
 70
     1
 10
0.0
 20
0.0
 30
0.0
  3
*U117
  1

  0
INSERT
  5
31E4B
  8
0
  6
CONTINUOUS
  2
_OPEN30
 10
16.890010925503759
 20
4.0998827605750421
 30
0.0
 41
0.046875
 42
0.046875
 43
0.046875
 50
220.32439975277339
  0
POLYLINE
  5
31E4C
  8
0
  6
CONTINUOUS
 66
     1
 10
0.0
 20
0.0
 30
0.0
  0
VERTEX
  5
31E4D
  8
0
  6
CONTINUOUS
 10
16.92574808899867
 20
4.1302162531259778
 30
0.0
  0
VERTEX
  5
31E4E
  8
0
  6
CONTINUOUS
 10
17.378553106259119
 20
4.5145544678824763
 30
0.0
  0
VERTEX
  5
31E4F
  8
0
  6
CONTINUOUS
 10
17.468327545948402
 20
4.5145544678824763
 30
0.0
  0
SEQEND
  5
31E50
  8
0
  6
CONTINUOUS
  0
ENDBLK
  5
31E52
  8
0
  0
BLOCK
  8
0
  2
*U118
 70
     1
 10
0.0
 20
0.0
 30
0.0
  3
*U118
  1

  0
TEXT
  5
31E54
  8
0
 10
17.526734776507741
 20
4.451798669792435
 30
0.0
 40
0.125
  1
TL-542
  0
ENDBLK
  5
31E56
  8
0
  0
BLOCK
  8
0
  2
*U119
 70
     1
 10
0.0
 20
0.0
 30
0.0
  3
*U119
  1

  0
INSERT
  5
31E58
  8
0
  6
CONTINUOUS
  2
_OPEN30
 10
13.390010925503759
 20
4.5373827605750421
 30
0.0
 41
0.046875
 42
0.046875
 43
0.046875
 50
110.44249644019671
  0
POLYLINE
  5
31E59
  8
0
  6
CONTINUOUS
 66
     1
 10
0.0
 20
0.0
 30
0.0
  0
VERTEX
  5
31E5A
  8
0
  6
CONTINUOUS
 10
13.40638282250643
 20
4.4934597983168567
 30
0.0
  0
VERTEX
  5
31E5B
  8
0
  6
CONTINUOUS
 10
13.78538853520223
 20
3.4766531563219578
 30
0.0
  0
VERTEX
  5
31E5C
  8
0
  6
CONTINUOUS
 10
13.93846127658429
 20
3.4766531563219578
 30
0.0
  0
SEQEND
  5
31E5D
  8
0
  6
CONTINUOUS
  0
ENDBLK
  5
31E5F
  8
0
  0
BLOCK
  8
0
  2
*U120
 70
     1
 10
0.0
 20
0.0
 30
0.0
  3
*U120
  1

  0
TEXT
  5
31E61
  8
0
 10
13.981946951891249
 20
3.413897358231917
 30
0.0
 40
0.125
  1
1 x 6 Board
  0
ENDBLK
  5
31E63
  8
0
  0
BLOCK
  8
0
  2
*U121
 70
     1
 10
0.0
 20
0.0
 30
0.0
  3
*U121
  1

  0
INSERT
  5
31E65
  8
0
  6
CONTINUOUS
  2
_OPEN30
 10
11.87770156644649
 20
2.3649564226565181
 30
0.0
 41
0.046875
 42
0.046875
 43
0.046875
 50
130.18882139360491
  0
POLYLINE
  5
31E66
  8
0
  6
CONTINUOUS
 66
     1
 10
0.0
 20
0.0
 30
0.0
  0
VERTEX
  5
31E67
  8
0
  6
CONTINUOUS
 10
11.907950409704521
 20
2.3291475814779599
 30
0.0
  0
VERTEX
  5
31E68
  8
0
  6
CONTINUOUS
 10
12.248739654318509
 20
1.9257183385265071
 30
0.0
  0
VERTEX
  5
31E69
  8
0
  6
CONTINUOUS
 10
12.312149687699391
 20
1.9257183385265071
 30
0.0
  0
SEQEND
  5
31E6A
  8
0
  6
CONTINUOUS
  0
ENDBLK
  5
31E6C
  8
0
  0
BLOCK
  8
0
  2
*U122
 70
     1
 10
0.0
 20
0.0
 30
0.0
  3
*U122
  1

  0
TEXT
  5
31E6E
  8
0
 10
12.37055691825873
 20
1.862962540436466
 30
0.0
 40
0.125
  1
TL-33
  0
ENDBLK
  5
31E70
  8
0
  0
BLOCK
  8
0
  2
*U123
 70
     1
 10
0.0
 20
0.0
 30
0.0
  3
*U123
  1

  0
INSERT
  5
31E72
  8
0
  6
CONTINUOUS
  2
_OPEN30
 10
18.394001282817442
 20
6.4209189786757861
 30
0.0
 41
0.046875
 42
0.046875
 43
0.046875
 50
123.0920274041645
  0
POLYLINE
  5
31E73
  8
0
  6
CONTINUOUS
 66
     1
 10
0.0
 20
0.0
 30
0.0
  0
VERTEX
  5
31E74
  8
0
  6
CONTINUOUS
 10
18.419594347917641
 20
6.38164735222899
 30
0.0
  0
VERTEX
  5
31E75
  8
0
  6
CONTINUOUS
 10
18.6491653891635
 20
6.0293789490693817
 30
0.0
  0
VERTEX
  5
31E76
  8
0
  6
CONTINUOUS
 10
18.752054828682841
 20
6.0293789490693817
 30
0.0
  0
SEQEND
  5
31E77
  8
0
  6
CONTINUOUS
  0
ENDBLK
  5
31E79
  8
0
  0
BLOCK
  8
0
  2
*U124
 70
     1
 10
0.0
 20
0.0
 30
0.0
  3
*U124
  1

  0
TEXT
  5
31E7B
  8
0
 10
18.810462059242191
 20
5.9666231509793421
 30
0.0
 40
0.125
  1
TL-24
  0
ENDBLK
  5
31E7D
  8
0
  0
BLOCK
  8
0
  2
*U125
 70
     1
 10
0.0
 20
0.0
 30
0.0
  3
*U125
  1

  0
TEXT
  5
31E7F
  8
0
 10
15.59678431273241
 20
2.213317815843554
 30
0.0
 40
0.125
  1
Crown Assembly
  0
TEXT
  5
31E80
  8
0
 10
15.60138867835315
 20
2.0044728863301389
 30
0.0
 40
0.125
  1
TL-665
  0
TEXT
  5
31E81
  8
0
 10
15.59840436730267
 20
1.7940079022464639
 30
0.0
 40
0.125
  1
8-3/8" x 7-7/8"
  0
TEXT
  5
31E82
  8
0
 10
15.59840436730267
 20
1.58354291816279
 30
0.0
 40
0.125
  1
800.66.TAGUE
  0
ENDBLK
  5
31E84
  8
0
  0
BLOCK
  8
0
  2
*U126
 70
     1
 10
0.0
 20
0.0
 30
0.0
  3
*U126
  1

  0
INSERT
  5
31E86
  8
0
  6
CONTINUOUS
  2
_OPEN30
 10
-360.1758933596617
 20
852.8513149819845
 30
0.0
 41
0.046875
 42
0.046875
 43
0.046875
 50
220.32439975277339
  0
POLYLINE
  5
31E87
  8
0
  6
CONTINUOUS
 66
     1
 10
0.0
 20
0.0
 30
0.0
  0
VERTEX
  5
31E88
  8
0
  6
CONTINUOUS
 10
-360.1401561961668
 20
852.88164847453538
 30
0.0
  0
VERTEX
  5
31E89
  8
0
  6
CONTINUOUS
 10
-359.6873511789064
 20
853.26598668929182
 30
0.0
  0
VERTEX
  5
31E8A
  8
0
  6
CONTINUOUS
 10
-359.59757673921712
 20
853.26598668929182
 30
0.0
  0
SEQEND
  5
31E8B
  8
0
  6
CONTINUOUS
  0
ENDBLK
  5
31E8D
  8
0
  0
BLOCK
  8
0
  2
*U127
 70
     1
 10
0.0
 20
0.0
 30
0.0
  3
*U127
  1

  0
TEXT
  5
31E8F
  8
0
 10
-359.53916950865772
 20
853.20323089120177
 30
0.0
 40
0.125
  1
TL-542
  0
ENDBLK
  5
31E91
  8
0
  0
BLOCK
  8
0
  2
*U128
 70
     1
 10
0.0
 20
0.0
 30
0.0
  3
*U128
  1

  0
INSERT
  5
31E93
  8
0
  6
CONTINUOUS
  2
_OPEN30
 10
-363.6758933596617
 20
853.2888149819845
 30
0.0
 41
0.046875
 42
0.046875
 43
0.046875
 50
110.44249644019671
  0
POLYLINE
  5
31E94
  8
0
  6
CONTINUOUS
 66
     1
 10
0.0
 20
0.0
 30
0.0
  0
VERTEX
  5
31E95
  8
0
  6
CONTINUOUS
 10
-363.65952146265897
 20
853.24489201972619
 30
0.0
  0
VERTEX
  5
31E96
  8
0
  6
CONTINUOUS
 10
-363.28051574996317
 20
852.22808537773142
 30
0.0
  0
VERTEX
  5
31E97
  8
0
  6
CONTINUOUS
 10
-363.12744300858122
 20
852.22808537773142
 30
0.0
  0
SEQEND
  5
31E98
  8
0
  6
CONTINUOUS
  0
ENDBLK
  5
31E9A
  8
0
  0
BLOCK
  8
0
  2
*U129
 70
     1
 10
0.0
 20
0.0
 30
0.0
  3
*U129
  1

  0
TEXT
  5
31E9C
  8
0
 10
-363.08395733327421
 20
852.16532957964125
 30
0.0
 40
0.125
  1
1 x 6 Board
  0
ENDBLK
  5
31E9E
  8
0
  0
BLOCK
  8
0
  2
*U130
 70
     1
 10
0.0
 20
0.0
 30
0.0
  3
*U130
  1

  0
INSERT
  5
31EA0
  8
0
  6
CONTINUOUS
  2
_OPEN30
 10
-365.18820271871903
 20
851.11638864406586
 30
0.0
 41
0.046875
 42
0.046875
 43
0.046875
 50
130.18882139360491
  0
POLYLINE
  5
31EA1
  8
0
  6
CONTINUOUS
 66
     1
 10
0.0
 20
0.0
 30
0.0
  0
VERTEX
  5
31EA2
  8
0
  6
CONTINUOUS
 10
-365.15795387546092
 20
851.08057980288743
 30
0.0
  0
VERTEX
  5
31EA3
  8
0
  6
CONTINUOUS
 10
-364.81716463084689
 20
850.67715055993597
 30
0.0
  0
VERTEX
  5
31EA4
  8
0
  6
CONTINUOUS
 10
-364.75375459746613
 20
850.67715055993597
 30
0.0
  0
SEQEND
  5
31EA5
  8
0
  6
CONTINUOUS
  0
ENDBLK
  5
31EA7
  8
0
  0
BLOCK
  8
0
  2
*U131
 70
     1
 10
0.0
 20
0.0
 30
0.0
  3
*U131
  1

  0
TEXT
  5
31EA9
  8
0
 10
-364.69534736690667
 20
850.61439476184592
 30
0.0
 40
0.125
  1
TL-33
  0
ENDBLK
  5
31EAB
  8
0
  0
BLOCK
  8
0
  2
*U132
 70
     1
 10
0.0
 20
0.0
 30
0.0
  3
*U132
  1

  0
INSERT
  5
31EAD
  8
0
  6
CONTINUOUS
  2
_OPEN30
 10
-358.67190300234802
 20
855.17235120008525
 30
0.0
 41
0.046875
 42
0.046875
 43
0.046875
 50
123.0920274041645
  0
POLYLINE
  5
31EAE
  8
0
  6
CONTINUOUS
 66
     1
 10
0.0
 20
0.0
 30
0.0
  0
VERTEX
  5
31EAF
  8
0
  6
CONTINUOUS
 10
-358.64630993724779
 20
855.1330795736385
 30
0.0
  0
VERTEX
  5
31EB0
  8
0
  6
CONTINUOUS
 10
-358.41673889600202
 20
854.78081117047896
 30
0.0
  0
VERTEX
  5
31EB1
  8
0
  6
CONTINUOUS
 10
-358.31384945648261
 20
854.78081117047896
 30
0.0
  0
SEQEND
  5
31EB2
  8
0
  6
CONTINUOUS
  0
ENDBLK
  5
31EB4
  8
0
  0
BLOCK
  8
0
  2
*U133
 70
     1
 10
0.0
 20
0.0
 30
0.0
  3
*U133
  1

  0
TEXT
  5
31EB6
  8
0
 10
-358.25544222592328
 20
854.71805537238879
 30
0.0
 40
0.125
  1
TL-24
  0
ENDBLK
  5
31EB8
  8
0
  0
BLOCK
  8
0
  2
*U134
 70
     1
 10
0.0
 20
0.0
 30
0.0
  3
*U134
  1

  0
TEXT
  5
31EBA
  8
0
 10
-361.46911997243302
 20
850.964750037253
 30
0.0
 40
0.125
  1
Crown Assembly
  0
TEXT
  5
31EBB
  8
0
 10
-361.46451560681231
 20
850.75590510773975
 30
0.0
 40
0.125
  1
TL-665
  0
TEXT
  5
31EBC
  8
0
 10
-361.46749991786282
 20
850.54544012365579
 30
0.0
 40
0.125
  1
8-3/8" x 7-7/8"
  0
TEXT
  5
31EBD
  8
0
 10
-361.46749991786282
 20
850.33497513957218
 30
0.0
 40
0.125
  1
800.66.TAGUE
  0
ENDBLK
  5
31EBF
  8
0
  0
ENDSEC
  0
SECTION
  2
ENTITIES
  0
INSERT
  5
31C12
  8
0
  2
*U126
 10
0.0
 20
0.0
 30
0.0
1001
ACAD
1000
DSTYLE
1002
{
1070
   147
1040
0.0625
1070
    77
1070
     0
1002
}
  0
INSERT
  5
31C13
  8
0
  2
*U127
 10
0.0
 20
0.0
 30
0.0
  0
INSERT
  5
31C14
  8
0
  2
*U128
 10
0.0
 20
0.0
 30
0.0
1001
ACAD
1000
DSTYLE
1002
{
1070
   147
1040
0.0625
1070
    77
1070
     0
1002
}
  0
INSERT
  5
31C15
  8
0
  2
*U129
 10
0.0
 20
0.0
 30
0.0
  0
INSERT
  5
31C16
  8
0
  2
*U130
 10
0.0
 20
0.0
 30
0.0
1001
ACAD
1000
DSTYLE
1002
{
1070
   147
1040
0.0625
1070
    77
1070
     0
1002
}
  0
INSERT
  5
31C17
  8
0
  2
*U131
 10
0.0
 20
0.0
 30
0.0
  0
INSERT
  5
31C18
  8
0
  2
*U132
 10
0.0
 20
0.0
 30
0.0
1001
ACAD
1000
DSTYLE
1002
{
1070
   147
1040
0.0625
1070
    77
1070
     0
1002
}
  0
INSERT
  5
31C19
  8
0
  2
*U133
 10
0.0
 20
0.0
 30
0.0
  0
LINE
  5
31C1A
  8
0
 10
-366.4258933596617
 20
849.72232765027047
 30
0.0
 11
-366.4258933596617
 21
849.03884511261788
 31
0.0
  0
LINE
  5
31C1B
  8
0
 10
-366.4258933596617
 20
849.03884511261788
 30
0.0
 11
-366.0898216423401
 21
849.03884511261811
 31
0.0
  0
LINE
  5
31C1C
  8
0
 10
-366.4258933596617
 20
849.72232765027047
 30
0.0
 11
-366.34587627957109
 21
849.80234473036103
 31
0.0
  0
ARC
  5
31C1D
  8
0
 10
-365.71783051083759
 20
849.11089291124551
 30
0.0
 40
0.3776234922651207
 50
92.750618092001005
 51
170.0918027348917
  0
LINE
  5
31C1E
  8
0
 10
-365.7359522482941
 20
849.48808133172247
 30
0.0
 11
-365.7359522482941
 21
849.6377714072222
 31
0.0
  0
LINE
  5
31C1F
  8
0
 10
-366.0898216423401
 20
849.03884511261811
 30
0.0
 11
-366.0898216423401
 21
849.17587059967798
 31
0.0
  0
ARC
  5
31C20
  8
0
 10
-365.73524488620251
 20
849.95289618792515
 30
0.0
 40
0.3151255746115558
 50
269.8713881076846
 51
90.0
  0
LINE
  5
31C21
  8
0
 10
-366.4258933596617
 20
853.2888149819845
 30
0.0
 11
-364.81488292183809
 21
853.2888149819845
 31
0.0
  0
LINE
  5
31C22
  8
0
 10
-364.81488292183809
 20
853.2888149819845
 30
0.0
 11
-364.81488292183809
 21
852.42387135462093
 31
0.0
  0
LINE
  5
31C23
  8
0
 10
-366.4258933596617
 20
853.2888149819845
 30
0.0
 11
-366.4258933596617
 21
852.6908292607668
 31
0.0
  0
LINE
  5
31C24
  8
0
 10
-365.08160650228717
 20
852.42387135462093
 30
0.0
 11
-365.08160650228717
 21
852.35446231047376
 31
0.0
  0
LINE
  5
31C25
  8
0
 10
-364.81488292183809
 20
852.42387135462093
 30
0.0
 11
-365.08160650228717
 21
852.42387135462093
 31
0.0
  0
LINE
  5
31C26
  8
0
 10
-366.4258933596617
 20
852.6908292607668
 30
0.0
 11
-366.34587627957109
 21
852.61081218067636
 31
0.0
  0
POLYLINE
  8
0
  5
31FA2
  66
     1
 10
0.000000
 20
0.000000
 30
0.000000
  70
     8
  0
VERTEX
  8
0
  5
31FA3
 10
-365.735
 20
850.268
 30
0.000000
  70
    32
  0
VERTEX
  8
0
  5
31FA4
 10
-365.740
 20
850.274
 30
0.000000
  70
    32
  0
VERTEX
  8
0
  5
31FA5
 10
-365.742
 20
850.281
 30
0.000000
  70
    32
  0
VERTEX
  8
0
  5
31FA6
 10
-365.743
 20
850.289
 30
0.000000
  70
    32
  0
VERTEX
  8
0
  5
31FA7
 10
-365.743
 20
850.298
 30
0.000000
  70
    32
  0
VERTEX
  8
0
  5
31FA8
 10
-365.742
 20
850.306
 30
0.000000
  70
    32
  0
VERTEX
  8
0
  5
31FA9
 10
-365.740
 20
850.313
 30
0.000000
  70
    32
  0
VERTEX
  8
0
  5
31FAA
 10
-365.739
 20
850.321
 30
0.000000
  70
    32
  0
VERTEX
  8
0
  5
31FAB
 10
-365.737
 20
850.328
 30
0.000000
  70
    32
  0
VERTEX
  8
0
  5
31FAC
 10
-365.734
 20
850.336
 30
0.000000
  70
    32
  0
VERTEX
  8
0
  5
31FAD
 10
-365.732
 20
850.343
 30
0.000000
  70
    32
  0
VERTEX
  8
0
  5
31FAE
 10
-365.729
 20
850.350
 30
0.000000
  70
    32
  0
VERTEX
  8
0
  5
31FAF
 10
-365.726
 20
850.356
 30
0.000000
  70
    32
  0
VERTEX
  8
0
  5
31FB0
 10
-365.723
 20
850.363
 30
0.000000
  70
    32
  0
VERTEX
  8
0
  5
31FB1
 10
-365.721
 20
850.370
 30
0.000000
  70
    32
  0
VERTEX
  8
0
  5
31FB2
 10
-365.718
 20
850.377
 30
0.000000
  70
    32
  0
VERTEX
  8
0
  5
31FB3
 10
-365.715
 20
850.384
 30
0.000000
  70
    32
  0
VERTEX
  8
0
  5
31FB4
 10
-365.712
 20
850.391
 30
0.000000
  70
    32
  0
VERTEX
  8
0
  5
31FB5
 10
-365.709
 20
850.398
 30
0.000000
  70
    32
  0
VERTEX
  8
0
  5
31FB6
 10
-365.706
 20
850.405
 30
0.000000
  70
    32
  0
VERTEX
  8
0
  5
31FB7
 10
-365.703
 20
850.411
 30
0.000000
  70
    32
  0
VERTEX
  8
0
  5
31FB8
 10
-365.700
 20
850.418
 30
0.000000
  70
    32
  0
VERTEX
  8
0
  5
31FB9
 10
-365.696
 20
850.425
 30
0.000000
  70
    32
  0
VERTEX
  8
0
  5
31FBA
 10
-365.693
 20
850.432
 30
0.000000
  70
    32
  0
VERTEX
  8
0
  5
31FBB
 10
-365.690
 20
850.438
 30
0.000000
  70
    32
  0
VERTEX
  8
0
  5
31FBC
 10
-365.687
 20
850.445
 30
0.000000
  70
    32
  0
VERTEX
  8
0
  5
31FBD
 10
-365.683
 20
850.452
 30
0.000000
  70
    32
  0
VERTEX
  8
0
  5
31FBE
 10
-365.680
 20
850.459
 30
0.000000
  70
    32
  0
VERTEX
  8
0
  5
31FBF
 10
-365.676
 20
850.465
 30
0.000000
  70
    32
  0
VERTEX
  8
0
  5
31FC0
 10
-365.673
 20
850.472
 30
0.000000
  70
    32
  0
VERTEX
  8
0
  5
31FC1
 10
-365.669
 20
850.479
 30
0.000000
  70
    32
  0
VERTEX
  8
0
  5
31FC2
 10
-365.666
 20
850.485
 30
0.000000
  70
    32
  0
VERTEX
  8
0
  5
31FC3
 10
-365.662
 20
850.492
 30
0.000000
  70
    32
  0
VERTEX
  8
0
  5
31FC4
 10
-365.659
 20
850.498
 30
0.000000
  70
    32
  0
VERTEX
  8
0
  5
31FC5
 10
-365.655
 20
850.505
 30
0.000000
  70
    32
  0
VERTEX
  8
0
  5
31FC6
 10
-365.651
 20
850.511
 30
0.000000
  70
    32
  0
VERTEX
  8
0
  5
31FC7
 10
-365.648
 20
850.518
 30
0.000000
  70
    32
  0
VERTEX
  8
0
  5
31FC8
 10
-365.644
 20
850.525
 30
0.000000
  70
    32
  0
VERTEX
  8
0
  5
31FC9
 10
-365.640
 20
850.531
 30
0.000000
  70
    32
  0
VERTEX
  8
0
  5
31FCA
 10
-365.636
 20
850.538
 30
0.000000
  70
    32
  0
VERTEX
  8
0
  5
31FCB
 10
-365.632
 20
850.544
 30
0.000000
  70
    32
  0
VERTEX
  8
0
  5
31FCC
 10
-365.629
 20
850.551
 30
0.000000
  70
    32
  0
VERTEX
  8
0
  5
31FCD
 10
-365.625
 20
850.557
 30
0.000000
  70
    32
  0
VERTEX
  8
0
  5
31FCE
 10
-365.621
 20
850.564
 30
0.000000
  70
    32
  0
VERTEX
  8
0
  5
31FCF
 10
-365.617
 20
850.570
 30
0.000000
  70
    32
  0
VERTEX
  8
0
  5
31FD0
 10
-365.613
 20
850.576
 30
0.000000
  70
    32
  0
VERTEX
  8
0
  5
31FD1
 10
-365.609
 20
850.583
 30
0.000000
  70
    32
  0
VERTEX
  8
0
  5
31FD2
 10
-365.605
 20
850.589
 30
0.000000
  70
    32
  0
VERTEX
  8
0
  5
31FD3
 10
-365.600
 20
850.596
 30
0.000000
  70
    32
  0
VERTEX
  8
0
  5
31FD4
 10
-365.596
 20
850.602
 30
0.000000
  70
    32
  0
VERTEX
  8
0
  5
31FD5
 10
-365.592
 20
850.608
 30
0.000000
  70
    32
  0
VERTEX
  8
0
  5
31FD6
 10
-365.588
 20
850.615
 30
0.000000
  70
    32
  0
VERTEX
  8
0
  5
31FD7
 10
-365.584
 20
850.621
 30
0.000000
  70
    32
  0
VERTEX
  8
0
  5
31FD8
 10
-365.580
 20
850.627
 30
0.000000
  70
    32
  0
VERTEX
  8
0
  5
31FD9
 10
-365.575
 20
850.634
 30
0.000000
  70
    32
  0
VERTEX
  8
0
  5
31FDA
 10
-365.571
 20
850.640
 30
0.000000
  70
    32
  0
VERTEX
  8
0
  5
31FDB
 10
-365.567
 20
850.646
 30
0.000000
  70
    32
  0
VERTEX
  8
0
  5
31FDC
 10
-365.562
 20
850.653
 30
0.000000
  70
    32
  0
VERTEX
  8
0
  5
31FDD
 10
-365.558
 20
850.659
 30
0.000000
  70
    32
  0
VERTEX
  8
0
  5
31FDE
 10
-365.553
 20
850.665
 30
0.000000
  70
    32
  0
VERTEX
  8
0
  5
31FDF
 10
-365.549
 20
850.671
 30
0.000000
  70
    32
  0
VERTEX
  8
0
  5
31FE0
 10
-365.545
 20
850.678
 30
0.000000
  70
    32
  0
VERTEX
  8
0
  5
31FE1
 10
-365.540
 20
850.684
 30
0.000000
  70
    32
  0
VERTEX
  8
0
  5
31FE2
 10
-365.536
 20
850.690
 30
0.000000
  70
    32
  0
VERTEX
  8
0
  5
31FE3
 10
-365.531
 20
850.696
 30
0.000000
  70
    32
  0
VERTEX
  8
0
  5
31FE4
 10
-365.527
 20
850.703
 30
0.000000
  70
    32
  0
VERTEX
  8
0
  5
31FE5
 10
-365.522
 20
850.709
 30
0.000000
  70
    32
  0
VERTEX
  8
0
  5
31FE6
 10
-365.517
 20
850.715
 30
0.000000
  70
    32
  0
VERTEX
  8
0
  5
31FE7
 10
-365.513
 20
850.721
 30
0.000000
  70
    32
  0
VERTEX
  8
0
  5
31FE8
 10
-365.508
 20
850.727
 30
0.000000
  70
    32
  0
VERTEX
  8
0
  5
31FE9
 10
-365.504
 20
850.734
 30
0.000000
  70
    32
  0
VERTEX
  8
0
  5
31FEA
 10
-365.499
 20
850.740
 30
0.000000
  70
    32
  0
VERTEX
  8
0
  5
31FEB
 10
-365.494
 20
850.746
 30
0.000000
  70
    32
  0
VERTEX
  8
0
  5
31FEC
 10
-365.490
 20
850.752
 30
0.000000
  70
    32
  0
VERTEX
  8
0
  5
31FED
 10
-365.485
 20
850.758
 30
0.000000
  70
    32
  0
VERTEX
  8
0
  5
31FEE
 10
-365.480
 20
850.764
 30
0.000000
  70
    32
  0
VERTEX
  8
0
  5
31FEF
 10
-365.475
 20
850.770
 30
0.000000
  70
    32
  0
VERTEX
  8
0
  5
31FF0
 10
-365.471
 20
850.776
 30
0.000000
  70
    32
  0
VERTEX
  8
0
  5
31FF1
 10
-365.466
 20
850.783
 30
0.000000
  70
    32
  0
VERTEX
  8
0
  5
31FF2
 10
-365.461
 20
850.789
 30
0.000000
  70
    32
  0
VERTEX
  8
0
  5
31FF3
 10
-365.456
 20
850.795
 30
0.000000
  70
    32
  0
VERTEX
  8
0
  5
31FF4
 10
-365.451
 20
850.801
 30
0.000000
  70
    32
  0
VERTEX
  8
0
  5
31FF5
 10
-365.446
 20
850.807
 30
0.000000
  70
    32
  0
VERTEX
  8
0
  5
31FF6
 10
-365.442
 20
850.813
 30
0.000000
  70
    32
  0
VERTEX
  8
0
  5
31FF7
 10
-365.437
 20
850.819
 30
0.000000
  70
    32
  0
VERTEX
  8
0
  5
31FF8
 10
-365.432
 20
850.825
 30
0.000000
  70
    32
  0
VERTEX
  8
0
  5
31FF9
 10
-365.427
 20
850.831
 30
0.000000
  70
    32
  0
VERTEX
  8
0
  5
31FFA
 10
-365.422
 20
850.837
 30
0.000000
  70
    32
  0
VERTEX
  8
0
  5
31FFB
 10
-365.417
 20
850.843
 30
0.000000
  70
    32
  0
VERTEX
  8
0
  5
31FFC
 10
-365.412
 20
850.849
 30
0.000000
  70
    32
  0
VERTEX
  8
0
  5
31FFD
 10
-365.407
 20
850.855
 30
0.000000
  70
    32
  0
VERTEX
  8
0
  5
31FFE
 10
-365.402
 20
850.861
 30
0.000000
  70
    32
  0
VERTEX
  8
0
  5
31FFF
 10
-365.397
 20
850.867
 30
0.000000
  70
    32
  0
VERTEX
  8
0
  5
32000
 10
-365.392
 20
850.873
 30
0.000000
  70
    32
  0
VERTEX
  8
0
  5
32001
 10
-365.387
 20
850.879
 30
0.000000
  70
    32
  0
VERTEX
  8
0
  5
32002
 10
-365.382
 20
850.885
 30
0.000000
  70
    32
  0
VERTEX
  8
0
  5
32003
 10
-365.377
 20
850.891
 30
0.000000
  70
    32
  0
VERTEX
  8
0
  5
32004
 10
-365.372
 20
850.897
 30
0.000000
  70
    32
  0
VERTEX
  8
0
  5
32005
 10
-365.367
 20
850.903
 30
0.000000
  70
    32
  0
VERTEX
  8
0
  5
32006
 10
-365.362
 20
850.909
 30
0.000000
  70
    32
  0
VERTEX
  8
0
  5
32007
 10
-365.357
 20
850.915
 30
0.000000
  70
    32
  0
VERTEX
  8
0
  5
32008
 10
-365.352
 20
850.921
 30
0.000000
  70
    32
  0
VERTEX
  8
0
  5
32009
 10
-365.347
 20
850.927
 30
0.000000
  70
    32
  0
VERTEX
  8
0
  5
3200A
 10
-365.342
 20
850.933
 30
0.000000
  70
    32
  0
VERTEX
  8
0
  5
3200B
 10
-365.337
 20
850.939
 30
0.000000
  70
    32
  0
VERTEX
  8
0
  5
3200C
 10
-365.332
 20
850.945
 30
0.000000
  70
    32
  0
VERTEX
  8
0
  5
3200D
 10
-365.327
 20
850.951
 30
0.000000
  70
    32
  0
VERTEX
  8
0
  5
3200E
 10
-365.322
 20
850.957
 30
0.000000
  70
    32
  0
VERTEX
  8
0
  5
3200F
 10
-365.317
 20
850.963
 30
0.000000
  70
    32
  0
VERTEX
  8
0
  5
32010
 10
-365.312
 20
850.969
 30
0.000000
  70
    32
  0
VERTEX
  8
0
  5
32011
 10
-365.307
 20
850.975
 30
0.000000
  70
    32
  0
VERTEX
  8
0
  5
32012
 10
-365.302
 20
850.981
 30
0.000000
  70
    32
  0
VERTEX
  8
0
  5
32013
 10
-365.297
 20
850.987
 30
0.000000
  70
    32
  0
VERTEX
  8
0
  5
32014
 10
-365.292
 20
850.993
 30
0.000000
  70
    32
  0
VERTEX
  8
0
  5
32015
 10
-365.287
 20
850.999
 30
0.000000
  70
    32
  0
VERTEX
  8
0
  5
32016
 10
-365.282
 20
851.005
 30
0.000000
  70
    32
  0
VERTEX
  8
0
  5
32017
 10
-365.277
 20
851.011
 30
0.000000
  70
    32
  0
VERTEX
  8
0
  5
32018
 10
-365.272
 20
851.017
 30
0.000000
  70
    32
  0
VERTEX
  8
0
  5
32019
 10
-365.267
 20
851.023
 30
0.000000
  70
    32
  0
VERTEX
  8
0
  5
3201A
 10
-365.262
 20
851.029
 30
0.000000
  70
    32
  0
VERTEX
  8
0
  5
3201B
 10
-365.257
 20
851.035
 30
0.000000
  70
    32
  0
VERTEX
  8
0
  5
3201C
 10
-365.252
 20
851.041
 30
0.000000
  70
    32
  0
VERTEX
  8
0
  5
3201D
 10
-365.247
 20
851.047
 30
0.000000
  70
    32
  0
VERTEX
  8
0
  5
3201E
 10
-365.242
 20
851.053
 30
0.000000
  70
    32
  0
VERTEX
  8
0
  5
3201F
 10
-365.237
 20
851.058
 30
0.000000
  70
    32
  0
VERTEX
  8
0
  5
32020
 10
-365.232
 20
851.064
 30
0.000000
  70
    32
  0
VERTEX
  8
0
  5
32021
 10
-365.227
 20
851.070
 30
0.000000
  70
    32
  0
VERTEX
  8
0
  5
32022
 10
-365.222
 20
851.076
 30
0.000000
  70
    32
  0
VERTEX
  8
0
  5
32023
 10
-365.217
 20
851.082
 30
0.000000
  70
    32
  0
VERTEX
  8
0
  5
32024
 10
-365.212
 20
851.088
 30
0.000000
  70
    32
  0
VERTEX
  8
0
  5
32025
 10
-365.207
 20
851.094
 30
0.000000
  70
    32
  0
VERTEX
  8
0
  5
32026
 10
-365.202
 20
851.100
 30
0.000000
  70
    32
  0
VERTEX
  8
0
  5
32027
 10
-365.197
 20
851.106
 30
0.000000
  70
    32
  0
VERTEX
  8
0
  5
32028
 10
-365.192
 20
851.112
 30
0.000000
  70
    32
  0
VERTEX
  8
0
  5
32029
 10
-365.187
 20
851.118
 30
0.000000
  70
    32
  0
VERTEX
  8
0
  5
3202A
 10
-365.182
 20
851.124
 30
0.000000
  70
    32
  0
VERTEX
  8
0
  5
3202B
 10
-365.177
 20
851.130
 30
0.000000
  70
    32
  0
VERTEX
  8
0
  5
3202C
 10
-365.172
 20
851.136
 30
0.000000
  70
    32
  0
VERTEX
  8
0
  5
3202D
 10
-365.167
 20
851.142
 30
0.000000
  70
    32
  0
VERTEX
  8
0
  5
3202E
 10
-365.162
 20
851.148
 30
0.000000
  70
    32
  0
VERTEX
  8
0
  5
3202F
 10
-365.157
 20
851.154
 30
0.000000
  70
    32
  0
VERTEX
  8
0
  5
32030
 10
-365.153
 20
851.160
 30
0.000000
  70
    32
  0
VERTEX
  8
0
  5
32031
 10
-365.148
 20
851.166
 30
0.000000
  70
    32
  0
VERTEX
  8
0
  5
32032
 10
-365.143
 20
851.172
 30
0.000000
  70
    32
  0
VERTEX
  8
0
  5
32033
 10
-365.138
 20
851.178
 30
0.000000
  70
    32
  0
VERTEX
  8
0
  5
32034
 10
-365.133
 20
851.184
 30
0.000000
  70
    32
  0
VERTEX
  8
0
  5
32035
 10
-365.129
 20
851.190
 30
0.000000
  70
    32
  0
VERTEX
  8
0
  5
32036
 10
-365.124
 20
851.196
 30
0.000000
  70
    32
  0
VERTEX
  8
0
  5
32037
 10
-365.119
 20
851.202
 30
0.000000
  70
    32
  0
VERTEX
  8
0
  5
32038
 10
-365.114
 20
851.208
 30
0.000000
  70
    32
  0
VERTEX
  8
0
  5
32039
 10
-365.110
 20
851.214
 30
0.000000
  70
    32
  0
VERTEX
  8
0
  5
3203A
 10
-365.105
 20
851.220
 30
0.000000
  70
    32
  0
VERTEX
  8
0
  5
3203B
 10
-365.100
 20
851.227
 30
0.000000
  70
    32
  0
VERTEX
  8
0
  5
3203C
 10
-365.096
 20
851.233
 30
0.000000
  70
    32
  0
VERTEX
  8
0
  5
3203D
 10
-365.091
 20
851.239
 30
0.000000
  70
    32
  0
VERTEX
  8
0
  5
3203E
 10
-365.086
 20
851.245
 30
0.000000
  70
    32
  0
VERTEX
  8
0
  5
3203F
 10
-365.082
 20
851.251
 30
0.000000
  70
    32
  0
VERTEX
  8
0
  5
32040
 10
-365.077
 20
851.257
 30
0.000000
  70
    32
  0
VERTEX
  8
0
  5
32041
 10
-365.073
 20
851.263
 30
0.000000
  70
    32
  0
VERTEX
  8
0
  5
32042
 10
-365.068
 20
851.269
 30
0.000000
  70
    32
  0
VERTEX
  8
0
  5
32043
 10
-365.064
 20
851.276
 30
0.000000
  70
    32
  0
VERTEX
  8
0
  5
32044
 10
-365.059
 20
851.282
 30
0.000000
  70
    32
  0
VERTEX
  8
0
  5
32045
 10
-365.055
 20
851.288
 30
0.000000
  70
    32
  0
VERTEX
  8
0
  5
32046
 10
-365.050
 20
851.294
 30
0.000000
  70
    32
  0
VERTEX
  8
0
  5
32047
 10
-365.046
 20
851.301
 30
0.000000
  70
    32
  0
VERTEX
  8
0
  5
32048
 10
-365.042
 20
851.307
 30
0.000000
  70
    32
  0
VERTEX
  8
0
  5
32049
 10
-365.037
 20
851.313
 30
0.000000
  70
    32
  0
VERTEX
  8
0
  5
3204A
 10
-365.033
 20
851.319
 30
0.000000
  70
    32
  0
VERTEX
  8
0
  5
3204B
 10
-365.029
 20
851.326
 30
0.000000
  70
    32
  0
VERTEX
  8
0
  5
3204C
 10
-365.024
 20
851.332
 30
0.000000
  70
    32
  0
VERTEX
  8
0
  5
3204D
 10
-365.020
 20
851.338
 30
0.000000
  70
    32
  0
VERTEX
  8
0
  5
3204E
 10
-365.016
 20
851.345
 30
0.000000
  70
    32
  0
VERTEX
  8
0
  5
3204F
 10
-365.012
 20
851.351
 30
0.000000
  70
    32
  0
VERTEX
  8
0
  5
32050
 10
-365.008
 20
851.357
 30
0.000000
  70
    32
  0
VERTEX
  8
0
  5
32051
 10
-365.003
 20
851.364
 30
0.000000
  70
    32
  0
VERTEX
  8
0
  5
32052
 10
-364.999
 20
851.370
 30
0.000000
  70
    32
  0
VERTEX
  8
0
  5
32053
 10
-364.995
 20
851.377
 30
0.000000
  70
    32
  0
VERTEX
  8
0
  5
32054
 10
-364.991
 20
851.383
 30
0.000000
  70
    32
  0
VERTEX
  8
0
  5
32055
 10
-364.987
 20
851.390
 30
0.000000
  70
    32
  0
VERTEX
  8
0
  5
32056
 10
-364.983
 20
851.396
 30
0.000000
  70
    32
  0
VERTEX
  8
0
  5
32057
 10
-364.979
 20
851.403
 30
0.000000
  70
    32
  0
VERTEX
  8
0
  5
32058
 10
-364.975
 20
851.409
 30
0.000000
  70
    32
  0
VERTEX
  8
0
  5
32059
 10
-364.972
 20
851.416
 30
0.000000
  70
    32
  0
VERTEX
  8
0
  5
3205A
 10
-364.968
 20
851.422
 30
0.000000
  70
    32
  0
VERTEX
  8
0
  5
3205B
 10
-364.964
 20
851.429
 30
0.000000
  70
    32
  0
VERTEX
  8
0
  5
3205C
 10
-364.960
 20
851.435
 30
0.000000
  70
    32
  0
VERTEX
  8
0
  5
3205D
 10
-364.956
 20
851.442
 30
0.000000
  70
    32
  0
VERTEX
  8
0
  5
3205E
 10
-364.953
 20
851.449
 30
0.000000
  70
    32
  0
VERTEX
  8
0
  5
3205F
 10
-364.949
 20
851.455
 30
0.000000
  70
    32
  0
VERTEX
  8
0
  5
32060
 10
-364.945
 20
851.462
 30
0.000000
  70
    32
  0
VERTEX
  8
0
  5
32061
 10
-364.942
 20
851.469
 30
0.000000
  70
    32
  0
VERTEX
  8
0
  5
32062
 10
-364.938
 20
851.476
 30
0.000000
  70
    32
  0
VERTEX
  8
0
  5
32063
 10
-364.935
 20
851.482
 30
0.000000
  70
    32
  0
VERTEX
  8
0
  5
32064
 10
-364.931
 20
851.489
 30
0.000000
  70
    32
  0
VERTEX
  8
0
  5
32065
 10
-364.928
 20
851.496
 30
0.000000
  70
    32
  0
VERTEX
  8
0
  5
32066
 10
-364.925
 20
851.503
 30
0.000000
  70
    32
  0
VERTEX
  8
0
  5
32067
 10
-364.921
 20
851.510
 30
0.000000
  70
    32
  0
VERTEX
  8
0
  5
32068
 10
-364.918
 20
851.517
 30
0.000000
  70
    32
  0
VERTEX
  8
0
  5
32069
 10
-364.915
 20
851.524
 30
0.000000
  70
    32
  0
VERTEX
  8
0
  5
3206A
 10
-364.911
 20
851.531
 30
0.000000
  70
    32
  0
VERTEX
  8
0
  5
3206B
 10
-364.908
 20
851.538
 30
0.000000
  70
    32
  0
VERTEX
  8
0
  5
3206C
 10
-364.905
 20
851.545
 30
0.000000
  70
    32
  0
VERTEX
  8
0
  5
3206D
 10
-364.902
 20
851.552
 30
0.000000
  70
    32
  0
VERTEX
  8
0
  5
3206E
 10
-364.899
 20
851.559
 30
0.000000
  70
    32
  0
VERTEX
  8
0
  5
3206F
 10
-364.896
 20
851.566
 30
0.000000
  70
    32
  0
VERTEX
  8
0
  5
32070
 10
-364.893
 20
851.573
 30
0.000000
  70
    32
  0
VERTEX
  8
0
  5
32071
 10
-364.890
 20
851.580
 30
0.000000
  70
    32
  0
VERTEX
  8
0
  5
32072
 10
-364.887
 20
851.587
 30
0.000000
  70
    32
  0
VERTEX
  8
0
  5
32073
 10
-364.885
 20
851.594
 30
0.000000
  70
    32
  0
VERTEX
  8
0
  5
32074
 10
-364.882
 20
851.601
 30
0.000000
  70
    32
  0
VERTEX
  8
0
  5
32075
 10
-364.879
 20
851.609
 30
0.000000
  70
    32
  0
VERTEX
  8
0
  5
32076
 10
-364.877
 20
851.616
 30
0.000000
  70
    32
  0
VERTEX
  8
0
  5
32077
 10
-364.874
 20
851.623
 30
0.000000
  70
    32
  0
VERTEX
  8
0
  5
32078
 10
-364.872
 20
851.630
 30
0.000000
  70
    32
  0
VERTEX
  8
0
  5
32079
 10
-364.869
 20
851.638
 30
0.000000
  70
    32
  0
VERTEX
  8
0
  5
3207A
 10
-364.867
 20
851.645
 30
0.000000
  70
    32
  0
VERTEX
  8
0
  5
3207B
 10
-364.864
 20
851.652
 30
0.000000
  70
    32
  0
VERTEX
  8
0
  5
3207C
 10
-364.862
 20
851.660
 30
0.000000
  70
    32
  0
VERTEX
  8
0
  5
3207D
 10
-364.860
 20
851.667
 30
0.000000
  70
    32
  0
VERTEX
  8
0
  5
3207E
 10
-364.858
 20
851.674
 30
0.000000
  70
    32
  0
VERTEX
  8
0
  5
3207F
 10
-364.856
 20
851.682
 30
0.000000
  70
    32
  0
VERTEX
  8
0
  5
32080
 10
-364.854
 20
851.689
 30
0.000000
  70
    32
  0
VERTEX
  8
0
  5
32081
 10
-364.852
 20
851.697
 30
0.000000
  70
    32
  0
VERTEX
  8
0
  5
32082
 10
-364.850
 20
851.704
 30
0.000000
  70
    32
  0
VERTEX
  8
0
  5
32083
 10
-364.848
 20
851.712
 30
0.000000
  70
    32
  0
VERTEX
  8
0
  5
32084
 10
-364.846
 20
851.719
 30
0.000000
  70
    32
  0
VERTEX
  8
0
  5
32085
 10
-364.845
 20
851.727
 30
0.000000
  70
    32
  0
VERTEX
  8
0
  5
32086
 10
-364.843
 20
851.734
 30
0.000000
  70
    32
  0
VERTEX
  8
0
  5
32087
 10
-364.842
 20
851.742
 30
0.000000
  70
    32
  0
VERTEX
  8
0
  5
32088
 10
-364.840
 20
851.749
 30
0.000000
  70
    32
  0
VERTEX
  8
0
  5
32089
 10
-364.839
 20
851.757
 30
0.000000
  70
    32
  0
VERTEX
  8
0
  5
3208A
 10
-364.837
 20
851.764
 30
0.000000
  70
    32
  0
VERTEX
  8
0
  5
3208B
 10
-364.836
 20
851.772
 30
0.000000
  70
    32
  0
VERTEX
  8
0
  5
3208C
 10
-364.835
 20
851.780
 30
0.000000
  70
    32
  0
VERTEX
  8
0
  5
3208D
 10
-364.834
 20
851.787
 30
0.000000
  70
    32
  0
VERTEX
  8
0
  5
3208E
 10
-364.833
 20
851.795
 30
0.000000
  70
    32
  0
VERTEX
  8
0
  5
3208F
 10
-364.832
 20
851.803
 30
0.000000
  70
    32
  0
VERTEX
  8
0
  5
32090
 10
-364.831
 20
851.810
 30
0.000000
  70
    32
  0
VERTEX
  8
0
  5
32091
 10
-364.830
 20
851.818
 30
0.000000
  70
    32
  0
VERTEX
  8
0
  5
32092
 10
-364.830
 20
851.826
 30
0.000000
  70
    32
  0
VERTEX
  8
0
  5
32093
 10
-364.829
 20
851.834
 30
0.000000
  70
    32
  0
VERTEX
  8
0
  5
32094
 10
-364.829
 20
851.841
 30
0.000000
  70
    32
  0
VERTEX
  8
0
  5
32095
 10
-364.828
 20
851.849
 30
0.000000
  70
    32
  0
VERTEX
  8
0
  5
32096
 10
-364.828
 20
851.857
 30
0.000000
  70
    32
  0
VERTEX
  8
0
  5
32097
 10
-364.828
 20
851.865
 30
0.000000
  70
    32
  0
VERTEX
  8
0
  5
32098
 10
-364.828
 20
851.872
 30
0.000000
  70
    32
  0
VERTEX
  8
0
  5
32099
 10
-364.827
 20
851.880
 30
0.000000
  70
    32
  0
VERTEX
  8
0
  5
3209A
 10
-364.827
 20
851.888
 30
0.000000
  70
    32
  0
VERTEX
  8
0
  5
3209B
 10
-364.828
 20
851.896
 30
0.000000
  70
    32
  0
VERTEX
  8
0
  5
3209C
 10
-364.828
 20
851.904
 30
0.000000
  70
    32
  0
VERTEX
  8
0
  5
3209D
 10
-364.828
 20
851.912
 30
0.000000
  70
    32
  0
VERTEX
  8
0
  5
3209E
 10
-364.828
 20
851.919
 30
0.000000
  70
    32
  0
VERTEX
  8
0
  5
3209F
 10
-364.829
 20
851.927
 30
0.000000
  70
    32
  0
VERTEX
  8
0
  5
320A0
 10
-364.829
 20
851.935
 30
0.000000
  70
    32
  0
VERTEX
  8
0
  5
320A1
 10
-364.830
 20
851.943
 30
0.000000
  70
    32
  0
VERTEX
  8
0
  5
320A2
 10
-364.831
 20
851.951
 30
0.000000
  70
    32
  0
VERTEX
  8
0
  5
320A3
 10
-364.832
 20
851.958
 30
0.000000
  70
    32
  0
VERTEX
  8
0
  5
320A4
 10
-364.833
 20
851.966
 30
0.000000
  70
    32
  0
VERTEX
  8
0
  5
320A5
 10
-364.834
 20
851.974
 30
0.000000
  70
    32
  0
VERTEX
  8
0
  5
320A6
 10
-364.835
 20
851.982
 30
0.000000
  70
    32
  0
VERTEX
  8
0
  5
320A7
 10
-364.836
 20
851.989
 30
0.000000
  70
    32
  0
VERTEX
  8
0
  5
320A8
 10
-364.837
 20
851.997
 30
0.000000
  70
    32
  0
VERTEX
  8
0
  5
320A9
 10
-364.839
 20
852.005
 30
0.000000
  70
    32
  0
VERTEX
  8
0
  5
320AA
 10
-364.840
 20
852.012
 30
0.000000
  70
    32
  0
VERTEX
  8
0
  5
320AB
 10
-364.842
 20
852.020
 30
0.000000
  70
    32
  0
VERTEX
  8
0
  5
320AC
 10
-364.843
 20
852.028
 30
0.000000
  70
    32
  0
VERTEX
  8
0
  5
320AD
 10
-364.845
 20
852.035
 30
0.000000
  70
    32
  0
VERTEX
  8
0
  5
320AE
 10
-364.847
 20
852.043
 30
0.000000
  70
    32
  0
VERTEX
  8
0
  5
320AF
 10
-364.849
 20
852.050
 30
0.000000
  70
    32
  0
VERTEX
  8
0
  5
320B0
 10
-364.851
 20
852.058
 30
0.000000
  70
    32
  0
VERTEX
  8
0
  5
320B1
 10
-364.853
 20
852.065
 30
0.000000
  70
    32
  0
VERTEX
  8
0
  5
320B2
 10
-364.855
 20
852.073
 30
0.000000
  70
    32
  0
VERTEX
  8
0
  5
320B3
 10
-364.858
 20
852.080
 30
0.000000
  70
    32
  0
VERTEX
  8
0
  5
320B4
 10
-364.860
 20
852.088
 30
0.000000
  70
    32
  0
VERTEX
  8
0
  5
320B5
 10
-364.863
 20
852.095
 30
0.000000
  70
    32
  0
VERTEX
  8
0
  5
320B6
 10
-364.865
 20
852.102
 30
0.000000
  70
    32
  0
VERTEX
  8
0
  5
320B7
 10
-364.868
 20
852.109
 30
0.000000
  70
    32
  0
VERTEX
  8
0
  5
320B8
 10
-364.871
 20
852.117
 30
0.000000
  70
    32
  0
VERTEX
  8
0
  5
320B9
 10
-364.874
 20
852.124
 30
0.000000
  70
    32
  0
VERTEX
  8
0
  5
320BA
 10
-364.877
 20
852.131
 30
0.000000
  70
    32
  0
VERTEX
  8
0
  5
320BB
 10
-364.880
 20
852.138
 30
0.000000
  70
    32
  0
VERTEX
  8
0
  5
320BC
 10
-364.884
 20
852.145
 30
0.000000
  70
    32
  0
VERTEX
  8
0
  5
320BD
 10
-364.887
 20
852.152
 30
0.000000
  70
    32
  0
VERTEX
  8
0
  5
320BE
 10
-364.890
 20
852.159
 30
0.000000
  70
    32
  0
VERTEX
  8
0
  5
320BF
 10
-364.894
 20
852.166
 30
0.000000
  70
    32
  0
VERTEX
  8
0
  5
320C0
 10
-364.898
 20
852.172
 30
0.000000
  70
    32
  0
VERTEX
  8
0
  5
320C1
 10
-364.902
 20
852.179
 30
0.000000
  70
    32
  0
VERTEX
  8
0
  5
320C2
 10
-364.906
 20
852.186
 30
0.000000
  70
    32
  0
VERTEX
  8
0
  5
320C3
 10
-364.910
 20
852.192
 30
0.000000
  70
    32
  0
VERTEX
  8
0
  5
320C4
 10
-364.914
 20
852.199
 30
0.000000
  70
    32
  0
VERTEX
  8
0
  5
320C5
 10
-364.918
 20
852.205
 30
0.000000
  70
    32
  0
VERTEX
  8
0
  5
320C6
 10
-364.922
 20
852.212
 30
0.000000
  70
    32
  0
VERTEX
  8
0
  5
320C7
 10
-364.927
 20
852.218
 30
0.000000
  70
    32
  0
VERTEX
  8
0
  5
320C8
 10
-364.931
 20
852.224
 30
0.000000
  70
    32
  0
VERTEX
  8
0
  5
320C9
 10
-364.936
 20
852.230
 30
0.000000
  70
    32
  0
VERTEX
  8
0
  5
320CA
 10
-364.941
 20
852.236
 30
0.000000
  70
    32
  0
VERTEX
  8
0
  5
320CB
 10
-364.946
 20
852.242
 30
0.000000
  70
    32
  0
VERTEX
  8
0
  5
320CC
 10
-364.951
 20
852.248
 30
0.000000
  70
    32
  0
VERTEX
  8
0
  5
320CD
 10
-364.956
 20
852.254
 30
0.000000
  70
    32
  0
VERTEX
  8
0
  5
320CE
 10
-364.961
 20
852.260
 30
0.000000
  70
    32
  0
VERTEX
  8
0
  5
320CF
 10
-364.966
 20
852.266
 30
0.000000
  70
    32
  0
VERTEX
  8
0
  5
320D0
 10
-364.971
 20
852.271
 30
0.000000
  70
    32
  0
VERTEX
  8
0
  5
320D1
 10
-364.977
 20
852.277
 30
0.000000
  70
    32
  0
VERTEX
  8
0
  5
320D2
 10
-364.982
 20
852.282
 30
0.000000
  70
    32
  0
VERTEX
  8
0
  5
320D3
 10
-364.988
 20
852.287
 30
0.000000
  70
    32
  0
VERTEX
  8
0
  5
320D4
 10
-364.994
 20
852.293
 30
0.000000
  70
    32
  0
VERTEX
  8
0
  5
320D5
 10
-365.000
 20
852.298
 30
0.000000
  70
    32
  0
VERTEX
  8
0
  5
320D6
 10
-365.005
 20
852.303
 30
0.000000
  70
    32
  0
VERTEX
  8
0
  5
320D7
 10
-365.011
 20
852.308
 30
0.000000
  70
    32
  0
VERTEX
  8
0
  5
320D8
 10
-365.017
 20
852.312
 30
0.000000
  70
    32
  0
VERTEX
  8
0
  5
320D9
 10
-365.024
 20
852.317
 30
0.000000
  70
    32
  0
VERTEX
  8
0
  5
320DA
 10
-365.030
 20
852.322
 30
0.000000
  70
    32
  0
VERTEX
  8
0
  5
320DB
 10
-365.036
 20
852.326
 30
0.000000
  70
    32
  0
VERTEX
  8
0
  5
320DC
 10
-365.042
 20
852.331
 30
0.000000
  70
    32
  0
VERTEX
  8
0
  5
320DD
 10
-365.049
 20
852.335
 30
0.000000
  70
    32
  0
VERTEX
  8
0
  5
320DE
 10
-365.055
 20
852.339
 30
0.000000
  70
    32
  0
VERTEX
  8
0
  5
320DF
 10
-365.062
 20
852.343
 30
0.000000
  70
    32
  0
VERTEX
  8
0
  5
320E0
 10
-365.068
 20
852.347
 30
0.000000
  70
    32
  0
VERTEX
  8
0
  5
320E1
 10
-365.075
 20
852.351
 30
0.000000
  70
    32
  0
VERTEX
  8
0
  5
320E2
 10
-365.082
 20
852.354
 30
0.000000
  70
    32
  0
SEQEND
  8
0
  5
320E3
  0
LINE
  5
31C28
  8
0
 10
-366.34587627957109
 20
852.61081218067636
 30
0.0
 11
-366.34587627957109
 21
849.80234473036103
 31
0.0
  0
LINE
  5
31C29
  8
0
 10
-360.17589335966181
 20
854.82255087981889
 30
0.0
 11
-358.66789125587371
 21
856.85260873210336
 31
0.0
  0
LINE
  5
31C2A
  8
0
  6
CONTINUOUS
 10
-358.66789125587371
 20
856.85260873210336
 30
0.0
 11
-358.04510434500469
 21
856.85260873210325
 31
0.0
  0
LINE
  5
31C2B
  8
0
 10
-360.1758933596617
 20
854.10067289246081
 30
0.0
 11
-360.17589335966181
 21
854.82255087981889
 31
0.0
  0
LINE
  5
31C2C
  8
0
 10
-359.6758933596617
 20
854.10067289246081
 30
0.0
 11
-360.1758933596617
 21
854.10067289246081
 31
0.0
  0
LINE
  5
31C2D
  8
0
 10
-359.6758933596617
 20
854.35067289246103
 30
0.0
 11
-359.6758933596617
 21
854.10067289246081
 31
0.0
  0
LINE
  5
31C2E
  8
0
  6
CONTINUOUS
 10
-358.30112307203348
 20
856.35960091296113
 30
0.0
 11
-358.04510434500469
 21
856.35960091296113
 31
0.0
  0
LINE
  5
31C2F
  8
0
  6
CONTINUOUS
 10
-358.04510434500469
 20
856.85260873210325
 30
0.0
 11
-358.04510434500469
 21
856.35960091296113
 31
0.0
  0
ARC
  5
31C30
  8
0
  6
CONTINUOUS
 10
-360.51423184622172
 20
856.39923579165395
 30
0.0
 40
2.213463659064113
 50
292.25597211336679
 51
358.97399144808179
  0
LINE
  5
31C31
  8
0
 10
-360.1758933596617
 20
856.85260873210336
 30
0.0
 11
-360.92589335966159
 21
856.85260873210336
 31
0.0
  0
LINE
  5
31C32
  8
0
  6
CONTINUOUS
 10
-360.92589335966159
 20
856.85260873210336
 30
0.0
 11
-360.9258933596617
 21
853.2888149819845
 31
0.0
  0
LINE
  5
31C33
  8
0
  6
CONTINUOUS
 10
-360.1758933596617
 20
856.85260873210336
 30
0.0
 11
-360.1758933596617
 21
852.8513149819845
 31
0.0
  0
ARC
  5
31C34
  8
0
 10
-360.9258933596617
 20
852.8513149819845
 30
0.0
 40
0.4375
 50
0.0
 51
90.0
  0
LINE
  5
31C35
  8
0
  6
CONTINUOUS
 10
-360.4883933596617
 20
852.8513149819845
 30
0.0
 11
-360.1758933596617
 21
852.8513149819845
 31
0.0
  0
INSERT
  5
31C36
  8
0
  2
*U134
 10
0.0
 20
0.0
 30
0.0
  0
LINE
  5
31C37
  8
0
 10
-366.4258933596617
 20
854.0388149819845
 30
0.0
 11
-360.9258933596617
 21
854.0388149819845
 31
0.0
  0
LINE
  5
31C38
  8
0
 10
-360.9258933596617
 20
853.2888149819845
 30
0.0
 11
-366.4258933596617
 21
853.2888149819845
 31
0.0
  0
LINE
  5
31C39
  8
0
 10
-360.9258933596617
 20
854.0388149819845
 30
0.0
 11
-360.9258933596617
 21
853.2888149819845
 31
0.0
  0
LINE
  5
31C3A
  8
0
 10
-366.4258933596617
 20
853.2888149819845
 30
0.0
 11
-366.4258933596617
 21
854.0388149819845
 31
0.0
  0
LINE
  5
31C3B
  8
0
  6
CONTINUOUS
 10
-369.964476382589
 20
852.56390186358669
 30
0.0
 11
-369.651976382589
 21
852.56390186358669
 31
0.0
  0
ARC
  5
31C3C
  8
0
 10
-370.401976382589
 20
852.56390186358669
 30
0.0
 40
0.4375
 50
0.0
 51
90.0
  0
LINE
  5
31C3D
  8
0
  6
CONTINUOUS
 10
-369.651976382589
 20
853.81325977406334
 30
0.0
 11
-369.651976382589
 21
852.56390186358669
 31
0.0
  0
ARC
  5
31C3E
  8
0
  6
CONTINUOUS
 10
-369.99031486914902
 20
856.11182267325626
 30
0.0
 40
2.213463659064113
 50
292.25597211336679
 51
358.97399144808179
  0
LINE
  5
31C3F
  8
0
  6
CONTINUOUS
 10
-367.52118736793199
 20
856.56519561370555
 30
0.0
 11
-367.52118736793199
 21
856.07218779456332
 31
0.0
  0
LINE
  5
31C40
  8
0
  6
CONTINUOUS
 10
-377.0659046652674
 20
856.07218779456332
 30
0.0
 11
-367.52118736793199
 21
856.07218779456332
 31
0.0
  0
LINE
  5
31C41
  8
0
 10
-369.151976382589
 20
854.06325977406323
 30
0.0
 11
-369.151976382589
 21
853.81325977406334
 31
0.0
  0
LINE
  5
31C42
  8
0
 10
-369.151976382589
 20
853.81325977406334
 30
0.0
 11
-377.0659046652674
 21
853.81325977406334
 31
0.0
  0
LINE
  5
31C43
  8
0
  6
CONTINUOUS
 10
-377.0659046652674
 20
856.56519561370715
 30
0.0
 11
-367.52118736793199
 21
856.56519561370555
 31
0.0
  0
POLYLINE
  8
0
  5
320E4
  66
     1
 10
0.000000
 20
0.000000
 30
0.000000
  70
     8
  0
VERTEX
  8
0
  5
320E5
 10
-375.211
 20
849.981
 30
0.000000
  70
    32
  0
VERTEX
  8
0
  5
320E6
 10
-375.216
 20
849.987
 30
0.000000
  70
    32
  0
VERTEX
  8
0
  5
320E7
 10
-375.218
 20
849.994
 30
0.000000
  70
    32
  0
VERTEX
  8
0
  5
320E8
 10
-375.219
 20
850.002
 30
0.000000
  70
    32
  0
VERTEX
  8
0
  5
320E9
 10
-375.219
 20
850.010
 30
0.000000
  70
    32
  0
VERTEX
  8
0
  5
320EA
 10
-375.218
 20
850.018
 30
0.000000
  70
    32
  0
VERTEX
  8
0
  5
320EB
 10
-375.217
 20
850.026
 30
0.000000
  70
    32
  0
VERTEX
  8
0
  5
320EC
 10
-375.215
 20
850.034
 30
0.000000
  70
    32
  0
VERTEX
  8
0
  5
320ED
 10
-375.213
 20
850.041
 30
0.000000
  70
    32
  0
VERTEX
  8
0
  5
320EE
 10
-375.210
 20
850.048
 30
0.000000
  70
    32
  0
VERTEX
  8
0
  5
320EF
 10
-375.208
 20
850.055
 30
0.000000
  70
    32
  0
VERTEX
  8
0
  5
320F0
 10
-375.205
 20
850.062
 30
0.000000
  70
    32
  0
VERTEX
  8
0
  5
320F1
 10
-375.202
 20
850.069
 30
0.000000
  70
    32
  0
VERTEX
  8
0
  5
320F2
 10
-375.200
 20
850.076
 30
0.000000
  70
    32
  0
VERTEX
  8
0
  5
320F3
 10
-375.197
 20
850.083
 30
0.000000
  70
    32
  0
VERTEX
  8
0
  5
320F4
 10
-375.194
 20
850.090
 30
0.000000
  70
    32
  0
VERTEX
  8
0
  5
320F5
 10
-375.191
 20
850.097
 30
0.000000
  70
    32
  0
VERTEX
  8
0
  5
320F6
 10
-375.188
 20
850.104
 30
0.000000
  70
    32
  0
VERTEX
  8
0
  5
320F7
 10
-375.185
 20
850.110
 30
0.000000
  70
    32
  0
VERTEX
  8
0
  5
320F8
 10
-375.182
 20
850.117
 30
0.000000
  70
    32
  0
VERTEX
  8
0
  5
320F9
 10
-375.179
 20
850.124
 30
0.000000
  70
    32
  0
VERTEX
  8
0
  5
320FA
 10
-375.176
 20
850.131
 30
0.000000
  70
    32
  0
VERTEX
  8
0
  5
320FB
 10
-375.172
 20
850.138
 30
0.000000
  70
    32
  0
VERTEX
  8
0
  5
320FC
 10
-375.169
 20
850.144
 30
0.000000
  70
    32
  0
VERTEX
  8
0
  5
320FD
 10
-375.166
 20
850.151
 30
0.000000
  70
    32
  0
VERTEX
  8
0
  5
320FE
 10
-375.163
 20
850.158
 30
0.000000
  70
    32
  0
VERTEX
  8
0
  5
320FF
 10
-375.159
 20
850.164
 30
0.000000
  70
    32
  0
VERTEX
  8
0
  5
32100
 10
-375.156
 20
850.171
 30
0.000000
  70
    32
  0
VERTEX
  8
0
  5
32101
 10
-375.153
 20
850.178
 30
0.000000
  70
    32
  0
VERTEX
  8
0
  5
32102
 10
-375.149
 20
850.184
 30
0.000000
  70
    32
  0
VERTEX
  8
0
  5
32103
 10
-375.146
 20
850.191
 30
0.000000
  70
    32
  0
VERTEX
  8
0
  5
32104
 10
-375.142
 20
850.198
 30
0.000000
  70
    32
  0
VERTEX
  8
0
  5
32105
 10
-375.138
 20
850.204
 30
0.000000
  70
    32
  0
VERTEX
  8
0
  5
32106
 10
-375.135
 20
850.211
 30
0.000000
  70
    32
  0
VERTEX
  8
0
  5
32107
 10
-375.131
 20
850.218
 30
0.000000
  70
    32
  0
VERTEX
  8
0
  5
32108
 10
-375.128
 20
850.224
 30
0.000000
  70
    32
  0
VERTEX
  8
0
  5
32109
 10
-375.124
 20
850.231
 30
0.000000
  70
    32
  0
VERTEX
  8
0
  5
3210A
 10
-375.120
 20
850.237
 30
0.000000
  70
    32
  0
VERTEX
  8
0
  5
3210B
 10
-375.116
 20
850.244
 30
0.000000
  70
    32
  0
VERTEX
  8
0
  5
3210C
 10
-375.112
 20
850.250
 30
0.000000
  70
    32
  0
VERTEX
  8
0
  5
3210D
 10
-375.109
 20
850.257
 30
0.000000
  70
    32
  0
VERTEX
  8
0
  5
3210E
 10
-375.105
 20
850.263
 30
0.000000
  70
    32
  0
VERTEX
  8
0
  5
3210F
 10
-375.101
 20
850.270
 30
0.000000
  70
    32
  0
VERTEX
  8
0
  5
32110
 10
-375.097
 20
850.276
 30
0.000000
  70
    32
  0
VERTEX
  8
0
  5
32111
 10
-375.093
 20
850.283
 30
0.000000
  70
    32
  0
VERTEX
  8
0
  5
32112
 10
-375.089
 20
850.289
 30
0.000000
  70
    32
  0
VERTEX
  8
0
  5
32113
 10
-375.085
 20
850.295
 30
0.000000
  70
    32
  0
VERTEX
  8
0
  5
32114
 10
-375.081
 20
850.302
 30
0.000000
  70
    32
  0
VERTEX
  8
0
  5
32115
 10
-375.077
 20
850.308
 30
0.000000
  70
    32
  0
VERTEX
  8
0
  5
32116
 10
-375.072
 20
850.315
 30
0.000000
  70
    32
  0
VERTEX
  8
0
  5
32117
 10
-375.068
 20
850.321
 30
0.000000
  70
    32
  0
VERTEX
  8
0
  5
32118
 10
-375.064
 20
850.327
 30
0.000000
  70
    32
  0
VERTEX
  8
0
  5
32119
 10
-375.060
 20
850.334
 30
0.000000
  70
    32
  0
VERTEX
  8
0
  5
3211A
 10
-375.056
 20
850.340
 30
0.000000
  70
    32
  0
VERTEX
  8
0
  5
3211B
 10
-375.051
 20
850.346
 30
0.000000
  70
    32
  0
VERTEX
  8
0
  5
3211C
 10
-375.047
 20
850.353
 30
0.000000
  70
    32
  0
VERTEX
  8
0
  5
3211D
 10
-375.043
 20
850.359
 30
0.000000
  70
    32
  0
VERTEX
  8
0
  5
3211E
 10
-375.038
 20
850.365
 30
0.000000
  70
    32
  0
VERTEX
  8
0
  5
3211F
 10
-375.034
 20
850.372
 30
0.000000
  70
    32
  0
VERTEX
  8
0
  5
32120
 10
-375.030
 20
850.378
 30
0.000000
  70
    32
  0
VERTEX
  8
0
  5
32121
 10
-375.025
 20
850.384
 30
0.000000
  70
    32
  0
VERTEX
  8
0
  5
32122
 10
-375.021
 20
850.390
 30
0.000000
  70
    32
  0
VERTEX
  8
0
  5
32123
 10
-375.016
 20
850.397
 30
0.000000
  70
    32
  0
VERTEX
  8
0
  5
32124
 10
-375.012
 20
850.403
 30
0.000000
  70
    32
  0
VERTEX
  8
0
  5
32125
 10
-375.007
 20
850.409
 30
0.000000
  70
    32
  0
VERTEX
  8
0
  5
32126
 10
-375.003
 20
850.415
 30
0.000000
  70
    32
  0
VERTEX
  8
0
  5
32127
 10
-374.998
 20
850.421
 30
0.000000
  70
    32
  0
VERTEX
  8
0
  5
32128
 10
-374.994
 20
850.428
 30
0.000000
  70
    32
  0
VERTEX
  8
0
  5
32129
 10
-374.989
 20
850.434
 30
0.000000
  70
    32
  0
VERTEX
  8
0
  5
3212A
 10
-374.984
 20
850.440
 30
0.000000
  70
    32
  0
VERTEX
  8
0
  5
3212B
 10
-374.980
 20
850.446
 30
0.000000
  70
    32
  0
VERTEX
  8
0
  5
3212C
 10
-374.975
 20
850.452
 30
0.000000
  70
    32
  0
VERTEX
  8
0
  5
3212D
 10
-374.970
 20
850.458
 30
0.000000
  70
    32
  0
VERTEX
  8
0
  5
3212E
 10
-374.966
 20
850.465
 30
0.000000
  70
    32
  0
VERTEX
  8
0
  5
3212F
 10
-374.961
 20
850.471
 30
0.000000
  70
    32
  0
VERTEX
  8
0
  5
32130
 10
-374.956
 20
850.477
 30
0.000000
  70
    32
  0
VERTEX
  8
0
  5
32131
 10
-374.951
 20
850.483
 30
0.000000
  70
    32
  0
VERTEX
  8
0
  5
32132
 10
-374.947
 20
850.489
 30
0.000000
  70
    32
  0
VERTEX
  8
0
  5
32133
 10
-374.942
 20
850.495
 30
0.000000
  70
    32
  0
VERTEX
  8
0
  5
32134
 10
-374.937
 20
850.501
 30
0.000000
  70
    32
  0
VERTEX
  8
0
  5
32135
 10
-374.932
 20
850.507
 30
0.000000
  70
    32
  0
VERTEX
  8
0
  5
32136
 10
-374.927
 20
850.513
 30
0.000000
  70
    32
  0
VERTEX
  8
0
  5
32137
 10
-374.923
 20
850.520
 30
0.000000
  70
    32
  0
VERTEX
  8
0
  5
32138
 10
-374.918
 20
850.526
 30
0.000000
  70
    32
  0
VERTEX
  8
0
  5
32139
 10
-374.913
 20
850.532
 30
0.000000
  70
    32
  0
VERTEX
  8
0
  5
3213A
 10
-374.908
 20
850.538
 30
0.000000
  70
    32
  0
VERTEX
  8
0
  5
3213B
 10
-374.903
 20
850.544
 30
0.000000
  70
    32
  0
VERTEX
  8
0
  5
3213C
 10
-374.898
 20
850.550
 30
0.000000
  70
    32
  0
VERTEX
  8
0
  5
3213D
 10
-374.893
 20
850.556
 30
0.000000
  70
    32
  0
VERTEX
  8
0
  5
3213E
 10
-374.888
 20
850.562
 30
0.000000
  70
    32
  0
VERTEX
  8
0
  5
3213F
 10
-374.883
 20
850.568
 30
0.000000
  70
    32
  0
VERTEX
  8
0
  5
32140
 10
-374.878
 20
850.574
 30
0.000000
  70
    32
  0
VERTEX
  8
0
  5
32141
 10
-374.873
 20
850.580
 30
0.000000
  70
    32
  0
VERTEX
  8
0
  5
32142
 10
-374.868
 20
850.586
 30
0.000000
  70
    32
  0
VERTEX
  8
0
  5
32143
 10
-374.864
 20
850.592
 30
0.000000
  70
    32
  0
VERTEX
  8
0
  5
32144
 10
-374.859
 20
850.598
 30
0.000000
  70
    32
  0
VERTEX
  8
0
  5
32145
 10
-374.854
 20
850.604
 30
0.000000
  70
    32
  0
VERTEX
  8
0
  5
32146
 10
-374.849
 20
850.610
 30
0.000000
  70
    32
  0
VERTEX
  8
0
  5
32147
 10
-374.844
 20
850.616
 30
0.000000
  70
    32
  0
VERTEX
  8
0
  5
32148
 10
-374.839
 20
850.622
 30
0.000000
  70
    32
  0
VERTEX
  8
0
  5
32149
 10
-374.834
 20
850.628
 30
0.000000
  70
    32
  0
VERTEX
  8
0
  5
3214A
 10
-374.828
 20
850.634
 30
0.000000
  70
    32
  0
VERTEX
  8
0
  5
3214B
 10
-374.823
 20
850.640
 30
0.000000
  70
    32
  0
VERTEX
  8
0
  5
3214C
 10
-374.818
 20
850.646
 30
0.000000
  70
    32
  0
VERTEX
  8
0
  5
3214D
 10
-374.813
 20
850.652
 30
0.000000
  70
    32
  0
VERTEX
  8
0
  5
3214E
 10
-374.808
 20
850.658
 30
0.000000
  70
    32
  0
VERTEX
  8
0
  5
3214F
 10
-374.803
 20
850.664
 30
0.000000
  70
    32
  0
VERTEX
  8
0
  5
32150
 10
-374.798
 20
850.670
 30
0.000000
  70
    32
  0
VERTEX
  8
0
  5
32151
 10
-374.793
 20
850.676
 30
0.000000
  70
    32
  0
VERTEX
  8
0
  5
32152
 10
-374.788
 20
850.682
 30
0.000000
  70
    32
  0
VERTEX
  8
0
  5
32153
 10
-374.783
 20
850.688
 30
0.000000
  70
    32
  0
VERTEX
  8
0
  5
32154
 10
-374.778
 20
850.694
 30
0.000000
  70
    32
  0
VERTEX
  8
0
  5
32155
 10
-374.773
 20
850.700
 30
0.000000
  70
    32
  0
VERTEX
  8
0
  5
32156
 10
-374.768
 20
850.706
 30
0.000000
  70
    32
  0
VERTEX
  8
0
  5
32157
 10
-374.763
 20
850.712
 30
0.000000
  70
    32
  0
VERTEX
  8
0
  5
32158
 10
-374.758
 20
850.717
 30
0.000000
  70
    32
  0
VERTEX
  8
0
  5
32159
 10
-374.753
 20
850.723
 30
0.000000
  70
    32
  0
VERTEX
  8
0
  5
3215A
 10
-374.748
 20
850.729
 30
0.000000
  70
    32
  0
VERTEX
  8
0
  5
3215B
 10
-374.743
 20
850.735
 30
0.000000
  70
    32
  0
VERTEX
  8
0
  5
3215C
 10
-374.738
 20
850.741
 30
0.000000
  70
    32
  0
VERTEX
  8
0
  5
3215D
 10
-374.733
 20
850.747
 30
0.000000
  70
    32
  0
VERTEX
  8
0
  5
3215E
 10
-374.728
 20
850.753
 30
0.000000
  70
    32
  0
VERTEX
  8
0
  5
3215F
 10
-374.723
 20
850.759
 30
0.000000
  70
    32
  0
VERTEX
  8
0
  5
32160
 10
-374.718
 20
850.765
 30
0.000000
  70
    32
  0
VERTEX
  8
0
  5
32161
 10
-374.713
 20
850.771
 30
0.000000
  70
    32
  0
VERTEX
  8
0
  5
32162
 10
-374.708
 20
850.777
 30
0.000000
  70
    32
  0
VERTEX
  8
0
  5
32163
 10
-374.703
 20
850.783
 30
0.000000
  70
    32
  0
VERTEX
  8
0
  5
32164
 10
-374.698
 20
850.789
 30
0.000000
  70
    32
  0
VERTEX
  8
0
  5
32165
 10
-374.693
 20
850.795
 30
0.000000
  70
    32
  0
VERTEX
  8
0
  5
32166
 10
-374.688
 20
850.801
 30
0.000000
  70
    32
  0
VERTEX
  8
0
  5
32167
 10
-374.683
 20
850.807
 30
0.000000
  70
    32
  0
VERTEX
  8
0
  5
32168
 10
-374.678
 20
850.813
 30
0.000000
  70
    32
  0
VERTEX
  8
0
  5
32169
 10
-374.673
 20
850.819
 30
0.000000
  70
    32
  0
VERTEX
  8
0
  5
3216A
 10
-374.668
 20
850.825
 30
0.000000
  70
    32
  0
VERTEX
  8
0
  5
3216B
 10
-374.663
 20
850.831
 30
0.000000
  70
    32
  0
VERTEX
  8
0
  5
3216C
 10
-374.658
 20
850.837
 30
0.000000
  70
    32
  0
VERTEX
  8
0
  5
3216D
 10
-374.653
 20
850.843
 30
0.000000
  70
    32
  0
VERTEX
  8
0
  5
3216E
 10
-374.648
 20
850.849
 30
0.000000
  70
    32
  0
VERTEX
  8
0
  5
3216F
 10
-374.643
 20
850.855
 30
0.000000
  70
    32
  0
VERTEX
  8
0
  5
32170
 10
-374.638
 20
850.861
 30
0.000000
  70
    32
  0
VERTEX
  8
0
  5
32171
 10
-374.634
 20
850.867
 30
0.000000
  70
    32
  0
VERTEX
  8
0
  5
32172
 10
-374.629
 20
850.873
 30
0.000000
  70
    32
  0
VERTEX
  8
0
  5
32173
 10
-374.624
 20
850.879
 30
0.000000
  70
    32
  0
VERTEX
  8
0
  5
32174
 10
-374.619
 20
850.885
 30
0.000000
  70
    32
  0
VERTEX
  8
0
  5
32175
 10
-374.614
 20
850.891
 30
0.000000
  70
    32
  0
VERTEX
  8
0
  5
32176
 10
-374.609
 20
850.897
 30
0.000000
  70
    32
  0
VERTEX
  8
0
  5
32177
 10
-374.605
 20
850.903
 30
0.000000
  70
    32
  0
VERTEX
  8
0
  5
32178
 10
-374.600
 20
850.909
 30
0.000000
  70
    32
  0
VERTEX
  8
0
  5
32179
 10
-374.595
 20
850.915
 30
0.000000
  70
    32
  0
VERTEX
  8
0
  5
3217A
 10
-374.590
 20
850.921
 30
0.000000
  70
    32
  0
VERTEX
  8
0
  5
3217B
 10
-374.586
 20
850.927
 30
0.000000
  70
    32
  0
VERTEX
  8
0
  5
3217C
 10
-374.581
 20
850.933
 30
0.000000
  70
    32
  0
VERTEX
  8
0
  5
3217D
 10
-374.576
 20
850.939
 30
0.000000
  70
    32
  0
VERTEX
  8
0
  5
3217E
 10
-374.572
 20
850.945
 30
0.000000
  70
    32
  0
VERTEX
  8
0
  5
3217F
 10
-374.567
 20
850.951
 30
0.000000
  70
    32
  0
VERTEX
  8
0
  5
32180
 10
-374.562
 20
850.957
 30
0.000000
  70
    32
  0
VERTEX
  8
0
  5
32181
 10
-374.558
 20
850.964
 30
0.000000
  70
    32
  0
VERTEX
  8
0
  5
32182
 10
-374.553
 20
850.970
 30
0.000000
  70
    32
  0
VERTEX
  8
0
  5
32183
 10
-374.549
 20
850.976
 30
0.000000
  70
    32
  0
VERTEX
  8
0
  5
32184
 10
-374.544
 20
850.982
 30
0.000000
  70
    32
  0
VERTEX
  8
0
  5
32185
 10
-374.540
 20
850.988
 30
0.000000
  70
    32
  0
VERTEX
  8
0
  5
32186
 10
-374.535
 20
850.994
 30
0.000000
  70
    32
  0
VERTEX
  8
0
  5
32187
 10
-374.531
 20
851.001
 30
0.000000
  70
    32
  0
VERTEX
  8
0
  5
32188
 10
-374.526
 20
851.007
 30
0.000000
  70
    32
  0
VERTEX
  8
0
  5
32189
 10
-374.522
 20
851.013
 30
0.000000
  70
    32
  0
VERTEX
  8
0
  5
3218A
 10
-374.518
 20
851.019
 30
0.000000
  70
    32
  0
VERTEX
  8
0
  5
3218B
 10
-374.513
 20
851.026
 30
0.000000
  70
    32
  0
VERTEX
  8
0
  5
3218C
 10
-374.509
 20
851.032
 30
0.000000
  70
    32
  0
VERTEX
  8
0
  5
3218D
 10
-374.505
 20
851.038
 30
0.000000
  70
    32
  0
VERTEX
  8
0
  5
3218E
 10
-374.500
 20
851.045
 30
0.000000
  70
    32
  0
VERTEX
  8
0
  5
3218F
 10
-374.496
 20
851.051
 30
0.000000
  70
    32
  0
VERTEX
  8
0
  5
32190
 10
-374.492
 20
851.057
 30
0.000000
  70
    32
  0
VERTEX
  8
0
  5
32191
 10
-374.488
 20
851.064
 30
0.000000
  70
    32
  0
VERTEX
  8
0
  5
32192
 10
-374.484
 20
851.070
 30
0.000000
  70
    32
  0
VERTEX
  8
0
  5
32193
 10
-374.480
 20
851.076
 30
0.000000
  70
    32
  0
VERTEX
  8
0
  5
32194
 10
-374.475
 20
851.083
 30
0.000000
  70
    32
  0
VERTEX
  8
0
  5
32195
 10
-374.471
 20
851.089
 30
0.000000
  70
    32
  0
VERTEX
  8
0
  5
32196
 10
-374.467
 20
851.096
 30
0.000000
  70
    32
  0
VERTEX
  8
0
  5
32197
 10
-374.463
 20
851.102
 30
0.000000
  70
    32
  0
VERTEX
  8
0
  5
32198
 10
-374.459
 20
851.109
 30
0.000000
  70
    32
  0
VERTEX
  8
0
  5
32199
 10
-374.455
 20
851.115
 30
0.000000
  70
    32
  0
VERTEX
  8
0
  5
3219A
 10
-374.452
 20
851.122
 30
0.000000
  70
    32
  0
VERTEX
  8
0
  5
3219B
 10
-374.448
 20
851.128
 30
0.000000
  70
    32
  0
VERTEX
  8
0
  5
3219C
 10
-374.444
 20
851.135
 30
0.000000
  70
    32
  0
VERTEX
  8
0
  5
3219D
 10
-374.440
 20
851.141
 30
0.000000
  70
    32
  0
VERTEX
  8
0
  5
3219E
 10
-374.436
 20
851.148
 30
0.000000
  70
    32
  0
VERTEX
  8
0
  5
3219F
 10
-374.433
 20
851.155
 30
0.000000
  70
    32
  0
VERTEX
  8
0
  5
321A0
 10
-374.429
 20
851.161
 30
0.000000
  70
    32
  0
VERTEX
  8
0
  5
321A1
 10
-374.425
 20
851.168
 30
0.000000
  70
    32
  0
VERTEX
  8
0
  5
321A2
 10
-374.422
 20
851.175
 30
0.000000
  70
    32
  0
VERTEX
  8
0
  5
321A3
 10
-374.418
 20
851.181
 30
0.000000
  70
    32
  0
VERTEX
  8
0
  5
321A4
 10
-374.414
 20
851.188
 30
0.000000
  70
    32
  0
VERTEX
  8
0
  5
321A5
 10
-374.411
 20
851.195
 30
0.000000
  70
    32
  0
VERTEX
  8
0
  5
321A6
 10
-374.407
 20
851.202
 30
0.000000
  70
    32
  0
VERTEX
  8
0
  5
321A7
 10
-374.404
 20
851.209
 30
0.000000
  70
    32
  0
VERTEX
  8
0
  5
321A8
 10
-374.401
 20
851.215
 30
0.000000
  70
    32
  0
VERTEX
  8
0
  5
321A9
 10
-374.397
 20
851.222
 30
0.000000
  70
    32
  0
VERTEX
  8
0
  5
321AA
 10
-374.394
 20
851.229
 30
0.000000
  70
    32
  0
VERTEX
  8
0
  5
321AB
 10
-374.391
 20
851.236
 30
0.000000
  70
    32
  0
VERTEX
  8
0
  5
321AC
 10
-374.388
 20
851.243
 30
0.000000
  70
    32
  0
VERTEX
  8
0
  5
321AD
 10
-374.384
 20
851.250
 30
0.000000
  70
    32
  0
VERTEX
  8
0
  5
321AE
 10
-374.381
 20
851.257
 30
0.000000
  70
    32
  0
VERTEX
  8
0
  5
321AF
 10
-374.378
 20
851.264
 30
0.000000
  70
    32
  0
VERTEX
  8
0
  5
321B0
 10
-374.375
 20
851.271
 30
0.000000
  70
    32
  0
VERTEX
  8
0
  5
321B1
 10
-374.372
 20
851.278
 30
0.000000
  70
    32
  0
VERTEX
  8
0
  5
321B2
 10
-374.369
 20
851.285
 30
0.000000
  70
    32
  0
VERTEX
  8
0
  5
321B3
 10
-374.366
 20
851.292
 30
0.000000
  70
    32
  0
VERTEX
  8
0
  5
321B4
 10
-374.363
 20
851.300
 30
0.000000
  70
    32
  0
VERTEX
  8
0
  5
321B5
 10
-374.361
 20
851.307
 30
0.000000
  70
    32
  0
VERTEX
  8
0
  5
321B6
 10
-374.358
 20
851.314
 30
0.000000
  70
    32
  0
VERTEX
  8
0
  5
321B7
 10
-374.355
 20
851.321
 30
0.000000
  70
    32
  0
VERTEX
  8
0
  5
321B8
 10
-374.353
 20
851.328
 30
0.000000
  70
    32
  0
VERTEX
  8
0
  5
321B9
 10
-374.350
 20
851.336
 30
0.000000
  70
    32
  0
VERTEX
  8
0
  5
321BA
 10
-374.348
 20
851.343
 30
0.000000
  70
    32
  0
VERTEX
  8
0
  5
321BB
 10
-374.345
 20
851.350
 30
0.000000
  70
    32
  0
VERTEX
  8
0
  5
321BC
 10
-374.343
 20
851.358
 30
0.000000
  70
    32
  0
VERTEX
  8
0
  5
321BD
 10
-374.341
 20
851.365
 30
0.000000
  70
    32
  0
VERTEX
  8
0
  5
321BE
 10
-374.338
 20
851.372
 30
0.000000
  70
    32
  0
VERTEX
  8
0
  5
321BF
 10
-374.336
 20
851.380
 30
0.000000
  70
    32
  0
VERTEX
  8
0
  5
321C0
 10
-374.334
 20
851.387
 30
0.000000
  70
    32
  0
VERTEX
  8
0
  5
321C1
 10
-374.332
 20
851.394
 30
0.000000
  70
    32
  0
VERTEX
  8
0
  5
321C2
 10
-374.330
 20
851.402
 30
0.000000
  70
    32
  0
VERTEX
  8
0
  5
321C3
 10
-374.328
 20
851.409
 30
0.000000
  70
    32
  0
VERTEX
  8
0
  5
321C4
 10
-374.326
 20
851.417
 30
0.000000
  70
    32
  0
VERTEX
  8
0
  5
321C5
 10
-374.324
 20
851.424
 30
0.000000
  70
    32
  0
VERTEX
  8
0
  5
321C6
 10
-374.322
 20
851.432
 30
0.000000
  70
    32
  0
VERTEX
  8
0
  5
321C7
 10
-374.321
 20
851.439
 30
0.000000
  70
    32
  0
VERTEX
  8
0
  5
321C8
 10
-374.319
 20
851.447
 30
0.000000
  70
    32
  0
VERTEX
  8
0
  5
321C9
 10
-374.318
 20
851.454
 30
0.000000
  70
    32
  0
VERTEX
  8
0
  5
321CA
 10
-374.316
 20
851.462
 30
0.000000
  70
    32
  0
VERTEX
  8
0
  5
321CB
 10
-374.315
 20
851.469
 30
0.000000
  70
    32
  0
VERTEX
  8
0
  5
321CC
 10
-374.314
 20
851.477
 30
0.000000
  70
    32
  0
VERTEX
  8
0
  5
321CD
 10
-374.312
 20
851.485
 30
0.000000
  70
    32
  0
VERTEX
  8
0
  5
321CE
 10
-374.311
 20
851.492
 30
0.000000
  70
    32
  0
VERTEX
  8
0
  5
321CF
 10
-374.310
 20
851.500
 30
0.000000
  70
    32
  0
VERTEX
  8
0
  5
321D0
 10
-374.309
 20
851.508
 30
0.000000
  70
    32
  0
VERTEX
  8
0
  5
321D1
 10
-374.308
 20
851.515
 30
0.000000
  70
    32
  0
VERTEX
  8
0
  5
321D2
 10
-374.307
 20
851.523
 30
0.000000
  70
    32
  0
VERTEX
  8
0
  5
321D3
 10
-374.307
 20
851.531
 30
0.000000
  70
    32
  0
VERTEX
  8
0
  5
321D4
 10
-374.306
 20
851.538
 30
0.000000
  70
    32
  0
VERTEX
  8
0
  5
321D5
 10
-374.305
 20
851.546
 30
0.000000
  70
    32
  0
VERTEX
  8
0
  5
321D6
 10
-374.305
 20
851.554
 30
0.000000
  70
    32
  0
VERTEX
  8
0
  5
321D7
 10
-374.304
 20
851.562
 30
0.000000
  70
    32
  0
VERTEX
  8
0
  5
321D8
 10
-374.304
 20
851.569
 30
0.000000
  70
    32
  0
VERTEX
  8
0
  5
321D9
 10
-374.304
 20
851.577
 30
0.000000
  70
    32
  0
VERTEX
  8
0
  5
321DA
 10
-374.304
 20
851.585
 30
0.000000
  70
    32
  0
VERTEX
  8
0
  5
321DB
 10
-374.304
 20
851.593
 30
0.000000
  70
    32
  0
VERTEX
  8
0
  5
321DC
 10
-374.304
 20
851.601
 30
0.000000
  70
    32
  0
VERTEX
  8
0
  5
321DD
 10
-374.304
 20
851.608
 30
0.000000
  70
    32
  0
VERTEX
  8
0
  5
321DE
 10
-374.304
 20
851.616
 30
0.000000
  70
    32
  0
VERTEX
  8
0
  5
321DF
 10
-374.304
 20
851.624
 30
0.000000
  70
    32
  0
VERTEX
  8
0
  5
321E0
 10
-374.304
 20
851.632
 30
0.000000
  70
    32
  0
VERTEX
  8
0
  5
321E1
 10
-374.305
 20
851.640
 30
0.000000
  70
    32
  0
VERTEX
  8
0
  5
321E2
 10
-374.305
 20
851.648
 30
0.000000
  70
    32
  0
VERTEX
  8
0
  5
321E3
 10
-374.306
 20
851.655
 30
0.000000
  70
    32
  0
VERTEX
  8
0
  5
321E4
 10
-374.307
 20
851.663
 30
0.000000
  70
    32
  0
VERTEX
  8
0
  5
321E5
 10
-374.308
 20
851.671
 30
0.000000
  70
    32
  0
VERTEX
  8
0
  5
321E6
 10
-374.309
 20
851.679
 30
0.000000
  70
    32
  0
VERTEX
  8
0
  5
321E7
 10
-374.310
 20
851.686
 30
0.000000
  70
    32
  0
VERTEX
  8
0
  5
321E8
 10
-374.311
 20
851.694
 30
0.000000
  70
    32
  0
VERTEX
  8
0
  5
321E9
 10
-374.312
 20
851.702
 30
0.000000
  70
    32
  0
VERTEX
  8
0
  5
321EA
 10
-374.313
 20
851.710
 30
0.000000
  70
    32
  0
VERTEX
  8
0
  5
321EB
 10
-374.315
 20
851.717
 30
0.000000
  70
    32
  0
VERTEX
  8
0
  5
321EC
 10
-374.316
 20
851.725
 30
0.000000
  70
    32
  0
VERTEX
  8
0
  5
321ED
 10
-374.318
 20
851.733
 30
0.000000
  70
    32
  0
VERTEX
  8
0
  5
321EE
 10
-374.319
 20
851.740
 30
0.000000
  70
    32
  0
VERTEX
  8
0
  5
321EF
 10
-374.321
 20
851.748
 30
0.000000
  70
    32
  0
VERTEX
  8
0
  5
321F0
 10
-374.323
 20
851.755
 30
0.000000
  70
    32
  0
VERTEX
  8
0
  5
321F1
 10
-374.325
 20
851.763
 30
0.000000
  70
    32
  0
VERTEX
  8
0
  5
321F2
 10
-374.327
 20
851.771
 30
0.000000
  70
    32
  0
VERTEX
  8
0
  5
321F3
 10
-374.329
 20
851.778
 30
0.000000
  70
    32
  0
VERTEX
  8
0
  5
321F4
 10
-374.331
 20
851.785
 30
0.000000
  70
    32
  0
VERTEX
  8
0
  5
321F5
 10
-374.334
 20
851.793
 30
0.000000
  70
    32
  0
VERTEX
  8
0
  5
321F6
 10
-374.336
 20
851.800
 30
0.000000
  70
    32
  0
VERTEX
  8
0
  5
321F7
 10
-374.339
 20
851.808
 30
0.000000
  70
    32
  0
VERTEX
  8
0
  5
321F8
 10
-374.342
 20
851.815
 30
0.000000
  70
    32
  0
VERTEX
  8
0
  5
321F9
 10
-374.344
 20
851.822
 30
0.000000
  70
    32
  0
VERTEX
  8
0
  5
321FA
 10
-374.347
 20
851.829
 30
0.000000
  70
    32
  0
VERTEX
  8
0
  5
321FB
 10
-374.350
 20
851.836
 30
0.000000
  70
    32
  0
VERTEX
  8
0
  5
321FC
 10
-374.353
 20
851.844
 30
0.000000
  70
    32
  0
VERTEX
  8
0
  5
321FD
 10
-374.356
 20
851.851
 30
0.000000
  70
    32
  0
VERTEX
  8
0
  5
321FE
 10
-374.360
 20
851.858
 30
0.000000
  70
    32
  0
VERTEX
  8
0
  5
321FF
 10
-374.363
 20
851.864
 30
0.000000
  70
    32
  0
VERTEX
  8
0
  5
32200
 10
-374.367
 20
851.871
 30
0.000000
  70
    32
  0
VERTEX
  8
0
  5
32201
 10
-374.370
 20
851.878
 30
0.000000
  70
    32
  0
VERTEX
  8
0
  5
32202
 10
-374.374
 20
851.885
 30
0.000000
  70
    32
  0
VERTEX
  8
0
  5
32203
 10
-374.378
 20
851.892
 30
0.000000
  70
    32
  0
VERTEX
  8
0
  5
32204
 10
-374.382
 20
851.898
 30
0.000000
  70
    32
  0
VERTEX
  8
0
  5
32205
 10
-374.386
 20
851.905
 30
0.000000
  70
    32
  0
VERTEX
  8
0
  5
32206
 10
-374.390
 20
851.911
 30
0.000000
  70
    32
  0
VERTEX
  8
0
  5
32207
 10
-374.394
 20
851.918
 30
0.000000
  70
    32
  0
VERTEX
  8
0
  5
32208
 10
-374.398
 20
851.924
 30
0.000000
  70
    32
  0
VERTEX
  8
0
  5
32209
 10
-374.403
 20
851.931
 30
0.000000
  70
    32
  0
VERTEX
  8
0
  5
3220A
 10
-374.407
 20
851.937
 30
0.000000
  70
    32
  0
VERTEX
  8
0
  5
3220B
 10
-374.412
 20
851.943
 30
0.000000
  70
    32
  0
VERTEX
  8
0
  5
3220C
 10
-374.417
 20
851.949
 30
0.000000
  70
    32
  0
VERTEX
  8
0
  5
3220D
 10
-374.422
 20
851.955
 30
0.000000
  70
    32
  0
VERTEX
  8
0
  5
3220E
 10
-374.427
 20
851.961
 30
0.000000
  70
    32
  0
VERTEX
  8
0
  5
3220F
 10
-374.432
 20
851.967
 30
0.000000
  70
    32
  0
VERTEX
  8
0
  5
32210
 10
-374.437
 20
851.972
 30
0.000000
  70
    32
  0
VERTEX
  8
0
  5
32211
 10
-374.442
 20
851.978
 30
0.000000
  70
    32
  0
VERTEX
  8
0
  5
32212
 10
-374.448
 20
851.984
 30
0.000000
  70
    32
  0
VERTEX
  8
0
  5
32213
 10
-374.453
 20
851.989
 30
0.000000
  70
    32
  0
VERTEX
  8
0
  5
32214
 10
-374.459
 20
851.995
 30
0.000000
  70
    32
  0
VERTEX
  8
0
  5
32215
 10
-374.464
 20
852.000
 30
0.000000
  70
    32
  0
VERTEX
  8
0
  5
32216
 10
-374.470
 20
852.005
 30
0.000000
  70
    32
  0
VERTEX
  8
0
  5
32217
 10
-374.476
 20
852.010
 30
0.000000
  70
    32
  0
VERTEX
  8
0
  5
32218
 10
-374.482
 20
852.015
 30
0.000000
  70
    32
  0
VERTEX
  8
0
  5
32219
 10
-374.488
 20
852.020
 30
0.000000
  70
    32
  0
VERTEX
  8
0
  5
3221A
 10
-374.494
 20
852.025
 30
0.000000
  70
    32
  0
VERTEX
  8
0
  5
3221B
 10
-374.500
 20
852.030
 30
0.000000
  70
    32
  0
VERTEX
  8
0
  5
3221C
 10
-374.506
 20
852.034
 30
0.000000
  70
    32
  0
VERTEX
  8
0
  5
3221D
 10
-374.512
 20
852.039
 30
0.000000
  70
    32
  0
VERTEX
  8
0
  5
3221E
 10
-374.518
 20
852.043
 30
0.000000
  70
    32
  0
VERTEX
  8
0
  5
3221F
 10
-374.525
 20
852.047
 30
0.000000
  70
    32
  0
VERTEX
  8
0
  5
32220
 10
-374.531
 20
852.052
 30
0.000000
  70
    32
  0
VERTEX
  8
0
  5
32221
 10
-374.538
 20
852.056
 30
0.000000
  70
    32
  0
VERTEX
  8
0
  5
32222
 10
-374.544
 20
852.060
 30
0.000000
  70
    32
  0
VERTEX
  8
0
  5
32223
 10
-374.551
 20
852.063
 30
0.000000
  70
    32
  0
VERTEX
  8
0
  5
32224
 10
-374.558
 20
852.067
 30
0.000000
  70
    32
  0
SEQEND
  8
0
  5
32225
  0
LINE
  5
31C45
  8
0
 10
-374.2909659447655
 20
852.13645823622335
 30
0.0
 11
-377.0659046652674
 21
852.13645823622335
 31
0.0
  0
LINE
  5
31C46
  8
0
 10
-374.55768952521453
 20
852.13645823622335
 30
0.0
 11
-374.55768952521453
 21
852.06704919207596
 31
0.0
  0
LINE
  5
31C47
  8
0
 10
-374.2909659447655
 20
853.00140186358669
 30
0.0
 11
-374.2909659447655
 21
852.13645823622335
 31
0.0
  0
LINE
  5
31C48
  8
0
 10
-375.901976382589
 20
853.00140186358669
 30
0.0
 11
-374.2909659447655
 21
853.00140186358669
 31
0.0
  0
ARC
  5
31C49
  8
0
 10
-375.21132790912981
 20
849.66548306952734
 30
0.0
 40
0.3151255746115558
 50
269.8713881076846
 51
90.0
  0
LINE
  5
31C4A
  8
0
 10
-375.5659046652674
 20
848.7514319942203
 30
0.0
 11
-375.5659046652674
 21
848.88845748128017
 31
0.0
  0
LINE
  5
31C4B
  8
0
 10
-375.2120352712214
 20
849.20066821332489
 30
0.0
 11
-375.2120352712214
 21
849.3503582888244
 31
0.0
  0
ARC
  5
31C4C
  8
0
 10
-375.193913533765
 20
848.82347979284771
 30
0.0
 40
0.3776234922651207
 50
92.750618092001005
 51
170.0918027348917
  0
LINE
  5
31C4D
  8
0
 10
-375.5659046652674
 20
848.7514319942203
 30
0.0
 11
-377.0659046652674
 21
848.7514319942203
 31
0.0
  0
LINE
  5
31C4E
  8
0
 10
-377.0659046652674
 20
848.7514319942203
 30
0.0
 11
-377.0659046652674
 21
856.56519561370715
 31
0.0
  0
LINE
  5
31C4F
  8
0
 10
-370.401976382589
 20
853.00140186358669
 30
0.0
 11
-377.0659046652674
 21
853.00140186358669
 31
0.0
  0
LINE
  5
31C50
  8
0
 10
-374.55768952521453
 20
852.06704919207596
 30
0.0
 11
-377.0659046652674
 21
852.06704919207596
 31
0.0
  0
LINE
  5
31C51
  8
0
 10
-375.21132790912981
 20
849.98060864413901
 30
0.0
 11
-377.0659046652674
 21
849.98060864413878
 31
0.0
  0
LINE
  5
31C52
  8
0
 10
-375.2120352712214
 20
849.3503582888244
 30
0.0
 11
-377.0659046652674
 21
849.3503582888244
 31
0.0
  0
LINE
  5
31C53
  8
0
 10
-375.2120352712214
 20
849.20066821332489
 30
0.0
 11
-377.0659046652674
 21
849.20066821332466
 31
0.0
  0
LINE
  5
31C54
  8
0
 10
-375.5659046652674
 20
848.88845748128006
 30
0.0
 11
-377.0659046652674
 21
848.88845748128006
 31
0.0
  0
LINE
  5
31C55
  8
0
 10
-369.151976382589
 20
854.063259774063
 30
0.0
 11
-377.0659046652674
 21
854.063259774063
 31
0.0
  0
VIEWPORT
  5
BADA
 67
     1
  8
0
 10
5.249999665167536
 20
4.0168608648543138
 30
0.0
 40
16.023543186357209
 41
8.0117715931786062
 68
     1
 69
     1
1001
ACAD
1000
MVIEW
1002
{
1070
    16
1010
0.0
1020
0.0
1030
0.0
1010
0.0
1020
0.0
1030
1.0
1040
0.0
1040
8.0117715931786062
1040
5.249999665167536
1040
4.0168608648543138
1040
50.0
1040
0.0
1040
0.0
1070
     0
1070
   100
1070
     1
1070
     1
1070
     0
1070
     0
1070
     0
1070
     0
1040
0.0
1040
0.0
1040
0.0
1040
0.5
1040
0.5
1040
0.5
1040
0.5
1070
     0
1002
{
1002
}
1002
}
  0
VIEWPORT
  5
BADD
 67
     1
  8
0
 10
5.2499996294871929
 20
4.0166741807634683
 30
0.0
 40
10.44245679893058
 41
7.8813805131999892
 68
     2
 69
     2
1001
ACAD
1000
MVIEW
1002
{
1070
    16
1010
0.0
1020
0.0
1030
0.0
1010
0.0
1020
0.0
1030
1.0
1040
0.0
1040
15.8958042907696
1040
-367.71040381089227
1040
852.2813706353362
1040
50.0
1040
0.0
1040
0.0
1070
     0
1070
   100
1070
     1
1070
     2
1070
     0
1070
     0
1070
     0
1070
     0
1040
0.0
1040
0.0
1040
0.0
1040
0.5
1040
0.5
1040
0.5
1040
0.5
1070
     0
1002
{
1002
}
1002
}
  0
ENDSEC
  0
EOF
