  0
SECTION
  2
HEADER
  9
$ACADVER
  1
AC1009
  9
$INSBASE
 10
0.0
 20
0.0
 30
0.0
  9
$EXTMIN
 10
-382.53419390346619
 20
843.22550599210876
 30
0.0
  9
$EXTMAX
 10
-373.44222412029472
 20
848.89838843523478
 30
0.0
  9
$LIMMIN
 10
0.0
 20
0.0
  9
$LIMMAX
 10
1500.0
 20
1500.0
  9
$ORTHOMODE
 70
     0
  9
$REGENMODE
 70
     1
  9
$FILLMODE
 70
     1
  9
$QTEXTMODE
 70
     0
  9
$MIRRTEXT
 70
     1
  9
$DRAGMODE
 70
     2
  9
$LTSCALE
 40
1.0
  9
$OSMODE
 70
    37
  9
$ATTMODE
 70
     1
  9
$TEXTSIZE
 40
1.5
  9
$TRACEWID
 40
0.05
  9
$TEXTSTYLE
  7
STANDARD
  9
$CLAYER
  8
0
  9
$CELTYPE
  6
BYLAYER
  9
$CECOLOR
 62
   256
  9
$DIMSCALE
 40
1.0
  9
$DIMASZ
 40
0.75
  9
$DIMEXO
 40
1.5
  9
$DIMDLI
 40
2.0
  9
$DIMRND
 40
0.0
  9
$DIMDLE
 40
0.0
  9
$DIMEXE
 40
1.0
  9
$DIMTP
 40
0.0
  9
$DIMTM
 40
0.0
  9
$DIMTXT
 40
1.5
  9
$DIMCEN
 40
2.0
  9
$DIMTSZ
 40
0.0
  9
$DIMTOL
 70
     0
  9
$DIMLIM
 70
     0
  9
$DIMTIH
 70
     0
  9
$DIMTOH
 70
     0
  9
$DIMSE1
 70
     0
  9
$DIMSE2
 70
     0
  9
$DIMTAD
 70
     1
  9
$DIMZIN
 70
     0
  9
$DIMBLK
  1
ARCHTICK
  9
$DIMASO
 70
     1
  9
$DIMSHO
 70
     1
  9
$DIMPOST
  1
"
  9
$DIMAPOST
  1

  9
$DIMALT
 70
     0
  9
$DIMALTD
 70
     2
  9
$DIMALTF
 40
25.399999999999999
  9
$DIMLFAC
 40
1.0
  9
$DIMTOFL
 70
     0
  9
$DIMTVP
 40
0.0
  9
$DIMTIX
 70
     1
  9
$DIMSOXD
 70
     0
  9
$DIMSAH
 70
     0
  9
$DIMBLK1
  1

  9
$DIMBLK2
  1

  9
$DIMSTYLE
  2
THREE_QUARTER_INCH_SCALE
  9
$DIMCLRD
 70
     0
  9
$DIMCLRE
 70
     0
  9
$DIMCLRT
 70
     0
  9
$DIMTFAC
 40
1.0
  9
$DIMGAP
 40
1.0
  9
$LUNITS
 70
     2
  9
$LUPREC
 70
     4
  9
$SKETCHINC
 40
0.1
  9
$FILLETRAD
 40
0.0
  9
$AUNITS
 70
     0
  9
$AUPREC
 70
     0
  9
$MENU
  1
.
  9
$ELEVATION
 40
0.0
  9
$PELEVATION
 40
0.0
  9
$THICKNESS
 40
0.0
  9
$LIMCHECK
 70
     0
  9
$BLIPMODE
 70
     0
  9
$CHAMFERA
 40
0.5
  9
$CHAMFERB
 40
0.5
  9
$SKPOLY
 70
     0
  9
$TDCREATE
 40
2452089.395738773
  9
$TDUPDATE
 40
2453608.5021367371
  9
$TDINDWG
 40
1.5295566319
  9
$TDUSRTIMER
 40
1.5295566319
  9
$USRTIMER
 70
     1
  9
$ANGBASE
 50
0.0
  9
$ANGDIR
 70
     0
  9
$PDMODE
 70
     0
  9
$PDSIZE
 40
10.0
  9
$PLINEWID
 40
0.0
  9
$COORDS
 70
     1
  9
$SPLFRAME
 70
     0
  9
$SPLINETYPE
 70
     6
  9
$SPLINESEGS
 70
     8
  9
$ATTDIA
 70
     0
  9
$ATTREQ
 70
     1
  9
$HANDLING
 70
     1
  9
$HANDSEED
  5
31C5B
  9
$SURFTAB1
 70
     6
  9
$SURFTAB2
 70
     6
  9
$SURFTYPE
 70
     6
  9
$SURFU
 70
     6
  9
$SURFV
 70
     6
  9
$UCSNAME
  2

  9
$UCSORG
 10
0.0
 20
0.0
 30
0.0
  9
$UCSXDIR
 10
1.0
 20
0.0
 30
0.0
  9
$UCSYDIR
 10
0.0
 20
1.0
 30
0.0
  9
$PUCSNAME
  2

  9
$PUCSORG
 10
0.0
 20
0.0
 30
0.0
  9
$PUCSXDIR
 10
1.0
 20
0.0
 30
0.0
  9
$PUCSYDIR
 10
0.0
 20
1.0
 30
0.0
  9
$USERI1
 70
     0
  9
$USERI2
 70
     0
  9
$USERI3
 70
     0
  9
$USERI4
 70
     0
  9
$USERI5
 70
     0
  9
$USERR1
 40
0.0
  9
$USERR2
 40
0.0
  9
$USERR3
 40
0.0
  9
$USERR4
 40
0.0
  9
$USERR5
 40
0.0
  9
$WORLDVIEW
 70
     1
  9
$SHADEDGE
 70
     3
  9
$SHADEDIF
 70
    70
  9
$TILEMODE
 70
     0
  9
$MAXACTVP
 70
    64
  9
$PLIMCHECK
 70
     0
  9
$PEXTMIN
 10
0.0287712300219028
 20
0.0759839241634737
 30
0.0
  9
$PEXTMAX
 10
10.47122802895248
 20
7.957364437363462
 30
0.0
  9
$PLIMMIN
 10
-0.2500002402958907
 20
-0.2499999962453767
  9
$PLIMMAX
 10
10.74999951940821
 20
8.2499997634587316
  9
$UNITMODE
 70
     0
  9
$VISRETAIN
 70
     1
  9
$PLINEGEN
 70
     0
  9
$PSLTSCALE
 70
     1
  0
ENDSEC
  0
SECTION
  2
TABLES
  0
TABLE
  2
VPORT
 70
     3
  0
VPORT
  2
*ACTIVE
 70
     0
 10
0.0
 20
0.0
 11
1.0
 21
1.0
 12
-380.70010693656201
 22
845.16779400026962
 13
0.0
 23
0.0
 14
0.5
 24
0.5
 15
0.5
 25
0.5
 16
0.0
 26
0.0
 36
1.0
 17
0.0
 27
0.0
 37
0.0
 40
8.8173627230431642
 41
2.0
 42
50.0
 43
0.0
 44
0.0
 50
0.0
 51
0.0
 71
     0
 72
   100
 73
     1
 74
     2
 75
     0
 76
     0
 77
     0
 78
     0
  0
ENDTAB
  0
TABLE
  2
LTYPE
 70
     1
  0
LTYPE
  2
CONTINUOUS
 70
     0
  3
Solid line
 72
    65
 73
     0
 40
0.0
  0
ENDTAB
  0
TABLE
  2
LAYER
 70
    10
  0
LAYER
  2
0
 70
     0
 62
     7
  6
CONTINUOUS
  0
LAYER
  2
DEFPOINTS
 70
     0
 62
     7
  6
CONTINUOUS
  0
LAYER
  2
FRAME_200
 70
     0
 62
     8
  6
CONTINUOUS
  0
LAYER
  2
FRAME_070
 70
     0
 62
     5
  6
CONTINUOUS
  0
LAYER
  2
FRAME_050
 70
     0
 62
     6
  6
CONTINUOUS
  0
LAYER
  2
TITLE_BLOCK
 70
     0
 62
     7
  6
CONTINUOUS
  0
LAYER
  2
FRAME_025
 70
     0
 62
     7
  6
CONTINUOUS
  0
LAYER
  2
VIEWPORT
 70
     0
 62
     7
  6
CONTINUOUS
  0
LAYER
  2
PROF
 70
     0
 62
     7
  6
CONTINUOUS
  0
LAYER
  2
PROFILE
 70
     0
 62
     7
  6
CONTINUOUS
  0
ENDTAB
  0
TABLE
  2
STYLE
 70
     2
  0
STYLE
  2
STANDARD
 70
     0
 40
0.0
 41
1.0
 50
0.0
 71
     0
 42
1.5
  3
txt
  4

  0
STYLE
  2
ISO_PROPORTIONAL
 70
     0
 40
0.0
 41
1.0
 50
0.0
 71
     0
 42
2.5
  3
isocp.shx
  4

  0
ENDTAB
  0
TABLE
  2
VIEW
 70
     6
  0
ENDTAB
  0
TABLE
  2
UCS
 70
     0
  0
ENDTAB
  0
TABLE
  2
APPID
 70
     6
  0
APPID
  2
ACAD
 70
     0
  0
APPID
  2
DCO15
 70
     0
  0
APPID
  2
ACAD_EXEMPT_FROM_CAD_STANDARDS
 70
     0
  0
APPID
  2
ACAD_PSEXT
 70
     0
  0
APPID
  2
CONTENTBLOCKDESCRIPTION
 70
     0
  0
APPID
  2
CONTENTBLOCKICON
 70
     0
  0
ENDTAB
  0
TABLE
  2
DIMSTYLE
 70
     5
  0
DIMSTYLE
  2
FULL_SCALE
 70
     0
  3
"
  4

  5
ARCHTICK
  6

  7

 40
1.0
 41
0.046875
 42
0.09375
 43
0.125
 44
0.0625
 45
0.0
 46
0.0
 47
0.0
 48
0.0
140
0.125
141
0.125
142
0.0
143
25.399999999999999
144
1.0
145
0.0
146
1.0
147
0.0625
 71
     0
 72
     0
 73
     0
 74
     0
 75
     0
 76
     0
 77
     1
 78
     0
170
     0
171
     2
172
     0
173
     0
174
     1
175
     0
176
     0
177
     0
178
     0
  0
DIMSTYLE
  2
HALF_SCALE
 70
     0
  3
"
  4

  5
ARCHTICK
  6

  7

 40
1.0
 41
0.09375
 42
0.1875
 43
0.25
 44
0.125
 45
0.0
 46
0.0
 47
0.0
 48
0.0
140
0.25
141
0.25
142
0.0
143
25.399999999999999
144
1.0
145
0.0
146
1.0
147
0.125
 71
     0
 72
     0
 73
     0
 74
     0
 75
     0
 76
     0
 77
     1
 78
     0
170
     0
171
     2
172
     0
173
     0
174
     1
175
     0
176
     0
177
     0
178
     0
  0
DIMSTYLE
  2
INCH_SCALE
 70
     0
  3
"
  4

  5
ARCHTICK
  6

  7

 40
1.0
 41
0.5625
 42
1.125
 43
1.5
 44
0.75
 45
0.0
 46
0.0
 47
0.0
 48
0.0
140
1.125
141
1.5
142
0.0
143
25.399999999999999
144
1.0
145
0.0
146
1.0
147
0.75
 71
     0
 72
     0
 73
     0
 74
     0
 75
     0
 76
     0
 77
     1
 78
     0
170
     0
171
     2
172
     0
173
     0
174
     1
175
     0
176
     0
177
     0
178
     0
  0
DIMSTYLE
  2
THREE_QUARTER_INCH_SCALE
 70
     0
  3
"
  4

  5
ARCHTICK
  6

  7

 40
1.0
 41
0.75
 42
1.5
 43
2.0
 44
1.0
 45
0.0
 46
0.0
 47
0.0
 48
0.0
140
1.5
141
2.0
142
0.0
143
25.399999999999999
144
1.0
145
0.0
146
1.0
147
1.0
 71
     0
 72
     0
 73
     0
 74
     0
 75
     0
 76
     0
 77
     1
 78
     0
170
     0
171
     2
172
     0
173
     0
174
     1
175
     0
176
     0
177
     0
178
     0
  0
DIMSTYLE
  2
ZHALF_INCH_SCALE
 70
     0
  3
"
  4

  5
ARCHTICK
  6

  7

 40
1.0
 41
1.125
 42
2.25
 43
3.0
 44
1.5
 45
0.0
 46
0.0
 47
0.0
 48
0.0
140
2.25
141
3.0
142
0.0
143
25.399999999999999
144
1.0
145
0.0
146
1.0
147
1.5
 71
     0
 72
     0
 73
     0
 74
     0
 75
     0
 76
     0
 77
     1
 78
     0
170
     0
171
     2
172
     0
173
     0
174
     1
175
     0
176
     0
177
     0
178
     0
  0
ENDTAB
  0
ENDSEC
  0
SECTION
  2
BLOCKS
  0
BLOCK
  8
0
  2
$MODEL_SPACE
 70
     0
 10
0.0
 20
0.0
 30
0.0
  3
$MODEL_SPACE
  1

  0
ENDBLK
  5
21
  8
0
  0
BLOCK
 67
     1
  8
0
  2
$PAPER_SPACE
 70
     0
 10
0.0
 20
0.0
 30
0.0
  3
$PAPER_SPACE
  1

  0
ENDBLK
  5
BAD5
 67
     1
  8
0
  0
BLOCK
  8
0
  2
_ARCHTICK
 70
     0
 10
0.0
 20
0.0
 30
0.0
  3
_ARCHTICK
  1

  0
POLYLINE
  5
158
  8
0
  6
BYBLOCK
 62
     0
 66
     1
 10
0.0
 20
0.0
 30
0.0
 40
0.15
 41
0.15
  0
VERTEX
  5
31061
  8
0
  6
BYBLOCK
 62
     0
 10
-0.5
 20
-0.5
 30
0.0
  0
VERTEX
  5
31062
  8
0
  6
BYBLOCK
 62
     0
 10
0.5
 20
0.5
 30
0.0
  0
SEQEND
  5
31063
  8
0
  6
BYBLOCK
 62
     0
  0
ENDBLK
  5
15A
  8
0
  0
BLOCK
  8
0
  2
_OPEN30
 70
     0
 10
0.0
 20
0.0
 30
0.0
  3
_OPEN30
  1

  0
LINE
  5
15C
  8
0
  6
BYBLOCK
 62
     0
 10
-1.0
 20
0.26794919
 30
0.0
 11
0.0
 21
0.0
 31
0.0
  0
LINE
  5
15D
  8
0
  6
BYBLOCK
 62
     0
 10
0.0
 20
0.0
 30
0.0
 11
-1.0
 21
-0.26794919
 31
0.0
  0
LINE
  5
15E
  8
0
  6
BYBLOCK
 62
     0
 10
0.0
 20
0.0
 30
0.0
 11
-1.0
 21
0.0
 31
0.0
  0
ENDBLK
  5
160
  8
0
  0
BLOCK
  8
0
  2
ISO_A2_TITLE_BLOCK
 70
     2
 10
0.0
 20
0.0
 30
0.0
  3
ISO_A2_TITLE_BLOCK
  1

  0
LINE
  5
BDD
  8
FRAME_050
 10
299.5
 20
12.5
 30
0.0
 11
297.0
 21
7.5
 31
0.0
  0
LINE
  5
BDE
  8
FRAME_050
 10
294.5
 20
12.5
 30
0.0
 11
299.5
 21
12.5
 31
0.0
  0
LINE
  5
BDF
  8
FRAME_050
 10
247.0
 20
5.0
 30
0.0
 11
347.0
 21
5.0
 31
0.0
  0
LINE
  5
BE0
  8
FRAME_070
 10
584.0
 20
410.0
 30
0.0
 11
10.0
 21
410.0
 31
0.0
  0
LINE
  5
BE1
  8
FRAME_070
 10
10.0
 20
10.0
 30
0.0
 11
584.0
 21
10.0
 31
0.0
  0
LINE
  5
BE2
  8
FRAME_050
 10
12.5
 20
207.5
 30
0.0
 11
7.5
 21
210.0
 31
0.0
  0
LINE
  5
BE3
  8
FRAME_050
 10
12.5
 20
212.5
 30
0.0
 11
12.5
 21
207.5
 31
0.0
  0
LINE
  5
BE4
  8
FRAME_070
 10
10.0
 20
410.0
 30
0.0
 11
10.0
 21
10.0
 31
0.0
  0
LINE
  5
BE5
  8
FRAME_200
 10
0.0
 20
0.0
 30
0.0
 11
0.0
 21
10.0
 31
0.0
  0
LINE
  5
BE6
  8
FRAME_200
 10
0.0
 20
0.0
 30
0.0
 11
10.0
 21
0.0
 31
0.0
  0
TEXT
  5
BE7
  8
FRAME_050
 10
5.9000000000000004
 20
35.0
 30
0.0
 40
4.0
  1
H
  7
ISO_PROPORTIONAL
 72
     4
 11
7.5
 21
37.0
 31
0.0
  0
LINE
  5
BE8
  8
FRAME_050
 10
10.0
 20
60.0
 30
0.0
 11
5.0
 21
60.0
 31
0.0
  0
LINE
  5
BE9
  8
FRAME_050
 10
81.75
 20
5.0
 30
0.0
 11
81.75
 21
10.0
 31
0.0
  0
TEXT
  5
BEA
  8
FRAME_050
 10
44.874999999999993
 20
5.5
 30
0.0
 40
4.0
  1
1
  7
ISO_PROPORTIONAL
 72
     4
 11
45.875
 21
7.5
 31
0.0
  0
TEXT
  5
BEB
  8
FRAME_050
 10
6.0035533905932743
 20
85.0
 30
0.0
 40
4.0
  1
G
  7
ISO_PROPORTIONAL
 72
     4
 11
7.5
 21
87.0
 31
0.0
  0
LINE
  5
BEC
  8
FRAME_050
 10
10.0
 20
110.0
 30
0.0
 11
5.0
 21
110.0
 31
0.0
  0
TEXT
  5
BED
  8
FRAME_050
 10
6.0999999999999988
 20
135.0
 30
0.0
 40
4.0
  1
F
  7
ISO_PROPORTIONAL
 72
     4
 11
7.5
 21
137.0
 31
0.0
  0
LINE
  5
BEE
  8
FRAME_050
 10
10.0
 20
160.0
 30
0.0
 11
5.0
 21
160.0
 31
0.0
  0
TEXT
  5
BEF
  8
FRAME_050
 10
6.0999999999999988
 20
185.0
 30
0.0
 40
4.0
  1
E
  7
ISO_PROPORTIONAL
 72
     4
 11
7.5
 21
187.0
 31
0.0
  0
LINE
  5
BF0
  8
FRAME_050
 10
153.5
 20
5.0
 30
0.0
 11
153.5
 21
10.0
 31
0.0
  0
TEXT
  5
BF1
  8
FRAME_050
 10
116.1556692913386
 20
5.3996062992125982
 30
0.0
 40
4.0
  1
2
  7
ISO_PROPORTIONAL
 72
     4
 11
117.625
 21
7.5
 31
0.0
  0
TEXT
  5
BF2
  8
FRAME_050
 10
187.89215728752529
 20
5.5828427124746138
 30
0.0
 40
4.0
  1
3
  7
ISO_PROPORTIONAL
 72
     4
 11
189.375
 21
7.5
 31
0.0
  0
LINE
  5
BF3
  8
FRAME_050
 10
225.25
 20
5.0
 30
0.0
 11
225.25
 21
10.0
 31
0.0
  0
LINE
  5
BF4
  8
FRAME_050
 10
297.0
 20
7.5
 30
0.0
 11
294.5
 21
12.5
 31
0.0
  0
LINE
  5
BF5
  8
FRAME_050
 10
287.0
 20
5.0
 30
0.0
 11
287.0
 21
10.0
 31
0.0
  0
LINE
  5
BF6
  8
FRAME_050
 10
277.0
 20
5.0
 30
0.0
 11
277.0
 21
10.0
 31
0.0
  0
LINE
  5
BF7
  8
FRAME_050
 10
267.0
 20
5.0
 30
0.0
 11
267.0
 21
10.0
 31
0.0
  0
LINE
  5
BF8
  8
FRAME_050
 10
257.0
 20
5.0
 30
0.0
 11
257.0
 21
10.0
 31
0.0
  0
LINE
  5
BF9
  8
FRAME_050
 10
247.0
 20
5.0
 30
0.0
 11
247.0
 21
10.0
 31
0.0
  0
LINE
  5
BFA
  8
FRAME_050
 10
297.0
 20
10.0
 30
0.0
 11
297.0
 21
5.0
 31
0.0
  0
LINE
  5
BFB
  8
FRAME_050
 10
297.0
 20
10.0
 30
0.0
 11
297.0
 21
15.0
 31
0.0
  0
LINE
  5
BFC
  8
FRAME_050
 10
5.0
 20
210.0
 30
0.0
 11
15.0
 21
210.0
 31
0.0
  0
LINE
  5
BFD
  8
FRAME_050
 10
7.5
 20
210.0
 30
0.0
 11
12.5
 21
212.5
 31
0.0
  0
TEXT
  5
BFE
  8
FRAME_050
 10
5.7860912703473977
 20
235.0
 30
0.0
 40
4.0
  1
D
  7
ISO_PROPORTIONAL
 72
     4
 11
7.5
 21
237.0
 31
0.0
  0
LINE
  5
BFF
  8
FRAME_050
 10
10.0
 20
260.0
 30
0.0
 11
5.0
 21
260.0
 31
0.0
  0
TEXT
  5
C00
  8
FRAME_050
 10
6.1931980515339466
 20
285.0
 30
0.0
 40
4.0
  1
C
  7
ISO_PROPORTIONAL
 72
     4
 11
7.5
 21
287.0
 31
0.0
  0
LINE
  5
C01
  8
FRAME_050
 10
10.0
 20
310.0
 30
0.0
 11
5.0
 21
310.0
 31
0.0
  0
TEXT
  5
C02
  8
FRAME_050
 10
5.8999999999999959
 20
335.0
 30
0.0
 40
4.0
  1
B
  7
ISO_PROPORTIONAL
 72
     4
 11
7.5
 21
337.0
 31
0.0
  0
LINE
  5
C03
  8
FRAME_050
 10
10.0
 20
360.0
 30
0.0
 11
5.0
 21
360.0
 31
0.0
  0
TEXT
  5
C04
  8
FRAME_050
 10
5.6999999999999993
 20
385.0
 30
0.0
 40
4.0
  1
A
  7
ISO_PROPORTIONAL
 72
     4
 11
7.5
 21
387.0
 31
0.0
  0
LINE
  5
C05
  8
FRAME_200
 10
10.0
 20
420.0
 30
0.0
 11
0.0
 21
420.0
 31
0.0
  0
LINE
  5
C06
  8
FRAME_200
 10
0.0
 20
420.0
 30
0.0
 11
0.0
 21
410.0
 31
0.0
  0
TEXT
  5
C07
  8
FRAME_050
 10
44.874999999999993
 20
410.5
 30
0.0
 40
4.0
  1
1
  7
ISO_PROPORTIONAL
 72
     4
 11
45.875
 21
412.5
 31
0.0
  0
LINE
  5
C08
  8
FRAME_050
 10
81.75
 20
410.0
 30
0.0
 11
81.75
 21
415.0
 31
0.0
  0
TEXT
  5
C09
  8
FRAME_050
 10
116.1556692913386
 20
410.39960629921262
 30
0.0
 40
4.0
  1
2
  7
ISO_PROPORTIONAL
 72
     4
 11
117.625
 21
412.5
 31
0.0
  0
LINE
  5
C0A
  8
FRAME_050
 10
153.5
 20
410.0
 30
0.0
 11
153.5
 21
415.0
 31
0.0
  0
TEXT
  5
C0B
  8
FRAME_050
 10
187.89215728752529
 20
410.58284271247459
 30
0.0
 40
4.0
  1
3
  7
ISO_PROPORTIONAL
 72
     4
 11
189.375
 21
412.5
 31
0.0
  0
LINE
  5
C0C
  8
FRAME_050
 10
297.0
 20
405.0
 30
0.0
 11
297.0
 21
415.0
 31
0.0
  0
LINE
  5
C0D
  8
FRAME_050
 10
225.25
 20
410.0
 30
0.0
 11
225.25
 21
415.0
 31
0.0
  0
TEXT
  5
C0E
  8
FRAME_050
 10
259.52499999999998
 20
410.5
 30
0.0
 40
4.0
  1
4
  7
ISO_PROPORTIONAL
 72
     4
 11
261.125
 21
412.5
 31
0.0
  0
LINE
  5
C0F
  8
FRAME_070
 10
584.0
 20
10.0
 30
0.0
 11
584.0
 21
410.0
 31
0.0
  0
ATTDEF
  5
C10
  8
FRAME_025
 10
473.0
 20
31.75
 30
0.0
 40
2.5
  1
XXX - 00/00/00
  7
ISO_PROPORTIONAL
 11
473.0
 21
33.0
 31
0.0
  3
Approved by - Date
  2
APPROVED_BY_DATE
 70
     8
 74
     2
  0
TEXT
  5
C11
  8
FRAME_025
 10
448.0
 20
41.749999999999993
 30
0.0
 40
2.5
  1
Title/Name, designation, material, dimension etc
  7
ISO_PROPORTIONAL
 11
448.0
 21
43.0
 31
0.0
 73
     2
  0
TEXT
  5
C12
  8
FRAME_025
 10
473.0
 20
35.75
 30
0.0
 40
2.5
  1
Approved by - date
  7
ISO_PROPORTIONAL
 11
473.0
 21
37.0
 31
0.0
 73
     2
  0
LINE
  5
C13
  8
FRAME_070
 10
414.0
 20
46.0
 30
0.0
 11
584.0
 21
46.0
 31
0.0
  0
LINE
  5
C14
  8
FRAME_070
 10
414.0
 20
40.0
 30
0.0
 11
584.0
 21
40.0
 31
0.0
  0
LINE
  5
C15
  8
FRAME_070
 10
414.0
 20
30.0
 30
0.0
 11
584.0
 21
30.0
 31
0.0
  0
LINE
  5
C16
  8
FRAME_050
 10
368.75
 20
5.0
 30
0.0
 11
368.75
 21
10.0
 31
0.0
  0
LINE
  5
C17
  8
FRAME_050
 10
337.0
 20
5.0
 30
0.0
 11
337.0
 21
10.0
 31
0.0
  0
LINE
  5
C18
  8
FRAME_050
 10
327.0
 20
5.0
 30
0.0
 11
327.0
 21
10.0
 31
0.0
  0
LINE
  5
C19
  8
FRAME_050
 10
317.0
 20
5.0
 30
0.0
 11
317.0
 21
10.0
 31
0.0
  0
LINE
  5
C1A
  8
FRAME_050
 10
307.0
 20
5.0
 30
0.0
 11
307.0
 21
10.0
 31
0.0
  0
LINE
  5
C1B
  8
FRAME_050
 10
347.0
 20
5.0
 30
0.0
 11
347.0
 21
10.0
 31
0.0
  0
LINE
  5
C1C
  8
FRAME_050
 10
440.5
 20
5.0
 30
0.0
 11
440.5
 21
10.0
 31
0.0
  0
TEXT
  5
C1D
  8
FRAME_050
 10
403.24547244094481
 20
5.4102362204724406
 30
0.0
 40
4.0
  1
6
  7
ISO_PROPORTIONAL
 72
     4
 11
404.62499999999989
 21
7.5
 31
0.0
  0
TEXT
  5
C1E
  8
FRAME_050
 10
474.97500000000002
 20
5.5
 30
0.0
 40
4.0
  1
7
  7
ISO_PROPORTIONAL
 72
     4
 11
476.37499999999989
 21
7.5
 31
0.0
  0
TEXT
  5
C1F
  8
FRAME_025
 10
431.0
 20
41.749999999999993
 30
0.0
 40
2.5
  1
Quantity
  7
ISO_PROPORTIONAL
 11
431.0
 21
43.0
 31
0.0
 73
     2
  0
TEXT
  5
C20
  8
FRAME_025
 10
416.0
 20
41.749999999999993
 30
0.0
 40
2.5
  1
Itemref
  7
ISO_PROPORTIONAL
 11
416.0
 21
43.0
 31
0.0
 73
     2
  0
LINE
  5
C21
  8
FRAME_070
 10
414.0
 20
40.0
 30
0.0
 11
414.0
 21
46.0
 31
0.0
  0
LINE
  5
C22
  8
FRAME_070
 10
429.0
 20
40.0
 30
0.0
 11
429.0
 21
46.0
 31
0.0
  0
LINE
  5
C23
  8
FRAME_070
 10
414.0
 20
10.0
 30
0.0
 11
414.0
 21
40.0
 31
0.0
  0
ATTDEF
  5
C24
  8
FRAME_025
 10
416.0
 20
31.75
 30
0.0
 40
2.5
  1
XXX
  7
ISO_PROPORTIONAL
 11
416.0
 21
33.0
 31
0.0
  3
Designed by
  2
DESIGNED_BY
 70
     8
 74
     2
  0
TEXT
  5
C25
  8
FRAME_025
 10
416.0
 20
35.75
 30
0.0
 40
2.5
  1
Designed by
  7
ISO_PROPORTIONAL
 11
416.0
 21
37.0
 31
0.0
 73
     2
  0
LINE
  5
C26
  8
FRAME_070
 10
446.0
 20
40.0
 30
0.0
 11
446.0
 21
46.0
 31
0.0
  0
ATTDEF
  5
C27
  8
FRAME_025
 10
448.0
 20
31.75
 30
0.0
 40
2.5
  1
XXX
  7
ISO_PROPORTIONAL
 11
448.0
 21
33.0
 31
0.0
  3
Checked by
  2
CHECKED_BY
 70
     8
 74
     2
  0
TEXT
  5
C28
  8
FRAME_025
 10
448.0
 20
35.75
 30
0.0
 40
2.5
  1
Checked by
  7
ISO_PROPORTIONAL
 11
448.0
 21
37.0
 31
0.0
 73
     2
  0
ATTDEF
  5
C29
  8
FRAME_050
 10
444.74999999999989
 20
17.5
 30
0.0
 40
5.0
  1
XXX
  7
ISO_PROPORTIONAL
 72
     4
 11
451.49999999999989
 21
20.0
 31
0.0
  3
Owner
  2
OWNER
 70
     8
  0
LINE
  5
C2A
  8
FRAME_070
 10
446.0
 20
30.0
 30
0.0
 11
446.0
 21
40.0
 31
0.0
  0
LINE
  5
C2B
  8
FRAME_070
 10
471.0
 20
30.0
 30
0.0
 11
471.0
 21
40.0
 31
0.0
  0
LINE
  5
C2C
  8
FRAME_070
 10
489.0
 20
20.0
 30
0.0
 11
584.0
 21
20.0
 31
0.0
  0
LINE
  5
C2D
  8
FRAME_050
 10
512.25
 20
5.0
 30
0.0
 11
512.25
 21
10.0
 31
0.0
  0
TEXT
  5
C2E
  8
FRAME_050
 10
546.72499999999991
 20
5.5
 30
0.0
 40
4.0
  1
8
  7
ISO_PROPORTIONAL
 72
     4
 11
548.125
 21
7.5
 31
0.0
  0
ATTDEF
  5
C2F
  8
FRAME_050
 10
517.64999999999986
 20
13.5
 30
0.0
 40
3.0
  1
X
  7
ISO_PROPORTIONAL
 72
     4
 11
519.0
 21
15.0
 31
0.0
  3
Drawing number
  2
DRAWING_NUMBER
 70
     8
  0
ATTDEF
  5
C30
  8
FRAME_050
 10
529.75
 20
22.5
 30
0.0
 40
5.0
  1
XXX
  7
ISO_PROPORTIONAL
 72
     4
 11
536.5
 21
25.0
 31
0.0
  3
Title / Name
  2
TITLE
 70
     8
  0
LINE
  5
C31
  8
FRAME_070
 10
489.0
 20
10.0
 30
0.0
 11
489.0
 21
30.0
 31
0.0
  0
ATTDEF
  5
C32
  8
FRAME_025
 10
511.0
 20
31.75
 30
0.0
 40
2.5
  1
XXX
  7
ISO_PROPORTIONAL
 11
511.0
 21
33.0
 31
0.0
  3
Filename
  2
FILENAME
 70
     8
 74
     2
  0
TEXT
  5
C33
  8
FRAME_025
 10
511.0
 20
35.75
 30
0.0
 40
2.5
  1
Filename
  7
ISO_PROPORTIONAL
 11
511.0
 21
37.0
 31
0.0
 73
     2
  0
LINE
  5
C34
  8
FRAME_070
 10
509.0
 20
30.0
 30
0.0
 11
509.0
 21
40.0
 31
0.0
  0
TEXT
  5
C35
  8
FRAME_025
 10
536.0
 20
41.749999999999993
 30
0.0
 40
2.5
  1
Article No./Reference
  7
ISO_PROPORTIONAL
 11
536.0
 21
43.0
 31
0.0
 73
     2
  0
LINE
  5
C36
  8
FRAME_070
 10
534.0
 20
40.0
 30
0.0
 11
534.0
 21
46.0
 31
0.0
  0
ATTDEF
  5
C37
  8
FRAME_025
 10
551.0
 20
11.75
 30
0.0
 40
2.5
  1
0
  7
ISO_PROPORTIONAL
 11
551.0
 21
13.0
 31
0.0
  3
Edition
  2
EDITION
 70
     8
 74
     2
  0
TEXT
  5
C38
  8
FRAME_025
 10
551.0
 20
15.75
 30
0.0
 40
2.5
  1
Edition
  7
ISO_PROPORTIONAL
 11
551.0
 21
17.0
 31
0.0
 73
     2
  0
LINE
  5
C39
  8
FRAME_070
 10
549.0
 20
10.0
 30
0.0
 11
549.0
 21
20.0
 31
0.0
  0
ATTDEF
  5
C3A
  8
FRAME_025
 10
536.0
 20
31.75
 30
0.0
 40
2.5
  1
00/00/00
  7
ISO_PROPORTIONAL
 11
536.0
 21
33.0
 31
0.0
  3
Date
  2
DATE
 70
     8
 74
     2
  0
TEXT
  5
C3B
  8
FRAME_025
 10
536.0
 20
35.75
 30
0.0
 40
2.5
  1
Date
  7
ISO_PROPORTIONAL
 11
536.0
 21
37.0
 31
0.0
 73
     2
  0
LINE
  5
C3C
  8
FRAME_070
 10
534.0
 20
30.0
 30
0.0
 11
534.0
 21
40.0
 31
0.0
  0
ATTDEF
  5
C3D
  8
FRAME_025
 10
566.0
 20
11.75
 30
0.0
 40
2.5
  1
1/1
  7
ISO_PROPORTIONAL
 11
566.0
 21
13.0
 31
0.0
  3
Sheet
  2
SHEET
 70
     8
 74
     2
  0
TEXT
  5
C3E
  8
FRAME_025
 10
566.0
 20
15.75
 30
0.0
 40
2.5
  1
Sheet
  7
ISO_PROPORTIONAL
 11
566.0
 21
17.0
 31
0.0
 73
     2
  0
LINE
  5
C3F
  8
FRAME_070
 10
564.0
 20
10.0
 30
0.0
 11
564.0
 21
20.0
 31
0.0
  0
ATTDEF
  5
C40
  8
FRAME_025
 10
566.0
 20
31.75
 30
0.0
 40
2.5
  1
1:1
  7
ISO_PROPORTIONAL
 11
566.0
 21
33.0
 31
0.0
  3
Scale
  2
SCALE
 70
     8
 74
     2
  0
TEXT
  5
C41
  8
FRAME_025
 10
566.0
 20
35.75
 30
0.0
 40
2.5
  1
Scale
  7
ISO_PROPORTIONAL
 11
566.0
 21
37.0
 31
0.0
 73
     2
  0
LINE
  5
C42
  8
FRAME_070
 10
564.0
 20
30.0
 30
0.0
 11
564.0
 21
40.0
 31
0.0
  0
LINE
  5
C43
  8
FRAME_200
 10
594.0
 20
0.0
 30
0.0
 11
594.0
 21
10.0
 31
0.0
  0
LINE
  5
C44
  8
FRAME_200
 10
594.0
 20
0.0
 30
0.0
 11
584.0
 21
0.0
 31
0.0
  0
TEXT
  5
C45
  8
FRAME_050
 10
584.89999999999998
 20
35.0
 30
0.0
 40
4.0
  1
H
  7
ISO_PROPORTIONAL
 72
     4
 11
586.5
 21
37.0
 31
0.0
  0
LINE
  5
C46
  8
FRAME_050
 10
589.0
 20
60.0
 30
0.0
 11
584.0
 21
60.0
 31
0.0
  0
TEXT
  5
C47
  8
FRAME_050
 10
585.0035533905932
 20
85.0
 30
0.0
 40
4.0
  1
G
  7
ISO_PROPORTIONAL
 72
     4
 11
586.5
 21
87.0
 31
0.0
  0
LINE
  5
C48
  8
FRAME_050
 10
589.0
 20
110.0
 30
0.0
 11
584.0
 21
110.0
 31
0.0
  0
TEXT
  5
C49
  8
FRAME_050
 10
585.09999999999991
 20
135.0
 30
0.0
 40
4.0
  1
F
  7
ISO_PROPORTIONAL
 72
     4
 11
586.5
 21
137.0
 31
0.0
  0
LINE
  5
C4A
  8
FRAME_050
 10
589.0
 20
160.0
 30
0.0
 11
584.0
 21
160.0
 31
0.0
  0
TEXT
  5
C4B
  8
FRAME_050
 10
585.09999999999991
 20
185.0
 30
0.0
 40
4.0
  1
E
  7
ISO_PROPORTIONAL
 72
     4
 11
586.5
 21
187.0
 31
0.0
  0
LINE
  5
C4C
  8
FRAME_070
 10
414.0
 20
404.0
 30
0.0
 11
584.0
 21
404.0
 31
0.0
  0
TEXT
  5
C4D
  8
FRAME_050
 10
331.39215728752538
 20
410.58284271247459
 30
0.0
 40
4.0
  1
5
  7
ISO_PROPORTIONAL
 72
     4
 11
332.875
 21
412.5
 31
0.0
  0
LINE
  5
C4E
  8
FRAME_050
 10
368.75
 20
410.0
 30
0.0
 11
368.75
 21
415.0
 31
0.0
  0
TEXT
  5
C4F
  8
FRAME_025
 10
428.0
 20
405.75
 30
0.0
 40
2.5
  1
Revision note
  7
ISO_PROPORTIONAL
 11
428.0
 21
407.0
 31
0.0
 73
     2
  0
TEXT
  5
C50
  8
FRAME_025
 10
416.0
 20
405.75
 30
0.0
 40
2.5
  1
RevNo
  7
ISO_PROPORTIONAL
 11
416.0
 21
407.0
 31
0.0
 73
     2
  0
LINE
  5
C51
  8
FRAME_070
 10
426.0
 20
404.0
 30
0.0
 11
426.0
 21
410.0
 31
0.0
  0
LINE
  5
C52
  8
FRAME_070
 10
414.0
 20
404.0
 30
0.0
 11
414.0
 21
410.0
 31
0.0
  0
TEXT
  5
C53
  8
FRAME_050
 10
403.24547244094481
 20
410.41023622047243
 30
0.0
 40
4.0
  1
6
  7
ISO_PROPORTIONAL
 72
     4
 11
404.62499999999989
 21
412.5
 31
0.0
  0
LINE
  5
C54
  8
FRAME_050
 10
440.5
 20
410.0
 30
0.0
 11
440.5
 21
415.0
 31
0.0
  0
TEXT
  5
C55
  8
FRAME_050
 10
474.97500000000002
 20
410.5
 30
0.0
 40
4.0
  1
7
  7
ISO_PROPORTIONAL
 72
     4
 11
476.37499999999989
 21
412.5
 31
0.0
  0
LINE
  5
C56
  8
FRAME_050
 10
579.0
 20
210.0
 30
0.0
 11
589.0
 21
210.0
 31
0.0
  0
TEXT
  5
C57
  8
FRAME_050
 10
584.78609127034736
 20
235.0
 30
0.0
 40
4.0
  1
D
  7
ISO_PROPORTIONAL
 72
     4
 11
586.5
 21
237.0
 31
0.0
  0
LINE
  5
C58
  8
FRAME_050
 10
589.0
 20
260.0
 30
0.0
 11
584.0
 21
260.0
 31
0.0
  0
TEXT
  5
C59
  8
FRAME_050
 10
585.19319805153395
 20
285.0
 30
0.0
 40
4.0
  1
C
  7
ISO_PROPORTIONAL
 72
     4
 11
586.5
 21
287.0
 31
0.0
  0
LINE
  5
C5A
  8
FRAME_050
 10
589.0
 20
310.0
 30
0.0
 11
584.0
 21
310.0
 31
0.0
  0
TEXT
  5
C5B
  8
FRAME_050
 10
584.89999999999998
 20
335.0
 30
0.0
 40
4.0
  1
B
  7
ISO_PROPORTIONAL
 72
     4
 11
586.5
 21
337.0
 31
0.0
  0
TEXT
  5
C5C
  8
FRAME_025
 10
571.08299391850551
 20
405.75
 30
0.0
 40
2.5
  1
Checked
  7
ISO_PROPORTIONAL
 11
571.08299391850551
 21
407.0
 31
0.0
 73
     2
  0
TEXT
  5
C5D
  8
FRAME_025
 10
555.36099797283532
 20
405.75
 30
0.0
 40
2.5
  1
Signature
  7
ISO_PROPORTIONAL
 11
555.36099797283532
 21
407.0
 31
0.0
 73
     2
  0
TEXT
  5
C5E
  8
FRAME_025
 10
537.0
 20
405.75
 30
0.0
 40
2.5
  1
Date
  7
ISO_PROPORTIONAL
 11
537.0
 21
407.0
 31
0.0
 73
     2
  0
LINE
  5
C5F
  8
FRAME_070
 10
570.0
 20
404.0
 30
0.0
 11
570.0
 21
410.0
 31
0.0
  0
LINE
  5
C60
  8
FRAME_070
 10
555.0
 20
404.0
 30
0.0
 11
555.0
 21
410.0
 31
0.0
  0
LINE
  5
C61
  8
FRAME_070
 10
535.0
 20
404.0
 30
0.0
 11
535.0
 21
410.0
 31
0.0
  0
LINE
  5
C62
  8
FRAME_050
 10
512.25
 20
410.0
 30
0.0
 11
512.25
 21
415.0
 31
0.0
  0
TEXT
  5
C63
  8
FRAME_050
 10
546.72499999999991
 20
410.5
 30
0.0
 40
4.0
  1
8
  7
ISO_PROPORTIONAL
 72
     4
 11
548.125
 21
412.5
 31
0.0
  0
LINE
  5
C64
  8
FRAME_050
 10
589.0
 20
360.0
 30
0.0
 11
584.0
 21
360.0
 31
0.0
  0
TEXT
  5
C65
  8
FRAME_050
 10
584.70000000000005
 20
385.0
 30
0.0
 40
4.0
  1
A
  7
ISO_PROPORTIONAL
 72
     4
 11
586.5
 21
387.0
 31
0.0
  0
LINE
  5
C66
  8
FRAME_200
 10
594.0
 20
420.0
 30
0.0
 11
584.0
 21
420.0
 31
0.0
  0
LINE
  5
C67
  8
FRAME_200
 10
594.0
 20
410.0
 30
0.0
 11
594.0
 21
420.0
 31
0.0
  0
ENDBLK
  5
C69
  8
0
  0
BLOCK
  8
0
  2
WOBB001END
 70
     0
 10
0.0
 20
0.0
 30
0.0
  3
WOBB001END
  1

  0
LINE
  5
4D66
  8
0
  6
CONTINUOUS
 10
0.0
 20
0.0
 30
0.0
 11
0.8749999999999998
 21
0.0
 31
0.0
  0
ARC
  5
4D67
  8
0
  6
CONTINUOUS
 10
0.0331648379439287
 20
-0.5087238935900232
 30
0.0
 40
0.8790130605592325
 50
284.06490243660443
 51
312.19222981924361
  0
ARC
  5
4D68
  8
0
  6
CONTINUOUS
 10
0.2841534338796767
 20
-1.510548310625538
 30
0.0
 40
0.1537731892806598
 50
104.0649024366044
 51
179.4721730735024
  0
LINE
  5
4D69
  8
0
  6
CONTINUOUS
 10
0.0
 20
0.0
 30
0.0
 11
-0.0000000000000003
 21
-1.7501564476661919
 31
0.0
  0
ARC
  5
4D6A
  8
0
  6
CONTINUOUS
 10
0.1404622019506122
 20
-1.6303137183546199
 30
0.0
 40
0.1198427293115722
 50
275.0
 51
85.000000000000057
  0
LINE
  5
4D6B
  8
0
  6
CONTINUOUS
 10
-0.0000000000000003
 20
-1.7501564476661919
 30
0.0
 11
0.1456946485130855
 21
-1.7501564476661919
 31
0.0
  0
LINE
  5
4D6C
  8
0
  6
CONTINUOUS
 10
0.1377603739254348
 20
-1.7508506067459131
 30
0.0
 11
0.150907184036669
 21
-1.749700409899652
 31
0.0
  0
LINE
  5
4D6D
  8
0
  6
CONTINUOUS
 10
0.1303867696719884
 20
-1.5091317231818231
 30
0.0
 11
0.1509071840366689
 21
-1.5109270268095869
 31
0.0
  0
LINE
  5
4D6E
  8
0
  6
CONTINUOUS
 10
0.8749999999999998
 20
0.0
 30
0.0
 11
0.8749999999999996
 21
-0.8649327026588228
 31
0.0
  0
LINE
  5
4D6F
  8
0
  6
CONTINUOUS
 10
0.727014513830997
 20
-0.8726882933550612
 30
0.0
 11
0.727014513830997
 21
-0.9264923397184784
 31
0.0
  0
ARC
  5
4D70
  8
0
  6
CONTINUOUS
 10
0.41187090827646
 20
-0.9264923397184784
 30
0.0
 40
0.315143605554537
 50
312.19222981924361
 51
0.0
  0
LINE
  5
4D71
  8
0
  6
CONTINUOUS
 10
0.727014513830997
 20
-0.8726882933550612
 30
0.0
 11
0.8749999999999996
 21
-0.8649327026588228
 31
0.0
  0
ENDBLK
  5
4D72
  8
0
  0
BLOCK
  8
0
  2
A$C0A61123B
 70
     0
 10
0.0
 20
0.0
 30
0.0
  3
A$C0A61123B
  1

  0
LINE
  5
C0AD
  8
PROF
  6
CONTINUOUS
 10
4.9012016798694162
 20
13.325025853350891
 30
0.0000000000000002
 11
4.9012016798694162
 21
12.88585218805485
 31
0.0000000000000003
  0
INSERT
  5
C0AE
  8
0
  2
*U42
 10
0.0
 20
0.0
 30
0.0
  0
LINE
  5
C0AF
  8
PROF
 10
4.5198575031869259
 20
12.72227734589444
 30
0.0000000000000001
 11
4.5198575031869259
 21
12.88585218805485
 31
0.0000000000000001
  0
LINE
  5
C0B0
  8
PROF
  6
CONTINUOUS
 10
3.6306271195888371
 20
13.325025853350891
 30
0.0000000000000002
 11
4.9012016798694162
 21
13.325025853350891
 31
0.0000000000000002
  0
LINE
  5
C0B1
  8
PROF
 10
1.9750295148747341
 20
10.37671325491794
 30
0.0000000000000002
 11
1.9750295148747341
 21
10.11391186758919
 31
0.0000000000000002
  0
LINE
  5
C0B2
  8
PROF
 10
1.607967335755631
 20
10.11391186758919
 30
0.0000000000000001
 11
1.9750295148747341
 21
10.11391186758919
 31
0.0000000000000001
  0
LINE
  5
C0B3
  8
PROF
 10
1.9750295148747341
 20
10.11391186758919
 30
0.0000000000000001
 11
1.944958486898144
 21
10.11391186758919
 31
0.0000000000000001
  0
LINE
  5
C0B4
  8
PROF
 10
1.9750295148747341
 20
10.11391186758919
 30
0.0000000000000001
 11
1.944958486898144
 21
10.11391186758919
 31
0.0000000000000001
  0
LINE
  5
C0B5
  8
PROF
 10
0.3222605517169654
 20
7.5247473351056442
 30
-0.0000000000000002
 11
-0.0000008570117416
 21
7.5247473351056442
 31
0.0
  0
LINE
  5
C0B6
  8
PROF
 10
-0.0000008570117416
 20
7.5247473351056442
 30
0.0
 11
-0.0000008570117416
 21
9.1943336957369866
 31
0.0
  0
POLYLINE
  5
C0B7
  8
PROF
 66
     1
 10
0.0
 20
0.0
 30
0.0000000000000001
 70
     4
 75
     6
  0
VERTEX
  5
C0B8
  8
PROF
 10
1.607967335755631
 20
10.11391186758919
 30
0.0000000000000001
 70
    16
  0
VERTEX
  5
C0B9
  8
PROF
 10
1.607967335755631
 20
10.11391186758919
 30
0.0000000000000001
 70
     8
  0
VERTEX
  5
C0BA
  8
PROF
 10
1.646813232648582
 20
10.02198069336111
 30
0.0000000000000001
 70
     8
  0
VERTEX
  5
C0BB
  8
PROF
 10
1.67335966680929
 20
9.9344134163010267
 30
0.0000000000000001
 70
     8
  0
VERTEX
  5
C0BC
  8
PROF
 10
1.689008640046324
 20
9.8512576644480987
 30
0.0000000000000001
 70
     8
  0
VERTEX
  5
C0BD
  8
PROF
 10
1.695162154168258
 20
9.7725610658417281
 30
0.0000000000000001
 70
     8
  0
VERTEX
  5
C0BE
  8
PROF
 10
1.6932222109836059
 20
9.6983712485214255
 30
0.0000000000000001
 70
     8
  0
VERTEX
  5
C0BF
  8
PROF
 10
1.6845908123009961
 20
9.6287358405263603
 30
0.0000000000000001
 70
     8
  0
VERTEX
  5
C0C0
  8
PROF
 10
1.6706699599288859
 20
9.5637024698960431
 30
0.0000000000000001
 70
     8
  0
VERTEX
  5
C0C1
  8
PROF
 10
1.6528616556759621
 20
9.503318764669757
 30
0.0000000000000001
 70
     8
  0
VERTEX
  5
C0C2
  8
PROF
 10
1.6323562992730549
 20
9.4475843259650674
 30
0.0000000000000001
 70
     8
  0
VERTEX
  5
C0C3
  8
PROF
 10
1.609497882140658
 20
9.3963066472123273
 30
0.0000000000000001
 70
     8
  0
VERTEX
  5
C0C4
  8
PROF
 10
1.584418793621637
 20
9.3492451949202842
 30
0.0000000000000001
 70
     8
  0
VERTEX
  5
C0C5
  8
PROF
 10
1.557251423058744
 20
9.3061594355972375
 30
0.0000000000000001
 70
     8
  0
VERTEX
  5
C0C6
  8
PROF
 10
1.5281281597949601
 20
9.2668088357519292
 30
0.0000000000000001
 70
     8
  0
VERTEX
  5
C0C7
  8
PROF
 10
1.4971813931729789
 20
9.2309528618930017
 30
0.0000000000000001
 70
     8
  0
VERTEX
  5
C0C8
  8
PROF
 10
1.464543512535726
 20
9.1983509805288577
 30
0.0000000000000001
 70
     8
  0
VERTEX
  5
C0C9
  8
PROF
 10
1.4303469072260091
 20
9.1687626581682462
 30
0.0000000000000001
 70
     8
  0
VERTEX
  5
C0CA
  8
PROF
 10
1.3947360332574019
 20
9.1419547918675335
 30
0.0000000000000001
 70
     8
  0
VERTEX
  5
C0CB
  8
PROF
 10
1.3579036133264131
 20
9.1177240008747731
 30
0.0000000000000001
 70
     8
  0
VERTEX
  5
C0CC
  8
PROF
 10
1.3200544368004321
 20
9.0958743349860924
 30
0.0000000000000001
 70
     8
  0
VERTEX
  5
C0CD
  8
PROF
 10
1.281393293046676
 20
9.0762098439975034
 30
0.0000000000000001
 70
     8
  0
VERTEX
  5
C0CE
  8
PROF
 10
1.242124971432417
 20
9.0585345777049042
 30
0.0000000000000001
 70
     8
  0
VERTEX
  5
C0CF
  8
PROF
 10
1.2024542613249869
 20
9.0426525859044204
 30
0.0000000000000001
 70
     8
  0
VERTEX
  5
C0D0
  8
PROF
 10
1.1625859520916599
 20
9.0283679183919503
 30
0.0000000000000001
 70
     8
  0
VERTEX
  5
C0D1
  8
PROF
 10
1.1227248330997091
 20
9.0154846249635057
 30
0.0000000000000001
 70
     8
  0
VERTEX
  5
C0D2
  8
PROF
 10
1.0829726247361
 20
9.0034643862466055
 30
0.0000000000000001
 70
     8
  0
VERTEX
  5
C0D3
  8
PROF
 10
1.043018771466222
 20
8.9903994061946833
 30
0.0000000000000001
 70
     8
  0
VERTEX
  5
C0D4
  8
PROF
 10
1.002449648775211
 20
8.9740395195925657
 30
0.0000000000000001
 70
     8
  0
VERTEX
  5
C0D5
  8
PROF
 10
0.9608516321480919
 20
8.9521345612251935
 30
0.0000000000000001
 70
     8
  0
VERTEX
  5
C0D6
  8
PROF
 10
0.9178110970699435
 20
8.9224343658775052
 30
0.0000000000000001
 70
     8
  0
VERTEX
  5
C0D7
  8
PROF
 10
0.8729144190259034
 20
8.8826887683343312
 30
0.0000000000000001
 70
     8
  0
VERTEX
  5
C0D8
  8
PROF
 10
0.8257479735009951
 20
8.8306476033806121
 30
0.0000000000000001
 70
     8
  0
VERTEX
  5
C0D9
  8
PROF
 10
0.7758981359802988
 20
8.764060705801171
 30
0.0000000000000001
 70
     8
  0
VERTEX
  5
C0DA
  8
PROF
 10
1.729201901609656
 20
9.8629858761255491
 30
0.0000000000000001
 70
    16
  0
VERTEX
  5
C0DB
  8
PROF
 10
1.6793731231140889
 20
9.4532143012734196
 30
0.0000000000000001
 70
    16
  0
VERTEX
  5
C0DC
  8
PROF
 10
1.4455611507419801
 20
9.1391837193732481
 30
0.0000000000000001
 70
    16
  0
VERTEX
  5
C0DD
  8
PROF
 10
1.120463717273821
 20
9.0026267702428413
 30
0.0000000000000001
 70
    16
  0
VERTEX
  5
C0DE
  8
PROF
 10
0.9127765582653638
 20
8.9630202230383702
 30
0.0000000000000001
 70
    16
  0
VERTEX
  5
C0DF
  8
PROF
 10
0.7758981359802988
 20
8.764060705801171
 30
0.0000000000000001
 70
    16
  0
SEQEND
  5
C0E0
  8
PROF
  0
ARC
  5
C0E1
  8
PROF
 10
0.733429816733235
 20
8.4849506952165257
 30
0.0000000000000001
 40
0.2823224329524727
 50
269.73652020831901
 51
81.348449993176914
  0
LINE
  5
C0E2
  8
PROF
  6
CONTINUOUS
 10
-0.0000008570117416
 20
9.1943336957369866
 30
-0.0000000000000001
 11
3.6306271195888371
 21
13.325025853350891
 31
0.0000000000000002
  0
POLYLINE
  5
C0E3
  8
PROF
 66
     1
 10
0.0
 20
0.0
 30
0.0000000000000001
 70
     4
 75
     6
  0
VERTEX
  5
C0E4
  8
PROF
 10
4.5198575031869259
 20
12.72227734589444
 30
0.0000000000000001
 70
    16
  0
VERTEX
  5
C0E5
  8
PROF
 10
4.5198575031869259
 20
12.72227734589444
 30
0.0000000000000001
 70
     8
  0
VERTEX
  5
C0E6
  8
PROF
 10
4.4467035366886298
 20
12.741128108778071
 30
0.0000000000000001
 70
     8
  0
VERTEX
  5
C0E7
  8
PROF
 10
4.3786645761268801
 20
12.754675269913941
 30
0.0000000000000001
 70
     8
  0
VERTEX
  5
C0E8
  8
PROF
 10
4.3154364111440477
 20
12.76334314092332
 30
0.0000000000000001
 70
     8
  0
VERTEX
  5
C0E9
  8
PROF
 10
4.256714831382566
 20
12.76755603342724
 30
0.0000000000000001
 70
     8
  0
VERTEX
  5
C0EA
  8
PROF
 10
4.2021956264849791
 20
12.76773825904672
 30
0.0000000000000001
 70
     8
  0
VERTEX
  5
C0EB
  8
PROF
 10
4.1515745860935453
 20
12.764314129403139
 30
0.0000000000000001
 70
     8
  0
VERTEX
  5
C0EC
  8
PROF
 10
4.1045474998508658
 20
12.75770795611743
 30
0.0000000000000001
 70
     8
  0
VERTEX
  5
C0ED
  8
PROF
 10
4.0608101573993158
 20
12.748344050810831
 30
0.0000000000000001
 70
     8
  0
VERTEX
  5
C0EE
  8
PROF
 10
4.0200583483813261
 20
12.736646725104491
 30
0.0000000000000001
 70
     8
  0
VERTEX
  5
C0EF
  8
PROF
 10
3.9819878624393819
 20
12.72304029061945
 30
0.0000000000000001
 70
     8
  0
VERTEX
  5
C0F0
  8
PROF
 10
3.946294489215858
 20
12.707949058976959
 30
0.0000000000000001
 70
     8
  0
VERTEX
  5
C0F1
  8
PROF
 10
3.9126740183532429
 20
12.691797341798059
 30
0.0000000000000001
 70
     8
  0
VERTEX
  5
C0F2
  8
PROF
 10
3.8808638350742508
 20
12.67494295718654
 30
0.0000000000000001
 70
     8
  0
VERTEX
  5
C0F3
  8
PROF
 10
3.850767706922738
 20
12.65747774917668
 30
0.0000000000000001
 70
     8
  0
VERTEX
  5
C0F4
  8
PROF
 10
3.8223309970228452
 20
12.639427068285499
 30
0.0000000000000001
 70
     8
  0
VERTEX
  5
C0F5
  8
PROF
 10
3.7954990684987129
 20
12.62081626503004
 30
0.0000000000000001
 70
     8
  0
VERTEX
  5
C0F6
  8
PROF
 10
3.7702172844744828
 20
12.601670689926999
 30
0.0000000000000001
 70
     8
  0
VERTEX
  5
C0F7
  8
PROF
 10
3.746431008074353
 20
12.58201569349364
 30
0.0000000000000001
 70
     8
  0
VERTEX
  5
C0F8
  8
PROF
 10
3.7240856024224618
 20
12.56187662624666
 30
0.0000000000000001
 70
     8
  0
VERTEX
  5
C0F9
  8
PROF
 10
3.7031264306428961
 20
12.541278838703191
 30
0.0000000000000001
 70
     8
  0
VERTEX
  5
C0FA
  8
PROF
 10
3.6834988558599089
 20
12.520247681380051
 30
0.0000000000000001
 70
     8
  0
VERTEX
  5
C0FB
  8
PROF
 10
3.665148241197528
 20
12.49880850479428
 30
0.0000000000000001
 70
     8
  0
VERTEX
  5
C0FC
  8
PROF
 10
3.6480199497799499
 20
12.47698665946279
 30
0.0000000000000001
 70
     8
  0
VERTEX
  5
C0FD
  8
PROF
 10
3.6320593447313172
 20
12.45480749590263
 30
0.0000000000000001
 70
     8
  0
VERTEX
  5
C0FE
  8
PROF
 10
3.6171895848866589
 20
12.43223790353807
 30
0.0000000000000001
 70
     8
  0
VERTEX
  5
C0FF
  8
PROF
 10
3.6032450119242858
 20
12.40901092742285
 30
0.0000000000000001
 70
     8
  0
VERTEX
  5
C100
  8
PROF
 10
3.590037763233453
 20
12.38480115151844
 30
0.0000000000000001
 70
     8
  0
VERTEX
  5
C101
  8
PROF
 10
3.5773799762033032
 20
12.35928315978594
 30
0.0000000000000001
 70
     8
  0
VERTEX
  5
C102
  8
PROF
 10
3.5650837882230908
 20
12.33213153618658
 30
0.0000000000000001
 70
     8
  0
VERTEX
  5
C103
  8
PROF
 10
3.5529613366819599
 20
12.303020864681571
 30
0.0000000000000001
 70
     8
  0
VERTEX
  5
C104
  8
PROF
 10
3.540824758969165
 20
12.271625729232371
 30
0.0000000000000001
 70
     8
  0
VERTEX
  5
C105
  8
PROF
 10
3.5284861924738489
 20
12.23762071379997
 30
0.0000000000000001
 70
     8
  0
VERTEX
  5
C106
  8
PROF
 10
3.5157577745852668
 20
12.200680402345711
 30
0.0000000000000001
 70
     8
  0
VERTEX
  5
C107
  8
PROF
 10
3.5024516426926189
 20
12.16047937883093
 30
0.0000000000000001
 70
     8
  0
VERTEX
  5
C108
  8
PROF
 10
3.4883799341851041
 20
12.116692227216619
 30
0.0000000000000001
 70
     8
  0
VERTEX
  5
C109
  8
PROF
 10
3.4733547864519201
 20
12.06899353146423
 30
0.0000000000000001
 70
     8
  0
VERTEX
  5
C10A
  8
PROF
 10
3.45723654619428
 20
12.0172095445447
 30
0.0000000000000001
 70
     8
  0
VERTEX
  5
C10B
  8
PROF
 10
3.4400783973613889
 20
11.961773195467799
 30
0.0000000000000001
 70
     8
  0
VERTEX
  5
C10C
  8
PROF
 10
3.421981733214579
 20
11.90326908225302
 30
0.0000000000000001
 70
     8
  0
VERTEX
  5
C10D
  8
PROF
 10
3.4030479470150108
 20
11.842281802919951
 30
0.0000000000000001
 70
     8
  0
VERTEX
  5
C10E
  8
PROF
 10
3.383378432024017
 20
11.779395955487979
 30
0.0000000000000001
 70
     8
  0
VERTEX
  5
C10F
  8
PROF
 10
3.3630745815028709
 20
11.715196137976809
 30
0.0000000000000001
 70
     8
  0
VERTEX
  5
C110
  8
PROF
 10
3.3422377887127359
 20
11.650266948405831
 30
0.0000000000000001
 70
     8
  0
VERTEX
  5
C111
  8
PROF
 10
3.320969446915
 20
11.58519298479461
 30
0.0000000000000001
 70
     8
  0
VERTEX
  5
C112
  8
PROF
 10
3.2993709493707679
 20
11.520558845162549
 30
0.0000000000000001
 70
     8
  0
VERTEX
  5
C113
  8
PROF
 10
3.277543689341428
 20
11.456949127529469
 30
0.0000000000000001
 70
     8
  0
VERTEX
  5
C114
  8
PROF
 10
3.2555890600881412
 20
11.3949484299145
 30
0.0000000000000001
 70
     8
  0
VERTEX
  5
C115
  8
PROF
 10
3.233608454872182
 20
11.335141350337491
 30
0.0000000000000001
 70
     8
  0
VERTEX
  5
C116
  8
PROF
 10
3.2116715641212181
 20
11.27799544797778
 30
0.0000000000000001
 70
     8
  0
VERTEX
  5
C117
  8
PROF
 10
3.189721266927847
 20
11.22351012665467
 30
0.0000000000000001
 70
     8
  0
VERTEX
  5
C118
  8
PROF
 10
3.1676687395512881
 20
11.17156775134765
 30
0.0000000000000001
 70
     8
  0
VERTEX
  5
C119
  8
PROF
 10
3.1454251582505321
 20
11.12205068703588
 30
0.0000000000000001
 70
     8
  0
VERTEX
  5
C11A
  8
PROF
 10
3.122901699284625
 20
11.07484129869874
 30
0.0000000000000001
 70
     8
  0
VERTEX
  5
C11B
  8
PROF
 10
3.1000095389127291
 20
11.02982195131551
 30
0.0000000000000001
 70
     8
  0
VERTEX
  5
C11C
  8
PROF
 10
3.0766598533938909
 20
10.986875009865679
 30
0.0000000000000001
 70
     8
  0
VERTEX
  5
C11D
  8
PROF
 10
3.0527638189871591
 20
10.9458828393283
 30
0.0000000000000001
 70
     8
  0
VERTEX
  5
C11E
  8
PROF
 10
3.0282326119516361
 20
10.90672780468298
 30
0.0000000000000001
 70
     8
  0
VERTEX
  5
C11F
  8
PROF
 10
3.002977408546371
 20
10.869292270908771
 30
0.0000000000000001
 70
     8
  0
VERTEX
  5
C120
  8
PROF
 10
2.9769093850304098
 20
10.833458602985161
 30
0.0000000000000001
 70
     8
  0
VERTEX
  5
C121
  8
PROF
 10
2.9499397176628568
 20
10.799109165891419
 30
0.0000000000000001
 70
     8
  0
VERTEX
  5
C122
  8
PROF
 10
2.9220006098404379
 20
10.76614363969508
 30
0.0000000000000001
 70
     8
  0
VERTEX
  5
C123
  8
PROF
 10
2.8931083735103011
 20
10.7345309648158
 30
0.0000000000000001
 70
     8
  0
VERTEX
  5
C124
  8
PROF
 10
2.8633003477572738
 20
10.70425739676193
 30
0.0000000000000001
 70
     8
  0
VERTEX
  5
C125
  8
PROF
 10
2.8326138716660689
 20
10.67530919104115
 30
0.0000000000000001
 70
     8
  0
VERTEX
  5
C126
  8
PROF
 10
2.8010862843216269
 20
10.647672603161711
 30
0.0000000000000001
 70
     8
  0
VERTEX
  5
C127
  8
PROF
 10
2.7687549248087171
 20
10.62133388863162
 30
0.0000000000000001
 70
     8
  0
VERTEX
  5
C128
  8
PROF
 10
2.735657132212054
 20
10.5962793029588
 30
0.0000000000000001
 70
     8
  0
VERTEX
  5
C129
  8
PROF
 10
2.7018302456165202
 20
10.572495101651381
 30
0.0000000000000001
 70
     8
  0
VERTEX
  5
C12A
  8
PROF
 10
2.6673116041068852
 20
10.54996754021726
 30
0.0000000000000001
 70
     8
  0
VERTEX
  5
C12B
  8
PROF
 10
2.6321385467680321
 20
10.528682874164581
 30
0.0000000000000001
 70
     8
  0
VERTEX
  5
C12C
  8
PROF
 10
2.5963484126846188
 20
10.508627359001251
 30
0.0000000000000001
 70
     8
  0
VERTEX
  5
C12D
  8
PROF
 10
2.5599785409415849
 20
10.489787250235279
 30
0.0000000000000001
 70
     8
  0
VERTEX
  5
C12E
  8
PROF
 10
2.522998630314361
 20
10.472162234281081
 30
0.0000000000000001
 70
     8
  0
VERTEX
  5
C12F
  8
PROF
 10
2.4851078183409072
 20
10.455805721177621
 30
0.0000000000000001
 70
     8
  0
VERTEX
  5
C130
  8
PROF
 10
2.4459376022498982
 20
10.44078455187036
 30
0.0000000000000001
 70
     8
  0
VERTEX
  5
C131
  8
PROF
 10
2.4051194792701258
 20
10.42716556730465
 30
0.0000000000000001
 70
     8
  0
VERTEX
  5
C132
  8
PROF
 10
2.3622849466301541
 20
10.415015608425851
 30
0.0000000000000001
 70
     8
  0
VERTEX
  5
C133
  8
PROF
 10
2.3170655015587149
 20
10.40440151617929
 30
0.0000000000000001
 70
     8
  0
VERTEX
  5
C134
  8
PROF
 10
2.2690926412844301
 20
10.395390131510339
 30
0.0000000000000001
 70
     8
  0
VERTEX
  5
C135
  8
PROF
 10
2.2179978630360888
 20
10.388048295364451
 30
0.0000000000000001
 70
     8
  0
VERTEX
  5
C136
  8
PROF
 10
2.1634126640422551
 20
10.38244284868688
 30
0.0000000000000001
 70
     8
  0
VERTEX
  5
C137
  8
PROF
 10
2.104968541531604
 20
10.37864063242295
 30
0.0000000000000001
 70
     8
  0
VERTEX
  5
C138
  8
PROF
 10
2.0422969927328718
 20
10.37670848751816
 30
0.0000000000000001
 70
     8
  0
VERTEX
  5
C139
  8
PROF
 10
1.9750295148747341
 20
10.37671325491794
 30
0.0000000000000001
 70
     8
  0
VERTEX
  5
C13A
  8
PROF
 10
4.2166060115107484
 20
12.80885334975255
 30
0.0000000000000001
 70
    16
  0
VERTEX
  5
C13B
  8
PROF
 10
3.8702254102732918
 20
12.707065515763929
 30
0.0000000000000001
 70
    16
  0
VERTEX
  5
C13C
  8
PROF
 10
3.605346156896871
 20
12.46277472098552
 30
0.0000000000000001
 70
    16
  0
VERTEX
  5
C13D
  8
PROF
 10
3.500746030527238
 20
12.170680575709749
 30
0.0000000000000001
 70
    16
  0
VERTEX
  5
C13E
  8
PROF
 10
3.231798439705698
 20
11.26846416496107
 30
0.0000000000000001
 70
    16
  0
VERTEX
  5
C13F
  8
PROF
 10
2.9737109398832891
 20
10.76631086647069
 30
0.0000000000000001
 70
    16
  0
VERTEX
  5
C140
  8
PROF
 10
2.5729961067384011
 20
10.460947364504699
 30
0.0000000000000001
 70
    16
  0
VERTEX
  5
C141
  8
PROF
 10
2.253782621454604
 20
10.372731239449759
 30
0.0000000000000001
 70
    16
  0
VERTEX
  5
C142
  8
PROF
 10
1.9750295148747341
 20
10.37671325491794
 30
0.0000000000000001
 70
    16
  0
SEQEND
  5
C143
  8
PROF
  0
LINE
  5
C144
  8
PROF
 10
4.9012016798694162
 20
12.88585218805485
 30
0.0000000000000003
 11
4.5198575031869259
 21
12.88585218805485
 31
0.0000000000000003
  0
LINE
  5
C145
  8
PROF
 10
0.7321315362267457
 20
8.2026312473991538
 30
0.0000000000000006
 11
0.7321315362267457
 21
8.0511853963434987
 31
0.0000000000000006
  0
ARC
  5
C146
  8
PROF
 10
0.7977322214551919
 20
7.5773339332026799
 30
0.0000000000000006
 40
0.4783708383912012
 50
97.882010168942529
 51
186.31119505698649
  0
LINE
  5
C147
  8
FRAME_050
 10
7.8016377197432121
 20
17.99371054969447
 30
0.0
 11
7.8016377197432121
 21
0.0000000000002274
 31
0.0
  0
ENDBLK
  5
C149
  8
0
  0
BLOCK
  8
0
  2
A$C3A7C6791
 70
     0
 10
0.0
 20
0.0
 30
0.0
  3
A$C3A7C6791
  1

  0
ARC
  5
1A561
  8
0
 10
1.0342682520551421
 20
11.169869575314801
 30
0.0
 40
0.3900479059662017
 50
183.5871702804647
 51
250.12003892297869
  0
ARC
  5
1A562
  8
0
 10
0.3331235273064408
 20
14.96835148878222
 30
0.0
 40
0.279776987736341
 50
290.26301102890392
 51
72.509116341854423
  0
ARC
  5
1A563
  8
0
 10
0.7948887850711232
 20
10.60700392177659
 30
0.0
 40
0.2232361910347119
 50
300.2914142988875
 51
61.434469032044603
  0
LINE
  5
1A564
  8
0
 10
-0.0000015027120526
 20
9.7351929270671462
 30
0.0
 11
1.0332573394856579
 21
9.7351929270671462
 31
0.0
  0
LINE
  5
1A565
  8
0
 10
1.0332573394856579
 20
10.377304601683591
 30
0.0
 11
0.9074887268004658
 21
10.377304601683591
 31
0.0
  0
LINE
  5
1A566
  8
0
 10
0.6449845421777241
 20
11.145465432783791
 30
0.0
 11
0.5554296092705046
 21
11.181249222917581
 31
0.0
  0
LINE
  5
1A567
  8
0
 10
0.5554296092705046
 20
14.67010534946894
 30
0.0
 11
0.430018718777319
 21
14.67010534946894
 31
0.0
  0
LINE
  5
1A568
  8
0
 10
0.4172116339615855
 20
15.235192927067139
 30
0.0
 11
-0.0000015027120526
 21
15.235192927067139
 31
0.0
  0
LINE
  5
1A569
  8
0
 10
-0.0000015027120526
 20
15.235192927067139
 30
0.0
 11
-0.0000015027120526
 21
9.7351929270671462
 31
0.0
  0
LINE
  5
1A56A
  8
0
 10
1.0332573394856579
 20
9.7351929270671462
 30
0.0
 11
1.0332573394856579
 21
10.377304601683591
 31
0.0
  0
LINE
  5
1A56B
  8
0
 10
0.9074887268004658
 20
10.377304601683591
 30
0.0
 11
0.9074887268003521
 21
10.414245912577821
 31
0.0
  0
LINE
  5
1A56C
  8
0
 10
0.5554296092705046
 20
11.181249222917581
 30
0.0
 11
0.5554296092705046
 21
14.67010534946894
 31
0.0
  0
LINE
  5
1A56D
  8
0
 10
0.430018718777319
 20
14.67010534946894
 30
0.0
 11
0.4300187187771485
 21
14.705889139602959
 31
0.0
  0
INSERT
  5
1A56E
  8
0
  2
*U43
 10
0.0
 20
0.0
 30
0.0
  0
LINE
  5
1A56F
  8
FRAME_050
 10
5.1382720395286006
 20
17.993710579095019
 30
0.0
 11
5.1382720395286006
 21
0.0000000294007805
 31
0.0
  0
ENDBLK
  5
1A571
  8
0
  0
BLOCK
  8
0
  2
A$C212248C0
 70
     0
 10
0.0
 20
0.0
 30
0.0
  3
A$C212248C0
  1

  0
LINE
  5
2846E
  8
0
 10
-0.0000002092490945
 20
10.41741894345523
 30
0.0
 11
-0.000000218823061
 21
12.91741894345523
 31
0.0
  0
LINE
  5
2846F
  8
0
 10
0.8061752779508424
 20
10.41741894654251
 30
0.0
 11
0.80617527442746
 21
11.337459194522349
 31
0.0
  0
LINE
  5
28470
  8
0
 10
-0.0000002092490945
 20
10.41741894345523
 30
0.0
 11
0.8061752779508424
 21
10.41741894654251
 31
0.0
  0
LINE
  5
28471
  8
0
 10
-0.000000218823061
 20
12.91741894345523
 30
0.0
 11
0.1835338022692099
 21
12.91741894415804
 31
0.0
  0
LINE
  5
28472
  8
0
 10
0.5432593756756888
 20
11.33745919351543
 30
0.0
 11
0.8061752744275167
 21
11.337459194522349
 31
0.0
  0
LINE
  5
28473
  8
0
 10
0.5432593756756888
 20
11.33745919351543
 30
0.0
 11
0.54325937522907
 21
11.454074799268589
 31
0.0
  0
ARC
  5
28474
  8
0
 10
0.5406585726453841
 20
11.69407225899795
 30
0.0
 40
0.2400115514942006
 50
270.62087814899439
 51
10.065567101317541
  0
ARC
  5
28475
  8
0
 10
0.3766221072655185
 20
12.57830290724473
 30
0.0
 40
0.1204493443528103
 50
92.075522465847911
 51
186.90606997904499
  0
ARC
  5
28476
  8
0
 10
0.3522648873053527
 20
11.66572609276443
 30
0.0
 40
0.4304889887359197
 50
9.3978639632316945
 51
32.979139282634932
  0
ARC
  5
28477
  8
0
 10
-3.1652042745943159
 20
9.0577862235478506
 30
0.0
 40
4.8085319198703189
 50
36.234313076985558
 51
42.402692063571678
  0
LINE
  5
28478
  8
0
 10
0.1835338022692099
 20
12.91741894415804
 30
0.0
 11
0.3722598200128004
 21
12.698673231681139
 31
0.0
  0
ARC
  5
28479
  8
0
 10
0.9319226152692294
 20
12.72987725098619
 30
0.0
 40
0.6950054723870779
 50
193.8233761419454
 51
218.1708864341492
  0
LINE
  5
2847A
  8
0
 10
-0.0000002092490945
 20
10.41741894345523
 30
0.0
 11
-0.0000002092490945
 21
12.91741894345523
 31
0.0
  0
INSERT
  5
2847B
  8
0
  2
*U44
 10
0.0
 20
0.0
 30
0.0
  0
LINE
  5
2847C
  8
FRAME_050
 10
6.2588202718825414
 20
17.993710579095019
 30
0.0
 11
6.2588202718825414
 21
0.0000000294007805
 31
0.0
  0
ENDBLK
  5
2847E
  8
0
  0
BLOCK
  8
0
  2
A$C52DE5D80
 70
     0
 10
0.0
 20
0.0
 30
0.0
  3
A$C52DE5D80
  1

  0
INSERT
  5
2B89A
  8
0
  2
*U45
 10
0.0
 20
0.0
 30
0.0
  0
LINE
  5
2B89B
  8
0
 10
0.0000014767382481
 20
7.878552666495465
 30
0.0
 11
1.5240062297528421
 21
7.8785526664953522
 31
0.0
  0
LINE
  5
2B89C
  8
0
 10
1.5240062297528421
 20
8.3261365866769665
 30
0.0
 11
1.5240062297528421
 21
7.8785526664953522
 31
0.0
  0
LINE
  5
2B89D
  8
0
 10
1.394539806559862
 20
8.3261365866769665
 30
0.0
 11
1.5240062297528421
 21
8.3261365866769665
 31
0.0
  0
LINE
  5
2B89E
  8
0
 10
0.7472076905950758
 20
9.2582948336663549
 30
0.0
 11
0.8951693171012493
 21
9.2582948336665822
 31
0.0
  0
POLYLINE
  8
0
  5
311AD
  62
7
  66
     1
 10
0.000000
 20
0.000000
 30
0.000000
  70
     8
  0
VERTEX
  8
0
  5
311AE
 10
1.39454
 20
8.32614
 30
0.000000
  70
    32
  0
VERTEX
  8
0
  5
311AF
 10
1.39468
 20
8.33131
 30
0.000000
  70
    32
  0
VERTEX
  8
0
  5
311B0
 10
1.39482
 20
8.33649
 30
0.000000
  70
    32
  0
VERTEX
  8
0
  5
311B1
 10
1.39495
 20
8.34167
 30
0.000000
  70
    32
  0
VERTEX
  8
0
  5
311B2
 10
1.39508
 20
8.34684
 30
0.000000
  70
    32
  0
VERTEX
  8
0
  5
311B3
 10
1.39521
 20
8.35201
 30
0.000000
  70
    32
  0
VERTEX
  8
0
  5
311B4
 10
1.39532
 20
8.35718
 30
0.000000
  70
    32
  0
VERTEX
  8
0
  5
311B5
 10
1.39542
 20
8.36234
 30
0.000000
  70
    32
  0
VERTEX
  8
0
  5
311B6
 10
1.39552
 20
8.36749
 30
0.000000
  70
    32
  0
VERTEX
  8
0
  5
311B7
 10
1.39559
 20
8.37264
 30
0.000000
  70
    32
  0
VERTEX
  8
0
  5
311B8
 10
1.39566
 20
8.37779
 30
0.000000
  70
    32
  0
VERTEX
  8
0
  5
311B9
 10
1.39570
 20
8.38292
 30
0.000000
  70
    32
  0
VERTEX
  8
0
  5
311BA
 10
1.39573
 20
8.38805
 30
0.000000
  70
    32
  0
VERTEX
  8
0
  5
311BB
 10
1.39574
 20
8.39316
 30
0.000000
  70
    32
  0
VERTEX
  8
0
  5
311BC
 10
1.39572
 20
8.39827
 30
0.000000
  70
    32
  0
VERTEX
  8
0
  5
311BD
 10
1.39569
 20
8.40337
 30
0.000000
  70
    32
  0
VERTEX
  8
0
  5
311BE
 10
1.39562
 20
8.40845
 30
0.000000
  70
    32
  0
VERTEX
  8
0
  5
311BF
 10
1.39553
 20
8.41352
 30
0.000000
  70
    32
  0
VERTEX
  8
0
  5
311C0
 10
1.39541
 20
8.41858
 30
0.000000
  70
    32
  0
VERTEX
  8
0
  5
311C1
 10
1.39526
 20
8.42363
 30
0.000000
  70
    32
  0
VERTEX
  8
0
  5
311C2
 10
1.39507
 20
8.42866
 30
0.000000
  70
    32
  0
VERTEX
  8
0
  5
311C3
 10
1.39486
 20
8.43367
 30
0.000000
  70
    32
  0
VERTEX
  8
0
  5
311C4
 10
1.39460
 20
8.43867
 30
0.000000
  70
    32
  0
VERTEX
  8
0
  5
311C5
 10
1.39431
 20
8.44365
 30
0.000000
  70
    32
  0
VERTEX
  8
0
  5
311C6
 10
1.39398
 20
8.44862
 30
0.000000
  70
    32
  0
VERTEX
  8
0
  5
311C7
 10
1.39361
 20
8.45356
 30
0.000000
  70
    32
  0
VERTEX
  8
0
  5
311C8
 10
1.39320
 20
8.45849
 30
0.000000
  70
    32
  0
VERTEX
  8
0
  5
311C9
 10
1.39274
 20
8.46339
 30
0.000000
  70
    32
  0
VERTEX
  8
0
  5
311CA
 10
1.39224
 20
8.46828
 30
0.000000
  70
    32
  0
VERTEX
  8
0
  5
311CB
 10
1.39168
 20
8.47314
 30
0.000000
  70
    32
  0
VERTEX
  8
0
  5
311CC
 10
1.39108
 20
8.47798
 30
0.000000
  70
    32
  0
VERTEX
  8
0
  5
311CD
 10
1.39043
 20
8.48280
 30
0.000000
  70
    32
  0
VERTEX
  8
0
  5
311CE
 10
1.38973
 20
8.48759
 30
0.000000
  70
    32
  0
VERTEX
  8
0
  5
311CF
 10
1.38897
 20
8.49236
 30
0.000000
  70
    32
  0
VERTEX
  8
0
  5
311D0
 10
1.38815
 20
8.49711
 30
0.000000
  70
    32
  0
VERTEX
  8
0
  5
311D1
 10
1.38728
 20
8.50182
 30
0.000000
  70
    32
  0
VERTEX
  8
0
  5
311D2
 10
1.38635
 20
8.50651
 30
0.000000
  70
    32
  0
VERTEX
  8
0
  5
311D3
 10
1.38535
 20
8.51117
 30
0.000000
  70
    32
  0
VERTEX
  8
0
  5
311D4
 10
1.38429
 20
8.51581
 30
0.000000
  70
    32
  0
VERTEX
  8
0
  5
311D5
 10
1.38317
 20
8.52041
 30
0.000000
  70
    32
  0
VERTEX
  8
0
  5
311D6
 10
1.38198
 20
8.52498
 30
0.000000
  70
    32
  0
VERTEX
  8
0
  5
311D7
 10
1.38073
 20
8.52953
 30
0.000000
  70
    32
  0
VERTEX
  8
0
  5
311D8
 10
1.37940
 20
8.53404
 30
0.000000
  70
    32
  0
VERTEX
  8
0
  5
311D9
 10
1.37800
 20
8.53851
 30
0.000000
  70
    32
  0
VERTEX
  8
0
  5
311DA
 10
1.37653
 20
8.54296
 30
0.000000
  70
    32
  0
VERTEX
  8
0
  5
311DB
 10
1.37499
 20
8.54737
 30
0.000000
  70
    32
  0
VERTEX
  8
0
  5
311DC
 10
1.37337
 20
8.55175
 30
0.000000
  70
    32
  0
VERTEX
  8
0
  5
311DD
 10
1.37167
 20
8.55609
 30
0.000000
  70
    32
  0
VERTEX
  8
0
  5
311DE
 10
1.36991
 20
8.56040
 30
0.000000
  70
    32
  0
VERTEX
  8
0
  5
311DF
 10
1.36807
 20
8.56468
 30
0.000000
  70
    32
  0
VERTEX
  8
0
  5
311E0
 10
1.36616
 20
8.56893
 30
0.000000
  70
    32
  0
VERTEX
  8
0
  5
311E1
 10
1.36418
 20
8.57314
 30
0.000000
  70
    32
  0
VERTEX
  8
0
  5
311E2
 10
1.36214
 20
8.57733
 30
0.000000
  70
    32
  0
VERTEX
  8
0
  5
311E3
 10
1.36003
 20
8.58148
 30
0.000000
  70
    32
  0
VERTEX
  8
0
  5
311E4
 10
1.35785
 20
8.58560
 30
0.000000
  70
    32
  0
VERTEX
  8
0
  5
311E5
 10
1.35561
 20
8.58970
 30
0.000000
  70
    32
  0
VERTEX
  8
0
  5
311E6
 10
1.35330
 20
8.59377
 30
0.000000
  70
    32
  0
VERTEX
  8
0
  5
311E7
 10
1.35093
 20
8.59781
 30
0.000000
  70
    32
  0
VERTEX
  8
0
  5
311E8
 10
1.34851
 20
8.60182
 30
0.000000
  70
    32
  0
VERTEX
  8
0
  5
311E9
 10
1.34602
 20
8.60581
 30
0.000000
  70
    32
  0
VERTEX
  8
0
  5
311EA
 10
1.34347
 20
8.60976
 30
0.000000
  70
    32
  0
VERTEX
  8
0
  5
311EB
 10
1.34086
 20
8.61370
 30
0.000000
  70
    32
  0
VERTEX
  8
0
  5
311EC
 10
1.33820
 20
8.61761
 30
0.000000
  70
    32
  0
VERTEX
  8
0
  5
311ED
 10
1.33549
 20
8.62149
 30
0.000000
  70
    32
  0
VERTEX
  8
0
  5
311EE
 10
1.33271
 20
8.62535
 30
0.000000
  70
    32
  0
VERTEX
  8
0
  5
311EF
 10
1.32989
 20
8.62919
 30
0.000000
  70
    32
  0
VERTEX
  8
0
  5
311F0
 10
1.32701
 20
8.63300
 30
0.000000
  70
    32
  0
VERTEX
  8
0
  5
311F1
 10
1.32408
 20
8.63679
 30
0.000000
  70
    32
  0
VERTEX
  8
0
  5
311F2
 10
1.32111
 20
8.64056
 30
0.000000
  70
    32
  0
VERTEX
  8
0
  5
311F3
 10
1.31808
 20
8.64431
 30
0.000000
  70
    32
  0
VERTEX
  8
0
  5
311F4
 10
1.31501
 20
8.64803
 30
0.000000
  70
    32
  0
VERTEX
  8
0
  5
311F5
 10
1.31189
 20
8.65174
 30
0.000000
  70
    32
  0
VERTEX
  8
0
  5
311F6
 10
1.30872
 20
8.65543
 30
0.000000
  70
    32
  0
VERTEX
  8
0
  5
311F7
 10
1.30551
 20
8.65910
 30
0.000000
  70
    32
  0
VERTEX
  8
0
  5
311F8
 10
1.30226
 20
8.66275
 30
0.000000
  70
    32
  0
VERTEX
  8
0
  5
311F9
 10
1.29896
 20
8.66638
 30
0.000000
  70
    32
  0
VERTEX
  8
0
  5
311FA
 10
1.29563
 20
8.66999
 30
0.000000
  70
    32
  0
VERTEX
  8
0
  5
311FB
 10
1.29225
 20
8.67359
 30
0.000000
  70
    32
  0
VERTEX
  8
0
  5
311FC
 10
1.28884
 20
8.67717
 30
0.000000
  70
    32
  0
VERTEX
  8
0
  5
311FD
 10
1.28539
 20
8.68074
 30
0.000000
  70
    32
  0
VERTEX
  8
0
  5
311FE
 10
1.28190
 20
8.68429
 30
0.000000
  70
    32
  0
VERTEX
  8
0
  5
311FF
 10
1.27838
 20
8.68782
 30
0.000000
  70
    32
  0
VERTEX
  8
0
  5
31200
 10
1.27482
 20
8.69134
 30
0.000000
  70
    32
  0
VERTEX
  8
0
  5
31201
 10
1.27123
 20
8.69485
 30
0.000000
  70
    32
  0
VERTEX
  8
0
  5
31202
 10
1.26761
 20
8.69835
 30
0.000000
  70
    32
  0
VERTEX
  8
0
  5
31203
 10
1.26396
 20
8.70183
 30
0.000000
  70
    32
  0
VERTEX
  8
0
  5
31204
 10
1.26028
 20
8.70530
 30
0.000000
  70
    32
  0
VERTEX
  8
0
  5
31205
 10
1.25657
 20
8.70876
 30
0.000000
  70
    32
  0
VERTEX
  8
0
  5
31206
 10
1.25283
 20
8.71220
 30
0.000000
  70
    32
  0
VERTEX
  8
0
  5
31207
 10
1.24907
 20
8.71564
 30
0.000000
  70
    32
  0
VERTEX
  8
0
  5
31208
 10
1.24528
 20
8.71907
 30
0.000000
  70
    32
  0
VERTEX
  8
0
  5
31209
 10
1.24147
 20
8.72249
 30
0.000000
  70
    32
  0
VERTEX
  8
0
  5
3120A
 10
1.23764
 20
8.72590
 30
0.000000
  70
    32
  0
VERTEX
  8
0
  5
3120B
 10
1.23379
 20
8.72930
 30
0.000000
  70
    32
  0
VERTEX
  8
0
  5
3120C
 10
1.22991
 20
8.73270
 30
0.000000
  70
    32
  0
VERTEX
  8
0
  5
3120D
 10
1.22601
 20
8.73609
 30
0.000000
  70
    32
  0
VERTEX
  8
0
  5
3120E
 10
1.22210
 20
8.73947
 30
0.000000
  70
    32
  0
VERTEX
  8
0
  5
3120F
 10
1.21817
 20
8.74284
 30
0.000000
  70
    32
  0
VERTEX
  8
0
  5
31210
 10
1.21423
 20
8.74621
 30
0.000000
  70
    32
  0
VERTEX
  8
0
  5
31211
 10
1.21027
 20
8.74958
 30
0.000000
  70
    32
  0
VERTEX
  8
0
  5
31212
 10
1.20629
 20
8.75294
 30
0.000000
  70
    32
  0
VERTEX
  8
0
  5
31213
 10
1.20230
 20
8.75630
 30
0.000000
  70
    32
  0
VERTEX
  8
0
  5
31214
 10
1.19831
 20
8.75965
 30
0.000000
  70
    32
  0
VERTEX
  8
0
  5
31215
 10
1.19430
 20
8.76300
 30
0.000000
  70
    32
  0
VERTEX
  8
0
  5
31216
 10
1.19028
 20
8.76636
 30
0.000000
  70
    32
  0
VERTEX
  8
0
  5
31217
 10
1.18626
 20
8.76970
 30
0.000000
  70
    32
  0
VERTEX
  8
0
  5
31218
 10
1.18222
 20
8.77305
 30
0.000000
  70
    32
  0
VERTEX
  8
0
  5
31219
 10
1.17819
 20
8.77640
 30
0.000000
  70
    32
  0
VERTEX
  8
0
  5
3121A
 10
1.17414
 20
8.77975
 30
0.000000
  70
    32
  0
VERTEX
  8
0
  5
3121B
 10
1.17010
 20
8.78310
 30
0.000000
  70
    32
  0
VERTEX
  8
0
  5
3121C
 10
1.16605
 20
8.78645
 30
0.000000
  70
    32
  0
VERTEX
  8
0
  5
3121D
 10
1.16200
 20
8.78980
 30
0.000000
  70
    32
  0
VERTEX
  8
0
  5
3121E
 10
1.15795
 20
8.79315
 30
0.000000
  70
    32
  0
VERTEX
  8
0
  5
3121F
 10
1.15390
 20
8.79651
 30
0.000000
  70
    32
  0
VERTEX
  8
0
  5
31220
 10
1.14986
 20
8.79987
 30
0.000000
  70
    32
  0
VERTEX
  8
0
  5
31221
 10
1.14582
 20
8.80323
 30
0.000000
  70
    32
  0
VERTEX
  8
0
  5
31222
 10
1.14178
 20
8.80660
 30
0.000000
  70
    32
  0
VERTEX
  8
0
  5
31223
 10
1.13775
 20
8.80998
 30
0.000000
  70
    32
  0
VERTEX
  8
0
  5
31224
 10
1.13372
 20
8.81336
 30
0.000000
  70
    32
  0
VERTEX
  8
0
  5
31225
 10
1.12970
 20
8.81674
 30
0.000000
  70
    32
  0
VERTEX
  8
0
  5
31226
 10
1.12569
 20
8.82014
 30
0.000000
  70
    32
  0
VERTEX
  8
0
  5
31227
 10
1.12170
 20
8.82354
 30
0.000000
  70
    32
  0
VERTEX
  8
0
  5
31228
 10
1.11771
 20
8.82695
 30
0.000000
  70
    32
  0
VERTEX
  8
0
  5
31229
 10
1.11373
 20
8.83036
 30
0.000000
  70
    32
  0
VERTEX
  8
0
  5
3122A
 10
1.10977
 20
8.83379
 30
0.000000
  70
    32
  0
VERTEX
  8
0
  5
3122B
 10
1.10583
 20
8.83723
 30
0.000000
  70
    32
  0
VERTEX
  8
0
  5
3122C
 10
1.10190
 20
8.84067
 30
0.000000
  70
    32
  0
VERTEX
  8
0
  5
3122D
 10
1.09798
 20
8.84413
 30
0.000000
  70
    32
  0
VERTEX
  8
0
  5
3122E
 10
1.09409
 20
8.84760
 30
0.000000
  70
    32
  0
VERTEX
  8
0
  5
3122F
 10
1.09021
 20
8.85107
 30
0.000000
  70
    32
  0
VERTEX
  8
0
  5
31230
 10
1.08635
 20
8.85457
 30
0.000000
  70
    32
  0
VERTEX
  8
0
  5
31231
 10
1.08251
 20
8.85807
 30
0.000000
  70
    32
  0
VERTEX
  8
0
  5
31232
 10
1.07870
 20
8.86158
 30
0.000000
  70
    32
  0
VERTEX
  8
0
  5
31233
 10
1.07490
 20
8.86511
 30
0.000000
  70
    32
  0
VERTEX
  8
0
  5
31234
 10
1.07113
 20
8.86865
 30
0.000000
  70
    32
  0
VERTEX
  8
0
  5
31235
 10
1.06738
 20
8.87220
 30
0.000000
  70
    32
  0
VERTEX
  8
0
  5
31236
 10
1.06365
 20
8.87576
 30
0.000000
  70
    32
  0
VERTEX
  8
0
  5
31237
 10
1.05995
 20
8.87934
 30
0.000000
  70
    32
  0
VERTEX
  8
0
  5
31238
 10
1.05628
 20
8.88294
 30
0.000000
  70
    32
  0
VERTEX
  8
0
  5
31239
 10
1.05263
 20
8.88654
 30
0.000000
  70
    32
  0
VERTEX
  8
0
  5
3123A
 10
1.04900
 20
8.89016
 30
0.000000
  70
    32
  0
VERTEX
  8
0
  5
3123B
 10
1.04541
 20
8.89380
 30
0.000000
  70
    32
  0
VERTEX
  8
0
  5
3123C
 10
1.04185
 20
8.89745
 30
0.000000
  70
    32
  0
VERTEX
  8
0
  5
3123D
 10
1.03831
 20
8.90112
 30
0.000000
  70
    32
  0
VERTEX
  8
0
  5
3123E
 10
1.03481
 20
8.90480
 30
0.000000
  70
    32
  0
VERTEX
  8
0
  5
3123F
 10
1.03133
 20
8.90850
 30
0.000000
  70
    32
  0
VERTEX
  8
0
  5
31240
 10
1.02789
 20
8.91221
 30
0.000000
  70
    32
  0
VERTEX
  8
0
  5
31241
 10
1.02448
 20
8.91594
 30
0.000000
  70
    32
  0
VERTEX
  8
0
  5
31242
 10
1.02111
 20
8.91969
 30
0.000000
  70
    32
  0
VERTEX
  8
0
  5
31243
 10
1.01777
 20
8.92345
 30
0.000000
  70
    32
  0
VERTEX
  8
0
  5
31244
 10
1.01446
 20
8.92723
 30
0.000000
  70
    32
  0
VERTEX
  8
0
  5
31245
 10
1.01119
 20
8.93103
 30
0.000000
  70
    32
  0
VERTEX
  8
0
  5
31246
 10
1.00796
 20
8.93484
 30
0.000000
  70
    32
  0
VERTEX
  8
0
  5
31247
 10
1.00476
 20
8.93868
 30
0.000000
  70
    32
  0
VERTEX
  8
0
  5
31248
 10
1.00160
 20
8.94253
 30
0.000000
  70
    32
  0
VERTEX
  8
0
  5
31249
 10
0.998485
 20
8.94640
 30
0.000000
  70
    32
  0
VERTEX
  8
0
  5
3124A
 10
0.995407
 20
8.95029
 30
0.000000
  70
    32
  0
VERTEX
  8
0
  5
3124B
 10
0.992369
 20
8.95420
 30
0.000000
  70
    32
  0
VERTEX
  8
0
  5
3124C
 10
0.989373
 20
8.95813
 30
0.000000
  70
    32
  0
VERTEX
  8
0
  5
3124D
 10
0.986419
 20
8.96208
 30
0.000000
  70
    32
  0
VERTEX
  8
0
  5
3124E
 10
0.983508
 20
8.96605
 30
0.000000
  70
    32
  0
VERTEX
  8
0
  5
3124F
 10
0.980642
 20
8.97004
 30
0.000000
  70
    32
  0
VERTEX
  8
0
  5
31250
 10
0.977819
 20
8.97405
 30
0.000000
  70
    32
  0
VERTEX
  8
0
  5
31251
 10
0.975042
 20
8.97808
 30
0.000000
  70
    32
  0
VERTEX
  8
0
  5
31252
 10
0.972312
 20
8.98213
 30
0.000000
  70
    32
  0
VERTEX
  8
0
  5
31253
 10
0.969628
 20
8.98621
 30
0.000000
  70
    32
  0
VERTEX
  8
0
  5
31254
 10
0.966993
 20
8.99030
 30
0.000000
  70
    32
  0
VERTEX
  8
0
  5
31255
 10
0.964406
 20
8.99442
 30
0.000000
  70
    32
  0
VERTEX
  8
0
  5
31256
 10
0.961868
 20
8.99856
 30
0.000000
  70
    32
  0
VERTEX
  8
0
  5
31257
 10
0.959381
 20
9.00272
 30
0.000000
  70
    32
  0
VERTEX
  8
0
  5
31258
 10
0.956944
 20
9.00691
 30
0.000000
  70
    32
  0
VERTEX
  8
0
  5
31259
 10
0.954559
 20
9.01112
 30
0.000000
  70
    32
  0
VERTEX
  8
0
  5
3125A
 10
0.952227
 20
9.01535
 30
0.000000
  70
    32
  0
VERTEX
  8
0
  5
3125B
 10
0.949949
 20
9.01960
 30
0.000000
  70
    32
  0
VERTEX
  8
0
  5
3125C
 10
0.947724
 20
9.02388
 30
0.000000
  70
    32
  0
VERTEX
  8
0
  5
3125D
 10
0.945555
 20
9.02819
 30
0.000000
  70
    32
  0
VERTEX
  8
0
  5
3125E
 10
0.943441
 20
9.03252
 30
0.000000
  70
    32
  0
VERTEX
  8
0
  5
3125F
 10
0.941383
 20
9.03687
 30
0.000000
  70
    32
  0
VERTEX
  8
0
  5
31260
 10
0.939384
 20
9.04125
 30
0.000000
  70
    32
  0
VERTEX
  8
0
  5
31261
 10
0.937442
 20
9.04566
 30
0.000000
  70
    32
  0
VERTEX
  8
0
  5
31262
 10
0.935559
 20
9.05009
 30
0.000000
  70
    32
  0
VERTEX
  8
0
  5
31263
 10
0.933736
 20
9.05455
 30
0.000000
  70
    32
  0
VERTEX
  8
0
  5
31264
 10
0.931973
 20
9.05903
 30
0.000000
  70
    32
  0
VERTEX
  8
0
  5
31265
 10
0.930271
 20
9.06354
 30
0.000000
  70
    32
  0
VERTEX
  8
0
  5
31266
 10
0.928629
 20
9.06808
 30
0.000000
  70
    32
  0
VERTEX
  8
0
  5
31267
 10
0.927045
 20
9.07264
 30
0.000000
  70
    32
  0
VERTEX
  8
0
  5
31268
 10
0.925517
 20
9.07722
 30
0.000000
  70
    32
  0
VERTEX
  8
0
  5
31269
 10
0.924045
 20
9.08183
 30
0.000000
  70
    32
  0
VERTEX
  8
0
  5
3126A
 10
0.922626
 20
9.08647
 30
0.000000
  70
    32
  0
VERTEX
  8
0
  5
3126B
 10
0.921259
 20
9.09112
 30
0.000000
  70
    32
  0
VERTEX
  8
0
  5
3126C
 10
0.919943
 20
9.09580
 30
0.000000
  70
    32
  0
VERTEX
  8
0
  5
3126D
 10
0.918676
 20
9.10050
 30
0.000000
  70
    32
  0
VERTEX
  8
0
  5
3126E
 10
0.917457
 20
9.10522
 30
0.000000
  70
    32
  0
VERTEX
  8
0
  5
3126F
 10
0.916283
 20
9.10996
 30
0.000000
  70
    32
  0
VERTEX
  8
0
  5
31270
 10
0.915155
 20
9.11472
 30
0.000000
  70
    32
  0
VERTEX
  8
0
  5
31271
 10
0.914070
 20
9.11950
 30
0.000000
  70
    32
  0
VERTEX
  8
0
  5
31272
 10
0.913026
 20
9.12429
 30
0.000000
  70
    32
  0
VERTEX
  8
0
  5
31273
 10
0.912023
 20
9.12911
 30
0.000000
  70
    32
  0
VERTEX
  8
0
  5
31274
 10
0.911058
 20
9.13394
 30
0.000000
  70
    32
  0
VERTEX
  8
0
  5
31275
 10
0.910131
 20
9.13879
 30
0.000000
  70
    32
  0
VERTEX
  8
0
  5
31276
 10
0.909239
 20
9.14365
 30
0.000000
  70
    32
  0
VERTEX
  8
0
  5
31277
 10
0.908381
 20
9.14853
 30
0.000000
  70
    32
  0
VERTEX
  8
0
  5
31278
 10
0.907557
 20
9.15342
 30
0.000000
  70
    32
  0
VERTEX
  8
0
  5
31279
 10
0.906763
 20
9.15832
 30
0.000000
  70
    32
  0
VERTEX
  8
0
  5
3127A
 10
0.906000
 20
9.16324
 30
0.000000
  70
    32
  0
VERTEX
  8
0
  5
3127B
 10
0.905264
 20
9.16817
 30
0.000000
  70
    32
  0
VERTEX
  8
0
  5
3127C
 10
0.904556
 20
9.17312
 30
0.000000
  70
    32
  0
VERTEX
  8
0
  5
3127D
 10
0.903873
 20
9.17807
 30
0.000000
  70
    32
  0
VERTEX
  8
0
  5
3127E
 10
0.903213
 20
9.18303
 30
0.000000
  70
    32
  0
VERTEX
  8
0
  5
3127F
 10
0.902576
 20
9.18801
 30
0.000000
  70
    32
  0
VERTEX
  8
0
  5
31280
 10
0.901960
 20
9.19299
 30
0.000000
  70
    32
  0
VERTEX
  8
0
  5
31281
 10
0.901363
 20
9.19798
 30
0.000000
  70
    32
  0
VERTEX
  8
0
  5
31282
 10
0.900784
 20
9.20298
 30
0.000000
  70
    32
  0
VERTEX
  8
0
  5
31283
 10
0.900222
 20
9.20799
 30
0.000000
  70
    32
  0
VERTEX
  8
0
  5
31284
 10
0.899674
 20
9.21300
 30
0.000000
  70
    32
  0
VERTEX
  8
0
  5
31285
 10
0.899140
 20
9.21802
 30
0.000000
  70
    32
  0
VERTEX
  8
0
  5
31286
 10
0.898617
 20
9.22304
 30
0.000000
  70
    32
  0
VERTEX
  8
0
  5
31287
 10
0.898105
 20
9.22807
 30
0.000000
  70
    32
  0
VERTEX
  8
0
  5
31288
 10
0.897602
 20
9.23310
 30
0.000000
  70
    32
  0
VERTEX
  8
0
  5
31289
 10
0.897107
 20
9.23813
 30
0.000000
  70
    32
  0
VERTEX
  8
0
  5
3128A
 10
0.896617
 20
9.24317
 30
0.000000
  70
    32
  0
VERTEX
  8
0
  5
3128B
 10
0.896132
 20
9.24821
 30
0.000000
  70
    32
  0
VERTEX
  8
0
  5
3128C
 10
0.895650
 20
9.25325
 30
0.000000
  70
    32
  0
VERTEX
  8
0
  5
3128D
 10
0.895169
 20
9.25829
 30
0.000000
  70
    32
  0
SEQEND
  8
0
  5
3128E
  0
LINE
  5
2B8A0
  8
0
  6
CONTINUOUS
 62
     7
 10
0.7472076905950758
 20
9.2582948336663549
 30
0.0
 11
0.7472076905949621
 21
11.826520277942111
 31
0.0
  0
LINE
  5
2B8A1
  8
0
  6
CONTINUOUS
 62
     7
 10
0.4997076905949598
 20
12.389020277942111
 30
0.0
 11
0.000001476738305
 21
12.389020277942111
 31
0.0
  0
ARC
  5
2B8A2
  8
0
 10
0.4997076905949598
 20
12.139020277942111
 30
0.0
 40
0.2500000000000009
 50
269.42703265506509
 51
90.0
  0
LINE
  5
2B8A3
  8
0
  6
CONTINUOUS
 62
     7
 10
0.7472076905949621
 20
11.826520277942111
 30
0.0
 11
0.5597076905949621
 21
11.826520277942111
 31
0.0
  0
LINE
  5
2B8A4
  8
0
  6
CONTINUOUS
 62
     7
 10
0.4972076905949621
 20
11.826520277942111
 30
0.0
 11
0.4972076905949621
 21
11.88903277828603
 31
0.0
  0
LINE
  5
2B8A5
  8
0
 10
0.0000014767382481
 20
7.878552666495465
 30
0.0
 11
0.000001476738305
 21
12.389020277942111
 31
0.0
  0
LINE
  5
2B8A6
  8
0
 10
0.7472076905949621
 20
11.826520277942111
 30
0.0
 11
0.4972076905949621
 21
11.826520277942111
 31
0.0
  0
LINE
  5
2B8A7
  8
FRAME_050
 10
6.5744546621590407
 20
17.993710579095019
 30
0.0
 11
6.5744546621590407
 21
0.0000000294007805
 31
0.0
  0
ENDBLK
  5
2B8A9
  8
0
  0
BLOCK
  8
0
  2
A$C06786640
 70
     0
 10
0.0
 20
0.0
 30
0.0
  3
A$C06786640
  1

  0
LINE
  5
30DBD
  8
0
  6
CONTINUOUS
 10
6.9421460747584538
 20
5.3373952998996401
 30
0.0
 11
7.6921460747585684
 21
5.3373952998996401
 31
0.0
  0
INSERT
  5
30DBE
  8
0
  2
*U74
 10
0.0
 20
0.0
 30
0.0
  0
ARC
  5
30DBF
  8
0
 10
7.6921460747584538
 20
1.3373952998996399
 30
0.0
 40
0.4375
 50
90.0
 51
180.0
  0
LINE
  5
30DC0
  8
0
  6
CONTINUOUS
 10
6.9421460747584538
 20
1.3373952998996399
 30
0.0
 11
7.2546460747584538
 21
1.3373952998996399
 31
0.0
  0
LINE
  5
30DC1
  8
0
  6
CONTINUOUS
 10
6.9421460747584538
 20
5.3373952998996401
 30
0.0
 11
6.9421460747584538
 21
1.3373952998996399
 31
0.0
  0
LINE
  5
30DC2
  8
0
  6
CONTINUOUS
 10
7.6921460747585684
 20
5.3373952998996401
 30
0.0
 11
7.6921460747584538
 21
1.7748952998996399
 31
0.0
  0
LINE
  5
30DC3
  8
FRAME_050
 10
13.38021391661823
 20
10.43596704186257
 30
0.0
 11
13.38021391661823
 21
-7.557743507831673
 31
0.0
  0
ENDBLK
  5
30DC5
  8
0
  0
BLOCK
  8
0
  2
*U42
 70
     1
 10
0.0
 20
0.0
 30
0.0
  3
*U42
  1

  0
TEXT
  5
3106F
  8
0
 10
3.5177832928899071
 20
10.38601584255777
 30
0.0
 40
0.125
  1
Crown Moulding
  0
TEXT
  5
31070
  8
0
 10
3.5223876585106431
 20
10.17717091304435
 30
0.0
 40
0.125
  1
TL-AB509
  0
TEXT
  5
31071
  8
0
 10
3.5074661032582561
 20
9.9667059289606801
 30
0.0
 40
0.125
  1
1-5/16" x 7-9/16"
  0
TEXT
  5
31072
  8
0
 10
3.519403347460166
 20
9.7562409448770051
 30
0.0
 40
0.125
  1
800.66.TAGUE
  0
ENDBLK
  5
31074
  8
0
  0
BLOCK
  8
0
  2
*U43
 70
     1
 10
0.0
 20
0.0
 30
0.0
  3
*U43
  1

  0
TEXT
  5
31076
  8
0
 10
1.4086740032724709
 20
13.04264108713495
 30
0.0
 40
0.125
  1
Casing
  0
TEXT
  5
31077
  8
0
 10
1.4132783688932069
 20
12.83379615762154
 30
0.0
 40
0.125
  1
TL-2019
  0
TEXT
  5
31078
  8
0
 10
1.39835681364082
 20
12.62333117353786
 30
0.0
 40
0.125
  1
1-1/16" x 5-1/2"
  0
TEXT
  5
31079
  8
0
 10
1.4102940578427301
 20
12.41286618945419
 30
0.0
 40
0.125
  1
800.66.TAGUE
  0
ENDBLK
  5
3107B
  8
0
  0
BLOCK
  8
0
  2
*U44
 70
     1
 10
0.0
 20
0.0
 30
0.0
  3
*U44
  1

  0
TEXT
  5
3107D
  8
0
 10
1.9061884295105971
 20
11.78127341408482
 30
0.0
 40
0.125
  1
Casing
  0
TEXT
  5
3107E
  8
0
 10
1.9107927951313339
 20
11.572428484571409
 30
0.0
 40
0.125
  1
TL-2318
  0
TEXT
  5
3107F
  8
0
 10
1.8958712398789459
 20
11.361963500487731
 30
0.0
 40
0.125
  1
13/16" x 2-1/2"
  0
TEXT
  5
31080
  8
0
 10
1.907808484080856
 20
11.151498516404059
 30
0.0
 40
0.125
  1
800.66.TAGUE
  0
ENDBLK
  5
31082
  8
0
  0
BLOCK
  8
0
  2
*U45
 70
     1
 10
0.0
 20
0.0
 30
0.0
  3
*U45
  1

  0
TEXT
  5
31084
  8
0
 10
2.2380648505203782
 20
10.70752122569969
 30
0.0
 40
0.125
  1
Casing Assembly
  0
TEXT
  5
31085
  8
0
 10
2.242669216141115
 20
10.498676296186281
 30
0.0
 40
0.125
  1
TL-2225
  0
TEXT
  5
31086
  8
0
 10
2.2277476608887281
 20
10.2882113121026
 30
0.0
 40
0.125
  1
1-9/16" x 4-1/2"
  0
TEXT
  5
31087
  8
0
 10
2.239684905090638
 20
10.077746328018931
 30
0.0
 40
0.125
  1
800.66.TAGUE
  0
ENDBLK
  5
31089
  8
0
  0
BLOCK
  8
0
  2
*U46
 70
     1
 10
0.0
 20
0.0
 30
0.0
  3
*U46
  1

  0
TEXT
  5
3108B
  8
0
 10
2.45740474597793
 20
2.5787099920155621
 30
0.0
 40
0.125
  1
Chair Rail
  0
TEXT
  5
3108C
  8
0
 10
2.462009111598666
 20
2.3698650625021469
 30
0.0
 40
0.125
  1
TL-300
  0
TEXT
  5
3108D
  8
0
 10
2.4470875563462791
 20
2.1594000784184728
 30
0.0
 40
0.125
  1
1-1/16" x 2-15/16"
  0
TEXT
  5
3108E
  8
0
 10
2.4590248005481889
 20
1.9489350943347981
 30
0.0
 40
0.125
  1
800.66.TAGUE
  0
ENDBLK
  5
31090
  8
0
  0
BLOCK
  8
0
  2
*U47
 70
     1
 10
0.0
 20
0.0
 30
0.0
  3
*U47
  1

  0
TEXT
  5
31092
  8
0
 10
2.296373382618786
 20
2.154638056947094
 30
0.0
 40
0.125
  1
Chair Rail
  0
TEXT
  5
31093
  8
0
 10
2.3009777482395228
 20
1.945793127433679
 30
0.0
 40
0.125
  1
TL-384
  0
TEXT
  5
31094
  8
0
 10
2.2860561929871359
 20
1.7353281433500041
 30
0.0
 40
0.125
  1
1-1/8" x 2-3/4"
  0
TEXT
  5
31095
  8
0
 10
2.2979934371890458
 20
1.52486315926633
 30
0.0
 40
0.125
  1
800.66.TAGUE
  0
ENDBLK
  5
31097
  8
0
  0
BLOCK
  8
0
  2
*U48
 70
     1
 10
0.0
 20
0.0
 30
0.0
  3
*U48
  1

  0
TEXT
  5
31099
  8
0
 10
1.7903030854828661
 20
1.879104976913611
 30
0.0
 40
0.125
  1
Chair Rail
  0
TEXT
  5
3109A
  8
0
 10
1.7949074511036021
 20
1.6702600474001961
 30
0.0
 40
0.125
  1
TL-390
  0
TEXT
  5
3109B
  8
0
 10
1.7799858958512149
 20
1.4597950633165211
 30
0.0
 40
0.125
  1
11/16" x 2-9/16"
  0
TEXT
  5
3109C
  8
0
 10
1.791923140053125
 20
1.249330079232847
 30
0.0
 40
0.125
  1
800.66.TAGUE
  0
ENDBLK
  5
3109E
  8
0
  0
BLOCK
  8
0
  2
*U49
 70
     1
 10
0.0
 20
0.0
 30
0.0
  3
*U49
  1

  0
TEXT
  5
310A0
  8
0
 10
1.7790082072096181
 20
2.7163812729427419
 30
0.0
 40
0.125
  1
Chair Rail
  0
TEXT
  5
310A1
  8
0
 10
1.7836125728303549
 20
2.5075363434293272
 30
0.0
 40
0.125
  1
TL-391
  0
TEXT
  5
310A2
  8
0
 10
1.780372463689837
 20
2.2970713593456522
 30
0.0
 40
0.125
  1
3/4" x 3-1/2"
  0
TEXT
  5
310A3
  8
0
 10
1.7806282617798781
 20
2.0866063752619781
 30
0.0
 40
0.125
  1
800.66.TAGUE
  0
ENDBLK
  5
310A5
  8
0
  0
BLOCK
  8
0
  2
*U50
 70
     1
 10
0.0
 20
0.0
 30
0.0
  3
*U50
  1

  0
TEXT
  5
310A7
  8
0
 10
1.979493109854592
 20
1.3931549873730249
 30
0.0
 40
0.125
  1
Chair Rail
  0
TEXT
  5
310A8
  8
0
 10
1.984097475475328
 20
1.1843100578596091
 30
0.0
 40
0.125
  1
TL-393
  0
TEXT
  5
310A9
  8
0
 10
1.9691759202229411
 20
0.9738450737759357
 30
0.0
 40
0.125
  1
1-1/4" x 2-1/2"
  0
TEXT
  5
310AA
  8
0
 10
1.981113164424851
 20
0.7633800896922612
 30
0.0
 40
0.125
  1
800.66.TAGUE
  0
ENDBLK
  5
310AC
  8
0
  0
BLOCK
  8
0
  2
*U51
 70
     1
 10
0.0
 20
0.0
 30
0.0
  3
*U51
  1

  0
TEXT
  5
310AE
  8
0
 10
2.213601074382983
 20
2.6517246081325689
 30
0.0
 40
0.125
  1
Chair Rail
  0
TEXT
  5
310AF
  8
0
 10
2.2182054400037199
 20
2.4428796786191538
 30
0.0
 40
0.125
  1
TL-538
  0
TEXT
  5
310B0
  8
0
 10
2.2171822476435561
 20
2.2324146945354801
 30
0.0
 40
0.125
  1
27/32" x 3-1/4"
  0
TEXT
  5
310B1
  8
0
 10
2.215221128953242
 20
2.021949710451806
 30
0.0
 40
0.125
  1
800.66.TAGUE
  0
ENDBLK
  5
310B3
  8
0
  0
BLOCK
  8
0
  2
*U52
 70
     1
 10
0.0
 20
0.0
 30
0.0
  3
*U52
  1

  0
TEXT
  5
310B5
  8
0
 10
2.143641095436839
 20
2.3625917493022981
 30
0.0
 40
0.125
  1
Chair Rail
  0
TEXT
  5
310B6
  8
0
 10
2.148245461057575
 20
2.1537468197888829
 30
0.0
 40
0.125
  1
TL-2002
  0
TEXT
  5
310B7
  8
0
 10
2.1450053519170571
 20
1.943281835705208
 30
0.0
 40
0.125
  1
3/4" x 3"
  0
TEXT
  5
310B8
  8
0
 10
2.1452611500070979
 20
1.7328168516215341
 30
0.0
 40
0.125
  1
800.66.TAGUE
  0
ENDBLK
  5
310BA
  8
0
  0
BLOCK
  8
0
  2
*U53
 70
     1
 10
0.0
 20
0.0
 30
0.0
  3
*U53
  1

  0
TEXT
  5
310BC
  8
0
 10
2.0814022841362081
 20
2.4827230287430821
 30
0.0
 40
0.125
  1
Chair Rail
  0
TEXT
  5
310BD
  8
0
 10
2.0860066497569441
 20
2.273878099229667
 30
0.0
 40
0.125
  1
TL-2003
  0
TEXT
  5
310BE
  8
0
 10
2.0818286142862759
 20
2.063413115145992
 30
0.0
 40
0.125
  1
7/8" x 3-13/16"
  0
TEXT
  5
310BF
  8
0
 10
2.083022338706467
 20
1.8529481310623179
 30
0.0
 40
0.125
  1
800.66.TAGUE
  0
ENDBLK
  5
310C1
  8
0
  0
BLOCK
  8
0
  2
*U54
 70
     1
 10
0.0
 20
0.0
 30
0.0
  3
*U54
  1

  0
TEXT
  5
310C3
  8
0
 10
2.396282120712645
 20
2.6371956792013558
 30
0.0
 40
0.125
  1
Chair Rail
  0
TEXT
  5
310C4
  8
0
 10
2.4008864863333819
 20
2.4283507496879411
 30
0.0
 40
0.125
  1
TL-2097
  0
TEXT
  5
310C5
  8
0
 10
2.3859649310809949
 20
2.2178857656042661
 30
0.0
 40
0.125
  1
1-1/4" x 2-7/8"
  0
TEXT
  5
310C6
  8
0
 10
2.3979021752829048
 20
2.007420781520592
 30
0.0
 40
0.125
  1
800.66.TAGUE
  0
ENDBLK
  5
310C8
  8
0
  0
BLOCK
  8
0
  2
*U55
 70
     1
 10
0.0
 20
0.0
 30
0.0
  3
*U55
  1

  0
TEXT
  5
310CA
  8
0
 10
2.2497671895647828
 20
1.9038951213874651
 30
0.0
 40
0.125
  1
Chair Rail
  0
TEXT
  5
310CB
  8
0
 10
2.2543715551855201
 20
1.6950501918740499
 30
0.0
 40
0.125
  1
TL-392
  0
TEXT
  5
310CC
  8
0
 10
2.2394499999331319
 20
1.4845852077903761
 30
0.0
 40
0.125
  1
1-5/16" x 2-3/8"
  0
TEXT
  5
310CD
  8
0
 10
2.2513872441350422
 20
1.2741202237067011
 30
0.0
 40
0.125
  1
800.66.TAGUE
  0
ENDBLK
  5
310CF
  8
0
  0
BLOCK
  8
0
  2
*U56
 70
     1
 10
0.0
 20
0.0
 30
0.0
  3
*U56
  1

  0
TEXT
  5
310D1
  8
0
 10
1.5498063030285369
 20
2.4826645605183031
 30
0.0
 40
0.125
  1
Chair Rail
  0
TEXT
  5
310D2
  8
0
 10
1.5544106686492729
 20
2.2738196310048879
 30
0.0
 40
0.125
  1
TL-2152
  0
TEXT
  5
310D3
  8
0
 10
1.539489113396886
 20
2.063354646921213
 30
0.0
 40
0.125
  1
1-9/32" x 3-15/16"
  0
TEXT
  5
310D4
  8
0
 10
1.5514263575987961
 20
1.8528896628375391
 30
0.0
 40
0.125
  1
800.66.TAGUE
  0
ENDBLK
  5
310D6
  8
0
  0
BLOCK
  8
0
  2
*U57
 70
     1
 10
0.0
 20
0.0
 30
0.0
  3
*U57
  1

  0
TEXT
  5
310D8
  8
0
 10
1.425133411081934
 20
3.23616728770982
 30
0.0
 40
0.125
  1
Chair Rail
  0
TEXT
  5
310D9
  8
0
 10
1.4297377767026711
 20
3.0273223581964048
 30
0.0
 40
0.125
  1
TL-2163
  0
TEXT
  5
310DA
  8
0
 10
1.426497667562153
 20
2.8168573741127299
 30
0.0
 40
0.125
  1
3/4" x 2-3/8"
  0
TEXT
  5
310DB
  8
0
 10
1.4267534656521941
 20
2.6063923900290562
 30
0.0
 40
0.125
  1
800.66.TAGUE
  0
ENDBLK
  5
310DD
  8
0
  0
BLOCK
  8
0
  2
*U58
 70
     1
 10
0.0
 20
0.0
 30
0.0
  3
*U58
  1

  0
TEXT
  5
310DF
  8
0
 10
1.3979859738694
 20
3.241688635672078
 30
0.0
 40
0.125
  1
Chair Rail
  0
TEXT
  5
310E0
  8
0
 10
1.4025903394901369
 20
3.0328437061586628
 30
0.0
 40
0.125
  1
TL-2210
  0
TEXT
  5
310E1
  8
0
 10
1.38766878423775
 20
2.8223787220749879
 30
0.0
 40
0.125
  1
11/16" x 3"
  0
TEXT
  5
310E2
  8
0
 10
1.3996060284396601
 20
2.6119137379913142
 30
0.0
 40
0.125
  1
800.66.TAGUE
  0
ENDBLK
  5
310E4
  8
0
  0
BLOCK
  8
0
  2
*U59
 70
     1
 10
0.0
 20
0.0
 30
0.0
  3
*U59
  1

  0
TEXT
  5
310E6
  8
0
 10
1.9179554225799269
 20
1.5548149835556311
 30
0.0
 40
0.125
  1
Chamfer Strip
  0
TEXT
  5
310E7
  8
0
 10
1.9225597882006631
 20
1.3459700540422159
 30
0.0
 40
0.125
  1
TL-994
  0
TEXT
  5
310E8
  8
0
 10
1.9076382329482759
 20
1.137125124528801
 30
0.0
 40
0.125
  1
1" x 1"
  0
TEXT
  5
310E9
  8
0
 10
1.9195754771501861
 20
0.9266601404451272
 30
0.0
 40
0.125
  1
800.66.TAGUE
  0
ENDBLK
  5
310EB
  8
0
  0
BLOCK
  8
0
  2
*U60
 70
     1
 10
0.0
 20
0.0
 30
0.0
  3
*U60
  1

  0
TEXT
  5
310ED
  8
0
 10
0.4278271454310577
 20
1.8307501971237501
 30
0.0
 40
0.125
  1
Chamfer Strip
  0
TEXT
  5
310EE
  8
0
 10
0.4324315110517944
 20
1.6219052676103349
 30
0.0
 40
0.125
  1
TL-995
  0
TEXT
  5
310EF
  8
0
 10
0.4175099557994069
 20
1.41144028352666
 30
0.0
 40
0.125
  1
11/16" x 11/16"
  0
TEXT
  5
310F0
  8
0
 10
0.4294472000013169
 20
1.2009752994429861
 30
0.0
 40
0.125
  1
800.66.TAGUE
  0
ENDBLK
  5
310F2
  8
0
  0
BLOCK
  8
0
  2
*U61
 70
     1
 10
0.0
 20
0.0
 30
0.0
  3
*U61
  1

  0
TEXT
  5
310F4
  8
0
 10
1.9926440979760729
 20
0.67862269993522
 30
0.0
 40
0.125
  1
Column Mouldings
  0
TEXT
  5
310F5
  8
0
 10
1.9972484635968091
 20
0.4697777704218047
 30
0.0
 40
0.125
  1
TL-2212
  0
TEXT
  5
310F6
  8
0
 10
1.9823269083444219
 20
0.2593127863381302
 30
0.0
 40
0.125
  1
1-13/16" x 1-7/8"
  0
TEXT
  5
310F7
  8
0
 10
1.994264152546332
 20
0.0488478022544559
 30
0.0
 40
0.125
  1
800.66.TAGUE
  0
ENDBLK
  5
310F9
  8
0
  0
BLOCK
  8
0
  2
*U62
 70
     1
 10
0.0
 20
0.0
 30
0.0
  3
*U62
  1

  0
TEXT
  5
310FB
  8
0
 10
1.6834489538549959
 20
0.7751852708459115
 30
0.0
 40
0.125
  1
Column Mouldings
  0
TEXT
  5
310FC
  8
0
 10
1.688053319475733
 20
0.5663403413324964
 30
0.0
 40
0.125
  1
TL-2215
  0
TEXT
  5
310FD
  8
0
 10
1.673131764223345
 20
0.3558753572488219
 30
0.0
 40
0.125
  1
1/2" x 1"
  0
TEXT
  5
310FE
  8
0
 10
1.6850690084252551
 20
0.1454103731651475
 30
0.0
 40
0.125
  1
800.66.TAGUE
  0
ENDBLK
  5
31100
  8
0
  0
BLOCK
  8
0
  2
*U63
 70
     1
 10
0.0
 20
0.0
 30
0.0
  3
*U63
  1

  0
TEXT
  5
31102
  8
0
 10
1.6834489538549959
 20
0.7751852708459115
 30
0.0
 40
0.125
  1
Column Mouldings
  0
TEXT
  5
31103
  8
0
 10
1.688053319475733
 20
0.5663403413324964
 30
0.0
 40
0.125
  1
TL-2215
  0
TEXT
  5
31104
  8
0
 10
1.673131764223345
 20
0.3558753572488219
 30
0.0
 40
0.125
  1
1/2" x 1"
  0
TEXT
  5
31105
  8
0
 10
1.6850690084252551
 20
0.1454103731651475
 30
0.0
 40
0.125
  1
800.66.TAGUE
  0
ENDBLK
  5
31107
  8
0
  0
BLOCK
  8
0
  2
*U64
 70
     1
 10
0.0
 20
0.0
 30
0.0
  3
*U64
  1

  0
TEXT
  5
31109
  8
0
 10
2.2199536060229881
 20
0.9507943810130132
 30
0.0
 40
0.125
  1
Corner Moulding
  0
TEXT
  5
3110A
  8
0
 10
2.224557971643724
 20
0.7419494514995982
 30
0.0
 40
0.125
  1
TL-201
  0
TEXT
  5
3110B
  8
0
 10
2.2096364163913371
 20
0.5314844674159237
 30
0.0
 40
0.125
  1
1-3/8" x 1-3/8"
  0
TEXT
  5
3110C
  8
0
 10
2.221573660593247
 20
0.3210194833322493
 30
0.0
 40
0.125
  1
800.66.TAGUE
  0
ENDBLK
  5
3110E
  8
0
  0
BLOCK
  8
0
  2
*U65
 70
     1
 10
0.0
 20
0.0
 30
0.0
  3
*U65
  1

  0
TEXT
  5
31110
  8
0
 10
1.9663332328677019
 20
0.8425411796803405
 30
0.0
 40
0.125
  1
Corner Moulding
  0
TEXT
  5
31111
  8
0
 10
1.9709375984884381
 20
0.6336962501669256
 30
0.0
 40
0.125
  1
TL-202
  0
TEXT
  5
31112
  8
0
 10
1.9560160432360509
 20
0.423231266083251
 30
0.0
 40
0.125
  1
1-1/8" x 1-1/8"
  0
TEXT
  5
31113
  8
0
 10
1.9679532874379611
 20
0.2127662819995766
 30
0.0
 40
0.125
  1
800.66.TAGUE
  0
ENDBLK
  5
31115
  8
0
  0
BLOCK
  8
0
  2
*U66
 70
     1
 10
0.0
 20
0.0
 30
0.0
  3
*U66
  1

  0
TEXT
  5
31117
  8
0
 10
1.5905291641242101
 20
0.7214840869431943
 30
0.0
 40
0.125
  1
Corner Moulding
  0
TEXT
  5
31118
  8
0
 10
1.5951335297449469
 20
0.5126391574297791
 30
0.0
 40
0.125
  1
TL-203
  0
TEXT
  5
31119
  8
0
 10
1.5918934206044291
 20
0.3021741733461046
 30
0.0
 40
0.125
  1
3/4" x 3/4"
  0
TEXT
  5
3111A
  8
0
 10
1.592149218694469
 20
0.0917091892624302
 30
0.0
 40
0.125
  1
800.66.TAGUE
  0
ENDBLK
  5
3111C
  8
0
  0
BLOCK
  8
0
  2
*U67
 70
     1
 10
0.0
 20
0.0
 30
0.0
  3
*U67
  1

  0
TEXT
  5
3111E
  8
0
 10
1.935358187968665
 20
1.031573183991797
 30
0.0
 40
0.125
  1
Corner Moulding
  0
TEXT
  5
3111F
  8
0
 10
1.939962553589401
 20
0.8227282544783825
 30
0.0
 40
0.125
  1
TL-204
  0
TEXT
  5
31120
  8
0
 10
1.925040998337014
 20
0.6122632703947081
 30
0.0
 40
0.125
  1
1-3/8" x 1-3/8"
  0
TEXT
  5
31121
  8
0
 10
1.9369782425389239
 20
0.4017982863110337
 30
0.0
 40
0.125
  1
800.66.TAGUE
  0
ENDBLK
  5
31123
  8
0
  0
BLOCK
  8
0
  2
*U68
 70
     1
 10
0.0
 20
0.0
 30
0.0
  3
*U68
  1

  0
TEXT
  5
31125
  8
0
 10
1.8542205155787641
 20
0.9211791424976514
 30
0.0
 40
0.125
  1
Corner Moulding
  0
TEXT
  5
31126
  8
0
 10
1.858824881199501
 20
0.7123342129842363
 30
0.0
 40
0.125
  1
TL-205
  0
TEXT
  5
31127
  8
0
 10
1.8439033259471129
 20
0.5018692289005619
 30
0.0
 40
0.125
  1
1-1/8" x 1-1/8"
  0
TEXT
  5
31128
  8
0
 10
1.855840570149023
 20
0.2914042448168874
 30
0.0
 40
0.125
  1
800.66.TAGUE
  0
ENDBLK
  5
3112A
  8
0
  0
BLOCK
  8
0
  2
*U69
 70
     1
 10
0.0
 20
0.0
 30
0.0
  3
*U69
  1

  0
TEXT
  5
3112C
  8
0
 10
1.334185060618698
 20
0.6786227981105119
 30
0.0
 40
0.125
  1
Corner Moulding
  0
TEXT
  5
3112D
  8
0
 10
1.3387894262394351
 20
0.4697778685970966
 30
0.0
 40
0.125
  1
TL-206
  0
TEXT
  5
3112E
  8
0
 10
1.3355493170989159
 20
0.2593128845134221
 30
0.0
 40
0.125
  1
3/4" x 3/4"
  0
TEXT
  5
3112F
  8
0
 10
1.3358051151889569
 20
0.0488479004297477
 30
0.0
 40
0.125
  1
800.66.TAGUE
  0
ENDBLK
  5
31131
  8
0
  0
BLOCK
  8
0
  2
*U70
 70
     1
 10
0.0
 20
0.0
 30
0.0
  3
*U70
  1

  0
TEXT
  5
31133
  8
0
 10
1.823849037637477
 20
0.8585475398531504
 30
0.0
 40
0.125
  1
Cove
  0
TEXT
  5
31134
  8
0
 10
1.828453403258214
 20
0.6497026103397352
 30
0.0
 40
0.125
  1
TL-83
  0
TEXT
  5
31135
  8
0
 10
1.825298560147709
 20
0.4392376262560608
 30
0.0
 40
0.125
  1
9/16" x 2-5/8"
  0
TEXT
  5
31136
  8
0
 10
1.8254690922077359
 20
0.2287726421723863
 30
0.0
 40
0.125
  1
800.66.TAGUE
  0
ENDBLK
  5
31138
  8
0
  0
BLOCK
  8
0
  2
*U71
 70
     1
 10
0.0
 20
0.0
 30
0.0
  3
*U71
  1

  0
TEXT
  5
3113A
  8
0
 10
1.4372220564187941
 20
0.6786219190419321
 30
0.0
 40
0.125
  1
Cove
  0
TEXT
  5
3113B
  8
0
 10
1.4418264220395309
 20
0.4697769895285169
 30
0.0
 40
0.125
  1
TL-86
  0
TEXT
  5
3113C
  8
0
 10
1.4386715789290261
 20
0.2593120054448424
 30
0.0
 40
0.125
  1
9/16" x 1-5/8"
  0
TEXT
  5
3113D
  8
0
 10
1.438842110989053
 20
0.048847021361168
 30
0.0
 40
0.125
  1
800.66.TAGUE
  0
ENDBLK
  5
3113F
  8
0
  0
BLOCK
  8
0
  2
*U72
 70
     1
 10
0.0
 20
0.0
 30
0.0
  3
*U72
  1

  0
TEXT
  5
31141
  8
0
 10
1.5163761963436611
 20
0.6786216177161056
 30
0.0
 40
0.125
  1
Cove
  0
TEXT
  5
31142
  8
0
 10
1.5209805619643979
 20
0.4697766882026904
 30
0.0
 40
0.125
  1
TL-100
  0
TEXT
  5
31143
  8
0
 10
1.506059006712011
 20
0.2593117041190159
 30
0.0
 40
0.125
  1
11/16" x 11/16"
  0
TEXT
  5
31144
  8
0
 10
1.5179962509139211
 20
0.0488467200353415
 30
0.0
 40
0.125
  1
800.66.TAGUE
  0
ENDBLK
  5
31146
  8
0
  0
BLOCK
  8
0
  2
*U73
 70
     1
 10
0.0
 20
0.0
 30
0.0
  3
*U73
  1

  0
TEXT
  5
31148
  8
0
 10
1.281862643234239
 20
0.6786219754701666
 30
0.0
 40
0.125
  1
Cove
  0
TEXT
  5
31149
  8
0
 10
1.286467008854975
 20
0.4697770459567514
 30
0.0
 40
0.125
  1
TL-101
  0
TEXT
  5
3114A
  8
0
 10
1.2715454536025881
 20
0.259312061873077
 30
0.0
 40
0.125
  1
1/2" x 1/2"
  0
TEXT
  5
3114B
  8
0
 10
1.283482697804498
 20
0.0488470777894026
 30
0.0
 40
0.125
  1
800.66.TAGUE
  0
ENDBLK
  5
3114D
  8
0
  0
BLOCK
  8
0
  2
*U74
 70
     1
 10
0.0
 20
0.0
 30
0.0
  3
*U74
  1

  0
TEXT
  5
3114F
  8
0
 10
8.9871190848671514
 20
3.8959346082645121
 30
0.0
 40
0.125
  1
Cove
  0
TEXT
  5
31150
  8
0
 10
8.9917234504878873
 20
3.6870896787510969
 30
0.0
 40
0.125
  1
TL-542
  0
TEXT
  5
31151
  8
0
 10
8.9884833413473686
 20
3.4766246946674229
 30
0.0
 40
0.125
  1
3/4" x 4"
  0
TEXT
  5
31152
  8
0
 10
8.9887391394374099
 20
3.2661597105837492
 30
0.0
 40
0.125
  1
800.66.TAGUE
  0
ENDBLK
  5
31154
  8
0
  0
BLOCK
  8
0
  2
*U75
 70
     1
 10
0.0
 20
0.0
 30
0.0
  3
*U75
  1

  0
TEXT
  5
31156
  8
0
 10
2.0449744451125631
 20
2.5585391787528962
 30
0.0
 40
0.125
  1
Cove
  0
TEXT
  5
31157
  8
0
 10
2.0495788107332991
 20
2.349694249239481
 30
0.0
 40
0.125
  1
TL-542
  0
TEXT
  5
31158
  8
0
 10
2.0463387015927812
 20
2.139229265155806
 30
0.0
 40
0.125
  1
3/4" x 4"
  0
TEXT
  5
31159
  8
0
 10
2.046594499682822
 20
1.9287642810721319
 30
0.0
 40
0.125
  1
800.66.TAGUE
  0
ENDBLK
  5
3115B
  8
0
  0
BLOCK
  8
0
  2
*U76
 70
     1
 10
0.0
 20
0.0
 30
0.0
  3
*U76
  1

  0
TEXT
  5
3115D
  8
0
 10
1.972901825589735
 20
0.6861779570716795
 30
0.0
 40
0.125
  1
Cove
  0
TEXT
  5
3115E
  8
0
 10
1.977506191210471
 20
0.4773330275582644
 30
0.0
 40
0.125
  1
TL-2285
  0
TEXT
  5
3115F
  8
0
 10
1.9625846359580841
 20
0.2176457378811383
 30
0.0
 40
0.125
  1
1-
  0
TEXT
  5
31160
  8
0
 10
2.1127371939389841
 20
0.3048707378811382
 30
0.0
 40
0.087225
  1
3
  0
LINE
  5
31161
  8
0
 10
2.139480062265986
 20
0.233420200818031
 30
0.0
 11
2.2395404715874259
 21
0.3763212749442456
 31
0.0
  0
TEXT
  5
31162
  8
0
 10
2.202500802397374
 20
0.1885707378811383
 30
0.0
 40
0.087225
  1
4
  0
TEXT
  5
31163
  8
0
 10
2.2702102498735002
 20
0.2176457378811383
 30
0.0
 40
0.125
  1
" x 1-
  0
TEXT
  5
31164
  8
0
 10
2.6666963685638141
 20
0.3048707378811382
 30
0.0
 40
0.087225
  1
3
  0
LINE
  5
31165
  8
0
 10
2.6934392368908151
 20
0.233420200818031
 30
0.0
 11
2.793499646212255
 21
0.3763212749442456
 31
0.0
  0
TEXT
  5
31166
  8
0
 10
2.756459977022204
 20
0.1885707378811383
 30
0.0
 40
0.087225
  1
4
  0
TEXT
  5
31167
  8
0
 10
2.8241694244983289
 20
0.2176457378811383
 30
0.0
 40
0.125
  1
"
  0
TEXT
  5
31168
  8
0
 10
1.974521880159994
 20
0.0488474204641306
 30
0.0
 40
0.125
  1
800.66.TAGUE
  0
ENDBLK
  5
3116A
  8
0
  0
BLOCK
  8
0
  2
*U77
 70
     1
 10
0.0
 20
0.0
 30
0.0
  3
*U77
  1

  0
TEXT
  5
3116C
  8
0
 10
6.0916813895717663
 20
1.1589680224542569
 30
0.0
 40
0.125
  1
TL-539
  0
ENDBLK
  5
3116E
  8
0
  0
BLOCK
  8
0
  2
*U78
 70
     1
 10
0.0
 20
0.0
 30
0.0
  3
*U78
  1

  0
INSERT
  5
31170
  8
0
  2
_OPEN30
 10
5.5297396917334254
 20
1.423040350996984
 30
0.0
 41
0.046875
 42
0.046875
 43
0.046875
 50
156.5115553320598
  0
POLYLINE
  5
31171
  8
0
 66
     1
 10
0.0
 20
0.0
 30
0.0
  0
VERTEX
  5
31172
  8
0
 10
5.5727306514936332
 20
1.404357658367275
 30
0.0
  0
VERTEX
  5
31173
  8
0
 10
5.992991484785648
 20
1.221723820544298
 30
0.0
  0
VERTEX
  5
31174
  8
0
 10
6.0332741590124206
 20
1.221723820544298
 30
0.0
  0
SEQEND
  5
31175
  8
0
  0
ENDBLK
  5
31177
  8
0
  0
BLOCK
  8
0
  2
*U79
 70
     1
 10
0.0
 20
0.0
 30
0.0
  3
*U79
  1

  0
TEXT
  5
31179
  8
0
 10
8.2506161076617612
 20
3.659671552769634
 30
0.0
 40
0.125
  1
TL-25
  0
ENDBLK
  5
3117B
  8
0
  0
BLOCK
  8
0
  2
*U80
 70
     1
 10
0.0
 20
0.0
 30
0.0
  3
*U80
  1

  0
INSERT
  5
3117D
  8
0
  2
_OPEN30
 10
7.5943396585593632
 20
4.1117705265849054
 30
0.0
 41
0.046875
 42
0.046875
 43
0.046875
 50
143.83030806409641
  0
POLYLINE
  5
3117E
  8
0
 66
     1
 10
0.0
 20
0.0
 30
0.0
  0
VERTEX
  5
3117F
  8
0
 10
7.6321805623951144
 20
4.0841058989551424
 30
0.0
  0
VERTEX
  5
31180
  8
0
 10
8.1269005109553518
 20
3.7224273508596748
 30
0.0
  0
VERTEX
  5
31181
  8
0
 10
8.1922088771024164
 20
3.7224273508596748
 30
0.0
  0
SEQEND
  5
31182
  8
0
  0
ENDBLK
  5
31184
  8
0
  0
BLOCK
  8
0
  2
*U81
 70
     1
 10
0.0
 20
0.0
 30
0.0
  3
*U81
  1

  0
TEXT
  5
31186
  8
0
 10
7.4510287652605358
 20
2.3081779177865811
 30
0.0
 40
0.125
  1
Crown Assembly
  0
TEXT
  5
31187
  8
0
 10
7.4556331308812718
 20
2.0993329882731659
 30
0.0
 40
0.125
  1
TL-660
  0
TEXT
  5
31188
  8
0
 10
7.4523930217407539
 20
1.888868004189491
 30
0.0
 40
0.125
  1
3-1/4" x 5-5/8"
  0
TEXT
  5
31189
  8
0
 10
7.4526488198307952
 20
1.6784030201058171
 30
0.0
 40
0.125
  1
800.66.TAGUE
  0
ENDBLK
  5
3118B
  8
0
  0
BLOCK
  8
0
  2
*U82
 70
     1
 10
0.0
 20
0.0
 30
0.0
  3
*U82
  1

  0
TEXT
  5
3118D
  8
0
 10
-376.11159878111312
 20
844.38447483500977
 30
0.0
 40
0.125
  1
TL-539
  0
ENDBLK
  5
3118F
  8
0
  0
BLOCK
  8
0
  2
*U83
 70
     1
 10
0.0
 20
0.0
 30
0.0
  3
*U83
  1

  0
INSERT
  5
31191
  8
0
  2
_OPEN30
 10
-376.6735404789514
 20
844.64854716355262
 30
0.0
 41
0.046875
 42
0.046875
 43
0.046875
 50
156.5115553320598
  0
POLYLINE
  5
31192
  8
0
 66
     1
 10
0.0
 20
0.0
 30
0.0
  0
VERTEX
  5
31193
  8
0
 10
-376.63054951919111
 20
844.62986447092283
 30
0.0
  0
VERTEX
  5
31194
  8
0
 10
-376.21028868589917
 20
844.44723063309982
 30
0.0
  0
VERTEX
  5
31195
  8
0
 10
-376.1700060116724
 20
844.44723063309982
 30
0.0
  0
SEQEND
  5
31196
  8
0
  0
ENDBLK
  5
31198
  8
0
  0
BLOCK
  8
0
  2
*U84
 70
     1
 10
0.0
 20
0.0
 30
0.0
  3
*U84
  1

  0
TEXT
  5
3119A
  8
0
 10
-373.95266406302312
 20
846.88517836532526
 30
0.0
 40
0.125
  1
TL-25
  0
ENDBLK
  5
3119C
  8
0
  0
BLOCK
  8
0
  2
*U85
 70
     1
 10
0.0
 20
0.0
 30
0.0
  3
*U85
  1

  0
INSERT
  5
3119E
  8
0
  2
_OPEN30
 10
-374.60894051212551
 20
847.33727733914054
 30
0.0
 41
0.046875
 42
0.046875
 43
0.046875
 50
143.83030806409641
  0
POLYLINE
  5
3119F
  8
0
 66
     1
 10
0.0
 20
0.0
 30
0.0
  0
VERTEX
  5
311A0
  8
0
 10
-374.57109960828973
 20
847.30961271151068
 30
0.0
  0
VERTEX
  5
311A1
  8
0
 10
-374.07637965972953
 20
846.94793416341531
 30
0.0
  0
VERTEX
  5
311A2
  8
0
 10
-374.0110712935824
 20
846.94793416341531
 30
0.0
  0
SEQEND
  5
311A3
  8
0
  0
ENDBLK
  5
311A5
  8
0
  0
BLOCK
  8
0
  2
*U86
 70
     1
 10
0.0
 20
0.0
 30
0.0
  3
*U86
  1

  0
TEXT
  5
311A7
  8
0
 10
-374.75225140542432
 20
845.5336847303422
 30
0.0
 40
0.125
  1
Crown Assembly
  0
TEXT
  5
311A8
  8
0
 10
-374.7476470398035
 20
845.32483980082873
 30
0.0
 40
0.125
  1
TL-660
  0
TEXT
  5
311A9
  8
0
 10
-374.750887148944
 20
845.11437481674511
 30
0.0
 40
0.125
  1
3-1/4" x 5-5/8"
  0
TEXT
  5
311AA
  8
0
 10
-374.75063135085401
 20
844.9039098326615
 30
0.0
 40
0.125
  1
800.66.TAGUE
  0
ENDBLK
  5
311AC
  8
0
  0
ENDSEC
  0
SECTION
  2
ENTITIES
  0
INSERT
  5
31035
  8
0
  2
*U82
 10
0.0
 20
0.0
 30
0.0
  0
INSERT
  5
31036
  8
0
  2
*U83
 10
0.0
 20
0.0
 30
0.0
1001
ACAD
1000
DSTYLE
1002
{
1070
   147
1040
0.0625
1070
    77
1070
     0
1002
}
  0
INSERT
  5
31037
  8
0
  2
*U84
 10
0.0
 20
0.0
 30
0.0
  0
INSERT
  5
31038
  8
0
  2
*U85
 10
0.0
 20
0.0
 30
0.0
1001
ACAD
1000
DSTYLE
1002
{
1070
   147
1040
0.0625
1070
    77
1070
     0
1002
}
  0
INSERT
  5
31039
  8
0
  2
*U86
 10
0.0
 20
0.0
 30
0.0
  0
POLYLINE
  8
0
  5
3128F
  66
     1
 10
0.000000
 20
0.000000
 30
0.000000
  70
     8
  0
VERTEX
  8
0
  5
31290
 10
-380.139
 20
846.198
 30
0.000000
  70
    32
  0
VERTEX
  8
0
  5
31291
 10
-380.137
 20
846.196
 30
0.000000
  70
    32
  0
VERTEX
  8
0
  5
31292
 10
-380.134
 20
846.193
 30
0.000000
  70
    32
  0
VERTEX
  8
0
  5
31293
 10
-380.132
 20
846.191
 30
0.000000
  70
    32
  0
VERTEX
  8
0
  5
31294
 10
-380.129
 20
846.189
 30
0.000000
  70
    32
  0
VERTEX
  8
0
  5
31295
 10
-380.127
 20
846.186
 30
0.000000
  70
    32
  0
VERTEX
  8
0
  5
31296
 10
-380.125
 20
846.184
 30
0.000000
  70
    32
  0
VERTEX
  8
0
  5
31297
 10
-380.122
 20
846.182
 30
0.000000
  70
    32
  0
VERTEX
  8
0
  5
31298
 10
-380.120
 20
846.179
 30
0.000000
  70
    32
  0
VERTEX
  8
0
  5
31299
 10
-380.117
 20
846.177
 30
0.000000
  70
    32
  0
VERTEX
  8
0
  5
3129A
 10
-380.115
 20
846.175
 30
0.000000
  70
    32
  0
VERTEX
  8
0
  5
3129B
 10
-380.113
 20
846.172
 30
0.000000
  70
    32
  0
VERTEX
  8
0
  5
3129C
 10
-380.110
 20
846.170
 30
0.000000
  70
    32
  0
VERTEX
  8
0
  5
3129D
 10
-380.108
 20
846.168
 30
0.000000
  70
    32
  0
VERTEX
  8
0
  5
3129E
 10
-380.105
 20
846.165
 30
0.000000
  70
    32
  0
VERTEX
  8
0
  5
3129F
 10
-380.103
 20
846.163
 30
0.000000
  70
    32
  0
VERTEX
  8
0
  5
312A0
 10
-380.101
 20
846.161
 30
0.000000
  70
    32
  0
VERTEX
  8
0
  5
312A1
 10
-380.098
 20
846.158
 30
0.000000
  70
    32
  0
VERTEX
  8
0
  5
312A2
 10
-380.096
 20
846.156
 30
0.000000
  70
    32
  0
VERTEX
  8
0
  5
312A3
 10
-380.094
 20
846.153
 30
0.000000
  70
    32
  0
VERTEX
  8
0
  5
312A4
 10
-380.091
 20
846.151
 30
0.000000
  70
    32
  0
VERTEX
  8
0
  5
312A5
 10
-380.089
 20
846.149
 30
0.000000
  70
    32
  0
VERTEX
  8
0
  5
312A6
 10
-380.087
 20
846.146
 30
0.000000
  70
    32
  0
VERTEX
  8
0
  5
312A7
 10
-380.084
 20
846.144
 30
0.000000
  70
    32
  0
VERTEX
  8
0
  5
312A8
 10
-380.082
 20
846.141
 30
0.000000
  70
    32
  0
VERTEX
  8
0
  5
312A9
 10
-380.080
 20
846.139
 30
0.000000
  70
    32
  0
VERTEX
  8
0
  5
312AA
 10
-380.078
 20
846.136
 30
0.000000
  70
    32
  0
VERTEX
  8
0
  5
312AB
 10
-380.075
 20
846.134
 30
0.000000
  70
    32
  0
VERTEX
  8
0
  5
312AC
 10
-380.073
 20
846.131
 30
0.000000
  70
    32
  0
VERTEX
  8
0
  5
312AD
 10
-380.071
 20
846.129
 30
0.000000
  70
    32
  0
VERTEX
  8
0
  5
312AE
 10
-380.069
 20
846.126
 30
0.000000
  70
    32
  0
VERTEX
  8
0
  5
312AF
 10
-380.066
 20
846.124
 30
0.000000
  70
    32
  0
VERTEX
  8
0
  5
312B0
 10
-380.064
 20
846.121
 30
0.000000
  70
    32
  0
VERTEX
  8
0
  5
312B1
 10
-380.062
 20
846.119
 30
0.000000
  70
    32
  0
VERTEX
  8
0
  5
312B2
 10
-380.060
 20
846.116
 30
0.000000
  70
    32
  0
VERTEX
  8
0
  5
312B3
 10
-380.058
 20
846.113
 30
0.000000
  70
    32
  0
VERTEX
  8
0
  5
312B4
 10
-380.056
 20
846.111
 30
0.000000
  70
    32
  0
VERTEX
  8
0
  5
312B5
 10
-380.054
 20
846.108
 30
0.000000
  70
    32
  0
VERTEX
  8
0
  5
312B6
 10
-380.052
 20
846.105
 30
0.000000
  70
    32
  0
VERTEX
  8
0
  5
312B7
 10
-380.050
 20
846.103
 30
0.000000
  70
    32
  0
VERTEX
  8
0
  5
312B8
 10
-380.047
 20
846.100
 30
0.000000
  70
    32
  0
VERTEX
  8
0
  5
312B9
 10
-380.045
 20
846.097
 30
0.000000
  70
    32
  0
VERTEX
  8
0
  5
312BA
 10
-380.043
 20
846.095
 30
0.000000
  70
    32
  0
VERTEX
  8
0
  5
312BB
 10
-380.042
 20
846.092
 30
0.000000
  70
    32
  0
VERTEX
  8
0
  5
312BC
 10
-380.040
 20
846.089
 30
0.000000
  70
    32
  0
VERTEX
  8
0
  5
312BD
 10
-380.038
 20
846.086
 30
0.000000
  70
    32
  0
VERTEX
  8
0
  5
312BE
 10
-380.036
 20
846.084
 30
0.000000
  70
    32
  0
VERTEX
  8
0
  5
312BF
 10
-380.034
 20
846.081
 30
0.000000
  70
    32
  0
VERTEX
  8
0
  5
312C0
 10
-380.032
 20
846.078
 30
0.000000
  70
    32
  0
VERTEX
  8
0
  5
312C1
 10
-380.030
 20
846.075
 30
0.000000
  70
    32
  0
VERTEX
  8
0
  5
312C2
 10
-380.028
 20
846.072
 30
0.000000
  70
    32
  0
VERTEX
  8
0
  5
312C3
 10
-380.027
 20
846.069
 30
0.000000
  70
    32
  0
VERTEX
  8
0
  5
312C4
 10
-380.025
 20
846.067
 30
0.000000
  70
    32
  0
VERTEX
  8
0
  5
312C5
 10
-380.023
 20
846.064
 30
0.000000
  70
    32
  0
VERTEX
  8
0
  5
312C6
 10
-380.021
 20
846.061
 30
0.000000
  70
    32
  0
VERTEX
  8
0
  5
312C7
 10
-380.020
 20
846.058
 30
0.000000
  70
    32
  0
VERTEX
  8
0
  5
312C8
 10
-380.018
 20
846.055
 30
0.000000
  70
    32
  0
VERTEX
  8
0
  5
312C9
 10
-380.016
 20
846.052
 30
0.000000
  70
    32
  0
VERTEX
  8
0
  5
312CA
 10
-380.015
 20
846.049
 30
0.000000
  70
    32
  0
VERTEX
  8
0
  5
312CB
 10
-380.013
 20
846.046
 30
0.000000
  70
    32
  0
VERTEX
  8
0
  5
312CC
 10
-380.012
 20
846.043
 30
0.000000
  70
    32
  0
VERTEX
  8
0
  5
312CD
 10
-380.010
 20
846.040
 30
0.000000
  70
    32
  0
VERTEX
  8
0
  5
312CE
 10
-380.009
 20
846.037
 30
0.000000
  70
    32
  0
VERTEX
  8
0
  5
312CF
 10
-380.007
 20
846.034
 30
0.000000
  70
    32
  0
VERTEX
  8
0
  5
312D0
 10
-380.006
 20
846.031
 30
0.000000
  70
    32
  0
VERTEX
  8
0
  5
312D1
 10
-380.004
 20
846.028
 30
0.000000
  70
    32
  0
VERTEX
  8
0
  5
312D2
 10
-380.003
 20
846.025
 30
0.000000
  70
    32
  0
VERTEX
  8
0
  5
312D3
 10
-380.002
 20
846.022
 30
0.000000
  70
    32
  0
VERTEX
  8
0
  5
312D4
 10
-380.000
 20
846.018
 30
0.000000
  70
    32
  0
VERTEX
  8
0
  5
312D5
 10
-379.999
 20
846.015
 30
0.000000
  70
    32
  0
VERTEX
  8
0
  5
312D6
 10
-379.998
 20
846.012
 30
0.000000
  70
    32
  0
VERTEX
  8
0
  5
312D7
 10
-379.997
 20
846.009
 30
0.000000
  70
    32
  0
VERTEX
  8
0
  5
312D8
 10
-379.996
 20
846.006
 30
0.000000
  70
    32
  0
VERTEX
  8
0
  5
312D9
 10
-379.995
 20
846.003
 30
0.000000
  70
    32
  0
VERTEX
  8
0
  5
312DA
 10
-379.993
 20
845.999
 30
0.000000
  70
    32
  0
VERTEX
  8
0
  5
312DB
 10
-379.992
 20
845.996
 30
0.000000
  70
    32
  0
VERTEX
  8
0
  5
312DC
 10
-379.991
 20
845.993
 30
0.000000
  70
    32
  0
VERTEX
  8
0
  5
312DD
 10
-379.990
 20
845.990
 30
0.000000
  70
    32
  0
VERTEX
  8
0
  5
312DE
 10
-379.989
 20
845.987
 30
0.000000
  70
    32
  0
VERTEX
  8
0
  5
312DF
 10
-379.989
 20
845.983
 30
0.000000
  70
    32
  0
VERTEX
  8
0
  5
312E0
 10
-379.988
 20
845.980
 30
0.000000
  70
    32
  0
VERTEX
  8
0
  5
312E1
 10
-379.987
 20
845.977
 30
0.000000
  70
    32
  0
VERTEX
  8
0
  5
312E2
 10
-379.986
 20
845.973
 30
0.000000
  70
    32
  0
VERTEX
  8
0
  5
312E3
 10
-379.985
 20
845.970
 30
0.000000
  70
    32
  0
VERTEX
  8
0
  5
312E4
 10
-379.985
 20
845.967
 30
0.000000
  70
    32
  0
VERTEX
  8
0
  5
312E5
 10
-379.984
 20
845.963
 30
0.000000
  70
    32
  0
VERTEX
  8
0
  5
312E6
 10
-379.983
 20
845.960
 30
0.000000
  70
    32
  0
VERTEX
  8
0
  5
312E7
 10
-379.983
 20
845.957
 30
0.000000
  70
    32
  0
VERTEX
  8
0
  5
312E8
 10
-379.982
 20
845.953
 30
0.000000
  70
    32
  0
VERTEX
  8
0
  5
312E9
 10
-379.981
 20
845.950
 30
0.000000
  70
    32
  0
VERTEX
  8
0
  5
312EA
 10
-379.981
 20
845.947
 30
0.000000
  70
    32
  0
VERTEX
  8
0
  5
312EB
 10
-379.980
 20
845.943
 30
0.000000
  70
    32
  0
VERTEX
  8
0
  5
312EC
 10
-379.980
 20
845.940
 30
0.000000
  70
    32
  0
VERTEX
  8
0
  5
312ED
 10
-379.980
 20
845.936
 30
0.000000
  70
    32
  0
VERTEX
  8
0
  5
312EE
 10
-379.979
 20
845.933
 30
0.000000
  70
    32
  0
VERTEX
  8
0
  5
312EF
 10
-379.979
 20
845.930
 30
0.000000
  70
    32
  0
VERTEX
  8
0
  5
312F0
 10
-379.979
 20
845.926
 30
0.000000
  70
    32
  0
VERTEX
  8
0
  5
312F1
 10
-379.978
 20
845.923
 30
0.000000
  70
    32
  0
VERTEX
  8
0
  5
312F2
 10
-379.978
 20
845.919
 30
0.000000
  70
    32
  0
VERTEX
  8
0
  5
312F3
 10
-379.978
 20
845.916
 30
0.000000
  70
    32
  0
VERTEX
  8
0
  5
312F4
 10
-379.978
 20
845.913
 30
0.000000
  70
    32
  0
VERTEX
  8
0
  5
312F5
 10
-379.978
 20
845.909
 30
0.000000
  70
    32
  0
VERTEX
  8
0
  5
312F6
 10
-379.978
 20
845.906
 30
0.000000
  70
    32
  0
VERTEX
  8
0
  5
312F7
 10
-379.978
 20
845.902
 30
0.000000
  70
    32
  0
VERTEX
  8
0
  5
312F8
 10
-379.978
 20
845.899
 30
0.000000
  70
    32
  0
VERTEX
  8
0
  5
312F9
 10
-379.978
 20
845.896
 30
0.000000
  70
    32
  0
VERTEX
  8
0
  5
312FA
 10
-379.978
 20
845.892
 30
0.000000
  70
    32
  0
VERTEX
  8
0
  5
312FB
 10
-379.978
 20
845.889
 30
0.000000
  70
    32
  0
VERTEX
  8
0
  5
312FC
 10
-379.978
 20
845.885
 30
0.000000
  70
    32
  0
VERTEX
  8
0
  5
312FD
 10
-379.979
 20
845.882
 30
0.000000
  70
    32
  0
VERTEX
  8
0
  5
312FE
 10
-379.979
 20
845.879
 30
0.000000
  70
    32
  0
VERTEX
  8
0
  5
312FF
 10
-379.979
 20
845.875
 30
0.000000
  70
    32
  0
VERTEX
  8
0
  5
31300
 10
-379.980
 20
845.872
 30
0.000000
  70
    32
  0
VERTEX
  8
0
  5
31301
 10
-379.980
 20
845.869
 30
0.000000
  70
    32
  0
VERTEX
  8
0
  5
31302
 10
-379.980
 20
845.865
 30
0.000000
  70
    32
  0
VERTEX
  8
0
  5
31303
 10
-379.981
 20
845.862
 30
0.000000
  70
    32
  0
VERTEX
  8
0
  5
31304
 10
-379.981
 20
845.858
 30
0.000000
  70
    32
  0
VERTEX
  8
0
  5
31305
 10
-379.982
 20
845.855
 30
0.000000
  70
    32
  0
VERTEX
  8
0
  5
31306
 10
-379.982
 20
845.852
 30
0.000000
  70
    32
  0
VERTEX
  8
0
  5
31307
 10
-379.983
 20
845.848
 30
0.000000
  70
    32
  0
VERTEX
  8
0
  5
31308
 10
-379.984
 20
845.845
 30
0.000000
  70
    32
  0
VERTEX
  8
0
  5
31309
 10
-379.984
 20
845.842
 30
0.000000
  70
    32
  0
VERTEX
  8
0
  5
3130A
 10
-379.985
 20
845.838
 30
0.000000
  70
    32
  0
VERTEX
  8
0
  5
3130B
 10
-379.986
 20
845.835
 30
0.000000
  70
    32
  0
VERTEX
  8
0
  5
3130C
 10
-379.987
 20
845.832
 30
0.000000
  70
    32
  0
VERTEX
  8
0
  5
3130D
 10
-379.988
 20
845.829
 30
0.000000
  70
    32
  0
VERTEX
  8
0
  5
3130E
 10
-379.989
 20
845.825
 30
0.000000
  70
    32
  0
VERTEX
  8
0
  5
3130F
 10
-379.990
 20
845.822
 30
0.000000
  70
    32
  0
VERTEX
  8
0
  5
31310
 10
-379.991
 20
845.819
 30
0.000000
  70
    32
  0
VERTEX
  8
0
  5
31311
 10
-379.992
 20
845.816
 30
0.000000
  70
    32
  0
VERTEX
  8
0
  5
31312
 10
-379.993
 20
845.812
 30
0.000000
  70
    32
  0
VERTEX
  8
0
  5
31313
 10
-379.994
 20
845.809
 30
0.000000
  70
    32
  0
VERTEX
  8
0
  5
31314
 10
-379.995
 20
845.806
 30
0.000000
  70
    32
  0
VERTEX
  8
0
  5
31315
 10
-379.996
 20
845.803
 30
0.000000
  70
    32
  0
VERTEX
  8
0
  5
31316
 10
-379.997
 20
845.800
 30
0.000000
  70
    32
  0
VERTEX
  8
0
  5
31317
 10
-379.999
 20
845.797
 30
0.000000
  70
    32
  0
VERTEX
  8
0
  5
31318
 10
-380.000
 20
845.794
 30
0.000000
  70
    32
  0
VERTEX
  8
0
  5
31319
 10
-380.001
 20
845.790
 30
0.000000
  70
    32
  0
VERTEX
  8
0
  5
3131A
 10
-380.003
 20
845.787
 30
0.000000
  70
    32
  0
VERTEX
  8
0
  5
3131B
 10
-380.004
 20
845.784
 30
0.000000
  70
    32
  0
VERTEX
  8
0
  5
3131C
 10
-380.006
 20
845.781
 30
0.000000
  70
    32
  0
VERTEX
  8
0
  5
3131D
 10
-380.007
 20
845.778
 30
0.000000
  70
    32
  0
VERTEX
  8
0
  5
3131E
 10
-380.009
 20
845.775
 30
0.000000
  70
    32
  0
VERTEX
  8
0
  5
3131F
 10
-380.010
 20
845.772
 30
0.000000
  70
    32
  0
VERTEX
  8
0
  5
31320
 10
-380.012
 20
845.769
 30
0.000000
  70
    32
  0
VERTEX
  8
0
  5
31321
 10
-380.014
 20
845.766
 30
0.000000
  70
    32
  0
VERTEX
  8
0
  5
31322
 10
-380.015
 20
845.763
 30
0.000000
  70
    32
  0
VERTEX
  8
0
  5
31323
 10
-380.017
 20
845.760
 30
0.000000
  70
    32
  0
VERTEX
  8
0
  5
31324
 10
-380.019
 20
845.757
 30
0.000000
  70
    32
  0
VERTEX
  8
0
  5
31325
 10
-380.020
 20
845.754
 30
0.000000
  70
    32
  0
VERTEX
  8
0
  5
31326
 10
-380.022
 20
845.752
 30
0.000000
  70
    32
  0
VERTEX
  8
0
  5
31327
 10
-380.024
 20
845.749
 30
0.000000
  70
    32
  0
VERTEX
  8
0
  5
31328
 10
-380.026
 20
845.746
 30
0.000000
  70
    32
  0
VERTEX
  8
0
  5
31329
 10
-380.028
 20
845.743
 30
0.000000
  70
    32
  0
VERTEX
  8
0
  5
3132A
 10
-380.030
 20
845.740
 30
0.000000
  70
    32
  0
VERTEX
  8
0
  5
3132B
 10
-380.032
 20
845.737
 30
0.000000
  70
    32
  0
VERTEX
  8
0
  5
3132C
 10
-380.034
 20
845.735
 30
0.000000
  70
    32
  0
VERTEX
  8
0
  5
3132D
 10
-380.036
 20
845.732
 30
0.000000
  70
    32
  0
VERTEX
  8
0
  5
3132E
 10
-380.038
 20
845.729
 30
0.000000
  70
    32
  0
VERTEX
  8
0
  5
3132F
 10
-380.040
 20
845.726
 30
0.000000
  70
    32
  0
VERTEX
  8
0
  5
31330
 10
-380.042
 20
845.724
 30
0.000000
  70
    32
  0
VERTEX
  8
0
  5
31331
 10
-380.044
 20
845.721
 30
0.000000
  70
    32
  0
VERTEX
  8
0
  5
31332
 10
-380.046
 20
845.718
 30
0.000000
  70
    32
  0
VERTEX
  8
0
  5
31333
 10
-380.048
 20
845.716
 30
0.000000
  70
    32
  0
VERTEX
  8
0
  5
31334
 10
-380.050
 20
845.713
 30
0.000000
  70
    32
  0
VERTEX
  8
0
  5
31335
 10
-380.053
 20
845.711
 30
0.000000
  70
    32
  0
VERTEX
  8
0
  5
31336
 10
-380.055
 20
845.708
 30
0.000000
  70
    32
  0
VERTEX
  8
0
  5
31337
 10
-380.057
 20
845.706
 30
0.000000
  70
    32
  0
VERTEX
  8
0
  5
31338
 10
-380.059
 20
845.703
 30
0.000000
  70
    32
  0
VERTEX
  8
0
  5
31339
 10
-380.062
 20
845.701
 30
0.000000
  70
    32
  0
VERTEX
  8
0
  5
3133A
 10
-380.064
 20
845.698
 30
0.000000
  70
    32
  0
VERTEX
  8
0
  5
3133B
 10
-380.066
 20
845.696
 30
0.000000
  70
    32
  0
VERTEX
  8
0
  5
3133C
 10
-380.069
 20
845.693
 30
0.000000
  70
    32
  0
VERTEX
  8
0
  5
3133D
 10
-380.071
 20
845.691
 30
0.000000
  70
    32
  0
VERTEX
  8
0
  5
3133E
 10
-380.074
 20
845.688
 30
0.000000
  70
    32
  0
VERTEX
  8
0
  5
3133F
 10
-380.076
 20
845.686
 30
0.000000
  70
    32
  0
VERTEX
  8
0
  5
31340
 10
-380.078
 20
845.684
 30
0.000000
  70
    32
  0
VERTEX
  8
0
  5
31341
 10
-380.081
 20
845.681
 30
0.000000
  70
    32
  0
VERTEX
  8
0
  5
31342
 10
-380.083
 20
845.679
 30
0.000000
  70
    32
  0
VERTEX
  8
0
  5
31343
 10
-380.086
 20
845.677
 30
0.000000
  70
    32
  0
VERTEX
  8
0
  5
31344
 10
-380.089
 20
845.674
 30
0.000000
  70
    32
  0
VERTEX
  8
0
  5
31345
 10
-380.091
 20
845.672
 30
0.000000
  70
    32
  0
VERTEX
  8
0
  5
31346
 10
-380.094
 20
845.670
 30
0.000000
  70
    32
  0
VERTEX
  8
0
  5
31347
 10
-380.096
 20
845.668
 30
0.000000
  70
    32
  0
VERTEX
  8
0
  5
31348
 10
-380.099
 20
845.666
 30
0.000000
  70
    32
  0
VERTEX
  8
0
  5
31349
 10
-380.101
 20
845.664
 30
0.000000
  70
    32
  0
VERTEX
  8
0
  5
3134A
 10
-380.104
 20
845.662
 30
0.000000
  70
    32
  0
VERTEX
  8
0
  5
3134B
 10
-380.107
 20
845.659
 30
0.000000
  70
    32
  0
VERTEX
  8
0
  5
3134C
 10
-380.109
 20
845.657
 30
0.000000
  70
    32
  0
VERTEX
  8
0
  5
3134D
 10
-380.112
 20
845.655
 30
0.000000
  70
    32
  0
VERTEX
  8
0
  5
3134E
 10
-380.115
 20
845.653
 30
0.000000
  70
    32
  0
VERTEX
  8
0
  5
3134F
 10
-380.117
 20
845.651
 30
0.000000
  70
    32
  0
VERTEX
  8
0
  5
31350
 10
-380.120
 20
845.649
 30
0.000000
  70
    32
  0
VERTEX
  8
0
  5
31351
 10
-380.123
 20
845.647
 30
0.000000
  70
    32
  0
VERTEX
  8
0
  5
31352
 10
-380.126
 20
845.646
 30
0.000000
  70
    32
  0
VERTEX
  8
0
  5
31353
 10
-380.128
 20
845.644
 30
0.000000
  70
    32
  0
VERTEX
  8
0
  5
31354
 10
-380.131
 20
845.642
 30
0.000000
  70
    32
  0
VERTEX
  8
0
  5
31355
 10
-380.134
 20
845.640
 30
0.000000
  70
    32
  0
VERTEX
  8
0
  5
31356
 10
-380.137
 20
845.638
 30
0.000000
  70
    32
  0
VERTEX
  8
0
  5
31357
 10
-380.140
 20
845.636
 30
0.000000
  70
    32
  0
VERTEX
  8
0
  5
31358
 10
-380.142
 20
845.634
 30
0.000000
  70
    32
  0
VERTEX
  8
0
  5
31359
 10
-380.145
 20
845.633
 30
0.000000
  70
    32
  0
VERTEX
  8
0
  5
3135A
 10
-380.148
 20
845.631
 30
0.000000
  70
    32
  0
VERTEX
  8
0
  5
3135B
 10
-380.151
 20
845.629
 30
0.000000
  70
    32
  0
VERTEX
  8
0
  5
3135C
 10
-380.154
 20
845.627
 30
0.000000
  70
    32
  0
VERTEX
  8
0
  5
3135D
 10
-380.157
 20
845.626
 30
0.000000
  70
    32
  0
VERTEX
  8
0
  5
3135E
 10
-380.160
 20
845.624
 30
0.000000
  70
    32
  0
VERTEX
  8
0
  5
3135F
 10
-380.162
 20
845.622
 30
0.000000
  70
    32
  0
VERTEX
  8
0
  5
31360
 10
-380.165
 20
845.620
 30
0.000000
  70
    32
  0
VERTEX
  8
0
  5
31361
 10
-380.168
 20
845.619
 30
0.000000
  70
    32
  0
VERTEX
  8
0
  5
31362
 10
-380.171
 20
845.617
 30
0.000000
  70
    32
  0
VERTEX
  8
0
  5
31363
 10
-380.174
 20
845.616
 30
0.000000
  70
    32
  0
VERTEX
  8
0
  5
31364
 10
-380.177
 20
845.614
 30
0.000000
  70
    32
  0
VERTEX
  8
0
  5
31365
 10
-380.180
 20
845.612
 30
0.000000
  70
    32
  0
VERTEX
  8
0
  5
31366
 10
-380.183
 20
845.611
 30
0.000000
  70
    32
  0
VERTEX
  8
0
  5
31367
 10
-380.186
 20
845.609
 30
0.000000
  70
    32
  0
VERTEX
  8
0
  5
31368
 10
-380.189
 20
845.608
 30
0.000000
  70
    32
  0
VERTEX
  8
0
  5
31369
 10
-380.192
 20
845.606
 30
0.000000
  70
    32
  0
VERTEX
  8
0
  5
3136A
 10
-380.195
 20
845.604
 30
0.000000
  70
    32
  0
VERTEX
  8
0
  5
3136B
 10
-380.198
 20
845.603
 30
0.000000
  70
    32
  0
VERTEX
  8
0
  5
3136C
 10
-380.201
 20
845.601
 30
0.000000
  70
    32
  0
VERTEX
  8
0
  5
3136D
 10
-380.204
 20
845.600
 30
0.000000
  70
    32
  0
VERTEX
  8
0
  5
3136E
 10
-380.207
 20
845.598
 30
0.000000
  70
    32
  0
VERTEX
  8
0
  5
3136F
 10
-380.210
 20
845.597
 30
0.000000
  70
    32
  0
VERTEX
  8
0
  5
31370
 10
-380.213
 20
845.595
 30
0.000000
  70
    32
  0
VERTEX
  8
0
  5
31371
 10
-380.216
 20
845.594
 30
0.000000
  70
    32
  0
VERTEX
  8
0
  5
31372
 10
-380.219
 20
845.592
 30
0.000000
  70
    32
  0
VERTEX
  8
0
  5
31373
 10
-380.222
 20
845.591
 30
0.000000
  70
    32
  0
VERTEX
  8
0
  5
31374
 10
-380.225
 20
845.590
 30
0.000000
  70
    32
  0
VERTEX
  8
0
  5
31375
 10
-380.228
 20
845.588
 30
0.000000
  70
    32
  0
VERTEX
  8
0
  5
31376
 10
-380.231
 20
845.587
 30
0.000000
  70
    32
  0
VERTEX
  8
0
  5
31377
 10
-380.234
 20
845.585
 30
0.000000
  70
    32
  0
VERTEX
  8
0
  5
31378
 10
-380.237
 20
845.584
 30
0.000000
  70
    32
  0
VERTEX
  8
0
  5
31379
 10
-380.240
 20
845.582
 30
0.000000
  70
    32
  0
VERTEX
  8
0
  5
3137A
 10
-380.243
 20
845.581
 30
0.000000
  70
    32
  0
VERTEX
  8
0
  5
3137B
 10
-380.246
 20
845.579
 30
0.000000
  70
    32
  0
VERTEX
  8
0
  5
3137C
 10
-380.249
 20
845.578
 30
0.000000
  70
    32
  0
VERTEX
  8
0
  5
3137D
 10
-380.252
 20
845.576
 30
0.000000
  70
    32
  0
VERTEX
  8
0
  5
3137E
 10
-380.255
 20
845.575
 30
0.000000
  70
    32
  0
VERTEX
  8
0
  5
3137F
 10
-380.258
 20
845.574
 30
0.000000
  70
    32
  0
VERTEX
  8
0
  5
31380
 10
-380.261
 20
845.572
 30
0.000000
  70
    32
  0
VERTEX
  8
0
  5
31381
 10
-380.264
 20
845.571
 30
0.000000
  70
    32
  0
VERTEX
  8
0
  5
31382
 10
-380.267
 20
845.569
 30
0.000000
  70
    32
  0
VERTEX
  8
0
  5
31383
 10
-380.270
 20
845.568
 30
0.000000
  70
    32
  0
VERTEX
  8
0
  5
31384
 10
-380.273
 20
845.566
 30
0.000000
  70
    32
  0
VERTEX
  8
0
  5
31385
 10
-380.276
 20
845.565
 30
0.000000
  70
    32
  0
VERTEX
  8
0
  5
31386
 10
-380.279
 20
845.563
 30
0.000000
  70
    32
  0
VERTEX
  8
0
  5
31387
 10
-380.282
 20
845.562
 30
0.000000
  70
    32
  0
VERTEX
  8
0
  5
31388
 10
-380.285
 20
845.560
 30
0.000000
  70
    32
  0
VERTEX
  8
0
  5
31389
 10
-380.288
 20
845.559
 30
0.000000
  70
    32
  0
VERTEX
  8
0
  5
3138A
 10
-380.291
 20
845.557
 30
0.000000
  70
    32
  0
VERTEX
  8
0
  5
3138B
 10
-380.294
 20
845.555
 30
0.000000
  70
    32
  0
VERTEX
  8
0
  5
3138C
 10
-380.297
 20
845.554
 30
0.000000
  70
    32
  0
VERTEX
  8
0
  5
3138D
 10
-380.300
 20
845.552
 30
0.000000
  70
    32
  0
VERTEX
  8
0
  5
3138E
 10
-380.303
 20
845.551
 30
0.000000
  70
    32
  0
VERTEX
  8
0
  5
3138F
 10
-380.306
 20
845.549
 30
0.000000
  70
    32
  0
VERTEX
  8
0
  5
31390
 10
-380.309
 20
845.547
 30
0.000000
  70
    32
  0
VERTEX
  8
0
  5
31391
 10
-380.312
 20
845.546
 30
0.000000
  70
    32
  0
VERTEX
  8
0
  5
31392
 10
-380.314
 20
845.544
 30
0.000000
  70
    32
  0
VERTEX
  8
0
  5
31393
 10
-380.317
 20
845.542
 30
0.000000
  70
    32
  0
VERTEX
  8
0
  5
31394
 10
-380.320
 20
845.540
 30
0.000000
  70
    32
  0
VERTEX
  8
0
  5
31395
 10
-380.323
 20
845.538
 30
0.000000
  70
    32
  0
VERTEX
  8
0
  5
31396
 10
-380.326
 20
845.537
 30
0.000000
  70
    32
  0
VERTEX
  8
0
  5
31397
 10
-380.329
 20
845.535
 30
0.000000
  70
    32
  0
VERTEX
  8
0
  5
31398
 10
-380.331
 20
845.533
 30
0.000000
  70
    32
  0
VERTEX
  8
0
  5
31399
 10
-380.334
 20
845.531
 30
0.000000
  70
    32
  0
VERTEX
  8
0
  5
3139A
 10
-380.337
 20
845.529
 30
0.000000
  70
    32
  0
VERTEX
  8
0
  5
3139B
 10
-380.340
 20
845.527
 30
0.000000
  70
    32
  0
VERTEX
  8
0
  5
3139C
 10
-380.342
 20
845.525
 30
0.000000
  70
    32
  0
VERTEX
  8
0
  5
3139D
 10
-380.345
 20
845.523
 30
0.000000
  70
    32
  0
VERTEX
  8
0
  5
3139E
 10
-380.348
 20
845.521
 30
0.000000
  70
    32
  0
VERTEX
  8
0
  5
3139F
 10
-380.350
 20
845.519
 30
0.000000
  70
    32
  0
VERTEX
  8
0
  5
313A0
 10
-380.353
 20
845.517
 30
0.000000
  70
    32
  0
VERTEX
  8
0
  5
313A1
 10
-380.356
 20
845.515
 30
0.000000
  70
    32
  0
VERTEX
  8
0
  5
313A2
 10
-380.358
 20
845.513
 30
0.000000
  70
    32
  0
VERTEX
  8
0
  5
313A3
 10
-380.361
 20
845.510
 30
0.000000
  70
    32
  0
VERTEX
  8
0
  5
313A4
 10
-380.363
 20
845.508
 30
0.000000
  70
    32
  0
VERTEX
  8
0
  5
313A5
 10
-380.366
 20
845.506
 30
0.000000
  70
    32
  0
VERTEX
  8
0
  5
313A6
 10
-380.368
 20
845.504
 30
0.000000
  70
    32
  0
VERTEX
  8
0
  5
313A7
 10
-380.371
 20
845.501
 30
0.000000
  70
    32
  0
VERTEX
  8
0
  5
313A8
 10
-380.373
 20
845.499
 30
0.000000
  70
    32
  0
VERTEX
  8
0
  5
313A9
 10
-380.376
 20
845.497
 30
0.000000
  70
    32
  0
VERTEX
  8
0
  5
313AA
 10
-380.378
 20
845.494
 30
0.000000
  70
    32
  0
VERTEX
  8
0
  5
313AB
 10
-380.381
 20
845.492
 30
0.000000
  70
    32
  0
VERTEX
  8
0
  5
313AC
 10
-380.383
 20
845.489
 30
0.000000
  70
    32
  0
VERTEX
  8
0
  5
313AD
 10
-380.385
 20
845.487
 30
0.000000
  70
    32
  0
VERTEX
  8
0
  5
313AE
 10
-380.387
 20
845.484
 30
0.000000
  70
    32
  0
VERTEX
  8
0
  5
313AF
 10
-380.390
 20
845.482
 30
0.000000
  70
    32
  0
VERTEX
  8
0
  5
313B0
 10
-380.392
 20
845.479
 30
0.000000
  70
    32
  0
VERTEX
  8
0
  5
313B1
 10
-380.394
 20
845.476
 30
0.000000
  70
    32
  0
VERTEX
  8
0
  5
313B2
 10
-380.396
 20
845.474
 30
0.000000
  70
    32
  0
VERTEX
  8
0
  5
313B3
 10
-380.398
 20
845.471
 30
0.000000
  70
    32
  0
VERTEX
  8
0
  5
313B4
 10
-380.400
 20
845.468
 30
0.000000
  70
    32
  0
VERTEX
  8
0
  5
313B5
 10
-380.402
 20
845.466
 30
0.000000
  70
    32
  0
VERTEX
  8
0
  5
313B6
 10
-380.404
 20
845.463
 30
0.000000
  70
    32
  0
VERTEX
  8
0
  5
313B7
 10
-380.406
 20
845.460
 30
0.000000
  70
    32
  0
VERTEX
  8
0
  5
313B8
 10
-380.408
 20
845.457
 30
0.000000
  70
    32
  0
VERTEX
  8
0
  5
313B9
 10
-380.410
 20
845.455
 30
0.000000
  70
    32
  0
VERTEX
  8
0
  5
313BA
 10
-380.412
 20
845.452
 30
0.000000
  70
    32
  0
VERTEX
  8
0
  5
313BB
 10
-380.414
 20
845.449
 30
0.000000
  70
    32
  0
VERTEX
  8
0
  5
313BC
 10
-380.415
 20
845.446
 30
0.000000
  70
    32
  0
VERTEX
  8
0
  5
313BD
 10
-380.417
 20
845.443
 30
0.000000
  70
    32
  0
VERTEX
  8
0
  5
313BE
 10
-380.419
 20
845.440
 30
0.000000
  70
    32
  0
VERTEX
  8
0
  5
313BF
 10
-380.420
 20
845.437
 30
0.000000
  70
    32
  0
VERTEX
  8
0
  5
313C0
 10
-380.422
 20
845.434
 30
0.000000
  70
    32
  0
VERTEX
  8
0
  5
313C1
 10
-380.423
 20
845.431
 30
0.000000
  70
    32
  0
VERTEX
  8
0
  5
313C2
 10
-380.425
 20
845.428
 30
0.000000
  70
    32
  0
VERTEX
  8
0
  5
313C3
 10
-380.426
 20
845.425
 30
0.000000
  70
    32
  0
VERTEX
  8
0
  5
313C4
 10
-380.428
 20
845.422
 30
0.000000
  70
    32
  0
VERTEX
  8
0
  5
313C5
 10
-380.429
 20
845.419
 30
0.000000
  70
    32
  0
VERTEX
  8
0
  5
313C6
 10
-380.430
 20
845.416
 30
0.000000
  70
    32
  0
VERTEX
  8
0
  5
313C7
 10
-380.432
 20
845.413
 30
0.000000
  70
    32
  0
VERTEX
  8
0
  5
313C8
 10
-380.433
 20
845.410
 30
0.000000
  70
    32
  0
VERTEX
  8
0
  5
313C9
 10
-380.434
 20
845.407
 30
0.000000
  70
    32
  0
VERTEX
  8
0
  5
313CA
 10
-380.435
 20
845.403
 30
0.000000
  70
    32
  0
VERTEX
  8
0
  5
313CB
 10
-380.436
 20
845.400
 30
0.000000
  70
    32
  0
VERTEX
  8
0
  5
313CC
 10
-380.437
 20
845.397
 30
0.000000
  70
    32
  0
VERTEX
  8
0
  5
313CD
 10
-380.438
 20
845.394
 30
0.000000
  70
    32
  0
VERTEX
  8
0
  5
313CE
 10
-380.439
 20
845.391
 30
0.000000
  70
    32
  0
VERTEX
  8
0
  5
313CF
 10
-380.440
 20
845.387
 30
0.000000
  70
    32
  0
VERTEX
  8
0
  5
313D0
 10
-380.441
 20
845.384
 30
0.000000
  70
    32
  0
VERTEX
  8
0
  5
313D1
 10
-380.441
 20
845.381
 30
0.000000
  70
    32
  0
VERTEX
  8
0
  5
313D2
 10
-380.442
 20
845.378
 30
0.000000
  70
    32
  0
VERTEX
  8
0
  5
313D3
 10
-380.443
 20
845.374
 30
0.000000
  70
    32
  0
VERTEX
  8
0
  5
313D4
 10
-380.444
 20
845.371
 30
0.000000
  70
    32
  0
VERTEX
  8
0
  5
313D5
 10
-380.444
 20
845.368
 30
0.000000
  70
    32
  0
VERTEX
  8
0
  5
313D6
 10
-380.445
 20
845.365
 30
0.000000
  70
    32
  0
VERTEX
  8
0
  5
313D7
 10
-380.446
 20
845.361
 30
0.000000
  70
    32
  0
VERTEX
  8
0
  5
313D8
 10
-380.446
 20
845.358
 30
0.000000
  70
    32
  0
VERTEX
  8
0
  5
313D9
 10
-380.447
 20
845.355
 30
0.000000
  70
    32
  0
VERTEX
  8
0
  5
313DA
 10
-380.447
 20
845.351
 30
0.000000
  70
    32
  0
VERTEX
  8
0
  5
313DB
 10
-380.448
 20
845.348
 30
0.000000
  70
    32
  0
VERTEX
  8
0
  5
313DC
 10
-380.448
 20
845.345
 30
0.000000
  70
    32
  0
VERTEX
  8
0
  5
313DD
 10
-380.449
 20
845.341
 30
0.000000
  70
    32
  0
VERTEX
  8
0
  5
313DE
 10
-380.449
 20
845.338
 30
0.000000
  70
    32
  0
VERTEX
  8
0
  5
313DF
 10
-380.450
 20
845.335
 30
0.000000
  70
    32
  0
VERTEX
  8
0
  5
313E0
 10
-380.450
 20
845.331
 30
0.000000
  70
    32
  0
VERTEX
  8
0
  5
313E1
 10
-380.451
 20
845.328
 30
0.000000
  70
    32
  0
VERTEX
  8
0
  5
313E2
 10
-380.451
 20
845.324
 30
0.000000
  70
    32
  0
VERTEX
  8
0
  5
313E3
 10
-380.451
 20
845.321
 30
0.000000
  70
    32
  0
VERTEX
  8
0
  5
313E4
 10
-380.452
 20
845.318
 30
0.000000
  70
    32
  0
VERTEX
  8
0
  5
313E5
 10
-380.452
 20
845.314
 30
0.000000
  70
    32
  0
VERTEX
  8
0
  5
313E6
 10
-380.452
 20
845.311
 30
0.000000
  70
    32
  0
VERTEX
  8
0
  5
313E7
 10
-380.453
 20
845.308
 30
0.000000
  70
    32
  0
VERTEX
  8
0
  5
313E8
 10
-380.453
 20
845.304
 30
0.000000
  70
    32
  0
VERTEX
  8
0
  5
313E9
 10
-380.453
 20
845.301
 30
0.000000
  70
    32
  0
VERTEX
  8
0
  5
313EA
 10
-380.454
 20
845.297
 30
0.000000
  70
    32
  0
VERTEX
  8
0
  5
313EB
 10
-380.454
 20
845.294
 30
0.000000
  70
    32
  0
VERTEX
  8
0
  5
313EC
 10
-380.454
 20
845.291
 30
0.000000
  70
    32
  0
VERTEX
  8
0
  5
313ED
 10
-380.455
 20
845.287
 30
0.000000
  70
    32
  0
VERTEX
  8
0
  5
313EE
 10
-380.455
 20
845.284
 30
0.000000
  70
    32
  0
VERTEX
  8
0
  5
313EF
 10
-380.455
 20
845.281
 30
0.000000
  70
    32
  0
SEQEND
  8
0
  5
313F0
  0
POLYLINE
  8
0
  5
313F1
  66
     1
 10
0.000000
 20
0.000000
 30
0.000000
  70
     8
  0
VERTEX
  8
0
  5
313F2
 10
-377.555
 20
848.650
 30
0.000000
  70
    32
  0
VERTEX
  8
0
  5
313F3
 10
-377.562
 20
848.649
 30
0.000000
  70
    32
  0
VERTEX
  8
0
  5
313F4
 10
-377.570
 20
848.648
 30
0.000000
  70
    32
  0
VERTEX
  8
0
  5
313F5
 10
-377.577
 20
848.647
 30
0.000000
  70
    32
  0
VERTEX
  8
0
  5
313F6
 10
-377.585
 20
848.646
 30
0.000000
  70
    32
  0
VERTEX
  8
0
  5
313F7
 10
-377.592
 20
848.645
 30
0.000000
  70
    32
  0
VERTEX
  8
0
  5
313F8
 10
-377.599
 20
848.644
 30
0.000000
  70
    32
  0
VERTEX
  8
0
  5
313F9
 10
-377.607
 20
848.643
 30
0.000000
  70
    32
  0
VERTEX
  8
0
  5
313FA
 10
-377.614
 20
848.642
 30
0.000000
  70
    32
  0
VERTEX
  8
0
  5
313FB
 10
-377.622
 20
848.641
 30
0.000000
  70
    32
  0
VERTEX
  8
0
  5
313FC
 10
-377.629
 20
848.639
 30
0.000000
  70
    32
  0
VERTEX
  8
0
  5
313FD
 10
-377.636
 20
848.638
 30
0.000000
  70
    32
  0
VERTEX
  8
0
  5
313FE
 10
-377.644
 20
848.637
 30
0.000000
  70
    32
  0
VERTEX
  8
0
  5
313FF
 10
-377.651
 20
848.636
 30
0.000000
  70
    32
  0
VERTEX
  8
0
  5
31400
 10
-377.659
 20
848.635
 30
0.000000
  70
    32
  0
VERTEX
  8
0
  5
31401
 10
-377.666
 20
848.634
 30
0.000000
  70
    32
  0
VERTEX
  8
0
  5
31402
 10
-377.673
 20
848.633
 30
0.000000
  70
    32
  0
VERTEX
  8
0
  5
31403
 10
-377.681
 20
848.631
 30
0.000000
  70
    32
  0
VERTEX
  8
0
  5
31404
 10
-377.688
 20
848.630
 30
0.000000
  70
    32
  0
VERTEX
  8
0
  5
31405
 10
-377.695
 20
848.629
 30
0.000000
  70
    32
  0
VERTEX
  8
0
  5
31406
 10
-377.703
 20
848.628
 30
0.000000
  70
    32
  0
VERTEX
  8
0
  5
31407
 10
-377.710
 20
848.626
 30
0.000000
  70
    32
  0
VERTEX
  8
0
  5
31408
 10
-377.718
 20
848.625
 30
0.000000
  70
    32
  0
VERTEX
  8
0
  5
31409
 10
-377.725
 20
848.623
 30
0.000000
  70
    32
  0
VERTEX
  8
0
  5
3140A
 10
-377.732
 20
848.622
 30
0.000000
  70
    32
  0
VERTEX
  8
0
  5
3140B
 10
-377.740
 20
848.621
 30
0.000000
  70
    32
  0
VERTEX
  8
0
  5
3140C
 10
-377.747
 20
848.619
 30
0.000000
  70
    32
  0
VERTEX
  8
0
  5
3140D
 10
-377.754
 20
848.617
 30
0.000000
  70
    32
  0
VERTEX
  8
0
  5
3140E
 10
-377.761
 20
848.616
 30
0.000000
  70
    32
  0
VERTEX
  8
0
  5
3140F
 10
-377.769
 20
848.614
 30
0.000000
  70
    32
  0
VERTEX
  8
0
  5
31410
 10
-377.776
 20
848.612
 30
0.000000
  70
    32
  0
VERTEX
  8
0
  5
31411
 10
-377.783
 20
848.610
 30
0.000000
  70
    32
  0
VERTEX
  8
0
  5
31412
 10
-377.790
 20
848.609
 30
0.000000
  70
    32
  0
VERTEX
  8
0
  5
31413
 10
-377.798
 20
848.607
 30
0.000000
  70
    32
  0
VERTEX
  8
0
  5
31414
 10
-377.805
 20
848.605
 30
0.000000
  70
    32
  0
VERTEX
  8
0
  5
31415
 10
-377.812
 20
848.603
 30
0.000000
  70
    32
  0
VERTEX
  8
0
  5
31416
 10
-377.819
 20
848.600
 30
0.000000
  70
    32
  0
VERTEX
  8
0
  5
31417
 10
-377.826
 20
848.598
 30
0.000000
  70
    32
  0
VERTEX
  8
0
  5
31418
 10
-377.834
 20
848.596
 30
0.000000
  70
    32
  0
VERTEX
  8
0
  5
31419
 10
-377.841
 20
848.594
 30
0.000000
  70
    32
  0
VERTEX
  8
0
  5
3141A
 10
-377.848
 20
848.591
 30
0.000000
  70
    32
  0
VERTEX
  8
0
  5
3141B
 10
-377.855
 20
848.589
 30
0.000000
  70
    32
  0
VERTEX
  8
0
  5
3141C
 10
-377.862
 20
848.586
 30
0.000000
  70
    32
  0
VERTEX
  8
0
  5
3141D
 10
-377.869
 20
848.583
 30
0.000000
  70
    32
  0
VERTEX
  8
0
  5
3141E
 10
-377.876
 20
848.581
 30
0.000000
  70
    32
  0
VERTEX
  8
0
  5
3141F
 10
-377.883
 20
848.578
 30
0.000000
  70
    32
  0
VERTEX
  8
0
  5
31420
 10
-377.890
 20
848.575
 30
0.000000
  70
    32
  0
VERTEX
  8
0
  5
31421
 10
-377.897
 20
848.572
 30
0.000000
  70
    32
  0
VERTEX
  8
0
  5
31422
 10
-377.904
 20
848.569
 30
0.000000
  70
    32
  0
VERTEX
  8
0
  5
31423
 10
-377.911
 20
848.566
 30
0.000000
  70
    32
  0
VERTEX
  8
0
  5
31424
 10
-377.917
 20
848.563
 30
0.000000
  70
    32
  0
VERTEX
  8
0
  5
31425
 10
-377.924
 20
848.560
 30
0.000000
  70
    32
  0
VERTEX
  8
0
  5
31426
 10
-377.931
 20
848.556
 30
0.000000
  70
    32
  0
VERTEX
  8
0
  5
31427
 10
-377.938
 20
848.553
 30
0.000000
  70
    32
  0
VERTEX
  8
0
  5
31428
 10
-377.944
 20
848.550
 30
0.000000
  70
    32
  0
VERTEX
  8
0
  5
31429
 10
-377.951
 20
848.546
 30
0.000000
  70
    32
  0
VERTEX
  8
0
  5
3142A
 10
-377.958
 20
848.543
 30
0.000000
  70
    32
  0
VERTEX
  8
0
  5
3142B
 10
-377.964
 20
848.539
 30
0.000000
  70
    32
  0
VERTEX
  8
0
  5
3142C
 10
-377.971
 20
848.535
 30
0.000000
  70
    32
  0
VERTEX
  8
0
  5
3142D
 10
-377.977
 20
848.531
 30
0.000000
  70
    32
  0
VERTEX
  8
0
  5
3142E
 10
-377.984
 20
848.528
 30
0.000000
  70
    32
  0
VERTEX
  8
0
  5
3142F
 10
-377.990
 20
848.524
 30
0.000000
  70
    32
  0
VERTEX
  8
0
  5
31430
 10
-377.996
 20
848.520
 30
0.000000
  70
    32
  0
VERTEX
  8
0
  5
31431
 10
-378.003
 20
848.515
 30
0.000000
  70
    32
  0
VERTEX
  8
0
  5
31432
 10
-378.009
 20
848.511
 30
0.000000
  70
    32
  0
VERTEX
  8
0
  5
31433
 10
-378.015
 20
848.507
 30
0.000000
  70
    32
  0
VERTEX
  8
0
  5
31434
 10
-378.021
 20
848.503
 30
0.000000
  70
    32
  0
VERTEX
  8
0
  5
31435
 10
-378.027
 20
848.498
 30
0.000000
  70
    32
  0
VERTEX
  8
0
  5
31436
 10
-378.033
 20
848.494
 30
0.000000
  70
    32
  0
VERTEX
  8
0
  5
31437
 10
-378.039
 20
848.489
 30
0.000000
  70
    32
  0
VERTEX
  8
0
  5
31438
 10
-378.045
 20
848.485
 30
0.000000
  70
    32
  0
VERTEX
  8
0
  5
31439
 10
-378.051
 20
848.480
 30
0.000000
  70
    32
  0
VERTEX
  8
0
  5
3143A
 10
-378.057
 20
848.475
 30
0.000000
  70
    32
  0
VERTEX
  8
0
  5
3143B
 10
-378.063
 20
848.471
 30
0.000000
  70
    32
  0
VERTEX
  8
0
  5
3143C
 10
-378.068
 20
848.466
 30
0.000000
  70
    32
  0
VERTEX
  8
0
  5
3143D
 10
-378.074
 20
848.461
 30
0.000000
  70
    32
  0
VERTEX
  8
0
  5
3143E
 10
-378.079
 20
848.456
 30
0.000000
  70
    32
  0
VERTEX
  8
0
  5
3143F
 10
-378.085
 20
848.451
 30
0.000000
  70
    32
  0
VERTEX
  8
0
  5
31440
 10
-378.090
 20
848.446
 30
0.000000
  70
    32
  0
VERTEX
  8
0
  5
31441
 10
-378.096
 20
848.441
 30
0.000000
  70
    32
  0
VERTEX
  8
0
  5
31442
 10
-378.101
 20
848.435
 30
0.000000
  70
    32
  0
VERTEX
  8
0
  5
31443
 10
-378.106
 20
848.430
 30
0.000000
  70
    32
  0
VERTEX
  8
0
  5
31444
 10
-378.112
 20
848.425
 30
0.000000
  70
    32
  0
VERTEX
  8
0
  5
31445
 10
-378.117
 20
848.419
 30
0.000000
  70
    32
  0
VERTEX
  8
0
  5
31446
 10
-378.122
 20
848.414
 30
0.000000
  70
    32
  0
VERTEX
  8
0
  5
31447
 10
-378.127
 20
848.409
 30
0.000000
  70
    32
  0
VERTEX
  8
0
  5
31448
 10
-378.133
 20
848.403
 30
0.000000
  70
    32
  0
VERTEX
  8
0
  5
31449
 10
-378.138
 20
848.398
 30
0.000000
  70
    32
  0
VERTEX
  8
0
  5
3144A
 10
-378.143
 20
848.392
 30
0.000000
  70
    32
  0
VERTEX
  8
0
  5
3144B
 10
-378.148
 20
848.387
 30
0.000000
  70
    32
  0
VERTEX
  8
0
  5
3144C
 10
-378.153
 20
848.381
 30
0.000000
  70
    32
  0
VERTEX
  8
0
  5
3144D
 10
-378.158
 20
848.376
 30
0.000000
  70
    32
  0
VERTEX
  8
0
  5
3144E
 10
-378.163
 20
848.370
 30
0.000000
  70
    32
  0
VERTEX
  8
0
  5
3144F
 10
-378.168
 20
848.364
 30
0.000000
  70
    32
  0
VERTEX
  8
0
  5
31450
 10
-378.172
 20
848.359
 30
0.000000
  70
    32
  0
VERTEX
  8
0
  5
31451
 10
-378.177
 20
848.353
 30
0.000000
  70
    32
  0
VERTEX
  8
0
  5
31452
 10
-378.182
 20
848.347
 30
0.000000
  70
    32
  0
VERTEX
  8
0
  5
31453
 10
-378.187
 20
848.342
 30
0.000000
  70
    32
  0
VERTEX
  8
0
  5
31454
 10
-378.192
 20
848.336
 30
0.000000
  70
    32
  0
VERTEX
  8
0
  5
31455
 10
-378.197
 20
848.330
 30
0.000000
  70
    32
  0
VERTEX
  8
0
  5
31456
 10
-378.201
 20
848.324
 30
0.000000
  70
    32
  0
VERTEX
  8
0
  5
31457
 10
-378.206
 20
848.319
 30
0.000000
  70
    32
  0
VERTEX
  8
0
  5
31458
 10
-378.211
 20
848.313
 30
0.000000
  70
    32
  0
VERTEX
  8
0
  5
31459
 10
-378.216
 20
848.307
 30
0.000000
  70
    32
  0
VERTEX
  8
0
  5
3145A
 10
-378.220
 20
848.301
 30
0.000000
  70
    32
  0
VERTEX
  8
0
  5
3145B
 10
-378.225
 20
848.295
 30
0.000000
  70
    32
  0
VERTEX
  8
0
  5
3145C
 10
-378.230
 20
848.289
 30
0.000000
  70
    32
  0
VERTEX
  8
0
  5
3145D
 10
-378.234
 20
848.284
 30
0.000000
  70
    32
  0
VERTEX
  8
0
  5
3145E
 10
-378.239
 20
848.278
 30
0.000000
  70
    32
  0
VERTEX
  8
0
  5
3145F
 10
-378.243
 20
848.272
 30
0.000000
  70
    32
  0
VERTEX
  8
0
  5
31460
 10
-378.248
 20
848.266
 30
0.000000
  70
    32
  0
VERTEX
  8
0
  5
31461
 10
-378.252
 20
848.260
 30
0.000000
  70
    32
  0
VERTEX
  8
0
  5
31462
 10
-378.257
 20
848.254
 30
0.000000
  70
    32
  0
VERTEX
  8
0
  5
31463
 10
-378.261
 20
848.248
 30
0.000000
  70
    32
  0
VERTEX
  8
0
  5
31464
 10
-378.266
 20
848.242
 30
0.000000
  70
    32
  0
VERTEX
  8
0
  5
31465
 10
-378.270
 20
848.236
 30
0.000000
  70
    32
  0
VERTEX
  8
0
  5
31466
 10
-378.274
 20
848.230
 30
0.000000
  70
    32
  0
VERTEX
  8
0
  5
31467
 10
-378.279
 20
848.224
 30
0.000000
  70
    32
  0
VERTEX
  8
0
  5
31468
 10
-378.283
 20
848.218
 30
0.000000
  70
    32
  0
VERTEX
  8
0
  5
31469
 10
-378.287
 20
848.212
 30
0.000000
  70
    32
  0
VERTEX
  8
0
  5
3146A
 10
-378.292
 20
848.205
 30
0.000000
  70
    32
  0
VERTEX
  8
0
  5
3146B
 10
-378.296
 20
848.199
 30
0.000000
  70
    32
  0
VERTEX
  8
0
  5
3146C
 10
-378.300
 20
848.193
 30
0.000000
  70
    32
  0
VERTEX
  8
0
  5
3146D
 10
-378.305
 20
848.187
 30
0.000000
  70
    32
  0
VERTEX
  8
0
  5
3146E
 10
-378.309
 20
848.181
 30
0.000000
  70
    32
  0
VERTEX
  8
0
  5
3146F
 10
-378.313
 20
848.175
 30
0.000000
  70
    32
  0
VERTEX
  8
0
  5
31470
 10
-378.317
 20
848.168
 30
0.000000
  70
    32
  0
VERTEX
  8
0
  5
31471
 10
-378.321
 20
848.162
 30
0.000000
  70
    32
  0
VERTEX
  8
0
  5
31472
 10
-378.325
 20
848.156
 30
0.000000
  70
    32
  0
VERTEX
  8
0
  5
31473
 10
-378.329
 20
848.150
 30
0.000000
  70
    32
  0
VERTEX
  8
0
  5
31474
 10
-378.333
 20
848.143
 30
0.000000
  70
    32
  0
VERTEX
  8
0
  5
31475
 10
-378.338
 20
848.137
 30
0.000000
  70
    32
  0
VERTEX
  8
0
  5
31476
 10
-378.342
 20
848.131
 30
0.000000
  70
    32
  0
VERTEX
  8
0
  5
31477
 10
-378.346
 20
848.124
 30
0.000000
  70
    32
  0
VERTEX
  8
0
  5
31478
 10
-378.349
 20
848.118
 30
0.000000
  70
    32
  0
VERTEX
  8
0
  5
31479
 10
-378.353
 20
848.112
 30
0.000000
  70
    32
  0
VERTEX
  8
0
  5
3147A
 10
-378.357
 20
848.105
 30
0.000000
  70
    32
  0
VERTEX
  8
0
  5
3147B
 10
-378.361
 20
848.099
 30
0.000000
  70
    32
  0
VERTEX
  8
0
  5
3147C
 10
-378.365
 20
848.093
 30
0.000000
  70
    32
  0
VERTEX
  8
0
  5
3147D
 10
-378.369
 20
848.086
 30
0.000000
  70
    32
  0
VERTEX
  8
0
  5
3147E
 10
-378.373
 20
848.080
 30
0.000000
  70
    32
  0
VERTEX
  8
0
  5
3147F
 10
-378.376
 20
848.073
 30
0.000000
  70
    32
  0
VERTEX
  8
0
  5
31480
 10
-378.380
 20
848.067
 30
0.000000
  70
    32
  0
VERTEX
  8
0
  5
31481
 10
-378.384
 20
848.060
 30
0.000000
  70
    32
  0
VERTEX
  8
0
  5
31482
 10
-378.387
 20
848.054
 30
0.000000
  70
    32
  0
VERTEX
  8
0
  5
31483
 10
-378.391
 20
848.047
 30
0.000000
  70
    32
  0
VERTEX
  8
0
  5
31484
 10
-378.395
 20
848.041
 30
0.000000
  70
    32
  0
VERTEX
  8
0
  5
31485
 10
-378.398
 20
848.034
 30
0.000000
  70
    32
  0
VERTEX
  8
0
  5
31486
 10
-378.402
 20
848.027
 30
0.000000
  70
    32
  0
VERTEX
  8
0
  5
31487
 10
-378.405
 20
848.021
 30
0.000000
  70
    32
  0
VERTEX
  8
0
  5
31488
 10
-378.409
 20
848.014
 30
0.000000
  70
    32
  0
VERTEX
  8
0
  5
31489
 10
-378.412
 20
848.008
 30
0.000000
  70
    32
  0
VERTEX
  8
0
  5
3148A
 10
-378.416
 20
848.001
 30
0.000000
  70
    32
  0
VERTEX
  8
0
  5
3148B
 10
-378.419
 20
847.994
 30
0.000000
  70
    32
  0
VERTEX
  8
0
  5
3148C
 10
-378.422
 20
847.988
 30
0.000000
  70
    32
  0
VERTEX
  8
0
  5
3148D
 10
-378.426
 20
847.981
 30
0.000000
  70
    32
  0
VERTEX
  8
0
  5
3148E
 10
-378.429
 20
847.974
 30
0.000000
  70
    32
  0
VERTEX
  8
0
  5
3148F
 10
-378.432
 20
847.967
 30
0.000000
  70
    32
  0
VERTEX
  8
0
  5
31490
 10
-378.435
 20
847.961
 30
0.000000
  70
    32
  0
VERTEX
  8
0
  5
31491
 10
-378.438
 20
847.954
 30
0.000000
  70
    32
  0
VERTEX
  8
0
  5
31492
 10
-378.441
 20
847.947
 30
0.000000
  70
    32
  0
VERTEX
  8
0
  5
31493
 10
-378.444
 20
847.940
 30
0.000000
  70
    32
  0
VERTEX
  8
0
  5
31494
 10
-378.447
 20
847.934
 30
0.000000
  70
    32
  0
VERTEX
  8
0
  5
31495
 10
-378.450
 20
847.927
 30
0.000000
  70
    32
  0
VERTEX
  8
0
  5
31496
 10
-378.453
 20
847.920
 30
0.000000
  70
    32
  0
VERTEX
  8
0
  5
31497
 10
-378.456
 20
847.913
 30
0.000000
  70
    32
  0
VERTEX
  8
0
  5
31498
 10
-378.459
 20
847.906
 30
0.000000
  70
    32
  0
VERTEX
  8
0
  5
31499
 10
-378.462
 20
847.899
 30
0.000000
  70
    32
  0
VERTEX
  8
0
  5
3149A
 10
-378.465
 20
847.892
 30
0.000000
  70
    32
  0
VERTEX
  8
0
  5
3149B
 10
-378.468
 20
847.886
 30
0.000000
  70
    32
  0
VERTEX
  8
0
  5
3149C
 10
-378.471
 20
847.879
 30
0.000000
  70
    32
  0
VERTEX
  8
0
  5
3149D
 10
-378.473
 20
847.872
 30
0.000000
  70
    32
  0
VERTEX
  8
0
  5
3149E
 10
-378.476
 20
847.865
 30
0.000000
  70
    32
  0
VERTEX
  8
0
  5
3149F
 10
-378.479
 20
847.858
 30
0.000000
  70
    32
  0
VERTEX
  8
0
  5
314A0
 10
-378.481
 20
847.851
 30
0.000000
  70
    32
  0
VERTEX
  8
0
  5
314A1
 10
-378.484
 20
847.844
 30
0.000000
  70
    32
  0
VERTEX
  8
0
  5
314A2
 10
-378.487
 20
847.837
 30
0.000000
  70
    32
  0
VERTEX
  8
0
  5
314A3
 10
-378.489
 20
847.830
 30
0.000000
  70
    32
  0
VERTEX
  8
0
  5
314A4
 10
-378.492
 20
847.823
 30
0.000000
  70
    32
  0
VERTEX
  8
0
  5
314A5
 10
-378.494
 20
847.816
 30
0.000000
  70
    32
  0
VERTEX
  8
0
  5
314A6
 10
-378.497
 20
847.809
 30
0.000000
  70
    32
  0
VERTEX
  8
0
  5
314A7
 10
-378.499
 20
847.802
 30
0.000000
  70
    32
  0
VERTEX
  8
0
  5
314A8
 10
-378.502
 20
847.795
 30
0.000000
  70
    32
  0
VERTEX
  8
0
  5
314A9
 10
-378.504
 20
847.788
 30
0.000000
  70
    32
  0
VERTEX
  8
0
  5
314AA
 10
-378.507
 20
847.781
 30
0.000000
  70
    32
  0
VERTEX
  8
0
  5
314AB
 10
-378.509
 20
847.774
 30
0.000000
  70
    32
  0
VERTEX
  8
0
  5
314AC
 10
-378.512
 20
847.766
 30
0.000000
  70
    32
  0
VERTEX
  8
0
  5
314AD
 10
-378.514
 20
847.759
 30
0.000000
  70
    32
  0
VERTEX
  8
0
  5
314AE
 10
-378.516
 20
847.752
 30
0.000000
  70
    32
  0
VERTEX
  8
0
  5
314AF
 10
-378.519
 20
847.745
 30
0.000000
  70
    32
  0
VERTEX
  8
0
  5
314B0
 10
-378.521
 20
847.738
 30
0.000000
  70
    32
  0
VERTEX
  8
0
  5
314B1
 10
-378.523
 20
847.731
 30
0.000000
  70
    32
  0
VERTEX
  8
0
  5
314B2
 10
-378.526
 20
847.724
 30
0.000000
  70
    32
  0
VERTEX
  8
0
  5
314B3
 10
-378.528
 20
847.717
 30
0.000000
  70
    32
  0
VERTEX
  8
0
  5
314B4
 10
-378.530
 20
847.710
 30
0.000000
  70
    32
  0
VERTEX
  8
0
  5
314B5
 10
-378.533
 20
847.702
 30
0.000000
  70
    32
  0
VERTEX
  8
0
  5
314B6
 10
-378.535
 20
847.695
 30
0.000000
  70
    32
  0
VERTEX
  8
0
  5
314B7
 10
-378.537
 20
847.688
 30
0.000000
  70
    32
  0
VERTEX
  8
0
  5
314B8
 10
-378.539
 20
847.681
 30
0.000000
  70
    32
  0
VERTEX
  8
0
  5
314B9
 10
-378.542
 20
847.674
 30
0.000000
  70
    32
  0
VERTEX
  8
0
  5
314BA
 10
-378.544
 20
847.667
 30
0.000000
  70
    32
  0
VERTEX
  8
0
  5
314BB
 10
-378.546
 20
847.660
 30
0.000000
  70
    32
  0
VERTEX
  8
0
  5
314BC
 10
-378.548
 20
847.653
 30
0.000000
  70
    32
  0
VERTEX
  8
0
  5
314BD
 10
-378.551
 20
847.645
 30
0.000000
  70
    32
  0
VERTEX
  8
0
  5
314BE
 10
-378.553
 20
847.638
 30
0.000000
  70
    32
  0
VERTEX
  8
0
  5
314BF
 10
-378.555
 20
847.631
 30
0.000000
  70
    32
  0
VERTEX
  8
0
  5
314C0
 10
-378.557
 20
847.624
 30
0.000000
  70
    32
  0
VERTEX
  8
0
  5
314C1
 10
-378.560
 20
847.617
 30
0.000000
  70
    32
  0
VERTEX
  8
0
  5
314C2
 10
-378.562
 20
847.610
 30
0.000000
  70
    32
  0
VERTEX
  8
0
  5
314C3
 10
-378.564
 20
847.602
 30
0.000000
  70
    32
  0
VERTEX
  8
0
  5
314C4
 10
-378.566
 20
847.595
 30
0.000000
  70
    32
  0
VERTEX
  8
0
  5
314C5
 10
-378.568
 20
847.588
 30
0.000000
  70
    32
  0
VERTEX
  8
0
  5
314C6
 10
-378.571
 20
847.581
 30
0.000000
  70
    32
  0
VERTEX
  8
0
  5
314C7
 10
-378.573
 20
847.574
 30
0.000000
  70
    32
  0
VERTEX
  8
0
  5
314C8
 10
-378.575
 20
847.567
 30
0.000000
  70
    32
  0
VERTEX
  8
0
  5
314C9
 10
-378.577
 20
847.559
 30
0.000000
  70
    32
  0
VERTEX
  8
0
  5
314CA
 10
-378.580
 20
847.552
 30
0.000000
  70
    32
  0
VERTEX
  8
0
  5
314CB
 10
-378.582
 20
847.545
 30
0.000000
  70
    32
  0
VERTEX
  8
0
  5
314CC
 10
-378.584
 20
847.538
 30
0.000000
  70
    32
  0
VERTEX
  8
0
  5
314CD
 10
-378.586
 20
847.531
 30
0.000000
  70
    32
  0
VERTEX
  8
0
  5
314CE
 10
-378.589
 20
847.524
 30
0.000000
  70
    32
  0
VERTEX
  8
0
  5
314CF
 10
-378.591
 20
847.517
 30
0.000000
  70
    32
  0
VERTEX
  8
0
  5
314D0
 10
-378.593
 20
847.510
 30
0.000000
  70
    32
  0
VERTEX
  8
0
  5
314D1
 10
-378.595
 20
847.502
 30
0.000000
  70
    32
  0
VERTEX
  8
0
  5
314D2
 10
-378.598
 20
847.495
 30
0.000000
  70
    32
  0
VERTEX
  8
0
  5
314D3
 10
-378.600
 20
847.488
 30
0.000000
  70
    32
  0
VERTEX
  8
0
  5
314D4
 10
-378.602
 20
847.481
 30
0.000000
  70
    32
  0
VERTEX
  8
0
  5
314D5
 10
-378.605
 20
847.474
 30
0.000000
  70
    32
  0
VERTEX
  8
0
  5
314D6
 10
-378.607
 20
847.467
 30
0.000000
  70
    32
  0
VERTEX
  8
0
  5
314D7
 10
-378.609
 20
847.460
 30
0.000000
  70
    32
  0
VERTEX
  8
0
  5
314D8
 10
-378.612
 20
847.453
 30
0.000000
  70
    32
  0
VERTEX
  8
0
  5
314D9
 10
-378.614
 20
847.445
 30
0.000000
  70
    32
  0
VERTEX
  8
0
  5
314DA
 10
-378.616
 20
847.438
 30
0.000000
  70
    32
  0
VERTEX
  8
0
  5
314DB
 10
-378.619
 20
847.431
 30
0.000000
  70
    32
  0
VERTEX
  8
0
  5
314DC
 10
-378.621
 20
847.424
 30
0.000000
  70
    32
  0
VERTEX
  8
0
  5
314DD
 10
-378.624
 20
847.417
 30
0.000000
  70
    32
  0
VERTEX
  8
0
  5
314DE
 10
-378.626
 20
847.410
 30
0.000000
  70
    32
  0
VERTEX
  8
0
  5
314DF
 10
-378.628
 20
847.403
 30
0.000000
  70
    32
  0
VERTEX
  8
0
  5
314E0
 10
-378.631
 20
847.396
 30
0.000000
  70
    32
  0
VERTEX
  8
0
  5
314E1
 10
-378.633
 20
847.389
 30
0.000000
  70
    32
  0
VERTEX
  8
0
  5
314E2
 10
-378.636
 20
847.382
 30
0.000000
  70
    32
  0
VERTEX
  8
0
  5
314E3
 10
-378.638
 20
847.375
 30
0.000000
  70
    32
  0
VERTEX
  8
0
  5
314E4
 10
-378.641
 20
847.368
 30
0.000000
  70
    32
  0
VERTEX
  8
0
  5
314E5
 10
-378.643
 20
847.361
 30
0.000000
  70
    32
  0
VERTEX
  8
0
  5
314E6
 10
-378.646
 20
847.354
 30
0.000000
  70
    32
  0
VERTEX
  8
0
  5
314E7
 10
-378.648
 20
847.347
 30
0.000000
  70
    32
  0
VERTEX
  8
0
  5
314E8
 10
-378.651
 20
847.340
 30
0.000000
  70
    32
  0
VERTEX
  8
0
  5
314E9
 10
-378.654
 20
847.333
 30
0.000000
  70
    32
  0
VERTEX
  8
0
  5
314EA
 10
-378.656
 20
847.326
 30
0.000000
  70
    32
  0
VERTEX
  8
0
  5
314EB
 10
-378.659
 20
847.319
 30
0.000000
  70
    32
  0
VERTEX
  8
0
  5
314EC
 10
-378.661
 20
847.312
 30
0.000000
  70
    32
  0
VERTEX
  8
0
  5
314ED
 10
-378.664
 20
847.305
 30
0.000000
  70
    32
  0
VERTEX
  8
0
  5
314EE
 10
-378.667
 20
847.298
 30
0.000000
  70
    32
  0
VERTEX
  8
0
  5
314EF
 10
-378.669
 20
847.291
 30
0.000000
  70
    32
  0
VERTEX
  8
0
  5
314F0
 10
-378.672
 20
847.284
 30
0.000000
  70
    32
  0
VERTEX
  8
0
  5
314F1
 10
-378.675
 20
847.277
 30
0.000000
  70
    32
  0
VERTEX
  8
0
  5
314F2
 10
-378.678
 20
847.270
 30
0.000000
  70
    32
  0
VERTEX
  8
0
  5
314F3
 10
-378.680
 20
847.263
 30
0.000000
  70
    32
  0
VERTEX
  8
0
  5
314F4
 10
-378.683
 20
847.256
 30
0.000000
  70
    32
  0
VERTEX
  8
0
  5
314F5
 10
-378.686
 20
847.249
 30
0.000000
  70
    32
  0
VERTEX
  8
0
  5
314F6
 10
-378.689
 20
847.242
 30
0.000000
  70
    32
  0
VERTEX
  8
0
  5
314F7
 10
-378.692
 20
847.235
 30
0.000000
  70
    32
  0
VERTEX
  8
0
  5
314F8
 10
-378.694
 20
847.228
 30
0.000000
  70
    32
  0
VERTEX
  8
0
  5
314F9
 10
-378.697
 20
847.222
 30
0.000000
  70
    32
  0
VERTEX
  8
0
  5
314FA
 10
-378.700
 20
847.215
 30
0.000000
  70
    32
  0
VERTEX
  8
0
  5
314FB
 10
-378.703
 20
847.208
 30
0.000000
  70
    32
  0
VERTEX
  8
0
  5
314FC
 10
-378.706
 20
847.201
 30
0.000000
  70
    32
  0
VERTEX
  8
0
  5
314FD
 10
-378.709
 20
847.194
 30
0.000000
  70
    32
  0
VERTEX
  8
0
  5
314FE
 10
-378.712
 20
847.187
 30
0.000000
  70
    32
  0
VERTEX
  8
0
  5
314FF
 10
-378.715
 20
847.180
 30
0.000000
  70
    32
  0
VERTEX
  8
0
  5
31500
 10
-378.718
 20
847.174
 30
0.000000
  70
    32
  0
VERTEX
  8
0
  5
31501
 10
-378.721
 20
847.167
 30
0.000000
  70
    32
  0
VERTEX
  8
0
  5
31502
 10
-378.724
 20
847.160
 30
0.000000
  70
    32
  0
VERTEX
  8
0
  5
31503
 10
-378.727
 20
847.153
 30
0.000000
  70
    32
  0
VERTEX
  8
0
  5
31504
 10
-378.731
 20
847.146
 30
0.000000
  70
    32
  0
VERTEX
  8
0
  5
31505
 10
-378.734
 20
847.140
 30
0.000000
  70
    32
  0
VERTEX
  8
0
  5
31506
 10
-378.737
 20
847.133
 30
0.000000
  70
    32
  0
VERTEX
  8
0
  5
31507
 10
-378.740
 20
847.126
 30
0.000000
  70
    32
  0
VERTEX
  8
0
  5
31508
 10
-378.743
 20
847.119
 30
0.000000
  70
    32
  0
VERTEX
  8
0
  5
31509
 10
-378.747
 20
847.113
 30
0.000000
  70
    32
  0
VERTEX
  8
0
  5
3150A
 10
-378.750
 20
847.106
 30
0.000000
  70
    32
  0
VERTEX
  8
0
  5
3150B
 10
-378.753
 20
847.099
 30
0.000000
  70
    32
  0
VERTEX
  8
0
  5
3150C
 10
-378.757
 20
847.092
 30
0.000000
  70
    32
  0
VERTEX
  8
0
  5
3150D
 10
-378.760
 20
847.086
 30
0.000000
  70
    32
  0
VERTEX
  8
0
  5
3150E
 10
-378.763
 20
847.079
 30
0.000000
  70
    32
  0
VERTEX
  8
0
  5
3150F
 10
-378.767
 20
847.072
 30
0.000000
  70
    32
  0
VERTEX
  8
0
  5
31510
 10
-378.770
 20
847.066
 30
0.000000
  70
    32
  0
VERTEX
  8
0
  5
31511
 10
-378.774
 20
847.059
 30
0.000000
  70
    32
  0
VERTEX
  8
0
  5
31512
 10
-378.777
 20
847.053
 30
0.000000
  70
    32
  0
VERTEX
  8
0
  5
31513
 10
-378.781
 20
847.046
 30
0.000000
  70
    32
  0
VERTEX
  8
0
  5
31514
 10
-378.785
 20
847.039
 30
0.000000
  70
    32
  0
VERTEX
  8
0
  5
31515
 10
-378.788
 20
847.033
 30
0.000000
  70
    32
  0
VERTEX
  8
0
  5
31516
 10
-378.792
 20
847.026
 30
0.000000
  70
    32
  0
VERTEX
  8
0
  5
31517
 10
-378.796
 20
847.020
 30
0.000000
  70
    32
  0
VERTEX
  8
0
  5
31518
 10
-378.799
 20
847.013
 30
0.000000
  70
    32
  0
VERTEX
  8
0
  5
31519
 10
-378.803
 20
847.007
 30
0.000000
  70
    32
  0
VERTEX
  8
0
  5
3151A
 10
-378.807
 20
847.000
 30
0.000000
  70
    32
  0
VERTEX
  8
0
  5
3151B
 10
-378.811
 20
846.994
 30
0.000000
  70
    32
  0
VERTEX
  8
0
  5
3151C
 10
-378.814
 20
846.987
 30
0.000000
  70
    32
  0
VERTEX
  8
0
  5
3151D
 10
-378.818
 20
846.981
 30
0.000000
  70
    32
  0
VERTEX
  8
0
  5
3151E
 10
-378.822
 20
846.975
 30
0.000000
  70
    32
  0
VERTEX
  8
0
  5
3151F
 10
-378.826
 20
846.968
 30
0.000000
  70
    32
  0
VERTEX
  8
0
  5
31520
 10
-378.830
 20
846.962
 30
0.000000
  70
    32
  0
VERTEX
  8
0
  5
31521
 10
-378.834
 20
846.956
 30
0.000000
  70
    32
  0
VERTEX
  8
0
  5
31522
 10
-378.838
 20
846.949
 30
0.000000
  70
    32
  0
VERTEX
  8
0
  5
31523
 10
-378.842
 20
846.943
 30
0.000000
  70
    32
  0
VERTEX
  8
0
  5
31524
 10
-378.847
 20
846.937
 30
0.000000
  70
    32
  0
VERTEX
  8
0
  5
31525
 10
-378.851
 20
846.931
 30
0.000000
  70
    32
  0
VERTEX
  8
0
  5
31526
 10
-378.855
 20
846.925
 30
0.000000
  70
    32
  0
VERTEX
  8
0
  5
31527
 10
-378.859
 20
846.918
 30
0.000000
  70
    32
  0
VERTEX
  8
0
  5
31528
 10
-378.864
 20
846.912
 30
0.000000
  70
    32
  0
VERTEX
  8
0
  5
31529
 10
-378.868
 20
846.906
 30
0.000000
  70
    32
  0
VERTEX
  8
0
  5
3152A
 10
-378.872
 20
846.900
 30
0.000000
  70
    32
  0
VERTEX
  8
0
  5
3152B
 10
-378.877
 20
846.894
 30
0.000000
  70
    32
  0
VERTEX
  8
0
  5
3152C
 10
-378.881
 20
846.888
 30
0.000000
  70
    32
  0
VERTEX
  8
0
  5
3152D
 10
-378.886
 20
846.882
 30
0.000000
  70
    32
  0
VERTEX
  8
0
  5
3152E
 10
-378.890
 20
846.876
 30
0.000000
  70
    32
  0
VERTEX
  8
0
  5
3152F
 10
-378.895
 20
846.870
 30
0.000000
  70
    32
  0
VERTEX
  8
0
  5
31530
 10
-378.899
 20
846.865
 30
0.000000
  70
    32
  0
VERTEX
  8
0
  5
31531
 10
-378.904
 20
846.859
 30
0.000000
  70
    32
  0
VERTEX
  8
0
  5
31532
 10
-378.909
 20
846.853
 30
0.000000
  70
    32
  0
VERTEX
  8
0
  5
31533
 10
-378.913
 20
846.847
 30
0.000000
  70
    32
  0
VERTEX
  8
0
  5
31534
 10
-378.918
 20
846.841
 30
0.000000
  70
    32
  0
VERTEX
  8
0
  5
31535
 10
-378.923
 20
846.836
 30
0.000000
  70
    32
  0
VERTEX
  8
0
  5
31536
 10
-378.928
 20
846.830
 30
0.000000
  70
    32
  0
VERTEX
  8
0
  5
31537
 10
-378.933
 20
846.824
 30
0.000000
  70
    32
  0
VERTEX
  8
0
  5
31538
 10
-378.938
 20
846.819
 30
0.000000
  70
    32
  0
VERTEX
  8
0
  5
31539
 10
-378.943
 20
846.813
 30
0.000000
  70
    32
  0
VERTEX
  8
0
  5
3153A
 10
-378.948
 20
846.808
 30
0.000000
  70
    32
  0
VERTEX
  8
0
  5
3153B
 10
-378.953
 20
846.802
 30
0.000000
  70
    32
  0
VERTEX
  8
0
  5
3153C
 10
-378.958
 20
846.797
 30
0.000000
  70
    32
  0
VERTEX
  8
0
  5
3153D
 10
-378.963
 20
846.791
 30
0.000000
  70
    32
  0
VERTEX
  8
0
  5
3153E
 10
-378.968
 20
846.786
 30
0.000000
  70
    32
  0
VERTEX
  8
0
  5
3153F
 10
-378.973
 20
846.780
 30
0.000000
  70
    32
  0
VERTEX
  8
0
  5
31540
 10
-378.979
 20
846.775
 30
0.000000
  70
    32
  0
VERTEX
  8
0
  5
31541
 10
-378.984
 20
846.770
 30
0.000000
  70
    32
  0
VERTEX
  8
0
  5
31542
 10
-378.989
 20
846.764
 30
0.000000
  70
    32
  0
VERTEX
  8
0
  5
31543
 10
-378.994
 20
846.759
 30
0.000000
  70
    32
  0
VERTEX
  8
0
  5
31544
 10
-379.000
 20
846.754
 30
0.000000
  70
    32
  0
VERTEX
  8
0
  5
31545
 10
-379.005
 20
846.749
 30
0.000000
  70
    32
  0
VERTEX
  8
0
  5
31546
 10
-379.011
 20
846.743
 30
0.000000
  70
    32
  0
VERTEX
  8
0
  5
31547
 10
-379.016
 20
846.738
 30
0.000000
  70
    32
  0
VERTEX
  8
0
  5
31548
 10
-379.021
 20
846.733
 30
0.000000
  70
    32
  0
VERTEX
  8
0
  5
31549
 10
-379.027
 20
846.728
 30
0.000000
  70
    32
  0
VERTEX
  8
0
  5
3154A
 10
-379.032
 20
846.723
 30
0.000000
  70
    32
  0
VERTEX
  8
0
  5
3154B
 10
-379.038
 20
846.718
 30
0.000000
  70
    32
  0
VERTEX
  8
0
  5
3154C
 10
-379.044
 20
846.713
 30
0.000000
  70
    32
  0
VERTEX
  8
0
  5
3154D
 10
-379.049
 20
846.708
 30
0.000000
  70
    32
  0
VERTEX
  8
0
  5
3154E
 10
-379.055
 20
846.703
 30
0.000000
  70
    32
  0
VERTEX
  8
0
  5
3154F
 10
-379.061
 20
846.698
 30
0.000000
  70
    32
  0
VERTEX
  8
0
  5
31550
 10
-379.066
 20
846.693
 30
0.000000
  70
    32
  0
VERTEX
  8
0
  5
31551
 10
-379.072
 20
846.688
 30
0.000000
  70
    32
  0
VERTEX
  8
0
  5
31552
 10
-379.078
 20
846.684
 30
0.000000
  70
    32
  0
VERTEX
  8
0
  5
31553
 10
-379.084
 20
846.679
 30
0.000000
  70
    32
  0
VERTEX
  8
0
  5
31554
 10
-379.089
 20
846.674
 30
0.000000
  70
    32
  0
VERTEX
  8
0
  5
31555
 10
-379.095
 20
846.669
 30
0.000000
  70
    32
  0
VERTEX
  8
0
  5
31556
 10
-379.101
 20
846.665
 30
0.000000
  70
    32
  0
VERTEX
  8
0
  5
31557
 10
-379.107
 20
846.660
 30
0.000000
  70
    32
  0
VERTEX
  8
0
  5
31558
 10
-379.113
 20
846.655
 30
0.000000
  70
    32
  0
VERTEX
  8
0
  5
31559
 10
-379.119
 20
846.651
 30
0.000000
  70
    32
  0
VERTEX
  8
0
  5
3155A
 10
-379.125
 20
846.646
 30
0.000000
  70
    32
  0
VERTEX
  8
0
  5
3155B
 10
-379.131
 20
846.641
 30
0.000000
  70
    32
  0
VERTEX
  8
0
  5
3155C
 10
-379.137
 20
846.637
 30
0.000000
  70
    32
  0
VERTEX
  8
0
  5
3155D
 10
-379.143
 20
846.632
 30
0.000000
  70
    32
  0
VERTEX
  8
0
  5
3155E
 10
-379.149
 20
846.628
 30
0.000000
  70
    32
  0
VERTEX
  8
0
  5
3155F
 10
-379.155
 20
846.624
 30
0.000000
  70
    32
  0
VERTEX
  8
0
  5
31560
 10
-379.161
 20
846.619
 30
0.000000
  70
    32
  0
VERTEX
  8
0
  5
31561
 10
-379.167
 20
846.615
 30
0.000000
  70
    32
  0
VERTEX
  8
0
  5
31562
 10
-379.173
 20
846.610
 30
0.000000
  70
    32
  0
VERTEX
  8
0
  5
31563
 10
-379.179
 20
846.606
 30
0.000000
  70
    32
  0
VERTEX
  8
0
  5
31564
 10
-379.185
 20
846.602
 30
0.000000
  70
    32
  0
VERTEX
  8
0
  5
31565
 10
-379.192
 20
846.597
 30
0.000000
  70
    32
  0
VERTEX
  8
0
  5
31566
 10
-379.198
 20
846.593
 30
0.000000
  70
    32
  0
VERTEX
  8
0
  5
31567
 10
-379.204
 20
846.589
 30
0.000000
  70
    32
  0
VERTEX
  8
0
  5
31568
 10
-379.210
 20
846.585
 30
0.000000
  70
    32
  0
VERTEX
  8
0
  5
31569
 10
-379.217
 20
846.581
 30
0.000000
  70
    32
  0
VERTEX
  8
0
  5
3156A
 10
-379.223
 20
846.577
 30
0.000000
  70
    32
  0
VERTEX
  8
0
  5
3156B
 10
-379.229
 20
846.572
 30
0.000000
  70
    32
  0
VERTEX
  8
0
  5
3156C
 10
-379.235
 20
846.568
 30
0.000000
  70
    32
  0
VERTEX
  8
0
  5
3156D
 10
-379.242
 20
846.564
 30
0.000000
  70
    32
  0
VERTEX
  8
0
  5
3156E
 10
-379.248
 20
846.560
 30
0.000000
  70
    32
  0
VERTEX
  8
0
  5
3156F
 10
-379.254
 20
846.556
 30
0.000000
  70
    32
  0
VERTEX
  8
0
  5
31570
 10
-379.261
 20
846.552
 30
0.000000
  70
    32
  0
VERTEX
  8
0
  5
31571
 10
-379.267
 20
846.548
 30
0.000000
  70
    32
  0
VERTEX
  8
0
  5
31572
 10
-379.273
 20
846.544
 30
0.000000
  70
    32
  0
VERTEX
  8
0
  5
31573
 10
-379.280
 20
846.541
 30
0.000000
  70
    32
  0
VERTEX
  8
0
  5
31574
 10
-379.286
 20
846.537
 30
0.000000
  70
    32
  0
VERTEX
  8
0
  5
31575
 10
-379.293
 20
846.533
 30
0.000000
  70
    32
  0
VERTEX
  8
0
  5
31576
 10
-379.299
 20
846.529
 30
0.000000
  70
    32
  0
VERTEX
  8
0
  5
31577
 10
-379.306
 20
846.525
 30
0.000000
  70
    32
  0
VERTEX
  8
0
  5
31578
 10
-379.312
 20
846.522
 30
0.000000
  70
    32
  0
VERTEX
  8
0
  5
31579
 10
-379.319
 20
846.518
 30
0.000000
  70
    32
  0
VERTEX
  8
0
  5
3157A
 10
-379.325
 20
846.514
 30
0.000000
  70
    32
  0
VERTEX
  8
0
  5
3157B
 10
-379.332
 20
846.511
 30
0.000000
  70
    32
  0
VERTEX
  8
0
  5
3157C
 10
-379.338
 20
846.507
 30
0.000000
  70
    32
  0
VERTEX
  8
0
  5
3157D
 10
-379.345
 20
846.503
 30
0.000000
  70
    32
  0
VERTEX
  8
0
  5
3157E
 10
-379.351
 20
846.500
 30
0.000000
  70
    32
  0
VERTEX
  8
0
  5
3157F
 10
-379.358
 20
846.496
 30
0.000000
  70
    32
  0
VERTEX
  8
0
  5
31580
 10
-379.364
 20
846.493
 30
0.000000
  70
    32
  0
VERTEX
  8
0
  5
31581
 10
-379.371
 20
846.489
 30
0.000000
  70
    32
  0
VERTEX
  8
0
  5
31582
 10
-379.378
 20
846.486
 30
0.000000
  70
    32
  0
VERTEX
  8
0
  5
31583
 10
-379.384
 20
846.482
 30
0.000000
  70
    32
  0
VERTEX
  8
0
  5
31584
 10
-379.391
 20
846.479
 30
0.000000
  70
    32
  0
VERTEX
  8
0
  5
31585
 10
-379.398
 20
846.476
 30
0.000000
  70
    32
  0
VERTEX
  8
0
  5
31586
 10
-379.404
 20
846.472
 30
0.000000
  70
    32
  0
VERTEX
  8
0
  5
31587
 10
-379.411
 20
846.469
 30
0.000000
  70
    32
  0
VERTEX
  8
0
  5
31588
 10
-379.418
 20
846.466
 30
0.000000
  70
    32
  0
VERTEX
  8
0
  5
31589
 10
-379.424
 20
846.463
 30
0.000000
  70
    32
  0
VERTEX
  8
0
  5
3158A
 10
-379.431
 20
846.459
 30
0.000000
  70
    32
  0
VERTEX
  8
0
  5
3158B
 10
-379.438
 20
846.456
 30
0.000000
  70
    32
  0
VERTEX
  8
0
  5
3158C
 10
-379.445
 20
846.453
 30
0.000000
  70
    32
  0
VERTEX
  8
0
  5
3158D
 10
-379.452
 20
846.450
 30
0.000000
  70
    32
  0
VERTEX
  8
0
  5
3158E
 10
-379.458
 20
846.447
 30
0.000000
  70
    32
  0
VERTEX
  8
0
  5
3158F
 10
-379.465
 20
846.444
 30
0.000000
  70
    32
  0
VERTEX
  8
0
  5
31590
 10
-379.472
 20
846.441
 30
0.000000
  70
    32
  0
VERTEX
  8
0
  5
31591
 10
-379.479
 20
846.438
 30
0.000000
  70
    32
  0
VERTEX
  8
0
  5
31592
 10
-379.486
 20
846.435
 30
0.000000
  70
    32
  0
VERTEX
  8
0
  5
31593
 10
-379.493
 20
846.432
 30
0.000000
  70
    32
  0
VERTEX
  8
0
  5
31594
 10
-379.499
 20
846.429
 30
0.000000
  70
    32
  0
VERTEX
  8
0
  5
31595
 10
-379.506
 20
846.426
 30
0.000000
  70
    32
  0
VERTEX
  8
0
  5
31596
 10
-379.513
 20
846.423
 30
0.000000
  70
    32
  0
VERTEX
  8
0
  5
31597
 10
-379.520
 20
846.420
 30
0.000000
  70
    32
  0
VERTEX
  8
0
  5
31598
 10
-379.527
 20
846.418
 30
0.000000
  70
    32
  0
VERTEX
  8
0
  5
31599
 10
-379.534
 20
846.415
 30
0.000000
  70
    32
  0
VERTEX
  8
0
  5
3159A
 10
-379.541
 20
846.412
 30
0.000000
  70
    32
  0
VERTEX
  8
0
  5
3159B
 10
-379.548
 20
846.410
 30
0.000000
  70
    32
  0
VERTEX
  8
0
  5
3159C
 10
-379.555
 20
846.407
 30
0.000000
  70
    32
  0
VERTEX
  8
0
  5
3159D
 10
-379.562
 20
846.404
 30
0.000000
  70
    32
  0
VERTEX
  8
0
  5
3159E
 10
-379.569
 20
846.402
 30
0.000000
  70
    32
  0
VERTEX
  8
0
  5
3159F
 10
-379.576
 20
846.399
 30
0.000000
  70
    32
  0
VERTEX
  8
0
  5
315A0
 10
-379.583
 20
846.397
 30
0.000000
  70
    32
  0
VERTEX
  8
0
  5
315A1
 10
-379.590
 20
846.394
 30
0.000000
  70
    32
  0
VERTEX
  8
0
  5
315A2
 10
-379.597
 20
846.392
 30
0.000000
  70
    32
  0
VERTEX
  8
0
  5
315A3
 10
-379.604
 20
846.389
 30
0.000000
  70
    32
  0
VERTEX
  8
0
  5
315A4
 10
-379.612
 20
846.387
 30
0.000000
  70
    32
  0
VERTEX
  8
0
  5
315A5
 10
-379.619
 20
846.385
 30
0.000000
  70
    32
  0
VERTEX
  8
0
  5
315A6
 10
-379.626
 20
846.383
 30
0.000000
  70
    32
  0
VERTEX
  8
0
  5
315A7
 10
-379.633
 20
846.380
 30
0.000000
  70
    32
  0
VERTEX
  8
0
  5
315A8
 10
-379.640
 20
846.378
 30
0.000000
  70
    32
  0
VERTEX
  8
0
  5
315A9
 10
-379.647
 20
846.376
 30
0.000000
  70
    32
  0
VERTEX
  8
0
  5
315AA
 10
-379.654
 20
846.374
 30
0.000000
  70
    32
  0
VERTEX
  8
0
  5
315AB
 10
-379.662
 20
846.372
 30
0.000000
  70
    32
  0
VERTEX
  8
0
  5
315AC
 10
-379.669
 20
846.370
 30
0.000000
  70
    32
  0
VERTEX
  8
0
  5
315AD
 10
-379.676
 20
846.368
 30
0.000000
  70
    32
  0
VERTEX
  8
0
  5
315AE
 10
-379.683
 20
846.366
 30
0.000000
  70
    32
  0
VERTEX
  8
0
  5
315AF
 10
-379.690
 20
846.364
 30
0.000000
  70
    32
  0
VERTEX
  8
0
  5
315B0
 10
-379.698
 20
846.362
 30
0.000000
  70
    32
  0
VERTEX
  8
0
  5
315B1
 10
-379.705
 20
846.360
 30
0.000000
  70
    32
  0
VERTEX
  8
0
  5
315B2
 10
-379.712
 20
846.359
 30
0.000000
  70
    32
  0
VERTEX
  8
0
  5
315B3
 10
-379.719
 20
846.357
 30
0.000000
  70
    32
  0
VERTEX
  8
0
  5
315B4
 10
-379.727
 20
846.355
 30
0.000000
  70
    32
  0
VERTEX
  8
0
  5
315B5
 10
-379.734
 20
846.354
 30
0.000000
  70
    32
  0
VERTEX
  8
0
  5
315B6
 10
-379.741
 20
846.352
 30
0.000000
  70
    32
  0
VERTEX
  8
0
  5
315B7
 10
-379.749
 20
846.351
 30
0.000000
  70
    32
  0
VERTEX
  8
0
  5
315B8
 10
-379.756
 20
846.349
 30
0.000000
  70
    32
  0
VERTEX
  8
0
  5
315B9
 10
-379.763
 20
846.348
 30
0.000000
  70
    32
  0
VERTEX
  8
0
  5
315BA
 10
-379.771
 20
846.346
 30
0.000000
  70
    32
  0
VERTEX
  8
0
  5
315BB
 10
-379.778
 20
846.345
 30
0.000000
  70
    32
  0
VERTEX
  8
0
  5
315BC
 10
-379.785
 20
846.344
 30
0.000000
  70
    32
  0
VERTEX
  8
0
  5
315BD
 10
-379.793
 20
846.342
 30
0.000000
  70
    32
  0
VERTEX
  8
0
  5
315BE
 10
-379.800
 20
846.341
 30
0.000000
  70
    32
  0
VERTEX
  8
0
  5
315BF
 10
-379.808
 20
846.340
 30
0.000000
  70
    32
  0
VERTEX
  8
0
  5
315C0
 10
-379.815
 20
846.339
 30
0.000000
  70
    32
  0
VERTEX
  8
0
  5
315C1
 10
-379.822
 20
846.338
 30
0.000000
  70
    32
  0
VERTEX
  8
0
  5
315C2
 10
-379.830
 20
846.337
 30
0.000000
  70
    32
  0
VERTEX
  8
0
  5
315C3
 10
-379.837
 20
846.335
 30
0.000000
  70
    32
  0
VERTEX
  8
0
  5
315C4
 10
-379.845
 20
846.334
 30
0.000000
  70
    32
  0
VERTEX
  8
0
  5
315C5
 10
-379.852
 20
846.334
 30
0.000000
  70
    32
  0
VERTEX
  8
0
  5
315C6
 10
-379.859
 20
846.333
 30
0.000000
  70
    32
  0
VERTEX
  8
0
  5
315C7
 10
-379.867
 20
846.332
 30
0.000000
  70
    32
  0
VERTEX
  8
0
  5
315C8
 10
-379.874
 20
846.331
 30
0.000000
  70
    32
  0
VERTEX
  8
0
  5
315C9
 10
-379.882
 20
846.330
 30
0.000000
  70
    32
  0
VERTEX
  8
0
  5
315CA
 10
-379.889
 20
846.329
 30
0.000000
  70
    32
  0
VERTEX
  8
0
  5
315CB
 10
-379.897
 20
846.328
 30
0.000000
  70
    32
  0
VERTEX
  8
0
  5
315CC
 10
-379.904
 20
846.328
 30
0.000000
  70
    32
  0
VERTEX
  8
0
  5
315CD
 10
-379.911
 20
846.327
 30
0.000000
  70
    32
  0
VERTEX
  8
0
  5
315CE
 10
-379.919
 20
846.326
 30
0.000000
  70
    32
  0
VERTEX
  8
0
  5
315CF
 10
-379.926
 20
846.326
 30
0.000000
  70
    32
  0
VERTEX
  8
0
  5
315D0
 10
-379.934
 20
846.325
 30
0.000000
  70
    32
  0
VERTEX
  8
0
  5
315D1
 10
-379.941
 20
846.324
 30
0.000000
  70
    32
  0
SEQEND
  8
0
  5
315D2
  0
LINE
  5
3103C
  8
0
 10
-381.00355633469979
 20
843.27338843523478
 30
0.0
 11
-380.88419806129099
 21
843.27338843523478
 31
0.0
  0
LINE
  5
3103D
  8
0
 10
-380.82897740194608
 20
844.20913151479476
 30
0.0
 11
-380.70328057036352
 21
844.20913151479476
 31
0.0
  0
LINE
  5
3103E
  8
0
 10
-377.55505838856971
 20
848.89838843523478
 30
0.0
 11
-378.5051975155074
 21
848.89838843523478
 31
0.0
  0
LINE
  5
3103F
  8
0
 10
-377.55505838856971
 20
848.89838843523478
 30
0.0
 11
-377.55505838856971
 21
848.65021776775109
 31
0.0
  0
LINE
  5
31040
  8
0
 10
-379.9411846484054
 20
846.32439427916609
 30
0.0
 11
-379.96275776005001
 21
846.19802553346119
 31
0.0
  0
LINE
  5
31041
  8
0
 10
-380.70328057036352
 20
845.28074346147082
 30
0.0
 11
-380.70328057036352
 21
844.20913151479476
 31
0.0
  0
LINE
  5
31042
  8
0
 10
-380.82897740194608
 20
844.20913151479476
 30
0.0
 11
-380.82897740194608
 21
844.15051898298702
 31
0.0
  0
LINE
  5
31043
  8
0
 10
-380.45510990287971
 20
845.28074346147082
 30
0.0
 11
-380.70328057036352
 21
845.28074346147082
 31
0.0
  0
POLYLINE
  8
0
  5
315D3
  66
     1
 10
0.000000
 20
0.000000
 30
0.000000
  70
     8
  0
VERTEX
  8
0
  5
315D4
 10
-380.829
 20
844.151
 30
0.000000
  70
    32
  0
VERTEX
  8
0
  5
315D5
 10
-380.826
 20
844.150
 30
0.000000
  70
    32
  0
VERTEX
  8
0
  5
315D6
 10
-380.823
 20
844.149
 30
0.000000
  70
    32
  0
VERTEX
  8
0
  5
315D7
 10
-380.820
 20
844.148
 30
0.000000
  70
    32
  0
VERTEX
  8
0
  5
315D8
 10
-380.818
 20
844.147
 30
0.000000
  70
    32
  0
VERTEX
  8
0
  5
315D9
 10
-380.815
 20
844.146
 30
0.000000
  70
    32
  0
VERTEX
  8
0
  5
315DA
 10
-380.812
 20
844.145
 30
0.000000
  70
    32
  0
VERTEX
  8
0
  5
315DB
 10
-380.809
 20
844.144
 30
0.000000
  70
    32
  0
VERTEX
  8
0
  5
315DC
 10
-380.806
 20
844.144
 30
0.000000
  70
    32
  0
VERTEX
  8
0
  5
315DD
 10
-380.803
 20
844.143
 30
0.000000
  70
    32
  0
VERTEX
  8
0
  5
315DE
 10
-380.800
 20
844.142
 30
0.000000
  70
    32
  0
VERTEX
  8
0
  5
315DF
 10
-380.798
 20
844.141
 30
0.000000
  70
    32
  0
VERTEX
  8
0
  5
315E0
 10
-380.795
 20
844.140
 30
0.000000
  70
    32
  0
VERTEX
  8
0
  5
315E1
 10
-380.792
 20
844.139
 30
0.000000
  70
    32
  0
VERTEX
  8
0
  5
315E2
 10
-380.789
 20
844.138
 30
0.000000
  70
    32
  0
VERTEX
  8
0
  5
315E3
 10
-380.786
 20
844.137
 30
0.000000
  70
    32
  0
VERTEX
  8
0
  5
315E4
 10
-380.783
 20
844.136
 30
0.000000
  70
    32
  0
VERTEX
  8
0
  5
315E5
 10
-380.780
 20
844.136
 30
0.000000
  70
    32
  0
VERTEX
  8
0
  5
315E6
 10
-380.778
 20
844.135
 30
0.000000
  70
    32
  0
VERTEX
  8
0
  5
315E7
 10
-380.775
 20
844.134
 30
0.000000
  70
    32
  0
VERTEX
  8
0
  5
315E8
 10
-380.772
 20
844.133
 30
0.000000
  70
    32
  0
VERTEX
  8
0
  5
315E9
 10
-380.769
 20
844.132
 30
0.000000
  70
    32
  0
VERTEX
  8
0
  5
315EA
 10
-380.766
 20
844.131
 30
0.000000
  70
    32
  0
VERTEX
  8
0
  5
315EB
 10
-380.763
 20
844.130
 30
0.000000
  70
    32
  0
VERTEX
  8
0
  5
315EC
 10
-380.761
 20
844.129
 30
0.000000
  70
    32
  0
VERTEX
  8
0
  5
315ED
 10
-380.758
 20
844.128
 30
0.000000
  70
    32
  0
VERTEX
  8
0
  5
315EE
 10
-380.755
 20
844.127
 30
0.000000
  70
    32
  0
VERTEX
  8
0
  5
315EF
 10
-380.752
 20
844.126
 30
0.000000
  70
    32
  0
VERTEX
  8
0
  5
315F0
 10
-380.749
 20
844.125
 30
0.000000
  70
    32
  0
VERTEX
  8
0
  5
315F1
 10
-380.746
 20
844.124
 30
0.000000
  70
    32
  0
VERTEX
  8
0
  5
315F2
 10
-380.744
 20
844.123
 30
0.000000
  70
    32
  0
VERTEX
  8
0
  5
315F3
 10
-380.741
 20
844.122
 30
0.000000
  70
    32
  0
VERTEX
  8
0
  5
315F4
 10
-380.738
 20
844.122
 30
0.000000
  70
    32
  0
VERTEX
  8
0
  5
315F5
 10
-380.735
 20
844.121
 30
0.000000
  70
    32
  0
VERTEX
  8
0
  5
315F6
 10
-380.732
 20
844.120
 30
0.000000
  70
    32
  0
VERTEX
  8
0
  5
315F7
 10
-380.729
 20
844.119
 30
0.000000
  70
    32
  0
VERTEX
  8
0
  5
315F8
 10
-380.727
 20
844.118
 30
0.000000
  70
    32
  0
VERTEX
  8
0
  5
315F9
 10
-380.724
 20
844.117
 30
0.000000
  70
    32
  0
VERTEX
  8
0
  5
315FA
 10
-380.721
 20
844.115
 30
0.000000
  70
    32
  0
VERTEX
  8
0
  5
315FB
 10
-380.718
 20
844.114
 30
0.000000
  70
    32
  0
VERTEX
  8
0
  5
315FC
 10
-380.715
 20
844.113
 30
0.000000
  70
    32
  0
VERTEX
  8
0
  5
315FD
 10
-380.713
 20
844.112
 30
0.000000
  70
    32
  0
VERTEX
  8
0
  5
315FE
 10
-380.710
 20
844.111
 30
0.000000
  70
    32
  0
VERTEX
  8
0
  5
315FF
 10
-380.707
 20
844.110
 30
0.000000
  70
    32
  0
VERTEX
  8
0
  5
31600
 10
-380.704
 20
844.109
 30
0.000000
  70
    32
  0
VERTEX
  8
0
  5
31601
 10
-380.702
 20
844.108
 30
0.000000
  70
    32
  0
VERTEX
  8
0
  5
31602
 10
-380.699
 20
844.107
 30
0.000000
  70
    32
  0
VERTEX
  8
0
  5
31603
 10
-380.696
 20
844.106
 30
0.000000
  70
    32
  0
VERTEX
  8
0
  5
31604
 10
-380.693
 20
844.105
 30
0.000000
  70
    32
  0
VERTEX
  8
0
  5
31605
 10
-380.690
 20
844.104
 30
0.000000
  70
    32
  0
VERTEX
  8
0
  5
31606
 10
-380.688
 20
844.102
 30
0.000000
  70
    32
  0
VERTEX
  8
0
  5
31607
 10
-380.685
 20
844.101
 30
0.000000
  70
    32
  0
VERTEX
  8
0
  5
31608
 10
-380.682
 20
844.100
 30
0.000000
  70
    32
  0
VERTEX
  8
0
  5
31609
 10
-380.679
 20
844.099
 30
0.000000
  70
    32
  0
VERTEX
  8
0
  5
3160A
 10
-380.677
 20
844.098
 30
0.000000
  70
    32
  0
VERTEX
  8
0
  5
3160B
 10
-380.674
 20
844.097
 30
0.000000
  70
    32
  0
VERTEX
  8
0
  5
3160C
 10
-380.671
 20
844.095
 30
0.000000
  70
    32
  0
VERTEX
  8
0
  5
3160D
 10
-380.668
 20
844.094
 30
0.000000
  70
    32
  0
VERTEX
  8
0
  5
3160E
 10
-380.666
 20
844.093
 30
0.000000
  70
    32
  0
VERTEX
  8
0
  5
3160F
 10
-380.663
 20
844.092
 30
0.000000
  70
    32
  0
VERTEX
  8
0
  5
31610
 10
-380.660
 20
844.090
 30
0.000000
  70
    32
  0
VERTEX
  8
0
  5
31611
 10
-380.658
 20
844.089
 30
0.000000
  70
    32
  0
VERTEX
  8
0
  5
31612
 10
-380.655
 20
844.088
 30
0.000000
  70
    32
  0
VERTEX
  8
0
  5
31613
 10
-380.652
 20
844.087
 30
0.000000
  70
    32
  0
VERTEX
  8
0
  5
31614
 10
-380.650
 20
844.085
 30
0.000000
  70
    32
  0
VERTEX
  8
0
  5
31615
 10
-380.647
 20
844.084
 30
0.000000
  70
    32
  0
VERTEX
  8
0
  5
31616
 10
-380.644
 20
844.083
 30
0.000000
  70
    32
  0
VERTEX
  8
0
  5
31617
 10
-380.641
 20
844.081
 30
0.000000
  70
    32
  0
VERTEX
  8
0
  5
31618
 10
-380.639
 20
844.080
 30
0.000000
  70
    32
  0
VERTEX
  8
0
  5
31619
 10
-380.636
 20
844.078
 30
0.000000
  70
    32
  0
VERTEX
  8
0
  5
3161A
 10
-380.634
 20
844.077
 30
0.000000
  70
    32
  0
VERTEX
  8
0
  5
3161B
 10
-380.631
 20
844.076
 30
0.000000
  70
    32
  0
VERTEX
  8
0
  5
3161C
 10
-380.628
 20
844.074
 30
0.000000
  70
    32
  0
VERTEX
  8
0
  5
3161D
 10
-380.626
 20
844.073
 30
0.000000
  70
    32
  0
VERTEX
  8
0
  5
3161E
 10
-380.623
 20
844.071
 30
0.000000
  70
    32
  0
VERTEX
  8
0
  5
3161F
 10
-380.620
 20
844.070
 30
0.000000
  70
    32
  0
VERTEX
  8
0
  5
31620
 10
-380.618
 20
844.068
 30
0.000000
  70
    32
  0
VERTEX
  8
0
  5
31621
 10
-380.615
 20
844.067
 30
0.000000
  70
    32
  0
VERTEX
  8
0
  5
31622
 10
-380.613
 20
844.065
 30
0.000000
  70
    32
  0
VERTEX
  8
0
  5
31623
 10
-380.610
 20
844.064
 30
0.000000
  70
    32
  0
VERTEX
  8
0
  5
31624
 10
-380.607
 20
844.062
 30
0.000000
  70
    32
  0
VERTEX
  8
0
  5
31625
 10
-380.605
 20
844.061
 30
0.000000
  70
    32
  0
VERTEX
  8
0
  5
31626
 10
-380.602
 20
844.059
 30
0.000000
  70
    32
  0
VERTEX
  8
0
  5
31627
 10
-380.600
 20
844.057
 30
0.000000
  70
    32
  0
VERTEX
  8
0
  5
31628
 10
-380.597
 20
844.056
 30
0.000000
  70
    32
  0
VERTEX
  8
0
  5
31629
 10
-380.595
 20
844.054
 30
0.000000
  70
    32
  0
VERTEX
  8
0
  5
3162A
 10
-380.592
 20
844.052
 30
0.000000
  70
    32
  0
VERTEX
  8
0
  5
3162B
 10
-380.590
 20
844.051
 30
0.000000
  70
    32
  0
VERTEX
  8
0
  5
3162C
 10
-380.587
 20
844.049
 30
0.000000
  70
    32
  0
VERTEX
  8
0
  5
3162D
 10
-380.585
 20
844.047
 30
0.000000
  70
    32
  0
VERTEX
  8
0
  5
3162E
 10
-380.583
 20
844.046
 30
0.000000
  70
    32
  0
VERTEX
  8
0
  5
3162F
 10
-380.580
 20
844.044
 30
0.000000
  70
    32
  0
VERTEX
  8
0
  5
31630
 10
-380.578
 20
844.042
 30
0.000000
  70
    32
  0
VERTEX
  8
0
  5
31631
 10
-380.575
 20
844.040
 30
0.000000
  70
    32
  0
VERTEX
  8
0
  5
31632
 10
-380.573
 20
844.038
 30
0.000000
  70
    32
  0
VERTEX
  8
0
  5
31633
 10
-380.571
 20
844.037
 30
0.000000
  70
    32
  0
VERTEX
  8
0
  5
31634
 10
-380.568
 20
844.035
 30
0.000000
  70
    32
  0
VERTEX
  8
0
  5
31635
 10
-380.566
 20
844.033
 30
0.000000
  70
    32
  0
VERTEX
  8
0
  5
31636
 10
-380.564
 20
844.031
 30
0.000000
  70
    32
  0
VERTEX
  8
0
  5
31637
 10
-380.561
 20
844.029
 30
0.000000
  70
    32
  0
VERTEX
  8
0
  5
31638
 10
-380.559
 20
844.027
 30
0.000000
  70
    32
  0
VERTEX
  8
0
  5
31639
 10
-380.557
 20
844.025
 30
0.000000
  70
    32
  0
VERTEX
  8
0
  5
3163A
 10
-380.555
 20
844.023
 30
0.000000
  70
    32
  0
VERTEX
  8
0
  5
3163B
 10
-380.552
 20
844.021
 30
0.000000
  70
    32
  0
VERTEX
  8
0
  5
3163C
 10
-380.550
 20
844.019
 30
0.000000
  70
    32
  0
VERTEX
  8
0
  5
3163D
 10
-380.548
 20
844.017
 30
0.000000
  70
    32
  0
VERTEX
  8
0
  5
3163E
 10
-380.546
 20
844.015
 30
0.000000
  70
    32
  0
VERTEX
  8
0
  5
3163F
 10
-380.544
 20
844.013
 30
0.000000
  70
    32
  0
VERTEX
  8
0
  5
31640
 10
-380.541
 20
844.011
 30
0.000000
  70
    32
  0
VERTEX
  8
0
  5
31641
 10
-380.539
 20
844.009
 30
0.000000
  70
    32
  0
VERTEX
  8
0
  5
31642
 10
-380.537
 20
844.006
 30
0.000000
  70
    32
  0
VERTEX
  8
0
  5
31643
 10
-380.535
 20
844.004
 30
0.000000
  70
    32
  0
VERTEX
  8
0
  5
31644
 10
-380.533
 20
844.002
 30
0.000000
  70
    32
  0
VERTEX
  8
0
  5
31645
 10
-380.531
 20
844.000
 30
0.000000
  70
    32
  0
VERTEX
  8
0
  5
31646
 10
-380.529
 20
843.998
 30
0.000000
  70
    32
  0
VERTEX
  8
0
  5
31647
 10
-380.527
 20
843.995
 30
0.000000
  70
    32
  0
VERTEX
  8
0
  5
31648
 10
-380.525
 20
843.993
 30
0.000000
  70
    32
  0
VERTEX
  8
0
  5
31649
 10
-380.523
 20
843.991
 30
0.000000
  70
    32
  0
VERTEX
  8
0
  5
3164A
 10
-380.521
 20
843.988
 30
0.000000
  70
    32
  0
VERTEX
  8
0
  5
3164B
 10
-380.520
 20
843.986
 30
0.000000
  70
    32
  0
VERTEX
  8
0
  5
3164C
 10
-380.518
 20
843.984
 30
0.000000
  70
    32
  0
VERTEX
  8
0
  5
3164D
 10
-380.516
 20
843.981
 30
0.000000
  70
    32
  0
VERTEX
  8
0
  5
3164E
 10
-380.514
 20
843.979
 30
0.000000
  70
    32
  0
VERTEX
  8
0
  5
3164F
 10
-380.512
 20
843.976
 30
0.000000
  70
    32
  0
VERTEX
  8
0
  5
31650
 10
-380.511
 20
843.974
 30
0.000000
  70
    32
  0
VERTEX
  8
0
  5
31651
 10
-380.509
 20
843.971
 30
0.000000
  70
    32
  0
VERTEX
  8
0
  5
31652
 10
-380.507
 20
843.969
 30
0.000000
  70
    32
  0
VERTEX
  8
0
  5
31653
 10
-380.506
 20
843.966
 30
0.000000
  70
    32
  0
VERTEX
  8
0
  5
31654
 10
-380.504
 20
843.964
 30
0.000000
  70
    32
  0
VERTEX
  8
0
  5
31655
 10
-380.503
 20
843.961
 30
0.000000
  70
    32
  0
VERTEX
  8
0
  5
31656
 10
-380.501
 20
843.959
 30
0.000000
  70
    32
  0
VERTEX
  8
0
  5
31657
 10
-380.500
 20
843.956
 30
0.000000
  70
    32
  0
VERTEX
  8
0
  5
31658
 10
-380.498
 20
843.954
 30
0.000000
  70
    32
  0
VERTEX
  8
0
  5
31659
 10
-380.497
 20
843.951
 30
0.000000
  70
    32
  0
VERTEX
  8
0
  5
3165A
 10
-380.495
 20
843.948
 30
0.000000
  70
    32
  0
VERTEX
  8
0
  5
3165B
 10
-380.494
 20
843.945
 30
0.000000
  70
    32
  0
VERTEX
  8
0
  5
3165C
 10
-380.493
 20
843.943
 30
0.000000
  70
    32
  0
VERTEX
  8
0
  5
3165D
 10
-380.491
 20
843.940
 30
0.000000
  70
    32
  0
VERTEX
  8
0
  5
3165E
 10
-380.490
 20
843.937
 30
0.000000
  70
    32
  0
VERTEX
  8
0
  5
3165F
 10
-380.489
 20
843.935
 30
0.000000
  70
    32
  0
VERTEX
  8
0
  5
31660
 10
-380.488
 20
843.932
 30
0.000000
  70
    32
  0
VERTEX
  8
0
  5
31661
 10
-380.487
 20
843.929
 30
0.000000
  70
    32
  0
VERTEX
  8
0
  5
31662
 10
-380.486
 20
843.926
 30
0.000000
  70
    32
  0
VERTEX
  8
0
  5
31663
 10
-380.485
 20
843.923
 30
0.000000
  70
    32
  0
VERTEX
  8
0
  5
31664
 10
-380.484
 20
843.920
 30
0.000000
  70
    32
  0
VERTEX
  8
0
  5
31665
 10
-380.483
 20
843.918
 30
0.000000
  70
    32
  0
VERTEX
  8
0
  5
31666
 10
-380.482
 20
843.915
 30
0.000000
  70
    32
  0
VERTEX
  8
0
  5
31667
 10
-380.481
 20
843.912
 30
0.000000
  70
    32
  0
VERTEX
  8
0
  5
31668
 10
-380.480
 20
843.909
 30
0.000000
  70
    32
  0
VERTEX
  8
0
  5
31669
 10
-380.479
 20
843.906
 30
0.000000
  70
    32
  0
VERTEX
  8
0
  5
3166A
 10
-380.479
 20
843.903
 30
0.000000
  70
    32
  0
VERTEX
  8
0
  5
3166B
 10
-380.478
 20
843.900
 30
0.000000
  70
    32
  0
VERTEX
  8
0
  5
3166C
 10
-380.477
 20
843.897
 30
0.000000
  70
    32
  0
VERTEX
  8
0
  5
3166D
 10
-380.477
 20
843.894
 30
0.000000
  70
    32
  0
VERTEX
  8
0
  5
3166E
 10
-380.476
 20
843.891
 30
0.000000
  70
    32
  0
VERTEX
  8
0
  5
3166F
 10
-380.476
 20
843.888
 30
0.000000
  70
    32
  0
VERTEX
  8
0
  5
31670
 10
-380.475
 20
843.885
 30
0.000000
  70
    32
  0
VERTEX
  8
0
  5
31671
 10
-380.475
 20
843.882
 30
0.000000
  70
    32
  0
VERTEX
  8
0
  5
31672
 10
-380.474
 20
843.879
 30
0.000000
  70
    32
  0
VERTEX
  8
0
  5
31673
 10
-380.474
 20
843.876
 30
0.000000
  70
    32
  0
VERTEX
  8
0
  5
31674
 10
-380.473
 20
843.873
 30
0.000000
  70
    32
  0
VERTEX
  8
0
  5
31675
 10
-380.473
 20
843.870
 30
0.000000
  70
    32
  0
VERTEX
  8
0
  5
31676
 10
-380.473
 20
843.867
 30
0.000000
  70
    32
  0
VERTEX
  8
0
  5
31677
 10
-380.473
 20
843.864
 30
0.000000
  70
    32
  0
VERTEX
  8
0
  5
31678
 10
-380.472
 20
843.861
 30
0.000000
  70
    32
  0
VERTEX
  8
0
  5
31679
 10
-380.472
 20
843.857
 30
0.000000
  70
    32
  0
VERTEX
  8
0
  5
3167A
 10
-380.472
 20
843.854
 30
0.000000
  70
    32
  0
VERTEX
  8
0
  5
3167B
 10
-380.472
 20
843.851
 30
0.000000
  70
    32
  0
VERTEX
  8
0
  5
3167C
 10
-380.472
 20
843.848
 30
0.000000
  70
    32
  0
VERTEX
  8
0
  5
3167D
 10
-380.472
 20
843.845
 30
0.000000
  70
    32
  0
VERTEX
  8
0
  5
3167E
 10
-380.472
 20
843.842
 30
0.000000
  70
    32
  0
VERTEX
  8
0
  5
3167F
 10
-380.472
 20
843.839
 30
0.000000
  70
    32
  0
VERTEX
  8
0
  5
31680
 10
-380.472
 20
843.836
 30
0.000000
  70
    32
  0
VERTEX
  8
0
  5
31681
 10
-380.472
 20
843.833
 30
0.000000
  70
    32
  0
VERTEX
  8
0
  5
31682
 10
-380.473
 20
843.830
 30
0.000000
  70
    32
  0
VERTEX
  8
0
  5
31683
 10
-380.473
 20
843.827
 30
0.000000
  70
    32
  0
VERTEX
  8
0
  5
31684
 10
-380.473
 20
843.823
 30
0.000000
  70
    32
  0
VERTEX
  8
0
  5
31685
 10
-380.473
 20
843.820
 30
0.000000
  70
    32
  0
VERTEX
  8
0
  5
31686
 10
-380.474
 20
843.817
 30
0.000000
  70
    32
  0
VERTEX
  8
0
  5
31687
 10
-380.474
 20
843.814
 30
0.000000
  70
    32
  0
VERTEX
  8
0
  5
31688
 10
-380.474
 20
843.811
 30
0.000000
  70
    32
  0
VERTEX
  8
0
  5
31689
 10
-380.475
 20
843.808
 30
0.000000
  70
    32
  0
VERTEX
  8
0
  5
3168A
 10
-380.475
 20
843.805
 30
0.000000
  70
    32
  0
VERTEX
  8
0
  5
3168B
 10
-380.476
 20
843.802
 30
0.000000
  70
    32
  0
VERTEX
  8
0
  5
3168C
 10
-380.476
 20
843.799
 30
0.000000
  70
    32
  0
VERTEX
  8
0
  5
3168D
 10
-380.477
 20
843.796
 30
0.000000
  70
    32
  0
VERTEX
  8
0
  5
3168E
 10
-380.478
 20
843.793
 30
0.000000
  70
    32
  0
VERTEX
  8
0
  5
3168F
 10
-380.478
 20
843.790
 30
0.000000
  70
    32
  0
VERTEX
  8
0
  5
31690
 10
-380.479
 20
843.787
 30
0.000000
  70
    32
  0
VERTEX
  8
0
  5
31691
 10
-380.480
 20
843.784
 30
0.000000
  70
    32
  0
VERTEX
  8
0
  5
31692
 10
-380.481
 20
843.781
 30
0.000000
  70
    32
  0
VERTEX
  8
0
  5
31693
 10
-380.481
 20
843.778
 30
0.000000
  70
    32
  0
VERTEX
  8
0
  5
31694
 10
-380.482
 20
843.775
 30
0.000000
  70
    32
  0
VERTEX
  8
0
  5
31695
 10
-380.483
 20
843.772
 30
0.000000
  70
    32
  0
VERTEX
  8
0
  5
31696
 10
-380.484
 20
843.769
 30
0.000000
  70
    32
  0
VERTEX
  8
0
  5
31697
 10
-380.485
 20
843.766
 30
0.000000
  70
    32
  0
VERTEX
  8
0
  5
31698
 10
-380.486
 20
843.763
 30
0.000000
  70
    32
  0
VERTEX
  8
0
  5
31699
 10
-380.487
 20
843.760
 30
0.000000
  70
    32
  0
VERTEX
  8
0
  5
3169A
 10
-380.488
 20
843.758
 30
0.000000
  70
    32
  0
VERTEX
  8
0
  5
3169B
 10
-380.489
 20
843.755
 30
0.000000
  70
    32
  0
VERTEX
  8
0
  5
3169C
 10
-380.490
 20
843.752
 30
0.000000
  70
    32
  0
VERTEX
  8
0
  5
3169D
 10
-380.491
 20
843.749
 30
0.000000
  70
    32
  0
VERTEX
  8
0
  5
3169E
 10
-380.493
 20
843.746
 30
0.000000
  70
    32
  0
VERTEX
  8
0
  5
3169F
 10
-380.494
 20
843.744
 30
0.000000
  70
    32
  0
VERTEX
  8
0
  5
316A0
 10
-380.495
 20
843.741
 30
0.000000
  70
    32
  0
VERTEX
  8
0
  5
316A1
 10
-380.496
 20
843.738
 30
0.000000
  70
    32
  0
VERTEX
  8
0
  5
316A2
 10
-380.498
 20
843.735
 30
0.000000
  70
    32
  0
VERTEX
  8
0
  5
316A3
 10
-380.499
 20
843.733
 30
0.000000
  70
    32
  0
VERTEX
  8
0
  5
316A4
 10
-380.501
 20
843.730
 30
0.000000
  70
    32
  0
VERTEX
  8
0
  5
316A5
 10
-380.502
 20
843.727
 30
0.000000
  70
    32
  0
VERTEX
  8
0
  5
316A6
 10
-380.503
 20
843.725
 30
0.000000
  70
    32
  0
VERTEX
  8
0
  5
316A7
 10
-380.505
 20
843.722
 30
0.000000
  70
    32
  0
VERTEX
  8
0
  5
316A8
 10
-380.506
 20
843.719
 30
0.000000
  70
    32
  0
VERTEX
  8
0
  5
316A9
 10
-380.508
 20
843.717
 30
0.000000
  70
    32
  0
VERTEX
  8
0
  5
316AA
 10
-380.510
 20
843.714
 30
0.000000
  70
    32
  0
VERTEX
  8
0
  5
316AB
 10
-380.511
 20
843.712
 30
0.000000
  70
    32
  0
VERTEX
  8
0
  5
316AC
 10
-380.513
 20
843.709
 30
0.000000
  70
    32
  0
VERTEX
  8
0
  5
316AD
 10
-380.515
 20
843.707
 30
0.000000
  70
    32
  0
VERTEX
  8
0
  5
316AE
 10
-380.516
 20
843.704
 30
0.000000
  70
    32
  0
VERTEX
  8
0
  5
316AF
 10
-380.518
 20
843.702
 30
0.000000
  70
    32
  0
VERTEX
  8
0
  5
316B0
 10
-380.520
 20
843.700
 30
0.000000
  70
    32
  0
VERTEX
  8
0
  5
316B1
 10
-380.522
 20
843.697
 30
0.000000
  70
    32
  0
VERTEX
  8
0
  5
316B2
 10
-380.524
 20
843.695
 30
0.000000
  70
    32
  0
VERTEX
  8
0
  5
316B3
 10
-380.525
 20
843.692
 30
0.000000
  70
    32
  0
VERTEX
  8
0
  5
316B4
 10
-380.527
 20
843.690
 30
0.000000
  70
    32
  0
VERTEX
  8
0
  5
316B5
 10
-380.529
 20
843.688
 30
0.000000
  70
    32
  0
VERTEX
  8
0
  5
316B6
 10
-380.531
 20
843.686
 30
0.000000
  70
    32
  0
VERTEX
  8
0
  5
316B7
 10
-380.533
 20
843.683
 30
0.000000
  70
    32
  0
VERTEX
  8
0
  5
316B8
 10
-380.535
 20
843.681
 30
0.000000
  70
    32
  0
VERTEX
  8
0
  5
316B9
 10
-380.537
 20
843.679
 30
0.000000
  70
    32
  0
VERTEX
  8
0
  5
316BA
 10
-380.539
 20
843.677
 30
0.000000
  70
    32
  0
VERTEX
  8
0
  5
316BB
 10
-380.541
 20
843.675
 30
0.000000
  70
    32
  0
VERTEX
  8
0
  5
316BC
 10
-380.543
 20
843.673
 30
0.000000
  70
    32
  0
VERTEX
  8
0
  5
316BD
 10
-380.546
 20
843.670
 30
0.000000
  70
    32
  0
VERTEX
  8
0
  5
316BE
 10
-380.548
 20
843.668
 30
0.000000
  70
    32
  0
VERTEX
  8
0
  5
316BF
 10
-380.550
 20
843.666
 30
0.000000
  70
    32
  0
VERTEX
  8
0
  5
316C0
 10
-380.552
 20
843.664
 30
0.000000
  70
    32
  0
VERTEX
  8
0
  5
316C1
 10
-380.554
 20
843.662
 30
0.000000
  70
    32
  0
VERTEX
  8
0
  5
316C2
 10
-380.557
 20
843.660
 30
0.000000
  70
    32
  0
VERTEX
  8
0
  5
316C3
 10
-380.559
 20
843.659
 30
0.000000
  70
    32
  0
VERTEX
  8
0
  5
316C4
 10
-380.561
 20
843.657
 30
0.000000
  70
    32
  0
VERTEX
  8
0
  5
316C5
 10
-380.563
 20
843.655
 30
0.000000
  70
    32
  0
VERTEX
  8
0
  5
316C6
 10
-380.566
 20
843.653
 30
0.000000
  70
    32
  0
VERTEX
  8
0
  5
316C7
 10
-380.568
 20
843.651
 30
0.000000
  70
    32
  0
VERTEX
  8
0
  5
316C8
 10
-380.570
 20
843.649
 30
0.000000
  70
    32
  0
VERTEX
  8
0
  5
316C9
 10
-380.573
 20
843.647
 30
0.000000
  70
    32
  0
VERTEX
  8
0
  5
316CA
 10
-380.575
 20
843.646
 30
0.000000
  70
    32
  0
VERTEX
  8
0
  5
316CB
 10
-380.578
 20
843.644
 30
0.000000
  70
    32
  0
VERTEX
  8
0
  5
316CC
 10
-380.580
 20
843.642
 30
0.000000
  70
    32
  0
VERTEX
  8
0
  5
316CD
 10
-380.582
 20
843.640
 30
0.000000
  70
    32
  0
VERTEX
  8
0
  5
316CE
 10
-380.585
 20
843.638
 30
0.000000
  70
    32
  0
VERTEX
  8
0
  5
316CF
 10
-380.587
 20
843.637
 30
0.000000
  70
    32
  0
VERTEX
  8
0
  5
316D0
 10
-380.590
 20
843.635
 30
0.000000
  70
    32
  0
VERTEX
  8
0
  5
316D1
 10
-380.592
 20
843.633
 30
0.000000
  70
    32
  0
VERTEX
  8
0
  5
316D2
 10
-380.595
 20
843.632
 30
0.000000
  70
    32
  0
VERTEX
  8
0
  5
316D3
 10
-380.597
 20
843.630
 30
0.000000
  70
    32
  0
VERTEX
  8
0
  5
316D4
 10
-380.599
 20
843.628
 30
0.000000
  70
    32
  0
VERTEX
  8
0
  5
316D5
 10
-380.602
 20
843.626
 30
0.000000
  70
    32
  0
VERTEX
  8
0
  5
316D6
 10
-380.604
 20
843.625
 30
0.000000
  70
    32
  0
VERTEX
  8
0
  5
316D7
 10
-380.607
 20
843.623
 30
0.000000
  70
    32
  0
VERTEX
  8
0
  5
316D8
 10
-380.609
 20
843.621
 30
0.000000
  70
    32
  0
VERTEX
  8
0
  5
316D9
 10
-380.612
 20
843.620
 30
0.000000
  70
    32
  0
VERTEX
  8
0
  5
316DA
 10
-380.614
 20
843.618
 30
0.000000
  70
    32
  0
VERTEX
  8
0
  5
316DB
 10
-380.617
 20
843.616
 30
0.000000
  70
    32
  0
VERTEX
  8
0
  5
316DC
 10
-380.619
 20
843.615
 30
0.000000
  70
    32
  0
VERTEX
  8
0
  5
316DD
 10
-380.622
 20
843.613
 30
0.000000
  70
    32
  0
VERTEX
  8
0
  5
316DE
 10
-380.624
 20
843.611
 30
0.000000
  70
    32
  0
VERTEX
  8
0
  5
316DF
 10
-380.627
 20
843.610
 30
0.000000
  70
    32
  0
VERTEX
  8
0
  5
316E0
 10
-380.629
 20
843.608
 30
0.000000
  70
    32
  0
VERTEX
  8
0
  5
316E1
 10
-380.632
 20
843.606
 30
0.000000
  70
    32
  0
VERTEX
  8
0
  5
316E2
 10
-380.634
 20
843.605
 30
0.000000
  70
    32
  0
VERTEX
  8
0
  5
316E3
 10
-380.637
 20
843.603
 30
0.000000
  70
    32
  0
VERTEX
  8
0
  5
316E4
 10
-380.639
 20
843.601
 30
0.000000
  70
    32
  0
VERTEX
  8
0
  5
316E5
 10
-380.641
 20
843.599
 30
0.000000
  70
    32
  0
VERTEX
  8
0
  5
316E6
 10
-380.644
 20
843.598
 30
0.000000
  70
    32
  0
VERTEX
  8
0
  5
316E7
 10
-380.646
 20
843.596
 30
0.000000
  70
    32
  0
VERTEX
  8
0
  5
316E8
 10
-380.649
 20
843.594
 30
0.000000
  70
    32
  0
VERTEX
  8
0
  5
316E9
 10
-380.651
 20
843.592
 30
0.000000
  70
    32
  0
VERTEX
  8
0
  5
316EA
 10
-380.653
 20
843.591
 30
0.000000
  70
    32
  0
VERTEX
  8
0
  5
316EB
 10
-380.656
 20
843.589
 30
0.000000
  70
    32
  0
VERTEX
  8
0
  5
316EC
 10
-380.658
 20
843.587
 30
0.000000
  70
    32
  0
VERTEX
  8
0
  5
316ED
 10
-380.661
 20
843.585
 30
0.000000
  70
    32
  0
VERTEX
  8
0
  5
316EE
 10
-380.663
 20
843.584
 30
0.000000
  70
    32
  0
VERTEX
  8
0
  5
316EF
 10
-380.666
 20
843.582
 30
0.000000
  70
    32
  0
VERTEX
  8
0
  5
316F0
 10
-380.668
 20
843.580
 30
0.000000
  70
    32
  0
VERTEX
  8
0
  5
316F1
 10
-380.670
 20
843.579
 30
0.000000
  70
    32
  0
VERTEX
  8
0
  5
316F2
 10
-380.673
 20
843.577
 30
0.000000
  70
    32
  0
VERTEX
  8
0
  5
316F3
 10
-380.675
 20
843.575
 30
0.000000
  70
    32
  0
VERTEX
  8
0
  5
316F4
 10
-380.678
 20
843.573
 30
0.000000
  70
    32
  0
VERTEX
  8
0
  5
316F5
 10
-380.680
 20
843.572
 30
0.000000
  70
    32
  0
VERTEX
  8
0
  5
316F6
 10
-380.683
 20
843.570
 30
0.000000
  70
    32
  0
VERTEX
  8
0
  5
316F7
 10
-380.685
 20
843.568
 30
0.000000
  70
    32
  0
VERTEX
  8
0
  5
316F8
 10
-380.688
 20
843.566
 30
0.000000
  70
    32
  0
VERTEX
  8
0
  5
316F9
 10
-380.690
 20
843.565
 30
0.000000
  70
    32
  0
VERTEX
  8
0
  5
316FA
 10
-380.692
 20
843.563
 30
0.000000
  70
    32
  0
VERTEX
  8
0
  5
316FB
 10
-380.695
 20
843.561
 30
0.000000
  70
    32
  0
VERTEX
  8
0
  5
316FC
 10
-380.697
 20
843.560
 30
0.000000
  70
    32
  0
VERTEX
  8
0
  5
316FD
 10
-380.700
 20
843.558
 30
0.000000
  70
    32
  0
VERTEX
  8
0
  5
316FE
 10
-380.702
 20
843.556
 30
0.000000
  70
    32
  0
VERTEX
  8
0
  5
316FF
 10
-380.705
 20
843.555
 30
0.000000
  70
    32
  0
VERTEX
  8
0
  5
31700
 10
-380.707
 20
843.553
 30
0.000000
  70
    32
  0
VERTEX
  8
0
  5
31701
 10
-380.710
 20
843.551
 30
0.000000
  70
    32
  0
VERTEX
  8
0
  5
31702
 10
-380.712
 20
843.550
 30
0.000000
  70
    32
  0
VERTEX
  8
0
  5
31703
 10
-380.715
 20
843.548
 30
0.000000
  70
    32
  0
VERTEX
  8
0
  5
31704
 10
-380.717
 20
843.546
 30
0.000000
  70
    32
  0
VERTEX
  8
0
  5
31705
 10
-380.720
 20
843.545
 30
0.000000
  70
    32
  0
VERTEX
  8
0
  5
31706
 10
-380.723
 20
843.543
 30
0.000000
  70
    32
  0
VERTEX
  8
0
  5
31707
 10
-380.725
 20
843.542
 30
0.000000
  70
    32
  0
VERTEX
  8
0
  5
31708
 10
-380.728
 20
843.540
 30
0.000000
  70
    32
  0
VERTEX
  8
0
  5
31709
 10
-380.730
 20
843.538
 30
0.000000
  70
    32
  0
VERTEX
  8
0
  5
3170A
 10
-380.733
 20
843.537
 30
0.000000
  70
    32
  0
VERTEX
  8
0
  5
3170B
 10
-380.735
 20
843.535
 30
0.000000
  70
    32
  0
VERTEX
  8
0
  5
3170C
 10
-380.738
 20
843.533
 30
0.000000
  70
    32
  0
VERTEX
  8
0
  5
3170D
 10
-380.740
 20
843.532
 30
0.000000
  70
    32
  0
VERTEX
  8
0
  5
3170E
 10
-380.743
 20
843.530
 30
0.000000
  70
    32
  0
VERTEX
  8
0
  5
3170F
 10
-380.745
 20
843.528
 30
0.000000
  70
    32
  0
VERTEX
  8
0
  5
31710
 10
-380.748
 20
843.527
 30
0.000000
  70
    32
  0
VERTEX
  8
0
  5
31711
 10
-380.750
 20
843.525
 30
0.000000
  70
    32
  0
VERTEX
  8
0
  5
31712
 10
-380.752
 20
843.523
 30
0.000000
  70
    32
  0
VERTEX
  8
0
  5
31713
 10
-380.755
 20
843.521
 30
0.000000
  70
    32
  0
VERTEX
  8
0
  5
31714
 10
-380.757
 20
843.520
 30
0.000000
  70
    32
  0
VERTEX
  8
0
  5
31715
 10
-380.760
 20
843.518
 30
0.000000
  70
    32
  0
VERTEX
  8
0
  5
31716
 10
-380.762
 20
843.516
 30
0.000000
  70
    32
  0
VERTEX
  8
0
  5
31717
 10
-380.765
 20
843.514
 30
0.000000
  70
    32
  0
VERTEX
  8
0
  5
31718
 10
-380.767
 20
843.512
 30
0.000000
  70
    32
  0
VERTEX
  8
0
  5
31719
 10
-380.769
 20
843.511
 30
0.000000
  70
    32
  0
VERTEX
  8
0
  5
3171A
 10
-380.772
 20
843.509
 30
0.000000
  70
    32
  0
VERTEX
  8
0
  5
3171B
 10
-380.774
 20
843.507
 30
0.000000
  70
    32
  0
VERTEX
  8
0
  5
3171C
 10
-380.776
 20
843.505
 30
0.000000
  70
    32
  0
VERTEX
  8
0
  5
3171D
 10
-380.778
 20
843.503
 30
0.000000
  70
    32
  0
VERTEX
  8
0
  5
3171E
 10
-380.781
 20
843.501
 30
0.000000
  70
    32
  0
VERTEX
  8
0
  5
3171F
 10
-380.783
 20
843.499
 30
0.000000
  70
    32
  0
VERTEX
  8
0
  5
31720
 10
-380.785
 20
843.497
 30
0.000000
  70
    32
  0
VERTEX
  8
0
  5
31721
 10
-380.787
 20
843.495
 30
0.000000
  70
    32
  0
VERTEX
  8
0
  5
31722
 10
-380.789
 20
843.493
 30
0.000000
  70
    32
  0
VERTEX
  8
0
  5
31723
 10
-380.791
 20
843.491
 30
0.000000
  70
    32
  0
VERTEX
  8
0
  5
31724
 10
-380.793
 20
843.489
 30
0.000000
  70
    32
  0
VERTEX
  8
0
  5
31725
 10
-380.795
 20
843.487
 30
0.000000
  70
    32
  0
VERTEX
  8
0
  5
31726
 10
-380.797
 20
843.484
 30
0.000000
  70
    32
  0
VERTEX
  8
0
  5
31727
 10
-380.799
 20
843.482
 30
0.000000
  70
    32
  0
VERTEX
  8
0
  5
31728
 10
-380.801
 20
843.480
 30
0.000000
  70
    32
  0
VERTEX
  8
0
  5
31729
 10
-380.803
 20
843.478
 30
0.000000
  70
    32
  0
VERTEX
  8
0
  5
3172A
 10
-380.805
 20
843.475
 30
0.000000
  70
    32
  0
VERTEX
  8
0
  5
3172B
 10
-380.807
 20
843.473
 30
0.000000
  70
    32
  0
VERTEX
  8
0
  5
3172C
 10
-380.809
 20
843.471
 30
0.000000
  70
    32
  0
VERTEX
  8
0
  5
3172D
 10
-380.811
 20
843.468
 30
0.000000
  70
    32
  0
VERTEX
  8
0
  5
3172E
 10
-380.812
 20
843.466
 30
0.000000
  70
    32
  0
VERTEX
  8
0
  5
3172F
 10
-380.814
 20
843.464
 30
0.000000
  70
    32
  0
VERTEX
  8
0
  5
31730
 10
-380.816
 20
843.461
 30
0.000000
  70
    32
  0
VERTEX
  8
0
  5
31731
 10
-380.818
 20
843.459
 30
0.000000
  70
    32
  0
VERTEX
  8
0
  5
31732
 10
-380.819
 20
843.456
 30
0.000000
  70
    32
  0
VERTEX
  8
0
  5
31733
 10
-380.821
 20
843.454
 30
0.000000
  70
    32
  0
VERTEX
  8
0
  5
31734
 10
-380.822
 20
843.451
 30
0.000000
  70
    32
  0
VERTEX
  8
0
  5
31735
 10
-380.824
 20
843.449
 30
0.000000
  70
    32
  0
VERTEX
  8
0
  5
31736
 10
-380.826
 20
843.446
 30
0.000000
  70
    32
  0
VERTEX
  8
0
  5
31737
 10
-380.827
 20
843.443
 30
0.000000
  70
    32
  0
VERTEX
  8
0
  5
31738
 10
-380.829
 20
843.441
 30
0.000000
  70
    32
  0
VERTEX
  8
0
  5
31739
 10
-380.830
 20
843.438
 30
0.000000
  70
    32
  0
VERTEX
  8
0
  5
3173A
 10
-380.831
 20
843.435
 30
0.000000
  70
    32
  0
VERTEX
  8
0
  5
3173B
 10
-380.833
 20
843.433
 30
0.000000
  70
    32
  0
VERTEX
  8
0
  5
3173C
 10
-380.834
 20
843.430
 30
0.000000
  70
    32
  0
VERTEX
  8
0
  5
3173D
 10
-380.836
 20
843.427
 30
0.000000
  70
    32
  0
VERTEX
  8
0
  5
3173E
 10
-380.837
 20
843.425
 30
0.000000
  70
    32
  0
VERTEX
  8
0
  5
3173F
 10
-380.838
 20
843.422
 30
0.000000
  70
    32
  0
VERTEX
  8
0
  5
31740
 10
-380.840
 20
843.419
 30
0.000000
  70
    32
  0
VERTEX
  8
0
  5
31741
 10
-380.841
 20
843.417
 30
0.000000
  70
    32
  0
VERTEX
  8
0
  5
31742
 10
-380.842
 20
843.414
 30
0.000000
  70
    32
  0
VERTEX
  8
0
  5
31743
 10
-380.843
 20
843.411
 30
0.000000
  70
    32
  0
VERTEX
  8
0
  5
31744
 10
-380.845
 20
843.408
 30
0.000000
  70
    32
  0
VERTEX
  8
0
  5
31745
 10
-380.846
 20
843.405
 30
0.000000
  70
    32
  0
VERTEX
  8
0
  5
31746
 10
-380.847
 20
843.403
 30
0.000000
  70
    32
  0
VERTEX
  8
0
  5
31747
 10
-380.848
 20
843.400
 30
0.000000
  70
    32
  0
VERTEX
  8
0
  5
31748
 10
-380.849
 20
843.397
 30
0.000000
  70
    32
  0
VERTEX
  8
0
  5
31749
 10
-380.850
 20
843.394
 30
0.000000
  70
    32
  0
VERTEX
  8
0
  5
3174A
 10
-380.852
 20
843.391
 30
0.000000
  70
    32
  0
VERTEX
  8
0
  5
3174B
 10
-380.853
 20
843.389
 30
0.000000
  70
    32
  0
VERTEX
  8
0
  5
3174C
 10
-380.854
 20
843.386
 30
0.000000
  70
    32
  0
VERTEX
  8
0
  5
3174D
 10
-380.855
 20
843.383
 30
0.000000
  70
    32
  0
VERTEX
  8
0
  5
3174E
 10
-380.856
 20
843.380
 30
0.000000
  70
    32
  0
VERTEX
  8
0
  5
3174F
 10
-380.857
 20
843.377
 30
0.000000
  70
    32
  0
VERTEX
  8
0
  5
31750
 10
-380.858
 20
843.374
 30
0.000000
  70
    32
  0
VERTEX
  8
0
  5
31751
 10
-380.859
 20
843.372
 30
0.000000
  70
    32
  0
VERTEX
  8
0
  5
31752
 10
-380.860
 20
843.369
 30
0.000000
  70
    32
  0
VERTEX
  8
0
  5
31753
 10
-380.861
 20
843.366
 30
0.000000
  70
    32
  0
VERTEX
  8
0
  5
31754
 10
-380.861
 20
843.363
 30
0.000000
  70
    32
  0
VERTEX
  8
0
  5
31755
 10
-380.862
 20
843.360
 30
0.000000
  70
    32
  0
VERTEX
  8
0
  5
31756
 10
-380.863
 20
843.357
 30
0.000000
  70
    32
  0
VERTEX
  8
0
  5
31757
 10
-380.864
 20
843.354
 30
0.000000
  70
    32
  0
VERTEX
  8
0
  5
31758
 10
-380.865
 20
843.351
 30
0.000000
  70
    32
  0
VERTEX
  8
0
  5
31759
 10
-380.866
 20
843.349
 30
0.000000
  70
    32
  0
VERTEX
  8
0
  5
3175A
 10
-380.867
 20
843.346
 30
0.000000
  70
    32
  0
VERTEX
  8
0
  5
3175B
 10
-380.867
 20
843.343
 30
0.000000
  70
    32
  0
VERTEX
  8
0
  5
3175C
 10
-380.868
 20
843.340
 30
0.000000
  70
    32
  0
VERTEX
  8
0
  5
3175D
 10
-380.869
 20
843.337
 30
0.000000
  70
    32
  0
VERTEX
  8
0
  5
3175E
 10
-380.870
 20
843.334
 30
0.000000
  70
    32
  0
VERTEX
  8
0
  5
3175F
 10
-380.870
 20
843.331
 30
0.000000
  70
    32
  0
VERTEX
  8
0
  5
31760
 10
-380.871
 20
843.328
 30
0.000000
  70
    32
  0
VERTEX
  8
0
  5
31761
 10
-380.872
 20
843.326
 30
0.000000
  70
    32
  0
VERTEX
  8
0
  5
31762
 10
-380.873
 20
843.323
 30
0.000000
  70
    32
  0
VERTEX
  8
0
  5
31763
 10
-380.873
 20
843.320
 30
0.000000
  70
    32
  0
VERTEX
  8
0
  5
31764
 10
-380.874
 20
843.317
 30
0.000000
  70
    32
  0
VERTEX
  8
0
  5
31765
 10
-380.875
 20
843.314
 30
0.000000
  70
    32
  0
VERTEX
  8
0
  5
31766
 10
-380.876
 20
843.311
 30
0.000000
  70
    32
  0
VERTEX
  8
0
  5
31767
 10
-380.876
 20
843.308
 30
0.000000
  70
    32
  0
VERTEX
  8
0
  5
31768
 10
-380.877
 20
843.305
 30
0.000000
  70
    32
  0
VERTEX
  8
0
  5
31769
 10
-380.878
 20
843.302
 30
0.000000
  70
    32
  0
VERTEX
  8
0
  5
3176A
 10
-380.878
 20
843.299
 30
0.000000
  70
    32
  0
VERTEX
  8
0
  5
3176B
 10
-380.879
 20
843.297
 30
0.000000
  70
    32
  0
VERTEX
  8
0
  5
3176C
 10
-380.880
 20
843.294
 30
0.000000
  70
    32
  0
VERTEX
  8
0
  5
3176D
 10
-380.880
 20
843.291
 30
0.000000
  70
    32
  0
VERTEX
  8
0
  5
3176E
 10
-380.881
 20
843.288
 30
0.000000
  70
    32
  0
VERTEX
  8
0
  5
3176F
 10
-380.882
 20
843.285
 30
0.000000
  70
    32
  0
VERTEX
  8
0
  5
31770
 10
-380.882
 20
843.282
 30
0.000000
  70
    32
  0
VERTEX
  8
0
  5
31771
 10
-380.883
 20
843.279
 30
0.000000
  70
    32
  0
VERTEX
  8
0
  5
31772
 10
-380.884
 20
843.276
 30
0.000000
  70
    32
  0
VERTEX
  8
0
  5
31773
 10
-380.884
 20
843.273
 30
0.000000
  70
    32
  0
SEQEND
  8
0
  5
31774
  0
LINE
  5
31045
  8
0
 10
-374.47947595336001
 20
848.85050599210876
 30
0.0
 11
-376.67755900821612
 21
846.44679581276614
 31
0.0
  0
LINE
  5
31046
  8
0
 10
-376.9778347725524
 20
843.22550599210876
 30
0.0
 11
-376.9778347725524
 21
846.59837097291052
 31
0.0
  0
LINE
  5
31047
  8
0
 10
-376.80325583979868
 20
844.16124907166864
 30
0.0
 11
-376.80325583979868
 21
844.1026365398609
 31
0.0
  0
LINE
  5
31048
  8
0
 10
-376.67755900821612
 20
846.59837097291052
 30
0.0
 11
-376.67755900821612
 21
844.16124907166864
 31
0.0
  0
LINE
  5
31049
  8
0
 10
-375.915463086258
 20
846.27651183604007
 30
0.0
 11
-375.93703619790261
 21
846.15014309033518
 31
0.0
  0
LINE
  5
3104A
  8
0
 10
-373.52933682642231
 20
848.85050599210876
 30
0.0
 11
-373.52933682642231
 21
848.60233532462507
 31
0.0
  0
LINE
  5
3104B
  8
0
 10
-373.52933682642231
 20
848.85050599210876
 30
0.0
 11
-374.47947595336001
 21
848.85050599210876
 31
0.0
  0
LINE
  5
3104C
  8
0
 10
-376.13507561554007
 20
846.17190319900305
 30
0.0
 11
-375.93703619790261
 21
846.15014309033518
 31
0.0
  0
LINE
  5
3104D
  8
0
 10
-376.42938834073232
 20
845.23286101834458
 30
0.0
 11
-376.67755900821612
 21
845.23286101834458
 31
0.0
  0
LINE
  5
3104E
  8
0
 10
-376.80325583979868
 20
844.16124907166864
 30
0.0
 11
-376.67755900821612
 21
844.16124907166864
 31
0.0
  0
LINE
  5
3104F
  8
0
 10
-376.9778347725524
 20
843.22550599210876
 30
0.0
 11
-376.85847649914359
 21
843.22550599210876
 31
0.0
  0
LINE
  5
31050
  8
0
 10
-376.67755900821612
 20
846.59837097291052
 30
0.0
 11
-376.9778347725524
 21
846.59837097291052
 31
0.0
  0
POLYLINE
  8
0
  5
31775
  66
     1
 10
0.000000
 20
0.000000
 30
0.000000
  70
     8
  0
VERTEX
  8
0
  5
31776
 10
-373.529
 20
848.602
 30
0.000000
  70
    32
  0
VERTEX
  8
0
  5
31777
 10
-373.537
 20
848.601
 30
0.000000
  70
    32
  0
VERTEX
  8
0
  5
31778
 10
-373.544
 20
848.600
 30
0.000000
  70
    32
  0
VERTEX
  8
0
  5
31779
 10
-373.552
 20
848.599
 30
0.000000
  70
    32
  0
VERTEX
  8
0
  5
3177A
 10
-373.559
 20
848.598
 30
0.000000
  70
    32
  0
VERTEX
  8
0
  5
3177B
 10
-373.566
 20
848.597
 30
0.000000
  70
    32
  0
VERTEX
  8
0
  5
3177C
 10
-373.574
 20
848.596
 30
0.000000
  70
    32
  0
VERTEX
  8
0
  5
3177D
 10
-373.581
 20
848.595
 30
0.000000
  70
    32
  0
VERTEX
  8
0
  5
3177E
 10
-373.589
 20
848.594
 30
0.000000
  70
    32
  0
VERTEX
  8
0
  5
3177F
 10
-373.596
 20
848.593
 30
0.000000
  70
    32
  0
VERTEX
  8
0
  5
31780
 10
-373.603
 20
848.592
 30
0.000000
  70
    32
  0
VERTEX
  8
0
  5
31781
 10
-373.611
 20
848.590
 30
0.000000
  70
    32
  0
VERTEX
  8
0
  5
31782
 10
-373.618
 20
848.589
 30
0.000000
  70
    32
  0
VERTEX
  8
0
  5
31783
 10
-373.626
 20
848.588
 30
0.000000
  70
    32
  0
VERTEX
  8
0
  5
31784
 10
-373.633
 20
848.587
 30
0.000000
  70
    32
  0
VERTEX
  8
0
  5
31785
 10
-373.640
 20
848.586
 30
0.000000
  70
    32
  0
VERTEX
  8
0
  5
31786
 10
-373.648
 20
848.585
 30
0.000000
  70
    32
  0
VERTEX
  8
0
  5
31787
 10
-373.655
 20
848.584
 30
0.000000
  70
    32
  0
VERTEX
  8
0
  5
31788
 10
-373.662
 20
848.582
 30
0.000000
  70
    32
  0
VERTEX
  8
0
  5
31789
 10
-373.670
 20
848.581
 30
0.000000
  70
    32
  0
VERTEX
  8
0
  5
3178A
 10
-373.677
 20
848.580
 30
0.000000
  70
    32
  0
VERTEX
  8
0
  5
3178B
 10
-373.684
 20
848.578
 30
0.000000
  70
    32
  0
VERTEX
  8
0
  5
3178C
 10
-373.692
 20
848.577
 30
0.000000
  70
    32
  0
VERTEX
  8
0
  5
3178D
 10
-373.699
 20
848.576
 30
0.000000
  70
    32
  0
VERTEX
  8
0
  5
3178E
 10
-373.706
 20
848.574
 30
0.000000
  70
    32
  0
VERTEX
  8
0
  5
3178F
 10
-373.714
 20
848.573
 30
0.000000
  70
    32
  0
VERTEX
  8
0
  5
31790
 10
-373.721
 20
848.571
 30
0.000000
  70
    32
  0
VERTEX
  8
0
  5
31791
 10
-373.728
 20
848.569
 30
0.000000
  70
    32
  0
VERTEX
  8
0
  5
31792
 10
-373.736
 20
848.568
 30
0.000000
  70
    32
  0
VERTEX
  8
0
  5
31793
 10
-373.743
 20
848.566
 30
0.000000
  70
    32
  0
VERTEX
  8
0
  5
31794
 10
-373.750
 20
848.564
 30
0.000000
  70
    32
  0
VERTEX
  8
0
  5
31795
 10
-373.757
 20
848.563
 30
0.000000
  70
    32
  0
VERTEX
  8
0
  5
31796
 10
-373.765
 20
848.561
 30
0.000000
  70
    32
  0
VERTEX
  8
0
  5
31797
 10
-373.772
 20
848.559
 30
0.000000
  70
    32
  0
VERTEX
  8
0
  5
31798
 10
-373.779
 20
848.557
 30
0.000000
  70
    32
  0
VERTEX
  8
0
  5
31799
 10
-373.786
 20
848.555
 30
0.000000
  70
    32
  0
VERTEX
  8
0
  5
3179A
 10
-373.794
 20
848.553
 30
0.000000
  70
    32
  0
VERTEX
  8
0
  5
3179B
 10
-373.801
 20
848.550
 30
0.000000
  70
    32
  0
VERTEX
  8
0
  5
3179C
 10
-373.808
 20
848.548
 30
0.000000
  70
    32
  0
VERTEX
  8
0
  5
3179D
 10
-373.815
 20
848.546
 30
0.000000
  70
    32
  0
VERTEX
  8
0
  5
3179E
 10
-373.822
 20
848.543
 30
0.000000
  70
    32
  0
VERTEX
  8
0
  5
3179F
 10
-373.829
 20
848.541
 30
0.000000
  70
    32
  0
VERTEX
  8
0
  5
317A0
 10
-373.836
 20
848.538
 30
0.000000
  70
    32
  0
VERTEX
  8
0
  5
317A1
 10
-373.843
 20
848.536
 30
0.000000
  70
    32
  0
VERTEX
  8
0
  5
317A2
 10
-373.850
 20
848.533
 30
0.000000
  70
    32
  0
VERTEX
  8
0
  5
317A3
 10
-373.857
 20
848.530
 30
0.000000
  70
    32
  0
VERTEX
  8
0
  5
317A4
 10
-373.864
 20
848.527
 30
0.000000
  70
    32
  0
VERTEX
  8
0
  5
317A5
 10
-373.871
 20
848.524
 30
0.000000
  70
    32
  0
VERTEX
  8
0
  5
317A6
 10
-373.878
 20
848.521
 30
0.000000
  70
    32
  0
VERTEX
  8
0
  5
317A7
 10
-373.885
 20
848.518
 30
0.000000
  70
    32
  0
VERTEX
  8
0
  5
317A8
 10
-373.892
 20
848.515
 30
0.000000
  70
    32
  0
VERTEX
  8
0
  5
317A9
 10
-373.899
 20
848.512
 30
0.000000
  70
    32
  0
VERTEX
  8
0
  5
317AA
 10
-373.905
 20
848.509
 30
0.000000
  70
    32
  0
VERTEX
  8
0
  5
317AB
 10
-373.912
 20
848.505
 30
0.000000
  70
    32
  0
VERTEX
  8
0
  5
317AC
 10
-373.919
 20
848.502
 30
0.000000
  70
    32
  0
VERTEX
  8
0
  5
317AD
 10
-373.925
 20
848.498
 30
0.000000
  70
    32
  0
VERTEX
  8
0
  5
317AE
 10
-373.932
 20
848.495
 30
0.000000
  70
    32
  0
VERTEX
  8
0
  5
317AF
 10
-373.939
 20
848.491
 30
0.000000
  70
    32
  0
VERTEX
  8
0
  5
317B0
 10
-373.945
 20
848.487
 30
0.000000
  70
    32
  0
VERTEX
  8
0
  5
317B1
 10
-373.952
 20
848.483
 30
0.000000
  70
    32
  0
VERTEX
  8
0
  5
317B2
 10
-373.958
 20
848.480
 30
0.000000
  70
    32
  0
VERTEX
  8
0
  5
317B3
 10
-373.964
 20
848.476
 30
0.000000
  70
    32
  0
VERTEX
  8
0
  5
317B4
 10
-373.971
 20
848.472
 30
0.000000
  70
    32
  0
VERTEX
  8
0
  5
317B5
 10
-373.977
 20
848.468
 30
0.000000
  70
    32
  0
VERTEX
  8
0
  5
317B6
 10
-373.983
 20
848.463
 30
0.000000
  70
    32
  0
VERTEX
  8
0
  5
317B7
 10
-373.989
 20
848.459
 30
0.000000
  70
    32
  0
VERTEX
  8
0
  5
317B8
 10
-373.996
 20
848.455
 30
0.000000
  70
    32
  0
VERTEX
  8
0
  5
317B9
 10
-374.002
 20
848.450
 30
0.000000
  70
    32
  0
VERTEX
  8
0
  5
317BA
 10
-374.008
 20
848.446
 30
0.000000
  70
    32
  0
VERTEX
  8
0
  5
317BB
 10
-374.014
 20
848.442
 30
0.000000
  70
    32
  0
VERTEX
  8
0
  5
317BC
 10
-374.019
 20
848.437
 30
0.000000
  70
    32
  0
VERTEX
  8
0
  5
317BD
 10
-374.025
 20
848.432
 30
0.000000
  70
    32
  0
VERTEX
  8
0
  5
317BE
 10
-374.031
 20
848.428
 30
0.000000
  70
    32
  0
VERTEX
  8
0
  5
317BF
 10
-374.037
 20
848.423
 30
0.000000
  70
    32
  0
VERTEX
  8
0
  5
317C0
 10
-374.042
 20
848.418
 30
0.000000
  70
    32
  0
VERTEX
  8
0
  5
317C1
 10
-374.048
 20
848.413
 30
0.000000
  70
    32
  0
VERTEX
  8
0
  5
317C2
 10
-374.054
 20
848.408
 30
0.000000
  70
    32
  0
VERTEX
  8
0
  5
317C3
 10
-374.059
 20
848.403
 30
0.000000
  70
    32
  0
VERTEX
  8
0
  5
317C4
 10
-374.065
 20
848.398
 30
0.000000
  70
    32
  0
VERTEX
  8
0
  5
317C5
 10
-374.070
 20
848.393
 30
0.000000
  70
    32
  0
VERTEX
  8
0
  5
317C6
 10
-374.075
 20
848.387
 30
0.000000
  70
    32
  0
VERTEX
  8
0
  5
317C7
 10
-374.081
 20
848.382
 30
0.000000
  70
    32
  0
VERTEX
  8
0
  5
317C8
 10
-374.086
 20
848.377
 30
0.000000
  70
    32
  0
VERTEX
  8
0
  5
317C9
 10
-374.091
 20
848.372
 30
0.000000
  70
    32
  0
VERTEX
  8
0
  5
317CA
 10
-374.096
 20
848.366
 30
0.000000
  70
    32
  0
VERTEX
  8
0
  5
317CB
 10
-374.102
 20
848.361
 30
0.000000
  70
    32
  0
VERTEX
  8
0
  5
317CC
 10
-374.107
 20
848.355
 30
0.000000
  70
    32
  0
VERTEX
  8
0
  5
317CD
 10
-374.112
 20
848.350
 30
0.000000
  70
    32
  0
VERTEX
  8
0
  5
317CE
 10
-374.117
 20
848.344
 30
0.000000
  70
    32
  0
VERTEX
  8
0
  5
317CF
 10
-374.122
 20
848.339
 30
0.000000
  70
    32
  0
VERTEX
  8
0
  5
317D0
 10
-374.127
 20
848.333
 30
0.000000
  70
    32
  0
VERTEX
  8
0
  5
317D1
 10
-374.132
 20
848.328
 30
0.000000
  70
    32
  0
VERTEX
  8
0
  5
317D2
 10
-374.137
 20
848.322
 30
0.000000
  70
    32
  0
VERTEX
  8
0
  5
317D3
 10
-374.142
 20
848.316
 30
0.000000
  70
    32
  0
VERTEX
  8
0
  5
317D4
 10
-374.147
 20
848.311
 30
0.000000
  70
    32
  0
VERTEX
  8
0
  5
317D5
 10
-374.152
 20
848.305
 30
0.000000
  70
    32
  0
VERTEX
  8
0
  5
317D6
 10
-374.157
 20
848.299
 30
0.000000
  70
    32
  0
VERTEX
  8
0
  5
317D7
 10
-374.161
 20
848.294
 30
0.000000
  70
    32
  0
VERTEX
  8
0
  5
317D8
 10
-374.166
 20
848.288
 30
0.000000
  70
    32
  0
VERTEX
  8
0
  5
317D9
 10
-374.171
 20
848.282
 30
0.000000
  70
    32
  0
VERTEX
  8
0
  5
317DA
 10
-374.176
 20
848.277
 30
0.000000
  70
    32
  0
VERTEX
  8
0
  5
317DB
 10
-374.180
 20
848.271
 30
0.000000
  70
    32
  0
VERTEX
  8
0
  5
317DC
 10
-374.185
 20
848.265
 30
0.000000
  70
    32
  0
VERTEX
  8
0
  5
317DD
 10
-374.190
 20
848.259
 30
0.000000
  70
    32
  0
VERTEX
  8
0
  5
317DE
 10
-374.195
 20
848.253
 30
0.000000
  70
    32
  0
VERTEX
  8
0
  5
317DF
 10
-374.199
 20
848.247
 30
0.000000
  70
    32
  0
VERTEX
  8
0
  5
317E0
 10
-374.204
 20
848.242
 30
0.000000
  70
    32
  0
VERTEX
  8
0
  5
317E1
 10
-374.208
 20
848.236
 30
0.000000
  70
    32
  0
VERTEX
  8
0
  5
317E2
 10
-374.213
 20
848.230
 30
0.000000
  70
    32
  0
VERTEX
  8
0
  5
317E3
 10
-374.218
 20
848.224
 30
0.000000
  70
    32
  0
VERTEX
  8
0
  5
317E4
 10
-374.222
 20
848.218
 30
0.000000
  70
    32
  0
VERTEX
  8
0
  5
317E5
 10
-374.227
 20
848.212
 30
0.000000
  70
    32
  0
VERTEX
  8
0
  5
317E6
 10
-374.231
 20
848.206
 30
0.000000
  70
    32
  0
VERTEX
  8
0
  5
317E7
 10
-374.235
 20
848.200
 30
0.000000
  70
    32
  0
VERTEX
  8
0
  5
317E8
 10
-374.240
 20
848.194
 30
0.000000
  70
    32
  0
VERTEX
  8
0
  5
317E9
 10
-374.244
 20
848.188
 30
0.000000
  70
    32
  0
VERTEX
  8
0
  5
317EA
 10
-374.249
 20
848.182
 30
0.000000
  70
    32
  0
VERTEX
  8
0
  5
317EB
 10
-374.253
 20
848.176
 30
0.000000
  70
    32
  0
VERTEX
  8
0
  5
317EC
 10
-374.257
 20
848.170
 30
0.000000
  70
    32
  0
VERTEX
  8
0
  5
317ED
 10
-374.262
 20
848.164
 30
0.000000
  70
    32
  0
VERTEX
  8
0
  5
317EE
 10
-374.266
 20
848.158
 30
0.000000
  70
    32
  0
VERTEX
  8
0
  5
317EF
 10
-374.270
 20
848.151
 30
0.000000
  70
    32
  0
VERTEX
  8
0
  5
317F0
 10
-374.275
 20
848.145
 30
0.000000
  70
    32
  0
VERTEX
  8
0
  5
317F1
 10
-374.279
 20
848.139
 30
0.000000
  70
    32
  0
VERTEX
  8
0
  5
317F2
 10
-374.283
 20
848.133
 30
0.000000
  70
    32
  0
VERTEX
  8
0
  5
317F3
 10
-374.287
 20
848.127
 30
0.000000
  70
    32
  0
VERTEX
  8
0
  5
317F4
 10
-374.291
 20
848.121
 30
0.000000
  70
    32
  0
VERTEX
  8
0
  5
317F5
 10
-374.296
 20
848.114
 30
0.000000
  70
    32
  0
VERTEX
  8
0
  5
317F6
 10
-374.300
 20
848.108
 30
0.000000
  70
    32
  0
VERTEX
  8
0
  5
317F7
 10
-374.304
 20
848.102
 30
0.000000
  70
    32
  0
VERTEX
  8
0
  5
317F8
 10
-374.308
 20
848.096
 30
0.000000
  70
    32
  0
VERTEX
  8
0
  5
317F9
 10
-374.312
 20
848.089
 30
0.000000
  70
    32
  0
VERTEX
  8
0
  5
317FA
 10
-374.316
 20
848.083
 30
0.000000
  70
    32
  0
VERTEX
  8
0
  5
317FB
 10
-374.320
 20
848.077
 30
0.000000
  70
    32
  0
VERTEX
  8
0
  5
317FC
 10
-374.324
 20
848.070
 30
0.000000
  70
    32
  0
VERTEX
  8
0
  5
317FD
 10
-374.328
 20
848.064
 30
0.000000
  70
    32
  0
VERTEX
  8
0
  5
317FE
 10
-374.332
 20
848.057
 30
0.000000
  70
    32
  0
VERTEX
  8
0
  5
317FF
 10
-374.335
 20
848.051
 30
0.000000
  70
    32
  0
VERTEX
  8
0
  5
31800
 10
-374.339
 20
848.045
 30
0.000000
  70
    32
  0
VERTEX
  8
0
  5
31801
 10
-374.343
 20
848.038
 30
0.000000
  70
    32
  0
VERTEX
  8
0
  5
31802
 10
-374.347
 20
848.032
 30
0.000000
  70
    32
  0
VERTEX
  8
0
  5
31803
 10
-374.351
 20
848.025
 30
0.000000
  70
    32
  0
VERTEX
  8
0
  5
31804
 10
-374.354
 20
848.019
 30
0.000000
  70
    32
  0
VERTEX
  8
0
  5
31805
 10
-374.358
 20
848.012
 30
0.000000
  70
    32
  0
VERTEX
  8
0
  5
31806
 10
-374.362
 20
848.006
 30
0.000000
  70
    32
  0
VERTEX
  8
0
  5
31807
 10
-374.365
 20
847.999
 30
0.000000
  70
    32
  0
VERTEX
  8
0
  5
31808
 10
-374.369
 20
847.993
 30
0.000000
  70
    32
  0
VERTEX
  8
0
  5
31809
 10
-374.373
 20
847.986
 30
0.000000
  70
    32
  0
VERTEX
  8
0
  5
3180A
 10
-374.376
 20
847.980
 30
0.000000
  70
    32
  0
VERTEX
  8
0
  5
3180B
 10
-374.380
 20
847.973
 30
0.000000
  70
    32
  0
VERTEX
  8
0
  5
3180C
 10
-374.383
 20
847.966
 30
0.000000
  70
    32
  0
VERTEX
  8
0
  5
3180D
 10
-374.386
 20
847.960
 30
0.000000
  70
    32
  0
VERTEX
  8
0
  5
3180E
 10
-374.390
 20
847.953
 30
0.000000
  70
    32
  0
VERTEX
  8
0
  5
3180F
 10
-374.393
 20
847.946
 30
0.000000
  70
    32
  0
VERTEX
  8
0
  5
31810
 10
-374.397
 20
847.940
 30
0.000000
  70
    32
  0
VERTEX
  8
0
  5
31811
 10
-374.400
 20
847.933
 30
0.000000
  70
    32
  0
VERTEX
  8
0
  5
31812
 10
-374.403
 20
847.926
 30
0.000000
  70
    32
  0
VERTEX
  8
0
  5
31813
 10
-374.406
 20
847.920
 30
0.000000
  70
    32
  0
VERTEX
  8
0
  5
31814
 10
-374.409
 20
847.913
 30
0.000000
  70
    32
  0
VERTEX
  8
0
  5
31815
 10
-374.413
 20
847.906
 30
0.000000
  70
    32
  0
VERTEX
  8
0
  5
31816
 10
-374.416
 20
847.899
 30
0.000000
  70
    32
  0
VERTEX
  8
0
  5
31817
 10
-374.419
 20
847.892
 30
0.000000
  70
    32
  0
VERTEX
  8
0
  5
31818
 10
-374.422
 20
847.886
 30
0.000000
  70
    32
  0
VERTEX
  8
0
  5
31819
 10
-374.425
 20
847.879
 30
0.000000
  70
    32
  0
VERTEX
  8
0
  5
3181A
 10
-374.428
 20
847.872
 30
0.000000
  70
    32
  0
VERTEX
  8
0
  5
3181B
 10
-374.431
 20
847.865
 30
0.000000
  70
    32
  0
VERTEX
  8
0
  5
3181C
 10
-374.434
 20
847.858
 30
0.000000
  70
    32
  0
VERTEX
  8
0
  5
3181D
 10
-374.436
 20
847.851
 30
0.000000
  70
    32
  0
VERTEX
  8
0
  5
3181E
 10
-374.439
 20
847.845
 30
0.000000
  70
    32
  0
VERTEX
  8
0
  5
3181F
 10
-374.442
 20
847.838
 30
0.000000
  70
    32
  0
VERTEX
  8
0
  5
31820
 10
-374.445
 20
847.831
 30
0.000000
  70
    32
  0
VERTEX
  8
0
  5
31821
 10
-374.448
 20
847.824
 30
0.000000
  70
    32
  0
VERTEX
  8
0
  5
31822
 10
-374.450
 20
847.817
 30
0.000000
  70
    32
  0
VERTEX
  8
0
  5
31823
 10
-374.453
 20
847.810
 30
0.000000
  70
    32
  0
VERTEX
  8
0
  5
31824
 10
-374.456
 20
847.803
 30
0.000000
  70
    32
  0
VERTEX
  8
0
  5
31825
 10
-374.458
 20
847.796
 30
0.000000
  70
    32
  0
VERTEX
  8
0
  5
31826
 10
-374.461
 20
847.789
 30
0.000000
  70
    32
  0
VERTEX
  8
0
  5
31827
 10
-374.464
 20
847.782
 30
0.000000
  70
    32
  0
VERTEX
  8
0
  5
31828
 10
-374.466
 20
847.775
 30
0.000000
  70
    32
  0
VERTEX
  8
0
  5
31829
 10
-374.469
 20
847.768
 30
0.000000
  70
    32
  0
VERTEX
  8
0
  5
3182A
 10
-374.471
 20
847.761
 30
0.000000
  70
    32
  0
VERTEX
  8
0
  5
3182B
 10
-374.474
 20
847.754
 30
0.000000
  70
    32
  0
VERTEX
  8
0
  5
3182C
 10
-374.476
 20
847.747
 30
0.000000
  70
    32
  0
VERTEX
  8
0
  5
3182D
 10
-374.479
 20
847.740
 30
0.000000
  70
    32
  0
VERTEX
  8
0
  5
3182E
 10
-374.481
 20
847.733
 30
0.000000
  70
    32
  0
VERTEX
  8
0
  5
3182F
 10
-374.483
 20
847.726
 30
0.000000
  70
    32
  0
VERTEX
  8
0
  5
31830
 10
-374.486
 20
847.719
 30
0.000000
  70
    32
  0
VERTEX
  8
0
  5
31831
 10
-374.488
 20
847.711
 30
0.000000
  70
    32
  0
VERTEX
  8
0
  5
31832
 10
-374.491
 20
847.704
 30
0.000000
  70
    32
  0
VERTEX
  8
0
  5
31833
 10
-374.493
 20
847.697
 30
0.000000
  70
    32
  0
VERTEX
  8
0
  5
31834
 10
-374.495
 20
847.690
 30
0.000000
  70
    32
  0
VERTEX
  8
0
  5
31835
 10
-374.498
 20
847.683
 30
0.000000
  70
    32
  0
VERTEX
  8
0
  5
31836
 10
-374.500
 20
847.676
 30
0.000000
  70
    32
  0
VERTEX
  8
0
  5
31837
 10
-374.502
 20
847.669
 30
0.000000
  70
    32
  0
VERTEX
  8
0
  5
31838
 10
-374.505
 20
847.662
 30
0.000000
  70
    32
  0
VERTEX
  8
0
  5
31839
 10
-374.507
 20
847.655
 30
0.000000
  70
    32
  0
VERTEX
  8
0
  5
3183A
 10
-374.509
 20
847.647
 30
0.000000
  70
    32
  0
VERTEX
  8
0
  5
3183B
 10
-374.512
 20
847.640
 30
0.000000
  70
    32
  0
VERTEX
  8
0
  5
3183C
 10
-374.514
 20
847.633
 30
0.000000
  70
    32
  0
VERTEX
  8
0
  5
3183D
 10
-374.516
 20
847.626
 30
0.000000
  70
    32
  0
VERTEX
  8
0
  5
3183E
 10
-374.518
 20
847.619
 30
0.000000
  70
    32
  0
VERTEX
  8
0
  5
3183F
 10
-374.521
 20
847.612
 30
0.000000
  70
    32
  0
VERTEX
  8
0
  5
31840
 10
-374.523
 20
847.605
 30
0.000000
  70
    32
  0
VERTEX
  8
0
  5
31841
 10
-374.525
 20
847.597
 30
0.000000
  70
    32
  0
VERTEX
  8
0
  5
31842
 10
-374.527
 20
847.590
 30
0.000000
  70
    32
  0
VERTEX
  8
0
  5
31843
 10
-374.529
 20
847.583
 30
0.000000
  70
    32
  0
VERTEX
  8
0
  5
31844
 10
-374.532
 20
847.576
 30
0.000000
  70
    32
  0
VERTEX
  8
0
  5
31845
 10
-374.534
 20
847.569
 30
0.000000
  70
    32
  0
VERTEX
  8
0
  5
31846
 10
-374.536
 20
847.562
 30
0.000000
  70
    32
  0
VERTEX
  8
0
  5
31847
 10
-374.538
 20
847.555
 30
0.000000
  70
    32
  0
VERTEX
  8
0
  5
31848
 10
-374.541
 20
847.547
 30
0.000000
  70
    32
  0
VERTEX
  8
0
  5
31849
 10
-374.543
 20
847.540
 30
0.000000
  70
    32
  0
VERTEX
  8
0
  5
3184A
 10
-374.545
 20
847.533
 30
0.000000
  70
    32
  0
VERTEX
  8
0
  5
3184B
 10
-374.547
 20
847.526
 30
0.000000
  70
    32
  0
VERTEX
  8
0
  5
3184C
 10
-374.549
 20
847.519
 30
0.000000
  70
    32
  0
VERTEX
  8
0
  5
3184D
 10
-374.552
 20
847.512
 30
0.000000
  70
    32
  0
VERTEX
  8
0
  5
3184E
 10
-374.554
 20
847.504
 30
0.000000
  70
    32
  0
VERTEX
  8
0
  5
3184F
 10
-374.556
 20
847.497
 30
0.000000
  70
    32
  0
VERTEX
  8
0
  5
31850
 10
-374.558
 20
847.490
 30
0.000000
  70
    32
  0
VERTEX
  8
0
  5
31851
 10
-374.561
 20
847.483
 30
0.000000
  70
    32
  0
VERTEX
  8
0
  5
31852
 10
-374.563
 20
847.476
 30
0.000000
  70
    32
  0
VERTEX
  8
0
  5
31853
 10
-374.565
 20
847.469
 30
0.000000
  70
    32
  0
VERTEX
  8
0
  5
31854
 10
-374.567
 20
847.462
 30
0.000000
  70
    32
  0
VERTEX
  8
0
  5
31855
 10
-374.570
 20
847.454
 30
0.000000
  70
    32
  0
VERTEX
  8
0
  5
31856
 10
-374.572
 20
847.447
 30
0.000000
  70
    32
  0
VERTEX
  8
0
  5
31857
 10
-374.574
 20
847.440
 30
0.000000
  70
    32
  0
VERTEX
  8
0
  5
31858
 10
-374.577
 20
847.433
 30
0.000000
  70
    32
  0
VERTEX
  8
0
  5
31859
 10
-374.579
 20
847.426
 30
0.000000
  70
    32
  0
VERTEX
  8
0
  5
3185A
 10
-374.581
 20
847.419
 30
0.000000
  70
    32
  0
VERTEX
  8
0
  5
3185B
 10
-374.584
 20
847.412
 30
0.000000
  70
    32
  0
VERTEX
  8
0
  5
3185C
 10
-374.586
 20
847.405
 30
0.000000
  70
    32
  0
VERTEX
  8
0
  5
3185D
 10
-374.588
 20
847.398
 30
0.000000
  70
    32
  0
VERTEX
  8
0
  5
3185E
 10
-374.591
 20
847.391
 30
0.000000
  70
    32
  0
VERTEX
  8
0
  5
3185F
 10
-374.593
 20
847.383
 30
0.000000
  70
    32
  0
VERTEX
  8
0
  5
31860
 10
-374.595
 20
847.376
 30
0.000000
  70
    32
  0
VERTEX
  8
0
  5
31861
 10
-374.598
 20
847.369
 30
0.000000
  70
    32
  0
VERTEX
  8
0
  5
31862
 10
-374.600
 20
847.362
 30
0.000000
  70
    32
  0
VERTEX
  8
0
  5
31863
 10
-374.603
 20
847.355
 30
0.000000
  70
    32
  0
VERTEX
  8
0
  5
31864
 10
-374.605
 20
847.348
 30
0.000000
  70
    32
  0
VERTEX
  8
0
  5
31865
 10
-374.608
 20
847.341
 30
0.000000
  70
    32
  0
VERTEX
  8
0
  5
31866
 10
-374.610
 20
847.334
 30
0.000000
  70
    32
  0
VERTEX
  8
0
  5
31867
 10
-374.613
 20
847.327
 30
0.000000
  70
    32
  0
VERTEX
  8
0
  5
31868
 10
-374.615
 20
847.320
 30
0.000000
  70
    32
  0
VERTEX
  8
0
  5
31869
 10
-374.618
 20
847.313
 30
0.000000
  70
    32
  0
VERTEX
  8
0
  5
3186A
 10
-374.620
 20
847.306
 30
0.000000
  70
    32
  0
VERTEX
  8
0
  5
3186B
 10
-374.623
 20
847.299
 30
0.000000
  70
    32
  0
VERTEX
  8
0
  5
3186C
 10
-374.625
 20
847.292
 30
0.000000
  70
    32
  0
VERTEX
  8
0
  5
3186D
 10
-374.628
 20
847.285
 30
0.000000
  70
    32
  0
VERTEX
  8
0
  5
3186E
 10
-374.630
 20
847.278
 30
0.000000
  70
    32
  0
VERTEX
  8
0
  5
3186F
 10
-374.633
 20
847.271
 30
0.000000
  70
    32
  0
VERTEX
  8
0
  5
31870
 10
-374.636
 20
847.264
 30
0.000000
  70
    32
  0
VERTEX
  8
0
  5
31871
 10
-374.638
 20
847.257
 30
0.000000
  70
    32
  0
VERTEX
  8
0
  5
31872
 10
-374.641
 20
847.250
 30
0.000000
  70
    32
  0
VERTEX
  8
0
  5
31873
 10
-374.644
 20
847.243
 30
0.000000
  70
    32
  0
VERTEX
  8
0
  5
31874
 10
-374.646
 20
847.236
 30
0.000000
  70
    32
  0
VERTEX
  8
0
  5
31875
 10
-374.649
 20
847.229
 30
0.000000
  70
    32
  0
VERTEX
  8
0
  5
31876
 10
-374.652
 20
847.222
 30
0.000000
  70
    32
  0
VERTEX
  8
0
  5
31877
 10
-374.655
 20
847.215
 30
0.000000
  70
    32
  0
VERTEX
  8
0
  5
31878
 10
-374.657
 20
847.208
 30
0.000000
  70
    32
  0
VERTEX
  8
0
  5
31879
 10
-374.660
 20
847.201
 30
0.000000
  70
    32
  0
VERTEX
  8
0
  5
3187A
 10
-374.663
 20
847.194
 30
0.000000
  70
    32
  0
VERTEX
  8
0
  5
3187B
 10
-374.666
 20
847.187
 30
0.000000
  70
    32
  0
VERTEX
  8
0
  5
3187C
 10
-374.669
 20
847.181
 30
0.000000
  70
    32
  0
VERTEX
  8
0
  5
3187D
 10
-374.672
 20
847.174
 30
0.000000
  70
    32
  0
VERTEX
  8
0
  5
3187E
 10
-374.675
 20
847.167
 30
0.000000
  70
    32
  0
VERTEX
  8
0
  5
3187F
 10
-374.677
 20
847.160
 30
0.000000
  70
    32
  0
VERTEX
  8
0
  5
31880
 10
-374.680
 20
847.153
 30
0.000000
  70
    32
  0
VERTEX
  8
0
  5
31881
 10
-374.683
 20
847.146
 30
0.000000
  70
    32
  0
VERTEX
  8
0
  5
31882
 10
-374.686
 20
847.139
 30
0.000000
  70
    32
  0
VERTEX
  8
0
  5
31883
 10
-374.689
 20
847.133
 30
0.000000
  70
    32
  0
VERTEX
  8
0
  5
31884
 10
-374.692
 20
847.126
 30
0.000000
  70
    32
  0
VERTEX
  8
0
  5
31885
 10
-374.695
 20
847.119
 30
0.000000
  70
    32
  0
VERTEX
  8
0
  5
31886
 10
-374.699
 20
847.112
 30
0.000000
  70
    32
  0
VERTEX
  8
0
  5
31887
 10
-374.702
 20
847.105
 30
0.000000
  70
    32
  0
VERTEX
  8
0
  5
31888
 10
-374.705
 20
847.098
 30
0.000000
  70
    32
  0
VERTEX
  8
0
  5
31889
 10
-374.708
 20
847.092
 30
0.000000
  70
    32
  0
VERTEX
  8
0
  5
3188A
 10
-374.711
 20
847.085
 30
0.000000
  70
    32
  0
VERTEX
  8
0
  5
3188B
 10
-374.714
 20
847.078
 30
0.000000
  70
    32
  0
VERTEX
  8
0
  5
3188C
 10
-374.718
 20
847.071
 30
0.000000
  70
    32
  0
VERTEX
  8
0
  5
3188D
 10
-374.721
 20
847.065
 30
0.000000
  70
    32
  0
VERTEX
  8
0
  5
3188E
 10
-374.724
 20
847.058
 30
0.000000
  70
    32
  0
VERTEX
  8
0
  5
3188F
 10
-374.728
 20
847.051
 30
0.000000
  70
    32
  0
VERTEX
  8
0
  5
31890
 10
-374.731
 20
847.045
 30
0.000000
  70
    32
  0
VERTEX
  8
0
  5
31891
 10
-374.734
 20
847.038
 30
0.000000
  70
    32
  0
VERTEX
  8
0
  5
31892
 10
-374.738
 20
847.031
 30
0.000000
  70
    32
  0
VERTEX
  8
0
  5
31893
 10
-374.741
 20
847.025
 30
0.000000
  70
    32
  0
VERTEX
  8
0
  5
31894
 10
-374.745
 20
847.018
 30
0.000000
  70
    32
  0
VERTEX
  8
0
  5
31895
 10
-374.748
 20
847.011
 30
0.000000
  70
    32
  0
VERTEX
  8
0
  5
31896
 10
-374.752
 20
847.005
 30
0.000000
  70
    32
  0
VERTEX
  8
0
  5
31897
 10
-374.755
 20
846.998
 30
0.000000
  70
    32
  0
VERTEX
  8
0
  5
31898
 10
-374.759
 20
846.991
 30
0.000000
  70
    32
  0
VERTEX
  8
0
  5
31899
 10
-374.762
 20
846.985
 30
0.000000
  70
    32
  0
VERTEX
  8
0
  5
3189A
 10
-374.766
 20
846.978
 30
0.000000
  70
    32
  0
VERTEX
  8
0
  5
3189B
 10
-374.770
 20
846.972
 30
0.000000
  70
    32
  0
VERTEX
  8
0
  5
3189C
 10
-374.774
 20
846.965
 30
0.000000
  70
    32
  0
VERTEX
  8
0
  5
3189D
 10
-374.777
 20
846.959
 30
0.000000
  70
    32
  0
VERTEX
  8
0
  5
3189E
 10
-374.781
 20
846.952
 30
0.000000
  70
    32
  0
VERTEX
  8
0
  5
3189F
 10
-374.785
 20
846.946
 30
0.000000
  70
    32
  0
VERTEX
  8
0
  5
318A0
 10
-374.789
 20
846.940
 30
0.000000
  70
    32
  0
VERTEX
  8
0
  5
318A1
 10
-374.793
 20
846.933
 30
0.000000
  70
    32
  0
VERTEX
  8
0
  5
318A2
 10
-374.797
 20
846.927
 30
0.000000
  70
    32
  0
VERTEX
  8
0
  5
318A3
 10
-374.801
 20
846.920
 30
0.000000
  70
    32
  0
VERTEX
  8
0
  5
318A4
 10
-374.805
 20
846.914
 30
0.000000
  70
    32
  0
VERTEX
  8
0
  5
318A5
 10
-374.809
 20
846.908
 30
0.000000
  70
    32
  0
VERTEX
  8
0
  5
318A6
 10
-374.813
 20
846.902
 30
0.000000
  70
    32
  0
VERTEX
  8
0
  5
318A7
 10
-374.817
 20
846.895
 30
0.000000
  70
    32
  0
VERTEX
  8
0
  5
318A8
 10
-374.821
 20
846.889
 30
0.000000
  70
    32
  0
VERTEX
  8
0
  5
318A9
 10
-374.825
 20
846.883
 30
0.000000
  70
    32
  0
VERTEX
  8
0
  5
318AA
 10
-374.829
 20
846.877
 30
0.000000
  70
    32
  0
VERTEX
  8
0
  5
318AB
 10
-374.834
 20
846.871
 30
0.000000
  70
    32
  0
VERTEX
  8
0
  5
318AC
 10
-374.838
 20
846.864
 30
0.000000
  70
    32
  0
VERTEX
  8
0
  5
318AD
 10
-374.842
 20
846.858
 30
0.000000
  70
    32
  0
VERTEX
  8
0
  5
318AE
 10
-374.847
 20
846.852
 30
0.000000
  70
    32
  0
VERTEX
  8
0
  5
318AF
 10
-374.851
 20
846.846
 30
0.000000
  70
    32
  0
VERTEX
  8
0
  5
318B0
 10
-374.855
 20
846.840
 30
0.000000
  70
    32
  0
VERTEX
  8
0
  5
318B1
 10
-374.860
 20
846.834
 30
0.000000
  70
    32
  0
VERTEX
  8
0
  5
318B2
 10
-374.864
 20
846.828
 30
0.000000
  70
    32
  0
VERTEX
  8
0
  5
318B3
 10
-374.869
 20
846.823
 30
0.000000
  70
    32
  0
VERTEX
  8
0
  5
318B4
 10
-374.874
 20
846.817
 30
0.000000
  70
    32
  0
VERTEX
  8
0
  5
318B5
 10
-374.878
 20
846.811
 30
0.000000
  70
    32
  0
VERTEX
  8
0
  5
318B6
 10
-374.883
 20
846.805
 30
0.000000
  70
    32
  0
VERTEX
  8
0
  5
318B7
 10
-374.888
 20
846.799
 30
0.000000
  70
    32
  0
VERTEX
  8
0
  5
318B8
 10
-374.892
 20
846.794
 30
0.000000
  70
    32
  0
VERTEX
  8
0
  5
318B9
 10
-374.897
 20
846.788
 30
0.000000
  70
    32
  0
VERTEX
  8
0
  5
318BA
 10
-374.902
 20
846.782
 30
0.000000
  70
    32
  0
VERTEX
  8
0
  5
318BB
 10
-374.907
 20
846.776
 30
0.000000
  70
    32
  0
VERTEX
  8
0
  5
318BC
 10
-374.912
 20
846.771
 30
0.000000
  70
    32
  0
VERTEX
  8
0
  5
318BD
 10
-374.917
 20
846.765
 30
0.000000
  70
    32
  0
VERTEX
  8
0
  5
318BE
 10
-374.922
 20
846.760
 30
0.000000
  70
    32
  0
VERTEX
  8
0
  5
318BF
 10
-374.927
 20
846.754
 30
0.000000
  70
    32
  0
VERTEX
  8
0
  5
318C0
 10
-374.932
 20
846.749
 30
0.000000
  70
    32
  0
VERTEX
  8
0
  5
318C1
 10
-374.937
 20
846.743
 30
0.000000
  70
    32
  0
VERTEX
  8
0
  5
318C2
 10
-374.942
 20
846.738
 30
0.000000
  70
    32
  0
VERTEX
  8
0
  5
318C3
 10
-374.948
 20
846.732
 30
0.000000
  70
    32
  0
VERTEX
  8
0
  5
318C4
 10
-374.953
 20
846.727
 30
0.000000
  70
    32
  0
VERTEX
  8
0
  5
318C5
 10
-374.958
 20
846.722
 30
0.000000
  70
    32
  0
VERTEX
  8
0
  5
318C6
 10
-374.963
 20
846.716
 30
0.000000
  70
    32
  0
VERTEX
  8
0
  5
318C7
 10
-374.969
 20
846.711
 30
0.000000
  70
    32
  0
VERTEX
  8
0
  5
318C8
 10
-374.974
 20
846.706
 30
0.000000
  70
    32
  0
VERTEX
  8
0
  5
318C9
 10
-374.979
 20
846.701
 30
0.000000
  70
    32
  0
VERTEX
  8
0
  5
318CA
 10
-374.985
 20
846.695
 30
0.000000
  70
    32
  0
VERTEX
  8
0
  5
318CB
 10
-374.990
 20
846.690
 30
0.000000
  70
    32
  0
VERTEX
  8
0
  5
318CC
 10
-374.996
 20
846.685
 30
0.000000
  70
    32
  0
VERTEX
  8
0
  5
318CD
 10
-375.001
 20
846.680
 30
0.000000
  70
    32
  0
VERTEX
  8
0
  5
318CE
 10
-375.007
 20
846.675
 30
0.000000
  70
    32
  0
VERTEX
  8
0
  5
318CF
 10
-375.012
 20
846.670
 30
0.000000
  70
    32
  0
VERTEX
  8
0
  5
318D0
 10
-375.018
 20
846.665
 30
0.000000
  70
    32
  0
VERTEX
  8
0
  5
318D1
 10
-375.024
 20
846.660
 30
0.000000
  70
    32
  0
VERTEX
  8
0
  5
318D2
 10
-375.029
 20
846.655
 30
0.000000
  70
    32
  0
VERTEX
  8
0
  5
318D3
 10
-375.035
 20
846.650
 30
0.000000
  70
    32
  0
VERTEX
  8
0
  5
318D4
 10
-375.041
 20
846.645
 30
0.000000
  70
    32
  0
VERTEX
  8
0
  5
318D5
 10
-375.046
 20
846.640
 30
0.000000
  70
    32
  0
VERTEX
  8
0
  5
318D6
 10
-375.052
 20
846.636
 30
0.000000
  70
    32
  0
VERTEX
  8
0
  5
318D7
 10
-375.058
 20
846.631
 30
0.000000
  70
    32
  0
VERTEX
  8
0
  5
318D8
 10
-375.064
 20
846.626
 30
0.000000
  70
    32
  0
VERTEX
  8
0
  5
318D9
 10
-375.070
 20
846.621
 30
0.000000
  70
    32
  0
VERTEX
  8
0
  5
318DA
 10
-375.075
 20
846.617
 30
0.000000
  70
    32
  0
VERTEX
  8
0
  5
318DB
 10
-375.081
 20
846.612
 30
0.000000
  70
    32
  0
VERTEX
  8
0
  5
318DC
 10
-375.087
 20
846.607
 30
0.000000
  70
    32
  0
VERTEX
  8
0
  5
318DD
 10
-375.093
 20
846.603
 30
0.000000
  70
    32
  0
VERTEX
  8
0
  5
318DE
 10
-375.099
 20
846.598
 30
0.000000
  70
    32
  0
VERTEX
  8
0
  5
318DF
 10
-375.105
 20
846.594
 30
0.000000
  70
    32
  0
VERTEX
  8
0
  5
318E0
 10
-375.111
 20
846.589
 30
0.000000
  70
    32
  0
VERTEX
  8
0
  5
318E1
 10
-375.117
 20
846.585
 30
0.000000
  70
    32
  0
VERTEX
  8
0
  5
318E2
 10
-375.123
 20
846.580
 30
0.000000
  70
    32
  0
VERTEX
  8
0
  5
318E3
 10
-375.129
 20
846.576
 30
0.000000
  70
    32
  0
VERTEX
  8
0
  5
318E4
 10
-375.135
 20
846.571
 30
0.000000
  70
    32
  0
VERTEX
  8
0
  5
318E5
 10
-375.141
 20
846.567
 30
0.000000
  70
    32
  0
VERTEX
  8
0
  5
318E6
 10
-375.147
 20
846.562
 30
0.000000
  70
    32
  0
VERTEX
  8
0
  5
318E7
 10
-375.154
 20
846.558
 30
0.000000
  70
    32
  0
VERTEX
  8
0
  5
318E8
 10
-375.160
 20
846.554
 30
0.000000
  70
    32
  0
VERTEX
  8
0
  5
318E9
 10
-375.166
 20
846.550
 30
0.000000
  70
    32
  0
VERTEX
  8
0
  5
318EA
 10
-375.172
 20
846.545
 30
0.000000
  70
    32
  0
VERTEX
  8
0
  5
318EB
 10
-375.178
 20
846.541
 30
0.000000
  70
    32
  0
VERTEX
  8
0
  5
318EC
 10
-375.185
 20
846.537
 30
0.000000
  70
    32
  0
VERTEX
  8
0
  5
318ED
 10
-375.191
 20
846.533
 30
0.000000
  70
    32
  0
VERTEX
  8
0
  5
318EE
 10
-375.197
 20
846.529
 30
0.000000
  70
    32
  0
VERTEX
  8
0
  5
318EF
 10
-375.203
 20
846.525
 30
0.000000
  70
    32
  0
VERTEX
  8
0
  5
318F0
 10
-375.210
 20
846.520
 30
0.000000
  70
    32
  0
VERTEX
  8
0
  5
318F1
 10
-375.216
 20
846.516
 30
0.000000
  70
    32
  0
VERTEX
  8
0
  5
318F2
 10
-375.222
 20
846.512
 30
0.000000
  70
    32
  0
VERTEX
  8
0
  5
318F3
 10
-375.229
 20
846.508
 30
0.000000
  70
    32
  0
VERTEX
  8
0
  5
318F4
 10
-375.235
 20
846.504
 30
0.000000
  70
    32
  0
VERTEX
  8
0
  5
318F5
 10
-375.241
 20
846.500
 30
0.000000
  70
    32
  0
VERTEX
  8
0
  5
318F6
 10
-375.248
 20
846.497
 30
0.000000
  70
    32
  0
VERTEX
  8
0
  5
318F7
 10
-375.254
 20
846.493
 30
0.000000
  70
    32
  0
VERTEX
  8
0
  5
318F8
 10
-375.261
 20
846.489
 30
0.000000
  70
    32
  0
VERTEX
  8
0
  5
318F9
 10
-375.267
 20
846.485
 30
0.000000
  70
    32
  0
VERTEX
  8
0
  5
318FA
 10
-375.273
 20
846.481
 30
0.000000
  70
    32
  0
VERTEX
  8
0
  5
318FB
 10
-375.280
 20
846.477
 30
0.000000
  70
    32
  0
VERTEX
  8
0
  5
318FC
 10
-375.286
 20
846.474
 30
0.000000
  70
    32
  0
VERTEX
  8
0
  5
318FD
 10
-375.293
 20
846.470
 30
0.000000
  70
    32
  0
VERTEX
  8
0
  5
318FE
 10
-375.299
 20
846.466
 30
0.000000
  70
    32
  0
VERTEX
  8
0
  5
318FF
 10
-375.306
 20
846.463
 30
0.000000
  70
    32
  0
VERTEX
  8
0
  5
31900
 10
-375.312
 20
846.459
 30
0.000000
  70
    32
  0
VERTEX
  8
0
  5
31901
 10
-375.319
 20
846.456
 30
0.000000
  70
    32
  0
VERTEX
  8
0
  5
31902
 10
-375.326
 20
846.452
 30
0.000000
  70
    32
  0
VERTEX
  8
0
  5
31903
 10
-375.332
 20
846.448
 30
0.000000
  70
    32
  0
VERTEX
  8
0
  5
31904
 10
-375.339
 20
846.445
 30
0.000000
  70
    32
  0
VERTEX
  8
0
  5
31905
 10
-375.345
 20
846.441
 30
0.000000
  70
    32
  0
VERTEX
  8
0
  5
31906
 10
-375.352
 20
846.438
 30
0.000000
  70
    32
  0
VERTEX
  8
0
  5
31907
 10
-375.359
 20
846.435
 30
0.000000
  70
    32
  0
VERTEX
  8
0
  5
31908
 10
-375.365
 20
846.431
 30
0.000000
  70
    32
  0
VERTEX
  8
0
  5
31909
 10
-375.372
 20
846.428
 30
0.000000
  70
    32
  0
VERTEX
  8
0
  5
3190A
 10
-375.379
 20
846.425
 30
0.000000
  70
    32
  0
VERTEX
  8
0
  5
3190B
 10
-375.385
 20
846.421
 30
0.000000
  70
    32
  0
VERTEX
  8
0
  5
3190C
 10
-375.392
 20
846.418
 30
0.000000
  70
    32
  0
VERTEX
  8
0
  5
3190D
 10
-375.399
 20
846.415
 30
0.000000
  70
    32
  0
VERTEX
  8
0
  5
3190E
 10
-375.406
 20
846.412
 30
0.000000
  70
    32
  0
VERTEX
  8
0
  5
3190F
 10
-375.412
 20
846.408
 30
0.000000
  70
    32
  0
VERTEX
  8
0
  5
31910
 10
-375.419
 20
846.405
 30
0.000000
  70
    32
  0
VERTEX
  8
0
  5
31911
 10
-375.426
 20
846.402
 30
0.000000
  70
    32
  0
VERTEX
  8
0
  5
31912
 10
-375.433
 20
846.399
 30
0.000000
  70
    32
  0
VERTEX
  8
0
  5
31913
 10
-375.439
 20
846.396
 30
0.000000
  70
    32
  0
VERTEX
  8
0
  5
31914
 10
-375.446
 20
846.393
 30
0.000000
  70
    32
  0
VERTEX
  8
0
  5
31915
 10
-375.453
 20
846.390
 30
0.000000
  70
    32
  0
VERTEX
  8
0
  5
31916
 10
-375.460
 20
846.387
 30
0.000000
  70
    32
  0
VERTEX
  8
0
  5
31917
 10
-375.467
 20
846.384
 30
0.000000
  70
    32
  0
VERTEX
  8
0
  5
31918
 10
-375.474
 20
846.381
 30
0.000000
  70
    32
  0
VERTEX
  8
0
  5
31919
 10
-375.481
 20
846.378
 30
0.000000
  70
    32
  0
VERTEX
  8
0
  5
3191A
 10
-375.488
 20
846.375
 30
0.000000
  70
    32
  0
VERTEX
  8
0
  5
3191B
 10
-375.495
 20
846.373
 30
0.000000
  70
    32
  0
VERTEX
  8
0
  5
3191C
 10
-375.501
 20
846.370
 30
0.000000
  70
    32
  0
VERTEX
  8
0
  5
3191D
 10
-375.508
 20
846.367
 30
0.000000
  70
    32
  0
VERTEX
  8
0
  5
3191E
 10
-375.515
 20
846.364
 30
0.000000
  70
    32
  0
VERTEX
  8
0
  5
3191F
 10
-375.522
 20
846.362
 30
0.000000
  70
    32
  0
VERTEX
  8
0
  5
31920
 10
-375.529
 20
846.359
 30
0.000000
  70
    32
  0
VERTEX
  8
0
  5
31921
 10
-375.536
 20
846.356
 30
0.000000
  70
    32
  0
VERTEX
  8
0
  5
31922
 10
-375.543
 20
846.354
 30
0.000000
  70
    32
  0
VERTEX
  8
0
  5
31923
 10
-375.550
 20
846.351
 30
0.000000
  70
    32
  0
VERTEX
  8
0
  5
31924
 10
-375.558
 20
846.349
 30
0.000000
  70
    32
  0
VERTEX
  8
0
  5
31925
 10
-375.565
 20
846.346
 30
0.000000
  70
    32
  0
VERTEX
  8
0
  5
31926
 10
-375.572
 20
846.344
 30
0.000000
  70
    32
  0
VERTEX
  8
0
  5
31927
 10
-375.579
 20
846.342
 30
0.000000
  70
    32
  0
VERTEX
  8
0
  5
31928
 10
-375.586
 20
846.339
 30
0.000000
  70
    32
  0
VERTEX
  8
0
  5
31929
 10
-375.593
 20
846.337
 30
0.000000
  70
    32
  0
VERTEX
  8
0
  5
3192A
 10
-375.600
 20
846.335
 30
0.000000
  70
    32
  0
VERTEX
  8
0
  5
3192B
 10
-375.607
 20
846.332
 30
0.000000
  70
    32
  0
VERTEX
  8
0
  5
3192C
 10
-375.614
 20
846.330
 30
0.000000
  70
    32
  0
VERTEX
  8
0
  5
3192D
 10
-375.622
 20
846.328
 30
0.000000
  70
    32
  0
VERTEX
  8
0
  5
3192E
 10
-375.629
 20
846.326
 30
0.000000
  70
    32
  0
VERTEX
  8
0
  5
3192F
 10
-375.636
 20
846.324
 30
0.000000
  70
    32
  0
VERTEX
  8
0
  5
31930
 10
-375.643
 20
846.322
 30
0.000000
  70
    32
  0
VERTEX
  8
0
  5
31931
 10
-375.650
 20
846.320
 30
0.000000
  70
    32
  0
VERTEX
  8
0
  5
31932
 10
-375.657
 20
846.318
 30
0.000000
  70
    32
  0
VERTEX
  8
0
  5
31933
 10
-375.665
 20
846.316
 30
0.000000
  70
    32
  0
VERTEX
  8
0
  5
31934
 10
-375.672
 20
846.314
 30
0.000000
  70
    32
  0
VERTEX
  8
0
  5
31935
 10
-375.679
 20
846.313
 30
0.000000
  70
    32
  0
VERTEX
  8
0
  5
31936
 10
-375.686
 20
846.311
 30
0.000000
  70
    32
  0
VERTEX
  8
0
  5
31937
 10
-375.694
 20
846.309
 30
0.000000
  70
    32
  0
VERTEX
  8
0
  5
31938
 10
-375.701
 20
846.307
 30
0.000000
  70
    32
  0
VERTEX
  8
0
  5
31939
 10
-375.708
 20
846.306
 30
0.000000
  70
    32
  0
VERTEX
  8
0
  5
3193A
 10
-375.716
 20
846.304
 30
0.000000
  70
    32
  0
VERTEX
  8
0
  5
3193B
 10
-375.723
 20
846.303
 30
0.000000
  70
    32
  0
VERTEX
  8
0
  5
3193C
 10
-375.730
 20
846.301
 30
0.000000
  70
    32
  0
VERTEX
  8
0
  5
3193D
 10
-375.738
 20
846.300
 30
0.000000
  70
    32
  0
VERTEX
  8
0
  5
3193E
 10
-375.745
 20
846.298
 30
0.000000
  70
    32
  0
VERTEX
  8
0
  5
3193F
 10
-375.752
 20
846.297
 30
0.000000
  70
    32
  0
VERTEX
  8
0
  5
31940
 10
-375.760
 20
846.296
 30
0.000000
  70
    32
  0
VERTEX
  8
0
  5
31941
 10
-375.767
 20
846.294
 30
0.000000
  70
    32
  0
VERTEX
  8
0
  5
31942
 10
-375.774
 20
846.293
 30
0.000000
  70
    32
  0
VERTEX
  8
0
  5
31943
 10
-375.782
 20
846.292
 30
0.000000
  70
    32
  0
VERTEX
  8
0
  5
31944
 10
-375.789
 20
846.291
 30
0.000000
  70
    32
  0
VERTEX
  8
0
  5
31945
 10
-375.797
 20
846.290
 30
0.000000
  70
    32
  0
VERTEX
  8
0
  5
31946
 10
-375.804
 20
846.289
 30
0.000000
  70
    32
  0
VERTEX
  8
0
  5
31947
 10
-375.811
 20
846.288
 30
0.000000
  70
    32
  0
VERTEX
  8
0
  5
31948
 10
-375.819
 20
846.287
 30
0.000000
  70
    32
  0
VERTEX
  8
0
  5
31949
 10
-375.826
 20
846.286
 30
0.000000
  70
    32
  0
VERTEX
  8
0
  5
3194A
 10
-375.834
 20
846.285
 30
0.000000
  70
    32
  0
VERTEX
  8
0
  5
3194B
 10
-375.841
 20
846.284
 30
0.000000
  70
    32
  0
VERTEX
  8
0
  5
3194C
 10
-375.849
 20
846.283
 30
0.000000
  70
    32
  0
VERTEX
  8
0
  5
3194D
 10
-375.856
 20
846.282
 30
0.000000
  70
    32
  0
VERTEX
  8
0
  5
3194E
 10
-375.863
 20
846.281
 30
0.000000
  70
    32
  0
VERTEX
  8
0
  5
3194F
 10
-375.871
 20
846.280
 30
0.000000
  70
    32
  0
VERTEX
  8
0
  5
31950
 10
-375.878
 20
846.280
 30
0.000000
  70
    32
  0
VERTEX
  8
0
  5
31951
 10
-375.886
 20
846.279
 30
0.000000
  70
    32
  0
VERTEX
  8
0
  5
31952
 10
-375.893
 20
846.278
 30
0.000000
  70
    32
  0
VERTEX
  8
0
  5
31953
 10
-375.901
 20
846.278
 30
0.000000
  70
    32
  0
VERTEX
  8
0
  5
31954
 10
-375.908
 20
846.277
 30
0.000000
  70
    32
  0
VERTEX
  8
0
  5
31955
 10
-375.915
 20
846.277
 30
0.000000
  70
    32
  0
SEQEND
  8
0
  5
31956
  0
POLYLINE
  8
0
  5
31957
  66
     1
 10
0.000000
 20
0.000000
 30
0.000000
  70
     8
  0
VERTEX
  8
0
  5
31958
 10
-376.135
 20
846.172
 30
0.000000
  70
    32
  0
VERTEX
  8
0
  5
31959
 10
-376.133
 20
846.169
 30
0.000000
  70
    32
  0
VERTEX
  8
0
  5
3195A
 10
-376.130
 20
846.167
 30
0.000000
  70
    32
  0
VERTEX
  8
0
  5
3195B
 10
-376.128
 20
846.165
 30
0.000000
  70
    32
  0
VERTEX
  8
0
  5
3195C
 10
-376.125
 20
846.162
 30
0.000000
  70
    32
  0
VERTEX
  8
0
  5
3195D
 10
-376.123
 20
846.160
 30
0.000000
  70
    32
  0
VERTEX
  8
0
  5
3195E
 10
-376.121
 20
846.157
 30
0.000000
  70
    32
  0
VERTEX
  8
0
  5
3195F
 10
-376.118
 20
846.155
 30
0.000000
  70
    32
  0
VERTEX
  8
0
  5
31960
 10
-376.116
 20
846.152
 30
0.000000
  70
    32
  0
VERTEX
  8
0
  5
31961
 10
-376.113
 20
846.150
 30
0.000000
  70
    32
  0
VERTEX
  8
0
  5
31962
 10
-376.111
 20
846.148
 30
0.000000
  70
    32
  0
VERTEX
  8
0
  5
31963
 10
-376.108
 20
846.145
 30
0.000000
  70
    32
  0
VERTEX
  8
0
  5
31964
 10
-376.106
 20
846.143
 30
0.000000
  70
    32
  0
VERTEX
  8
0
  5
31965
 10
-376.103
 20
846.140
 30
0.000000
  70
    32
  0
VERTEX
  8
0
  5
31966
 10
-376.101
 20
846.138
 30
0.000000
  70
    32
  0
VERTEX
  8
0
  5
31967
 10
-376.098
 20
846.136
 30
0.000000
  70
    32
  0
VERTEX
  8
0
  5
31968
 10
-376.096
 20
846.133
 30
0.000000
  70
    32
  0
VERTEX
  8
0
  5
31969
 10
-376.093
 20
846.131
 30
0.000000
  70
    32
  0
VERTEX
  8
0
  5
3196A
 10
-376.091
 20
846.129
 30
0.000000
  70
    32
  0
VERTEX
  8
0
  5
3196B
 10
-376.089
 20
846.126
 30
0.000000
  70
    32
  0
VERTEX
  8
0
  5
3196C
 10
-376.086
 20
846.124
 30
0.000000
  70
    32
  0
VERTEX
  8
0
  5
3196D
 10
-376.084
 20
846.121
 30
0.000000
  70
    32
  0
VERTEX
  8
0
  5
3196E
 10
-376.081
 20
846.119
 30
0.000000
  70
    32
  0
VERTEX
  8
0
  5
3196F
 10
-376.079
 20
846.116
 30
0.000000
  70
    32
  0
VERTEX
  8
0
  5
31970
 10
-376.076
 20
846.114
 30
0.000000
  70
    32
  0
VERTEX
  8
0
  5
31971
 10
-376.074
 20
846.112
 30
0.000000
  70
    32
  0
VERTEX
  8
0
  5
31972
 10
-376.072
 20
846.109
 30
0.000000
  70
    32
  0
VERTEX
  8
0
  5
31973
 10
-376.069
 20
846.107
 30
0.000000
  70
    32
  0
VERTEX
  8
0
  5
31974
 10
-376.067
 20
846.104
 30
0.000000
  70
    32
  0
VERTEX
  8
0
  5
31975
 10
-376.064
 20
846.102
 30
0.000000
  70
    32
  0
VERTEX
  8
0
  5
31976
 10
-376.062
 20
846.099
 30
0.000000
  70
    32
  0
VERTEX
  8
0
  5
31977
 10
-376.060
 20
846.097
 30
0.000000
  70
    32
  0
VERTEX
  8
0
  5
31978
 10
-376.057
 20
846.094
 30
0.000000
  70
    32
  0
VERTEX
  8
0
  5
31979
 10
-376.055
 20
846.092
 30
0.000000
  70
    32
  0
VERTEX
  8
0
  5
3197A
 10
-376.053
 20
846.089
 30
0.000000
  70
    32
  0
VERTEX
  8
0
  5
3197B
 10
-376.050
 20
846.087
 30
0.000000
  70
    32
  0
VERTEX
  8
0
  5
3197C
 10
-376.048
 20
846.084
 30
0.000000
  70
    32
  0
VERTEX
  8
0
  5
3197D
 10
-376.046
 20
846.082
 30
0.000000
  70
    32
  0
VERTEX
  8
0
  5
3197E
 10
-376.043
 20
846.079
 30
0.000000
  70
    32
  0
VERTEX
  8
0
  5
3197F
 10
-376.041
 20
846.076
 30
0.000000
  70
    32
  0
VERTEX
  8
0
  5
31980
 10
-376.039
 20
846.074
 30
0.000000
  70
    32
  0
VERTEX
  8
0
  5
31981
 10
-376.037
 20
846.071
 30
0.000000
  70
    32
  0
VERTEX
  8
0
  5
31982
 10
-376.034
 20
846.068
 30
0.000000
  70
    32
  0
VERTEX
  8
0
  5
31983
 10
-376.032
 20
846.066
 30
0.000000
  70
    32
  0
VERTEX
  8
0
  5
31984
 10
-376.030
 20
846.063
 30
0.000000
  70
    32
  0
VERTEX
  8
0
  5
31985
 10
-376.028
 20
846.060
 30
0.000000
  70
    32
  0
VERTEX
  8
0
  5
31986
 10
-376.026
 20
846.058
 30
0.000000
  70
    32
  0
VERTEX
  8
0
  5
31987
 10
-376.024
 20
846.055
 30
0.000000
  70
    32
  0
VERTEX
  8
0
  5
31988
 10
-376.022
 20
846.052
 30
0.000000
  70
    32
  0
VERTEX
  8
0
  5
31989
 10
-376.020
 20
846.049
 30
0.000000
  70
    32
  0
VERTEX
  8
0
  5
3198A
 10
-376.018
 20
846.046
 30
0.000000
  70
    32
  0
VERTEX
  8
0
  5
3198B
 10
-376.016
 20
846.044
 30
0.000000
  70
    32
  0
VERTEX
  8
0
  5
3198C
 10
-376.014
 20
846.041
 30
0.000000
  70
    32
  0
VERTEX
  8
0
  5
3198D
 10
-376.012
 20
846.038
 30
0.000000
  70
    32
  0
VERTEX
  8
0
  5
3198E
 10
-376.010
 20
846.035
 30
0.000000
  70
    32
  0
VERTEX
  8
0
  5
3198F
 10
-376.008
 20
846.032
 30
0.000000
  70
    32
  0
VERTEX
  8
0
  5
31990
 10
-376.006
 20
846.029
 30
0.000000
  70
    32
  0
VERTEX
  8
0
  5
31991
 10
-376.004
 20
846.026
 30
0.000000
  70
    32
  0
VERTEX
  8
0
  5
31992
 10
-376.002
 20
846.023
 30
0.000000
  70
    32
  0
VERTEX
  8
0
  5
31993
 10
-376.000
 20
846.021
 30
0.000000
  70
    32
  0
VERTEX
  8
0
  5
31994
 10
-375.998
 20
846.018
 30
0.000000
  70
    32
  0
VERTEX
  8
0
  5
31995
 10
-375.997
 20
846.015
 30
0.000000
  70
    32
  0
VERTEX
  8
0
  5
31996
 10
-375.995
 20
846.012
 30
0.000000
  70
    32
  0
VERTEX
  8
0
  5
31997
 10
-375.993
 20
846.009
 30
0.000000
  70
    32
  0
VERTEX
  8
0
  5
31998
 10
-375.992
 20
846.006
 30
0.000000
  70
    32
  0
VERTEX
  8
0
  5
31999
 10
-375.990
 20
846.003
 30
0.000000
  70
    32
  0
VERTEX
  8
0
  5
3199A
 10
-375.988
 20
845.999
 30
0.000000
  70
    32
  0
VERTEX
  8
0
  5
3199B
 10
-375.987
 20
845.996
 30
0.000000
  70
    32
  0
VERTEX
  8
0
  5
3199C
 10
-375.985
 20
845.993
 30
0.000000
  70
    32
  0
VERTEX
  8
0
  5
3199D
 10
-375.984
 20
845.990
 30
0.000000
  70
    32
  0
VERTEX
  8
0
  5
3199E
 10
-375.982
 20
845.987
 30
0.000000
  70
    32
  0
VERTEX
  8
0
  5
3199F
 10
-375.981
 20
845.984
 30
0.000000
  70
    32
  0
VERTEX
  8
0
  5
319A0
 10
-375.979
 20
845.981
 30
0.000000
  70
    32
  0
VERTEX
  8
0
  5
319A1
 10
-375.978
 20
845.978
 30
0.000000
  70
    32
  0
VERTEX
  8
0
  5
319A2
 10
-375.976
 20
845.975
 30
0.000000
  70
    32
  0
VERTEX
  8
0
  5
319A3
 10
-375.975
 20
845.971
 30
0.000000
  70
    32
  0
VERTEX
  8
0
  5
319A4
 10
-375.974
 20
845.968
 30
0.000000
  70
    32
  0
VERTEX
  8
0
  5
319A5
 10
-375.972
 20
845.965
 30
0.000000
  70
    32
  0
VERTEX
  8
0
  5
319A6
 10
-375.971
 20
845.962
 30
0.000000
  70
    32
  0
VERTEX
  8
0
  5
319A7
 10
-375.970
 20
845.958
 30
0.000000
  70
    32
  0
VERTEX
  8
0
  5
319A8
 10
-375.969
 20
845.955
 30
0.000000
  70
    32
  0
VERTEX
  8
0
  5
319A9
 10
-375.968
 20
845.952
 30
0.000000
  70
    32
  0
VERTEX
  8
0
  5
319AA
 10
-375.967
 20
845.949
 30
0.000000
  70
    32
  0
VERTEX
  8
0
  5
319AB
 10
-375.966
 20
845.945
 30
0.000000
  70
    32
  0
VERTEX
  8
0
  5
319AC
 10
-375.965
 20
845.942
 30
0.000000
  70
    32
  0
VERTEX
  8
0
  5
319AD
 10
-375.964
 20
845.939
 30
0.000000
  70
    32
  0
VERTEX
  8
0
  5
319AE
 10
-375.963
 20
845.935
 30
0.000000
  70
    32
  0
VERTEX
  8
0
  5
319AF
 10
-375.962
 20
845.932
 30
0.000000
  70
    32
  0
VERTEX
  8
0
  5
319B0
 10
-375.961
 20
845.928
 30
0.000000
  70
    32
  0
VERTEX
  8
0
  5
319B1
 10
-375.960
 20
845.925
 30
0.000000
  70
    32
  0
VERTEX
  8
0
  5
319B2
 10
-375.959
 20
845.922
 30
0.000000
  70
    32
  0
VERTEX
  8
0
  5
319B3
 10
-375.959
 20
845.918
 30
0.000000
  70
    32
  0
VERTEX
  8
0
  5
319B4
 10
-375.958
 20
845.915
 30
0.000000
  70
    32
  0
VERTEX
  8
0
  5
319B5
 10
-375.957
 20
845.911
 30
0.000000
  70
    32
  0
VERTEX
  8
0
  5
319B6
 10
-375.957
 20
845.908
 30
0.000000
  70
    32
  0
VERTEX
  8
0
  5
319B7
 10
-375.956
 20
845.905
 30
0.000000
  70
    32
  0
VERTEX
  8
0
  5
319B8
 10
-375.956
 20
845.901
 30
0.000000
  70
    32
  0
VERTEX
  8
0
  5
319B9
 10
-375.955
 20
845.898
 30
0.000000
  70
    32
  0
VERTEX
  8
0
  5
319BA
 10
-375.955
 20
845.894
 30
0.000000
  70
    32
  0
VERTEX
  8
0
  5
319BB
 10
-375.954
 20
845.891
 30
0.000000
  70
    32
  0
VERTEX
  8
0
  5
319BC
 10
-375.954
 20
845.887
 30
0.000000
  70
    32
  0
VERTEX
  8
0
  5
319BD
 10
-375.953
 20
845.884
 30
0.000000
  70
    32
  0
VERTEX
  8
0
  5
319BE
 10
-375.953
 20
845.880
 30
0.000000
  70
    32
  0
VERTEX
  8
0
  5
319BF
 10
-375.953
 20
845.877
 30
0.000000
  70
    32
  0
VERTEX
  8
0
  5
319C0
 10
-375.953
 20
845.873
 30
0.000000
  70
    32
  0
VERTEX
  8
0
  5
319C1
 10
-375.952
 20
845.870
 30
0.000000
  70
    32
  0
VERTEX
  8
0
  5
319C2
 10
-375.952
 20
845.866
 30
0.000000
  70
    32
  0
VERTEX
  8
0
  5
319C3
 10
-375.952
 20
845.863
 30
0.000000
  70
    32
  0
VERTEX
  8
0
  5
319C4
 10
-375.952
 20
845.859
 30
0.000000
  70
    32
  0
VERTEX
  8
0
  5
319C5
 10
-375.952
 20
845.856
 30
0.000000
  70
    32
  0
VERTEX
  8
0
  5
319C6
 10
-375.952
 20
845.852
 30
0.000000
  70
    32
  0
VERTEX
  8
0
  5
319C7
 10
-375.952
 20
845.849
 30
0.000000
  70
    32
  0
VERTEX
  8
0
  5
319C8
 10
-375.952
 20
845.845
 30
0.000000
  70
    32
  0
VERTEX
  8
0
  5
319C9
 10
-375.952
 20
845.842
 30
0.000000
  70
    32
  0
VERTEX
  8
0
  5
319CA
 10
-375.953
 20
845.838
 30
0.000000
  70
    32
  0
VERTEX
  8
0
  5
319CB
 10
-375.953
 20
845.835
 30
0.000000
  70
    32
  0
VERTEX
  8
0
  5
319CC
 10
-375.953
 20
845.831
 30
0.000000
  70
    32
  0
VERTEX
  8
0
  5
319CD
 10
-375.953
 20
845.828
 30
0.000000
  70
    32
  0
VERTEX
  8
0
  5
319CE
 10
-375.954
 20
845.824
 30
0.000000
  70
    32
  0
VERTEX
  8
0
  5
319CF
 10
-375.954
 20
845.821
 30
0.000000
  70
    32
  0
VERTEX
  8
0
  5
319D0
 10
-375.955
 20
845.817
 30
0.000000
  70
    32
  0
VERTEX
  8
0
  5
319D1
 10
-375.955
 20
845.814
 30
0.000000
  70
    32
  0
VERTEX
  8
0
  5
319D2
 10
-375.956
 20
845.811
 30
0.000000
  70
    32
  0
VERTEX
  8
0
  5
319D3
 10
-375.956
 20
845.807
 30
0.000000
  70
    32
  0
VERTEX
  8
0
  5
319D4
 10
-375.957
 20
845.804
 30
0.000000
  70
    32
  0
VERTEX
  8
0
  5
319D5
 10
-375.957
 20
845.800
 30
0.000000
  70
    32
  0
VERTEX
  8
0
  5
319D6
 10
-375.958
 20
845.797
 30
0.000000
  70
    32
  0
VERTEX
  8
0
  5
319D7
 10
-375.959
 20
845.793
 30
0.000000
  70
    32
  0
VERTEX
  8
0
  5
319D8
 10
-375.960
 20
845.790
 30
0.000000
  70
    32
  0
VERTEX
  8
0
  5
319D9
 10
-375.960
 20
845.787
 30
0.000000
  70
    32
  0
VERTEX
  8
0
  5
319DA
 10
-375.961
 20
845.783
 30
0.000000
  70
    32
  0
VERTEX
  8
0
  5
319DB
 10
-375.962
 20
845.780
 30
0.000000
  70
    32
  0
VERTEX
  8
0
  5
319DC
 10
-375.963
 20
845.777
 30
0.000000
  70
    32
  0
VERTEX
  8
0
  5
319DD
 10
-375.964
 20
845.773
 30
0.000000
  70
    32
  0
VERTEX
  8
0
  5
319DE
 10
-375.965
 20
845.770
 30
0.000000
  70
    32
  0
VERTEX
  8
0
  5
319DF
 10
-375.966
 20
845.767
 30
0.000000
  70
    32
  0
VERTEX
  8
0
  5
319E0
 10
-375.967
 20
845.763
 30
0.000000
  70
    32
  0
VERTEX
  8
0
  5
319E1
 10
-375.969
 20
845.760
 30
0.000000
  70
    32
  0
VERTEX
  8
0
  5
319E2
 10
-375.970
 20
845.757
 30
0.000000
  70
    32
  0
VERTEX
  8
0
  5
319E3
 10
-375.971
 20
845.754
 30
0.000000
  70
    32
  0
VERTEX
  8
0
  5
319E4
 10
-375.972
 20
845.750
 30
0.000000
  70
    32
  0
VERTEX
  8
0
  5
319E5
 10
-375.974
 20
845.747
 30
0.000000
  70
    32
  0
VERTEX
  8
0
  5
319E6
 10
-375.975
 20
845.744
 30
0.000000
  70
    32
  0
VERTEX
  8
0
  5
319E7
 10
-375.976
 20
845.741
 30
0.000000
  70
    32
  0
VERTEX
  8
0
  5
319E8
 10
-375.978
 20
845.738
 30
0.000000
  70
    32
  0
VERTEX
  8
0
  5
319E9
 10
-375.979
 20
845.735
 30
0.000000
  70
    32
  0
VERTEX
  8
0
  5
319EA
 10
-375.981
 20
845.731
 30
0.000000
  70
    32
  0
VERTEX
  8
0
  5
319EB
 10
-375.982
 20
845.728
 30
0.000000
  70
    32
  0
VERTEX
  8
0
  5
319EC
 10
-375.984
 20
845.725
 30
0.000000
  70
    32
  0
VERTEX
  8
0
  5
319ED
 10
-375.986
 20
845.722
 30
0.000000
  70
    32
  0
VERTEX
  8
0
  5
319EE
 10
-375.987
 20
845.719
 30
0.000000
  70
    32
  0
VERTEX
  8
0
  5
319EF
 10
-375.989
 20
845.716
 30
0.000000
  70
    32
  0
VERTEX
  8
0
  5
319F0
 10
-375.991
 20
845.713
 30
0.000000
  70
    32
  0
VERTEX
  8
0
  5
319F1
 10
-375.993
 20
845.710
 30
0.000000
  70
    32
  0
VERTEX
  8
0
  5
319F2
 10
-375.994
 20
845.707
 30
0.000000
  70
    32
  0
VERTEX
  8
0
  5
319F3
 10
-375.996
 20
845.704
 30
0.000000
  70
    32
  0
VERTEX
  8
0
  5
319F4
 10
-375.998
 20
845.701
 30
0.000000
  70
    32
  0
VERTEX
  8
0
  5
319F5
 10
-376.000
 20
845.698
 30
0.000000
  70
    32
  0
VERTEX
  8
0
  5
319F6
 10
-376.002
 20
845.695
 30
0.000000
  70
    32
  0
VERTEX
  8
0
  5
319F7
 10
-376.004
 20
845.692
 30
0.000000
  70
    32
  0
VERTEX
  8
0
  5
319F8
 10
-376.006
 20
845.690
 30
0.000000
  70
    32
  0
VERTEX
  8
0
  5
319F9
 10
-376.008
 20
845.687
 30
0.000000
  70
    32
  0
VERTEX
  8
0
  5
319FA
 10
-376.010
 20
845.684
 30
0.000000
  70
    32
  0
VERTEX
  8
0
  5
319FB
 10
-376.012
 20
845.681
 30
0.000000
  70
    32
  0
VERTEX
  8
0
  5
319FC
 10
-376.014
 20
845.678
 30
0.000000
  70
    32
  0
VERTEX
  8
0
  5
319FD
 10
-376.016
 20
845.676
 30
0.000000
  70
    32
  0
VERTEX
  8
0
  5
319FE
 10
-376.019
 20
845.673
 30
0.000000
  70
    32
  0
VERTEX
  8
0
  5
319FF
 10
-376.021
 20
845.670
 30
0.000000
  70
    32
  0
VERTEX
  8
0
  5
31A00
 10
-376.023
 20
845.667
 30
0.000000
  70
    32
  0
VERTEX
  8
0
  5
31A01
 10
-376.025
 20
845.665
 30
0.000000
  70
    32
  0
VERTEX
  8
0
  5
31A02
 10
-376.027
 20
845.662
 30
0.000000
  70
    32
  0
VERTEX
  8
0
  5
31A03
 10
-376.030
 20
845.659
 30
0.000000
  70
    32
  0
VERTEX
  8
0
  5
31A04
 10
-376.032
 20
845.657
 30
0.000000
  70
    32
  0
VERTEX
  8
0
  5
31A05
 10
-376.034
 20
845.654
 30
0.000000
  70
    32
  0
VERTEX
  8
0
  5
31A06
 10
-376.037
 20
845.652
 30
0.000000
  70
    32
  0
VERTEX
  8
0
  5
31A07
 10
-376.039
 20
845.649
 30
0.000000
  70
    32
  0
VERTEX
  8
0
  5
31A08
 10
-376.042
 20
845.647
 30
0.000000
  70
    32
  0
VERTEX
  8
0
  5
31A09
 10
-376.044
 20
845.644
 30
0.000000
  70
    32
  0
VERTEX
  8
0
  5
31A0A
 10
-376.047
 20
845.642
 30
0.000000
  70
    32
  0
VERTEX
  8
0
  5
31A0B
 10
-376.049
 20
845.639
 30
0.000000
  70
    32
  0
VERTEX
  8
0
  5
31A0C
 10
-376.052
 20
845.637
 30
0.000000
  70
    32
  0
VERTEX
  8
0
  5
31A0D
 10
-376.054
 20
845.634
 30
0.000000
  70
    32
  0
VERTEX
  8
0
  5
31A0E
 10
-376.057
 20
845.632
 30
0.000000
  70
    32
  0
VERTEX
  8
0
  5
31A0F
 10
-376.059
 20
845.630
 30
0.000000
  70
    32
  0
VERTEX
  8
0
  5
31A10
 10
-376.062
 20
845.627
 30
0.000000
  70
    32
  0
VERTEX
  8
0
  5
31A11
 10
-376.064
 20
845.625
 30
0.000000
  70
    32
  0
VERTEX
  8
0
  5
31A12
 10
-376.067
 20
845.623
 30
0.000000
  70
    32
  0
VERTEX
  8
0
  5
31A13
 10
-376.070
 20
845.621
 30
0.000000
  70
    32
  0
VERTEX
  8
0
  5
31A14
 10
-376.072
 20
845.618
 30
0.000000
  70
    32
  0
VERTEX
  8
0
  5
31A15
 10
-376.075
 20
845.616
 30
0.000000
  70
    32
  0
VERTEX
  8
0
  5
31A16
 10
-376.078
 20
845.614
 30
0.000000
  70
    32
  0
VERTEX
  8
0
  5
31A17
 10
-376.080
 20
845.612
 30
0.000000
  70
    32
  0
VERTEX
  8
0
  5
31A18
 10
-376.083
 20
845.610
 30
0.000000
  70
    32
  0
VERTEX
  8
0
  5
31A19
 10
-376.086
 20
845.608
 30
0.000000
  70
    32
  0
VERTEX
  8
0
  5
31A1A
 10
-376.089
 20
845.606
 30
0.000000
  70
    32
  0
VERTEX
  8
0
  5
31A1B
 10
-376.091
 20
845.604
 30
0.000000
  70
    32
  0
VERTEX
  8
0
  5
31A1C
 10
-376.094
 20
845.602
 30
0.000000
  70
    32
  0
VERTEX
  8
0
  5
31A1D
 10
-376.097
 20
845.600
 30
0.000000
  70
    32
  0
VERTEX
  8
0
  5
31A1E
 10
-376.100
 20
845.598
 30
0.000000
  70
    32
  0
VERTEX
  8
0
  5
31A1F
 10
-376.103
 20
845.596
 30
0.000000
  70
    32
  0
VERTEX
  8
0
  5
31A20
 10
-376.106
 20
845.594
 30
0.000000
  70
    32
  0
VERTEX
  8
0
  5
31A21
 10
-376.108
 20
845.592
 30
0.000000
  70
    32
  0
VERTEX
  8
0
  5
31A22
 10
-376.111
 20
845.590
 30
0.000000
  70
    32
  0
VERTEX
  8
0
  5
31A23
 10
-376.114
 20
845.588
 30
0.000000
  70
    32
  0
VERTEX
  8
0
  5
31A24
 10
-376.117
 20
845.586
 30
0.000000
  70
    32
  0
VERTEX
  8
0
  5
31A25
 10
-376.120
 20
845.584
 30
0.000000
  70
    32
  0
VERTEX
  8
0
  5
31A26
 10
-376.123
 20
845.583
 30
0.000000
  70
    32
  0
VERTEX
  8
0
  5
31A27
 10
-376.126
 20
845.581
 30
0.000000
  70
    32
  0
VERTEX
  8
0
  5
31A28
 10
-376.129
 20
845.579
 30
0.000000
  70
    32
  0
VERTEX
  8
0
  5
31A29
 10
-376.132
 20
845.577
 30
0.000000
  70
    32
  0
VERTEX
  8
0
  5
31A2A
 10
-376.135
 20
845.575
 30
0.000000
  70
    32
  0
VERTEX
  8
0
  5
31A2B
 10
-376.138
 20
845.574
 30
0.000000
  70
    32
  0
VERTEX
  8
0
  5
31A2C
 10
-376.141
 20
845.572
 30
0.000000
  70
    32
  0
VERTEX
  8
0
  5
31A2D
 10
-376.144
 20
845.570
 30
0.000000
  70
    32
  0
VERTEX
  8
0
  5
31A2E
 10
-376.147
 20
845.569
 30
0.000000
  70
    32
  0
VERTEX
  8
0
  5
31A2F
 10
-376.150
 20
845.567
 30
0.000000
  70
    32
  0
VERTEX
  8
0
  5
31A30
 10
-376.153
 20
845.565
 30
0.000000
  70
    32
  0
VERTEX
  8
0
  5
31A31
 10
-376.156
 20
845.564
 30
0.000000
  70
    32
  0
VERTEX
  8
0
  5
31A32
 10
-376.159
 20
845.562
 30
0.000000
  70
    32
  0
VERTEX
  8
0
  5
31A33
 10
-376.162
 20
845.560
 30
0.000000
  70
    32
  0
VERTEX
  8
0
  5
31A34
 10
-376.165
 20
845.559
 30
0.000000
  70
    32
  0
VERTEX
  8
0
  5
31A35
 10
-376.168
 20
845.557
 30
0.000000
  70
    32
  0
VERTEX
  8
0
  5
31A36
 10
-376.171
 20
845.556
 30
0.000000
  70
    32
  0
VERTEX
  8
0
  5
31A37
 10
-376.174
 20
845.554
 30
0.000000
  70
    32
  0
VERTEX
  8
0
  5
31A38
 10
-376.177
 20
845.553
 30
0.000000
  70
    32
  0
VERTEX
  8
0
  5
31A39
 10
-376.180
 20
845.551
 30
0.000000
  70
    32
  0
VERTEX
  8
0
  5
31A3A
 10
-376.183
 20
845.549
 30
0.000000
  70
    32
  0
VERTEX
  8
0
  5
31A3B
 10
-376.186
 20
845.548
 30
0.000000
  70
    32
  0
VERTEX
  8
0
  5
31A3C
 10
-376.189
 20
845.546
 30
0.000000
  70
    32
  0
VERTEX
  8
0
  5
31A3D
 10
-376.193
 20
845.545
 30
0.000000
  70
    32
  0
VERTEX
  8
0
  5
31A3E
 10
-376.196
 20
845.543
 30
0.000000
  70
    32
  0
VERTEX
  8
0
  5
31A3F
 10
-376.199
 20
845.542
 30
0.000000
  70
    32
  0
VERTEX
  8
0
  5
31A40
 10
-376.202
 20
845.540
 30
0.000000
  70
    32
  0
VERTEX
  8
0
  5
31A41
 10
-376.205
 20
845.539
 30
0.000000
  70
    32
  0
VERTEX
  8
0
  5
31A42
 10
-376.208
 20
845.537
 30
0.000000
  70
    32
  0
VERTEX
  8
0
  5
31A43
 10
-376.211
 20
845.536
 30
0.000000
  70
    32
  0
VERTEX
  8
0
  5
31A44
 10
-376.214
 20
845.534
 30
0.000000
  70
    32
  0
VERTEX
  8
0
  5
31A45
 10
-376.217
 20
845.533
 30
0.000000
  70
    32
  0
VERTEX
  8
0
  5
31A46
 10
-376.221
 20
845.531
 30
0.000000
  70
    32
  0
VERTEX
  8
0
  5
31A47
 10
-376.224
 20
845.530
 30
0.000000
  70
    32
  0
VERTEX
  8
0
  5
31A48
 10
-376.227
 20
845.528
 30
0.000000
  70
    32
  0
VERTEX
  8
0
  5
31A49
 10
-376.230
 20
845.527
 30
0.000000
  70
    32
  0
VERTEX
  8
0
  5
31A4A
 10
-376.233
 20
845.525
 30
0.000000
  70
    32
  0
VERTEX
  8
0
  5
31A4B
 10
-376.236
 20
845.524
 30
0.000000
  70
    32
  0
VERTEX
  8
0
  5
31A4C
 10
-376.239
 20
845.522
 30
0.000000
  70
    32
  0
VERTEX
  8
0
  5
31A4D
 10
-376.242
 20
845.521
 30
0.000000
  70
    32
  0
VERTEX
  8
0
  5
31A4E
 10
-376.245
 20
845.519
 30
0.000000
  70
    32
  0
VERTEX
  8
0
  5
31A4F
 10
-376.248
 20
845.518
 30
0.000000
  70
    32
  0
VERTEX
  8
0
  5
31A50
 10
-376.251
 20
845.516
 30
0.000000
  70
    32
  0
VERTEX
  8
0
  5
31A51
 10
-376.255
 20
845.515
 30
0.000000
  70
    32
  0
VERTEX
  8
0
  5
31A52
 10
-376.258
 20
845.513
 30
0.000000
  70
    32
  0
VERTEX
  8
0
  5
31A53
 10
-376.261
 20
845.512
 30
0.000000
  70
    32
  0
VERTEX
  8
0
  5
31A54
 10
-376.264
 20
845.510
 30
0.000000
  70
    32
  0
VERTEX
  8
0
  5
31A55
 10
-376.267
 20
845.508
 30
0.000000
  70
    32
  0
VERTEX
  8
0
  5
31A56
 10
-376.270
 20
845.507
 30
0.000000
  70
    32
  0
VERTEX
  8
0
  5
31A57
 10
-376.273
 20
845.505
 30
0.000000
  70
    32
  0
VERTEX
  8
0
  5
31A58
 10
-376.276
 20
845.503
 30
0.000000
  70
    32
  0
VERTEX
  8
0
  5
31A59
 10
-376.279
 20
845.502
 30
0.000000
  70
    32
  0
VERTEX
  8
0
  5
31A5A
 10
-376.282
 20
845.500
 30
0.000000
  70
    32
  0
VERTEX
  8
0
  5
31A5B
 10
-376.285
 20
845.498
 30
0.000000
  70
    32
  0
VERTEX
  8
0
  5
31A5C
 10
-376.288
 20
845.497
 30
0.000000
  70
    32
  0
VERTEX
  8
0
  5
31A5D
 10
-376.291
 20
845.495
 30
0.000000
  70
    32
  0
VERTEX
  8
0
  5
31A5E
 10
-376.294
 20
845.493
 30
0.000000
  70
    32
  0
VERTEX
  8
0
  5
31A5F
 10
-376.296
 20
845.491
 30
0.000000
  70
    32
  0
VERTEX
  8
0
  5
31A60
 10
-376.299
 20
845.489
 30
0.000000
  70
    32
  0
VERTEX
  8
0
  5
31A61
 10
-376.302
 20
845.487
 30
0.000000
  70
    32
  0
VERTEX
  8
0
  5
31A62
 10
-376.305
 20
845.486
 30
0.000000
  70
    32
  0
VERTEX
  8
0
  5
31A63
 10
-376.308
 20
845.484
 30
0.000000
  70
    32
  0
VERTEX
  8
0
  5
31A64
 10
-376.311
 20
845.482
 30
0.000000
  70
    32
  0
VERTEX
  8
0
  5
31A65
 10
-376.314
 20
845.480
 30
0.000000
  70
    32
  0
VERTEX
  8
0
  5
31A66
 10
-376.316
 20
845.478
 30
0.000000
  70
    32
  0
VERTEX
  8
0
  5
31A67
 10
-376.319
 20
845.476
 30
0.000000
  70
    32
  0
VERTEX
  8
0
  5
31A68
 10
-376.322
 20
845.473
 30
0.000000
  70
    32
  0
VERTEX
  8
0
  5
31A69
 10
-376.325
 20
845.471
 30
0.000000
  70
    32
  0
VERTEX
  8
0
  5
31A6A
 10
-376.327
 20
845.469
 30
0.000000
  70
    32
  0
VERTEX
  8
0
  5
31A6B
 10
-376.330
 20
845.467
 30
0.000000
  70
    32
  0
VERTEX
  8
0
  5
31A6C
 10
-376.333
 20
845.465
 30
0.000000
  70
    32
  0
VERTEX
  8
0
  5
31A6D
 10
-376.335
 20
845.462
 30
0.000000
  70
    32
  0
VERTEX
  8
0
  5
31A6E
 10
-376.338
 20
845.460
 30
0.000000
  70
    32
  0
VERTEX
  8
0
  5
31A6F
 10
-376.340
 20
845.458
 30
0.000000
  70
    32
  0
VERTEX
  8
0
  5
31A70
 10
-376.343
 20
845.455
 30
0.000000
  70
    32
  0
VERTEX
  8
0
  5
31A71
 10
-376.346
 20
845.453
 30
0.000000
  70
    32
  0
VERTEX
  8
0
  5
31A72
 10
-376.348
 20
845.451
 30
0.000000
  70
    32
  0
VERTEX
  8
0
  5
31A73
 10
-376.351
 20
845.448
 30
0.000000
  70
    32
  0
VERTEX
  8
0
  5
31A74
 10
-376.353
 20
845.446
 30
0.000000
  70
    32
  0
VERTEX
  8
0
  5
31A75
 10
-376.355
 20
845.443
 30
0.000000
  70
    32
  0
VERTEX
  8
0
  5
31A76
 10
-376.358
 20
845.441
 30
0.000000
  70
    32
  0
VERTEX
  8
0
  5
31A77
 10
-376.360
 20
845.438
 30
0.000000
  70
    32
  0
VERTEX
  8
0
  5
31A78
 10
-376.362
 20
845.435
 30
0.000000
  70
    32
  0
VERTEX
  8
0
  5
31A79
 10
-376.365
 20
845.433
 30
0.000000
  70
    32
  0
VERTEX
  8
0
  5
31A7A
 10
-376.367
 20
845.430
 30
0.000000
  70
    32
  0
VERTEX
  8
0
  5
31A7B
 10
-376.369
 20
845.427
 30
0.000000
  70
    32
  0
VERTEX
  8
0
  5
31A7C
 10
-376.371
 20
845.425
 30
0.000000
  70
    32
  0
VERTEX
  8
0
  5
31A7D
 10
-376.374
 20
845.422
 30
0.000000
  70
    32
  0
VERTEX
  8
0
  5
31A7E
 10
-376.376
 20
845.419
 30
0.000000
  70
    32
  0
VERTEX
  8
0
  5
31A7F
 10
-376.378
 20
845.416
 30
0.000000
  70
    32
  0
VERTEX
  8
0
  5
31A80
 10
-376.380
 20
845.413
 30
0.000000
  70
    32
  0
VERTEX
  8
0
  5
31A81
 10
-376.382
 20
845.411
 30
0.000000
  70
    32
  0
VERTEX
  8
0
  5
31A82
 10
-376.384
 20
845.408
 30
0.000000
  70
    32
  0
VERTEX
  8
0
  5
31A83
 10
-376.386
 20
845.405
 30
0.000000
  70
    32
  0
VERTEX
  8
0
  5
31A84
 10
-376.387
 20
845.402
 30
0.000000
  70
    32
  0
VERTEX
  8
0
  5
31A85
 10
-376.389
 20
845.399
 30
0.000000
  70
    32
  0
VERTEX
  8
0
  5
31A86
 10
-376.391
 20
845.396
 30
0.000000
  70
    32
  0
VERTEX
  8
0
  5
31A87
 10
-376.393
 20
845.393
 30
0.000000
  70
    32
  0
VERTEX
  8
0
  5
31A88
 10
-376.394
 20
845.390
 30
0.000000
  70
    32
  0
VERTEX
  8
0
  5
31A89
 10
-376.396
 20
845.387
 30
0.000000
  70
    32
  0
VERTEX
  8
0
  5
31A8A
 10
-376.397
 20
845.384
 30
0.000000
  70
    32
  0
VERTEX
  8
0
  5
31A8B
 10
-376.399
 20
845.381
 30
0.000000
  70
    32
  0
VERTEX
  8
0
  5
31A8C
 10
-376.400
 20
845.378
 30
0.000000
  70
    32
  0
VERTEX
  8
0
  5
31A8D
 10
-376.402
 20
845.375
 30
0.000000
  70
    32
  0
VERTEX
  8
0
  5
31A8E
 10
-376.403
 20
845.371
 30
0.000000
  70
    32
  0
VERTEX
  8
0
  5
31A8F
 10
-376.405
 20
845.368
 30
0.000000
  70
    32
  0
VERTEX
  8
0
  5
31A90
 10
-376.406
 20
845.365
 30
0.000000
  70
    32
  0
VERTEX
  8
0
  5
31A91
 10
-376.407
 20
845.362
 30
0.000000
  70
    32
  0
VERTEX
  8
0
  5
31A92
 10
-376.408
 20
845.359
 30
0.000000
  70
    32
  0
VERTEX
  8
0
  5
31A93
 10
-376.409
 20
845.355
 30
0.000000
  70
    32
  0
VERTEX
  8
0
  5
31A94
 10
-376.410
 20
845.352
 30
0.000000
  70
    32
  0
VERTEX
  8
0
  5
31A95
 10
-376.411
 20
845.349
 30
0.000000
  70
    32
  0
VERTEX
  8
0
  5
31A96
 10
-376.412
 20
845.346
 30
0.000000
  70
    32
  0
VERTEX
  8
0
  5
31A97
 10
-376.413
 20
845.342
 30
0.000000
  70
    32
  0
VERTEX
  8
0
  5
31A98
 10
-376.414
 20
845.339
 30
0.000000
  70
    32
  0
VERTEX
  8
0
  5
31A99
 10
-376.415
 20
845.336
 30
0.000000
  70
    32
  0
VERTEX
  8
0
  5
31A9A
 10
-376.416
 20
845.332
 30
0.000000
  70
    32
  0
VERTEX
  8
0
  5
31A9B
 10
-376.417
 20
845.329
 30
0.000000
  70
    32
  0
VERTEX
  8
0
  5
31A9C
 10
-376.417
 20
845.326
 30
0.000000
  70
    32
  0
VERTEX
  8
0
  5
31A9D
 10
-376.418
 20
845.322
 30
0.000000
  70
    32
  0
VERTEX
  8
0
  5
31A9E
 10
-376.419
 20
845.319
 30
0.000000
  70
    32
  0
VERTEX
  8
0
  5
31A9F
 10
-376.420
 20
845.315
 30
0.000000
  70
    32
  0
VERTEX
  8
0
  5
31AA0
 10
-376.420
 20
845.312
 30
0.000000
  70
    32
  0
VERTEX
  8
0
  5
31AA1
 10
-376.421
 20
845.309
 30
0.000000
  70
    32
  0
VERTEX
  8
0
  5
31AA2
 10
-376.421
 20
845.305
 30
0.000000
  70
    32
  0
VERTEX
  8
0
  5
31AA3
 10
-376.422
 20
845.302
 30
0.000000
  70
    32
  0
VERTEX
  8
0
  5
31AA4
 10
-376.422
 20
845.298
 30
0.000000
  70
    32
  0
VERTEX
  8
0
  5
31AA5
 10
-376.423
 20
845.295
 30
0.000000
  70
    32
  0
VERTEX
  8
0
  5
31AA6
 10
-376.423
 20
845.291
 30
0.000000
  70
    32
  0
VERTEX
  8
0
  5
31AA7
 10
-376.424
 20
845.288
 30
0.000000
  70
    32
  0
VERTEX
  8
0
  5
31AA8
 10
-376.424
 20
845.285
 30
0.000000
  70
    32
  0
VERTEX
  8
0
  5
31AA9
 10
-376.425
 20
845.281
 30
0.000000
  70
    32
  0
VERTEX
  8
0
  5
31AAA
 10
-376.425
 20
845.278
 30
0.000000
  70
    32
  0
VERTEX
  8
0
  5
31AAB
 10
-376.426
 20
845.274
 30
0.000000
  70
    32
  0
VERTEX
  8
0
  5
31AAC
 10
-376.426
 20
845.271
 30
0.000000
  70
    32
  0
VERTEX
  8
0
  5
31AAD
 10
-376.426
 20
845.267
 30
0.000000
  70
    32
  0
VERTEX
  8
0
  5
31AAE
 10
-376.427
 20
845.264
 30
0.000000
  70
    32
  0
VERTEX
  8
0
  5
31AAF
 10
-376.427
 20
845.260
 30
0.000000
  70
    32
  0
VERTEX
  8
0
  5
31AB0
 10
-376.427
 20
845.257
 30
0.000000
  70
    32
  0
VERTEX
  8
0
  5
31AB1
 10
-376.428
 20
845.254
 30
0.000000
  70
    32
  0
VERTEX
  8
0
  5
31AB2
 10
-376.428
 20
845.250
 30
0.000000
  70
    32
  0
VERTEX
  8
0
  5
31AB3
 10
-376.428
 20
845.247
 30
0.000000
  70
    32
  0
VERTEX
  8
0
  5
31AB4
 10
-376.429
 20
845.243
 30
0.000000
  70
    32
  0
VERTEX
  8
0
  5
31AB5
 10
-376.429
 20
845.240
 30
0.000000
  70
    32
  0
VERTEX
  8
0
  5
31AB6
 10
-376.429
 20
845.236
 30
0.000000
  70
    32
  0
VERTEX
  8
0
  5
31AB7
 10
-376.429
 20
845.233
 30
0.000000
  70
    32
  0
SEQEND
  8
0
  5
31AB8
  0
POLYLINE
  8
0
  5
31AB9
  66
     1
 10
0.000000
 20
0.000000
 30
0.000000
  70
     8
  0
VERTEX
  8
0
  5
31ABA
 10
-376.803
 20
844.103
 30
0.000000
  70
    32
  0
VERTEX
  8
0
  5
31ABB
 10
-376.800
 20
844.102
 30
0.000000
  70
    32
  0
VERTEX
  8
0
  5
31ABC
 10
-376.798
 20
844.101
 30
0.000000
  70
    32
  0
VERTEX
  8
0
  5
31ABD
 10
-376.795
 20
844.100
 30
0.000000
  70
    32
  0
VERTEX
  8
0
  5
31ABE
 10
-376.792
 20
844.099
 30
0.000000
  70
    32
  0
VERTEX
  8
0
  5
31ABF
 10
-376.789
 20
844.098
 30
0.000000
  70
    32
  0
VERTEX
  8
0
  5
31AC0
 10
-376.786
 20
844.097
 30
0.000000
  70
    32
  0
VERTEX
  8
0
  5
31AC1
 10
-376.783
 20
844.097
 30
0.000000
  70
    32
  0
VERTEX
  8
0
  5
31AC2
 10
-376.780
 20
844.096
 30
0.000000
  70
    32
  0
VERTEX
  8
0
  5
31AC3
 10
-376.778
 20
844.095
 30
0.000000
  70
    32
  0
VERTEX
  8
0
  5
31AC4
 10
-376.775
 20
844.094
 30
0.000000
  70
    32
  0
VERTEX
  8
0
  5
31AC5
 10
-376.772
 20
844.093
 30
0.000000
  70
    32
  0
VERTEX
  8
0
  5
31AC6
 10
-376.769
 20
844.092
 30
0.000000
  70
    32
  0
VERTEX
  8
0
  5
31AC7
 10
-376.766
 20
844.091
 30
0.000000
  70
    32
  0
VERTEX
  8
0
  5
31AC8
 10
-376.763
 20
844.090
 30
0.000000
  70
    32
  0
VERTEX
  8
0
  5
31AC9
 10
-376.760
 20
844.089
 30
0.000000
  70
    32
  0
VERTEX
  8
0
  5
31ACA
 10
-376.758
 20
844.089
 30
0.000000
  70
    32
  0
VERTEX
  8
0
  5
31ACB
 10
-376.755
 20
844.088
 30
0.000000
  70
    32
  0
VERTEX
  8
0
  5
31ACC
 10
-376.752
 20
844.087
 30
0.000000
  70
    32
  0
VERTEX
  8
0
  5
31ACD
 10
-376.749
 20
844.086
 30
0.000000
  70
    32
  0
VERTEX
  8
0
  5
31ACE
 10
-376.746
 20
844.085
 30
0.000000
  70
    32
  0
VERTEX
  8
0
  5
31ACF
 10
-376.743
 20
844.084
 30
0.000000
  70
    32
  0
VERTEX
  8
0
  5
31AD0
 10
-376.740
 20
844.083
 30
0.000000
  70
    32
  0
VERTEX
  8
0
  5
31AD1
 10
-376.738
 20
844.082
 30
0.000000
  70
    32
  0
VERTEX
  8
0
  5
31AD2
 10
-376.735
 20
844.081
 30
0.000000
  70
    32
  0
VERTEX
  8
0
  5
31AD3
 10
-376.732
 20
844.080
 30
0.000000
  70
    32
  0
VERTEX
  8
0
  5
31AD4
 10
-376.729
 20
844.079
 30
0.000000
  70
    32
  0
VERTEX
  8
0
  5
31AD5
 10
-376.726
 20
844.078
 30
0.000000
  70
    32
  0
VERTEX
  8
0
  5
31AD6
 10
-376.723
 20
844.077
 30
0.000000
  70
    32
  0
VERTEX
  8
0
  5
31AD7
 10
-376.721
 20
844.077
 30
0.000000
  70
    32
  0
VERTEX
  8
0
  5
31AD8
 10
-376.718
 20
844.076
 30
0.000000
  70
    32
  0
VERTEX
  8
0
  5
31AD9
 10
-376.715
 20
844.075
 30
0.000000
  70
    32
  0
VERTEX
  8
0
  5
31ADA
 10
-376.712
 20
844.074
 30
0.000000
  70
    32
  0
VERTEX
  8
0
  5
31ADB
 10
-376.709
 20
844.073
 30
0.000000
  70
    32
  0
VERTEX
  8
0
  5
31ADC
 10
-376.707
 20
844.072
 30
0.000000
  70
    32
  0
VERTEX
  8
0
  5
31ADD
 10
-376.704
 20
844.071
 30
0.000000
  70
    32
  0
VERTEX
  8
0
  5
31ADE
 10
-376.701
 20
844.070
 30
0.000000
  70
    32
  0
VERTEX
  8
0
  5
31ADF
 10
-376.698
 20
844.069
 30
0.000000
  70
    32
  0
VERTEX
  8
0
  5
31AE0
 10
-376.695
 20
844.068
 30
0.000000
  70
    32
  0
VERTEX
  8
0
  5
31AE1
 10
-376.693
 20
844.067
 30
0.000000
  70
    32
  0
VERTEX
  8
0
  5
31AE2
 10
-376.690
 20
844.066
 30
0.000000
  70
    32
  0
VERTEX
  8
0
  5
31AE3
 10
-376.687
 20
844.064
 30
0.000000
  70
    32
  0
VERTEX
  8
0
  5
31AE4
 10
-376.684
 20
844.063
 30
0.000000
  70
    32
  0
VERTEX
  8
0
  5
31AE5
 10
-376.681
 20
844.062
 30
0.000000
  70
    32
  0
VERTEX
  8
0
  5
31AE6
 10
-376.679
 20
844.061
 30
0.000000
  70
    32
  0
VERTEX
  8
0
  5
31AE7
 10
-376.676
 20
844.060
 30
0.000000
  70
    32
  0
VERTEX
  8
0
  5
31AE8
 10
-376.673
 20
844.059
 30
0.000000
  70
    32
  0
VERTEX
  8
0
  5
31AE9
 10
-376.670
 20
844.058
 30
0.000000
  70
    32
  0
VERTEX
  8
0
  5
31AEA
 10
-376.667
 20
844.057
 30
0.000000
  70
    32
  0
VERTEX
  8
0
  5
31AEB
 10
-376.665
 20
844.056
 30
0.000000
  70
    32
  0
VERTEX
  8
0
  5
31AEC
 10
-376.662
 20
844.055
 30
0.000000
  70
    32
  0
VERTEX
  8
0
  5
31AED
 10
-376.659
 20
844.053
 30
0.000000
  70
    32
  0
VERTEX
  8
0
  5
31AEE
 10
-376.656
 20
844.052
 30
0.000000
  70
    32
  0
VERTEX
  8
0
  5
31AEF
 10
-376.654
 20
844.051
 30
0.000000
  70
    32
  0
VERTEX
  8
0
  5
31AF0
 10
-376.651
 20
844.050
 30
0.000000
  70
    32
  0
VERTEX
  8
0
  5
31AF1
 10
-376.648
 20
844.049
 30
0.000000
  70
    32
  0
VERTEX
  8
0
  5
31AF2
 10
-376.645
 20
844.047
 30
0.000000
  70
    32
  0
VERTEX
  8
0
  5
31AF3
 10
-376.643
 20
844.046
 30
0.000000
  70
    32
  0
VERTEX
  8
0
  5
31AF4
 10
-376.640
 20
844.045
 30
0.000000
  70
    32
  0
VERTEX
  8
0
  5
31AF5
 10
-376.637
 20
844.044
 30
0.000000
  70
    32
  0
VERTEX
  8
0
  5
31AF6
 10
-376.635
 20
844.043
 30
0.000000
  70
    32
  0
VERTEX
  8
0
  5
31AF7
 10
-376.632
 20
844.041
 30
0.000000
  70
    32
  0
VERTEX
  8
0
  5
31AF8
 10
-376.629
 20
844.040
 30
0.000000
  70
    32
  0
VERTEX
  8
0
  5
31AF9
 10
-376.626
 20
844.039
 30
0.000000
  70
    32
  0
VERTEX
  8
0
  5
31AFA
 10
-376.624
 20
844.037
 30
0.000000
  70
    32
  0
VERTEX
  8
0
  5
31AFB
 10
-376.621
 20
844.036
 30
0.000000
  70
    32
  0
VERTEX
  8
0
  5
31AFC
 10
-376.618
 20
844.035
 30
0.000000
  70
    32
  0
VERTEX
  8
0
  5
31AFD
 10
-376.616
 20
844.033
 30
0.000000
  70
    32
  0
VERTEX
  8
0
  5
31AFE
 10
-376.613
 20
844.032
 30
0.000000
  70
    32
  0
VERTEX
  8
0
  5
31AFF
 10
-376.610
 20
844.031
 30
0.000000
  70
    32
  0
VERTEX
  8
0
  5
31B00
 10
-376.608
 20
844.029
 30
0.000000
  70
    32
  0
VERTEX
  8
0
  5
31B01
 10
-376.605
 20
844.028
 30
0.000000
  70
    32
  0
VERTEX
  8
0
  5
31B02
 10
-376.603
 20
844.026
 30
0.000000
  70
    32
  0
VERTEX
  8
0
  5
31B03
 10
-376.600
 20
844.025
 30
0.000000
  70
    32
  0
VERTEX
  8
0
  5
31B04
 10
-376.597
 20
844.023
 30
0.000000
  70
    32
  0
VERTEX
  8
0
  5
31B05
 10
-376.595
 20
844.022
 30
0.000000
  70
    32
  0
VERTEX
  8
0
  5
31B06
 10
-376.592
 20
844.020
 30
0.000000
  70
    32
  0
VERTEX
  8
0
  5
31B07
 10
-376.589
 20
844.019
 30
0.000000
  70
    32
  0
VERTEX
  8
0
  5
31B08
 10
-376.587
 20
844.017
 30
0.000000
  70
    32
  0
VERTEX
  8
0
  5
31B09
 10
-376.584
 20
844.016
 30
0.000000
  70
    32
  0
VERTEX
  8
0
  5
31B0A
 10
-376.582
 20
844.014
 30
0.000000
  70
    32
  0
VERTEX
  8
0
  5
31B0B
 10
-376.579
 20
844.013
 30
0.000000
  70
    32
  0
VERTEX
  8
0
  5
31B0C
 10
-376.577
 20
844.011
 30
0.000000
  70
    32
  0
VERTEX
  8
0
  5
31B0D
 10
-376.574
 20
844.009
 30
0.000000
  70
    32
  0
VERTEX
  8
0
  5
31B0E
 10
-376.572
 20
844.008
 30
0.000000
  70
    32
  0
VERTEX
  8
0
  5
31B0F
 10
-376.569
 20
844.006
 30
0.000000
  70
    32
  0
VERTEX
  8
0
  5
31B10
 10
-376.567
 20
844.004
 30
0.000000
  70
    32
  0
VERTEX
  8
0
  5
31B11
 10
-376.564
 20
844.003
 30
0.000000
  70
    32
  0
VERTEX
  8
0
  5
31B12
 10
-376.562
 20
844.001
 30
0.000000
  70
    32
  0
VERTEX
  8
0
  5
31B13
 10
-376.559
 20
843.999
 30
0.000000
  70
    32
  0
VERTEX
  8
0
  5
31B14
 10
-376.557
 20
843.998
 30
0.000000
  70
    32
  0
VERTEX
  8
0
  5
31B15
 10
-376.554
 20
843.996
 30
0.000000
  70
    32
  0
VERTEX
  8
0
  5
31B16
 10
-376.552
 20
843.994
 30
0.000000
  70
    32
  0
VERTEX
  8
0
  5
31B17
 10
-376.550
 20
843.992
 30
0.000000
  70
    32
  0
VERTEX
  8
0
  5
31B18
 10
-376.547
 20
843.990
 30
0.000000
  70
    32
  0
VERTEX
  8
0
  5
31B19
 10
-376.545
 20
843.989
 30
0.000000
  70
    32
  0
VERTEX
  8
0
  5
31B1A
 10
-376.543
 20
843.987
 30
0.000000
  70
    32
  0
VERTEX
  8
0
  5
31B1B
 10
-376.540
 20
843.985
 30
0.000000
  70
    32
  0
VERTEX
  8
0
  5
31B1C
 10
-376.538
 20
843.983
 30
0.000000
  70
    32
  0
VERTEX
  8
0
  5
31B1D
 10
-376.536
 20
843.981
 30
0.000000
  70
    32
  0
VERTEX
  8
0
  5
31B1E
 10
-376.533
 20
843.979
 30
0.000000
  70
    32
  0
VERTEX
  8
0
  5
31B1F
 10
-376.531
 20
843.977
 30
0.000000
  70
    32
  0
VERTEX
  8
0
  5
31B20
 10
-376.529
 20
843.975
 30
0.000000
  70
    32
  0
VERTEX
  8
0
  5
31B21
 10
-376.527
 20
843.973
 30
0.000000
  70
    32
  0
VERTEX
  8
0
  5
31B22
 10
-376.524
 20
843.971
 30
0.000000
  70
    32
  0
VERTEX
  8
0
  5
31B23
 10
-376.522
 20
843.969
 30
0.000000
  70
    32
  0
VERTEX
  8
0
  5
31B24
 10
-376.520
 20
843.967
 30
0.000000
  70
    32
  0
VERTEX
  8
0
  5
31B25
 10
-376.518
 20
843.965
 30
0.000000
  70
    32
  0
VERTEX
  8
0
  5
31B26
 10
-376.516
 20
843.963
 30
0.000000
  70
    32
  0
VERTEX
  8
0
  5
31B27
 10
-376.514
 20
843.961
 30
0.000000
  70
    32
  0
VERTEX
  8
0
  5
31B28
 10
-376.512
 20
843.959
 30
0.000000
  70
    32
  0
VERTEX
  8
0
  5
31B29
 10
-376.509
 20
843.956
 30
0.000000
  70
    32
  0
VERTEX
  8
0
  5
31B2A
 10
-376.507
 20
843.954
 30
0.000000
  70
    32
  0
VERTEX
  8
0
  5
31B2B
 10
-376.505
 20
843.952
 30
0.000000
  70
    32
  0
VERTEX
  8
0
  5
31B2C
 10
-376.503
 20
843.950
 30
0.000000
  70
    32
  0
VERTEX
  8
0
  5
31B2D
 10
-376.501
 20
843.947
 30
0.000000
  70
    32
  0
VERTEX
  8
0
  5
31B2E
 10
-376.499
 20
843.945
 30
0.000000
  70
    32
  0
VERTEX
  8
0
  5
31B2F
 10
-376.498
 20
843.943
 30
0.000000
  70
    32
  0
VERTEX
  8
0
  5
31B30
 10
-376.496
 20
843.940
 30
0.000000
  70
    32
  0
VERTEX
  8
0
  5
31B31
 10
-376.494
 20
843.938
 30
0.000000
  70
    32
  0
VERTEX
  8
0
  5
31B32
 10
-376.492
 20
843.936
 30
0.000000
  70
    32
  0
VERTEX
  8
0
  5
31B33
 10
-376.490
 20
843.933
 30
0.000000
  70
    32
  0
VERTEX
  8
0
  5
31B34
 10
-376.488
 20
843.931
 30
0.000000
  70
    32
  0
VERTEX
  8
0
  5
31B35
 10
-376.487
 20
843.929
 30
0.000000
  70
    32
  0
VERTEX
  8
0
  5
31B36
 10
-376.485
 20
843.926
 30
0.000000
  70
    32
  0
VERTEX
  8
0
  5
31B37
 10
-376.483
 20
843.924
 30
0.000000
  70
    32
  0
VERTEX
  8
0
  5
31B38
 10
-376.482
 20
843.921
 30
0.000000
  70
    32
  0
VERTEX
  8
0
  5
31B39
 10
-376.480
 20
843.919
 30
0.000000
  70
    32
  0
VERTEX
  8
0
  5
31B3A
 10
-376.478
 20
843.916
 30
0.000000
  70
    32
  0
VERTEX
  8
0
  5
31B3B
 10
-376.477
 20
843.913
 30
0.000000
  70
    32
  0
VERTEX
  8
0
  5
31B3C
 10
-376.475
 20
843.911
 30
0.000000
  70
    32
  0
VERTEX
  8
0
  5
31B3D
 10
-376.474
 20
843.908
 30
0.000000
  70
    32
  0
VERTEX
  8
0
  5
31B3E
 10
-376.472
 20
843.906
 30
0.000000
  70
    32
  0
VERTEX
  8
0
  5
31B3F
 10
-376.471
 20
843.903
 30
0.000000
  70
    32
  0
VERTEX
  8
0
  5
31B40
 10
-376.470
 20
843.900
 30
0.000000
  70
    32
  0
VERTEX
  8
0
  5
31B41
 10
-376.468
 20
843.898
 30
0.000000
  70
    32
  0
VERTEX
  8
0
  5
31B42
 10
-376.467
 20
843.895
 30
0.000000
  70
    32
  0
VERTEX
  8
0
  5
31B43
 10
-376.466
 20
843.892
 30
0.000000
  70
    32
  0
VERTEX
  8
0
  5
31B44
 10
-376.464
 20
843.889
 30
0.000000
  70
    32
  0
VERTEX
  8
0
  5
31B45
 10
-376.463
 20
843.887
 30
0.000000
  70
    32
  0
VERTEX
  8
0
  5
31B46
 10
-376.462
 20
843.884
 30
0.000000
  70
    32
  0
VERTEX
  8
0
  5
31B47
 10
-376.461
 20
843.881
 30
0.000000
  70
    32
  0
VERTEX
  8
0
  5
31B48
 10
-376.460
 20
843.878
 30
0.000000
  70
    32
  0
VERTEX
  8
0
  5
31B49
 10
-376.459
 20
843.875
 30
0.000000
  70
    32
  0
VERTEX
  8
0
  5
31B4A
 10
-376.458
 20
843.873
 30
0.000000
  70
    32
  0
VERTEX
  8
0
  5
31B4B
 10
-376.457
 20
843.870
 30
0.000000
  70
    32
  0
VERTEX
  8
0
  5
31B4C
 10
-376.456
 20
843.867
 30
0.000000
  70
    32
  0
VERTEX
  8
0
  5
31B4D
 10
-376.455
 20
843.864
 30
0.000000
  70
    32
  0
VERTEX
  8
0
  5
31B4E
 10
-376.454
 20
843.861
 30
0.000000
  70
    32
  0
VERTEX
  8
0
  5
31B4F
 10
-376.454
 20
843.858
 30
0.000000
  70
    32
  0
VERTEX
  8
0
  5
31B50
 10
-376.453
 20
843.855
 30
0.000000
  70
    32
  0
VERTEX
  8
0
  5
31B51
 10
-376.452
 20
843.852
 30
0.000000
  70
    32
  0
VERTEX
  8
0
  5
31B52
 10
-376.452
 20
843.849
 30
0.000000
  70
    32
  0
VERTEX
  8
0
  5
31B53
 10
-376.451
 20
843.846
 30
0.000000
  70
    32
  0
VERTEX
  8
0
  5
31B54
 10
-376.450
 20
843.843
 30
0.000000
  70
    32
  0
VERTEX
  8
0
  5
31B55
 10
-376.450
 20
843.840
 30
0.000000
  70
    32
  0
VERTEX
  8
0
  5
31B56
 10
-376.449
 20
843.837
 30
0.000000
  70
    32
  0
VERTEX
  8
0
  5
31B57
 10
-376.449
 20
843.834
 30
0.000000
  70
    32
  0
VERTEX
  8
0
  5
31B58
 10
-376.448
 20
843.831
 30
0.000000
  70
    32
  0
VERTEX
  8
0
  5
31B59
 10
-376.448
 20
843.828
 30
0.000000
  70
    32
  0
VERTEX
  8
0
  5
31B5A
 10
-376.448
 20
843.825
 30
0.000000
  70
    32
  0
VERTEX
  8
0
  5
31B5B
 10
-376.447
 20
843.822
 30
0.000000
  70
    32
  0
VERTEX
  8
0
  5
31B5C
 10
-376.447
 20
843.819
 30
0.000000
  70
    32
  0
VERTEX
  8
0
  5
31B5D
 10
-376.447
 20
843.816
 30
0.000000
  70
    32
  0
VERTEX
  8
0
  5
31B5E
 10
-376.447
 20
843.813
 30
0.000000
  70
    32
  0
VERTEX
  8
0
  5
31B5F
 10
-376.447
 20
843.810
 30
0.000000
  70
    32
  0
VERTEX
  8
0
  5
31B60
 10
-376.446
 20
843.806
 30
0.000000
  70
    32
  0
VERTEX
  8
0
  5
31B61
 10
-376.446
 20
843.803
 30
0.000000
  70
    32
  0
VERTEX
  8
0
  5
31B62
 10
-376.446
 20
843.800
 30
0.000000
  70
    32
  0
VERTEX
  8
0
  5
31B63
 10
-376.446
 20
843.797
 30
0.000000
  70
    32
  0
VERTEX
  8
0
  5
31B64
 10
-376.446
 20
843.794
 30
0.000000
  70
    32
  0
VERTEX
  8
0
  5
31B65
 10
-376.446
 20
843.791
 30
0.000000
  70
    32
  0
VERTEX
  8
0
  5
31B66
 10
-376.447
 20
843.788
 30
0.000000
  70
    32
  0
VERTEX
  8
0
  5
31B67
 10
-376.447
 20
843.785
 30
0.000000
  70
    32
  0
VERTEX
  8
0
  5
31B68
 10
-376.447
 20
843.782
 30
0.000000
  70
    32
  0
VERTEX
  8
0
  5
31B69
 10
-376.447
 20
843.779
 30
0.000000
  70
    32
  0
VERTEX
  8
0
  5
31B6A
 10
-376.447
 20
843.776
 30
0.000000
  70
    32
  0
VERTEX
  8
0
  5
31B6B
 10
-376.448
 20
843.773
 30
0.000000
  70
    32
  0
VERTEX
  8
0
  5
31B6C
 10
-376.448
 20
843.769
 30
0.000000
  70
    32
  0
VERTEX
  8
0
  5
31B6D
 10
-376.448
 20
843.766
 30
0.000000
  70
    32
  0
VERTEX
  8
0
  5
31B6E
 10
-376.449
 20
843.763
 30
0.000000
  70
    32
  0
VERTEX
  8
0
  5
31B6F
 10
-376.449
 20
843.760
 30
0.000000
  70
    32
  0
VERTEX
  8
0
  5
31B70
 10
-376.450
 20
843.757
 30
0.000000
  70
    32
  0
VERTEX
  8
0
  5
31B71
 10
-376.450
 20
843.754
 30
0.000000
  70
    32
  0
VERTEX
  8
0
  5
31B72
 10
-376.451
 20
843.751
 30
0.000000
  70
    32
  0
VERTEX
  8
0
  5
31B73
 10
-376.451
 20
843.748
 30
0.000000
  70
    32
  0
VERTEX
  8
0
  5
31B74
 10
-376.452
 20
843.745
 30
0.000000
  70
    32
  0
VERTEX
  8
0
  5
31B75
 10
-376.453
 20
843.742
 30
0.000000
  70
    32
  0
VERTEX
  8
0
  5
31B76
 10
-376.453
 20
843.739
 30
0.000000
  70
    32
  0
VERTEX
  8
0
  5
31B77
 10
-376.454
 20
843.736
 30
0.000000
  70
    32
  0
VERTEX
  8
0
  5
31B78
 10
-376.455
 20
843.733
 30
0.000000
  70
    32
  0
VERTEX
  8
0
  5
31B79
 10
-376.456
 20
843.730
 30
0.000000
  70
    32
  0
VERTEX
  8
0
  5
31B7A
 10
-376.456
 20
843.727
 30
0.000000
  70
    32
  0
VERTEX
  8
0
  5
31B7B
 10
-376.457
 20
843.724
 30
0.000000
  70
    32
  0
VERTEX
  8
0
  5
31B7C
 10
-376.458
 20
843.721
 30
0.000000
  70
    32
  0
VERTEX
  8
0
  5
31B7D
 10
-376.459
 20
843.718
 30
0.000000
  70
    32
  0
VERTEX
  8
0
  5
31B7E
 10
-376.460
 20
843.715
 30
0.000000
  70
    32
  0
VERTEX
  8
0
  5
31B7F
 10
-376.461
 20
843.713
 30
0.000000
  70
    32
  0
VERTEX
  8
0
  5
31B80
 10
-376.462
 20
843.710
 30
0.000000
  70
    32
  0
VERTEX
  8
0
  5
31B81
 10
-376.463
 20
843.707
 30
0.000000
  70
    32
  0
VERTEX
  8
0
  5
31B82
 10
-376.465
 20
843.704
 30
0.000000
  70
    32
  0
VERTEX
  8
0
  5
31B83
 10
-376.466
 20
843.701
 30
0.000000
  70
    32
  0
VERTEX
  8
0
  5
31B84
 10
-376.467
 20
843.698
 30
0.000000
  70
    32
  0
VERTEX
  8
0
  5
31B85
 10
-376.468
 20
843.696
 30
0.000000
  70
    32
  0
VERTEX
  8
0
  5
31B86
 10
-376.469
 20
843.693
 30
0.000000
  70
    32
  0
VERTEX
  8
0
  5
31B87
 10
-376.471
 20
843.690
 30
0.000000
  70
    32
  0
VERTEX
  8
0
  5
31B88
 10
-376.472
 20
843.687
 30
0.000000
  70
    32
  0
VERTEX
  8
0
  5
31B89
 10
-376.473
 20
843.685
 30
0.000000
  70
    32
  0
VERTEX
  8
0
  5
31B8A
 10
-376.475
 20
843.682
 30
0.000000
  70
    32
  0
VERTEX
  8
0
  5
31B8B
 10
-376.476
 20
843.679
 30
0.000000
  70
    32
  0
VERTEX
  8
0
  5
31B8C
 10
-376.478
 20
843.677
 30
0.000000
  70
    32
  0
VERTEX
  8
0
  5
31B8D
 10
-376.479
 20
843.674
 30
0.000000
  70
    32
  0
VERTEX
  8
0
  5
31B8E
 10
-376.481
 20
843.672
 30
0.000000
  70
    32
  0
VERTEX
  8
0
  5
31B8F
 10
-376.482
 20
843.669
 30
0.000000
  70
    32
  0
VERTEX
  8
0
  5
31B90
 10
-376.484
 20
843.666
 30
0.000000
  70
    32
  0
VERTEX
  8
0
  5
31B91
 10
-376.486
 20
843.664
 30
0.000000
  70
    32
  0
VERTEX
  8
0
  5
31B92
 10
-376.487
 20
843.661
 30
0.000000
  70
    32
  0
VERTEX
  8
0
  5
31B93
 10
-376.489
 20
843.659
 30
0.000000
  70
    32
  0
VERTEX
  8
0
  5
31B94
 10
-376.491
 20
843.657
 30
0.000000
  70
    32
  0
VERTEX
  8
0
  5
31B95
 10
-376.492
 20
843.654
 30
0.000000
  70
    32
  0
VERTEX
  8
0
  5
31B96
 10
-376.494
 20
843.652
 30
0.000000
  70
    32
  0
VERTEX
  8
0
  5
31B97
 10
-376.496
 20
843.649
 30
0.000000
  70
    32
  0
VERTEX
  8
0
  5
31B98
 10
-376.498
 20
843.647
 30
0.000000
  70
    32
  0
VERTEX
  8
0
  5
31B99
 10
-376.500
 20
843.645
 30
0.000000
  70
    32
  0
VERTEX
  8
0
  5
31B9A
 10
-376.502
 20
843.642
 30
0.000000
  70
    32
  0
VERTEX
  8
0
  5
31B9B
 10
-376.503
 20
843.640
 30
0.000000
  70
    32
  0
VERTEX
  8
0
  5
31B9C
 10
-376.505
 20
843.638
 30
0.000000
  70
    32
  0
VERTEX
  8
0
  5
31B9D
 10
-376.507
 20
843.635
 30
0.000000
  70
    32
  0
VERTEX
  8
0
  5
31B9E
 10
-376.509
 20
843.633
 30
0.000000
  70
    32
  0
VERTEX
  8
0
  5
31B9F
 10
-376.511
 20
843.631
 30
0.000000
  70
    32
  0
VERTEX
  8
0
  5
31BA0
 10
-376.513
 20
843.629
 30
0.000000
  70
    32
  0
VERTEX
  8
0
  5
31BA1
 10
-376.516
 20
843.627
 30
0.000000
  70
    32
  0
VERTEX
  8
0
  5
31BA2
 10
-376.518
 20
843.625
 30
0.000000
  70
    32
  0
VERTEX
  8
0
  5
31BA3
 10
-376.520
 20
843.623
 30
0.000000
  70
    32
  0
VERTEX
  8
0
  5
31BA4
 10
-376.522
 20
843.621
 30
0.000000
  70
    32
  0
VERTEX
  8
0
  5
31BA5
 10
-376.524
 20
843.619
 30
0.000000
  70
    32
  0
VERTEX
  8
0
  5
31BA6
 10
-376.526
 20
843.617
 30
0.000000
  70
    32
  0
VERTEX
  8
0
  5
31BA7
 10
-376.529
 20
843.615
 30
0.000000
  70
    32
  0
VERTEX
  8
0
  5
31BA8
 10
-376.531
 20
843.613
 30
0.000000
  70
    32
  0
VERTEX
  8
0
  5
31BA9
 10
-376.533
 20
843.611
 30
0.000000
  70
    32
  0
VERTEX
  8
0
  5
31BAA
 10
-376.535
 20
843.609
 30
0.000000
  70
    32
  0
VERTEX
  8
0
  5
31BAB
 10
-376.538
 20
843.607
 30
0.000000
  70
    32
  0
VERTEX
  8
0
  5
31BAC
 10
-376.540
 20
843.605
 30
0.000000
  70
    32
  0
VERTEX
  8
0
  5
31BAD
 10
-376.542
 20
843.603
 30
0.000000
  70
    32
  0
VERTEX
  8
0
  5
31BAE
 10
-376.545
 20
843.601
 30
0.000000
  70
    32
  0
VERTEX
  8
0
  5
31BAF
 10
-376.547
 20
843.599
 30
0.000000
  70
    32
  0
VERTEX
  8
0
  5
31BB0
 10
-376.549
 20
843.598
 30
0.000000
  70
    32
  0
VERTEX
  8
0
  5
31BB1
 10
-376.552
 20
843.596
 30
0.000000
  70
    32
  0
VERTEX
  8
0
  5
31BB2
 10
-376.554
 20
843.594
 30
0.000000
  70
    32
  0
VERTEX
  8
0
  5
31BB3
 10
-376.557
 20
843.592
 30
0.000000
  70
    32
  0
VERTEX
  8
0
  5
31BB4
 10
-376.559
 20
843.591
 30
0.000000
  70
    32
  0
VERTEX
  8
0
  5
31BB5
 10
-376.561
 20
843.589
 30
0.000000
  70
    32
  0
VERTEX
  8
0
  5
31BB6
 10
-376.564
 20
843.587
 30
0.000000
  70
    32
  0
VERTEX
  8
0
  5
31BB7
 10
-376.566
 20
843.585
 30
0.000000
  70
    32
  0
VERTEX
  8
0
  5
31BB8
 10
-376.569
 20
843.584
 30
0.000000
  70
    32
  0
VERTEX
  8
0
  5
31BB9
 10
-376.571
 20
843.582
 30
0.000000
  70
    32
  0
VERTEX
  8
0
  5
31BBA
 10
-376.574
 20
843.580
 30
0.000000
  70
    32
  0
VERTEX
  8
0
  5
31BBB
 10
-376.576
 20
843.579
 30
0.000000
  70
    32
  0
VERTEX
  8
0
  5
31BBC
 10
-376.579
 20
843.577
 30
0.000000
  70
    32
  0
VERTEX
  8
0
  5
31BBD
 10
-376.581
 20
843.575
 30
0.000000
  70
    32
  0
VERTEX
  8
0
  5
31BBE
 10
-376.584
 20
843.574
 30
0.000000
  70
    32
  0
VERTEX
  8
0
  5
31BBF
 10
-376.586
 20
843.572
 30
0.000000
  70
    32
  0
VERTEX
  8
0
  5
31BC0
 10
-376.589
 20
843.570
 30
0.000000
  70
    32
  0
VERTEX
  8
0
  5
31BC1
 10
-376.591
 20
843.569
 30
0.000000
  70
    32
  0
VERTEX
  8
0
  5
31BC2
 10
-376.594
 20
843.567
 30
0.000000
  70
    32
  0
VERTEX
  8
0
  5
31BC3
 10
-376.596
 20
843.565
 30
0.000000
  70
    32
  0
VERTEX
  8
0
  5
31BC4
 10
-376.599
 20
843.563
 30
0.000000
  70
    32
  0
VERTEX
  8
0
  5
31BC5
 10
-376.601
 20
843.562
 30
0.000000
  70
    32
  0
VERTEX
  8
0
  5
31BC6
 10
-376.603
 20
843.560
 30
0.000000
  70
    32
  0
VERTEX
  8
0
  5
31BC7
 10
-376.606
 20
843.558
 30
0.000000
  70
    32
  0
VERTEX
  8
0
  5
31BC8
 10
-376.608
 20
843.557
 30
0.000000
  70
    32
  0
VERTEX
  8
0
  5
31BC9
 10
-376.611
 20
843.555
 30
0.000000
  70
    32
  0
VERTEX
  8
0
  5
31BCA
 10
-376.613
 20
843.553
 30
0.000000
  70
    32
  0
VERTEX
  8
0
  5
31BCB
 10
-376.616
 20
843.551
 30
0.000000
  70
    32
  0
VERTEX
  8
0
  5
31BCC
 10
-376.618
 20
843.550
 30
0.000000
  70
    32
  0
VERTEX
  8
0
  5
31BCD
 10
-376.621
 20
843.548
 30
0.000000
  70
    32
  0
VERTEX
  8
0
  5
31BCE
 10
-376.623
 20
843.546
 30
0.000000
  70
    32
  0
VERTEX
  8
0
  5
31BCF
 10
-376.625
 20
843.545
 30
0.000000
  70
    32
  0
VERTEX
  8
0
  5
31BD0
 10
-376.628
 20
843.543
 30
0.000000
  70
    32
  0
VERTEX
  8
0
  5
31BD1
 10
-376.630
 20
843.541
 30
0.000000
  70
    32
  0
VERTEX
  8
0
  5
31BD2
 10
-376.633
 20
843.539
 30
0.000000
  70
    32
  0
VERTEX
  8
0
  5
31BD3
 10
-376.635
 20
843.538
 30
0.000000
  70
    32
  0
VERTEX
  8
0
  5
31BD4
 10
-376.637
 20
843.536
 30
0.000000
  70
    32
  0
VERTEX
  8
0
  5
31BD5
 10
-376.640
 20
843.534
 30
0.000000
  70
    32
  0
VERTEX
  8
0
  5
31BD6
 10
-376.642
 20
843.532
 30
0.000000
  70
    32
  0
VERTEX
  8
0
  5
31BD7
 10
-376.645
 20
843.531
 30
0.000000
  70
    32
  0
VERTEX
  8
0
  5
31BD8
 10
-376.647
 20
843.529
 30
0.000000
  70
    32
  0
VERTEX
  8
0
  5
31BD9
 10
-376.650
 20
843.527
 30
0.000000
  70
    32
  0
VERTEX
  8
0
  5
31BDA
 10
-376.652
 20
843.525
 30
0.000000
  70
    32
  0
VERTEX
  8
0
  5
31BDB
 10
-376.654
 20
843.524
 30
0.000000
  70
    32
  0
VERTEX
  8
0
  5
31BDC
 10
-376.657
 20
843.522
 30
0.000000
  70
    32
  0
VERTEX
  8
0
  5
31BDD
 10
-376.659
 20
843.520
 30
0.000000
  70
    32
  0
VERTEX
  8
0
  5
31BDE
 10
-376.662
 20
843.519
 30
0.000000
  70
    32
  0
VERTEX
  8
0
  5
31BDF
 10
-376.664
 20
843.517
 30
0.000000
  70
    32
  0
VERTEX
  8
0
  5
31BE0
 10
-376.667
 20
843.515
 30
0.000000
  70
    32
  0
VERTEX
  8
0
  5
31BE1
 10
-376.669
 20
843.514
 30
0.000000
  70
    32
  0
VERTEX
  8
0
  5
31BE2
 10
-376.672
 20
843.512
 30
0.000000
  70
    32
  0
VERTEX
  8
0
  5
31BE3
 10
-376.674
 20
843.510
 30
0.000000
  70
    32
  0
VERTEX
  8
0
  5
31BE4
 10
-376.677
 20
843.508
 30
0.000000
  70
    32
  0
VERTEX
  8
0
  5
31BE5
 10
-376.679
 20
843.507
 30
0.000000
  70
    32
  0
VERTEX
  8
0
  5
31BE6
 10
-376.682
 20
843.505
 30
0.000000
  70
    32
  0
VERTEX
  8
0
  5
31BE7
 10
-376.684
 20
843.504
 30
0.000000
  70
    32
  0
VERTEX
  8
0
  5
31BE8
 10
-376.687
 20
843.502
 30
0.000000
  70
    32
  0
VERTEX
  8
0
  5
31BE9
 10
-376.689
 20
843.500
 30
0.000000
  70
    32
  0
VERTEX
  8
0
  5
31BEA
 10
-376.692
 20
843.499
 30
0.000000
  70
    32
  0
VERTEX
  8
0
  5
31BEB
 10
-376.694
 20
843.497
 30
0.000000
  70
    32
  0
VERTEX
  8
0
  5
31BEC
 10
-376.697
 20
843.495
 30
0.000000
  70
    32
  0
VERTEX
  8
0
  5
31BED
 10
-376.699
 20
843.494
 30
0.000000
  70
    32
  0
VERTEX
  8
0
  5
31BEE
 10
-376.702
 20
843.492
 30
0.000000
  70
    32
  0
VERTEX
  8
0
  5
31BEF
 10
-376.704
 20
843.490
 30
0.000000
  70
    32
  0
VERTEX
  8
0
  5
31BF0
 10
-376.707
 20
843.489
 30
0.000000
  70
    32
  0
VERTEX
  8
0
  5
31BF1
 10
-376.709
 20
843.487
 30
0.000000
  70
    32
  0
VERTEX
  8
0
  5
31BF2
 10
-376.712
 20
843.485
 30
0.000000
  70
    32
  0
VERTEX
  8
0
  5
31BF3
 10
-376.714
 20
843.484
 30
0.000000
  70
    32
  0
VERTEX
  8
0
  5
31BF4
 10
-376.717
 20
843.482
 30
0.000000
  70
    32
  0
VERTEX
  8
0
  5
31BF5
 10
-376.719
 20
843.480
 30
0.000000
  70
    32
  0
VERTEX
  8
0
  5
31BF6
 10
-376.722
 20
843.479
 30
0.000000
  70
    32
  0
VERTEX
  8
0
  5
31BF7
 10
-376.724
 20
843.477
 30
0.000000
  70
    32
  0
VERTEX
  8
0
  5
31BF8
 10
-376.727
 20
843.475
 30
0.000000
  70
    32
  0
VERTEX
  8
0
  5
31BF9
 10
-376.729
 20
843.473
 30
0.000000
  70
    32
  0
VERTEX
  8
0
  5
31BFA
 10
-376.732
 20
843.472
 30
0.000000
  70
    32
  0
VERTEX
  8
0
  5
31BFB
 10
-376.734
 20
843.470
 30
0.000000
  70
    32
  0
VERTEX
  8
0
  5
31BFC
 10
-376.736
 20
843.468
 30
0.000000
  70
    32
  0
VERTEX
  8
0
  5
31BFD
 10
-376.739
 20
843.466
 30
0.000000
  70
    32
  0
VERTEX
  8
0
  5
31BFE
 10
-376.741
 20
843.465
 30
0.000000
  70
    32
  0
VERTEX
  8
0
  5
31BFF
 10
-376.743
 20
843.463
 30
0.000000
  70
    32
  0
VERTEX
  8
0
  5
31C00
 10
-376.746
 20
843.461
 30
0.000000
  70
    32
  0
VERTEX
  8
0
  5
31C01
 10
-376.748
 20
843.459
 30
0.000000
  70
    32
  0
VERTEX
  8
0
  5
31C02
 10
-376.750
 20
843.457
 30
0.000000
  70
    32
  0
VERTEX
  8
0
  5
31C03
 10
-376.753
 20
843.455
 30
0.000000
  70
    32
  0
VERTEX
  8
0
  5
31C04
 10
-376.755
 20
843.453
 30
0.000000
  70
    32
  0
VERTEX
  8
0
  5
31C05
 10
-376.757
 20
843.451
 30
0.000000
  70
    32
  0
VERTEX
  8
0
  5
31C06
 10
-376.759
 20
843.449
 30
0.000000
  70
    32
  0
VERTEX
  8
0
  5
31C07
 10
-376.761
 20
843.447
 30
0.000000
  70
    32
  0
VERTEX
  8
0
  5
31C08
 10
-376.764
 20
843.445
 30
0.000000
  70
    32
  0
VERTEX
  8
0
  5
31C09
 10
-376.766
 20
843.443
 30
0.000000
  70
    32
  0
VERTEX
  8
0
  5
31C0A
 10
-376.768
 20
843.441
 30
0.000000
  70
    32
  0
VERTEX
  8
0
  5
31C0B
 10
-376.770
 20
843.439
 30
0.000000
  70
    32
  0
VERTEX
  8
0
  5
31C0C
 10
-376.772
 20
843.437
 30
0.000000
  70
    32
  0
VERTEX
  8
0
  5
31C0D
 10
-376.774
 20
843.434
 30
0.000000
  70
    32
  0
VERTEX
  8
0
  5
31C0E
 10
-376.776
 20
843.432
 30
0.000000
  70
    32
  0
VERTEX
  8
0
  5
31C0F
 10
-376.778
 20
843.430
 30
0.000000
  70
    32
  0
VERTEX
  8
0
  5
31C10
 10
-376.779
 20
843.428
 30
0.000000
  70
    32
  0
VERTEX
  8
0
  5
31C11
 10
-376.781
 20
843.425
 30
0.000000
  70
    32
  0
VERTEX
  8
0
  5
31C12
 10
-376.783
 20
843.423
 30
0.000000
  70
    32
  0
VERTEX
  8
0
  5
31C13
 10
-376.785
 20
843.420
 30
0.000000
  70
    32
  0
VERTEX
  8
0
  5
31C14
 10
-376.787
 20
843.418
 30
0.000000
  70
    32
  0
VERTEX
  8
0
  5
31C15
 10
-376.788
 20
843.416
 30
0.000000
  70
    32
  0
VERTEX
  8
0
  5
31C16
 10
-376.790
 20
843.413
 30
0.000000
  70
    32
  0
VERTEX
  8
0
  5
31C17
 10
-376.792
 20
843.411
 30
0.000000
  70
    32
  0
VERTEX
  8
0
  5
31C18
 10
-376.793
 20
843.408
 30
0.000000
  70
    32
  0
VERTEX
  8
0
  5
31C19
 10
-376.795
 20
843.406
 30
0.000000
  70
    32
  0
VERTEX
  8
0
  5
31C1A
 10
-376.797
 20
843.403
 30
0.000000
  70
    32
  0
VERTEX
  8
0
  5
31C1B
 10
-376.798
 20
843.401
 30
0.000000
  70
    32
  0
VERTEX
  8
0
  5
31C1C
 10
-376.800
 20
843.398
 30
0.000000
  70
    32
  0
VERTEX
  8
0
  5
31C1D
 10
-376.801
 20
843.395
 30
0.000000
  70
    32
  0
VERTEX
  8
0
  5
31C1E
 10
-376.803
 20
843.393
 30
0.000000
  70
    32
  0
VERTEX
  8
0
  5
31C1F
 10
-376.804
 20
843.390
 30
0.000000
  70
    32
  0
VERTEX
  8
0
  5
31C20
 10
-376.806
 20
843.388
 30
0.000000
  70
    32
  0
VERTEX
  8
0
  5
31C21
 10
-376.807
 20
843.385
 30
0.000000
  70
    32
  0
VERTEX
  8
0
  5
31C22
 10
-376.809
 20
843.382
 30
0.000000
  70
    32
  0
VERTEX
  8
0
  5
31C23
 10
-376.810
 20
843.380
 30
0.000000
  70
    32
  0
VERTEX
  8
0
  5
31C24
 10
-376.811
 20
843.377
 30
0.000000
  70
    32
  0
VERTEX
  8
0
  5
31C25
 10
-376.813
 20
843.374
 30
0.000000
  70
    32
  0
VERTEX
  8
0
  5
31C26
 10
-376.814
 20
843.371
 30
0.000000
  70
    32
  0
VERTEX
  8
0
  5
31C27
 10
-376.815
 20
843.369
 30
0.000000
  70
    32
  0
VERTEX
  8
0
  5
31C28
 10
-376.817
 20
843.366
 30
0.000000
  70
    32
  0
VERTEX
  8
0
  5
31C29
 10
-376.818
 20
843.363
 30
0.000000
  70
    32
  0
VERTEX
  8
0
  5
31C2A
 10
-376.819
 20
843.360
 30
0.000000
  70
    32
  0
VERTEX
  8
0
  5
31C2B
 10
-376.820
 20
843.358
 30
0.000000
  70
    32
  0
VERTEX
  8
0
  5
31C2C
 10
-376.821
 20
843.355
 30
0.000000
  70
    32
  0
VERTEX
  8
0
  5
31C2D
 10
-376.823
 20
843.352
 30
0.000000
  70
    32
  0
VERTEX
  8
0
  5
31C2E
 10
-376.824
 20
843.349
 30
0.000000
  70
    32
  0
VERTEX
  8
0
  5
31C2F
 10
-376.825
 20
843.346
 30
0.000000
  70
    32
  0
VERTEX
  8
0
  5
31C30
 10
-376.826
 20
843.344
 30
0.000000
  70
    32
  0
VERTEX
  8
0
  5
31C31
 10
-376.827
 20
843.341
 30
0.000000
  70
    32
  0
VERTEX
  8
0
  5
31C32
 10
-376.828
 20
843.338
 30
0.000000
  70
    32
  0
VERTEX
  8
0
  5
31C33
 10
-376.829
 20
843.335
 30
0.000000
  70
    32
  0
VERTEX
  8
0
  5
31C34
 10
-376.830
 20
843.332
 30
0.000000
  70
    32
  0
VERTEX
  8
0
  5
31C35
 10
-376.831
 20
843.329
 30
0.000000
  70
    32
  0
VERTEX
  8
0
  5
31C36
 10
-376.832
 20
843.326
 30
0.000000
  70
    32
  0
VERTEX
  8
0
  5
31C37
 10
-376.833
 20
843.324
 30
0.000000
  70
    32
  0
VERTEX
  8
0
  5
31C38
 10
-376.834
 20
843.321
 30
0.000000
  70
    32
  0
VERTEX
  8
0
  5
31C39
 10
-376.835
 20
843.318
 30
0.000000
  70
    32
  0
VERTEX
  8
0
  5
31C3A
 10
-376.836
 20
843.315
 30
0.000000
  70
    32
  0
VERTEX
  8
0
  5
31C3B
 10
-376.837
 20
843.312
 30
0.000000
  70
    32
  0
VERTEX
  8
0
  5
31C3C
 10
-376.837
 20
843.309
 30
0.000000
  70
    32
  0
VERTEX
  8
0
  5
31C3D
 10
-376.838
 20
843.306
 30
0.000000
  70
    32
  0
VERTEX
  8
0
  5
31C3E
 10
-376.839
 20
843.304
 30
0.000000
  70
    32
  0
VERTEX
  8
0
  5
31C3F
 10
-376.840
 20
843.301
 30
0.000000
  70
    32
  0
VERTEX
  8
0
  5
31C40
 10
-376.841
 20
843.298
 30
0.000000
  70
    32
  0
VERTEX
  8
0
  5
31C41
 10
-376.842
 20
843.295
 30
0.000000
  70
    32
  0
VERTEX
  8
0
  5
31C42
 10
-376.842
 20
843.292
 30
0.000000
  70
    32
  0
VERTEX
  8
0
  5
31C43
 10
-376.843
 20
843.289
 30
0.000000
  70
    32
  0
VERTEX
  8
0
  5
31C44
 10
-376.844
 20
843.286
 30
0.000000
  70
    32
  0
VERTEX
  8
0
  5
31C45
 10
-376.845
 20
843.283
 30
0.000000
  70
    32
  0
VERTEX
  8
0
  5
31C46
 10
-376.845
 20
843.281
 30
0.000000
  70
    32
  0
VERTEX
  8
0
  5
31C47
 10
-376.846
 20
843.278
 30
0.000000
  70
    32
  0
VERTEX
  8
0
  5
31C48
 10
-376.847
 20
843.275
 30
0.000000
  70
    32
  0
VERTEX
  8
0
  5
31C49
 10
-376.848
 20
843.272
 30
0.000000
  70
    32
  0
VERTEX
  8
0
  5
31C4A
 10
-376.848
 20
843.269
 30
0.000000
  70
    32
  0
VERTEX
  8
0
  5
31C4B
 10
-376.849
 20
843.266
 30
0.000000
  70
    32
  0
VERTEX
  8
0
  5
31C4C
 10
-376.850
 20
843.263
 30
0.000000
  70
    32
  0
VERTEX
  8
0
  5
31C4D
 10
-376.850
 20
843.260
 30
0.000000
  70
    32
  0
VERTEX
  8
0
  5
31C4E
 10
-376.851
 20
843.257
 30
0.000000
  70
    32
  0
VERTEX
  8
0
  5
31C4F
 10
-376.852
 20
843.255
 30
0.000000
  70
    32
  0
VERTEX
  8
0
  5
31C50
 10
-376.853
 20
843.252
 30
0.000000
  70
    32
  0
VERTEX
  8
0
  5
31C51
 10
-376.853
 20
843.249
 30
0.000000
  70
    32
  0
VERTEX
  8
0
  5
31C52
 10
-376.854
 20
843.246
 30
0.000000
  70
    32
  0
VERTEX
  8
0
  5
31C53
 10
-376.855
 20
843.243
 30
0.000000
  70
    32
  0
VERTEX
  8
0
  5
31C54
 10
-376.855
 20
843.240
 30
0.000000
  70
    32
  0
VERTEX
  8
0
  5
31C55
 10
-376.856
 20
843.237
 30
0.000000
  70
    32
  0
VERTEX
  8
0
  5
31C56
 10
-376.857
 20
843.234
 30
0.000000
  70
    32
  0
VERTEX
  8
0
  5
31C57
 10
-376.857
 20
843.231
 30
0.000000
  70
    32
  0
VERTEX
  8
0
  5
31C58
 10
-376.858
 20
843.228
 30
0.000000
  70
    32
  0
VERTEX
  8
0
  5
31C59
 10
-376.858
 20
843.226
 30
0.000000
  70
    32
  0
SEQEND
  8
0
  5
31C5A
  0
LINE
  5
31054
  8
0
  6
CONTINUOUS
 10
-382.20328057036352
 20
843.27338843523478
 30
0.0
 11
-380.8841980612911
 21
843.27338843523478
 31
0.0
  0
LINE
  5
31055
  8
0
  6
CONTINUOUS
 62
   255
 10
-382.20328057036352
 20
843.27338843523478
 30
0.0
 11
-382.20328057036352
 21
848.89838843523478
 31
0.0
  0
LINE
  5
31056
  8
0
  6
CONTINUOUS
 10
-379.9411846484054
 20
846.32439427916631
 30
0.0
 11
-382.20328057036352
 21
846.32439427916631
 31
0.0
  0
LINE
  5
31057
  8
0
  6
CONTINUOUS
 10
-379.96275776005012
 20
846.19802553346119
 30
0.0
 11
-382.20328057036352
 21
846.19802553346119
 31
0.0
  0
LINE
  5
31058
  8
0
  6
CONTINUOUS
 10
-380.70328057036352
 20
845.28074346147082
 30
0.0
 11
-382.20328057036352
 21
845.28074346147082
 31
0.0
  0
LINE
  5
31059
  8
0
  6
CONTINUOUS
 10
-380.82897740194608
 20
844.20913151479476
 30
0.0
 11
-382.20328057036352
 21
844.20913151479476
 31
0.0
  0
LINE
  5
3105A
  8
0
  6
CONTINUOUS
 10
-380.82897740194608
 20
844.15051898298702
 30
0.0
 11
-382.20328057036352
 21
844.15051898298702
 31
0.0
  0
LINE
  5
3105B
  8
0
  6
CONTINUOUS
 62
   255
 10
-382.20328057036352
 20
848.89838843523478
 30
0.0
 11
-377.55505838856971
 21
848.89838843523478
 31
0.0
  0
LINE
  5
3105C
  8
0
  6
CONTINUOUS
 10
-377.55505838856971
 20
848.65021776775109
 30
0.0
 11
-382.20328057036352
 21
848.65021776775109
 31
0.0
  0
VIEWPORT
  5
BADA
 67
     1
  8
0
 10
5.249999665167536
 20
4.0168608648543138
 30
0.0
 40
16.023543186357209
 41
8.0117715931786062
 68
     2
 69
     1
1001
ACAD
1000
MVIEW
1002
{
1070
    16
1010
0.0
1020
0.0
1030
0.0
1010
0.0
1020
0.0
1030
1.0
1040
0.0
1040
8.0117715931786062
1040
5.249999665167536
1040
4.0168608648543138
1040
50.0
1040
0.0
1040
0.0
1070
     0
1070
   100
1070
     1
1070
     1
1070
     0
1070
     0
1070
     0
1070
     0
1040
0.0
1040
0.0
1040
0.0
1040
0.5
1040
0.5
1040
0.5
1040
0.5
1070
     0
1002
{
1002
}
1002
}
  0
VIEWPORT
  5
BADD
 67
     1
  8
0
 10
5.2499996294871929
 20
4.0166741807634683
 30
0.0
 40
10.44245679893058
 41
7.8813805131999892
 68
     1
 69
     2
1001
ACAD
1000
MVIEW
1002
{
1070
    16
1010
0.0
1020
0.0
1030
0.0
1010
0.0
1020
0.0
1030
1.0
1040
0.0
1040
7.8813805131999892
1040
-378.00435895189042
1040
846.01041133260355
1040
50.0
1040
0.0
1040
0.0
1070
     0
1070
   100
1070
     1
1070
     2
1070
     0
1070
     0
1070
     0
1070
     0
1040
0.0
1040
0.0
1040
0.0
1040
0.5
1040
0.5
1040
0.5
1040
0.5
1070
     0
1002
{
1002
}
1002
}
  0
ENDSEC
  0
EOF
