  0
SECTION
  2
HEADER
  9
$ACADVER
  1
AC1009
  9
$INSBASE
 10
0.0
 20
0.0
 30
0.0
  9
$EXTMIN
 10
-388.0615153254812
 20
830.71141642465341
 30
-0.0015258207003583
  9
$EXTMAX
 10
-374.86906950346531
 20
854.92308910391705
 30
0.0000000349246037
  9
$LIMMIN
 10
0.0
 20
0.0
  9
$LIMMAX
 10
1500.0
 20
1500.0
  9
$ORTHOMODE
 70
     0
  9
$REGENMODE
 70
     1
  9
$FILLMODE
 70
     1
  9
$QTEXTMODE
 70
     0
  9
$MIRRTEXT
 70
     1
  9
$DRAGMODE
 70
     2
  9
$LTSCALE
 40
1.0
  9
$OSMODE
 70
    37
  9
$ATTMODE
 70
     1
  9
$TEXTSIZE
 40
1.5
  9
$TRACEWID
 40
0.05
  9
$TEXTSTYLE
  7
STANDARD
  9
$CLAYER
  8
0
  9
$CELTYPE
  6
BYLAYER
  9
$CECOLOR
 62
   256
  9
$DIMSCALE
 40
1.0
  9
$DIMASZ
 40
0.75
  9
$DIMEXO
 40
1.5
  9
$DIMDLI
 40
2.0
  9
$DIMRND
 40
0.0
  9
$DIMDLE
 40
0.0
  9
$DIMEXE
 40
1.0
  9
$DIMTP
 40
0.0
  9
$DIMTM
 40
0.0
  9
$DIMTXT
 40
1.5
  9
$DIMCEN
 40
2.0
  9
$DIMTSZ
 40
0.0
  9
$DIMTOL
 70
     0
  9
$DIMLIM
 70
     0
  9
$DIMTIH
 70
     0
  9
$DIMTOH
 70
     0
  9
$DIMSE1
 70
     0
  9
$DIMSE2
 70
     0
  9
$DIMTAD
 70
     1
  9
$DIMZIN
 70
     0
  9
$DIMBLK
  1
ARCHTICK
  9
$DIMASO
 70
     1
  9
$DIMSHO
 70
     1
  9
$DIMPOST
  1
"
  9
$DIMAPOST
  1

  9
$DIMALT
 70
     0
  9
$DIMALTD
 70
     2
  9
$DIMALTF
 40
25.399999999999999
  9
$DIMLFAC
 40
1.0
  9
$DIMTOFL
 70
     0
  9
$DIMTVP
 40
0.0
  9
$DIMTIX
 70
     1
  9
$DIMSOXD
 70
     0
  9
$DIMSAH
 70
     0
  9
$DIMBLK1
  1

  9
$DIMBLK2
  1

  9
$DIMSTYLE
  2
THREE_QUARTER_INCH_SCALE
  9
$DIMCLRD
 70
     0
  9
$DIMCLRE
 70
     0
  9
$DIMCLRT
 70
     0
  9
$DIMTFAC
 40
1.0
  9
$DIMGAP
 40
1.0
  9
$LUNITS
 70
     2
  9
$LUPREC
 70
     4
  9
$SKETCHINC
 40
0.1
  9
$FILLETRAD
 40
0.0
  9
$AUNITS
 70
     0
  9
$AUPREC
 70
     0
  9
$MENU
  1
.
  9
$ELEVATION
 40
0.0
  9
$PELEVATION
 40
0.0
  9
$THICKNESS
 40
0.0
  9
$LIMCHECK
 70
     0
  9
$BLIPMODE
 70
     0
  9
$CHAMFERA
 40
0.5
  9
$CHAMFERB
 40
0.5
  9
$SKPOLY
 70
     0
  9
$TDCREATE
 40
2452089.395738773
  9
$TDUPDATE
 40
2453607.6588351741
  9
$TDINDWG
 40
1.3381720832999999
  9
$TDUSRTIMER
 40
1.3381720832999999
  9
$USRTIMER
 70
     1
  9
$ANGBASE
 50
0.0
  9
$ANGDIR
 70
     0
  9
$PDMODE
 70
     0
  9
$PDSIZE
 40
10.0
  9
$PLINEWID
 40
0.0
  9
$COORDS
 70
     1
  9
$SPLFRAME
 70
     0
  9
$SPLINETYPE
 70
     6
  9
$SPLINESEGS
 70
     8
  9
$ATTDIA
 70
     0
  9
$ATTREQ
 70
     1
  9
$HANDLING
 70
     1
  9
$HANDSEED
  5
2E6FB
  9
$SURFTAB1
 70
     6
  9
$SURFTAB2
 70
     6
  9
$SURFTYPE
 70
     6
  9
$SURFU
 70
     6
  9
$SURFV
 70
     6
  9
$UCSNAME
  2

  9
$UCSORG
 10
0.0
 20
0.0
 30
0.0
  9
$UCSXDIR
 10
1.0
 20
0.0
 30
0.0
  9
$UCSYDIR
 10
0.0
 20
1.0
 30
0.0
  9
$PUCSNAME
  2

  9
$PUCSORG
 10
0.0
 20
0.0
 30
0.0
  9
$PUCSXDIR
 10
1.0
 20
0.0
 30
0.0
  9
$PUCSYDIR
 10
0.0
 20
1.0
 30
0.0
  9
$USERI1
 70
     0
  9
$USERI2
 70
     0
  9
$USERI3
 70
     0
  9
$USERI4
 70
     0
  9
$USERI5
 70
     0
  9
$USERR1
 40
0.0
  9
$USERR2
 40
0.0
  9
$USERR3
 40
0.0
  9
$USERR4
 40
0.0
  9
$USERR5
 40
0.0
  9
$WORLDVIEW
 70
     1
  9
$SHADEDGE
 70
     3
  9
$SHADEDIF
 70
    70
  9
$TILEMODE
 70
     0
  9
$MAXACTVP
 70
    64
  9
$PLIMCHECK
 70
     0
  9
$PEXTMIN
 10
0.0287712300219028
 20
0.0759839241634737
 30
0.0
  9
$PEXTMAX
 10
10.47122802895248
 20
7.957364437363462
 30
0.0
  9
$PLIMMIN
 10
-0.2500002402958907
 20
-0.2499999962453767
  9
$PLIMMAX
 10
10.74999951940821
 20
8.2499997634587316
  9
$UNITMODE
 70
     0
  9
$VISRETAIN
 70
     1
  9
$PLINEGEN
 70
     0
  9
$PSLTSCALE
 70
     1
  0
ENDSEC
  0
SECTION
  2
TABLES
  0
TABLE
  2
VPORT
 70
   176
  0
VPORT
  2
*ACTIVE
 70
     0
 10
0.0
 20
0.0
 11
1.0
 21
1.0
 12
-381.52600122126211
 22
845.16779400026962
 13
0.0
 23
0.0
 14
0.5
 24
0.5
 15
0.5
 25
0.5
 16
0.0
 26
0.0
 36
1.0
 17
0.0
 27
0.0
 37
0.0
 40
7.7974136879046219
 41
2.0
 42
50.0
 43
0.0
 44
0.0
 50
0.0
 51
0.0
 71
     0
 72
   100
 73
     1
 74
     2
 75
     0
 76
     0
 77
     0
 78
     0
  0
ENDTAB
  0
TABLE
  2
LTYPE
 70
     1
  0
LTYPE
  2
CONTINUOUS
 70
     0
  3
Solid line
 72
    65
 73
     0
 40
0.0
  0
ENDTAB
  0
TABLE
  2
LAYER
 70
    10
  0
LAYER
  2
0
 70
     0
 62
     7
  6
CONTINUOUS
  0
LAYER
  2
DEFPOINTS
 70
     0
 62
     7
  6
CONTINUOUS
  0
LAYER
  2
FRAME_200
 70
     0
 62
     8
  6
CONTINUOUS
  0
LAYER
  2
FRAME_070
 70
     0
 62
     5
  6
CONTINUOUS
  0
LAYER
  2
FRAME_050
 70
     0
 62
     6
  6
CONTINUOUS
  0
LAYER
  2
TITLE_BLOCK
 70
     0
 62
     7
  6
CONTINUOUS
  0
LAYER
  2
FRAME_025
 70
     0
 62
     7
  6
CONTINUOUS
  0
LAYER
  2
VIEWPORT
 70
     0
 62
     7
  6
CONTINUOUS
  0
LAYER
  2
PROF
 70
     0
 62
     7
  6
CONTINUOUS
  0
LAYER
  2
PROFILE
 70
     0
 62
     7
  6
CONTINUOUS
  0
ENDTAB
  0
TABLE
  2
STYLE
 70
     2
  0
STYLE
  2
STANDARD
 70
     0
 40
0.0
 41
1.0
 50
0.0
 71
     0
 42
1.5
  3
txt
  4

  0
STYLE
  2
ISO_PROPORTIONAL
 70
     0
 40
0.0
 41
1.0
 50
0.0
 71
     0
 42
2.5
  3
isocp.shx
  4

  0
ENDTAB
  0
TABLE
  2
VIEW
 70
   181
  0
ENDTAB
  0
TABLE
  2
UCS
 70
     0
  0
ENDTAB
  0
TABLE
  2
APPID
 70
     6
  0
APPID
  2
ACAD
 70
     0
  0
APPID
  2
DCO15
 70
     0
  0
APPID
  2
ACAD_EXEMPT_FROM_CAD_STANDARDS
 70
     0
  0
APPID
  2
ACAD_PSEXT
 70
     0
  0
APPID
  2
CONTENTBLOCKDESCRIPTION
 70
     0
  0
APPID
  2
CONTENTBLOCKICON
 70
     0
  0
ENDTAB
  0
TABLE
  2
DIMSTYLE
 70
     5
  0
DIMSTYLE
  2
FULL_SCALE
 70
     0
  3
"
  4

  5
ARCHTICK
  6

  7

 40
1.0
 41
0.046875
 42
0.09375
 43
0.125
 44
0.0625
 45
0.0
 46
0.0
 47
0.0
 48
0.0
140
0.125
141
0.125
142
0.0
143
25.399999999999999
144
1.0
145
0.0
146
1.0
147
0.0625
 71
     0
 72
     0
 73
     0
 74
     0
 75
     0
 76
     0
 77
     1
 78
     0
170
     0
171
     2
172
     0
173
     0
174
     1
175
     0
176
     0
177
     0
178
     0
  0
DIMSTYLE
  2
HALF_SCALE
 70
     0
  3
"
  4

  5
ARCHTICK
  6

  7

 40
1.0
 41
0.09375
 42
0.1875
 43
0.25
 44
0.125
 45
0.0
 46
0.0
 47
0.0
 48
0.0
140
0.25
141
0.25
142
0.0
143
25.399999999999999
144
1.0
145
0.0
146
1.0
147
0.125
 71
     0
 72
     0
 73
     0
 74
     0
 75
     0
 76
     0
 77
     1
 78
     0
170
     0
171
     2
172
     0
173
     0
174
     1
175
     0
176
     0
177
     0
178
     0
  0
DIMSTYLE
  2
INCH_SCALE
 70
     0
  3
"
  4

  5
ARCHTICK
  6

  7

 40
1.0
 41
0.5625
 42
1.125
 43
1.5
 44
0.75
 45
0.0
 46
0.0
 47
0.0
 48
0.0
140
1.125
141
1.5
142
0.0
143
25.399999999999999
144
1.0
145
0.0
146
1.0
147
0.75
 71
     0
 72
     0
 73
     0
 74
     0
 75
     0
 76
     0
 77
     1
 78
     0
170
     0
171
     2
172
     0
173
     0
174
     1
175
     0
176
     0
177
     0
178
     0
  0
DIMSTYLE
  2
THREE_QUARTER_INCH_SCALE
 70
     0
  3
"
  4

  5
ARCHTICK
  6

  7

 40
1.0
 41
0.75
 42
1.5
 43
2.0
 44
1.0
 45
0.0
 46
0.0
 47
0.0
 48
0.0
140
1.5
141
2.0
142
0.0
143
25.399999999999999
144
1.0
145
0.0
146
1.0
147
1.0
 71
     0
 72
     0
 73
     0
 74
     0
 75
     0
 76
     0
 77
     1
 78
     0
170
     0
171
     2
172
     0
173
     0
174
     1
175
     0
176
     0
177
     0
178
     0
  0
DIMSTYLE
  2
ZHALF_INCH_SCALE
 70
     0
  3
"
  4

  5
ARCHTICK
  6

  7

 40
1.0
 41
1.125
 42
2.25
 43
3.0
 44
1.5
 45
0.0
 46
0.0
 47
0.0
 48
0.0
140
2.25
141
3.0
142
0.0
143
25.399999999999999
144
1.0
145
0.0
146
1.0
147
1.5
 71
     0
 72
     0
 73
     0
 74
     0
 75
     0
 76
     0
 77
     1
 78
     0
170
     0
171
     2
172
     0
173
     0
174
     1
175
     0
176
     0
177
     0
178
     0
  0
ENDTAB
  0
ENDSEC
  0
SECTION
  2
BLOCKS
  0
BLOCK
  8
0
  2
$MODEL_SPACE
 70
     0
 10
0.0
 20
0.0
 30
0.0
  3
$MODEL_SPACE
  1

  0
ENDBLK
  5
21
  8
0
  0
BLOCK
 67
     1
  8
0
  2
$PAPER_SPACE
 70
     0
 10
0.0
 20
0.0
 30
0.0
  3
$PAPER_SPACE
  1

  0
ENDBLK
  5
BAD5
 67
     1
  8
0
  0
BLOCK
  8
0
  2
_ARCHTICK
 70
     0
 10
0.0
 20
0.0
 30
0.0
  3
_ARCHTICK
  1

  0
POLYLINE
  5
158
  8
0
  6
BYBLOCK
 62
     0
 66
     1
 10
0.0
 20
0.0
 30
0.0
 40
0.15
 41
0.15
  0
VERTEX
  5
2DADF
  8
0
  6
BYBLOCK
 62
     0
 10
-0.5
 20
-0.5
 30
0.0
  0
VERTEX
  5
2DAE0
  8
0
  6
BYBLOCK
 62
     0
 10
0.5
 20
0.5
 30
0.0
  0
SEQEND
  5
2DAE1
  8
0
  6
BYBLOCK
 62
     0
  0
ENDBLK
  5
15A
  8
0
  0
BLOCK
  8
0
  2
_OPEN30
 70
     0
 10
0.0
 20
0.0
 30
0.0
  3
_OPEN30
  1

  0
LINE
  5
15C
  8
0
  6
BYBLOCK
 62
     0
 10
-1.0
 20
0.26794919
 30
0.0
 11
0.0
 21
0.0
 31
0.0
  0
LINE
  5
15D
  8
0
  6
BYBLOCK
 62
     0
 10
0.0
 20
0.0
 30
0.0
 11
-1.0
 21
-0.26794919
 31
0.0
  0
LINE
  5
15E
  8
0
  6
BYBLOCK
 62
     0
 10
0.0
 20
0.0
 30
0.0
 11
-1.0
 21
0.0
 31
0.0
  0
ENDBLK
  5
160
  8
0
  0
BLOCK
  8
0
  2
ISO_A2_TITLE_BLOCK
 70
     2
 10
0.0
 20
0.0
 30
0.0
  3
ISO_A2_TITLE_BLOCK
  1

  0
LINE
  5
BDD
  8
FRAME_050
 10
299.5
 20
12.5
 30
0.0
 11
297.0
 21
7.5
 31
0.0
  0
LINE
  5
BDE
  8
FRAME_050
 10
294.5
 20
12.5
 30
0.0
 11
299.5
 21
12.5
 31
0.0
  0
LINE
  5
BDF
  8
FRAME_050
 10
247.0
 20
5.0
 30
0.0
 11
347.0
 21
5.0
 31
0.0
  0
LINE
  5
BE0
  8
FRAME_070
 10
584.0
 20
410.0
 30
0.0
 11
10.0
 21
410.0
 31
0.0
  0
LINE
  5
BE1
  8
FRAME_070
 10
10.0
 20
10.0
 30
0.0
 11
584.0
 21
10.0
 31
0.0
  0
LINE
  5
BE2
  8
FRAME_050
 10
12.5
 20
207.5
 30
0.0
 11
7.5
 21
210.0
 31
0.0
  0
LINE
  5
BE3
  8
FRAME_050
 10
12.5
 20
212.5
 30
0.0
 11
12.5
 21
207.5
 31
0.0
  0
LINE
  5
BE4
  8
FRAME_070
 10
10.0
 20
410.0
 30
0.0
 11
10.0
 21
10.0
 31
0.0
  0
LINE
  5
BE5
  8
FRAME_200
 10
0.0
 20
0.0
 30
0.0
 11
0.0
 21
10.0
 31
0.0
  0
LINE
  5
BE6
  8
FRAME_200
 10
0.0
 20
0.0
 30
0.0
 11
10.0
 21
0.0
 31
0.0
  0
TEXT
  5
BE7
  8
FRAME_050
 10
5.9000000000000004
 20
35.0
 30
0.0
 40
4.0
  1
H
  7
ISO_PROPORTIONAL
 72
     4
 11
7.5
 21
37.0
 31
0.0
  0
LINE
  5
BE8
  8
FRAME_050
 10
10.0
 20
60.0
 30
0.0
 11
5.0
 21
60.0
 31
0.0
  0
LINE
  5
BE9
  8
FRAME_050
 10
81.75
 20
5.0
 30
0.0
 11
81.75
 21
10.0
 31
0.0
  0
TEXT
  5
BEA
  8
FRAME_050
 10
44.874999999999993
 20
5.5
 30
0.0
 40
4.0
  1
1
  7
ISO_PROPORTIONAL
 72
     4
 11
45.875
 21
7.5
 31
0.0
  0
TEXT
  5
BEB
  8
FRAME_050
 10
6.0035533905932743
 20
85.0
 30
0.0
 40
4.0
  1
G
  7
ISO_PROPORTIONAL
 72
     4
 11
7.5
 21
87.0
 31
0.0
  0
LINE
  5
BEC
  8
FRAME_050
 10
10.0
 20
110.0
 30
0.0
 11
5.0
 21
110.0
 31
0.0
  0
TEXT
  5
BED
  8
FRAME_050
 10
6.0999999999999988
 20
135.0
 30
0.0
 40
4.0
  1
F
  7
ISO_PROPORTIONAL
 72
     4
 11
7.5
 21
137.0
 31
0.0
  0
LINE
  5
BEE
  8
FRAME_050
 10
10.0
 20
160.0
 30
0.0
 11
5.0
 21
160.0
 31
0.0
  0
TEXT
  5
BEF
  8
FRAME_050
 10
6.0999999999999988
 20
185.0
 30
0.0
 40
4.0
  1
E
  7
ISO_PROPORTIONAL
 72
     4
 11
7.5
 21
187.0
 31
0.0
  0
LINE
  5
BF0
  8
FRAME_050
 10
153.5
 20
5.0
 30
0.0
 11
153.5
 21
10.0
 31
0.0
  0
TEXT
  5
BF1
  8
FRAME_050
 10
116.1556692913386
 20
5.3996062992125982
 30
0.0
 40
4.0
  1
2
  7
ISO_PROPORTIONAL
 72
     4
 11
117.625
 21
7.5
 31
0.0
  0
TEXT
  5
BF2
  8
FRAME_050
 10
187.89215728752529
 20
5.5828427124746138
 30
0.0
 40
4.0
  1
3
  7
ISO_PROPORTIONAL
 72
     4
 11
189.375
 21
7.5
 31
0.0
  0
LINE
  5
BF3
  8
FRAME_050
 10
225.25
 20
5.0
 30
0.0
 11
225.25
 21
10.0
 31
0.0
  0
LINE
  5
BF4
  8
FRAME_050
 10
297.0
 20
7.5
 30
0.0
 11
294.5
 21
12.5
 31
0.0
  0
LINE
  5
BF5
  8
FRAME_050
 10
287.0
 20
5.0
 30
0.0
 11
287.0
 21
10.0
 31
0.0
  0
LINE
  5
BF6
  8
FRAME_050
 10
277.0
 20
5.0
 30
0.0
 11
277.0
 21
10.0
 31
0.0
  0
LINE
  5
BF7
  8
FRAME_050
 10
267.0
 20
5.0
 30
0.0
 11
267.0
 21
10.0
 31
0.0
  0
LINE
  5
BF8
  8
FRAME_050
 10
257.0
 20
5.0
 30
0.0
 11
257.0
 21
10.0
 31
0.0
  0
LINE
  5
BF9
  8
FRAME_050
 10
247.0
 20
5.0
 30
0.0
 11
247.0
 21
10.0
 31
0.0
  0
LINE
  5
BFA
  8
FRAME_050
 10
297.0
 20
10.0
 30
0.0
 11
297.0
 21
5.0
 31
0.0
  0
LINE
  5
BFB
  8
FRAME_050
 10
297.0
 20
10.0
 30
0.0
 11
297.0
 21
15.0
 31
0.0
  0
LINE
  5
BFC
  8
FRAME_050
 10
5.0
 20
210.0
 30
0.0
 11
15.0
 21
210.0
 31
0.0
  0
LINE
  5
BFD
  8
FRAME_050
 10
7.5
 20
210.0
 30
0.0
 11
12.5
 21
212.5
 31
0.0
  0
TEXT
  5
BFE
  8
FRAME_050
 10
5.7860912703473977
 20
235.0
 30
0.0
 40
4.0
  1
D
  7
ISO_PROPORTIONAL
 72
     4
 11
7.5
 21
237.0
 31
0.0
  0
LINE
  5
BFF
  8
FRAME_050
 10
10.0
 20
260.0
 30
0.0
 11
5.0
 21
260.0
 31
0.0
  0
TEXT
  5
C00
  8
FRAME_050
 10
6.1931980515339466
 20
285.0
 30
0.0
 40
4.0
  1
C
  7
ISO_PROPORTIONAL
 72
     4
 11
7.5
 21
287.0
 31
0.0
  0
LINE
  5
C01
  8
FRAME_050
 10
10.0
 20
310.0
 30
0.0
 11
5.0
 21
310.0
 31
0.0
  0
TEXT
  5
C02
  8
FRAME_050
 10
5.8999999999999959
 20
335.0
 30
0.0
 40
4.0
  1
B
  7
ISO_PROPORTIONAL
 72
     4
 11
7.5
 21
337.0
 31
0.0
  0
LINE
  5
C03
  8
FRAME_050
 10
10.0
 20
360.0
 30
0.0
 11
5.0
 21
360.0
 31
0.0
  0
TEXT
  5
C04
  8
FRAME_050
 10
5.6999999999999993
 20
385.0
 30
0.0
 40
4.0
  1
A
  7
ISO_PROPORTIONAL
 72
     4
 11
7.5
 21
387.0
 31
0.0
  0
LINE
  5
C05
  8
FRAME_200
 10
10.0
 20
420.0
 30
0.0
 11
0.0
 21
420.0
 31
0.0
  0
LINE
  5
C06
  8
FRAME_200
 10
0.0
 20
420.0
 30
0.0
 11
0.0
 21
410.0
 31
0.0
  0
TEXT
  5
C07
  8
FRAME_050
 10
44.874999999999993
 20
410.5
 30
0.0
 40
4.0
  1
1
  7
ISO_PROPORTIONAL
 72
     4
 11
45.875
 21
412.5
 31
0.0
  0
LINE
  5
C08
  8
FRAME_050
 10
81.75
 20
410.0
 30
0.0
 11
81.75
 21
415.0
 31
0.0
  0
TEXT
  5
C09
  8
FRAME_050
 10
116.1556692913386
 20
410.39960629921262
 30
0.0
 40
4.0
  1
2
  7
ISO_PROPORTIONAL
 72
     4
 11
117.625
 21
412.5
 31
0.0
  0
LINE
  5
C0A
  8
FRAME_050
 10
153.5
 20
410.0
 30
0.0
 11
153.5
 21
415.0
 31
0.0
  0
TEXT
  5
C0B
  8
FRAME_050
 10
187.89215728752529
 20
410.58284271247459
 30
0.0
 40
4.0
  1
3
  7
ISO_PROPORTIONAL
 72
     4
 11
189.375
 21
412.5
 31
0.0
  0
LINE
  5
C0C
  8
FRAME_050
 10
297.0
 20
405.0
 30
0.0
 11
297.0
 21
415.0
 31
0.0
  0
LINE
  5
C0D
  8
FRAME_050
 10
225.25
 20
410.0
 30
0.0
 11
225.25
 21
415.0
 31
0.0
  0
TEXT
  5
C0E
  8
FRAME_050
 10
259.52499999999998
 20
410.5
 30
0.0
 40
4.0
  1
4
  7
ISO_PROPORTIONAL
 72
     4
 11
261.125
 21
412.5
 31
0.0
  0
LINE
  5
C0F
  8
FRAME_070
 10
584.0
 20
10.0
 30
0.0
 11
584.0
 21
410.0
 31
0.0
  0
ATTDEF
  5
C10
  8
FRAME_025
 10
473.0
 20
31.75
 30
0.0
 40
2.5
  1
XXX - 00/00/00
  7
ISO_PROPORTIONAL
 11
473.0
 21
33.0
 31
0.0
  3
Approved by - Date
  2
APPROVED_BY_DATE
 70
     8
 74
     2
  0
TEXT
  5
C11
  8
FRAME_025
 10
448.0
 20
41.749999999999993
 30
0.0
 40
2.5
  1
Title/Name, designation, material, dimension etc
  7
ISO_PROPORTIONAL
 11
448.0
 21
43.0
 31
0.0
 73
     2
  0
TEXT
  5
C12
  8
FRAME_025
 10
473.0
 20
35.75
 30
0.0
 40
2.5
  1
Approved by - date
  7
ISO_PROPORTIONAL
 11
473.0
 21
37.0
 31
0.0
 73
     2
  0
LINE
  5
C13
  8
FRAME_070
 10
414.0
 20
46.0
 30
0.0
 11
584.0
 21
46.0
 31
0.0
  0
LINE
  5
C14
  8
FRAME_070
 10
414.0
 20
40.0
 30
0.0
 11
584.0
 21
40.0
 31
0.0
  0
LINE
  5
C15
  8
FRAME_070
 10
414.0
 20
30.0
 30
0.0
 11
584.0
 21
30.0
 31
0.0
  0
LINE
  5
C16
  8
FRAME_050
 10
368.75
 20
5.0
 30
0.0
 11
368.75
 21
10.0
 31
0.0
  0
LINE
  5
C17
  8
FRAME_050
 10
337.0
 20
5.0
 30
0.0
 11
337.0
 21
10.0
 31
0.0
  0
LINE
  5
C18
  8
FRAME_050
 10
327.0
 20
5.0
 30
0.0
 11
327.0
 21
10.0
 31
0.0
  0
LINE
  5
C19
  8
FRAME_050
 10
317.0
 20
5.0
 30
0.0
 11
317.0
 21
10.0
 31
0.0
  0
LINE
  5
C1A
  8
FRAME_050
 10
307.0
 20
5.0
 30
0.0
 11
307.0
 21
10.0
 31
0.0
  0
LINE
  5
C1B
  8
FRAME_050
 10
347.0
 20
5.0
 30
0.0
 11
347.0
 21
10.0
 31
0.0
  0
LINE
  5
C1C
  8
FRAME_050
 10
440.5
 20
5.0
 30
0.0
 11
440.5
 21
10.0
 31
0.0
  0
TEXT
  5
C1D
  8
FRAME_050
 10
403.24547244094481
 20
5.4102362204724406
 30
0.0
 40
4.0
  1
6
  7
ISO_PROPORTIONAL
 72
     4
 11
404.62499999999989
 21
7.5
 31
0.0
  0
TEXT
  5
C1E
  8
FRAME_050
 10
474.97500000000002
 20
5.5
 30
0.0
 40
4.0
  1
7
  7
ISO_PROPORTIONAL
 72
     4
 11
476.37499999999989
 21
7.5
 31
0.0
  0
TEXT
  5
C1F
  8
FRAME_025
 10
431.0
 20
41.749999999999993
 30
0.0
 40
2.5
  1
Quantity
  7
ISO_PROPORTIONAL
 11
431.0
 21
43.0
 31
0.0
 73
     2
  0
TEXT
  5
C20
  8
FRAME_025
 10
416.0
 20
41.749999999999993
 30
0.0
 40
2.5
  1
Itemref
  7
ISO_PROPORTIONAL
 11
416.0
 21
43.0
 31
0.0
 73
     2
  0
LINE
  5
C21
  8
FRAME_070
 10
414.0
 20
40.0
 30
0.0
 11
414.0
 21
46.0
 31
0.0
  0
LINE
  5
C22
  8
FRAME_070
 10
429.0
 20
40.0
 30
0.0
 11
429.0
 21
46.0
 31
0.0
  0
LINE
  5
C23
  8
FRAME_070
 10
414.0
 20
10.0
 30
0.0
 11
414.0
 21
40.0
 31
0.0
  0
ATTDEF
  5
C24
  8
FRAME_025
 10
416.0
 20
31.75
 30
0.0
 40
2.5
  1
XXX
  7
ISO_PROPORTIONAL
 11
416.0
 21
33.0
 31
0.0
  3
Designed by
  2
DESIGNED_BY
 70
     8
 74
     2
  0
TEXT
  5
C25
  8
FRAME_025
 10
416.0
 20
35.75
 30
0.0
 40
2.5
  1
Designed by
  7
ISO_PROPORTIONAL
 11
416.0
 21
37.0
 31
0.0
 73
     2
  0
LINE
  5
C26
  8
FRAME_070
 10
446.0
 20
40.0
 30
0.0
 11
446.0
 21
46.0
 31
0.0
  0
ATTDEF
  5
C27
  8
FRAME_025
 10
448.0
 20
31.75
 30
0.0
 40
2.5
  1
XXX
  7
ISO_PROPORTIONAL
 11
448.0
 21
33.0
 31
0.0
  3
Checked by
  2
CHECKED_BY
 70
     8
 74
     2
  0
TEXT
  5
C28
  8
FRAME_025
 10
448.0
 20
35.75
 30
0.0
 40
2.5
  1
Checked by
  7
ISO_PROPORTIONAL
 11
448.0
 21
37.0
 31
0.0
 73
     2
  0
ATTDEF
  5
C29
  8
FRAME_050
 10
444.74999999999989
 20
17.5
 30
0.0
 40
5.0
  1
XXX
  7
ISO_PROPORTIONAL
 72
     4
 11
451.49999999999989
 21
20.0
 31
0.0
  3
Owner
  2
OWNER
 70
     8
  0
LINE
  5
C2A
  8
FRAME_070
 10
446.0
 20
30.0
 30
0.0
 11
446.0
 21
40.0
 31
0.0
  0
LINE
  5
C2B
  8
FRAME_070
 10
471.0
 20
30.0
 30
0.0
 11
471.0
 21
40.0
 31
0.0
  0
LINE
  5
C2C
  8
FRAME_070
 10
489.0
 20
20.0
 30
0.0
 11
584.0
 21
20.0
 31
0.0
  0
LINE
  5
C2D
  8
FRAME_050
 10
512.25
 20
5.0
 30
0.0
 11
512.25
 21
10.0
 31
0.0
  0
TEXT
  5
C2E
  8
FRAME_050
 10
546.72499999999991
 20
5.5
 30
0.0
 40
4.0
  1
8
  7
ISO_PROPORTIONAL
 72
     4
 11
548.125
 21
7.5
 31
0.0
  0
ATTDEF
  5
C2F
  8
FRAME_050
 10
517.64999999999986
 20
13.5
 30
0.0
 40
3.0
  1
X
  7
ISO_PROPORTIONAL
 72
     4
 11
519.0
 21
15.0
 31
0.0
  3
Drawing number
  2
DRAWING_NUMBER
 70
     8
  0
ATTDEF
  5
C30
  8
FRAME_050
 10
529.75
 20
22.5
 30
0.0
 40
5.0
  1
XXX
  7
ISO_PROPORTIONAL
 72
     4
 11
536.5
 21
25.0
 31
0.0
  3
Title / Name
  2
TITLE
 70
     8
  0
LINE
  5
C31
  8
FRAME_070
 10
489.0
 20
10.0
 30
0.0
 11
489.0
 21
30.0
 31
0.0
  0
ATTDEF
  5
C32
  8
FRAME_025
 10
511.0
 20
31.75
 30
0.0
 40
2.5
  1
XXX
  7
ISO_PROPORTIONAL
 11
511.0
 21
33.0
 31
0.0
  3
Filename
  2
FILENAME
 70
     8
 74
     2
  0
TEXT
  5
C33
  8
FRAME_025
 10
511.0
 20
35.75
 30
0.0
 40
2.5
  1
Filename
  7
ISO_PROPORTIONAL
 11
511.0
 21
37.0
 31
0.0
 73
     2
  0
LINE
  5
C34
  8
FRAME_070
 10
509.0
 20
30.0
 30
0.0
 11
509.0
 21
40.0
 31
0.0
  0
TEXT
  5
C35
  8
FRAME_025
 10
536.0
 20
41.749999999999993
 30
0.0
 40
2.5
  1
Article No./Reference
  7
ISO_PROPORTIONAL
 11
536.0
 21
43.0
 31
0.0
 73
     2
  0
LINE
  5
C36
  8
FRAME_070
 10
534.0
 20
40.0
 30
0.0
 11
534.0
 21
46.0
 31
0.0
  0
ATTDEF
  5
C37
  8
FRAME_025
 10
551.0
 20
11.75
 30
0.0
 40
2.5
  1
0
  7
ISO_PROPORTIONAL
 11
551.0
 21
13.0
 31
0.0
  3
Edition
  2
EDITION
 70
     8
 74
     2
  0
TEXT
  5
C38
  8
FRAME_025
 10
551.0
 20
15.75
 30
0.0
 40
2.5
  1
Edition
  7
ISO_PROPORTIONAL
 11
551.0
 21
17.0
 31
0.0
 73
     2
  0
LINE
  5
C39
  8
FRAME_070
 10
549.0
 20
10.0
 30
0.0
 11
549.0
 21
20.0
 31
0.0
  0
ATTDEF
  5
C3A
  8
FRAME_025
 10
536.0
 20
31.75
 30
0.0
 40
2.5
  1
00/00/00
  7
ISO_PROPORTIONAL
 11
536.0
 21
33.0
 31
0.0
  3
Date
  2
DATE
 70
     8
 74
     2
  0
TEXT
  5
C3B
  8
FRAME_025
 10
536.0
 20
35.75
 30
0.0
 40
2.5
  1
Date
  7
ISO_PROPORTIONAL
 11
536.0
 21
37.0
 31
0.0
 73
     2
  0
LINE
  5
C3C
  8
FRAME_070
 10
534.0
 20
30.0
 30
0.0
 11
534.0
 21
40.0
 31
0.0
  0
ATTDEF
  5
C3D
  8
FRAME_025
 10
566.0
 20
11.75
 30
0.0
 40
2.5
  1
1/1
  7
ISO_PROPORTIONAL
 11
566.0
 21
13.0
 31
0.0
  3
Sheet
  2
SHEET
 70
     8
 74
     2
  0
TEXT
  5
C3E
  8
FRAME_025
 10
566.0
 20
15.75
 30
0.0
 40
2.5
  1
Sheet
  7
ISO_PROPORTIONAL
 11
566.0
 21
17.0
 31
0.0
 73
     2
  0
LINE
  5
C3F
  8
FRAME_070
 10
564.0
 20
10.0
 30
0.0
 11
564.0
 21
20.0
 31
0.0
  0
ATTDEF
  5
C40
  8
FRAME_025
 10
566.0
 20
31.75
 30
0.0
 40
2.5
  1
1:1
  7
ISO_PROPORTIONAL
 11
566.0
 21
33.0
 31
0.0
  3
Scale
  2
SCALE
 70
     8
 74
     2
  0
TEXT
  5
C41
  8
FRAME_025
 10
566.0
 20
35.75
 30
0.0
 40
2.5
  1
Scale
  7
ISO_PROPORTIONAL
 11
566.0
 21
37.0
 31
0.0
 73
     2
  0
LINE
  5
C42
  8
FRAME_070
 10
564.0
 20
30.0
 30
0.0
 11
564.0
 21
40.0
 31
0.0
  0
LINE
  5
C43
  8
FRAME_200
 10
594.0
 20
0.0
 30
0.0
 11
594.0
 21
10.0
 31
0.0
  0
LINE
  5
C44
  8
FRAME_200
 10
594.0
 20
0.0
 30
0.0
 11
584.0
 21
0.0
 31
0.0
  0
TEXT
  5
C45
  8
FRAME_050
 10
584.89999999999998
 20
35.0
 30
0.0
 40
4.0
  1
H
  7
ISO_PROPORTIONAL
 72
     4
 11
586.5
 21
37.0
 31
0.0
  0
LINE
  5
C46
  8
FRAME_050
 10
589.0
 20
60.0
 30
0.0
 11
584.0
 21
60.0
 31
0.0
  0
TEXT
  5
C47
  8
FRAME_050
 10
585.0035533905932
 20
85.0
 30
0.0
 40
4.0
  1
G
  7
ISO_PROPORTIONAL
 72
     4
 11
586.5
 21
87.0
 31
0.0
  0
LINE
  5
C48
  8
FRAME_050
 10
589.0
 20
110.0
 30
0.0
 11
584.0
 21
110.0
 31
0.0
  0
TEXT
  5
C49
  8
FRAME_050
 10
585.09999999999991
 20
135.0
 30
0.0
 40
4.0
  1
F
  7
ISO_PROPORTIONAL
 72
     4
 11
586.5
 21
137.0
 31
0.0
  0
LINE
  5
C4A
  8
FRAME_050
 10
589.0
 20
160.0
 30
0.0
 11
584.0
 21
160.0
 31
0.0
  0
TEXT
  5
C4B
  8
FRAME_050
 10
585.09999999999991
 20
185.0
 30
0.0
 40
4.0
  1
E
  7
ISO_PROPORTIONAL
 72
     4
 11
586.5
 21
187.0
 31
0.0
  0
LINE
  5
C4C
  8
FRAME_070
 10
414.0
 20
404.0
 30
0.0
 11
584.0
 21
404.0
 31
0.0
  0
TEXT
  5
C4D
  8
FRAME_050
 10
331.39215728752538
 20
410.58284271247459
 30
0.0
 40
4.0
  1
5
  7
ISO_PROPORTIONAL
 72
     4
 11
332.875
 21
412.5
 31
0.0
  0
LINE
  5
C4E
  8
FRAME_050
 10
368.75
 20
410.0
 30
0.0
 11
368.75
 21
415.0
 31
0.0
  0
TEXT
  5
C4F
  8
FRAME_025
 10
428.0
 20
405.75
 30
0.0
 40
2.5
  1
Revision note
  7
ISO_PROPORTIONAL
 11
428.0
 21
407.0
 31
0.0
 73
     2
  0
TEXT
  5
C50
  8
FRAME_025
 10
416.0
 20
405.75
 30
0.0
 40
2.5
  1
RevNo
  7
ISO_PROPORTIONAL
 11
416.0
 21
407.0
 31
0.0
 73
     2
  0
LINE
  5
C51
  8
FRAME_070
 10
426.0
 20
404.0
 30
0.0
 11
426.0
 21
410.0
 31
0.0
  0
LINE
  5
C52
  8
FRAME_070
 10
414.0
 20
404.0
 30
0.0
 11
414.0
 21
410.0
 31
0.0
  0
TEXT
  5
C53
  8
FRAME_050
 10
403.24547244094481
 20
410.41023622047243
 30
0.0
 40
4.0
  1
6
  7
ISO_PROPORTIONAL
 72
     4
 11
404.62499999999989
 21
412.5
 31
0.0
  0
LINE
  5
C54
  8
FRAME_050
 10
440.5
 20
410.0
 30
0.0
 11
440.5
 21
415.0
 31
0.0
  0
TEXT
  5
C55
  8
FRAME_050
 10
474.97500000000002
 20
410.5
 30
0.0
 40
4.0
  1
7
  7
ISO_PROPORTIONAL
 72
     4
 11
476.37499999999989
 21
412.5
 31
0.0
  0
LINE
  5
C56
  8
FRAME_050
 10
579.0
 20
210.0
 30
0.0
 11
589.0
 21
210.0
 31
0.0
  0
TEXT
  5
C57
  8
FRAME_050
 10
584.78609127034736
 20
235.0
 30
0.0
 40
4.0
  1
D
  7
ISO_PROPORTIONAL
 72
     4
 11
586.5
 21
237.0
 31
0.0
  0
LINE
  5
C58
  8
FRAME_050
 10
589.0
 20
260.0
 30
0.0
 11
584.0
 21
260.0
 31
0.0
  0
TEXT
  5
C59
  8
FRAME_050
 10
585.19319805153395
 20
285.0
 30
0.0
 40
4.0
  1
C
  7
ISO_PROPORTIONAL
 72
     4
 11
586.5
 21
287.0
 31
0.0
  0
LINE
  5
C5A
  8
FRAME_050
 10
589.0
 20
310.0
 30
0.0
 11
584.0
 21
310.0
 31
0.0
  0
TEXT
  5
C5B
  8
FRAME_050
 10
584.89999999999998
 20
335.0
 30
0.0
 40
4.0
  1
B
  7
ISO_PROPORTIONAL
 72
     4
 11
586.5
 21
337.0
 31
0.0
  0
TEXT
  5
C5C
  8
FRAME_025
 10
571.08299391850551
 20
405.75
 30
0.0
 40
2.5
  1
Checked
  7
ISO_PROPORTIONAL
 11
571.08299391850551
 21
407.0
 31
0.0
 73
     2
  0
TEXT
  5
C5D
  8
FRAME_025
 10
555.36099797283532
 20
405.75
 30
0.0
 40
2.5
  1
Signature
  7
ISO_PROPORTIONAL
 11
555.36099797283532
 21
407.0
 31
0.0
 73
     2
  0
TEXT
  5
C5E
  8
FRAME_025
 10
537.0
 20
405.75
 30
0.0
 40
2.5
  1
Date
  7
ISO_PROPORTIONAL
 11
537.0
 21
407.0
 31
0.0
 73
     2
  0
LINE
  5
C5F
  8
FRAME_070
 10
570.0
 20
404.0
 30
0.0
 11
570.0
 21
410.0
 31
0.0
  0
LINE
  5
C60
  8
FRAME_070
 10
555.0
 20
404.0
 30
0.0
 11
555.0
 21
410.0
 31
0.0
  0
LINE
  5
C61
  8
FRAME_070
 10
535.0
 20
404.0
 30
0.0
 11
535.0
 21
410.0
 31
0.0
  0
LINE
  5
C62
  8
FRAME_050
 10
512.25
 20
410.0
 30
0.0
 11
512.25
 21
415.0
 31
0.0
  0
TEXT
  5
C63
  8
FRAME_050
 10
546.72499999999991
 20
410.5
 30
0.0
 40
4.0
  1
8
  7
ISO_PROPORTIONAL
 72
     4
 11
548.125
 21
412.5
 31
0.0
  0
LINE
  5
C64
  8
FRAME_050
 10
589.0
 20
360.0
 30
0.0
 11
584.0
 21
360.0
 31
0.0
  0
TEXT
  5
C65
  8
FRAME_050
 10
584.70000000000005
 20
385.0
 30
0.0
 40
4.0
  1
A
  7
ISO_PROPORTIONAL
 72
     4
 11
586.5
 21
387.0
 31
0.0
  0
LINE
  5
C66
  8
FRAME_200
 10
594.0
 20
420.0
 30
0.0
 11
584.0
 21
420.0
 31
0.0
  0
LINE
  5
C67
  8
FRAME_200
 10
594.0
 20
410.0
 30
0.0
 11
594.0
 21
420.0
 31
0.0
  0
ENDBLK
  5
C69
  8
0
  0
BLOCK
  8
0
  2
WOBB001END
 70
     0
 10
0.0
 20
0.0
 30
0.0
  3
WOBB001END
  1

  0
LINE
  5
4D66
  8
0
  6
CONTINUOUS
 10
0.0
 20
0.0
 30
0.0
 11
0.8749999999999998
 21
0.0
 31
0.0
  0
ARC
  5
4D67
  8
0
  6
CONTINUOUS
 10
0.0331648379439287
 20
-0.5087238935900232
 30
0.0
 40
0.8790130605592325
 50
284.06490243660443
 51
312.19222981924361
  0
ARC
  5
4D68
  8
0
  6
CONTINUOUS
 10
0.2841534338796767
 20
-1.510548310625538
 30
0.0
 40
0.1537731892806598
 50
104.0649024366044
 51
179.4721730735024
  0
LINE
  5
4D69
  8
0
  6
CONTINUOUS
 10
0.0
 20
0.0
 30
0.0
 11
-0.0000000000000003
 21
-1.7501564476661919
 31
0.0
  0
ARC
  5
4D6A
  8
0
  6
CONTINUOUS
 10
0.1404622019506122
 20
-1.6303137183546199
 30
0.0
 40
0.1198427293115722
 50
275.0
 51
85.000000000000057
  0
LINE
  5
4D6B
  8
0
  6
CONTINUOUS
 10
-0.0000000000000003
 20
-1.7501564476661919
 30
0.0
 11
0.1456946485130855
 21
-1.7501564476661919
 31
0.0
  0
LINE
  5
4D6C
  8
0
  6
CONTINUOUS
 10
0.1377603739254348
 20
-1.7508506067459131
 30
0.0
 11
0.150907184036669
 21
-1.749700409899652
 31
0.0
  0
LINE
  5
4D6D
  8
0
  6
CONTINUOUS
 10
0.1303867696719884
 20
-1.5091317231818231
 30
0.0
 11
0.1509071840366689
 21
-1.5109270268095869
 31
0.0
  0
LINE
  5
4D6E
  8
0
  6
CONTINUOUS
 10
0.8749999999999998
 20
0.0
 30
0.0
 11
0.8749999999999996
 21
-0.8649327026588228
 31
0.0
  0
LINE
  5
4D6F
  8
0
  6
CONTINUOUS
 10
0.727014513830997
 20
-0.8726882933550612
 30
0.0
 11
0.727014513830997
 21
-0.9264923397184784
 31
0.0
  0
ARC
  5
4D70
  8
0
  6
CONTINUOUS
 10
0.41187090827646
 20
-0.9264923397184784
 30
0.0
 40
0.315143605554537
 50
312.19222981924361
 51
0.0
  0
LINE
  5
4D71
  8
0
  6
CONTINUOUS
 10
0.727014513830997
 20
-0.8726882933550612
 30
0.0
 11
0.8749999999999996
 21
-0.8649327026588228
 31
0.0
  0
ENDBLK
  5
4D72
  8
0
  0
BLOCK
  8
0
  2
A$C0A61123B
 70
     0
 10
0.0
 20
0.0
 30
0.0
  3
A$C0A61123B
  1

  0
LINE
  5
C0AD
  8
PROF
  6
CONTINUOUS
 10
4.9012016798694162
 20
13.325025853350891
 30
0.0000000000000002
 11
4.9012016798694162
 21
12.88585218805485
 31
0.0000000000000003
  0
INSERT
  5
C0AE
  8
0
  2
*U164
 10
0.0
 20
0.0
 30
0.0
  0
LINE
  5
C0AF
  8
PROF
 10
4.5198575031869259
 20
12.72227734589444
 30
0.0000000000000001
 11
4.5198575031869259
 21
12.88585218805485
 31
0.0000000000000001
  0
LINE
  5
C0B0
  8
PROF
  6
CONTINUOUS
 10
3.6306271195888371
 20
13.325025853350891
 30
0.0000000000000002
 11
4.9012016798694162
 21
13.325025853350891
 31
0.0000000000000002
  0
LINE
  5
C0B1
  8
PROF
 10
1.9750295148747341
 20
10.37671325491794
 30
0.0000000000000002
 11
1.9750295148747341
 21
10.11391186758919
 31
0.0000000000000002
  0
LINE
  5
C0B2
  8
PROF
 10
1.607967335755631
 20
10.11391186758919
 30
0.0000000000000001
 11
1.9750295148747341
 21
10.11391186758919
 31
0.0000000000000001
  0
LINE
  5
C0B3
  8
PROF
 10
1.9750295148747341
 20
10.11391186758919
 30
0.0000000000000001
 11
1.944958486898144
 21
10.11391186758919
 31
0.0000000000000001
  0
LINE
  5
C0B4
  8
PROF
 10
1.9750295148747341
 20
10.11391186758919
 30
0.0000000000000001
 11
1.944958486898144
 21
10.11391186758919
 31
0.0000000000000001
  0
LINE
  5
C0B5
  8
PROF
 10
0.3222605517169654
 20
7.5247473351056442
 30
-0.0000000000000002
 11
-0.0000008570117416
 21
7.5247473351056442
 31
0.0
  0
LINE
  5
C0B6
  8
PROF
 10
-0.0000008570117416
 20
7.5247473351056442
 30
0.0
 11
-0.0000008570117416
 21
9.1943336957369866
 31
0.0
  0
POLYLINE
  5
C0B7
  8
PROF
 66
     1
 10
0.0
 20
0.0
 30
0.0000000000000001
 70
     4
 75
     6
  0
VERTEX
  5
C0B8
  8
PROF
 10
1.607967335755631
 20
10.11391186758919
 30
0.0000000000000001
 70
    16
  0
VERTEX
  5
C0B9
  8
PROF
 10
1.607967335755631
 20
10.11391186758919
 30
0.0000000000000001
 70
     8
  0
VERTEX
  5
C0BA
  8
PROF
 10
1.646813232648582
 20
10.02198069336111
 30
0.0000000000000001
 70
     8
  0
VERTEX
  5
C0BB
  8
PROF
 10
1.67335966680929
 20
9.9344134163010267
 30
0.0000000000000001
 70
     8
  0
VERTEX
  5
C0BC
  8
PROF
 10
1.689008640046324
 20
9.8512576644480987
 30
0.0000000000000001
 70
     8
  0
VERTEX
  5
C0BD
  8
PROF
 10
1.695162154168258
 20
9.7725610658417281
 30
0.0000000000000001
 70
     8
  0
VERTEX
  5
C0BE
  8
PROF
 10
1.6932222109836059
 20
9.6983712485214255
 30
0.0000000000000001
 70
     8
  0
VERTEX
  5
C0BF
  8
PROF
 10
1.6845908123009961
 20
9.6287358405263603
 30
0.0000000000000001
 70
     8
  0
VERTEX
  5
C0C0
  8
PROF
 10
1.6706699599288859
 20
9.5637024698960431
 30
0.0000000000000001
 70
     8
  0
VERTEX
  5
C0C1
  8
PROF
 10
1.6528616556759621
 20
9.503318764669757
 30
0.0000000000000001
 70
     8
  0
VERTEX
  5
C0C2
  8
PROF
 10
1.6323562992730549
 20
9.4475843259650674
 30
0.0000000000000001
 70
     8
  0
VERTEX
  5
C0C3
  8
PROF
 10
1.609497882140658
 20
9.3963066472123273
 30
0.0000000000000001
 70
     8
  0
VERTEX
  5
C0C4
  8
PROF
 10
1.584418793621637
 20
9.3492451949202842
 30
0.0000000000000001
 70
     8
  0
VERTEX
  5
C0C5
  8
PROF
 10
1.557251423058744
 20
9.3061594355972375
 30
0.0000000000000001
 70
     8
  0
VERTEX
  5
C0C6
  8
PROF
 10
1.5281281597949601
 20
9.2668088357519292
 30
0.0000000000000001
 70
     8
  0
VERTEX
  5
C0C7
  8
PROF
 10
1.4971813931729789
 20
9.2309528618930017
 30
0.0000000000000001
 70
     8
  0
VERTEX
  5
C0C8
  8
PROF
 10
1.464543512535726
 20
9.1983509805288577
 30
0.0000000000000001
 70
     8
  0
VERTEX
  5
C0C9
  8
PROF
 10
1.4303469072260091
 20
9.1687626581682462
 30
0.0000000000000001
 70
     8
  0
VERTEX
  5
C0CA
  8
PROF
 10
1.3947360332574019
 20
9.1419547918675335
 30
0.0000000000000001
 70
     8
  0
VERTEX
  5
C0CB
  8
PROF
 10
1.3579036133264131
 20
9.1177240008747731
 30
0.0000000000000001
 70
     8
  0
VERTEX
  5
C0CC
  8
PROF
 10
1.3200544368004321
 20
9.0958743349860924
 30
0.0000000000000001
 70
     8
  0
VERTEX
  5
C0CD
  8
PROF
 10
1.281393293046676
 20
9.0762098439975034
 30
0.0000000000000001
 70
     8
  0
VERTEX
  5
C0CE
  8
PROF
 10
1.242124971432417
 20
9.0585345777049042
 30
0.0000000000000001
 70
     8
  0
VERTEX
  5
C0CF
  8
PROF
 10
1.2024542613249869
 20
9.0426525859044204
 30
0.0000000000000001
 70
     8
  0
VERTEX
  5
C0D0
  8
PROF
 10
1.1625859520916599
 20
9.0283679183919503
 30
0.0000000000000001
 70
     8
  0
VERTEX
  5
C0D1
  8
PROF
 10
1.1227248330997091
 20
9.0154846249635057
 30
0.0000000000000001
 70
     8
  0
VERTEX
  5
C0D2
  8
PROF
 10
1.0829726247361
 20
9.0034643862466055
 30
0.0000000000000001
 70
     8
  0
VERTEX
  5
C0D3
  8
PROF
 10
1.043018771466222
 20
8.9903994061946833
 30
0.0000000000000001
 70
     8
  0
VERTEX
  5
C0D4
  8
PROF
 10
1.002449648775211
 20
8.9740395195925657
 30
0.0000000000000001
 70
     8
  0
VERTEX
  5
C0D5
  8
PROF
 10
0.9608516321480919
 20
8.9521345612251935
 30
0.0000000000000001
 70
     8
  0
VERTEX
  5
C0D6
  8
PROF
 10
0.9178110970699435
 20
8.9224343658775052
 30
0.0000000000000001
 70
     8
  0
VERTEX
  5
C0D7
  8
PROF
 10
0.8729144190259034
 20
8.8826887683343312
 30
0.0000000000000001
 70
     8
  0
VERTEX
  5
C0D8
  8
PROF
 10
0.8257479735009951
 20
8.8306476033806121
 30
0.0000000000000001
 70
     8
  0
VERTEX
  5
C0D9
  8
PROF
 10
0.7758981359802988
 20
8.764060705801171
 30
0.0000000000000001
 70
     8
  0
VERTEX
  5
C0DA
  8
PROF
 10
1.729201901609656
 20
9.8629858761255491
 30
0.0000000000000001
 70
    16
  0
VERTEX
  5
C0DB
  8
PROF
 10
1.6793731231140889
 20
9.4532143012734196
 30
0.0000000000000001
 70
    16
  0
VERTEX
  5
C0DC
  8
PROF
 10
1.4455611507419801
 20
9.1391837193732481
 30
0.0000000000000001
 70
    16
  0
VERTEX
  5
C0DD
  8
PROF
 10
1.120463717273821
 20
9.0026267702428413
 30
0.0000000000000001
 70
    16
  0
VERTEX
  5
C0DE
  8
PROF
 10
0.9127765582653638
 20
8.9630202230383702
 30
0.0000000000000001
 70
    16
  0
VERTEX
  5
C0DF
  8
PROF
 10
0.7758981359802988
 20
8.764060705801171
 30
0.0000000000000001
 70
    16
  0
SEQEND
  5
C0E0
  8
PROF
  0
ARC
  5
C0E1
  8
PROF
 10
0.733429816733235
 20
8.4849506952165257
 30
0.0000000000000001
 40
0.2823224329524727
 50
269.73652020831901
 51
81.348449993176914
  0
LINE
  5
C0E2
  8
PROF
  6
CONTINUOUS
 10
-0.0000008570117416
 20
9.1943336957369866
 30
-0.0000000000000001
 11
3.6306271195888371
 21
13.325025853350891
 31
0.0000000000000002
  0
POLYLINE
  5
C0E3
  8
PROF
 66
     1
 10
0.0
 20
0.0
 30
0.0000000000000001
 70
     4
 75
     6
  0
VERTEX
  5
C0E4
  8
PROF
 10
4.5198575031869259
 20
12.72227734589444
 30
0.0000000000000001
 70
    16
  0
VERTEX
  5
C0E5
  8
PROF
 10
4.5198575031869259
 20
12.72227734589444
 30
0.0000000000000001
 70
     8
  0
VERTEX
  5
C0E6
  8
PROF
 10
4.4467035366886298
 20
12.741128108778071
 30
0.0000000000000001
 70
     8
  0
VERTEX
  5
C0E7
  8
PROF
 10
4.3786645761268801
 20
12.754675269913941
 30
0.0000000000000001
 70
     8
  0
VERTEX
  5
C0E8
  8
PROF
 10
4.3154364111440477
 20
12.76334314092332
 30
0.0000000000000001
 70
     8
  0
VERTEX
  5
C0E9
  8
PROF
 10
4.256714831382566
 20
12.76755603342724
 30
0.0000000000000001
 70
     8
  0
VERTEX
  5
C0EA
  8
PROF
 10
4.2021956264849791
 20
12.76773825904672
 30
0.0000000000000001
 70
     8
  0
VERTEX
  5
C0EB
  8
PROF
 10
4.1515745860935453
 20
12.764314129403139
 30
0.0000000000000001
 70
     8
  0
VERTEX
  5
C0EC
  8
PROF
 10
4.1045474998508658
 20
12.75770795611743
 30
0.0000000000000001
 70
     8
  0
VERTEX
  5
C0ED
  8
PROF
 10
4.0608101573993158
 20
12.748344050810831
 30
0.0000000000000001
 70
     8
  0
VERTEX
  5
C0EE
  8
PROF
 10
4.0200583483813261
 20
12.736646725104491
 30
0.0000000000000001
 70
     8
  0
VERTEX
  5
C0EF
  8
PROF
 10
3.9819878624393819
 20
12.72304029061945
 30
0.0000000000000001
 70
     8
  0
VERTEX
  5
C0F0
  8
PROF
 10
3.946294489215858
 20
12.707949058976959
 30
0.0000000000000001
 70
     8
  0
VERTEX
  5
C0F1
  8
PROF
 10
3.9126740183532429
 20
12.691797341798059
 30
0.0000000000000001
 70
     8
  0
VERTEX
  5
C0F2
  8
PROF
 10
3.8808638350742508
 20
12.67494295718654
 30
0.0000000000000001
 70
     8
  0
VERTEX
  5
C0F3
  8
PROF
 10
3.850767706922738
 20
12.65747774917668
 30
0.0000000000000001
 70
     8
  0
VERTEX
  5
C0F4
  8
PROF
 10
3.8223309970228452
 20
12.639427068285499
 30
0.0000000000000001
 70
     8
  0
VERTEX
  5
C0F5
  8
PROF
 10
3.7954990684987129
 20
12.62081626503004
 30
0.0000000000000001
 70
     8
  0
VERTEX
  5
C0F6
  8
PROF
 10
3.7702172844744828
 20
12.601670689926999
 30
0.0000000000000001
 70
     8
  0
VERTEX
  5
C0F7
  8
PROF
 10
3.746431008074353
 20
12.58201569349364
 30
0.0000000000000001
 70
     8
  0
VERTEX
  5
C0F8
  8
PROF
 10
3.7240856024224618
 20
12.56187662624666
 30
0.0000000000000001
 70
     8
  0
VERTEX
  5
C0F9
  8
PROF
 10
3.7031264306428961
 20
12.541278838703191
 30
0.0000000000000001
 70
     8
  0
VERTEX
  5
C0FA
  8
PROF
 10
3.6834988558599089
 20
12.520247681380051
 30
0.0000000000000001
 70
     8
  0
VERTEX
  5
C0FB
  8
PROF
 10
3.665148241197528
 20
12.49880850479428
 30
0.0000000000000001
 70
     8
  0
VERTEX
  5
C0FC
  8
PROF
 10
3.6480199497799499
 20
12.47698665946279
 30
0.0000000000000001
 70
     8
  0
VERTEX
  5
C0FD
  8
PROF
 10
3.6320593447313172
 20
12.45480749590263
 30
0.0000000000000001
 70
     8
  0
VERTEX
  5
C0FE
  8
PROF
 10
3.6171895848866589
 20
12.43223790353807
 30
0.0000000000000001
 70
     8
  0
VERTEX
  5
C0FF
  8
PROF
 10
3.6032450119242858
 20
12.40901092742285
 30
0.0000000000000001
 70
     8
  0
VERTEX
  5
C100
  8
PROF
 10
3.590037763233453
 20
12.38480115151844
 30
0.0000000000000001
 70
     8
  0
VERTEX
  5
C101
  8
PROF
 10
3.5773799762033032
 20
12.35928315978594
 30
0.0000000000000001
 70
     8
  0
VERTEX
  5
C102
  8
PROF
 10
3.5650837882230908
 20
12.33213153618658
 30
0.0000000000000001
 70
     8
  0
VERTEX
  5
C103
  8
PROF
 10
3.5529613366819599
 20
12.303020864681571
 30
0.0000000000000001
 70
     8
  0
VERTEX
  5
C104
  8
PROF
 10
3.540824758969165
 20
12.271625729232371
 30
0.0000000000000001
 70
     8
  0
VERTEX
  5
C105
  8
PROF
 10
3.5284861924738489
 20
12.23762071379997
 30
0.0000000000000001
 70
     8
  0
VERTEX
  5
C106
  8
PROF
 10
3.5157577745852668
 20
12.200680402345711
 30
0.0000000000000001
 70
     8
  0
VERTEX
  5
C107
  8
PROF
 10
3.5024516426926189
 20
12.16047937883093
 30
0.0000000000000001
 70
     8
  0
VERTEX
  5
C108
  8
PROF
 10
3.4883799341851041
 20
12.116692227216619
 30
0.0000000000000001
 70
     8
  0
VERTEX
  5
C109
  8
PROF
 10
3.4733547864519201
 20
12.06899353146423
 30
0.0000000000000001
 70
     8
  0
VERTEX
  5
C10A
  8
PROF
 10
3.45723654619428
 20
12.0172095445447
 30
0.0000000000000001
 70
     8
  0
VERTEX
  5
C10B
  8
PROF
 10
3.4400783973613889
 20
11.961773195467799
 30
0.0000000000000001
 70
     8
  0
VERTEX
  5
C10C
  8
PROF
 10
3.421981733214579
 20
11.90326908225302
 30
0.0000000000000001
 70
     8
  0
VERTEX
  5
C10D
  8
PROF
 10
3.4030479470150108
 20
11.842281802919951
 30
0.0000000000000001
 70
     8
  0
VERTEX
  5
C10E
  8
PROF
 10
3.383378432024017
 20
11.779395955487979
 30
0.0000000000000001
 70
     8
  0
VERTEX
  5
C10F
  8
PROF
 10
3.3630745815028709
 20
11.715196137976809
 30
0.0000000000000001
 70
     8
  0
VERTEX
  5
C110
  8
PROF
 10
3.3422377887127359
 20
11.650266948405831
 30
0.0000000000000001
 70
     8
  0
VERTEX
  5
C111
  8
PROF
 10
3.320969446915
 20
11.58519298479461
 30
0.0000000000000001
 70
     8
  0
VERTEX
  5
C112
  8
PROF
 10
3.2993709493707679
 20
11.520558845162549
 30
0.0000000000000001
 70
     8
  0
VERTEX
  5
C113
  8
PROF
 10
3.277543689341428
 20
11.456949127529469
 30
0.0000000000000001
 70
     8
  0
VERTEX
  5
C114
  8
PROF
 10
3.2555890600881412
 20
11.3949484299145
 30
0.0000000000000001
 70
     8
  0
VERTEX
  5
C115
  8
PROF
 10
3.233608454872182
 20
11.335141350337491
 30
0.0000000000000001
 70
     8
  0
VERTEX
  5
C116
  8
PROF
 10
3.2116715641212181
 20
11.27799544797778
 30
0.0000000000000001
 70
     8
  0
VERTEX
  5
C117
  8
PROF
 10
3.189721266927847
 20
11.22351012665467
 30
0.0000000000000001
 70
     8
  0
VERTEX
  5
C118
  8
PROF
 10
3.1676687395512881
 20
11.17156775134765
 30
0.0000000000000001
 70
     8
  0
VERTEX
  5
C119
  8
PROF
 10
3.1454251582505321
 20
11.12205068703588
 30
0.0000000000000001
 70
     8
  0
VERTEX
  5
C11A
  8
PROF
 10
3.122901699284625
 20
11.07484129869874
 30
0.0000000000000001
 70
     8
  0
VERTEX
  5
C11B
  8
PROF
 10
3.1000095389127291
 20
11.02982195131551
 30
0.0000000000000001
 70
     8
  0
VERTEX
  5
C11C
  8
PROF
 10
3.0766598533938909
 20
10.986875009865679
 30
0.0000000000000001
 70
     8
  0
VERTEX
  5
C11D
  8
PROF
 10
3.0527638189871591
 20
10.9458828393283
 30
0.0000000000000001
 70
     8
  0
VERTEX
  5
C11E
  8
PROF
 10
3.0282326119516361
 20
10.90672780468298
 30
0.0000000000000001
 70
     8
  0
VERTEX
  5
C11F
  8
PROF
 10
3.002977408546371
 20
10.869292270908771
 30
0.0000000000000001
 70
     8
  0
VERTEX
  5
C120
  8
PROF
 10
2.9769093850304098
 20
10.833458602985161
 30
0.0000000000000001
 70
     8
  0
VERTEX
  5
C121
  8
PROF
 10
2.9499397176628568
 20
10.799109165891419
 30
0.0000000000000001
 70
     8
  0
VERTEX
  5
C122
  8
PROF
 10
2.9220006098404379
 20
10.76614363969508
 30
0.0000000000000001
 70
     8
  0
VERTEX
  5
C123
  8
PROF
 10
2.8931083735103011
 20
10.7345309648158
 30
0.0000000000000001
 70
     8
  0
VERTEX
  5
C124
  8
PROF
 10
2.8633003477572738
 20
10.70425739676193
 30
0.0000000000000001
 70
     8
  0
VERTEX
  5
C125
  8
PROF
 10
2.8326138716660689
 20
10.67530919104115
 30
0.0000000000000001
 70
     8
  0
VERTEX
  5
C126
  8
PROF
 10
2.8010862843216269
 20
10.647672603161711
 30
0.0000000000000001
 70
     8
  0
VERTEX
  5
C127
  8
PROF
 10
2.7687549248087171
 20
10.62133388863162
 30
0.0000000000000001
 70
     8
  0
VERTEX
  5
C128
  8
PROF
 10
2.735657132212054
 20
10.5962793029588
 30
0.0000000000000001
 70
     8
  0
VERTEX
  5
C129
  8
PROF
 10
2.7018302456165202
 20
10.572495101651381
 30
0.0000000000000001
 70
     8
  0
VERTEX
  5
C12A
  8
PROF
 10
2.6673116041068852
 20
10.54996754021726
 30
0.0000000000000001
 70
     8
  0
VERTEX
  5
C12B
  8
PROF
 10
2.6321385467680321
 20
10.528682874164581
 30
0.0000000000000001
 70
     8
  0
VERTEX
  5
C12C
  8
PROF
 10
2.5963484126846188
 20
10.508627359001251
 30
0.0000000000000001
 70
     8
  0
VERTEX
  5
C12D
  8
PROF
 10
2.5599785409415849
 20
10.489787250235279
 30
0.0000000000000001
 70
     8
  0
VERTEX
  5
C12E
  8
PROF
 10
2.522998630314361
 20
10.472162234281081
 30
0.0000000000000001
 70
     8
  0
VERTEX
  5
C12F
  8
PROF
 10
2.4851078183409072
 20
10.455805721177621
 30
0.0000000000000001
 70
     8
  0
VERTEX
  5
C130
  8
PROF
 10
2.4459376022498982
 20
10.44078455187036
 30
0.0000000000000001
 70
     8
  0
VERTEX
  5
C131
  8
PROF
 10
2.4051194792701258
 20
10.42716556730465
 30
0.0000000000000001
 70
     8
  0
VERTEX
  5
C132
  8
PROF
 10
2.3622849466301541
 20
10.415015608425851
 30
0.0000000000000001
 70
     8
  0
VERTEX
  5
C133
  8
PROF
 10
2.3170655015587149
 20
10.40440151617929
 30
0.0000000000000001
 70
     8
  0
VERTEX
  5
C134
  8
PROF
 10
2.2690926412844301
 20
10.395390131510339
 30
0.0000000000000001
 70
     8
  0
VERTEX
  5
C135
  8
PROF
 10
2.2179978630360888
 20
10.388048295364451
 30
0.0000000000000001
 70
     8
  0
VERTEX
  5
C136
  8
PROF
 10
2.1634126640422551
 20
10.38244284868688
 30
0.0000000000000001
 70
     8
  0
VERTEX
  5
C137
  8
PROF
 10
2.104968541531604
 20
10.37864063242295
 30
0.0000000000000001
 70
     8
  0
VERTEX
  5
C138
  8
PROF
 10
2.0422969927328718
 20
10.37670848751816
 30
0.0000000000000001
 70
     8
  0
VERTEX
  5
C139
  8
PROF
 10
1.9750295148747341
 20
10.37671325491794
 30
0.0000000000000001
 70
     8
  0
VERTEX
  5
C13A
  8
PROF
 10
4.2166060115107484
 20
12.80885334975255
 30
0.0000000000000001
 70
    16
  0
VERTEX
  5
C13B
  8
PROF
 10
3.8702254102732918
 20
12.707065515763929
 30
0.0000000000000001
 70
    16
  0
VERTEX
  5
C13C
  8
PROF
 10
3.605346156896871
 20
12.46277472098552
 30
0.0000000000000001
 70
    16
  0
VERTEX
  5
C13D
  8
PROF
 10
3.500746030527238
 20
12.170680575709749
 30
0.0000000000000001
 70
    16
  0
VERTEX
  5
C13E
  8
PROF
 10
3.231798439705698
 20
11.26846416496107
 30
0.0000000000000001
 70
    16
  0
VERTEX
  5
C13F
  8
PROF
 10
2.9737109398832891
 20
10.76631086647069
 30
0.0000000000000001
 70
    16
  0
VERTEX
  5
C140
  8
PROF
 10
2.5729961067384011
 20
10.460947364504699
 30
0.0000000000000001
 70
    16
  0
VERTEX
  5
C141
  8
PROF
 10
2.253782621454604
 20
10.372731239449759
 30
0.0000000000000001
 70
    16
  0
VERTEX
  5
C142
  8
PROF
 10
1.9750295148747341
 20
10.37671325491794
 30
0.0000000000000001
 70
    16
  0
SEQEND
  5
C143
  8
PROF
  0
LINE
  5
C144
  8
PROF
 10
4.9012016798694162
 20
12.88585218805485
 30
0.0000000000000003
 11
4.5198575031869259
 21
12.88585218805485
 31
0.0000000000000003
  0
LINE
  5
C145
  8
PROF
 10
0.7321315362267457
 20
8.2026312473991538
 30
0.0000000000000006
 11
0.7321315362267457
 21
8.0511853963434987
 31
0.0000000000000006
  0
ARC
  5
C146
  8
PROF
 10
0.7977322214551919
 20
7.5773339332026799
 30
0.0000000000000006
 40
0.4783708383912012
 50
97.882010168942529
 51
186.31119505698649
  0
LINE
  5
C147
  8
FRAME_050
 10
7.8016377197432121
 20
17.99371054969447
 30
0.0
 11
7.8016377197432121
 21
0.0000000000002274
 31
0.0
  0
ENDBLK
  5
C149
  8
0
  0
BLOCK
  8
0
  2
A$C3A7C6791
 70
     0
 10
0.0
 20
0.0
 30
0.0
  3
A$C3A7C6791
  1

  0
ARC
  5
1A561
  8
0
 10
1.0342682520551421
 20
11.169869575314801
 30
0.0
 40
0.3900479059662017
 50
183.5871702804647
 51
250.12003892297869
  0
ARC
  5
1A562
  8
0
 10
0.3331235273064408
 20
14.96835148878222
 30
0.0
 40
0.279776987736341
 50
290.26301102890392
 51
72.509116341854423
  0
ARC
  5
1A563
  8
0
 10
0.7948887850711232
 20
10.60700392177659
 30
0.0
 40
0.2232361910347119
 50
300.2914142988875
 51
61.434469032044603
  0
LINE
  5
1A564
  8
0
 10
-0.0000015027120526
 20
9.7351929270671462
 30
0.0
 11
1.0332573394856579
 21
9.7351929270671462
 31
0.0
  0
LINE
  5
1A565
  8
0
 10
1.0332573394856579
 20
10.377304601683591
 30
0.0
 11
0.9074887268004658
 21
10.377304601683591
 31
0.0
  0
LINE
  5
1A566
  8
0
 10
0.6449845421777241
 20
11.145465432783791
 30
0.0
 11
0.5554296092705046
 21
11.181249222917581
 31
0.0
  0
LINE
  5
1A567
  8
0
 10
0.5554296092705046
 20
14.67010534946894
 30
0.0
 11
0.430018718777319
 21
14.67010534946894
 31
0.0
  0
LINE
  5
1A568
  8
0
 10
0.4172116339615855
 20
15.235192927067139
 30
0.0
 11
-0.0000015027120526
 21
15.235192927067139
 31
0.0
  0
LINE
  5
1A569
  8
0
 10
-0.0000015027120526
 20
15.235192927067139
 30
0.0
 11
-0.0000015027120526
 21
9.7351929270671462
 31
0.0
  0
LINE
  5
1A56A
  8
0
 10
1.0332573394856579
 20
9.7351929270671462
 30
0.0
 11
1.0332573394856579
 21
10.377304601683591
 31
0.0
  0
LINE
  5
1A56B
  8
0
 10
0.9074887268004658
 20
10.377304601683591
 30
0.0
 11
0.9074887268003521
 21
10.414245912577821
 31
0.0
  0
LINE
  5
1A56C
  8
0
 10
0.5554296092705046
 20
11.181249222917581
 30
0.0
 11
0.5554296092705046
 21
14.67010534946894
 31
0.0
  0
LINE
  5
1A56D
  8
0
 10
0.430018718777319
 20
14.67010534946894
 30
0.0
 11
0.4300187187771485
 21
14.705889139602959
 31
0.0
  0
INSERT
  5
1A56E
  8
0
  2
*U289
 10
0.0
 20
0.0
 30
0.0
  0
LINE
  5
1A56F
  8
FRAME_050
 10
5.1382720395286006
 20
17.993710579095019
 30
0.0
 11
5.1382720395286006
 21
0.0000000294007805
 31
0.0
  0
ENDBLK
  5
1A571
  8
0
  0
BLOCK
  8
0
  2
A$C212248C0
 70
     0
 10
0.0
 20
0.0
 30
0.0
  3
A$C212248C0
  1

  0
LINE
  5
2846E
  8
0
 10
-0.0000002092490945
 20
10.41741894345523
 30
0.0
 11
-0.000000218823061
 21
12.91741894345523
 31
0.0
  0
LINE
  5
2846F
  8
0
 10
0.8061752779508424
 20
10.41741894654251
 30
0.0
 11
0.80617527442746
 21
11.337459194522349
 31
0.0
  0
LINE
  5
28470
  8
0
 10
-0.0000002092490945
 20
10.41741894345523
 30
0.0
 11
0.8061752779508424
 21
10.41741894654251
 31
0.0
  0
LINE
  5
28471
  8
0
 10
-0.000000218823061
 20
12.91741894345523
 30
0.0
 11
0.1835338022692099
 21
12.91741894415804
 31
0.0
  0
LINE
  5
28472
  8
0
 10
0.5432593756756888
 20
11.33745919351543
 30
0.0
 11
0.8061752744275167
 21
11.337459194522349
 31
0.0
  0
LINE
  5
28473
  8
0
 10
0.5432593756756888
 20
11.33745919351543
 30
0.0
 11
0.54325937522907
 21
11.454074799268589
 31
0.0
  0
ARC
  5
28474
  8
0
 10
0.5406585726453841
 20
11.69407225899795
 30
0.0
 40
0.2400115514942006
 50
270.62087814899439
 51
10.065567101317541
  0
ARC
  5
28475
  8
0
 10
0.3766221072655185
 20
12.57830290724473
 30
0.0
 40
0.1204493443528103
 50
92.075522465847911
 51
186.90606997904499
  0
ARC
  5
28476
  8
0
 10
0.3522648873053527
 20
11.66572609276443
 30
0.0
 40
0.4304889887359197
 50
9.3978639632316945
 51
32.979139282634932
  0
ARC
  5
28477
  8
0
 10
-3.1652042745943159
 20
9.0577862235478506
 30
0.0
 40
4.8085319198703189
 50
36.234313076985558
 51
42.402692063571678
  0
LINE
  5
28478
  8
0
 10
0.1835338022692099
 20
12.91741894415804
 30
0.0
 11
0.3722598200128004
 21
12.698673231681139
 31
0.0
  0
ARC
  5
28479
  8
0
 10
0.9319226152692294
 20
12.72987725098619
 30
0.0
 40
0.6950054723870779
 50
193.8233761419454
 51
218.1708864341492
  0
LINE
  5
2847A
  8
0
 10
-0.0000002092490945
 20
10.41741894345523
 30
0.0
 11
-0.0000002092490945
 21
12.91741894345523
 31
0.0
  0
INSERT
  5
2847B
  8
0
  2
*U343
 10
0.0
 20
0.0
 30
0.0
  0
LINE
  5
2847C
  8
FRAME_050
 10
6.2588202718825414
 20
17.993710579095019
 30
0.0
 11
6.2588202718825414
 21
0.0000000294007805
 31
0.0
  0
ENDBLK
  5
2847E
  8
0
  0
BLOCK
  8
0
  2
A$C52DE5D80
 70
     0
 10
0.0
 20
0.0
 30
0.0
  3
A$C52DE5D80
  1

  0
INSERT
  5
2B89A
  8
0
  2
*U375
 10
0.0
 20
0.0
 30
0.0
  0
LINE
  5
2B89B
  8
0
 10
0.0000014767382481
 20
7.878552666495465
 30
0.0
 11
1.5240062297528421
 21
7.8785526664953522
 31
0.0
  0
LINE
  5
2B89C
  8
0
 10
1.5240062297528421
 20
8.3261365866769665
 30
0.0
 11
1.5240062297528421
 21
7.8785526664953522
 31
0.0
  0
LINE
  5
2B89D
  8
0
 10
1.394539806559862
 20
8.3261365866769665
 30
0.0
 11
1.5240062297528421
 21
8.3261365866769665
 31
0.0
  0
LINE
  5
2B89E
  8
0
 10
0.7472076905950758
 20
9.2582948336663549
 30
0.0
 11
0.8951693171012493
 21
9.2582948336665822
 31
0.0
  0
POLYLINE
  8
0
  5
2E191
  62
7
  66
     1
 10
0.000000
 20
0.000000
 30
0.000000
  70
     8
  0
VERTEX
  8
0
  5
2E192
 10
1.39454
 20
8.32614
 30
0.000000
  70
    32
  0
VERTEX
  8
0
  5
2E193
 10
1.39468
 20
8.33131
 30
0.000000
  70
    32
  0
VERTEX
  8
0
  5
2E194
 10
1.39482
 20
8.33649
 30
0.000000
  70
    32
  0
VERTEX
  8
0
  5
2E195
 10
1.39495
 20
8.34167
 30
0.000000
  70
    32
  0
VERTEX
  8
0
  5
2E196
 10
1.39508
 20
8.34684
 30
0.000000
  70
    32
  0
VERTEX
  8
0
  5
2E197
 10
1.39521
 20
8.35201
 30
0.000000
  70
    32
  0
VERTEX
  8
0
  5
2E198
 10
1.39532
 20
8.35718
 30
0.000000
  70
    32
  0
VERTEX
  8
0
  5
2E199
 10
1.39542
 20
8.36234
 30
0.000000
  70
    32
  0
VERTEX
  8
0
  5
2E19A
 10
1.39552
 20
8.36749
 30
0.000000
  70
    32
  0
VERTEX
  8
0
  5
2E19B
 10
1.39559
 20
8.37264
 30
0.000000
  70
    32
  0
VERTEX
  8
0
  5
2E19C
 10
1.39566
 20
8.37779
 30
0.000000
  70
    32
  0
VERTEX
  8
0
  5
2E19D
 10
1.39570
 20
8.38292
 30
0.000000
  70
    32
  0
VERTEX
  8
0
  5
2E19E
 10
1.39573
 20
8.38805
 30
0.000000
  70
    32
  0
VERTEX
  8
0
  5
2E19F
 10
1.39574
 20
8.39316
 30
0.000000
  70
    32
  0
VERTEX
  8
0
  5
2E1A0
 10
1.39572
 20
8.39827
 30
0.000000
  70
    32
  0
VERTEX
  8
0
  5
2E1A1
 10
1.39569
 20
8.40337
 30
0.000000
  70
    32
  0
VERTEX
  8
0
  5
2E1A2
 10
1.39562
 20
8.40845
 30
0.000000
  70
    32
  0
VERTEX
  8
0
  5
2E1A3
 10
1.39553
 20
8.41352
 30
0.000000
  70
    32
  0
VERTEX
  8
0
  5
2E1A4
 10
1.39541
 20
8.41858
 30
0.000000
  70
    32
  0
VERTEX
  8
0
  5
2E1A5
 10
1.39526
 20
8.42363
 30
0.000000
  70
    32
  0
VERTEX
  8
0
  5
2E1A6
 10
1.39507
 20
8.42866
 30
0.000000
  70
    32
  0
VERTEX
  8
0
  5
2E1A7
 10
1.39486
 20
8.43367
 30
0.000000
  70
    32
  0
VERTEX
  8
0
  5
2E1A8
 10
1.39460
 20
8.43867
 30
0.000000
  70
    32
  0
VERTEX
  8
0
  5
2E1A9
 10
1.39431
 20
8.44365
 30
0.000000
  70
    32
  0
VERTEX
  8
0
  5
2E1AA
 10
1.39398
 20
8.44862
 30
0.000000
  70
    32
  0
VERTEX
  8
0
  5
2E1AB
 10
1.39361
 20
8.45356
 30
0.000000
  70
    32
  0
VERTEX
  8
0
  5
2E1AC
 10
1.39320
 20
8.45849
 30
0.000000
  70
    32
  0
VERTEX
  8
0
  5
2E1AD
 10
1.39274
 20
8.46339
 30
0.000000
  70
    32
  0
VERTEX
  8
0
  5
2E1AE
 10
1.39224
 20
8.46828
 30
0.000000
  70
    32
  0
VERTEX
  8
0
  5
2E1AF
 10
1.39168
 20
8.47314
 30
0.000000
  70
    32
  0
VERTEX
  8
0
  5
2E1B0
 10
1.39108
 20
8.47798
 30
0.000000
  70
    32
  0
VERTEX
  8
0
  5
2E1B1
 10
1.39043
 20
8.48280
 30
0.000000
  70
    32
  0
VERTEX
  8
0
  5
2E1B2
 10
1.38973
 20
8.48759
 30
0.000000
  70
    32
  0
VERTEX
  8
0
  5
2E1B3
 10
1.38897
 20
8.49236
 30
0.000000
  70
    32
  0
VERTEX
  8
0
  5
2E1B4
 10
1.38815
 20
8.49711
 30
0.000000
  70
    32
  0
VERTEX
  8
0
  5
2E1B5
 10
1.38728
 20
8.50182
 30
0.000000
  70
    32
  0
VERTEX
  8
0
  5
2E1B6
 10
1.38635
 20
8.50651
 30
0.000000
  70
    32
  0
VERTEX
  8
0
  5
2E1B7
 10
1.38535
 20
8.51117
 30
0.000000
  70
    32
  0
VERTEX
  8
0
  5
2E1B8
 10
1.38429
 20
8.51581
 30
0.000000
  70
    32
  0
VERTEX
  8
0
  5
2E1B9
 10
1.38317
 20
8.52041
 30
0.000000
  70
    32
  0
VERTEX
  8
0
  5
2E1BA
 10
1.38198
 20
8.52498
 30
0.000000
  70
    32
  0
VERTEX
  8
0
  5
2E1BB
 10
1.38073
 20
8.52953
 30
0.000000
  70
    32
  0
VERTEX
  8
0
  5
2E1BC
 10
1.37940
 20
8.53404
 30
0.000000
  70
    32
  0
VERTEX
  8
0
  5
2E1BD
 10
1.37800
 20
8.53851
 30
0.000000
  70
    32
  0
VERTEX
  8
0
  5
2E1BE
 10
1.37653
 20
8.54296
 30
0.000000
  70
    32
  0
VERTEX
  8
0
  5
2E1BF
 10
1.37499
 20
8.54737
 30
0.000000
  70
    32
  0
VERTEX
  8
0
  5
2E1C0
 10
1.37337
 20
8.55175
 30
0.000000
  70
    32
  0
VERTEX
  8
0
  5
2E1C1
 10
1.37167
 20
8.55609
 30
0.000000
  70
    32
  0
VERTEX
  8
0
  5
2E1C2
 10
1.36991
 20
8.56040
 30
0.000000
  70
    32
  0
VERTEX
  8
0
  5
2E1C3
 10
1.36807
 20
8.56468
 30
0.000000
  70
    32
  0
VERTEX
  8
0
  5
2E1C4
 10
1.36616
 20
8.56893
 30
0.000000
  70
    32
  0
VERTEX
  8
0
  5
2E1C5
 10
1.36418
 20
8.57314
 30
0.000000
  70
    32
  0
VERTEX
  8
0
  5
2E1C6
 10
1.36214
 20
8.57733
 30
0.000000
  70
    32
  0
VERTEX
  8
0
  5
2E1C7
 10
1.36003
 20
8.58148
 30
0.000000
  70
    32
  0
VERTEX
  8
0
  5
2E1C8
 10
1.35785
 20
8.58560
 30
0.000000
  70
    32
  0
VERTEX
  8
0
  5
2E1C9
 10
1.35561
 20
8.58970
 30
0.000000
  70
    32
  0
VERTEX
  8
0
  5
2E1CA
 10
1.35330
 20
8.59377
 30
0.000000
  70
    32
  0
VERTEX
  8
0
  5
2E1CB
 10
1.35093
 20
8.59781
 30
0.000000
  70
    32
  0
VERTEX
  8
0
  5
2E1CC
 10
1.34851
 20
8.60182
 30
0.000000
  70
    32
  0
VERTEX
  8
0
  5
2E1CD
 10
1.34602
 20
8.60581
 30
0.000000
  70
    32
  0
VERTEX
  8
0
  5
2E1CE
 10
1.34347
 20
8.60976
 30
0.000000
  70
    32
  0
VERTEX
  8
0
  5
2E1CF
 10
1.34086
 20
8.61370
 30
0.000000
  70
    32
  0
VERTEX
  8
0
  5
2E1D0
 10
1.33820
 20
8.61761
 30
0.000000
  70
    32
  0
VERTEX
  8
0
  5
2E1D1
 10
1.33549
 20
8.62149
 30
0.000000
  70
    32
  0
VERTEX
  8
0
  5
2E1D2
 10
1.33271
 20
8.62535
 30
0.000000
  70
    32
  0
VERTEX
  8
0
  5
2E1D3
 10
1.32989
 20
8.62919
 30
0.000000
  70
    32
  0
VERTEX
  8
0
  5
2E1D4
 10
1.32701
 20
8.63300
 30
0.000000
  70
    32
  0
VERTEX
  8
0
  5
2E1D5
 10
1.32408
 20
8.63679
 30
0.000000
  70
    32
  0
VERTEX
  8
0
  5
2E1D6
 10
1.32111
 20
8.64056
 30
0.000000
  70
    32
  0
VERTEX
  8
0
  5
2E1D7
 10
1.31808
 20
8.64431
 30
0.000000
  70
    32
  0
VERTEX
  8
0
  5
2E1D8
 10
1.31501
 20
8.64803
 30
0.000000
  70
    32
  0
VERTEX
  8
0
  5
2E1D9
 10
1.31189
 20
8.65174
 30
0.000000
  70
    32
  0
VERTEX
  8
0
  5
2E1DA
 10
1.30872
 20
8.65543
 30
0.000000
  70
    32
  0
VERTEX
  8
0
  5
2E1DB
 10
1.30551
 20
8.65910
 30
0.000000
  70
    32
  0
VERTEX
  8
0
  5
2E1DC
 10
1.30226
 20
8.66275
 30
0.000000
  70
    32
  0
VERTEX
  8
0
  5
2E1DD
 10
1.29896
 20
8.66638
 30
0.000000
  70
    32
  0
VERTEX
  8
0
  5
2E1DE
 10
1.29563
 20
8.66999
 30
0.000000
  70
    32
  0
VERTEX
  8
0
  5
2E1DF
 10
1.29225
 20
8.67359
 30
0.000000
  70
    32
  0
VERTEX
  8
0
  5
2E1E0
 10
1.28884
 20
8.67717
 30
0.000000
  70
    32
  0
VERTEX
  8
0
  5
2E1E1
 10
1.28539
 20
8.68074
 30
0.000000
  70
    32
  0
VERTEX
  8
0
  5
2E1E2
 10
1.28190
 20
8.68429
 30
0.000000
  70
    32
  0
VERTEX
  8
0
  5
2E1E3
 10
1.27838
 20
8.68782
 30
0.000000
  70
    32
  0
VERTEX
  8
0
  5
2E1E4
 10
1.27482
 20
8.69134
 30
0.000000
  70
    32
  0
VERTEX
  8
0
  5
2E1E5
 10
1.27123
 20
8.69485
 30
0.000000
  70
    32
  0
VERTEX
  8
0
  5
2E1E6
 10
1.26761
 20
8.69835
 30
0.000000
  70
    32
  0
VERTEX
  8
0
  5
2E1E7
 10
1.26396
 20
8.70183
 30
0.000000
  70
    32
  0
VERTEX
  8
0
  5
2E1E8
 10
1.26028
 20
8.70530
 30
0.000000
  70
    32
  0
VERTEX
  8
0
  5
2E1E9
 10
1.25657
 20
8.70876
 30
0.000000
  70
    32
  0
VERTEX
  8
0
  5
2E1EA
 10
1.25283
 20
8.71220
 30
0.000000
  70
    32
  0
VERTEX
  8
0
  5
2E1EB
 10
1.24907
 20
8.71564
 30
0.000000
  70
    32
  0
VERTEX
  8
0
  5
2E1EC
 10
1.24528
 20
8.71907
 30
0.000000
  70
    32
  0
VERTEX
  8
0
  5
2E1ED
 10
1.24147
 20
8.72249
 30
0.000000
  70
    32
  0
VERTEX
  8
0
  5
2E1EE
 10
1.23764
 20
8.72590
 30
0.000000
  70
    32
  0
VERTEX
  8
0
  5
2E1EF
 10
1.23379
 20
8.72930
 30
0.000000
  70
    32
  0
VERTEX
  8
0
  5
2E1F0
 10
1.22991
 20
8.73270
 30
0.000000
  70
    32
  0
VERTEX
  8
0
  5
2E1F1
 10
1.22601
 20
8.73609
 30
0.000000
  70
    32
  0
VERTEX
  8
0
  5
2E1F2
 10
1.22210
 20
8.73947
 30
0.000000
  70
    32
  0
VERTEX
  8
0
  5
2E1F3
 10
1.21817
 20
8.74284
 30
0.000000
  70
    32
  0
VERTEX
  8
0
  5
2E1F4
 10
1.21423
 20
8.74621
 30
0.000000
  70
    32
  0
VERTEX
  8
0
  5
2E1F5
 10
1.21027
 20
8.74958
 30
0.000000
  70
    32
  0
VERTEX
  8
0
  5
2E1F6
 10
1.20629
 20
8.75294
 30
0.000000
  70
    32
  0
VERTEX
  8
0
  5
2E1F7
 10
1.20230
 20
8.75630
 30
0.000000
  70
    32
  0
VERTEX
  8
0
  5
2E1F8
 10
1.19831
 20
8.75965
 30
0.000000
  70
    32
  0
VERTEX
  8
0
  5
2E1F9
 10
1.19430
 20
8.76300
 30
0.000000
  70
    32
  0
VERTEX
  8
0
  5
2E1FA
 10
1.19028
 20
8.76636
 30
0.000000
  70
    32
  0
VERTEX
  8
0
  5
2E1FB
 10
1.18626
 20
8.76970
 30
0.000000
  70
    32
  0
VERTEX
  8
0
  5
2E1FC
 10
1.18222
 20
8.77305
 30
0.000000
  70
    32
  0
VERTEX
  8
0
  5
2E1FD
 10
1.17819
 20
8.77640
 30
0.000000
  70
    32
  0
VERTEX
  8
0
  5
2E1FE
 10
1.17414
 20
8.77975
 30
0.000000
  70
    32
  0
VERTEX
  8
0
  5
2E1FF
 10
1.17010
 20
8.78310
 30
0.000000
  70
    32
  0
VERTEX
  8
0
  5
2E200
 10
1.16605
 20
8.78645
 30
0.000000
  70
    32
  0
VERTEX
  8
0
  5
2E201
 10
1.16200
 20
8.78980
 30
0.000000
  70
    32
  0
VERTEX
  8
0
  5
2E202
 10
1.15795
 20
8.79315
 30
0.000000
  70
    32
  0
VERTEX
  8
0
  5
2E203
 10
1.15390
 20
8.79651
 30
0.000000
  70
    32
  0
VERTEX
  8
0
  5
2E204
 10
1.14986
 20
8.79987
 30
0.000000
  70
    32
  0
VERTEX
  8
0
  5
2E205
 10
1.14582
 20
8.80323
 30
0.000000
  70
    32
  0
VERTEX
  8
0
  5
2E206
 10
1.14178
 20
8.80660
 30
0.000000
  70
    32
  0
VERTEX
  8
0
  5
2E207
 10
1.13775
 20
8.80998
 30
0.000000
  70
    32
  0
VERTEX
  8
0
  5
2E208
 10
1.13372
 20
8.81336
 30
0.000000
  70
    32
  0
VERTEX
  8
0
  5
2E209
 10
1.12970
 20
8.81674
 30
0.000000
  70
    32
  0
VERTEX
  8
0
  5
2E20A
 10
1.12569
 20
8.82014
 30
0.000000
  70
    32
  0
VERTEX
  8
0
  5
2E20B
 10
1.12170
 20
8.82354
 30
0.000000
  70
    32
  0
VERTEX
  8
0
  5
2E20C
 10
1.11771
 20
8.82695
 30
0.000000
  70
    32
  0
VERTEX
  8
0
  5
2E20D
 10
1.11373
 20
8.83036
 30
0.000000
  70
    32
  0
VERTEX
  8
0
  5
2E20E
 10
1.10977
 20
8.83379
 30
0.000000
  70
    32
  0
VERTEX
  8
0
  5
2E20F
 10
1.10583
 20
8.83723
 30
0.000000
  70
    32
  0
VERTEX
  8
0
  5
2E210
 10
1.10190
 20
8.84067
 30
0.000000
  70
    32
  0
VERTEX
  8
0
  5
2E211
 10
1.09798
 20
8.84413
 30
0.000000
  70
    32
  0
VERTEX
  8
0
  5
2E212
 10
1.09409
 20
8.84760
 30
0.000000
  70
    32
  0
VERTEX
  8
0
  5
2E213
 10
1.09021
 20
8.85107
 30
0.000000
  70
    32
  0
VERTEX
  8
0
  5
2E214
 10
1.08635
 20
8.85457
 30
0.000000
  70
    32
  0
VERTEX
  8
0
  5
2E215
 10
1.08251
 20
8.85807
 30
0.000000
  70
    32
  0
VERTEX
  8
0
  5
2E216
 10
1.07870
 20
8.86158
 30
0.000000
  70
    32
  0
VERTEX
  8
0
  5
2E217
 10
1.07490
 20
8.86511
 30
0.000000
  70
    32
  0
VERTEX
  8
0
  5
2E218
 10
1.07113
 20
8.86865
 30
0.000000
  70
    32
  0
VERTEX
  8
0
  5
2E219
 10
1.06738
 20
8.87220
 30
0.000000
  70
    32
  0
VERTEX
  8
0
  5
2E21A
 10
1.06365
 20
8.87576
 30
0.000000
  70
    32
  0
VERTEX
  8
0
  5
2E21B
 10
1.05995
 20
8.87934
 30
0.000000
  70
    32
  0
VERTEX
  8
0
  5
2E21C
 10
1.05628
 20
8.88294
 30
0.000000
  70
    32
  0
VERTEX
  8
0
  5
2E21D
 10
1.05263
 20
8.88654
 30
0.000000
  70
    32
  0
VERTEX
  8
0
  5
2E21E
 10
1.04900
 20
8.89016
 30
0.000000
  70
    32
  0
VERTEX
  8
0
  5
2E21F
 10
1.04541
 20
8.89380
 30
0.000000
  70
    32
  0
VERTEX
  8
0
  5
2E220
 10
1.04185
 20
8.89745
 30
0.000000
  70
    32
  0
VERTEX
  8
0
  5
2E221
 10
1.03831
 20
8.90112
 30
0.000000
  70
    32
  0
VERTEX
  8
0
  5
2E222
 10
1.03481
 20
8.90480
 30
0.000000
  70
    32
  0
VERTEX
  8
0
  5
2E223
 10
1.03133
 20
8.90850
 30
0.000000
  70
    32
  0
VERTEX
  8
0
  5
2E224
 10
1.02789
 20
8.91221
 30
0.000000
  70
    32
  0
VERTEX
  8
0
  5
2E225
 10
1.02448
 20
8.91594
 30
0.000000
  70
    32
  0
VERTEX
  8
0
  5
2E226
 10
1.02111
 20
8.91969
 30
0.000000
  70
    32
  0
VERTEX
  8
0
  5
2E227
 10
1.01777
 20
8.92345
 30
0.000000
  70
    32
  0
VERTEX
  8
0
  5
2E228
 10
1.01446
 20
8.92723
 30
0.000000
  70
    32
  0
VERTEX
  8
0
  5
2E229
 10
1.01119
 20
8.93103
 30
0.000000
  70
    32
  0
VERTEX
  8
0
  5
2E22A
 10
1.00796
 20
8.93484
 30
0.000000
  70
    32
  0
VERTEX
  8
0
  5
2E22B
 10
1.00476
 20
8.93868
 30
0.000000
  70
    32
  0
VERTEX
  8
0
  5
2E22C
 10
1.00160
 20
8.94253
 30
0.000000
  70
    32
  0
VERTEX
  8
0
  5
2E22D
 10
0.998485
 20
8.94640
 30
0.000000
  70
    32
  0
VERTEX
  8
0
  5
2E22E
 10
0.995407
 20
8.95029
 30
0.000000
  70
    32
  0
VERTEX
  8
0
  5
2E22F
 10
0.992369
 20
8.95420
 30
0.000000
  70
    32
  0
VERTEX
  8
0
  5
2E230
 10
0.989373
 20
8.95813
 30
0.000000
  70
    32
  0
VERTEX
  8
0
  5
2E231
 10
0.986419
 20
8.96208
 30
0.000000
  70
    32
  0
VERTEX
  8
0
  5
2E232
 10
0.983508
 20
8.96605
 30
0.000000
  70
    32
  0
VERTEX
  8
0
  5
2E233
 10
0.980642
 20
8.97004
 30
0.000000
  70
    32
  0
VERTEX
  8
0
  5
2E234
 10
0.977819
 20
8.97405
 30
0.000000
  70
    32
  0
VERTEX
  8
0
  5
2E235
 10
0.975042
 20
8.97808
 30
0.000000
  70
    32
  0
VERTEX
  8
0
  5
2E236
 10
0.972312
 20
8.98213
 30
0.000000
  70
    32
  0
VERTEX
  8
0
  5
2E237
 10
0.969628
 20
8.98621
 30
0.000000
  70
    32
  0
VERTEX
  8
0
  5
2E238
 10
0.966993
 20
8.99030
 30
0.000000
  70
    32
  0
VERTEX
  8
0
  5
2E239
 10
0.964406
 20
8.99442
 30
0.000000
  70
    32
  0
VERTEX
  8
0
  5
2E23A
 10
0.961868
 20
8.99856
 30
0.000000
  70
    32
  0
VERTEX
  8
0
  5
2E23B
 10
0.959381
 20
9.00272
 30
0.000000
  70
    32
  0
VERTEX
  8
0
  5
2E23C
 10
0.956944
 20
9.00691
 30
0.000000
  70
    32
  0
VERTEX
  8
0
  5
2E23D
 10
0.954559
 20
9.01112
 30
0.000000
  70
    32
  0
VERTEX
  8
0
  5
2E23E
 10
0.952227
 20
9.01535
 30
0.000000
  70
    32
  0
VERTEX
  8
0
  5
2E23F
 10
0.949949
 20
9.01960
 30
0.000000
  70
    32
  0
VERTEX
  8
0
  5
2E240
 10
0.947724
 20
9.02388
 30
0.000000
  70
    32
  0
VERTEX
  8
0
  5
2E241
 10
0.945555
 20
9.02819
 30
0.000000
  70
    32
  0
VERTEX
  8
0
  5
2E242
 10
0.943441
 20
9.03252
 30
0.000000
  70
    32
  0
VERTEX
  8
0
  5
2E243
 10
0.941383
 20
9.03687
 30
0.000000
  70
    32
  0
VERTEX
  8
0
  5
2E244
 10
0.939384
 20
9.04125
 30
0.000000
  70
    32
  0
VERTEX
  8
0
  5
2E245
 10
0.937442
 20
9.04566
 30
0.000000
  70
    32
  0
VERTEX
  8
0
  5
2E246
 10
0.935559
 20
9.05009
 30
0.000000
  70
    32
  0
VERTEX
  8
0
  5
2E247
 10
0.933736
 20
9.05455
 30
0.000000
  70
    32
  0
VERTEX
  8
0
  5
2E248
 10
0.931973
 20
9.05903
 30
0.000000
  70
    32
  0
VERTEX
  8
0
  5
2E249
 10
0.930271
 20
9.06354
 30
0.000000
  70
    32
  0
VERTEX
  8
0
  5
2E24A
 10
0.928629
 20
9.06808
 30
0.000000
  70
    32
  0
VERTEX
  8
0
  5
2E24B
 10
0.927045
 20
9.07264
 30
0.000000
  70
    32
  0
VERTEX
  8
0
  5
2E24C
 10
0.925517
 20
9.07722
 30
0.000000
  70
    32
  0
VERTEX
  8
0
  5
2E24D
 10
0.924045
 20
9.08183
 30
0.000000
  70
    32
  0
VERTEX
  8
0
  5
2E24E
 10
0.922626
 20
9.08647
 30
0.000000
  70
    32
  0
VERTEX
  8
0
  5
2E24F
 10
0.921259
 20
9.09112
 30
0.000000
  70
    32
  0
VERTEX
  8
0
  5
2E250
 10
0.919943
 20
9.09580
 30
0.000000
  70
    32
  0
VERTEX
  8
0
  5
2E251
 10
0.918676
 20
9.10050
 30
0.000000
  70
    32
  0
VERTEX
  8
0
  5
2E252
 10
0.917457
 20
9.10522
 30
0.000000
  70
    32
  0
VERTEX
  8
0
  5
2E253
 10
0.916283
 20
9.10996
 30
0.000000
  70
    32
  0
VERTEX
  8
0
  5
2E254
 10
0.915155
 20
9.11472
 30
0.000000
  70
    32
  0
VERTEX
  8
0
  5
2E255
 10
0.914070
 20
9.11950
 30
0.000000
  70
    32
  0
VERTEX
  8
0
  5
2E256
 10
0.913026
 20
9.12429
 30
0.000000
  70
    32
  0
VERTEX
  8
0
  5
2E257
 10
0.912023
 20
9.12911
 30
0.000000
  70
    32
  0
VERTEX
  8
0
  5
2E258
 10
0.911058
 20
9.13394
 30
0.000000
  70
    32
  0
VERTEX
  8
0
  5
2E259
 10
0.910131
 20
9.13879
 30
0.000000
  70
    32
  0
VERTEX
  8
0
  5
2E25A
 10
0.909239
 20
9.14365
 30
0.000000
  70
    32
  0
VERTEX
  8
0
  5
2E25B
 10
0.908381
 20
9.14853
 30
0.000000
  70
    32
  0
VERTEX
  8
0
  5
2E25C
 10
0.907557
 20
9.15342
 30
0.000000
  70
    32
  0
VERTEX
  8
0
  5
2E25D
 10
0.906763
 20
9.15832
 30
0.000000
  70
    32
  0
VERTEX
  8
0
  5
2E25E
 10
0.906000
 20
9.16324
 30
0.000000
  70
    32
  0
VERTEX
  8
0
  5
2E25F
 10
0.905264
 20
9.16817
 30
0.000000
  70
    32
  0
VERTEX
  8
0
  5
2E260
 10
0.904556
 20
9.17312
 30
0.000000
  70
    32
  0
VERTEX
  8
0
  5
2E261
 10
0.903873
 20
9.17807
 30
0.000000
  70
    32
  0
VERTEX
  8
0
  5
2E262
 10
0.903213
 20
9.18303
 30
0.000000
  70
    32
  0
VERTEX
  8
0
  5
2E263
 10
0.902576
 20
9.18801
 30
0.000000
  70
    32
  0
VERTEX
  8
0
  5
2E264
 10
0.901960
 20
9.19299
 30
0.000000
  70
    32
  0
VERTEX
  8
0
  5
2E265
 10
0.901363
 20
9.19798
 30
0.000000
  70
    32
  0
VERTEX
  8
0
  5
2E266
 10
0.900784
 20
9.20298
 30
0.000000
  70
    32
  0
VERTEX
  8
0
  5
2E267
 10
0.900222
 20
9.20799
 30
0.000000
  70
    32
  0
VERTEX
  8
0
  5
2E268
 10
0.899674
 20
9.21300
 30
0.000000
  70
    32
  0
VERTEX
  8
0
  5
2E269
 10
0.899140
 20
9.21802
 30
0.000000
  70
    32
  0
VERTEX
  8
0
  5
2E26A
 10
0.898617
 20
9.22304
 30
0.000000
  70
    32
  0
VERTEX
  8
0
  5
2E26B
 10
0.898105
 20
9.22807
 30
0.000000
  70
    32
  0
VERTEX
  8
0
  5
2E26C
 10
0.897602
 20
9.23310
 30
0.000000
  70
    32
  0
VERTEX
  8
0
  5
2E26D
 10
0.897107
 20
9.23813
 30
0.000000
  70
    32
  0
VERTEX
  8
0
  5
2E26E
 10
0.896617
 20
9.24317
 30
0.000000
  70
    32
  0
VERTEX
  8
0
  5
2E26F
 10
0.896132
 20
9.24821
 30
0.000000
  70
    32
  0
VERTEX
  8
0
  5
2E270
 10
0.895650
 20
9.25325
 30
0.000000
  70
    32
  0
VERTEX
  8
0
  5
2E271
 10
0.895169
 20
9.25829
 30
0.000000
  70
    32
  0
SEQEND
  8
0
  5
2E272
  0
LINE
  5
2B8A0
  8
0
  6
CONTINUOUS
 62
     7
 10
0.7472076905950758
 20
9.2582948336663549
 30
0.0
 11
0.7472076905949621
 21
11.826520277942111
 31
0.0
  0
LINE
  5
2B8A1
  8
0
  6
CONTINUOUS
 62
     7
 10
0.4997076905949598
 20
12.389020277942111
 30
0.0
 11
0.000001476738305
 21
12.389020277942111
 31
0.0
  0
ARC
  5
2B8A2
  8
0
 10
0.4997076905949598
 20
12.139020277942111
 30
0.0
 40
0.2500000000000009
 50
269.42703265506509
 51
90.0
  0
LINE
  5
2B8A3
  8
0
  6
CONTINUOUS
 62
     7
 10
0.7472076905949621
 20
11.826520277942111
 30
0.0
 11
0.5597076905949621
 21
11.826520277942111
 31
0.0
  0
LINE
  5
2B8A4
  8
0
  6
CONTINUOUS
 62
     7
 10
0.4972076905949621
 20
11.826520277942111
 30
0.0
 11
0.4972076905949621
 21
11.88903277828603
 31
0.0
  0
LINE
  5
2B8A5
  8
0
 10
0.0000014767382481
 20
7.878552666495465
 30
0.0
 11
0.000001476738305
 21
12.389020277942111
 31
0.0
  0
LINE
  5
2B8A6
  8
0
 10
0.7472076905949621
 20
11.826520277942111
 30
0.0
 11
0.4972076905949621
 21
11.826520277942111
 31
0.0
  0
LINE
  5
2B8A7
  8
FRAME_050
 10
6.5744546621590407
 20
17.993710579095019
 30
0.0
 11
6.5744546621590407
 21
0.0000000294007805
 31
0.0
  0
ENDBLK
  5
2B8A9
  8
0
  0
BLOCK
  8
0
  2
*U164
 70
     1
 10
0.0
 20
0.0
 30
0.0
  3
*U164
  1

  0
TEXT
  5
2DAED
  8
0
 10
3.5177832928899071
 20
10.38601584255777
 30
0.0
 40
0.125
  1
Crown Moulding
  0
TEXT
  5
2DAEE
  8
0
 10
3.5223876585106431
 20
10.17717091304435
 30
0.0
 40
0.125
  1
TL-AB509
  0
TEXT
  5
2DAEF
  8
0
 10
3.5074661032582561
 20
9.9667059289606801
 30
0.0
 40
0.125
  1
1-5/16" x 7-9/16"
  0
TEXT
  5
2DAF0
  8
0
 10
3.519403347460166
 20
9.7562409448770051
 30
0.0
 40
0.125
  1
800.66.TAGUE
  0
ENDBLK
  5
2DAF2
  8
0
  0
BLOCK
  8
0
  2
*U165
 70
     1
 10
0.0
 20
0.0
 30
0.0
  3
*U165
  1

  0
TEXT
  5
2DAF4
  8
0
 10
5.3066868277875692
 20
1.767659498411035
 30
0.0
 40
0.125
  1
Back Band
  0
TEXT
  5
2DAF5
  8
0
 10
5.3153839628489603
 20
1.55881456889762
 30
0.0
 40
0.125
  1
TL-1
  0
TEXT
  5
2DAF6
  8
0
 10
5.3004624075965721
 20
1.3483495848139451
 30
0.0
 40
0.125
  1
1-3/8" x 1-9/16"
  0
TEXT
  5
2DAF7
  8
0
 10
5.3123996517984819
 20
1.137884600730271
 30
0.0
 40
0.125
  1
800.66.TAGUE
  0
ENDBLK
  5
2DAF9
  8
0
  0
BLOCK
  8
0
  2
*U166
 70
     1
 10
0.0
 20
0.0
 30
0.0
  3
*U166
  1

  0
TEXT
  5
2DAFB
  8
0
 10
2.551252809835812
 20
0.9623111621543785
 30
0.0
 40
0.125
  1
Back Band
  0
TEXT
  5
2DAFC
  8
0
 10
2.5599499448972041
 20
0.7534662326409634
 30
0.0
 40
0.125
  1
TL-288
  0
TEXT
  5
2DAFD
  8
0
 10
2.5450283896448158
 20
0.5430012485572889
 30
0.0
 40
0.125
  1
1-11/16" x 1-13/16"
  0
TEXT
  5
2DAFE
  8
0
 10
2.5569656338467261
 20
0.3325362644736145
 30
0.0
 40
0.125
  1
800.66.TAGUE
  0
ENDBLK
  5
2DB00
  8
0
  0
BLOCK
  8
0
  2
*U167
 70
     1
 10
0.0
 20
0.0
 30
0.0
  3
*U167
  1

  0
TEXT
  5
2DB02
  8
0
 10
1.8364329238504911
 20
0.882982778245946
 30
0.0
 40
0.125
  1
Back Band
  0
TEXT
  5
2DB03
  8
0
 10
1.845130058911882
 20
0.6741378487325309
 30
0.0
 40
0.125
  1
TL-289
  0
TEXT
  5
2DB04
  8
0
 10
1.8302085036594951
 20
0.4636728646488565
 30
0.0
 40
0.125
  1
1-1/16" x 1-11/16"
  0
TEXT
  5
2DB05
  8
0
 10
1.8421457478614049
 20
0.2532078805651821
 30
0.0
 40
0.125
  1
800.66.TAGUE
  0
ENDBLK
  5
2DB07
  8
0
  0
BLOCK
  8
0
  2
*U168
 70
     1
 10
0.0
 20
0.0
 30
0.0
  3
*U168
  1

  0
TEXT
  5
2DB09
  8
0
 10
1.929931786774016
 20
0.8512665098620573
 30
0.0
 40
0.125
  1
Back Band
  0
TEXT
  5
2DB0A
  8
0
 10
1.9386289218354069
 20
0.6424215803486422
 30
0.0
 40
0.125
  1
TL-601
  0
TEXT
  5
2DB0B
  8
0
 10
1.92370736658302
 20
0.4319565962649678
 30
0.0
 40
0.125
  1
1-5/16" x 1-3/8"
  0
TEXT
  5
2DB0C
  8
0
 10
1.9356446107849301
 20
0.2214916121812933
 30
0.0
 40
0.125
  1
800.66.TAGUE
  0
ENDBLK
  5
2DB0E
  8
0
  0
BLOCK
  8
0
  2
*U169
 70
     1
 10
0.0
 20
0.0
 30
0.0
  3
*U169
  1

  0
TEXT
  5
2DB10
  8
0
 10
1.8237739904796331
 20
0.9081704084311468
 30
0.0
 40
0.125
  1
Back Band
  0
TEXT
  5
2DB11
  8
0
 10
1.832471125541024
 20
0.6993254789177317
 30
0.0
 40
0.125
  1
TL-2075
  0
TEXT
  5
2DB12
  8
0
 10
1.8175495702886371
 20
0.4888604948340573
 30
0.0
 40
0.125
  1
1-5/16" x 1-5/8"
  0
TEXT
  5
2DB13
  8
0
 10
1.829486814490547
 20
0.2783955107503828
 30
0.0
 40
0.125
  1
800.66.TAGUE
  0
ENDBLK
  5
2DB15
  8
0
  0
BLOCK
  8
0
  2
*U170
 70
     1
 10
0.0
 20
0.0
 30
0.0
  3
*U170
  1

  0
TEXT
  5
2DB17
  8
0
 10
1.9545668919090351
 20
0.8644213446237927
 30
0.0
 40
0.125
  1
Back Band
  0
TEXT
  5
2DB18
  8
0
 10
1.963264026970426
 20
0.6555764151103776
 30
0.0
 40
0.125
  1
TL-2208 
  0
TEXT
  5
2DB19
  8
0
 10
1.9483424717180391
 20
0.4451114310267032
 30
0.0
 40
0.125
  1
1-3/8" x 1-5/8"
  0
TEXT
  5
2DB1A
  8
0
 10
1.960279715919949
 20
0.2346464469430287
 30
0.0
 40
0.125
  1
800.66.TAGUE
  0
ENDBLK
  5
2DB1C
  8
0
  0
BLOCK
  8
0
  2
*U171
 70
     1
 10
0.0
 20
0.0
 30
0.0
  3
*U171
  1

  0
TEXT
  5
2DB1E
  8
0
 10
2.7644474121262692
 20
0.8344220463493456
 30
0.0
 40
0.125
  1
Back Band
  0
TEXT
  5
2DB1F
  8
0
 10
2.7731445471876608
 20
0.6255771168359307
 30
0.0
 40
0.125
  1
TL-2221 
  0
TEXT
  5
2DB20
  8
0
 10
2.7689665117169922
 20
0.4151121327522561
 30
0.0
 40
0.125
  1
7/8" x 1-3/4"
  0
TEXT
  5
2DB21
  8
0
 10
2.7701602361371829
 20
0.2046471486685817
 30
0.0
 40
0.125
  1
800.66.TAGUE
  0
ENDBLK
  5
2DB23
  8
0
  0
BLOCK
  8
0
  2
*U172
 70
     1
 10
0.0
 20
0.0
 30
0.0
  3
*U172
  1

  0
TEXT
  5
2DB25
  8
0
 10
2.6915324485008609
 20
1.1836703361148011
 30
0.0
 40
0.125
  1
Back Band
  0
TEXT
  5
2DB26
  8
0
 10
2.700229583562253
 20
0.974825406601386
 30
0.0
 40
0.125
  1
TL-2266
  0
TEXT
  5
2DB27
  8
0
 10
2.685308028309866
 20
0.7643604225177115
 30
0.0
 40
0.125
  1
1-11/32" x 1-15/32"
  0
TEXT
  5
2DB28
  8
0
 10
2.697245272511775
 20
0.5538954384340372
 30
0.0
 40
0.125
  1
800.66.TAGUE
  0
ENDBLK
  5
2DB2A
  8
0
  0
BLOCK
  8
0
  2
*U173
 70
     1
 10
0.0
 20
0.0
 30
0.0
  3
*U173
  1

  0
TEXT
  5
2DB2C
  8
0
 10
3.1852595440213172
 20
1.4826139655959869
 30
0.0
 40
0.125
  1
Back Band
  0
TEXT
  5
2DB2D
  8
0
 10
3.1939566790827079
 20
1.273769036082572
 30
0.0
 40
0.125
  1
TL-2293
  0
TEXT
  5
2DB2E
  8
0
 10
3.1790351238303209
 20
1.0147194680971241
 30
0.0
 40
0.125
  1
1-
  0
TEXT
  5
2DB2F
  8
0
 10
3.3285150010472382
 20
1.1040697409484199
 30
0.0
 40
0.0875
  1
7
  0
LINE
  5
2DB30
  8
0
 10
3.3553421833758441
 20
1.032393937073133
 30
0.0
 11
3.4557180597372761
 21
1.1757455448237071
 31
0.0
  0
TEXT
  5
2DB31
  8
0
 10
3.4151594985461009
 20
0.9855528014304578
 30
0.0
 40
0.0875
  1
8
  0
TEXT
  5
2DB32
  8
0
 10
3.483619594044054
 20
1.0147194680971241
 30
0.0
 40
0.125
  1
" x 2-
  0
TEXT
  5
2DB33
  8
0
 10
3.8794330319703851
 20
1.1040697409484199
 30
0.0
 40
0.0875
  1
7
  0
LINE
  5
2DB34
  8
0
 10
3.9062602142989902
 20
1.032393937073133
 30
0.0
 11
4.0066360906604244
 21
1.1757455448237071
 31
0.0
  0
TEXT
  5
2DB35
  8
0
 10
3.957721458527911
 20
0.9855528014304578
 30
0.0
 40
0.0875
  1
16
  0
TEXT
  5
2DB36
  8
0
 10
4.0939254148717028
 20
1.0147194680971241
 30
0.0
 40
0.125
  1
"
  0
TEXT
  5
2DB37
  8
0
 10
3.1909723680322308
 20
0.8459211506801169
 30
0.0
 40
0.125
  1
800.66.TAGUE
  0
ENDBLK
  5
2DB39
  8
0
  0
BLOCK
  8
0
  2
*U174
 70
     1
 10
0.0
 20
0.0
 30
0.0
  3
*U174
  1

  0
TEXT
  5
2DB3B
  8
0
 10
2.4900996379053408
 20
1.0092498715596481
 30
0.0
 40
0.125
  1
Baluster Stock
  0
TEXT
  5
2DB3C
  8
0
 10
2.4987967729667329
 20
0.800404942046233
 30
0.0
 40
0.125
  1
TL-236
  0
TEXT
  5
2DB3D
  8
0
 10
2.4838752177143451
 20
0.5899399579625585
 30
0.0
 40
0.125
  1
1-9/16" x 1-9/16"
  0
TEXT
  5
2DB3E
  8
0
 10
2.4958124619162549
 20
0.3794749738788841
 30
0.0
 40
0.125
  1
800.66.TAGUE
  0
ENDBLK
  5
2DB40
  8
0
  0
BLOCK
  8
0
  2
*U175
 70
     1
 10
0.0
 20
0.0
 30
0.0
  3
*U175
  1

  0
TEXT
  5
2DB42
  8
0
 10
2.3591545502839431
 20
0.9010435759007737
 30
0.0
 40
0.125
  1
Baluster Stock
  0
TEXT
  5
2DB43
  8
0
 10
2.3678516853453342
 20
0.6921986463873587
 30
0.0
 40
0.125
  1
TL-237
  0
TEXT
  5
2DB44
  8
0
 10
2.3529301300929468
 20
0.4817336623036842
 30
0.0
 40
0.125
  1
1-5/16" x 1-5/16"
  0
TEXT
  5
2DB45
  8
0
 10
2.3648673742948572
 20
0.2712686782200098
 30
0.0
 40
0.125
  1
800.66.TAGUE
  0
ENDBLK
  5
2DB47
  8
0
  0
BLOCK
  8
0
  2
*U176
 70
     1
 10
0.0
 20
0.0
 30
0.0
  3
*U176
  1

  0
TEXT
  5
2DB49
  8
0
 10
2.098510450655322
 20
0.7826568183311498
 30
0.0
 40
0.125
  1
Baluster Stock
  0
TEXT
  5
2DB4A
  8
0
 10
2.1072075857167132
 20
0.5738118888177346
 30
0.0
 40
0.125
  1
TL-238
  0
TEXT
  5
2DB4B
  8
0
 10
2.0922860304643258
 20
0.3633469047340601
 30
0.0
 40
0.125
  1
1-1/16" x 1-1/16"
  0
TEXT
  5
2DB4C
  8
0
 10
2.1042232746662362
 20
0.1528819206503857
 30
0.0
 40
0.125
  1
800.66.TAGUE
  0
ENDBLK
  5
2DB4E
  8
0
  0
BLOCK
  8
0
  2
*U177
 70
     1
 10
0.0
 20
0.0
 30
0.0
  3
*U177
  1

  0
TEXT
  5
2DB50
  8
0
 10
1.7835912292499461
 20
0.6784890753194919
 30
0.0
 40
0.125
  1
Baluster Stock
  0
TEXT
  5
2DB51
  8
0
 10
1.792288364311337
 20
0.4696441458060768
 30
0.0
 40
0.125
  1
TL-239
  0
TEXT
  5
2DB52
  8
0
 10
1.7890482551708189
 20
0.2591791617224023
 30
0.0
 40
0.125
  1
3/4" x 3/4"
  0
TEXT
  5
2DB53
  8
0
 10
1.78930405326086
 20
0.0487141776387279
 30
0.0
 40
0.125
  1
800.66.TAGUE
  0
ENDBLK
  5
2DB55
  8
0
  0
BLOCK
  8
0
  2
*U178
 70
     1
 10
0.0
 20
0.0
 30
0.0
  3
*U178
  1

  0
TEXT
  5
2DB57
  8
0
 10
2.750346038648086
 20
1.209669783574115
 30
0.0
 40
0.125
  1
Baluster Stock
  0
TEXT
  5
2DB58
  8
0
 10
2.7590431737094772
 20
1.0008248540607001
 30
0.0
 40
0.125
  1
TL-526
  0
TEXT
  5
2DB59
  8
0
 10
2.7441216184570898
 20
0.7903598699770261
 30
0.0
 40
0.125
  1
1-3/4" x 1-3/4"
  0
TEXT
  5
2DB5A
  8
0
 10
2.7560588626590001
 20
0.5798948858933518
 30
0.0
 40
0.125
  1
800.66.TAGUE
  0
ENDBLK
  5
2DB5C
  8
0
  0
BLOCK
  8
0
  2
*U179
 70
     1
 10
0.0
 20
0.0
 30
0.0
  3
*U179
  1

  0
TEXT
  5
2DB5E
  8
0
 10
4.1934393821158942
 20
3.6154353709422362
 30
0.0
 40
0.125
  1
Bar Rail
  0
TEXT
  5
2DB5F
  8
0
 10
4.2021365171772853
 20
3.4065904414288211
 30
0.0
 40
0.125
  1
TL-13
  0
TEXT
  5
2DB60
  8
0
 10
4.19898167406678
 20
3.1961254573451461
 30
0.0
 40
0.125
  1
5-1/2" x 1-5/8"
  0
TEXT
  5
2DB61
  8
0
 10
4.199152206126807
 20
2.985660473261472
 30
0.0
 40
0.125
  1
800.66.TAGUE
  0
ENDBLK
  5
2DB63
  8
0
  0
BLOCK
  8
0
  2
*U180
 70
     1
 10
0.0
 20
0.0
 30
0.0
  3
*U180
  1

  0
TEXT
  5
2DB65
  8
0
 10
2.7915496004018041
 20
1.6928133759646471
 30
0.0
 40
0.125
  1
Bar Rail
  0
TEXT
  5
2DB66
  8
0
 10
2.8002467354631961
 20
1.483968446451231
 30
0.0
 40
0.125
  1
TL-130
  0
TEXT
  5
2DB67
  8
0
 10
2.7853251802108079
 20
1.273503462367557
 30
0.0
 40
0.125
  1
1-11/16" x 2-1/4"
  0
TEXT
  5
2DB68
  8
0
 10
2.7972624244127182
 20
1.0630384782838831
 30
0.0
 40
0.125
  1
800.66.TAGUE
  0
ENDBLK
  5
2DB6A
  8
0
  0
BLOCK
  8
0
  2
*U181
 70
     1
 10
0.0
 20
0.0
 30
0.0
  3
*U181
  1

  0
TEXT
  5
2DB6C
  8
0
 10
0.7422973615718824
 20
1.83447380854534
 30
0.0
 40
0.125
  1
Bar Rail
  0
TEXT
  5
2DB6D
  8
0
 10
0.750994496633274
 20
1.625628879031924
 30
0.0
 40
0.125
  1
TL-537
  0
TEXT
  5
2DB6E
  8
0
 10
0.7360729413808864
 20
1.4151638949482499
 30
0.0
 40
0.125
  1
1-5/16" x 5-3/16" / 7/8" x 3-1/16"
  0
TEXT
  5
2DB6F
  8
0
 10
0.7480101855827965
 20
1.204698910864576
 30
0.0
 40
0.125
  1
800.66.TAGUE
  0
ENDBLK
  5
2DB71
  8
0
  0
BLOCK
  8
0
  2
*U182
 70
     1
 10
0.0
 20
0.0
 30
0.0
  3
*U182
  1

  0
TEXT
  5
2DB73
  8
0
 10
1.8164004611375999
 20
3.819697741885534
 30
0.0
 40
0.125
  1
Base Board Assembly
  0
TEXT
  5
2DB74
  8
0
 10
1.8250975961989919
 20
3.610852812372118
 30
0.0
 40
0.125
  1
TL-680
  0
TEXT
  5
2DB75
  8
0
 10
1.8101760409466039
 20
3.4003878282884439
 30
0.0
 40
0.125
  1
1-1/16" x 6-3/4"
  0
TEXT
  5
2DB76
  8
0
 10
1.822113285148514
 20
3.1899228442047698
 30
0.0
 40
0.125
  1
800.66.TAGUE
  0
ENDBLK
  5
2DB78
  8
0
  0
BLOCK
  8
0
  2
*U183
 70
     1
 10
0.0
 20
0.0
 30
0.0
  3
*U183
  1

  0
TEXT
  5
2DB7A
  8
0
 10
1.880121442934813
 20
2.5708737061797931
 30
0.0
 40
0.125
  1
TL-541
  0
ENDBLK
  5
2DB7C
  8
0
  0
BLOCK
  8
0
  2
*U184
 70
     1
 10
0.0
 20
0.0
 30
0.0
  3
*U184
  1

  0
INSERT
  5
2DB7E
  8
0
  2
_OPEN30
 10
0.9370004965966245
 20
1.998969839043752
 30
0.0
 41
0.046875
 42
0.046875
 43
0.046875
 50
220.2352165150823
  0
POLYLINE
  5
2DB7F
  8
0
 66
     1
 10
0.0
 20
0.0
 30
0.0
  0
VERTEX
  5
2DB80
  8
0
 10
0.9727848321090522
 20
2.0292476685058189
 30
0.0
  0
VERTEX
  5
2DB81
  8
0
 10
1.687083141229663
 20
2.633629504269833
 30
0.0
  0
VERTEX
  5
2DB82
  8
0
 10
1.8217142123754679
 20
2.633629504269833
 30
0.0
  0
SEQEND
  5
2DB83
  8
0
  0
ENDBLK
  5
2DB85
  8
0
  0
BLOCK
  8
0
  2
*U185
 70
     1
 10
0.0
 20
0.0
 30
0.0
  3
*U185
  1

  0
TEXT
  5
2DB87
  8
0
 10
1.8608875418177091
 20
6.6078272811635204
 30
0.0
 40
0.125
  1
TL-540
  0
TEXT
  5
2DB88
  8
0
 10
1.8649803112583641
 20
6.399238149740146
 30
0.0
 40
0.125
  1
 
  0
ENDBLK
  5
2DB8A
  8
0
  0
BLOCK
  8
0
  2
*U186
 70
     1
 10
0.0
 20
0.0
 30
0.0
  3
*U186
  1

  0
INSERT
  5
2DB8C
  8
0
  2
_OPEN30
 10
0.8157519259211198
 20
5.9858143171212532
 30
0.0
 41
0.046875
 42
0.046875
 43
0.046875
 50
218.1633806826421
  0
POLYLINE
  5
2DB8D
  8
0
 66
     1
 10
0.0
 20
0.0
 30
0.0
  0
VERTEX
  5
2DB8E
  8
0
 10
0.8526074872282775
 20
6.0147786611624072
 30
0.0
  0
VERTEX
  5
2DB8F
  8
0
 10
1.687083141229663
 20
6.6705830792535599
 30
0.0
  0
VERTEX
  5
2DB90
  8
0
 10
1.8024803112583641
 20
6.6705830792535599
 30
0.0
  0
SEQEND
  5
2DB91
  8
0
  0
ENDBLK
  5
2DB93
  8
0
  0
BLOCK
  8
0
  2
*U187
 70
     1
 10
0.0
 20
0.0
 30
0.0
  3
*U187
  1

  0
TEXT
  5
2DB95
  8
0
 10
1.200091944455248
 20
3.6095250915403758
 30
0.0
 40
0.125
  1
Base Board Assembly
  0
TEXT
  5
2DB96
  8
0
 10
1.2087890795166401
 20
3.4006801620269611
 30
0.0
 40
0.125
  1
TL-681
  0
TEXT
  5
2DB97
  8
0
 10
1.193867524264252
 20
3.190215177943287
 30
0.0
 40
0.125
  1
1" x 9-1/4"
  0
TEXT
  5
2DB98
  8
0
 10
1.2058047684661619
 20
2.979750193859612
 30
0.0
 40
0.125
  1
800.66.TAGUE
  0
ENDBLK
  5
2DB9A
  8
0
  0
BLOCK
  8
0
  2
*U188
 70
     1
 10
0.0
 20
0.0
 30
0.0
  3
*U188
  1

  0
INSERT
  5
2DB9C
  8
0
  6
CONTINUOUS
  2
_OPEN30
 10
0.7500005591156196
 20
6.587852449929982
 30
0.0
 41
0.046875
 42
0.046875
 43
0.046875
 50
224.09146837719419
  0
POLYLINE
  5
2DB9D
  8
0
  6
CONTINUOUS
 66
     1
 10
0.0
 20
0.0
 30
0.0
  0
VERTEX
  5
2DB9E
  8
0
  6
CONTINUOUS
 10
0.7836675863640283
 20
6.6204683494462451
 30
0.0
  0
VERTEX
  5
2DB9F
  8
0
  6
CONTINUOUS
 10
1.7133956757769511
 20
7.5211691365396973
 30
0.0
  0
VERTEX
  5
2DBA0
  8
0
  6
CONTINUOUS
 10
1.9000752793112949
 20
7.5211691365396973
 30
0.0
  0
SEQEND
  5
2DBA1
  8
0
  6
CONTINUOUS
  0
ENDBLK
  5
2DBA3
  8
0
  0
BLOCK
  8
0
  2
*U189
 70
     1
 10
0.0
 20
0.0
 30
0.0
  3
*U189
  1

  0
TEXT
  5
2DBA5
  8
0
 10
1.95848250987064
 20
7.458413338449656
 30
0.0
 40
0.125
  1
TL-602
  0
ENDBLK
  5
2DBA7
  8
0
  0
BLOCK
  8
0
  2
*U190
 70
     1
 10
0.0
 20
0.0
 30
0.0
  3
*U190
  1

  0
INSERT
  5
2DBA9
  8
0
  6
CONTINUOUS
  2
_OPEN30
 10
1.0000005591156189
 20
0.8124995480944789
 30
0.0
 41
0.046875
 42
0.046875
 43
0.046875
 50
224.09146837719419
  0
POLYLINE
  5
2DBAA
  8
0
  6
CONTINUOUS
 66
     1
 10
0.0
 20
0.0
 30
0.0
  0
VERTEX
  5
2DBAB
  8
0
  6
CONTINUOUS
 10
1.0336675863640279
 20
0.8451154476107411
 30
0.0
  0
VERTEX
  5
2DBAC
  8
0
  6
CONTINUOUS
 10
1.9633956757769511
 20
1.745816234704193
 30
0.0
  0
VERTEX
  5
2DBAD
  8
0
  6
CONTINUOUS
 10
2.1500752793112952
 20
1.745816234704193
 30
0.0
  0
SEQEND
  5
2DBAE
  8
0
  6
CONTINUOUS
  0
ENDBLK
  5
2DBB0
  8
0
  0
BLOCK
  8
0
  2
*U191
 70
     1
 10
0.0
 20
0.0
 30
0.0
  3
*U191
  1

  0
TEXT
  5
2DBB2
  8
0
 10
2.20848250987064
 20
1.6828046385241111
 30
0.0
 40
0.125
  1
TL-266
  0
ENDBLK
  5
2DBB4
  8
0
  0
BLOCK
  8
0
  2
*U192
 70
     1
 10
0.0
 20
0.0
 30
0.0
  3
*U192
  1

  0
INSERT
  5
2DBB6
  8
0
  6
CONTINUOUS
  2
_OPEN30
 10
0.7500004105942253
 20
6.3960963538685291
 30
0.0
 41
0.046875
 42
0.046875
 43
0.046875
 50
219.47434747209351
  0
POLYLINE
  5
2DBB7
  8
0
  6
CONTINUOUS
 66
     1
 10
0.0
 20
0.0
 30
0.0
  0
VERTEX
  5
2DBB8
  8
0
  6
CONTINUOUS
 10
0.7861836586409798
 20
6.4258963234286979
 30
0.0
  0
VERTEX
  5
2DBB9
  8
0
  6
CONTINUOUS
 10
1.374056000801033
 20
6.9100589911637371
 30
0.0
  0
VERTEX
  5
2DBBA
  8
0
  6
CONTINUOUS
 10
1.5384924777565061
 20
6.9100589911637371
 30
0.0
  0
SEQEND
  5
2DBBB
  8
0
  6
CONTINUOUS
  0
ENDBLK
  5
2DBBD
  8
0
  0
BLOCK
  8
0
  2
*U193
 70
     1
 10
0.0
 20
0.0
 30
0.0
  3
*U193
  1

  0
TEXT
  5
2DBBF
  8
0
 10
1.5968997083158509
 20
6.8473031930736958
 30
0.0
 40
0.125
  1
TL-550
  0
ENDBLK
  5
2DBC1
  8
0
  0
BLOCK
  8
0
  2
*U194
 70
     1
 10
0.0
 20
0.0
 30
0.0
  3
*U194
  1

  0
INSERT
  5
2DBC3
  8
0
  6
CONTINUOUS
  2
_OPEN30
 10
0.7500004105942253
 20
2.53267018701797
 30
0.0
 41
0.046875
 42
0.046875
 43
0.046875
 50
222.22478218143399
  0
POLYLINE
  5
2DBC4
  8
0
  6
CONTINUOUS
 66
     1
 10
0.0
 20
0.0
 30
0.0
  0
VERTEX
  5
2DBC5
  8
0
  6
CONTINUOUS
 10
0.7847120037465148
 20
2.5641721064171099
 30
0.0
  0
VERTEX
  5
2DBC6
  8
0
  6
CONTINUOUS
 10
1.5311175519539111
 20
3.2415598401215671
 30
0.0
  0
VERTEX
  5
2DBC7
  8
0
  6
CONTINUOUS
 10
1.6247289838881891
 20
3.2416177465441929
 30
0.0
  0
SEQEND
  5
2DBC8
  8
0
  6
CONTINUOUS
  0
ENDBLK
  5
2DBCA
  8
0
  0
BLOCK
  8
0
  2
*U195
 70
     1
 10
0.0
 20
0.0
 30
0.0
  3
*U195
  1

  0
TEXT
  5
2DBCC
  8
0
 10
1.6831362144475339
 20
3.178861948454152
 30
0.0
 40
0.125
  1
TL-551
  0
ENDBLK
  5
2DBCE
  8
0
  0
BLOCK
  8
0
  2
*U196
 70
     1
 10
0.0
 20
0.0
 30
0.0
  3
*U196
  1

  0
INSERT
  5
2DBD0
  8
0
  6
CONTINUOUS
  2
_OPEN30
 10
1.04738175721161
 20
0.4967917735383481
 30
0.0
 41
0.046875
 42
0.046875
 43
0.046875
 50
212.67418530855349
  0
POLYLINE
  5
2DBD1
  8
0
  6
CONTINUOUS
 66
     1
 10
0.0
 20
0.0
 30
0.0
  0
VERTEX
  5
2DBD2
  8
0
  6
CONTINUOUS
 10
1.0868389807680281
 20
0.5220977636240739
 30
0.0
  0
VERTEX
  5
2DBD3
  8
0
  6
CONTINUOUS
 10
1.4785839895729389
 20
0.7733444154513336
 30
0.0
  0
VERTEX
  5
2DBD4
  8
0
  6
CONTINUOUS
 10
1.535363721355395
 20
0.7733444154513336
 30
0.0
  0
SEQEND
  5
2DBD5
  8
0
  6
CONTINUOUS
  0
ENDBLK
  5
2DBD7
  8
0
  0
BLOCK
  8
0
  2
*U197
 70
     1
 10
0.0
 20
0.0
 30
0.0
  3
*U197
  1

  0
TEXT
  5
2DBD9
  8
0
 10
1.5937709519147401
 20
0.7105886173612928
 30
0.0
 40
0.125
  1
TL-127
  0
ENDBLK
  5
2DBDB
  8
0
  0
BLOCK
  8
0
  2
*U198
 70
     1
 10
0.0
 20
0.0
 30
0.0
  3
*U198
  1

  0
TEXT
  5
2DBDD
  8
0
 10
2.1409458709672249
 20
2.6869009874993699
 30
0.0
 40
0.125
  1
Base Board Assembly
  0
TEXT
  5
2DBDE
  8
0
 10
2.1496430060286169
 20
2.4780560579859552
 30
0.0
 40
0.125
  1
TL-682
  0
TEXT
  5
2DBDF
  8
0
 10
2.1347214507762291
 20
2.2675910739022811
 30
0.0
 40
0.125
  1
1-1/16" x 7-3/8"
  0
TEXT
  5
2DBE0
  8
0
 10
2.146658694978139
 20
2.057126089818607
 30
0.0
 40
0.125
  1
800.66.TAGUE
  0
ENDBLK
  5
2DBE2
  8
0
  0
BLOCK
  8
0
  2
*U199
 70
     1
 10
0.0
 20
0.0
 30
0.0
  3
*U199
  1

  0
TEXT
  5
2DBE4
  8
0
 10
2.290801695922692
 20
2.6689022993974731
 30
0.0
 40
0.125
  1
Base Board Assembly
  0
TEXT
  5
2DBE5
  8
0
 10
2.2994988309840831
 20
2.4600573698840571
 30
0.0
 40
0.125
  1
TL-683
  0
TEXT
  5
2DBE6
  8
0
 10
2.2845772757316962
 20
2.249592385800383
 30
0.0
 40
0.125
  1
1-1/8" x 5-15/16"
  0
TEXT
  5
2DBE7
  8
0
 10
2.2965145199336061
 20
2.0391274017167089
 30
0.0
 40
0.125
  1
800.66.TAGUE
  0
ENDBLK
  5
2DBE9
  8
0
  0
BLOCK
  8
0
  2
*U200
 70
     1
 10
0.0
 20
0.0
 30
0.0
  3
*U200
  1

  0
INSERT
  5
2DBEB
  8
0
  6
CONTINUOUS
  2
_OPEN30
 10
1.12500054900903
 20
5.65624955358237
 30
0.0
 41
0.046875
 42
0.046875
 43
0.046875
 50
212.76268937863
  0
POLYLINE
  5
2DBEC
  8
0
  6
CONTINUOUS
 66
     1
 10
0.0
 20
0.0
 30
0.0
  0
VERTEX
  5
2DBED
  8
0
  6
CONTINUOUS
 10
1.164418635662722
 20
5.6816164625300907
 30
0.0
  0
VERTEX
  5
2DBEE
  8
0
  6
CONTINUOUS
 10
1.5566905795914741
 20
5.9340570939541522
 30
0.0
  0
VERTEX
  5
2DBEF
  8
0
  6
CONTINUOUS
 10
1.625384535953855
 20
5.9340570939541522
 30
0.0
  0
SEQEND
  5
2DBF0
  8
0
  6
CONTINUOUS
  0
ENDBLK
  5
2DBF2
  8
0
  0
BLOCK
  8
0
  2
*U201
 70
     1
 10
0.0
 20
0.0
 30
0.0
  3
*U201
  1

  0
TEXT
  5
2DBF4
  8
0
 10
1.6837917665132001
 20
5.8710454977740696
 30
0.0
 40
0.125
  1
TL-522
  0
ENDBLK
  5
2DBF6
  8
0
  0
BLOCK
  8
0
  2
*U202
 70
     1
 10
0.0
 20
0.0
 30
0.0
  3
*U202
  1

  0
INSERT
  5
2DBF8
  8
0
  6
CONTINUOUS
  2
_OPEN30
 10
1.2500005459876879
 20
0.2499995505611423
 30
0.0
 41
0.046875
 42
0.046875
 43
0.046875
 50
202.31861548713121
  0
POLYLINE
  5
2DBF9
  8
0
  6
CONTINUOUS
 66
     1
 10
0.0
 20
0.0
 30
0.0
  0
VERTEX
  5
2DBFA
  8
0
  6
CONTINUOUS
 10
1.293363970221912
 20
0.2678006478217807
 30
0.0
  0
VERTEX
  5
2DBFB
  8
0
  6
CONTINUOUS
 10
2.1572010681318261
 20
0.6224139761923198
 30
0.0
  0
VERTEX
  5
2DBFC
  8
0
  6
CONTINUOUS
 10
2.2687807536349851
 20
0.626210466030102
 30
0.0
  0
SEQEND
  5
2DBFD
  8
0
  6
CONTINUOUS
  0
ENDBLK
  5
2DBFF
  8
0
  0
BLOCK
  8
0
  2
*U203
 70
     1
 10
0.0
 20
0.0
 30
0.0
  3
*U203
  1

  0
TEXT
  5
2DC01
  8
0
 10
2.3271879841943299
 20
0.5634546679400611
 30
0.0
 40
0.125
  1
TL-126
  0
ENDBLK
  5
2DC03
  8
0
  0
BLOCK
  8
0
  2
*U204
 70
     1
 10
0.0
 20
0.0
 30
0.0
  3
*U204
  1

  0
INSERT
  5
2DC05
  8
0
  6
CONTINUOUS
  2
_OPEN30
 10
0.7500005490090304
 20
2.74999955358237
 30
0.0
 41
0.046875
 42
0.046875
 43
0.046875
 50
202.16313132933621
  0
POLYLINE
  5
2DC06
  8
0
  6
CONTINUOUS
 66
     1
 10
0.0
 20
0.0
 30
0.0
  0
VERTEX
  5
2DC07
  8
0
  6
CONTINUOUS
 10
0.7934121205394016
 20
2.7676829096626911
 30
0.0
  0
VERTEX
  5
2DC08
  8
0
  6
CONTINUOUS
 10
1.403356379662966
 20
3.0161388199879862
 30
0.0
  0
VERTEX
  5
2DC09
  8
0
  6
CONTINUOUS
 10
1.4759478210543191
 20
3.0161388199879862
 30
0.0
  0
SEQEND
  5
2DC0A
  8
0
  6
CONTINUOUS
  0
ENDBLK
  5
2DC0C
  8
0
  0
BLOCK
  8
0
  2
*U205
 70
     1
 10
0.0
 20
0.0
 30
0.0
  3
*U205
  1

  0
TEXT
  5
2DC0E
  8
0
 10
1.5194334963612759
 20
2.9533830218979449
 30
0.0
 40
0.125
  1
1 x 6
  0
ENDBLK
  5
2DC10
  8
0
  0
BLOCK
  8
0
  2
*U206
 70
     1
 10
0.0
 20
0.0
 30
0.0
  3
*U206
  1

  0
TEXT
  5
2DC12
  8
0
 10
2.704137288033603
 20
3.332115229613577
 30
0.0
 40
0.125
  1
Base Board Assembly
  0
TEXT
  5
2DC13
  8
0
 10
2.712834423094995
 20
3.1232703001001618
 30
0.0
 40
0.125
  1
TL-684
  0
TEXT
  5
2DC14
  8
0
 10
2.6979128678426072
 20
2.9128053160164882
 30
0.0
 40
0.125
  1
1-1/4" x 7-1/8"
  0
TEXT
  5
2DC15
  8
0
 10
2.7098501120445171
 20
2.7023403319328141
 30
0.0
 40
0.125
  1
800.66.TAGUE
  0
ENDBLK
  5
2DC17
  8
0
  0
BLOCK
  8
0
  2
*U207
 70
     1
 10
0.0
 20
0.0
 30
0.0
  3
*U207
  1

  0
INSERT
  5
2DC19
  8
0
  6
CONTINUOUS
  2
_OPEN30
 10
0.7451914169819816
 20
2.7500006434855768
 30
0.0
 41
0.046875
 42
0.046875
 43
0.046875
 50
202.16313132933621
  0
POLYLINE
  5
2DC1A
  8
0
  6
CONTINUOUS
 66
     1
 10
0.0
 20
0.0
 30
0.0
  0
VERTEX
  5
2DC1B
  8
0
  6
CONTINUOUS
 10
0.7886029885123529
 20
2.7676839995658988
 30
0.0
  0
VERTEX
  5
2DC1C
  8
0
  6
CONTINUOUS
 10
1.3985472476359171
 20
3.0161399098911938
 30
0.0
  0
VERTEX
  5
2DC1D
  8
0
  6
CONTINUOUS
 10
1.47113868902727
 20
3.0161399098911938
 30
0.0
  0
SEQEND
  5
2DC1E
  8
0
  6
CONTINUOUS
  0
ENDBLK
  5
2DC20
  8
0
  0
BLOCK
  8
0
  2
*U208
 70
     1
 10
0.0
 20
0.0
 30
0.0
  3
*U208
  1

  0
TEXT
  5
2DC22
  8
0
 10
1.5146243643342281
 20
2.953384111801153
 30
0.0
 40
0.125
  1
1 x 6
  0
ENDBLK
  5
2DC24
  8
0
  0
BLOCK
  8
0
  2
*U209
 70
     1
 10
0.0
 20
0.0
 30
0.0
  3
*U209
  1

  0
INSERT
  5
2DC26
  8
0
  6
CONTINUOUS
  2
_OPEN30
 10
1.1801914169819829
 20
0.4698936434855341
 30
0.0
 41
0.046875
 42
0.046875
 43
0.046875
 50
202.3186154871324
  0
POLYLINE
  5
2DC27
  8
0
  6
CONTINUOUS
 66
     1
 10
0.0
 20
0.0
 30
0.0
  0
VERTEX
  5
2DC28
  8
0
  6
CONTINUOUS
 10
1.2235548412162069
 20
0.4876947407461734
 30
0.0
  0
VERTEX
  5
2DC29
  8
0
  6
CONTINUOUS
 10
2.0873919391260638
 20
0.8423080691167115
 30
0.0
  0
VERTEX
  5
2DC2A
  8
0
  6
CONTINUOUS
 10
2.1989716246292801
 20
0.8461045589546075
 30
0.0
  0
SEQEND
  5
2DC2B
  8
0
  6
CONTINUOUS
  0
ENDBLK
  5
2DC2D
  8
0
  0
BLOCK
  8
0
  2
*U210
 70
     1
 10
0.0
 20
0.0
 30
0.0
  3
*U210
  1

  0
TEXT
  5
2DC2F
  8
0
 10
2.2573788551886249
 20
0.7830929627745256
 30
0.0
 40
0.125
  1
TL-936
  0
ENDBLK
  5
2DC31
  8
0
  0
BLOCK
  8
0
  2
*U211
 70
     1
 10
0.0
 20
0.0
 30
0.0
  3
*U211
  1

  0
INSERT
  5
2DC33
  8
0
  6
CONTINUOUS
  2
_OPEN30
 10
1.1140370353124349
 20
6.0172615651794104
 30
0.0
 41
0.046875
 42
0.046875
 43
0.046875
 50
212.76268937861931
  0
POLYLINE
  5
2DC34
  8
0
  6
CONTINUOUS
 66
     1
 10
0.0
 20
0.0
 30
0.0
  0
VERTEX
  5
2DC35
  8
0
  6
CONTINUOUS
 10
1.153455121966132
 20
6.0426284741271239
 30
0.0
  0
VERTEX
  5
2DC36
  8
0
  6
CONTINUOUS
 10
1.5457270658948801
 20
6.2950691055510779
 30
0.0
  0
VERTEX
  5
2DC37
  8
0
  6
CONTINUOUS
 10
1.614421022257261
 20
6.2950691055510779
 30
0.0
  0
SEQEND
  5
2DC38
  8
0
  6
CONTINUOUS
  0
ENDBLK
  5
2DC3A
  8
0
  0
BLOCK
  8
0
  2
*U212
 70
     1
 10
0.0
 20
0.0
 30
0.0
  3
*U212
  1

  0
TEXT
  5
2DC3C
  8
0
 10
1.6728282528166061
 20
6.2320575093709971
 30
0.0
 40
0.125
  1
TL-64
  0
ENDBLK
  5
2DC3E
  8
0
  0
BLOCK
  8
0
  2
*U213
 70
     1
 10
0.0
 20
0.0
 30
0.0
  3
*U213
  1

  0
INSERT
  5
2DC40
  8
0
  2
_OPEN30
 10
0.7499984483362711
 20
3.323717158281283
 30
0.0
 41
0.046875
 42
0.046875
 43
0.046875
 50
223.3453603417224
  0
POLYLINE
  5
2DC41
  8
0
 66
     1
 10
0.0
 20
0.0
 30
0.0
  0
VERTEX
  5
2DC42
  8
0
 10
0.7840873347090377
 20
3.3558918913938451
 30
0.0
  0
VERTEX
  5
2DC43
  8
0
 10
1.5886209634041959
 20
4.1152494867193354
 30
0.0
  0
VERTEX
  5
2DC44
  8
0
 10
1.696609421136031
 20
4.1152494867193354
 30
0.0
  0
SEQEND
  5
2DC45
  8
0
  0
ENDBLK
  5
2DC47
  8
0
  0
BLOCK
  8
0
  2
*U214
 70
     1
 10
0.0
 20
0.0
 30
0.0
  3
*U214
  1

  0
TEXT
  5
2DC49
  8
0
 10
1.755016651695376
 20
4.0522378905392529
 30
0.0
 40
0.125
  1
TL-AB212
  0
ENDBLK
  5
2DC4B
  8
0
  0
BLOCK
  8
0
  2
*U215
 70
     1
 10
0.0
 20
0.0
 30
0.0
  3
*U215
  1

  0
INSERT
  5
2DC4D
  8
0
  2
_OPEN30
 10
1.044936595452554
 20
0.5089059855812366
 30
0.0
 41
0.046875
 42
0.046875
 43
0.046875
 50
218.32432662178419
  0
POLYLINE
  5
2DC4E
  8
0
 66
     1
 10
0.0
 20
0.0
 30
0.0
  0
VERTEX
  5
2DC4F
  8
0
 10
1.0817106495577451
 20
0.5379737438310308
 30
0.0
  0
VERTEX
  5
2DC50
  8
0
 10
1.624617115981436
 20
0.9671098372601819
 30
0.0
  0
VERTEX
  5
2DC51
  8
0
 10
1.7056084592803691
 20
0.9671098372601819
 30
0.0
  0
SEQEND
  5
2DC52
  8
0
  0
ENDBLK
  5
2DC54
  8
0
  0
BLOCK
  8
0
  2
*U216
 70
     1
 10
0.0
 20
0.0
 30
0.0
  3
*U216
  1

  0
TEXT
  5
2DC56
  8
0
 10
1.7640156898397139
 20
0.9043540391701409
 30
0.0
 40
0.125
  1
TL-AB027
  0
ENDBLK
  5
2DC58
  8
0
  0
BLOCK
  8
0
  2
*U217
 70
     1
 10
0.0
 20
0.0
 30
0.0
  3
*U217
  1

  0
TEXT
  5
2DC5A
  8
0
 10
2.1745549234235391
 20
2.6225473309813192
 30
0.0
 40
0.125
  1
Base Board Assembly
  0
TEXT
  5
2DC5B
  8
0
 10
2.1832520584849302
 20
2.413702401467904
 30
0.0
 40
0.125
  1
TL-685
  0
TEXT
  5
2DC5C
  8
0
 10
2.1683305032325428
 20
2.2032374173842291
 30
0.0
 40
0.125
  1
1-1/4" x 5-1/2"
  0
TEXT
  5
2DC5D
  8
0
 10
2.1802677474344532
 20
1.992772433300555
 30
0.0
 40
0.125
  1
800.66.TAGUE
  0
ENDBLK
  5
2DC5F
  8
0
  0
BLOCK
  8
0
  2
*U218
 70
     1
 10
0.0
 20
0.0
 30
0.0
  3
*U218
  1

  0
INSERT
  5
2DC61
  8
0
  2
_OPEN30
 10
1.237403731795552
 20
0.7228374639378217
 30
0.0
 41
0.046875
 42
0.046875
 43
0.046875
 50
218.32432662178419
  0
POLYLINE
  5
2DC62
  8
0
 66
     1
 10
0.0
 20
0.0
 30
0.0
  0
VERTEX
  5
2DC63
  8
0
 10
1.274177785900743
 20
0.7519052221876159
 30
0.0
  0
VERTEX
  5
2DC64
  8
0
 10
1.8170842523244339
 20
1.1810413156167661
 30
0.0
  0
VERTEX
  5
2DC65
  8
0
 10
1.898075595623367
 20
1.1810413156167661
 30
0.0
  0
SEQEND
  5
2DC66
  8
0
  0
ENDBLK
  5
2DC68
  8
0
  0
BLOCK
  8
0
  2
*U219
 70
     1
 10
0.0
 20
0.0
 30
0.0
  3
*U219
  1

  0
TEXT
  5
2DC6A
  8
0
 10
1.9564828261827121
 20
1.1180297194366851
 30
0.0
 40
0.125
  1
TL-AB205-2
  0
ENDBLK
  5
2DC6C
  8
0
  0
BLOCK
  8
0
  2
*U220
 70
     1
 10
0.0
 20
0.0
 30
0.0
  3
*U220
  1

  0
INSERT
  5
2DC6E
  8
0
  2
_OPEN30
 10
0.7805394140341379
 20
3.428009497764946
 30
0.0
 41
0.046875
 42
0.046875
 43
0.046875
 50
223.3453603417224
  0
POLYLINE
  5
2DC6F
  8
0
 66
     1
 10
0.0
 20
0.0
 30
0.0
  0
VERTEX
  5
2DC70
  8
0
 10
0.8146283004069044
 20
3.460184230877509
 30
0.0
  0
VERTEX
  5
2DC71
  8
0
 10
1.619161929102062
 20
4.219541826202998
 30
0.0
  0
VERTEX
  5
2DC72
  8
0
 10
1.727150386833898
 20
4.219541826202998
 30
0.0
  0
SEQEND
  5
2DC73
  8
0
  0
ENDBLK
  5
2DC75
  8
0
  0
BLOCK
  8
0
  2
*U221
 70
     1
 10
0.0
 20
0.0
 30
0.0
  3
*U221
  1

  0
TEXT
  5
2DC77
  8
0
 10
1.785557617393243
 20
4.1565302300229172
 30
0.0
 40
0.125
  1
TL-AB205-1
  0
ENDBLK
  5
2DC79
  8
0
  0
BLOCK
  8
0
  2
*U222
 70
     1
 10
0.0
 20
0.0
 30
0.0
  3
*U222
  1

  0
TEXT
  5
2DC7B
  8
0
 10
1.775461282784117
 20
2.9617887573592721
 30
0.0
 40
0.125
  1
Base Board Assembly
  0
TEXT
  5
2DC7C
  8
0
 10
1.784158417845509
 20
2.7529438278458569
 30
0.0
 40
0.125
  1
TL-686
  0
TEXT
  5
2DC7D
  8
0
 10
1.769236862593121
 20
2.5424788437621819
 30
0.0
 40
0.125
  1
1-1/4" x 6"
  0
TEXT
  5
2DC7E
  8
0
 10
1.7811741067950311
 20
2.3320138596785078
 30
0.0
 40
0.125
  1
800.66.TAGUE
  0
ENDBLK
  5
2DC80
  8
0
  0
BLOCK
  8
0
  2
*U223
 70
     1
 10
0.0
 20
0.0
 30
0.0
  3
*U223
  1

  0
TEXT
  5
2DC82
  8
0
 10
1.8629812104003169
 20
1.3751718201384611
 30
0.0
 40
0.125
  1
Base Board
  0
TEXT
  5
2DC83
  8
0
 10
1.8716783454617081
 20
1.1663268906250459
 30
0.0
 40
0.125
  1
TL-540
  0
TEXT
  5
2DC84
  8
0
 10
1.8567567902093209
 20
0.9558619065413724
 30
0.0
 40
0.125
  1
1-1/16" x 1-7/8"
  0
TEXT
  5
2DC85
  8
0
 10
1.8686940344112311
 20
0.745396922457698
 30
0.0
 40
0.125
  1
800.66.TAGUE
  0
ENDBLK
  5
2DC87
  8
0
  0
BLOCK
  8
0
  2
*U224
 70
     1
 10
0.0
 20
0.0
 30
0.0
  3
*U224
  1

  0
TEXT
  5
2DC89
  8
0
 10
2.095166123738732
 20
2.843700788541923
 30
0.0
 40
0.125
  1
Base Board
  0
TEXT
  5
2DC8A
  8
0
 10
2.1038632588001231
 20
2.6348558590285078
 30
0.0
 40
0.125
  1
TL-541
  0
TEXT
  5
2DC8B
  8
0
 10
2.0889417035477358
 20
2.4243908749448329
 30
0.0
 40
0.125
  1
1-5/16" x 5-1/8"
  0
TEXT
  5
2DC8C
  8
0
 10
2.1008789477496461
 20
2.2139258908611592
 30
0.0
 40
0.125
  1
800.66.TAGUE
  0
ENDBLK
  5
2DC8E
  8
0
  0
BLOCK
  8
0
  2
*U225
 70
     1
 10
0.0
 20
0.0
 30
0.0
  3
*U225
  1

  0
TEXT
  5
2DC90
  8
0
 10
1.3029084100507859
 20
2.5127676930541152
 30
0.0
 40
0.125
  1
Base Board
  0
TEXT
  5
2DC91
  8
0
 10
1.3116055451121771
 20
2.3039227635407
 30
0.0
 40
0.125
  1
TL-36
  0
TEXT
  5
2DC92
  8
0
 10
1.3084507020016729
 20
2.093457779457025
 30
0.0
 40
0.125
  1
9/16" x 5-1/16"
  0
TEXT
  5
2DC93
  8
0
 10
1.3086212340617001
 20
1.882992795373351
 30
0.0
 40
0.125
  1
800.66.TAGUE
  0
ENDBLK
  5
2DC95
  8
0
  0
BLOCK
  8
0
  2
*U226
 70
     1
 10
0.0
 20
0.0
 30
0.0
  3
*U226
  1

  0
TEXT
  5
2DC97
  8
0
 10
1.1612344098374301
 20
2.1628857347385511
 30
0.0
 40
0.125
  1
Base Board
  0
TEXT
  5
2DC98
  8
0
 10
1.169931544898821
 20
1.9540408052251359
 30
0.0
 40
0.125
  1
TL-543
  0
TEXT
  5
2DC99
  8
0
 10
1.1667767017883159
 20
1.743575821141462
 30
0.0
 40
0.125
  1
9/16" x 4-3/16"
  0
TEXT
  5
2DC9A
  8
0
 10
1.1669472338483431
 20
1.5331108370577871
 30
0.0
 40
0.125
  1
800.66.TAGUE
  0
ENDBLK
  5
2DC9C
  8
0
  0
BLOCK
  8
0
  2
*U227
 70
     1
 10
0.0
 20
0.0
 30
0.0
  3
*U227
  1

  0
TEXT
  5
2DC9E
  8
0
 10
1.038992604214154
 20
2.7540114932149891
 30
0.0
 40
0.125
  1
Base Board
  0
TEXT
  5
2DC9F
  8
0
 10
1.0476897392755451
 20
2.545166563701573
 30
0.0
 40
0.125
  1
TL-618
  0
TEXT
  5
2DCA0
  8
0
 10
1.0445348961650409
 20
2.3347015796178989
 30
0.0
 40
0.125
  1
9/16" x 5-1/4"
  0
TEXT
  5
2DCA1
  8
0
 10
1.0447054282250681
 20
2.1242365955342248
 30
0.0
 40
0.125
  1
800.66.TAGUE
  0
ENDBLK
  5
2DCA3
  8
0
  0
BLOCK
  8
0
  2
*U228
 70
     1
 10
0.0
 20
0.0
 30
0.0
  3
*U228
  1

  0
TEXT
  5
2DCA5
  8
0
 10
1.182401194441109
 20
1.819766214437663
 30
0.0
 40
0.125
  1
Base Board
  0
TEXT
  5
2DCA6
  8
0
 10
1.1910983295024999
 20
1.610921284924248
 30
0.0
 40
0.125
  1
TL-623
  0
TEXT
  5
2DCA7
  8
0
 10
1.1879434863919951
 20
1.400456300840573
 30
0.0
 40
0.125
  1
9/16" x 3-1/2"
  0
TEXT
  5
2DCA8
  8
0
 10
1.188114018452022
 20
1.189991316756899
 30
0.0
 40
0.125
  1
800.66.TAGUE
  0
ENDBLK
  5
2DCAA
  8
0
  0
BLOCK
  8
0
  2
*U229
 70
     1
 10
0.0
 20
0.0
 30
0.0
  3
*U229
  1

  0
TEXT
  5
2DCAC
  8
0
 10
1.300654159433843
 20
1.884782119222677
 30
0.0
 40
0.125
  1
Base Board
  0
TEXT
  5
2DCAD
  8
0
 10
1.309351294495235
 20
1.6759371897092621
 30
0.0
 40
0.125
  1
TL-713
  0
TEXT
  5
2DCAE
  8
0
 10
1.30619645138473
 20
1.4654722056255871
 30
0.0
 40
0.125
  1
9/16" x 3-1/4"
  0
TEXT
  5
2DCAF
  8
0
 10
1.3063669834447571
 20
1.255007221541913
 30
0.0
 40
0.125
  1
800.66.TAGUE
  0
ENDBLK
  5
2DCB1
  8
0
  0
BLOCK
  8
0
  2
*U230
 70
     1
 10
0.0
 20
0.0
 30
0.0
  3
*U230
  1

  0
TEXT
  5
2DCB3
  8
0
 10
1.5968605762384229
 20
3.9529851600731258
 30
0.0
 40
0.125
  1
Base Board
  0
TEXT
  5
2DCB4
  8
0
 10
1.6055577112998141
 20
3.7441402305597111
 30
0.0
 40
0.125
  1
TL-602
  0
TEXT
  5
2DCB5
  8
0
 10
1.602317602159296
 20
3.5336752464760361
 30
0.0
 40
0.125
  1
3/4" x 9-1/4"
  0
TEXT
  5
2DCB6
  8
0
 10
1.602573400249337
 20
3.3232102623923621
 30
0.0
 40
0.125
  1
800.66.TAGUE
  0
ENDBLK
  5
2DCB8
  8
0
  0
BLOCK
  8
0
  2
*U231
 70
     1
 10
0.0
 20
0.0
 30
0.0
  3
*U231
  1

  0
TEXT
  5
2DCBA
  8
0
 10
1.524246887462577
 20
2.1988362265429942
 30
0.0
 40
0.125
  1
Base Board
  0
TEXT
  5
2DCBB
  8
0
 10
1.532944022523969
 20
1.989991297029579
 30
0.0
 40
0.125
  1
TL-603
  0
TEXT
  5
2DCBC
  8
0
 10
1.52970391338345
 20
1.779526312945904
 30
0.0
 40
0.125
  1
3/4" x 4-1/2"
  0
TEXT
  5
2DCBD
  8
0
 10
1.5299597114734911
 20
1.5690613288622299
 30
0.0
 40
0.125
  1
800.66.TAGUE
  0
ENDBLK
  5
2DCBF
  8
0
  0
BLOCK
  8
0
  2
*U232
 70
     1
 10
0.0
 20
0.0
 30
0.0
  3
*U232
  1

  0
TEXT
  5
2DCC1
  8
0
 10
1.222563432627662
 20
2.8332029065544471
 30
0.0
 40
0.125
  1
Base Board
  0
TEXT
  5
2DCC2
  8
0
 10
1.231260567689054
 20
2.6243579770410319
 30
0.0
 40
0.125
  1
TL-2143
  0
TEXT
  5
2DCC3
  8
0
 10
1.228020458548535
 20
2.4138929929573569
 30
0.0
 40
0.125
  1
3/4" x 5-1/4"
  0
TEXT
  5
2DCC4
  8
0
 10
1.2282762566385761
 20
2.2034280088736828
 30
0.0
 40
0.125
  1
800.66.TAGUE
  0
ENDBLK
  5
2DCC6
  8
0
  0
BLOCK
  8
0
  2
*U233
 70
     1
 10
0.0
 20
0.0
 30
0.0
  3
*U233
  1

  0
TEXT
  5
2DCC8
  8
0
 10
1.40527247153032
 20
2.9709364495405448
 30
0.0
 40
0.125
  1
Base Board
  0
TEXT
  5
2DCC9
  8
0
 10
1.4139696065917109
 20
2.7620915200271301
 30
0.0
 40
0.125
  1
TL-2001
  0
TEXT
  5
2DCCA
  8
0
 10
1.410729497451193
 20
2.5516265359434551
 30
0.0
 40
0.125
  1
3/4" x 7-1/4"
  0
TEXT
  5
2DCCB
  8
0
 10
1.4109852955412341
 20
2.341161551859781
 30
0.0
 40
0.125
  1
800.66.TAGUE
  0
ENDBLK
  5
2DCCD
  8
0
  0
BLOCK
  8
0
  2
*U234
 70
     1
 10
0.0
 20
0.0
 30
0.0
  3
*U234
  1

  0
TEXT
  5
2DCCF
  8
0
 10
1.28063331752558
 20
2.7081572525072479
 30
0.0
 40
0.125
  1
Base Board
  0
TEXT
  5
2DCD0
  8
0
 10
1.289330452586972
 20
2.4993123229938332
 30
0.0
 40
0.125
  1
TL-2022
  0
TEXT
  5
2DCD1
  8
0
 10
1.286090343446453
 20
2.2888473389101591
 30
0.0
 40
0.125
  1
3/4" x 5-1/2"
  0
TEXT
  5
2DCD2
  8
0
 10
1.2863461415364941
 20
2.078382354826485
 30
0.0
 40
0.125
  1
800.66.TAGUE
  0
ENDBLK
  5
2DCD4
  8
0
  0
BLOCK
  8
0
  2
*U235
 70
     1
 10
0.0
 20
0.0
 30
0.0
  3
*U235
  1

  0
TEXT
  5
2DCD6
  8
0
 10
1.3261446082858399
 20
3.4366400904110601
 30
0.0
 40
0.125
  1
Base Board
  0
TEXT
  5
2DCD7
  8
0
 10
1.334841743347231
 20
3.227795160897645
 30
0.0
 40
0.125
  1
TL-2153
  0
TEXT
  5
2DCD8
  8
0
 10
1.3338185509870679
 20
3.01733017681397
 30
0.0
 40
0.125
  1
27/32" x 7-1/4"
  0
TEXT
  5
2DCD9
  8
0
 10
1.331857432296754
 20
2.8068651927302959
 30
0.0
 40
0.125
  1
800.66.TAGUE
  0
ENDBLK
  5
2DCDB
  8
0
  0
BLOCK
  8
0
  2
*U236
 70
     1
 10
0.0
 20
0.0
 30
0.0
  3
*U236
  1

  0
TEXT
  5
2DCDD
  8
0
 10
1.503489615688391
 20
2.5863204410039771
 30
0.0
 40
0.125
  1
Base Board
  0
TEXT
  5
2DCDE
  8
0
 10
1.5121867507497819
 20
2.377475511490561
 30
0.0
 40
0.125
  1
TL-2165
  0
TEXT
  5
2DCDF
  8
0
 10
1.5080087152791131
 20
2.1670105274068869
 30
0.0
 40
0.125
  1
7/8" x 6"
  0
TEXT
  5
2DCE0
  8
0
 10
1.509202439699304
 20
1.9565455433232131
 30
0.0
 40
0.125
  1
800.66.TAGUE
  0
ENDBLK
  5
2DCE2
  8
0
  0
BLOCK
  8
0
  2
*U237
 70
     1
 10
0.0
 20
0.0
 30
0.0
  3
*U237
  1

  0
TEXT
  5
2DCE4
  8
0
 10
1.5064754642446401
 20
2.3208047060226131
 30
0.0
 40
0.125
  1
Base Board
  0
TEXT
  5
2DCE5
  8
0
 10
1.5151725993060321
 20
2.111959776509198
 30
0.0
 40
0.125
  1
TL-2189
  0
TEXT
  5
2DCE6
  8
0
 10
1.511932490165514
 20
1.901494792425523
 30
0.0
 40
0.125
  1
3/4" x 4-7/8"
  0
TEXT
  5
2DCE7
  8
0
 10
1.512188288255554
 20
1.6910298083418489
 30
0.0
 40
0.125
  1
800.66.TAGUE
  0
ENDBLK
  5
2DCE9
  8
0
  0
BLOCK
  8
0
  2
*U238
 70
     1
 10
0.0
 20
0.0
 30
0.0
  3
*U238
  1

  0
TEXT
  5
2DCEB
  8
0
 10
1.548400335642536
 20
1.277467791325875
 30
0.0
 40
0.125
  1
Base Board
  0
TEXT
  5
2DCEC
  8
0
 10
1.557097470703928
 20
1.06862286181246
 30
0.0
 40
0.125
  1
TL-550
  0
TEXT
  5
2DCED
  8
0
 10
1.553857361563409
 20
0.858157877728786
 30
0.0
 40
0.125
  1
3/4" x 2-3/16"
  0
TEXT
  5
2DCEE
  8
0
 10
1.5541131596534501
 20
0.6476928936451117
 30
0.0
 40
0.125
  1
800.66.TAGUE
  0
ENDBLK
  5
2DCF0
  8
0
  0
BLOCK
  8
0
  2
*U239
 70
     1
 10
0.0
 20
0.0
 30
0.0
  3
*U239
  1

  0
TEXT
  5
2DCF2
  8
0
 10
1.288066291210707
 20
2.8139586047301459
 30
0.0
 40
0.125
  1
Base Board
  0
TEXT
  5
2DCF3
  8
0
 10
1.2967634262720991
 20
2.6051136752167312
 30
0.0
 40
0.125
  1
TL-551
  0
TEXT
  5
2DCF4
  8
0
 10
1.2935233171315801
 20
2.3946486911330558
 30
0.0
 40
0.125
  1
3/4" x 5-1/2"
  0
TEXT
  5
2DCF5
  8
0
 10
1.2937791152216209
 20
2.1841837070493821
 30
0.0
 40
0.125
  1
800.66.TAGUE
  0
ENDBLK
  5
2DCF7
  8
0
  0
BLOCK
  8
0
  2
*U240
 70
     1
 10
0.0
 20
0.0
 30
0.0
  3
*U240
  1

  0
TEXT
  5
2DCF9
  8
0
 10
1.8159948421621079
 20
3.2870887232147652
 30
0.0
 40
0.125
  1
Base Board
  0
TEXT
  5
2DCFA
  8
0
 10
1.8246919772235
 20
3.07824379370135
 30
0.0
 40
0.125
  1
TL-2231
  0
TEXT
  5
2DCFB
  8
0
 10
1.8205139417528311
 20
2.8677788096176751
 30
0.0
 40
0.125
  1
7/8" x 6-3/8"
  0
TEXT
  5
2DCFC
  8
0
 10
1.821707666173022
 20
2.657313825534001
 30
0.0
 40
0.125
  1
800.66.TAGUE
  0
ENDBLK
  5
2DCFE
  8
0
  0
BLOCK
  8
0
  2
*U241
 70
     1
 10
0.0
 20
0.0
 30
0.0
  3
*U241
  1

  0
TEXT
  5
2DD00
  8
0
 10
1.78408614611963
 20
2.2765211976219462
 30
0.0
 40
0.125
  1
Base Board
  0
TEXT
  5
2DD01
  8
0
 10
1.7927832811810209
 20
2.067676268108531
 30
0.0
 40
0.125
  1
TL-2266
  0
TEXT
  5
2DD02
  8
0
 10
1.7895431720405031
 20
1.857211284024856
 30
0.0
 40
0.125
  1
3/4" x 5-1/2"
  0
TEXT
  5
2DD03
  8
0
 10
1.7897989701305439
 20
1.6467462999411819
 30
0.0
 40
0.125
  1
800.66.TAGUE
  0
ENDBLK
  5
2DD05
  8
0
  0
BLOCK
  8
0
  2
*U242
 70
     1
 10
0.0
 20
0.0
 30
0.0
  3
*U242
  1

  0
TEXT
  5
2DD07
  8
0
 10
1.6156709723986571
 20
2.0615835911685281
 30
0.0
 40
0.125
  1
Base Board
  0
TEXT
  5
2DD08
  8
0
 10
1.624368107460048
 20
1.8527386616551129
 30
0.0
 40
0.125
  1
TL-2284
  0
TEXT
  5
2DD09
  8
0
 10
1.623327861893882
 20
1.6799953692494729
 30
0.0
 40
0.0875
  1
3
  0
LINE
  5
2DD0A
  8
0
 10
1.6501550442224879
 20
1.6083195653741871
 30
0.0
 11
1.750530920583921
 21
1.7516711731247601
 31
0.0
  0
TEXT
  5
2DD0B
  8
0
 10
1.713374473990289
 20
1.5633287025828071
 30
0.0
 40
0.0875
  1
4
  0
TEXT
  5
2DD0C
  8
0
 10
1.7812973934991569
 20
1.592495369249473
 30
0.0
 40
0.125
  1
" x 4"
  0
TEXT
  5
2DD0D
  8
0
 10
1.621383796409571
 20
1.4236970518324661
 30
0.0
 40
0.125
  1
800.66.TAGUE
  0
ENDBLK
  5
2DD0F
  8
0
  0
BLOCK
  8
0
  2
*U243
 70
     1
 10
0.0
 20
0.0
 30
0.0
  3
*U243
  1

  0
TEXT
  5
2DD11
  8
0
 10
1.985809015314014
 20
3.2420859682381429
 30
0.0
 40
0.125
  1
Base Board
  0
TEXT
  5
2DD12
  8
0
 10
1.9945061503754049
 20
3.0332410387247282
 30
0.0
 40
0.125
  1
TL-2312
  0
TEXT
  5
2DD13
  8
0
 10
1.991266041234887
 20
2.8227760546410532
 30
0.0
 40
0.125
  1
3/4" x 5-1/2"
  0
TEXT
  5
2DD14
  8
0
 10
1.9915218393249281
 20
2.6123110705573791
 30
0.0
 40
0.125
  1
800.66.TAGUE
  0
ENDBLK
  5
2DD16
  8
0
  0
BLOCK
  8
0
  2
*U244
 70
     1
 10
0.0
 20
0.0
 30
0.0
  3
*U244
  1

  0
TEXT
  5
2DD18
  8
0
 10
1.5904625436382209
 20
1.187343171125592
 30
0.0
 40
0.125
  1
Base Cap
  0
TEXT
  5
2DD19
  8
0
 10
1.5991596786996121
 20
0.9784982416121771
 30
0.0
 40
0.125
  1
TL-19
  0
TEXT
  5
2DD1A
  8
0
 10
1.595919569559094
 20
0.7680332575285026
 30
0.0
 40
0.125
  1
3/4" x 1-11/16"
  0
TEXT
  5
2DD1B
  8
0
 10
1.5961753676491339
 20
0.5575682734448283
 30
0.0
 40
0.125
  1
800.66.TAGUE
  0
ENDBLK
  5
2DD1D
  8
0
  0
BLOCK
  8
0
  2
*U245
 70
     1
 10
0.0
 20
0.0
 30
0.0
  3
*U245
  1

  0
TEXT
  5
2DD1F
  8
0
 10
1.4253430714126509
 20
0.9125752017053105
 30
0.0
 40
0.125
  1
Base Cap
  0
TEXT
  5
2DD20
  8
0
 10
1.4340402064740421
 20
0.7037302721918956
 30
0.0
 40
0.125
  1
TL-163
  0
TEXT
  5
2DD21
  8
0
 10
1.4191186512216549
 20
0.493265288108221
 30
0.0
 40
0.125
  1
11/16" x 1-3/8"
  0
TEXT
  5
2DD22
  8
0
 10
1.431055895423565
 20
0.2828003040245466
 30
0.0
 40
0.125
  1
800.66.TAGUE
  0
ENDBLK
  5
2DD24
  8
0
  0
BLOCK
  8
0
  2
*U246
 70
     1
 10
0.0
 20
0.0
 30
0.0
  3
*U246
  1

  0
TEXT
  5
2DD26
  8
0
 10
1.7853447687182711
 20
1.162173847628553
 30
0.0
 40
0.125
  1
Base Cap
  0
TEXT
  5
2DD27
  8
0
 10
1.794041903779662
 20
0.9533289181151381
 30
0.0
 40
0.125
  1
TL-215
  0
TEXT
  5
2DD28
  8
0
 10
1.789863868308994
 20
0.7428639340314637
 30
0.0
 40
0.125
  1
7/8" x 1-15/16"
  0
TEXT
  5
2DD29
  8
0
 10
1.791057592729185
 20
0.5323989499477893
 30
0.0
 40
0.125
  1
800.66.TAGUE
  0
ENDBLK
  5
2DD2B
  8
0
  0
BLOCK
  8
0
  2
*U247
 70
     1
 10
0.0
 20
0.0
 30
0.0
  3
*U247
  1

  0
TEXT
  5
2DD2D
  8
0
 10
1.5358763075020461
 20
8.1022165940801347
 30
0.0
 40
0.125
  1
Base Cap
  0
TEXT
  5
2DD2E
  8
0
 10
1.5445734425634381
 20
7.89337166456672
 30
0.0
 40
0.125
  1
TL-230
  0
TEXT
  5
2DD2F
  8
0
 10
1.540395407092769
 20
7.682906680483045
 30
0.0
 40
0.125
  1
7/8" x 1-15/16"
  0
TEXT
  5
2DD30
  8
0
 10
1.54158913151296
 20
7.4724416963993701
 30
0.0
 40
0.125
  1
800.66.TAGUE
  0
ENDBLK
  5
2DD32
  8
0
  0
BLOCK
  8
0
  2
*U248
 70
     1
 10
0.0
 20
0.0
 30
0.0
  3
*U248
  1

  0
TEXT
  5
2DD34
  8
0
 10
1.6109911707451761
 20
1.18025645756599
 30
0.0
 40
0.125
  1
Base Cap
  0
TEXT
  5
2DD35
  8
0
 10
1.619688305806567
 20
0.9714115280525753
 30
0.0
 40
0.125
  1
TL-406
  0
TEXT
  5
2DD36
  8
0
 10
1.615510270335899
 20
0.7609465439689008
 30
0.0
 40
0.125
  1
7/8" x 1-11/16"
  0
TEXT
  5
2DD37
  8
0
 10
1.6167039947560899
 20
0.5504815598852265
 30
0.0
 40
0.125
  1
800.66.TAGUE
  0
ENDBLK
  5
2DD39
  8
0
  0
BLOCK
  8
0
  2
*U249
 70
     1
 10
0.0
 20
0.0
 30
0.0
  3
*U249
  1

  0
TEXT
  5
2DD3B
  8
0
 10
1.322001327344235
 20
1.081186133431872
 30
0.0
 40
0.125
  1
Base Cap
  0
TEXT
  5
2DD3C
  8
0
 10
1.3306984624056259
 20
0.8723412039184573
 30
0.0
 40
0.125
  1
TL-314
  0
TEXT
  5
2DD3D
  8
0
 10
1.3274583532651081
 20
0.661876219834783
 30
0.0
 40
0.125
  1
3/4" x 1-3/8"
  0
TEXT
  5
2DD3E
  8
0
 10
1.3277141513551489
 20
0.4514112357511085
 30
0.0
 40
0.125
  1
800.66.TAGUE
  0
ENDBLK
  5
2DD40
  8
0
  0
BLOCK
  8
0
  2
*U250
 70
     1
 10
0.0
 20
0.0
 30
0.0
  3
*U250
  1

  0
TEXT
  5
2DD42
  8
0
 10
1.545356558052088
 20
0.8011638535049475
 30
0.0
 40
0.125
  1
Base Cap
  0
TEXT
  5
2DD43
  8
0
 10
1.554053693113479
 20
0.5923189239915323
 30
0.0
 40
0.125
  1
TL-2021
  0
TEXT
  5
2DD44
  8
0
 10
1.5498756576428101
 20
0.3818539399078579
 30
0.0
 40
0.125
  1
7/8" x 1"
  0
TEXT
  5
2DD45
  8
0
 10
1.551069382063001
 20
0.1713889558241834
 30
0.0
 40
0.125
  1
800.66.TAGUE
  0
ENDBLK
  5
2DD47
  8
0
  0
BLOCK
  8
0
  2
*U251
 70
     1
 10
0.0
 20
0.0
 30
0.0
  3
*U251
  1

  0
TEXT
  5
2DD49
  8
0
 10
1.849024073205253
 20
1.552839362160755
 30
0.0
 40
0.125
  1
Base Cap
  0
TEXT
  5
2DD4A
  8
0
 10
1.8577212082666441
 20
1.3439944326473401
 30
0.0
 40
0.125
  1
TL-2025
  0
TEXT
  5
2DD4B
  8
0
 10
1.842799653014257
 20
1.1335294485636651
 30
0.0
 40
0.125
  1
1-1/4" x 2"
  0
TEXT
  5
2DD4C
  8
0
 10
1.8547368972161671
 20
0.9230644644799912
 30
0.0
 40
0.125
  1
800.66.TAGUE
  0
ENDBLK
  5
2DD4E
  8
0
  0
BLOCK
  8
0
  2
*U252
 70
     1
 10
0.0
 20
0.0
 30
0.0
  3
*U252
  1

  0
TEXT
  5
2DD50
  8
0
 10
1.3718096514217379
 20
1.0633370050964159
 30
0.0
 40
0.125
  1
Base Cap
  0
TEXT
  5
2DD51
  8
0
 10
1.3805067864831291
 20
0.8544920755830013
 30
0.0
 40
0.125
  1
TL-2085
  0
TEXT
  5
2DD52
  8
0
 10
1.377266677342611
 20
0.6440270914993268
 30
0.0
 40
0.125
  1
3/4" x 1-5/16"
  0
TEXT
  5
2DD53
  8
0
 10
1.377522475432652
 20
0.4335621074156525
 30
0.0
 40
0.125
  1
800.66.TAGUE
  0
ENDBLK
  5
2DD55
  8
0
  0
BLOCK
  8
0
  2
*U253
 70
     1
 10
0.0
 20
0.0
 30
0.0
  3
*U253
  1

  0
TEXT
  5
2DD57
  8
0
 10
1.464885786847087
 20
0.8118267597790396
 30
0.0
 40
0.125
  1
Base Cap
  0
TEXT
  5
2DD58
  8
0
 10
1.4735829219084791
 20
0.6029818302656245
 30
0.0
 40
0.125
  1
TL-2147
  0
TEXT
  5
2DD59
  8
0
 10
1.4703428127679601
 20
0.39251684618195
 30
0.0
 40
0.125
  1
3/4" x 1-1/4"
  0
TEXT
  5
2DD5A
  8
0
 10
1.4705986108580009
 20
0.1820518620982756
 30
0.0
 40
0.125
  1
800.66.TAGUE
  0
ENDBLK
  5
2DD5C
  8
0
  0
BLOCK
  8
0
  2
*U254
 70
     1
 10
0.0
 20
0.0
 30
0.0
  3
*U254
  1

  0
TEXT
  5
2DD5E
  8
0
 10
1.771984131257607
 20
0.8092216071741109
 30
0.0
 40
0.125
  1
Base Cap
  0
TEXT
  5
2DD5F
  8
0
 10
1.7806812663189979
 20
0.6003766776606958
 30
0.0
 40
0.125
  1
TL-2086
  0
TEXT
  5
2DD60
  8
0
 10
1.7774411571784801
 20
0.3899116935770214
 30
0.0
 40
0.125
  1
3/4" x 1-1/4"
  0
TEXT
  5
2DD61
  8
0
 10
1.7776969552685209
 20
0.179446709493347
 30
0.0
 40
0.125
  1
800.66.TAGUE
  0
ENDBLK
  5
2DD63
  8
0
  0
BLOCK
  8
0
  2
*U255
 70
     1
 10
0.0
 20
0.0
 30
0.0
  3
*U255
  1

  0
TEXT
  5
2DD65
  8
0
 10
1.5885997392245299
 20
0.7688960449700222
 30
0.0
 40
0.125
  1
Base Cap
  0
TEXT
  5
2DD66
  8
0
 10
1.5972968742859219
 20
0.5600511154566071
 30
0.0
 40
0.125
  1
TL-2140
  0
TEXT
  5
2DD67
  8
0
 10
1.5941420311754171
 20
0.3495861313729326
 30
0.0
 40
0.125
  1
5/8" x 1-1/8"
  0
TEXT
  5
2DD68
  8
0
 10
1.594312563235444
 20
0.1391211472892582
 30
0.0
 40
0.125
  1
800.66.TAGUE
  0
ENDBLK
  5
2DD6A
  8
0
  0
BLOCK
  8
0
  2
*U256
 70
     1
 10
0.0
 20
0.0
 30
0.0
  3
*U256
  1

  0
TEXT
  5
2DD6C
  8
0
 10
1.599800712551807
 20
0.7455601950585038
 30
0.0
 40
0.125
  1
Base Cap
  0
TEXT
  5
2DD6D
  8
0
 10
1.608497847613199
 20
0.5367152655450888
 30
0.0
 40
0.125
  1
TL-2177
  0
TEXT
  5
2DD6E
  8
0
 10
1.593576292360811
 20
0.3262502814614142
 30
0.0
 40
0.125
  1
11/16" x 13/16"
  0
TEXT
  5
2DD6F
  8
0
 10
1.6055135365627211
 20
0.1157852973777398
 30
0.0
 40
0.125
  1
800.66.TAGUE
  0
ENDBLK
  5
2DD71
  8
0
  0
BLOCK
  8
0
  2
*U257
 70
     1
 10
0.0
 20
0.0
 30
0.0
  3
*U257
  1

  0
TEXT
  5
2DD73
  8
0
 10
1.409121497152835
 20
1.100665305216368
 30
0.0
 40
0.125
  1
Base Cap
  0
TEXT
  5
2DD74
  8
0
 10
1.4178186322142261
 20
0.8918203757029537
 30
0.0
 40
0.125
  1
TL-2223
  0
TEXT
  5
2DD75
  8
0
 10
1.4167954398540621
 20
0.6813553916192793
 30
0.0
 40
0.125
  1
23/32" x 1-21/32"
  0
TEXT
  5
2DD76
  8
0
 10
1.4148343211637491
 20
0.4708904075356049
 30
0.0
 40
0.125
  1
800.66.TAGUE
  0
ENDBLK
  5
2DD78
  8
0
  0
BLOCK
  8
0
  2
*U258
 70
     1
 10
0.0
 20
0.0
 30
0.0
  3
*U258
  1

  0
TEXT
  5
2DD7A
  8
0
 10
1.5836197280722599
 20
0.9903470469529498
 30
0.0
 40
0.125
  1
Base Cap
  0
TEXT
  5
2DD7B
  8
0
 10
1.5923168631336519
 20
0.7815021174395347
 30
0.0
 40
0.125
  1
TL-2305
  0
TEXT
  5
2DD7C
  8
0
 10
1.5881388276629831
 20
0.5710371333558603
 30
0.0
 40
0.125
  1
7/8" x 1-5/8"
  0
TEXT
  5
2DD7D
  8
0
 10
1.589332552083174
 20
0.3605721492721858
 30
0.0
 40
0.125
  1
800.66.TAGUE
  0
ENDBLK
  5
2DD7F
  8
0
  0
BLOCK
  8
0
  2
*U259
 70
     1
 10
0.0
 20
0.0
 30
0.0
  3
*U259
  1

  0
TEXT
  5
2DD81
  8
0
 10
1.6244313742592269
 20
0.7971099757234175
 30
0.0
 40
0.125
  1
Base Cap
  0
TEXT
  5
2DD82
  8
0
 10
1.633128509320618
 20
0.5882650462100023
 30
0.0
 40
0.125
  1
TL-2316
  0
TEXT
  5
2DD83
  8
0
 10
1.6299736662101141
 20
0.3778000621263279
 30
0.0
 40
0.125
  1
9/16" x 1"
  0
TEXT
  5
2DD84
  8
0
 10
1.630144198270141
 20
0.1673350780426535
 30
0.0
 40
0.125
  1
800.66.TAGUE
  0
ENDBLK
  5
2DD86
  8
0
  0
BLOCK
  8
0
  2
*U260
 70
     1
 10
0.0
 20
0.0
 30
0.0
  3
*U260
  1

  0
TEXT
  5
2DD88
  8
0
 10
2.115043862769066
 20
1.229933704569248
 30
0.0
 40
0.125
  1
Bed Moulding
  0
TEXT
  5
2DD89
  8
0
 10
2.123740997830458
 20
1.0216003712359141
 30
0.0
 40
0.125
  1
TL-5
  0
TEXT
  5
2DD8A
  8
0
 10
2.1088194425780711
 20
0.8111353871522405
 30
0.0
 40
0.125
  1
11/16" x 4-1/4"
  0
TEXT
  5
2DD8B
  8
0
 10
2.1207566867799801
 20
0.6006704030685662
 30
0.0
 40
0.125
  1
800.66.TAGUE
  0
ENDBLK
  5
2DD8D
  8
0
  0
BLOCK
  8
0
  2
*U261
 70
     1
 10
0.0
 20
0.0
 30
0.0
  3
*U261
  1

  0
TEXT
  5
2DD8F
  8
0
 10
1.629515168649714
 20
0.7172567633590461
 30
0.0
 40
0.125
  1
Bed Moulding
  0
TEXT
  5
2DD90
  8
0
 10
1.6382123037111049
 20
0.508411833845631
 30
0.0
 40
0.125
  1
TL-71
  0
TEXT
  5
2DD91
  8
0
 10
1.6350574606006001
 20
0.2979468497619565
 30
0.0
 40
0.125
  1
9/16" x 2-5/8"
  0
TEXT
  5
2DD92
  8
0
 10
1.6352279926606279
 20
0.0874818656782821
 30
0.0
 40
0.125
  1
800.66.TAGUE
  0
ENDBLK
  5
2DD94
  8
0
  0
BLOCK
  8
0
  2
*U262
 70
     1
 10
0.0
 20
0.0
 30
0.0
  3
*U262
  1

  0
TEXT
  5
2DD96
  8
0
 10
7.9006361773201483
 20
3.2038315196236899
 30
0.0
 40
0.125
  1
Bed Moulding
  0
TEXT
  5
2DD97
  8
0
 10
7.9093333123815386
 20
2.9954981862903569
 30
0.0
 40
0.125
  1
TL-75
  0
TEXT
  5
2DD98
  8
0
 10
7.9061784692710351
 20
2.7850332022066828
 30
0.0
 40
0.125
  1
9/16" x 1-5/8"
  0
TEXT
  5
2DD99
  8
0
 10
7.9063490013310611
 20
2.5745682181230078
 30
0.0
 40
0.125
  1
800.66.TAGUE
  0
ENDBLK
  5
2DD9B
  8
0
  0
BLOCK
  8
0
  2
*U263
 70
     1
 10
0.0
 20
0.0
 30
0.0
  3
*U263
  1

  0
TEXT
  5
2DD9D
  8
0
 10
2.2408914082736651
 20
1.3092809657421181
 30
0.0
 40
0.125
  1
Bed Moulding
  0
TEXT
  5
2DD9E
  8
0
 10
2.2495885433350562
 20
1.1004360362287029
 30
0.0
 40
0.125
  1
TL-2029
  0
TEXT
  5
2DD9F
  8
0
 10
2.2346669880826688
 20
0.8899710521450289
 30
0.0
 40
0.125
  1
1-5/16" x 5-1/2"
  0
TEXT
  5
2DDA0
  8
0
 10
2.2466042322845792
 20
0.6795060680613546
 30
0.0
 40
0.125
  1
800.66.TAGUE
  0
ENDBLK
  5
2DDA2
  8
0
  0
BLOCK
  8
0
  2
*U264
 70
     1
 10
0.0
 20
0.0
 30
0.0
  3
*U264
  1

  0
TEXT
  5
2DDA4
  8
0
 10
1.741152150489806
 20
0.8721200061611398
 30
0.0
 40
0.125
  1
Bed Moulding
  0
TEXT
  5
2DDA5
  8
0
 10
1.749849285551198
 20
0.6632750766477247
 30
0.0
 40
0.125
  1
TL-2131
  0
TEXT
  5
2DDA6
  8
0
 10
1.73492773029881
 20
0.4528100925640503
 30
0.0
 40
0.125
  1
11/16" x 1-3/4"
  0
TEXT
  5
2DDA7
  8
0
 10
1.7468649745007201
 20
0.2423451084803758
 30
0.0
 40
0.125
  1
800.66.TAGUE
  0
ENDBLK
  5
2DDA9
  8
0
  0
BLOCK
  8
0
  2
*U265
 70
     1
 10
0.0
 20
0.0
 30
0.0
  3
*U265
  1

  0
TEXT
  5
2DDAB
  8
0
 10
1.736669936528789
 20
1.087407220742322
 30
0.0
 40
0.125
  1
Cabinet Head
  0
TEXT
  5
2DDAC
  8
0
 10
1.7412743021495249
 20
0.8785622912289078
 30
0.0
 40
0.125
  1
TL-39
  0
TEXT
  5
2DDAD
  8
0
 10
1.726352746897138
 20
0.6680973071452333
 30
0.0
 40
0.125
  1
1-1/8" x 2-1/4"
  0
TEXT
  5
2DDAE
  8
0
 10
1.7382899910990479
 20
0.457632323061559
 30
0.0
 40
0.125
  1
800.66.TAGUE
  0
ENDBLK
  5
2DDB0
  8
0
  0
BLOCK
  8
0
  2
*U266
 70
     1
 10
0.0
 20
0.0
 30
0.0
  3
*U266
  1

  0
TEXT
  5
2DDB2
  8
0
 10
1.360420595476431
 20
0.9856411059979723
 30
0.0
 40
0.125
  1
Cabinet Head
  0
TEXT
  5
2DDB3
  8
0
 10
1.3650249610971681
 20
0.7767961764845573
 30
0.0
 40
0.125
  1
TL-210
  0
TEXT
  5
2DDB4
  8
0
 10
1.3501034058447801
 20
0.5663311924008828
 30
0.0
 40
0.125
  1
11/16" x 1-5/8"
  0
TEXT
  5
2DDB5
  8
0
 10
1.3620406500466899
 20
0.3558662083172084
 30
0.0
 40
0.125
  1
800.66.TAGUE
  0
ENDBLK
  5
2DDB7
  8
0
  0
BLOCK
  8
0
  2
*U267
 70
     1
 10
0.0
 20
0.0
 30
0.0
  3
*U267
  1

  0
TEXT
  5
2DDB9
  8
0
 10
1.689513912791232
 20
1.0073053043701219
 30
0.0
 40
0.125
  1
Cap Moulding
  0
TEXT
  5
2DDBA
  8
0
 10
1.6941182784119679
 20
0.7984603748567074
 30
0.0
 40
0.125
  1
TL-290
  0
TEXT
  5
2DDBB
  8
0
 10
1.679196723159581
 20
0.587995390773033
 30
0.0
 40
0.125
  1
11/16" x 1-3/8"
  0
TEXT
  5
2DDBC
  8
0
 10
1.6911339673614909
 20
0.3775304066893585
 30
0.0
 40
0.125
  1
800.66.TAGUE
  0
ENDBLK
  5
2DDBE
  8
0
  0
BLOCK
  8
0
  2
*U268
 70
     1
 10
0.0
 20
0.0
 30
0.0
  3
*U268
  1

  0
TEXT
  5
2DDC0
  8
0
 10
2.5350454110569318
 20
1.19171859651705
 30
0.0
 40
0.125
  1
Cap Moulding
  0
TEXT
  5
2DDC1
  8
0
 10
2.5396497766776691
 20
0.9828736670036357
 30
0.0
 40
0.125
  1
TL-2194
  0
TEXT
  5
2DDC2
  8
0
 10
2.5247282214252809
 20
0.7724086829199611
 30
0.0
 40
0.125
  1
1-5/8" x 2"
  0
TEXT
  5
2DDC3
  8
0
 10
2.5366654656271912
 20
0.5619436988362868
 30
0.0
 40
0.125
  1
800.66.TAGUE
  0
ENDBLK
  5
2DDC5
  8
0
  0
BLOCK
  8
0
  2
*U269
 70
     1
 10
0.0
 20
0.0
 30
0.0
  3
*U269
  1

  0
TEXT
  5
2DDC7
  8
0
 10
1.5935373926513181
 20
2.083424344800862
 30
0.0
 40
0.125
  1
Casing
  0
TEXT
  5
2DDC8
  8
0
 10
1.598141758272055
 20
1.8745794152874471
 30
0.0
 40
0.125
  1
TL-34
  0
TEXT
  5
2DDC9
  8
0
 10
1.5939637228013861
 20
1.6641144312037719
 30
0.0
 40
0.125
  1
7/8" x 3-11/16"
  0
TEXT
  5
2DDCA
  8
0
 10
1.595157447221577
 20
1.453649447120098
 30
0.0
 40
0.125
  1
800.66.TAGUE
  0
ENDBLK
  5
2DDCC
  8
0
  0
BLOCK
  8
0
  2
*U270
 70
     1
 10
0.0
 20
0.0
 30
0.0
  3
*U270
  1

  0
TEXT
  5
2DDCE
  8
0
 10
1.5662690242219
 20
2.1084973644994012
 30
0.0
 40
0.125
  1
Casing
  0
TEXT
  5
2DDCF
  8
0
 10
1.570873389842637
 20
1.899652434985986
 30
0.0
 40
0.125
  1
TL-38
  0
TEXT
  5
2DDD0
  8
0
 10
1.5666953543719679
 20
1.689187450902311
 30
0.0
 40
0.125
  1
7/8" x 3-13/16"
  0
TEXT
  5
2DDD1
  8
0
 10
1.5678890787921591
 20
1.4787224668186369
 30
0.0
 40
0.125
  1
800.66.TAGUE
  0
ENDBLK
  5
2DDD3
  8
0
  0
BLOCK
  8
0
  2
*U271
 70
     1
 10
0.0
 20
0.0
 30
0.0
  3
*U271
  1

  0
TEXT
  5
2DDD5
  8
0
 10
1.444573544634953
 20
1.9934166265428681
 30
0.0
 40
0.125
  1
Casing
  0
TEXT
  5
2DDD6
  8
0
 10
1.4491779102556901
 20
1.784571697029453
 30
0.0
 40
0.125
  1
TL-212
  0
TEXT
  5
2DDD7
  8
0
 10
1.445937801115172
 20
1.5741067129457791
 30
0.0
 40
0.125
  1
3/4" x 3-3/4"
  0
TEXT
  5
2DDD8
  8
0
 10
1.446193599205212
 20
1.3636417288621041
 30
0.0
 40
0.125
  1
800.66.TAGUE
  0
ENDBLK
  5
2DDDA
  8
0
  0
BLOCK
  8
0
  2
*U272
 70
     1
 10
0.0
 20
0.0
 30
0.0
  3
*U272
  1

  0
TEXT
  5
2DDDC
  8
0
 10
1.7897927446773321
 20
1.8760126601283831
 30
0.0
 40
0.125
  1
Casing
  0
TEXT
  5
2DDDD
  8
0
 10
1.7943971102980689
 20
1.6671677306149679
 30
0.0
 40
0.125
  1
TL-310
  0
TEXT
  5
2DDDE
  8
0
 10
1.779475555045682
 20
1.4567027465312929
 30
0.0
 40
0.125
  1
1-1/16" x 3-7/16"
  0
TEXT
  5
2DDDF
  8
0
 10
1.7914127992475919
 20
1.2462377624476191
 30
0.0
 40
0.125
  1
800.66.TAGUE
  0
ENDBLK
  5
2DDE1
  8
0
  0
BLOCK
  8
0
  2
*U273
 70
     1
 10
0.0
 20
0.0
 30
0.0
  3
*U273
  1

  0
TEXT
  5
2DDE3
  8
0
 10
1.6846224502081431
 20
1.926744489349987
 30
0.0
 40
0.125
  1
Casing
  0
TEXT
  5
2DDE4
  8
0
 10
1.689226815828879
 20
1.7178995598365721
 30
0.0
 40
0.125
  1
TL-311
  0
TEXT
  5
2DDE5
  8
0
 10
1.6743052605764921
 20
1.5074345757528971
 30
0.0
 40
0.125
  1
1" x 3-1/2"
  0
TEXT
  5
2DDE6
  8
0
 10
1.686242504778402
 20
1.296969591669223
 30
0.0
 40
0.125
  1
800.66.TAGUE
  0
ENDBLK
  5
2DDE8
  8
0
  0
BLOCK
  8
0
  2
*U274
 70
     1
 10
0.0
 20
0.0
 30
0.0
  3
*U274
  1

  0
TEXT
  5
2DDEA
  8
0
 10
1.520306519003928
 20
2.0258391013684491
 30
0.0
 40
0.125
  1
Casing
  0
TEXT
  5
2DDEB
  8
0
 10
1.5249108846246651
 20
1.816994171855034
 30
0.0
 40
0.125
  1
TL-312
  0
TEXT
  5
2DDEC
  8
0
 10
1.5207328491539971
 20
1.606529187771359
 30
0.0
 40
0.125
  1
7/8" x 3-7/8"
  0
TEXT
  5
2DDED
  8
0
 10
1.5219265735741869
 20
1.3960642036876849
 30
0.0
 40
0.125
  1
800.66.TAGUE
  0
ENDBLK
  5
2DDEF
  8
0
  0
BLOCK
  8
0
  2
*U275
 70
     1
 10
0.0
 20
0.0
 30
0.0
  3
*U275
  1

  0
TEXT
  5
2DDF1
  8
0
 10
1.3328973168081331
 20
2.164714518610837
 30
0.0
 40
0.125
  1
Casing
  0
TEXT
  5
2DDF2
  8
0
 10
1.3375016824288699
 20
1.955869589097422
 30
0.0
 40
0.125
  1
TL-322
  0
TEXT
  5
2DDF3
  8
0
 10
1.334261573288352
 20
1.7454046050137479
 30
0.0
 40
0.125
  1
3/4" x 4"
  0
TEXT
  5
2DDF4
  8
0
 10
1.3345173713783931
 20
1.534939620930073
 30
0.0
 40
0.125
  1
800.66.TAGUE
  0
ENDBLK
  5
2DDF6
  8
0
  0
BLOCK
  8
0
  2
*U276
 70
     1
 10
0.0
 20
0.0
 30
0.0
  3
*U276
  1

  0
TEXT
  5
2DDF8
  8
0
 10
1.752676654927062
 20
1.326106447528802
 30
0.0
 40
0.125
  1
Casing
  0
TEXT
  5
2DDF9
  8
0
 10
1.7572810205477991
 20
1.1172615180153871
 30
0.0
 40
0.125
  1
TL-327
  0
TEXT
  5
2DDFA
  8
0
 10
1.7423594652954111
 20
0.9067965339317131
 30
0.0
 40
0.125
  1
11/16" x 2-1/4"
  0
TEXT
  5
2DDFB
  8
0
 10
1.754296709497321
 20
0.6963315498480388
 30
0.0
 40
0.125
  1
800.66.TAGUE
  0
ENDBLK
  5
2DDFD
  8
0
  0
BLOCK
  8
0
  2
*U277
 70
     1
 10
0.0
 20
0.0
 30
0.0
  3
*U277
  1

  0
TEXT
  5
2DDFF
  8
0
 10
1.353741116408945
 20
1.5097483307285
 30
0.0
 40
0.125
  1
Casing
  0
TEXT
  5
2DE00
  8
0
 10
1.3583454820296821
 20
1.3009034012150851
 30
0.0
 40
0.125
  1
TL-331
  0
TEXT
  5
2DE01
  8
0
 10
1.3434239267772941
 20
1.0904384171314101
 30
0.0
 40
0.125
  1
11/16" x 2-1/2"
  0
TEXT
  5
2DE02
  8
0
 10
1.3553611709792039
 20
0.8799734330477367
 30
0.0
 40
0.125
  1
800.66.TAGUE
  0
ENDBLK
  5
2DE04
  8
0
  0
BLOCK
  8
0
  2
*U278
 70
     1
 10
0.0
 20
0.0
 30
0.0
  3
*U278
  1

  0
TEXT
  5
2DE06
  8
0
 10
1.5202473442910549
 20
2.054431738326131
 30
0.0
 40
0.125
  1
Casing
  0
TEXT
  5
2DE07
  8
0
 10
1.5248517099117911
 20
1.8455868088127161
 30
0.0
 40
0.125
  1
TL-332
  0
TEXT
  5
2DE08
  8
0
 10
1.5099301546594039
 20
1.635121824729042
 30
0.0
 40
0.125
  1
11/16" x 3-1/2"
  0
TEXT
  5
2DE09
  8
0
 10
1.5218673988613141
 20
1.424656840645367
 30
0.0
 40
0.125
  1
800.66.TAGUE
  0
ENDBLK
  5
2DE0B
  8
0
  0
BLOCK
  8
0
  2
*U279
 70
     1
 10
0.0
 20
0.0
 30
0.0
  3
*U279
  1

  0
TEXT
  5
2DE0D
  8
0
 10
1.5320253747036969
 20
1.863596215278805
 30
0.0
 40
0.125
  1
Casing
  0
TEXT
  5
2DE0E
  8
0
 10
1.536629740324434
 20
1.6547512857653901
 30
0.0
 40
0.125
  1
TL-361
  0
TEXT
  5
2DE0F
  8
0
 10
1.5217081850720471
 20
1.444286301681716
 30
0.0
 40
0.125
  1
11/16" x 3-1/2"
  0
TEXT
  5
2DE10
  8
0
 10
1.5336454292739561
 20
1.233821317598041
 30
0.0
 40
0.125
  1
800.66.TAGUE
  0
ENDBLK
  5
2DE12
  8
0
  0
BLOCK
  8
0
  2
*U280
 70
     1
 10
0.0
 20
0.0
 30
0.0
  3
*U280
  1

  0
TEXT
  5
2DE14
  8
0
 10
1.863826117951793
 20
1.4722460830886499
 30
0.0
 40
0.125
  1
Casing
  0
TEXT
  5
2DE15
  8
0
 10
1.8684304835725289
 20
1.263401153575235
 30
0.0
 40
0.125
  1
TL-366
  0
TEXT
  5
2DE16
  8
0
 10
1.853508928320142
 20
1.0529361694915611
 30
0.0
 40
0.125
  1
11/16" x 2-1/4"
  0
TEXT
  5
2DE17
  8
0
 10
1.8654461725220519
 20
0.8424711854078868
 30
0.0
 40
0.125
  1
800.66.TAGUE
  0
ENDBLK
  5
2DE19
  8
0
  0
BLOCK
  8
0
  2
*U281
 70
     1
 10
0.0
 20
0.0
 30
0.0
  3
*U281
  1

  0
TEXT
  5
2DE1B
  8
0
 10
1.5351274959142289
 20
1.561715576145063
 30
0.0
 40
0.125
  1
Casing
  0
TEXT
  5
2DE1C
  8
0
 10
1.5397318615349651
 20
1.352870646631648
 30
0.0
 40
0.125
  1
TL-376
  0
TEXT
  5
2DE1D
  8
0
 10
1.524810306282578
 20
1.142405662547973
 30
0.0
 40
0.125
  1
11/16" x 2-1/4"
  0
TEXT
  5
2DE1E
  8
0
 10
1.5367475504844881
 20
0.9319406784642996
 30
0.0
 40
0.125
  1
800.66.TAGUE
  0
ENDBLK
  5
2DE20
  8
0
  0
BLOCK
  8
0
  2
*U282
 70
     1
 10
0.0
 20
0.0
 30
0.0
  3
*U282
  1

  0
TEXT
  5
2DE22
  8
0
 10
1.521284911425572
 20
1.8194457406072091
 30
0.0
 40
0.125
  1
Casing
  0
TEXT
  5
2DE23
  8
0
 10
1.5258892770463091
 20
1.6106008110937939
 30
0.0
 40
0.125
  1
TL-412
  0
TEXT
  5
2DE24
  8
0
 10
1.510967721793921
 20
1.400135827010119
 30
0.0
 40
0.125
  1
11/16" x 3-1/2"
  0
TEXT
  5
2DE25
  8
0
 10
1.5229049659958309
 20
1.1896708429264451
 30
0.0
 40
0.125
  1
800.66.TAGUE
  0
ENDBLK
  5
2DE27
  8
0
  0
BLOCK
  8
0
  2
*U283
 70
     1
 10
0.0
 20
0.0
 30
0.0
  3
*U283
  1

  0
TEXT
  5
2DE29
  8
0
 10
1.449823263841812
 20
2.0149514255241612
 30
0.0
 40
0.125
  1
Casing
  0
TEXT
  5
2DE2A
  8
0
 10
1.454427629462548
 20
1.8066180921908279
 30
0.0
 40
0.125
  1
TL-445
  0
TEXT
  5
2DE2B
  8
0
 10
1.4395060742101611
 20
1.5961531081071541
 30
0.0
 40
0.125
  1
11/16" x 3-1/4"
  0
TEXT
  5
2DE2C
  8
0
 10
1.451443318412071
 20
1.3856881240234791
 30
0.0
 40
0.125
  1
800.66.TAGUE
  0
ENDBLK
  5
2DE2E
  8
0
  0
BLOCK
  8
0
  2
*U284
 70
     1
 10
0.0
 20
0.0
 30
0.0
  3
*U284
  1

  0
TEXT
  5
2DE30
  8
0
 10
1.715600805711323
 20
1.45748262831252
 30
0.0
 40
0.125
  1
Casing
  0
TEXT
  5
2DE31
  8
0
 10
1.720205171332059
 20
1.248637698799105
 30
0.0
 40
0.125
  1
TL-452
  0
TEXT
  5
2DE32
  8
0
 10
1.705283616079672
 20
1.0381727147154309
 30
0.0
 40
0.125
  1
11/16" x 2-1/2"
  0
TEXT
  5
2DE33
  8
0
 10
1.7172208602815819
 20
0.8277077306317568
 30
0.0
 40
0.125
  1
800.66.TAGUE
  0
ENDBLK
  5
2DE35
  8
0
  0
BLOCK
  8
0
  2
*U285
 70
     1
 10
0.0
 20
0.0
 30
0.0
  3
*U285
  1

  0
TEXT
  5
2DE37
  8
0
 10
1.644662863092297
 20
2.4324649629210331
 30
0.0
 40
0.125
  1
Casing
  0
TEXT
  5
2DE38
  8
0
 10
1.6492672287130341
 20
2.2241316295876992
 30
0.0
 40
0.125
  1
TL-545
  0
TEXT
  5
2DE39
  8
0
 10
1.646027119572516
 20
2.0136666455040251
 30
0.0
 40
0.125
  1
3/4" x 5"
  0
TEXT
  5
2DE3A
  8
0
 10
1.6462829176625571
 20
1.8032016614203501
 30
0.0
 40
0.125
  1
800.66.TAGUE
  0
ENDBLK
  5
2DE3C
  8
0
  0
BLOCK
  8
0
  2
*U286
 70
     1
 10
0.0
 20
0.0
 30
0.0
  3
*U286
  1

  0
TEXT
  5
2DE3E
  8
0
 10
1.6083821826148079
 20
1.7190042649612149
 30
0.0
 40
0.125
  1
Casing
  0
TEXT
  5
2DE3F
  8
0
 10
1.612986548235545
 20
1.5101593354478
 30
0.0
 40
0.125
  1
TL-546
  0
TEXT
  5
2DE40
  8
0
 10
1.6097464390950269
 20
1.299694351364125
 30
0.0
 40
0.125
  1
3/4" x 2-7/8"
  0
TEXT
  5
2DE41
  8
0
 10
1.6100022371850671
 20
1.0892293672804509
 30
0.0
 40
0.125
  1
800.66.TAGUE
  0
ENDBLK
  5
2DE43
  8
0
  0
BLOCK
  8
0
  2
*U287
 70
     1
 10
0.0
 20
0.0
 30
0.0
  3
*U287
  1

  0
TEXT
  5
2DE45
  8
0
 10
1.611826571413677
 20
2.1893163161727371
 30
0.0
 40
0.125
  1
Casing
  0
TEXT
  5
2DE46
  8
0
 10
1.6164309370344141
 20
1.980471386659322
 30
0.0
 40
0.125
  1
TL-548
  0
TEXT
  5
2DE47
  8
0
 10
1.6131908278938949
 20
1.770006402575647
 30
0.0
 40
0.125
  1
3/4" x 3-7/16"
  0
TEXT
  5
2DE48
  8
0
 10
1.613446625983936
 20
1.5595414184919729
 30
0.0
 40
0.125
  1
800.66.TAGUE
  0
ENDBLK
  5
2DE4A
  8
0
  0
BLOCK
  8
0
  2
*U288
 70
     1
 10
0.0
 20
0.0
 30
0.0
  3
*U288
  1

  0
TEXT
  5
2DE4C
  8
0
 10
1.2473910737773839
 20
2.7744627332396181
 30
0.0
 40
0.125
  1
Casing
  0
TEXT
  5
2DE4D
  8
0
 10
1.2519954393981201
 20
2.5656178037262021
 30
0.0
 40
0.125
  1
TL-2018
  0
TEXT
  5
2DE4E
  8
0
 10
1.2370738841457329
 20
2.355152819642528
 30
0.0
 40
0.125
  1
1-1/16" x 4-1/2"
  0
TEXT
  5
2DE4F
  8
0
 10
1.2490111283476431
 20
2.1446878355588539
 30
0.0
 40
0.125
  1
800.66.TAGUE
  0
ENDBLK
  5
2DE51
  8
0
  0
BLOCK
  8
0
  2
*U289
 70
     1
 10
0.0
 20
0.0
 30
0.0
  3
*U289
  1

  0
TEXT
  5
2DE53
  8
0
 10
1.4086740032724709
 20
13.04264108713495
 30
0.0
 40
0.125
  1
Casing
  0
TEXT
  5
2DE54
  8
0
 10
1.4132783688932069
 20
12.83379615762154
 30
0.0
 40
0.125
  1
TL-2019
  0
TEXT
  5
2DE55
  8
0
 10
1.39835681364082
 20
12.62333117353786
 30
0.0
 40
0.125
  1
1-1/16" x 5-1/2"
  0
TEXT
  5
2DE56
  8
0
 10
1.4102940578427301
 20
12.41286618945419
 30
0.0
 40
0.125
  1
800.66.TAGUE
  0
ENDBLK
  5
2DE58
  8
0
  0
BLOCK
  8
0
  2
*U290
 70
     1
 10
0.0
 20
0.0
 30
0.0
  3
*U290
  1

  0
TEXT
  5
2DE5A
  8
0
 10
1.4086740032724709
 20
3.3074481400532401
 30
0.0
 40
0.125
  1
Casing
  0
TEXT
  5
2DE5B
  8
0
 10
1.4132783688932069
 20
3.0986032105398249
 30
0.0
 40
0.125
  1
TL-2019
  0
TEXT
  5
2DE5C
  8
0
 10
1.39835681364082
 20
2.8881382264561508
 30
0.0
 40
0.125
  1
1-1/16" x 5-1/2"
  0
TEXT
  5
2DE5D
  8
0
 10
1.4102940578427301
 20
2.6776732423724772
 30
0.0
 40
0.125
  1
800.66.TAGUE
  0
ENDBLK
  5
2DE5F
  8
0
  0
BLOCK
  8
0
  2
*U291
 70
     1
 10
0.0
 20
0.0
 30
0.0
  3
*U291
  1

  0
TEXT
  5
2DE61
  8
0
 10
1.507291999899484
 20
1.8983804600503771
 30
0.0
 40
0.125
  1
Casing
  0
TEXT
  5
2DE62
  8
0
 10
1.51189636552022
 20
1.6895355305369619
 30
0.0
 40
0.125
  1
TL-B3
  0
TEXT
  5
2DE63
  8
0
 10
1.5086562563797019
 20
1.4790705464532881
 30
0.0
 40
0.125
  1
3/4" x 3-1/2"
  0
TEXT
  5
2DE64
  8
0
 10
1.508912054469743
 20
1.2686055623696131
 30
0.0
 40
0.125
  1
800.66.TAGUE
  0
ENDBLK
  5
2DE66
  8
0
  0
BLOCK
  8
0
  2
*U292
 70
     1
 10
0.0
 20
0.0
 30
0.0
  3
*U292
  1

  0
TEXT
  5
2DE68
  8
0
 10
1.63765621551588
 20
2.2121098391850338
 30
0.0
 40
0.125
  1
Casing
  0
TEXT
  5
2DE69
  8
0
 10
1.642260581136616
 20
2.0032649096716191
 30
0.0
 40
0.125
  1
TL-600
  0
TEXT
  5
2DE6A
  8
0
 10
1.638082545665948
 20
1.7927999255879441
 30
0.0
 40
0.125
  1
7/8" x 3-3/4"
  0
TEXT
  5
2DE6B
  8
0
 10
1.639276270086139
 20
1.58233494150427
 30
0.0
 40
0.125
  1
800.66.TAGUE
  0
ENDBLK
  5
2DE6D
  8
0
  0
BLOCK
  8
0
  2
*U293
 70
     1
 10
0.0
 20
0.0
 30
0.0
  3
*U293
  1

  0
TEXT
  5
2DE6F
  8
0
 10
1.181403088863225
 20
2.596347862400437
 30
0.0
 40
0.125
  1
Casing
  0
TEXT
  5
2DE70
  8
0
 10
1.1860074544839609
 20
2.387502932887021
 30
0.0
 40
0.125
  1
TL-2056
  0
TEXT
  5
2DE71
  8
0
 10
1.171085899231574
 20
2.1770379488033469
 30
0.0
 40
0.125
  1
1" x 4-1/4"
  0
TEXT
  5
2DE72
  8
0
 10
1.1830231434334839
 20
1.966572964719673
 30
0.0
 40
0.125
  1
800.66.TAGUE
  0
ENDBLK
  5
2DE74
  8
0
  0
BLOCK
  8
0
  2
*U294
 70
     1
 10
0.0
 20
0.0
 30
0.0
  3
*U294
  1

  0
TEXT
  5
2DE76
  8
0
 10
1.566807269343802
 20
2.1619067565476531
 30
0.0
 40
0.125
  1
Casing
  0
TEXT
  5
2DE77
  8
0
 10
1.5714116349645391
 20
1.9530618270342379
 30
0.0
 40
0.125
  1
TL-2008
  0
TEXT
  5
2DE78
  8
0
 10
1.56723359949387
 20
1.7425968429505629
 30
0.0
 40
0.125
  1
7/8" x 3-3/4"
  0
TEXT
  5
2DE79
  8
0
 10
1.5684273239140609
 20
1.5321318588668891
 30
0.0
 40
0.125
  1
800.66.TAGUE
  0
ENDBLK
  5
2DE7B
  8
0
  0
BLOCK
  8
0
  2
*U295
 70
     1
 10
0.0
 20
0.0
 30
0.0
  3
*U295
  1

  0
TEXT
  5
2DE7D
  8
0
 10
1.7608832556955789
 20
2.6231890073942319
 30
0.0
 40
0.125
  1
Casing
  0
TEXT
  5
2DE7E
  8
0
 10
1.765487621316316
 20
2.4143440778808172
 30
0.0
 40
0.125
  1
TL-2113
  0
TEXT
  5
2DE7F
  8
0
 10
1.750566066063928
 20
2.2038790937971431
 30
0.0
 40
0.125
  1
1-3/8" x 3-3/4"
  0
TEXT
  5
2DE80
  8
0
 10
1.7625033102658381
 20
1.9934141097134681
 30
0.0
 40
0.125
  1
800.66.TAGUE
  0
ENDBLK
  5
2DE82
  8
0
  0
BLOCK
  8
0
  2
*U296
 70
     1
 10
0.0
 20
0.0
 30
0.0
  3
*U296
  1

  0
TEXT
  5
2DE84
  8
0
 10
1.882662245739515
 20
2.0477187364191578
 30
0.0
 40
0.125
  1
Casing
  0
TEXT
  5
2DE85
  8
0
 10
1.887266611360251
 20
1.8388738069057431
 30
0.0
 40
0.125
  1
TL-2166
  0
TEXT
  5
2DE86
  8
0
 10
1.8723450561078641
 20
1.6284088228220679
 30
0.0
 40
0.125
  1
1-1/8" x 2-3/8"
  0
TEXT
  5
2DE87
  8
0
 10
1.8842823003097739
 20
1.417943838738394
 30
0.0
 40
0.125
  1
800.66.TAGUE
  0
ENDBLK
  5
2DE89
  8
0
  0
BLOCK
  8
0
  2
*U297
 70
     1
 10
0.0
 20
0.0
 30
0.0
  3
*U297
  1

  0
TEXT
  5
2DE8B
  8
0
 10
1.4725338863188191
 20
2.68154143214828
 30
0.0
 40
0.125
  1
Casing
  0
TEXT
  5
2DE8C
  8
0
 10
1.4771382519395551
 20
2.4726965026348648
 30
0.0
 40
0.125
  1
TL-2167
  0
TEXT
  5
2DE8D
  8
0
 10
1.4729602164688871
 20
2.2622315185511912
 30
0.0
 40
0.125
  1
7/8" x 4-3/8"
  0
TEXT
  5
2DE8E
  8
0
 10
1.474153940889078
 20
2.0517665344675171
 30
0.0
 40
0.125
  1
800.66.TAGUE
  0
ENDBLK
  5
2DE90
  8
0
  0
BLOCK
  8
0
  2
*U298
 70
     1
 10
0.0
 20
0.0
 30
0.0
  3
*U298
  1

  0
TEXT
  5
2DE92
  8
0
 10
1.510960258956378
 20
2.1823485407814061
 30
0.0
 40
0.125
  1
Casing
  0
TEXT
  5
2DE93
  8
0
 10
1.5123245154365961
 20
1.971883556697732
 30
0.0
 40
0.125
  1
3/4" x 3-1/2" w/ 1/4" Bead
  0
TEXT
  5
2DE94
  8
0
 10
1.5125803135266369
 20
1.761418572614057
 30
0.0
 40
0.125
  1
800.66.TAGUE
  0
ENDBLK
  5
2DE96
  8
0
  0
BLOCK
  8
0
  2
*U299
 70
     1
 10
0.0
 20
0.0
 30
0.0
  3
*U299
  1

  0
TEXT
  5
2DE98
  8
0
 10
1.8617124589241929
 20
2.809361495964497
 30
0.0
 40
0.125
  1
Casing
  0
TEXT
  5
2DE99
  8
0
 10
1.8663168245449291
 20
2.600516566451081
 30
0.0
 40
0.125
  1
TL-2026
  0
TEXT
  5
2DE9A
  8
0
 10
1.8621387890742609
 20
2.3900515823674069
 30
0.0
 40
0.125
  1
7/8" x 5-1/16"
  0
TEXT
  5
2DE9B
  8
0
 10
1.8633325134944521
 20
2.1795865982837328
 30
0.0
 40
0.125
  1
800.66.TAGUE
  0
ENDBLK
  5
2DE9D
  8
0
  0
BLOCK
  8
0
  2
*U300
 70
     1
 10
0.0
 20
0.0
 30
0.0
  3
*U300
  1

  0
TEXT
  5
2DE9F
  8
0
 10
1.516908149010963
 20
2.1944099456046771
 30
0.0
 40
0.125
  1
Casing
  0
TEXT
  5
2DEA0
  8
0
 10
1.5215125146316999
 20
1.9855650160912619
 30
0.0
 40
0.125
  1
TL-2106
  0
TEXT
  5
2DEA1
  8
0
 10
1.506590959379313
 20
1.7751000320075869
 30
0.0
 40
0.125
  1
15/16" x 3-1/2"
  0
TEXT
  5
2DEA2
  8
0
 10
1.5185282035812231
 20
1.5646350479239131
 30
0.0
 40
0.125
  1
800.66.TAGUE
  0
ENDBLK
  5
2DEA4
  8
0
  0
BLOCK
  8
0
  2
*U301
 70
     1
 10
0.0
 20
0.0
 30
0.0
  3
*U301
  1

  0
TEXT
  5
2DEA6
  8
0
 10
1.9420920778562489
 20
2.6286745445871862
 30
0.0
 40
0.125
  1
Casing
  0
TEXT
  5
2DEA7
  8
0
 10
1.946696443476986
 20
2.419829615073771
 30
0.0
 40
0.125
  1
TL-2107
  0
TEXT
  5
2DEA8
  8
0
 10
1.931774888224598
 20
2.2093646309900961
 30
0.0
 40
0.125
  1
1-1/8" x 3-7/8"
  0
TEXT
  5
2DEA9
  8
0
 10
1.9437121324265081
 20
1.998899646906422
 30
0.0
 40
0.125
  1
800.66.TAGUE
  0
ENDBLK
  5
2DEAB
  8
0
  0
BLOCK
  8
0
  2
*U302
 70
     1
 10
0.0
 20
0.0
 30
0.0
  3
*U302
  1

  0
TEXT
  5
2DEAD
  8
0
 10
2.1221156602351572
 20
2.1104209249928241
 30
0.0
 40
0.125
  1
Casing
  0
TEXT
  5
2DEAE
  8
0
 10
2.126720025855894
 20
1.9015759954794089
 30
0.0
 40
0.125
  1
TL-2109
  0
TEXT
  5
2DEAF
  8
0
 10
2.1117984706035071
 20
1.6911110113957351
 30
0.0
 40
0.125
  1
1-7/16" x 4-1/4"
  0
TEXT
  5
2DEB0
  8
0
 10
2.123735714805417
 20
1.480646027312061
 30
0.0
 40
0.125
  1
800.66.TAGUE
  0
ENDBLK
  5
2DEB2
  8
0
  0
BLOCK
  8
0
  2
*U303
 70
     1
 10
0.0
 20
0.0
 30
0.0
  3
*U303
  1

  0
TEXT
  5
2DEB4
  8
0
 10
1.9395148625860421
 20
3.2332732845096799
 30
0.0
 40
0.125
  1
Casing
  0
TEXT
  5
2DEB5
  8
0
 10
1.9484677957374741
 20
3.0244283549962652
 30
0.0
 40
0.125
  1
AB-137
  0
TEXT
  5
2DEB6
  8
0
 10
1.9291976729543909
 20
2.8139633709125902
 30
0.0
 40
0.125
  1
1-9/16" x 5-1/2"
  0
TEXT
  5
2DEB7
  8
0
 10
1.941134917156301
 20
2.6034983868289161
 30
0.0
 40
0.125
  1
800.66.TAGUE
  0
ENDBLK
  5
2DEB9
  8
0
  0
BLOCK
  8
0
  2
*U304
 70
     1
 10
0.0
 20
0.0
 30
0.0
  3
*U304
  1

  0
TEXT
  5
2DEBB
  8
0
 10
1.8469634001896551
 20
1.8146748757402671
 30
0.0
 40
0.125
  1
Casing
  0
TEXT
  5
2DEBC
  8
0
 10
1.851567765810392
 20
1.6058299462268519
 30
0.0
 40
0.125
  1
TL-2151
  0
TEXT
  5
2DEBD
  8
0
 10
1.847389730339724
 20
1.3953649621431781
 30
0.0
 40
0.125
  1
7/8" x 2-15/16"
  0
TEXT
  5
2DEBE
  8
0
 10
1.848583454759914
 20
1.1848999780595031
 30
0.0
 40
0.125
  1
800.66.TAGUE
  0
ENDBLK
  5
2DEC0
  8
0
  0
BLOCK
  8
0
  2
*U305
 70
     1
 10
0.0
 20
0.0
 30
0.0
  3
*U305
  1

  0
TEXT
  5
2DEC2
  8
0
 10
1.2155109582168719
 20
2.3777075454089678
 30
0.0
 40
0.125
  1
Casing
  0
TEXT
  5
2DEC3
  8
0
 10
1.220115323837609
 20
2.1688626158955531
 30
0.0
 40
0.125
  1
TL-2146
  0
TEXT
  5
2DEC4
  8
0
 10
1.205193768585221
 20
1.9583976318118781
 30
0.0
 40
0.125
  1
15/16" x 3-3/4"
  0
TEXT
  5
2DEC5
  8
0
 10
1.2171310127871311
 20
1.747932647728204
 30
0.0
 40
0.125
  1
800.66.TAGUE
  0
ENDBLK
  5
2DEC7
  8
0
  0
BLOCK
  8
0
  2
*U306
 70
     1
 10
0.0
 20
0.0
 30
0.0
  3
*U306
  1

  0
TEXT
  5
2DEC9
  8
0
 10
1.0490029597574211
 20
2.6121442491900249
 30
0.0
 40
0.125
  1
Casing
  0
TEXT
  5
2DECA
  8
0
 10
1.053607325378157
 20
2.4032993196766101
 30
0.0
 40
0.125
  1
TL-2160
  0
TEXT
  5
2DECB
  8
0
 10
1.0386857701257699
 20
2.1928343355929361
 30
0.0
 40
0.125
  1
13/16" x 3-3/4"
  0
TEXT
  5
2DECC
  8
0
 10
1.05062301432768
 20
1.9823693515092611
 30
0.0
 40
0.125
  1
800.66.TAGUE
  0
ENDBLK
  5
2DECE
  8
0
  0
BLOCK
  8
0
  2
*U307
 70
     1
 10
0.0
 20
0.0
 30
0.0
  3
*U307
  1

  0
TEXT
  5
2DED0
  8
0
 10
1.424758348422277
 20
2.0506624914647928
 30
0.0
 40
0.125
  1
Casing
  0
TEXT
  5
2DED1
  8
0
 10
1.4293627140430141
 20
1.8418175619513779
 30
0.0
 40
0.125
  1
TL-2164
  0
TEXT
  5
2DED2
  8
0
 10
1.426122604902496
 20
1.6313525778677029
 30
0.0
 40
0.125
  1
3/4" x 3-1/2"
  0
TEXT
  5
2DED3
  8
0
 10
1.4263784029925359
 20
1.4208875937840291
 30
0.0
 40
0.125
  1
800.66.TAGUE
  0
ENDBLK
  5
2DED5
  8
0
  0
BLOCK
  8
0
  2
*U308
 70
     1
 10
0.0
 20
0.0
 30
0.0
  3
*U308
  1

  0
TEXT
  5
2DED7
  8
0
 10
2.7314568973245961
 20
2.1677132042112972
 30
0.0
 40
0.125
  1
Casing
  0
TEXT
  5
2DED8
  8
0
 10
2.736061262945332
 20
1.9572482201276229
 30
0.0
 40
0.125
  1
TL-2161 / Tl-2162
  0
TEXT
  5
2DED9
  8
0
 10
2.7211397076929451
 20
1.746783236043949
 30
0.0
 40
0.125
  1
1-9/32" x 3-13/16"
  0
TEXT
  5
2DEDA
  8
0
 10
2.733076951894855
 20
1.5363182519602741
 30
0.0
 40
0.125
  1
800.66.TAGUE
  0
ENDBLK
  5
2DEDC
  8
0
  0
BLOCK
  8
0
  2
*U309
 70
     1
 10
0.0
 20
0.0
 30
0.0
  3
*U309
  1

  0
TEXT
  5
2DEE2
  8
0
 10
1.7775671720797901
 20
1.1296199632941111
 30
0.0
 40
0.125
  1
TL-2162
  0
TEXT
  5
2DEE3
  8
0
 10
1.7626456168274021
 20
0.9191549792104375
 30
0.0
 40
0.125
  1
1-7/32" x 1-9/32"
  0
ENDBLK
  5
2DEE5
  8
0
  0
BLOCK
  8
0
  2
*U310
 70
     1
 10
0.0
 20
0.0
 30
0.0
  3
*U310
  1

  0
TEXT
  5
2DEE7
  8
0
 10
1.1624621155843951
 20
2.649270246500588
 30
0.0
 40
0.125
  1
TL-2161
  0
TEXT
  5
2DEE8
  8
0
 10
1.147540560332007
 20
2.4396152897020431
 30
0.0
 40
0.125
  1
19/32" x 2-13/32"
  0
ENDBLK
  5
2DEEA
  8
0
  0
BLOCK
  8
0
  2
*U311
 70
     1
 10
0.0
 20
0.0
 30
0.0
  3
*U311
  1

  0
INSERT
  5
2DEEC
  8
0
  2
_OPEN30
 10
0.5956433484502101
 20
2.1596052674265129
 30
0.0
 41
0.046875
 42
0.046875
 43
0.046875
 50
233.0048332483891
  0
POLYLINE
  5
2DEED
  8
0
 66
     1
 10
0.0
 20
0.0
 30
0.0
  0
VERTEX
  5
2DEEE
  8
0
 10
0.6238502696018772
 20
2.197043686518986
 30
0.0
  0
VERTEX
  5
2DEEF
  8
0
 10
1.011849205474334
 20
2.7120260445906288
 30
0.0
  0
VERTEX
  5
2DEF0
  8
0
 10
1.10405488502505
 20
2.7120260445906288
 30
0.0
  0
SEQEND
  5
2DEF1
  8
0
  0
ENDBLK
  5
2DEF3
  8
0
  0
BLOCK
  8
0
  2
*U312
 70
     1
 10
0.0
 20
0.0
 30
0.0
  3
*U312
  1

  0
TEXT
  5
2DEF5
  8
0
 10
1.105181323344913
 20
2.0947880342686331
 30
0.0
 40
0.125
  1
Casing
  0
TEXT
  5
2DEF6
  8
0
 10
1.109785688965649
 20
1.885943104755218
 30
0.0
 40
0.125
  1
TL-2168
  0
TEXT
  5
2DEF7
  8
0
 10
1.105607653494981
 20
1.675478120671543
 30
0.0
 40
0.125
  1
7/8" x 2-3/4"
  0
TEXT
  5
2DEF8
  8
0
 10
1.106801377915172
 20
1.4650131365878689
 30
0.0
 40
0.125
  1
800.66.TAGUE
  0
ENDBLK
  5
2DEFA
  8
0
  0
BLOCK
  8
0
  2
*U313
 70
     1
 10
0.0
 20
0.0
 30
0.0
  3
*U313
  1

  0
TEXT
  5
2DEFC
  8
0
 10
1.384055801306862
 20
2.1394862186629249
 30
0.0
 40
0.125
  1
Casing
  0
TEXT
  5
2DEFD
  8
0
 10
1.388660166927598
 20
1.9306412891495099
 30
0.0
 40
0.125
  1
TL-2180
  0
TEXT
  5
2DEFE
  8
0
 10
1.3854200577870801
 20
1.7201763050658361
 30
0.0
 40
0.125
  1
3/4" x 3-1/2"
  0
TEXT
  5
2DEFF
  8
0
 10
1.3856758558771209
 20
1.5097113209821611
 30
0.0
 40
0.125
  1
800.66.TAGUE
  0
ENDBLK
  5
2DF01
  8
0
  0
BLOCK
  8
0
  2
*U314
 70
     1
 10
0.0
 20
0.0
 30
0.0
  3
*U314
  1

  0
TEXT
  5
2DF03
  8
0
 10
1.3886551090457471
 20
1.9241695677066151
 30
0.0
 40
0.125
  1
Casing
  0
TEXT
  5
2DF04
  8
0
 10
1.3932594746664839
 20
1.715324638193199
 30
0.0
 40
0.125
  1
TL-2192
  0
TEXT
  5
2DF05
  8
0
 10
1.378337919414097
 20
1.5048596541095249
 30
0.0
 40
0.125
  1
11/16" x 3"
  0
TEXT
  5
2DF06
  8
0
 10
1.3902751636160069
 20
1.2943946700258511
 30
0.0
 40
0.125
  1
800.66.TAGUE
  0
ENDBLK
  5
2DF08
  8
0
  0
BLOCK
  8
0
  2
*U315
 70
     1
 10
0.0
 20
0.0
 30
0.0
  3
*U315
  1

  0
TEXT
  5
2DF0A
  8
0
 10
1.735844248321631
 20
1.632650773737752
 30
0.0
 40
0.125
  1
Casing
  0
TEXT
  5
2DF0B
  8
0
 10
1.7404486139423681
 20
1.4238058442243371
 30
0.0
 40
0.125
  1
TL-2216
  0
TEXT
  5
2DF0C
  8
0
 10
1.72552705868998
 20
1.213340860140663
 30
0.0
 40
0.125
  1
1-5/16" x 2-7/8"
  0
TEXT
  5
2DF0D
  8
0
 10
1.7374643028918899
 20
1.002875876056988
 30
0.0
 40
0.125
  1
800.66.TAGUE
  0
ENDBLK
  5
2DF0F
  8
0
  0
BLOCK
  8
0
  2
*U316
 70
     1
 10
0.0
 20
0.0
 30
0.0
  3
*U316
  1

  0
TEXT
  5
2DF11
  8
0
 10
1.8313353790551661
 20
2.283538324422822
 30
0.0
 40
0.125
  1
Casing
  0
TEXT
  5
2DF12
  8
0
 10
1.8359397446759029
 20
2.0746933949094069
 30
0.0
 40
0.125
  1
TL-2217
  0
TEXT
  5
2DF13
  8
0
 10
1.8210181894235149
 20
1.864228410825733
 30
0.0
 40
0.125
  1
1" x 3-15/16"
  0
TEXT
  5
2DF14
  8
0
 10
1.832955433625425
 20
1.653763426742058
 30
0.0
 40
0.125
  1
800.66.TAGUE
  0
ENDBLK
  5
2DF16
  8
0
  0
BLOCK
  8
0
  2
*U317
 70
     1
 10
0.0
 20
0.0
 30
0.0
  3
*U317
  1

  0
TEXT
  5
2DF18
  8
0
 10
2.3132503487693481
 20
2.7003342730909181
 30
0.0
 40
0.125
  1
Casing
  0
TEXT
  5
2DF19
  8
0
 10
2.3178547143900849
 20
2.491489343577503
 30
0.0
 40
0.125
  1
TL-2228 
  0
TEXT
  5
2DF1A
  8
0
 10
2.302933159137698
 20
2.281024359493828
 30
0.0
 40
0.125
  1
1-1/4" x 4-3/4"
  0
TEXT
  5
2DF1B
  8
0
 10
2.3148704033396079
 20
2.0705593754101539
 30
0.0
 40
0.125
  1
800.66.TAGUE
  0
ENDBLK
  5
2DF1D
  8
0
  0
BLOCK
  8
0
  2
*U318
 70
     1
 10
0.0
 20
0.0
 30
0.0
  3
*U318
  1

  0
TEXT
  5
2DF1F
  8
0
 10
1.3915095624424549
 20
2.383385039296301
 30
0.0
 40
0.125
  1
Casing
  0
TEXT
  5
2DF20
  8
0
 10
1.396113928063192
 20
2.1745401097828858
 30
0.0
 40
0.125
  1
TL-2229
  0
TEXT
  5
2DF21
  8
0
 10
1.391935892592524
 20
1.9640751256992119
 30
0.0
 40
0.125
  1
7/8" x 3-3/4"
  0
TEXT
  5
2DF22
  8
0
 10
1.3931296170127141
 20
1.753610141615537
 30
0.0
 40
0.125
  1
800.66.TAGUE
  0
ENDBLK
  5
2DF24
  8
0
  0
BLOCK
  8
0
  2
*U319
 70
     1
 10
0.0
 20
0.0
 30
0.0
  3
*U319
  1

  0
TEXT
  5
2DF26
  8
0
 10
1.87310343834
 20
2.0357620146510431
 30
0.0
 40
0.125
  1
Casing
  0
TEXT
  5
2DF27
  8
0
 10
1.8777078039607371
 20
1.826917085137628
 30
0.0
 40
0.125
  1
TL-2233
  0
TEXT
  5
2DF28
  8
0
 10
1.8627862487083491
 20
1.616452101053953
 30
0.0
 40
0.125
  1
13/16" x 3-3/16"
  0
TEXT
  5
2DF29
  8
0
 10
1.874723492910259
 20
1.4059871169702789
 30
0.0
 40
0.125
  1
800.66.TAGUE
  0
ENDBLK
  5
2DF2B
  8
0
  0
BLOCK
  8
0
  2
*U320
 70
     1
 10
0.0
 20
0.0
 30
0.0
  3
*U320
  1

  0
TEXT
  5
2DF2D
  8
0
 10
1.7459153653937609
 20
1.9448879538140471
 30
0.0
 40
0.125
  1
Casing
  0
TEXT
  5
2DF2E
  8
0
 10
1.7505197310144971
 20
1.736043024300632
 30
0.0
 40
0.125
  1
TL-2250
  0
TEXT
  5
2DF2F
  8
0
 10
1.73559817576211
 20
1.5255780402169581
 30
0.0
 40
0.125
  1
1" x 3-1/2"
  0
TEXT
  5
2DF30
  8
0
 10
1.7475354199640201
 20
1.3151130561332831
 30
0.0
 40
0.125
  1
800.66.TAGUE
  0
ENDBLK
  5
2DF32
  8
0
  0
BLOCK
  8
0
  2
*U321
 70
     1
 10
0.0
 20
0.0
 30
0.0
  3
*U321
  1

  0
TEXT
  5
2DF34
  8
0
 10
1.494383524796238
 20
1.9408940816920379
 30
0.0
 40
0.125
  1
Casing
  0
TEXT
  5
2DF35
  8
0
 10
1.4989878904169751
 20
1.7320491521786221
 30
0.0
 40
0.125
  1
TL-2251
  0
TEXT
  5
2DF36
  8
0
 10
1.484066335164588
 20
1.521584168094948
 30
0.0
 40
0.125
  1
11/16" x 2-13/16"
  0
TEXT
  5
2DF37
  8
0
 10
1.4960035793664981
 20
1.3111191840112739
 30
0.0
 40
0.125
  1
800.66.TAGUE
  0
ENDBLK
  5
2DF39
  8
0
  0
BLOCK
  8
0
  2
*U322
 70
     1
 10
0.0
 20
0.0
 30
0.0
  3
*U322
  1

  0
TEXT
  5
2DF3B
  8
0
 10
2.2056141602761028
 20
2.266239753984352
 30
0.0
 40
0.125
  1
Casing
  0
TEXT
  5
2DF3C
  8
0
 10
2.2102185258968401
 20
2.0573948244709368
 30
0.0
 40
0.125
  1
TL-2252
  0
TEXT
  5
2DF3D
  8
0
 10
2.1952969706444532
 20
1.8469298403872629
 30
0.0
 40
0.125
  1
1-1/2" x 3-1/2"
  0
TEXT
  5
2DF3E
  8
0
 10
2.2072342148463631
 20
1.636464856303588
 30
0.0
 40
0.125
  1
800.66.TAGUE
  0
ENDBLK
  5
2DF40
  8
0
  0
BLOCK
  8
0
  2
*U323
 70
     1
 10
0.0
 20
0.0
 30
0.0
  3
*U323
  1

  0
TEXT
  5
2DF42
  8
0
 10
1.4486104250858931
 20
2.7966822092987669
 30
0.0
 40
0.125
  1
Casing
  0
TEXT
  5
2DF43
  8
0
 10
1.45321479070663
 20
2.5878372797853522
 30
0.0
 40
0.125
  1
TL-2262
  0
TEXT
  5
2DF44
  8
0
 10
1.449974681566111
 20
2.3773722957016772
 30
0.0
 40
0.125
  1
3/4" x 4-9/16"
  0
TEXT
  5
2DF45
  8
0
 10
1.450230479656152
 20
2.1669073116180031
 30
0.0
 40
0.125
  1
800.66.TAGUE
  0
ENDBLK
  5
2DF47
  8
0
  0
BLOCK
  8
0
  2
*U324
 70
     1
 10
0.0
 20
0.0
 30
0.0
  3
*U324
  1

  0
TEXT
  5
2DF49
  8
0
 10
1.2700763979575289
 20
2.7966822092987669
 30
0.0
 40
0.125
  1
Casing
  0
TEXT
  5
2DF4A
  8
0
 10
1.2746807635782651
 20
2.5878372797853522
 30
0.0
 40
0.125
  1
TL-2263
  0
TEXT
  5
2DF4B
  8
0
 10
1.271440654437747
 20
2.3773722957016772
 30
0.0
 40
0.125
  1
3/4" x 5-3/8"
  0
TEXT
  5
2DF4C
  8
0
 10
1.2716964525277881
 20
2.1669073116180031
 30
0.0
 40
0.125
  1
800.66.TAGUE
  0
ENDBLK
  5
2DF4E
  8
0
  0
BLOCK
  8
0
  2
*U325
 70
     1
 10
0.0
 20
0.0
 30
0.0
  3
*U325
  1

  0
TEXT
  5
2DF50
  8
0
 10
1.35392311646459
 20
0.8401630564883522
 30
0.0
 40
0.125
  1
Casing
  0
TEXT
  5
2DF51
  8
0
 10
1.358527482085327
 20
0.6313181269749371
 30
0.0
 40
0.125
  1
TL-2264
  0
TEXT
  5
2DF52
  8
0
 10
1.3552873729448081
 20
0.4208531428912626
 30
0.0
 40
0.125
  1
3/4" x 2-1/2"
  0
TEXT
  5
2DF53
  8
0
 10
1.3555431710348489
 20
0.2103881588075882
 30
0.0
 40
0.125
  1
800.66.TAGUE
  0
ENDBLK
  5
2DF55
  8
0
  0
BLOCK
  8
0
  2
*U326
 70
     1
 10
0.0
 20
0.0
 30
0.0
  3
*U326
  1

  0
TEXT
  5
2DF57
  8
0
 10
1.6100124769691651
 20
3.5240080799240028
 30
0.0
 40
0.125
  1
Casing
  0
TEXT
  5
2DF58
  8
0
 10
1.614616842589901
 20
3.3151631504105881
 30
0.0
 40
0.125
  1
TL-2267
  0
TEXT
  5
2DF59
  8
0
 10
1.6114619994793971
 20
3.1046981663269131
 30
0.0
 40
0.125
  1
5/8" x 5-9/16"
  0
TEXT
  5
2DF5A
  8
0
 10
1.611632531539424
 20
2.894233182243239
 30
0.0
 40
0.125
  1
800.66.TAGUE
  0
ENDBLK
  5
2DF5C
  8
0
  0
BLOCK
  8
0
  2
*U327
 70
     1
 10
0.0
 20
0.0
 30
0.0
  3
*U327
  1

  0
TEXT
  5
2DF5E
  8
0
 10
1.7300385356994969
 20
3.5240080799240028
 30
0.0
 40
0.125
  1
Casing
  0
TEXT
  5
2DF5F
  8
0
 10
1.7346429013202329
 20
3.3151631504105881
 30
0.0
 40
0.125
  1
TL-2268
  0
TEXT
  5
2DF60
  8
0
 10
1.731488058209729
 20
3.1046981663269131
 30
0.0
 40
0.125
  1
5/8" x 3-3/4"
  0
TEXT
  5
2DF61
  8
0
 10
1.7316585902697561
 20
2.894233182243239
 30
0.0
 40
0.125
  1
800.66.TAGUE
  0
ENDBLK
  5
2DF63
  8
0
  0
BLOCK
  8
0
  2
*U328
 70
     1
 10
0.0
 20
0.0
 30
0.0
  3
*U328
  1

  0
TEXT
  5
2DF65
  8
0
 10
1.702429561101529
 20
3.0113749150933851
 30
0.0
 40
0.125
  1
Casing
  0
TEXT
  5
2DF66
  8
0
 10
1.7070339267222661
 20
2.8025299855799699
 30
0.0
 40
0.125
  1
TL-2273
  0
TEXT
  5
2DF67
  8
0
 10
1.700553708441229
 20
2.5920650014962958
 30
0.0
 40
0.125
  1
(2 Piece)
  0
TEXT
  5
2DF68
  8
0
 10
1.692112371469878
 20
2.3816000174126222
 30
0.0
 40
0.125
  1
15/16" x 4-1/4"
  0
TEXT
  5
2DF69
  8
0
 10
1.7040496156717879
 20
2.1711350333289472
 30
0.0
 40
0.125
  1
800.66.TAGUE
  0
ENDBLK
  5
2DF6B
  8
0
  0
BLOCK
  8
0
  2
*U329
 70
     1
 10
0.0
 20
0.0
 30
0.0
  3
*U329
  1

  0
TEXT
  5
2DF6D
  8
0
 10
1.814658211065681
 20
2.4638364444534928
 30
0.0
 40
0.125
  1
Casing
  0
TEXT
  5
2DF6E
  8
0
 10
1.8192625766864181
 20
2.2549915149400781
 30
0.0
 40
0.125
  1
TL-2274
  0
TEXT
  5
2DF6F
  8
0
 10
1.8043410214340301
 20
2.0445265308564031
 30
0.0
 40
0.125
  1
13/16" x 3-3/4"
  0
TEXT
  5
2DF70
  8
0
 10
1.81627826563594
 20
1.834061546772729
 30
0.0
 40
0.125
  1
800.66.TAGUE
  0
ENDBLK
  5
2DF72
  8
0
  0
BLOCK
  8
0
  2
*U330
 70
     1
 10
0.0
 20
0.0
 30
0.0
  3
*U330
  1

  0
TEXT
  5
2DF74
  8
0
 10
2.0187695351766921
 20
2.0591011086625191
 30
0.0
 40
0.125
  1
Casing
  0
TEXT
  5
2DF75
  8
0
 10
2.023373900797429
 20
1.850256179149103
 30
0.0
 40
0.125
  1
TL-2288
  0
TEXT
  5
2DF76
  8
0
 10
2.0201337916569111
 20
1.6397911950654289
 30
0.0
 40
0.125
  1
3/4" x 3-3/4"
  0
TEXT
  5
2DF77
  8
0
 10
2.020389589746951
 20
1.4293262109817551
 30
0.0
 40
0.125
  1
800.66.TAGUE
  0
ENDBLK
  5
2DF79
  8
0
  0
BLOCK
  8
0
  2
*U331
 70
     1
 10
0.0
 20
0.0
 30
0.0
  3
*U331
  1

  0
TEXT
  5
2DF7B
  8
0
 10
2.1323396999586959
 20
2.058842744993187
 30
0.0
 40
0.125
  1
Casing
  0
TEXT
  5
2DF7C
  8
0
 10
2.1369440655794332
 20
1.849997815479772
 30
0.0
 40
0.125
  1
TL-2292
  0
TEXT
  5
2DF7D
  8
0
 10
2.1220225103270458
 20
1.587963936443846
 30
0.0
 40
0.125
  1
1-
  0
TEXT
  5
2DF7E
  8
0
 10
2.272218622196077
 20
1.6773142092951421
 30
0.0
 40
0.0875
  1
5
  0
LINE
  5
2DF7F
  8
0
 10
2.2997023529557881
 20
1.6056384054198549
 30
0.0
 11
2.4000782293172209
 21
1.748990013170429
 31
0.0
  0
TEXT
  5
2DF80
  8
0
 10
2.351163597184708
 20
1.558797269777179
 30
0.0
 40
0.0875
  1
16
  0
TEXT
  5
2DF81
  8
0
 10
2.4873675535285011
 20
1.587963936443846
 30
0.0
 40
0.125
  1
" x 4-
  0
TEXT
  5
2DF82
  8
0
 10
2.8756605276076281
 20
1.6773142092951421
 30
0.0
 40
0.0875
  1
15
  0
LINE
  5
2DF83
  8
0
 10
2.9711268640972159
 20
1.6056384054198549
 30
0.0
 11
3.0715027404586488
 21
1.748990013170429
 31
0.0
  0
TEXT
  5
2DF84
  8
0
 10
3.0225881083261359
 20
1.558797269777179
 30
0.0
 40
0.0875
  1
16
  0
TEXT
  5
2DF85
  8
0
 10
3.158792064669929
 20
1.587963936443846
 30
0.0
 40
0.125
  1
"
  0
TEXT
  5
2DF86
  8
0
 10
2.1339597545289561
 20
1.4191656190268389
 30
0.0
 40
0.125
  1
800.66.TAGUE
  0
ENDBLK
  5
2DF88
  8
0
  0
BLOCK
  8
0
  2
*U332
 70
     1
 10
0.0
 20
0.0
 30
0.0
  3
*U332
  1

  0
TEXT
  5
2DF8A
  8
0
 10
1.618263192279106
 20
1.1598393046174511
 30
0.0
 40
0.125
  1
Casing
  0
TEXT
  5
2DF8B
  8
0
 10
1.622867557899843
 20
0.950994375104036
 30
0.0
 40
0.125
  1
TL-2297
  0
TEXT
  5
2DF8C
  8
0
 10
1.621886998554686
 20
0.7782510826983971
 30
0.0
 40
0.0875
  1
5
  0
LINE
  5
2DF8D
  8
0
 10
1.626960327340498
 20
0.7636677493650637
 30
0.0
 11
1.6849753341617799
 21
0.7636677493650637
 31
0.0
  0
TEXT
  5
2DF8E
  8
0
 10
1.622185429659734
 20
0.6597341431804342
 30
0.0
 40
0.0875
  1
8
  0
TEXT
  5
2DF8F
  8
0
 10
1.6908245838207161
 20
0.6597341431804342
 30
0.0
 40
0.125
  1
"x 2-
  0
TEXT
  5
2DF90
  8
0
 10
2.0389572577634172
 20
0.7782510826983971
 30
0.0
 40
0.0875
  1
3
  0
LINE
  5
2DF91
  8
0
 10
2.0439112141072102
 20
0.7636677493650637
 30
0.0
 11
2.101568103602435
 21
0.7636677493650637
 31
0.0
  0
TEXT
  5
2DF92
  8
0
 10
2.0389572577634172
 20
0.6597341431804342
 30
0.0
 40
0.0875
  1
8
  0
TEXT
  5
2DF93
  8
0
 10
2.1074173532613711
 20
0.6597341431804342
 30
0.0
 40
0.125
  1
"
  0
TEXT
  5
2DF94
  8
0
 10
1.6198832468493649
 20
0.4909358257634266
 30
0.0
 40
0.125
  1
800.66.TAGUE
  0
ENDBLK
  5
2DF96
  8
0
  0
BLOCK
  8
0
  2
*U333
 70
     1
 10
0.0
 20
0.0
 30
0.0
  3
*U333
  1

  0
TEXT
  5
2DF98
  8
0
 10
1.892040805761984
 20
1.3272283447324911
 30
0.0
 40
0.125
  1
Casing
  0
TEXT
  5
2DF99
  8
0
 10
1.8966451713827199
 20
1.1183834152190759
 30
0.0
 40
0.125
  1
TL-2298
  0
TEXT
  5
2DF9A
  8
0
 10
1.8956049258165539
 20
0.9456401228134371
 30
0.0
 40
0.0875
  1
3
  0
LINE
  5
2DF9B
  8
0
 10
1.9224321081451601
 20
0.8739643189381503
 30
0.0
 11
2.0228079845065929
 21
1.0173159266887231
 31
0.0
  0
TEXT
  5
2DF9C
  8
0
 10
1.985651537912962
 20
0.8289734561467703
 30
0.0
 40
0.0875
  1
4
  0
TEXT
  5
2DF9D
  8
0
 10
2.0535744574218291
 20
0.8581401228134371
 30
0.0
 40
0.125
  1
" x 3"
  0
TEXT
  5
2DF9E
  8
0
 10
1.8936608603322429
 20
0.6893418053964294
 30
0.0
 40
0.125
  1
800.66.TAGUE
  0
ENDBLK
  5
2DFA0
  8
0
  0
BLOCK
  8
0
  2
*U334
 70
     1
 10
0.0
 20
0.0
 30
0.0
  3
*U334
  1

  0
TEXT
  5
2DFA2
  8
0
 10
2.2835738038492979
 20
1.7544184293141301
 30
0.0
 40
0.125
  1
Casing
  0
TEXT
  5
2DFA3
  8
0
 10
2.2881781694700352
 20
1.5455734998007149
 30
0.0
 40
0.125
  1
TL-2301
  0
TEXT
  5
2DFA4
  8
0
 10
2.2732566142176469
 20
1.3351085157170399
 30
0.0
 40
0.125
  1
1-1/2" x 5"
  0
TEXT
  5
2DFA5
  8
0
 10
2.2851938584195568
 20
1.1246435316333661
 30
0.0
 40
0.125
  1
800.66.TAGUE
  0
ENDBLK
  5
2DFA7
  8
0
  0
BLOCK
  8
0
  2
*U335
 70
     1
 10
0.0
 20
0.0
 30
0.0
  3
*U335
  1

  0
TEXT
  5
2DFA9
  8
0
 10
1.6582458032537251
 20
2.0798603824239459
 30
0.0
 40
0.125
  1
Casing
  0
TEXT
  5
2DFAA
  8
0
 10
1.662850168874461
 20
1.871015452910531
 30
0.0
 40
0.125
  1
TL-2303
  0
TEXT
  5
2DFAB
  8
0
 10
1.6596100597339429
 20
1.6605504688268571
 30
0.0
 40
0.125
  1
3/4" x 3-1/2"
  0
TEXT
  5
2DFAC
  8
0
 10
1.659865857823984
 20
1.4500854847431821
 30
0.0
 40
0.125
  1
800.66.TAGUE
  0
ENDBLK
  5
2DFAE
  8
0
  0
BLOCK
  8
0
  2
*U336
 70
     1
 10
0.0
 20
0.0
 30
0.0
  3
*U336
  1

  0
TEXT
  5
2DFB0
  8
0
 10
1.431203172034974
 20
1.5392983848263539
 30
0.0
 40
0.125
  1
Casing
  0
TEXT
  5
2DFB1
  8
0
 10
1.43580753765571
 20
1.330453455312939
 30
0.0
 40
0.125
  1
TL-2306
  0
TEXT
  5
2DFB2
  8
0
 10
1.4325674285151919
 20
1.119988471229264
 30
0.0
 40
0.125
  1
3/4" x 2-3/4"
  0
TEXT
  5
2DFB3
  8
0
 10
1.432823226605233
 20
0.9095234871455904
 30
0.0
 40
0.125
  1
800.66.TAGUE
  0
ENDBLK
  5
2DFB5
  8
0
  0
BLOCK
  8
0
  2
*U337
 70
     1
 10
0.0
 20
0.0
 30
0.0
  3
*U337
  1

  0
TEXT
  5
2DFB7
  8
0
 10
1.336772010030562
 20
1.348181215802599
 30
0.0
 40
0.125
  1
Casing
  0
TEXT
  5
2DFB8
  8
0
 10
1.3413763756512991
 20
1.139336286289184
 30
0.0
 40
0.125
  1
TL-2307
  0
TEXT
  5
2DFB9
  8
0
 10
1.338221532540794
 20
0.9288713022055096
 30
0.0
 40
0.125
  1
5/8" x 2-1/4"
  0
TEXT
  5
2DFBA
  8
0
 10
1.3383920646008209
 20
0.7184063181218353
 30
0.0
 40
0.125
  1
800.66.TAGUE
  0
ENDBLK
  5
2DFBC
  8
0
  0
BLOCK
  8
0
  2
*U338
 70
     1
 10
0.0
 20
0.0
 30
0.0
  3
*U338
  1

  0
TEXT
  5
2DFBE
  8
0
 10
1.4522842025103031
 20
1.654299248457862
 30
0.0
 40
0.125
  1
Casing
  0
TEXT
  5
2DFBF
  8
0
 10
1.45688856813104
 20
1.4454543189444471
 30
0.0
 40
0.125
  1
TL-2308
  0
TEXT
  5
2DFC0
  8
0
 10
1.4536484589905221
 20
1.2349893348607719
 30
0.0
 40
0.125
  1
3/4" x 2-3/4"
  0
TEXT
  5
2DFC1
  8
0
 10
1.453904257080562
 20
1.024524350777098
 30
0.0
 40
0.125
  1
800.66.TAGUE
  0
ENDBLK
  5
2DFC3
  8
0
  0
BLOCK
  8
0
  2
*U339
 70
     1
 10
0.0
 20
0.0
 30
0.0
  3
*U339
  1

  0
TEXT
  5
2DFC5
  8
0
 10
1.2779315120029411
 20
1.3905521502452001
 30
0.0
 40
0.125
  1
Casing
  0
TEXT
  5
2DFC6
  8
0
 10
1.2825358776236779
 20
1.1817072207317849
 30
0.0
 40
0.125
  1
TL-2310
  0
TEXT
  5
2DFC7
  8
0
 10
1.2793810345131731
 20
0.9712422366481112
 30
0.0
 40
0.125
  1
9/16" x 2-5/16"
  0
TEXT
  5
2DFC8
  8
0
 10
1.2795515665732
 20
0.7607772525644369
 30
0.0
 40
0.125
  1
800.66.TAGUE
  0
ENDBLK
  5
2DFCA
  8
0
  0
BLOCK
  8
0
  2
*U340
 70
     1
 10
0.0
 20
0.0
 30
0.0
  3
*U340
  1

  0
TEXT
  5
2DFCC
  8
0
 10
1.759997716165604
 20
1.572623553305236
 30
0.0
 40
0.125
  1
Casing
  0
TEXT
  5
2DFCD
  8
0
 10
1.764602081786341
 20
1.363778623791821
 30
0.0
 40
0.125
  1
TL-2311
  0
TEXT
  5
2DFCE
  8
0
 10
1.7613619726458229
 20
1.153313639708146
 30
0.0
 40
0.125
  1
3/4" x 2-1/4"
  0
TEXT
  5
2DFCF
  8
0
 10
1.7616177707358629
 20
0.9428486556244724
 30
0.0
 40
0.125
  1
800.66.TAGUE
  0
ENDBLK
  5
2DFD1
  8
0
  0
BLOCK
  8
0
  2
*U341
 70
     1
 10
0.0
 20
0.0
 30
0.0
  3
*U341
  1

  0
TEXT
  5
2DFD3
  8
0
 10
1.890060675979133
 20
1.754419613142902
 30
0.0
 40
0.125
  1
Casing
  0
TEXT
  5
2DFD4
  8
0
 10
1.89466504159987
 20
1.545574683629487
 30
0.0
 40
0.125
  1
TL-2313
  0
TEXT
  5
2DFD5
  8
0
 10
1.879743486347482
 20
1.335109699545812
 30
0.0
 40
0.125
  1
1-1/4" x 3-1/8"
  0
TEXT
  5
2DFD6
  8
0
 10
1.8916807305493919
 20
1.124644715462138
 30
0.0
 40
0.125
  1
800.66.TAGUE
  0
ENDBLK
  5
2DFD8
  8
0
  0
BLOCK
  8
0
  2
*U342
 70
     1
 10
0.0
 20
0.0
 30
0.0
  3
*U342
  1

  0
TEXT
  5
2DFDA
  8
0
 10
1.471679351084878
 20
1.534180818898351
 30
0.0
 40
0.125
  1
Casing
  0
TEXT
  5
2DFDB
  8
0
 10
1.476283716705614
 20
1.325335889384935
 30
0.0
 40
0.125
  1
TL-2317
  0
TEXT
  5
2DFDC
  8
0
 10
1.4730436075650959
 20
1.1148709053012611
 30
0.0
 40
0.125
  1
3/4" x 2-5/8"
  0
TEXT
  5
2DFDD
  8
0
 10
1.473299405655137
 20
0.904405921217587
 30
0.0
 40
0.125
  1
800.66.TAGUE
  0
ENDBLK
  5
2DFDF
  8
0
  0
BLOCK
  8
0
  2
*U343
 70
     1
 10
0.0
 20
0.0
 30
0.0
  3
*U343
  1

  0
TEXT
  5
2DFE1
  8
0
 10
1.9061884295105971
 20
11.78127341408482
 30
0.0
 40
0.125
  1
Casing
  0
TEXT
  5
2DFE2
  8
0
 10
1.9107927951313339
 20
11.572428484571409
 30
0.0
 40
0.125
  1
TL-2318
  0
TEXT
  5
2DFE3
  8
0
 10
1.8958712398789459
 20
11.361963500487731
 30
0.0
 40
0.125
  1
13/16" x 2-1/2"
  0
TEXT
  5
2DFE4
  8
0
 10
1.907808484080856
 20
11.151498516404059
 30
0.0
 40
0.125
  1
800.66.TAGUE
  0
ENDBLK
  5
2DFE6
  8
0
  0
BLOCK
  8
0
  2
*U344
 70
     1
 10
0.0
 20
0.0
 30
0.0
  3
*U344
  1

  0
TEXT
  5
2DFE8
  8
0
 10
1.9061884295105971
 20
1.363854033474142
 30
0.0
 40
0.125
  1
Casing
  0
TEXT
  5
2DFE9
  8
0
 10
1.9107927951313339
 20
1.1550091039607271
 30
0.0
 40
0.125
  1
TL-2318
  0
TEXT
  5
2DFEA
  8
0
 10
1.8958712398789459
 20
0.9445441198770529
 30
0.0
 40
0.125
  1
13/16" x 2-1/2"
  0
TEXT
  5
2DFEB
  8
0
 10
1.907808484080856
 20
0.7340791357933786
 30
0.0
 40
0.125
  1
800.66.TAGUE
  0
ENDBLK
  5
2DFED
  8
0
  0
BLOCK
  8
0
  2
*U345
 70
     1
 10
0.0
 20
0.0
 30
0.0
  3
*U345
  1

  0
TEXT
  5
2DFEF
  8
0
 10
0.1012929032636172
 20
0.6784900366449325
 30
0.0
 40
0.125
  1
Casing
  0
TEXT
  5
2DFF0
  8
0
 10
0.1058972688843539
 20
0.4696451071315173
 30
0.0
 40
0.125
  1
TL-AB129
  0
TEXT
  5
2DFF1
  8
0
 10
0.0909757136319665
 20
0.2591801230478429
 30
0.0
 40
0.125
  1
1-1/16" x 4-3/8"
  0
TEXT
  5
2DFF2
  8
0
 10
0.1029129578338764
 20
0.0487151389641685
 30
0.0
 40
0.125
  1
800.66.TAGUE
  0
ENDBLK
  5
2DFF4
  8
0
  0
BLOCK
  8
0
  2
*U346
 70
     1
 10
0.0
 20
0.0
 30
0.0
  3
*U346
  1

  0
TEXT
  5
2DFF6
  8
0
 10
2.0942485375340749
 20
2.2769929820040189
 30
0.0
 40
0.125
  1
Casing
  0
TEXT
  5
2DFF7
  8
0
 10
2.0988529031548122
 20
2.0681480524906042
 30
0.0
 40
0.125
  1
TL-2323
  0
TEXT
  5
2DFF8
  8
0
 10
2.0839313479024248
 20
1.857683068406929
 30
0.0
 40
0.125
  1
1" x 3-13/16"
  0
TEXT
  5
2DFF9
  8
0
 10
2.0958685921043352
 20
1.6472180843232549
 30
0.0
 40
0.125
  1
800.66.TAGUE
  0
ENDBLK
  5
2DFFB
  8
0
  0
BLOCK
  8
0
  2
*U347
 70
     1
 10
0.0
 20
0.0
 30
0.0
  3
*U347
  1

  0
TEXT
  5
2DFFD
  8
0
 10
2.580584808171726
 20
2.7135639806379159
 30
0.0
 40
0.125
  1
Casing
  0
TEXT
  5
2DFFE
  8
0
 10
2.5851891737924628
 20
2.5047190511245012
 30
0.0
 40
0.125
  1
TL-2327
  0
TEXT
  5
2DFFF
  8
0
 10
2.570267618540075
 20
2.2942540670408258
 30
0.0
 40
0.125
  1
1-5/32" x 5-1/16"
  0
TEXT
  5
2E000
  8
0
 10
2.5822048627419849
 20
2.0837890829571522
 30
0.0
 40
0.125
  1
800.66.TAGUE
  0
ENDBLK
  5
2E002
  8
0
  0
BLOCK
  8
0
  2
*U348
 70
     1
 10
0.0
 20
0.0
 30
0.0
  3
*U348
  1

  0
TEXT
  5
2E004
  8
0
 10
1.9190613328479511
 20
1.295782999831214
 30
0.0
 40
0.125
  1
TL-1
  0
ENDBLK
  5
2E006
  8
0
  0
BLOCK
  8
0
  2
*U349
 70
     1
 10
0.0
 20
0.0
 30
0.0
  3
*U349
  1

  0
INSERT
  5
2E008
  8
0
  2
_OPEN30
 10
1.157627917966408
 20
0.91486614290352
 30
0.0
 41
0.046875
 42
0.046875
 43
0.046875
 50
216.7484296297819
  0
POLYLINE
  5
2E009
  8
0
 66
     1
 10
0.0
 20
0.0
 30
0.0
  0
VERTEX
  5
2E00A
  8
0
 10
1.1951874591233931
 20
0.9429115791289877
 30
0.0
  0
VERTEX
  5
2E00B
  8
0
 10
1.751183850989207
 20
1.3580700413820059
 30
0.0
  0
VERTEX
  5
2E00C
  8
0
 10
1.8606541022886061
 20
1.3585387979212551
 30
0.0
  0
SEQEND
  5
2E00D
  8
0
  0
ENDBLK
  5
2E00F
  8
0
  0
BLOCK
  8
0
  2
*U350
 70
     1
 10
0.0
 20
0.0
 30
0.0
  3
*U350
  1

  0
TEXT
  5
2E011
  8
0
 10
1.8095910815485521
 20
3.079512928432802
 30
0.0
 40
0.125
  1
TL-B3
  0
ENDBLK
  5
2E013
  8
0
  0
BLOCK
  8
0
  2
*U351
 70
     1
 10
0.0
 20
0.0
 30
0.0
  3
*U351
  1

  0
INSERT
  5
2E015
  8
0
  2
_OPEN30
 10
0.7472055334187076
 20
2.413855508076721
 30
0.0
 41
0.046875
 42
0.046875
 43
0.046875
 50
218.96276986434211
  0
POLYLINE
  5
2E016
  8
0
 66
     1
 10
0.0
 20
0.0
 30
0.0
  0
VERTEX
  5
2E017
  8
0
 10
0.7836534110351114
 20
2.4433312242217049
 30
0.0
  0
VERTEX
  5
2E018
  8
0
 10
1.6479170109450361
 20
3.1422687265228428
 30
0.0
  0
VERTEX
  5
2E019
  8
0
 10
1.751183850989207
 20
3.1422687265228428
 30
0.0
  0
SEQEND
  5
2E01A
  8
0
  0
ENDBLK
  5
2E01C
  8
0
  0
BLOCK
  8
0
  2
*U352
 70
     1
 10
0.0
 20
0.0
 30
0.0
  3
*U352
  1

  0
TEXT
  5
2E01E
  8
0
 10
2.2380626933440668
 20
2.3289691779722421
 30
0.0
 40
0.125
  1
Casing Assembly
  0
TEXT
  5
2E01F
  8
0
 10
2.2426670589648041
 20
2.1201242484588261
 30
0.0
 40
0.125
  1
TL-671
  0
TEXT
  5
2E020
  8
0
 10
2.2277455037124159
 20
1.909659264375152
 30
0.0
 40
0.125
  1
1-9/16" x 4"
  0
TEXT
  5
2E021
  8
0
 10
2.2396827479143262
 20
1.6991942802914779
 30
0.0
 40
0.125
  1
800.66.TAGUE
  0
ENDBLK
  5
2E023
  8
0
  0
BLOCK
  8
0
  2
*U353
 70
     1
 10
0.0
 20
0.0
 30
0.0
  3
*U353
  1

  0
TEXT
  5
2E025
  8
0
 10
2.1291091216269011
 20
2.816826726523816
 30
0.0
 40
0.125
  1
Casing Assembly
  0
TEXT
  5
2E026
  8
0
 10
2.133713487247638
 20
2.6079817970104
 30
0.0
 40
0.125
  1
TL-672
  0
TEXT
  5
2E027
  8
0
 10
2.1187919319952511
 20
2.3975168129267259
 30
0.0
 40
0.125
  1
1-3/8" x 5"
  0
TEXT
  5
2E028
  8
0
 10
2.1307291761971601
 20
2.1870518288430518
 30
0.0
 40
0.125
  1
800.66.TAGUE
  0
ENDBLK
  5
2E02A
  8
0
  0
BLOCK
  8
0
  2
*U354
 70
     1
 10
0.0
 20
0.0
 30
0.0
  3
*U354
  1

  0
INSERT
  5
2E02C
  8
0
  6
CONTINUOUS
  2
_OPEN30
 10
0.8527161685473174
 20
3.6145566882109961
 30
0.0
 41
0.046875
 42
0.046875
 43
0.046875
 50
234.55815641125889
  0
POLYLINE
  5
2E02D
  8
0
  6
CONTINUOUS
 66
     1
 10
0.0
 20
0.0
 30
0.0
  0
VERTEX
  5
2E02E
  8
0
  6
CONTINUOUS
 10
0.8798978706948913
 20
3.6527459627964149
 30
0.0
  0
VERTEX
  5
2E02F
  8
0
  6
CONTINUOUS
 10
1.3444205147814039
 20
4.3053828988445266
 30
0.0
  0
VERTEX
  5
2E030
  8
0
  6
CONTINUOUS
 10
1.4736493158457049
 20
4.3053828988445266
 30
0.0
  0
SEQEND
  5
2E031
  8
0
  6
CONTINUOUS
  0
ENDBLK
  5
2E033
  8
0
  0
BLOCK
  8
0
  2
*U355
 70
     1
 10
0.0
 20
0.0
 30
0.0
  3
*U355
  1

  0
TEXT
  5
2E035
  8
0
 10
1.53205654640505
 20
4.2426271007544871
 30
0.0
 40
0.125
  1
TL-600
  0
ENDBLK
  5
2E037
  8
0
  0
BLOCK
  8
0
  2
*U356
 70
     1
 10
0.0
 20
0.0
 30
0.0
  3
*U356
  1

  0
TEXT
  5
2E039
  8
0
 10
2.0535313020689099
 20
1.181258597845293
 30
0.0
 40
0.125
  1
TL-601
  0
ENDBLK
  5
2E03B
  8
0
  0
BLOCK
  8
0
  2
*U357
 70
     1
 10
0.0
 20
0.0
 30
0.0
  3
*U357
  1

  0
INSERT
  5
2E03D
  8
0
  6
CONTINUOUS
  2
_OPEN30
 10
1.3741909242111769
 20
0.5534439833918441
 30
0.0
 41
0.046875
 42
0.046875
 43
0.046875
 50
234.55815641125889
  0
POLYLINE
  5
2E03E
  8
0
  6
CONTINUOUS
 66
     1
 10
0.0
 20
0.0
 30
0.0
  0
VERTEX
  5
2E03F
  8
0
  6
CONTINUOUS
 10
1.4013726263587509
 20
0.5916332579772639
 30
0.0
  0
VERTEX
  5
2E040
  8
0
  6
CONTINUOUS
 10
1.865895270445264
 20
1.2442701940253751
 30
0.0
  0
VERTEX
  5
2E041
  8
0
  6
CONTINUOUS
 10
1.9951240715095651
 20
1.2442701940253751
 30
0.0
  0
SEQEND
  5
2E042
  8
0
  6
CONTINUOUS
  0
ENDBLK
  5
2E044
  8
0
  0
BLOCK
  8
0
  2
*U358
 70
     1
 10
0.0
 20
0.0
 30
0.0
  3
*U358
  1

  0
INSERT
  5
2E046
  8
0
  2
_OPEN30
 10
0.7350002852710987
 20
2.695530136402112
 30
0.0
 41
0.046875
 42
0.046875
 43
0.046875
 50
229.24315883358
  0
POLYLINE
  5
2E047
  8
0
 66
     1
 10
0.0
 20
0.0
 30
0.0
  0
VERTEX
  5
2E048
  8
0
 10
0.7656026384773922
 20
2.731037341350365
 30
0.0
  0
VERTEX
  5
2E049
  8
0
 10
1.428853988670084
 20
3.5005925930247481
 30
0.0
  0
VERTEX
  5
2E04A
  8
0
 10
1.523894601830591
 20
3.5005925930247481
 30
0.0
  0
SEQEND
  5
2E04B
  8
0
  0
ENDBLK
  5
2E04D
  8
0
  0
BLOCK
  8
0
  2
*U359
 70
     1
 10
0.0
 20
0.0
 30
0.0
  3
*U359
  1

  0
TEXT
  5
2E04F
  8
0
 10
1.582301832389936
 20
3.4378367949347068
 30
0.0
 40
0.125
  1
TL-548
  0
ENDBLK
  5
2E051
  8
0
  0
BLOCK
  8
0
  2
*U360
 70
     1
 10
0.0
 20
0.0
 30
0.0
  3
*U360
  1

  0
INSERT
  5
2E053
  8
0
  2
_OPEN30
 10
1.6875002829754631
 20
0.2402104670816243
 30
0.0
 41
0.046875
 42
0.046875
 43
0.046875
 50
222.26620264229399
  0
POLYLINE
  5
2E054
  8
0
 66
     1
 10
0.0
 20
0.0
 30
0.0
  0
VERTEX
  5
2E055
  8
0
 10
1.722189093583981
 20
0.2717374720704648
 30
0.0
  0
VERTEX
  5
2E056
  8
0
 10
2.3792611196375901
 20
0.8689188882108282
 30
0.0
  0
VERTEX
  5
2E057
  8
0
 10
2.4878790703241971
 20
0.8689188882108282
 30
0.0
  0
SEQEND
  5
2E058
  8
0
  0
ENDBLK
  5
2E05A
  8
0
  0
BLOCK
  8
0
  2
*U361
 70
     1
 10
0.0
 20
0.0
 30
0.0
  3
*U361
  1

  0
TEXT
  5
2E05C
  8
0
 10
2.5462863008835419
 20
0.8061630901207874
 30
0.0
 40
0.125
  1
TL-288
  0
ENDBLK
  5
2E05E
  8
0
  0
BLOCK
  8
0
  2
*U362
 70
     1
 10
0.0
 20
0.0
 30
0.0
  3
*U362
  1

  0
TEXT
  5
2E060
  8
0
 10
1.969753734268044
 20
2.5824193190047859
 30
0.0
 40
0.125
  1
Casing Assembly
  0
TEXT
  5
2E061
  8
0
 10
1.97435809988878
 20
2.3735743894913708
 30
0.0
 40
0.125
  1
TL-673
  0
TEXT
  5
2E062
  8
0
 10
1.9594365446363931
 20
2.1631094054076971
 30
0.0
 40
0.125
  1
1-11/16" x 4-7/8"
  0
TEXT
  5
2E063
  8
0
 10
1.9713737888383029
 20
1.9526444213240219
 30
0.0
 40
0.125
  1
800.66.TAGUE
  0
ENDBLK
  5
2E065
  8
0
  0
BLOCK
  8
0
  2
*U363
 70
     1
 10
0.0
 20
0.0
 30
0.0
  3
*U363
  1

  0
INSERT
  5
2E067
  8
0
  6
CONTINUOUS
  2
_OPEN30
 10
1.4994021531804831
 20
4.3629249403079484
 30
0.0
 41
0.046875
 42
0.046875
 43
0.046875
 50
134.00000000000509
  0
POLYLINE
  5
2E068
  8
0
  6
CONTINUOUS
 66
     1
 10
0.0
 20
0.0
 30
0.0
  0
VERTEX
  5
2E069
  8
0
  6
CONTINUOUS
 10
1.5319642642957509
 20
4.3292058871670758
 30
0.0
  0
VERTEX
  5
2E06A
  8
0
  6
CONTINUOUS
 10
1.929846722834156
 20
3.9171865400251131
 30
0.0
  0
VERTEX
  5
2E06B
  8
0
  6
CONTINUOUS
 10
2.0080997334262629
 20
3.9159487828992492
 30
0.0
  0
SEQEND
  5
2E06C
  8
0
  6
CONTINUOUS
  0
ENDBLK
  5
2E06E
  8
0
  0
BLOCK
  8
0
  2
*U364
 70
     1
 10
0.0
 20
0.0
 30
0.0
  3
*U364
  1

  0
TEXT
  5
2E070
  8
0
 10
2.0665069639856082
 20
3.8531929848092079
 30
0.0
 40
0.125
  1
TL-35
  0
ENDBLK
  5
2E072
  8
0
  0
BLOCK
  8
0
  2
*U365
 70
     1
 10
0.0
 20
0.0
 30
0.0
  3
*U365
  1

  0
INSERT
  5
2E074
  8
0
  6
CONTINUOUS
  2
_OPEN30
 10
0.7500014986160295
 20
2.5599999477685742
 30
0.0
 41
0.046875
 42
0.046875
 43
0.046875
 50
211.22282036974971
  0
POLYLINE
  5
2E075
  8
0
  6
CONTINUOUS
 66
     1
 10
0.0
 20
0.0
 30
0.0
  0
VERTEX
  5
2E076
  8
0
  6
CONTINUOUS
 10
0.7900870236334329
 20
2.5842984314471731
 30
0.0
  0
VERTEX
  5
2E077
  8
0
  6
CONTINUOUS
 10
1.202239508309787
 20
2.8341312680547608
 30
0.0
  0
VERTEX
  5
2E078
  8
0
  6
CONTINUOUS
 10
1.296378713534295
 20
2.8341312680547608
 30
0.0
  0
SEQEND
  5
2E079
  8
0
  6
CONTINUOUS
  0
ENDBLK
  5
2E07B
  8
0
  0
BLOCK
  8
0
  2
*U366
 70
     1
 10
0.0
 20
0.0
 30
0.0
  3
*U366
  1

  0
TEXT
  5
2E07D
  8
0
 10
1.351545834953122
 20
2.7694996173044202
 30
0.0
 40
0.125
  1
3/4" x 3-1/2" Board
  0
TEXT
  5
2E07E
  8
0
 10
1.358878713534295
 20
2.5611662839710871
 30
0.0
 40
0.125
  1
 
  0
ENDBLK
  5
2E080
  8
0
  0
BLOCK
  8
0
  2
*U367
 70
     1
 10
0.0
 20
0.0
 30
0.0
  3
*U367
  1

  0
INSERT
  5
2E082
  8
0
  6
CONTINUOUS
  2
_OPEN30
 10
1.125001498616029
 20
0.1562499477686288
 30
0.0
 41
0.046875
 42
0.046875
 43
0.046875
 50
212.76268937861931
  0
POLYLINE
  5
2E083
  8
0
  6
CONTINUOUS
 66
     1
 10
0.0
 20
0.0
 30
0.0
  0
VERTEX
  5
2E084
  8
0
  6
CONTINUOUS
 10
1.1644195852697261
 20
0.1816168567163431
 30
0.0
  0
VERTEX
  5
2E085
  8
0
  6
CONTINUOUS
 10
1.556691529198474
 20
0.4340574881402972
 30
0.0
  0
VERTEX
  5
2E086
  8
0
  6
CONTINUOUS
 10
1.6253854855608549
 20
0.4340574881402972
 30
0.0
  0
SEQEND
  5
2E087
  8
0
  6
CONTINUOUS
  0
ENDBLK
  5
2E089
  8
0
  0
BLOCK
  8
0
  2
*U368
 70
     1
 10
0.0
 20
0.0
 30
0.0
  3
*U368
  1

  0
TEXT
  5
2E08B
  8
0
 10
1.6837927161202
 20
0.3710458919602153
 30
0.0
 40
0.125
  1
TL-522
  0
ENDBLK
  5
2E08D
  8
0
  0
BLOCK
  8
0
  2
*U369
 70
     1
 10
0.0
 20
0.0
 30
0.0
  3
*U369
  1

  0
TEXT
  5
2E08F
  8
0
 10
2.1851856010601169
 20
2.0762741395129911
 30
0.0
 40
0.125
  1
Casing Assembly
  0
TEXT
  5
2E090
  8
0
 10
2.1897899666808538
 20
1.867429209999576
 30
0.0
 40
0.125
  1
TL-674
  0
TEXT
  5
2E091
  8
0
 10
2.18876677432069
 20
1.6585842804861599
 30
0.0
 40
0.125
  1
2" x 5"
  0
TEXT
  5
2E092
  8
0
 10
2.1868056556303759
 20
1.448119296402486
 30
0.0
 40
0.125
  1
800.66.TAGUE
  0
ENDBLK
  5
2E094
  8
0
  0
BLOCK
  8
0
  2
*U370
 70
     1
 10
0.0
 20
0.0
 30
0.0
  3
*U370
  1

  0
TEXT
  5
2E096
  8
0
 10
2.0887645313481231
 20
2.7935520515574281
 30
0.0
 40
0.125
  1
Casing Assembly
  0
TEXT
  5
2E097
  8
0
 10
2.09336889696886
 20
2.584707122044013
 30
0.0
 40
0.125
  1
TL-670
  0
TEXT
  5
2E098
  8
0
 10
2.0784473417164731
 20
2.374242137960338
 30
0.0
 40
0.125
  1
1-9/16" x 5-3/8"
  0
TEXT
  5
2E099
  8
0
 10
2.0903845859183821
 20
2.1637771538766639
 30
0.0
 40
0.125
  1
800.66.TAGUE
  0
ENDBLK
  5
2E09B
  8
0
  0
BLOCK
  8
0
  2
*U371
 70
     1
 10
0.0
 20
0.0
 30
0.0
  3
*U371
  1

  0
INSERT
  5
2E09D
  8
0
  2
_OPEN30
 10
0.6613059133987349
 20
3.189559989571876
 30
0.0
 41
0.046875
 42
0.046875
 43
0.046875
 50
225.6431601394807
  0
POLYLINE
  5
2E09E
  8
0
 66
     1
 10
0.0
 20
0.0
 30
0.0
  0
VERTEX
  5
2E09F
  8
0
 10
0.6940773949332565
 20
3.223075592252306
 30
0.0
  0
VERTEX
  5
2E0A0
  8
0
 10
1.38883535077133
 20
3.9336089742237159
 30
0.0
  0
VERTEX
  5
2E0A1
  8
0
 10
1.503561038951772
 20
3.9336089742237159
 30
0.0
  0
SEQEND
  5
2E0A2
  8
0
  0
ENDBLK
  5
2E0A4
  8
0
  0
BLOCK
  8
0
  2
*U372
 70
     1
 10
0.0
 20
0.0
 30
0.0
  3
*U372
  1

  0
TEXT
  5
2E0A6
  8
0
 10
1.561968269511117
 20
3.8711089742237159
 30
0.0
 40
0.125
  1
TL-545
  0
ENDBLK
  5
2E0A8
  8
0
  0
BLOCK
  8
0
  2
*U373
 70
     1
 10
0.0
 20
0.0
 30
0.0
  3
*U373
  1

  0
INSERT
  5
2E0AA
  8
0
  2
_OPEN30
 10
1.1604393609841279
 20
0.9148647183836828
 30
0.0
 41
0.046875
 42
0.046875
 43
0.046875
 50
216.74842962978889
  0
POLYLINE
  5
2E0AB
  8
0
 66
     1
 10
0.0
 20
0.0
 30
0.0
  0
VERTEX
  5
2E0AC
  8
0
 10
1.197998902141109
 20
0.942910154609155
 30
0.0
  0
VERTEX
  5
2E0AD
  8
0
 10
1.7539952940069261
 20
1.3580686168622831
 30
0.0
  0
VERTEX
  5
2E0AE
  8
0
 10
1.863465545306326
 20
1.358537373401532
 30
0.0
  0
SEQEND
  5
2E0AF
  8
0
  0
ENDBLK
  5
2E0B1
  8
0
  0
BLOCK
  8
0
  2
*U374
 70
     1
 10
0.0
 20
0.0
 30
0.0
  3
*U374
  1

  0
TEXT
  5
2E0B3
  8
0
 10
1.9218727758656711
 20
1.2957815753114901
 30
0.0
 40
0.125
  1
TL-1
  0
ENDBLK
  5
2E0B5
  8
0
  0
BLOCK
  8
0
  2
*U375
 70
     1
 10
0.0
 20
0.0
 30
0.0
  3
*U375
  1

  0
TEXT
  5
2E0B7
  8
0
 10
2.2380648505203782
 20
10.70752122569969
 30
0.0
 40
0.125
  1
Casing Assembly
  0
TEXT
  5
2E0B8
  8
0
 10
2.242669216141115
 20
10.498676296186281
 30
0.0
 40
0.125
  1
TL-2225
  0
TEXT
  5
2E0B9
  8
0
 10
2.2277476608887281
 20
10.2882113121026
 30
0.0
 40
0.125
  1
1-9/16" x 4-1/2"
  0
TEXT
  5
2E0BA
  8
0
 10
2.239684905090638
 20
10.077746328018931
 30
0.0
 40
0.125
  1
800.66.TAGUE
  0
ENDBLK
  5
2E0BC
  8
0
  0
BLOCK
  8
0
  2
*U376
 70
     1
 10
0.0
 20
0.0
 30
0.0
  3
*U376
  1

  0
TEXT
  5
2E0BE
  8
0
 10
2.2380648505203782
 20
2.8289686369872848
 30
0.0
 40
0.125
  1
Casing Assembly
  0
TEXT
  5
2E0BF
  8
0
 10
2.242669216141115
 20
2.6201237074738701
 30
0.0
 40
0.125
  1
TL-2225
  0
TEXT
  5
2E0C0
  8
0
 10
2.2277476608887281
 20
2.409658723390196
 30
0.0
 40
0.125
  1
1-9/16" x 4-1/2"
  0
TEXT
  5
2E0C1
  8
0
 10
2.239684905090638
 20
2.1991937393065211
 30
0.0
 40
0.125
  1
800.66.TAGUE
  0
ENDBLK
  5
2E0C3
  8
0
  0
BLOCK
  8
0
  2
*U377
 70
     1
 10
0.0
 20
0.0
 30
0.0
  3
*U377
  1

  0
TEXT
  5
2E0C5
  8
0
 10
1.2398838988318961
 20
2.0246553009119612
 30
0.0
 40
0.125
  1
Ceiling Liner
  0
TEXT
  5
2E0C6
  8
0
 10
1.2413334213421281
 20
1.814190316828286
 30
0.0
 40
0.125
  1
5/8 x 4 T&G
  0
TEXT
  5
2E0C7
  8
0
 10
1.2413334213421281
 20
1.6037253327446119
 30
0.0
 40
0.125
  1
9/16" x 3-5/16"
  0
TEXT
  5
2E0C8
  8
0
 10
1.241503953402155
 20
1.3932603486609381
 30
0.0
 40
0.125
  1
800.66.TAGUE
  0
ENDBLK
  5
2E0CA
  8
0
  0
BLOCK
  8
0
  2
*U378
 70
     1
 10
0.0
 20
0.0
 30
0.0
  3
*U378
  1

  0
TEXT
  5
2E0CC
  8
0
 10
6.509204513732862
 20
0.5822803980633547
 30
0.0
 40
0.125
  1
3/4" x 1-5/8" w/ 1/2" Bead
  0
ENDBLK
  5
2E0CE
  8
0
  0
BLOCK
  8
0
  2
*U379
 70
     1
 10
0.0
 20
0.0
 30
0.0
  3
*U379
  1

  0
INSERT
  5
2E0D0
  8
0
  2
_OPEN30
 10
5.8191740586232754
 20
0.9739408080115481
 30
0.0
 41
0.046875
 42
0.046875
 43
0.046875
 50
148.6469199398648
  0
POLYLINE
  5
2E0D1
  8
0
 66
     1
 10
0.0
 20
0.0
 30
0.0
  0
VERTEX
  5
2E0D2
  8
0
 10
5.8592042384524721
 20
0.9495512543493315
 30
0.0
  0
VERTEX
  5
2E0D3
  8
0
 10
6.3576703920674609
 20
0.6458462234385252
 30
0.0
  0
VERTEX
  5
2E0D4
  8
0
 10
6.4540373923140351
 20
0.6458462234385252
 30
0.0
  0
SEQEND
  5
2E0D5
  8
0
  0
ENDBLK
  5
2E0D7
  8
0
  0
BLOCK
  8
0
  2
*U380
 70
     1
 10
0.0
 20
0.0
 30
0.0
  3
*U380
  1

  0
TEXT
  5
2E0D9
  8
0
 10
7.5724712311296729
 20
2.50947815758833
 30
0.0
 40
0.125
  1
TL-289
  0
ENDBLK
  5
2E0DB
  8
0
  0
BLOCK
  8
0
  2
*U381
 70
     1
 10
0.0
 20
0.0
 30
0.0
  3
*U381
  1

  0
INSERT
  5
2E0DD
  8
0
  2
_OPEN30
 10
6.7594049696429011
 20
2.1342288424906419
 30
0.0
 41
0.046875
 42
0.046875
 43
0.046875
 50
215.14605217913149
  0
POLYLINE
  5
2E0DE
  8
0
 66
     1
 10
0.0
 20
0.0
 30
0.0
  0
VERTEX
  5
2E0DF
  8
0
 10
6.7977340611619157
 20
2.1612130298663428
 30
0.0
  0
VERTEX
  5
2E0E0
  8
0
 10
7.3815596350929118
 20
2.57223395567837
 30
0.0
  0
VERTEX
  5
2E0E1
  8
0
 10
7.5140640005703281
 20
2.57223395567837
 30
0.0
  0
SEQEND
  5
2E0E2
  8
0
  0
ENDBLK
  5
2E0E4
  8
0
  0
BLOCK
  8
0
  2
*U382
 70
     1
 10
0.0
 20
0.0
 30
0.0
  3
*U382
  1

  0
TEXT
  5
2E0E6
  8
0
 10
8.7744421834948181
 20
1.4316060630913101
 30
0.0
 40
0.125
  1
Chair Rail Assembly
  0
TEXT
  5
2E0E7
  8
0
 10
8.779046549115554
 20
1.222761133577895
 30
0.0
 40
0.125
  1
TL-650
  0
TEXT
  5
2E0E8
  8
0
 10
8.7641249938631667
 20
1.01229614949422
 30
0.0
 40
0.125
  1
1-11/16" x 2-1/2"
  0
TEXT
  5
2E0E9
  8
0
 10
8.7760622380650766
 20
0.8018311654105463
 30
0.0
 40
0.125
  1
800.66.TAGUE
  0
ENDBLK
  5
2E0EB
  8
0
  0
BLOCK
  8
0
  2
*U383
 70
     1
 10
0.0
 20
0.0
 30
0.0
  3
*U383
  1

  0
TEXT
  5
2E0ED
  8
0
 10
8.8096660910422653
 20
2.1403546604519921
 30
0.0
 40
0.125
  1
Chair Rail Assembly
  0
TEXT
  5
2E0EE
  8
0
 10
8.8142704566630012
 20
1.9315097309385769
 30
0.0
 40
0.125
  1
TL-651
  0
TEXT
  5
2E0EF
  8
0
 10
8.7993489014106139
 20
1.7210447468549019
 30
0.0
 40
0.125
  1
1-7/16" x 3-1/2"
  0
TEXT
  5
2E0F0
  8
0
 10
8.8112861456125238
 20
1.5105797627712281
 30
0.0
 40
0.125
  1
800.66.TAGUE
  0
ENDBLK
  5
2E0F2
  8
0
  0
BLOCK
  8
0
  2
*U384
 70
     1
 10
0.0
 20
0.0
 30
0.0
  3
*U384
  1

  0
TEXT
  5
2E0F4
  8
0
 10
8.0039689737552102
 20
1.309018014052082
 30
0.0
 40
0.125
  1
TL-133
  0
ENDBLK
  5
2E0F6
  8
0
  0
BLOCK
  8
0
  2
*U385
 70
     1
 10
0.0
 20
0.0
 30
0.0
  3
*U385
  1

  0
INSERT
  5
2E0F8
  8
0
  2
_OPEN30
 10
6.8221132174458026
 20
1.7499998608506071
 30
0.0
 41
0.046875
 42
0.046875
 43
0.046875
 50
160.01797374564649
  0
POLYLINE
  5
2E0F9
  8
0
 66
     1
 10
0.0
 20
0.0
 30
0.0
  0
VERTEX
  5
2E0FA
  8
0
 10
6.8661663361937171
 20
1.7339814853530049
 30
0.0
  0
VERTEX
  5
2E0FB
  8
0
 10
7.8622959151109617
 20
1.371773812142123
 30
0.0
  0
VERTEX
  5
2E0FC
  8
0
 10
7.9455617431958672
 20
1.371773812142123
 30
0.0
  0
SEQEND
  5
2E0FD
  8
0
  0
ENDBLK
  5
2E0FF
  8
0
  0
BLOCK
  8
0
  2
*U386
 70
     1
 10
0.0
 20
0.0
 30
0.0
  3
*U386
  1

  0
TEXT
  5
2E101
  8
0
 10
7.7888640253674497
 20
3.6948264359828151
 30
0.0
 40
0.125
  1
TL-DB3
  0
ENDBLK
  5
2E103
  8
0
  0
BLOCK
  8
0
  2
*U387
 70
     1
 10
0.0
 20
0.0
 30
0.0
  3
*U387
  1

  0
INSERT
  5
2E105
  8
0
  2
_OPEN30
 10
6.1343749466776103
 20
3.2499998594427089
 30
0.0
 41
0.046875
 42
0.046875
 43
0.046875
 50
198.54771262981939
  0
POLYLINE
  5
2E106
  8
0
 66
     1
 10
0.0
 20
0.0
 30
0.0
  0
VERTEX
  5
2E107
  8
0
 10
6.1788152166786894
 20
3.2649105276782771
 30
0.0
  0
VERTEX
  5
2E108
  8
0
 10
7.6471909667232012
 20
3.757582234072856
 30
0.0
  0
VERTEX
  5
2E109
  8
0
 10
7.7304567948081049
 20
3.757582234072856
 30
0.0
  0
SEQEND
  5
2E10A
  8
0
  0
ENDBLK
  5
2E10C
  8
0
  0
BLOCK
  8
0
  2
*U388
 70
     1
 10
0.0
 20
0.0
 30
0.0
  3
*U388
  1

  0
TEXT
  5
2E10E
  8
0
 10
7.9608352222591403
 20
2.242237793209612
 30
0.0
 40
0.125
  1
Chair Rail Assembly
  0
TEXT
  5
2E10F
  8
0
 10
7.9654395878798763
 20
2.0333928636961969
 30
0.0
 40
0.125
  1
TL-652
  0
TEXT
  5
2E110
  8
0
 10
7.950518032627488
 20
1.822927879612523
 30
0.0
 40
0.125
  1
1-1/2" x 3-1/2"
  0
TEXT
  5
2E111
  8
0
 10
7.9624552768293979
 20
1.612462895528848
 30
0.0
 40
0.125
  1
800.66.TAGUE
  0
ENDBLK
  5
2E113
  8
0
  0
BLOCK
  8
0
  2
*U389
 70
     1
 10
0.0
 20
0.0
 30
0.0
  3
*U389
  1

  0
TEXT
  5
2E115
  8
0
 10
7.5971917765434158
 20
1.309126456076239
 30
0.0
 40
0.125
  1
TL-116
  0
ENDBLK
  5
2E117
  8
0
  0
BLOCK
  8
0
  2
*U390
 70
     1
 10
0.0
 20
0.0
 30
0.0
  3
*U390
  1

  0
INSERT
  5
2E119
  8
0
  2
_OPEN30
 10
6.9078601120227736
 20
1.749999340831095
 30
0.0
 41
0.046875
 42
0.046875
 43
0.046875
 50
146.87144206811939
  0
POLYLINE
  5
2E11A
  8
0
 66
     1
 10
0.0
 20
0.0
 30
0.0
  0
VERTEX
  5
2E11B
  8
0
 10
6.9471154129136998
 20
1.724381242209948
 30
0.0
  0
VERTEX
  5
2E11C
  8
0
 10
7.4750582160183958
 20
1.3798445684536771
 30
0.0
  0
VERTEX
  5
2E11D
  8
0
 10
7.538784545984071
 20
1.3718822541662801
 30
0.0
  0
SEQEND
  5
2E11E
  8
0
  0
ENDBLK
  5
2E120
  8
0
  0
BLOCK
  8
0
  2
*U391
 70
     1
 10
0.0
 20
0.0
 30
0.0
  3
*U391
  1

  0
TEXT
  5
2E122
  8
0
 10
7.1351748448466363
 20
3.825113020820492
 30
0.0
 40
0.125
  1
TL-DB3
  0
ENDBLK
  5
2E124
  8
0
  0
BLOCK
  8
0
  2
*U392
 70
     1
 10
0.0
 20
0.0
 30
0.0
  3
*U392
  1

  0
INSERT
  5
2E126
  8
0
  2
_OPEN30
 10
6.1578601237559951
 20
3.249999339423197
 30
0.0
 41
0.046875
 42
0.046875
 43
0.046875
 50
216.9761519264143
  0
POLYLINE
  5
2E127
  8
0
 66
     1
 10
0.0
 20
0.0
 30
0.0
  0
VERTEX
  5
2E128
  8
0
 10
6.1953079018543598
 20
3.2781938342847048
 30
0.0
  0
VERTEX
  5
2E129
  8
0
 10
7.0050749733532021
 20
3.8878688189105328
 30
0.0
  0
VERTEX
  5
2E12A
  8
0
 10
7.0767676142872906
 20
3.8878688189105328
 30
0.0
  0
SEQEND
  5
2E12B
  8
0
  0
ENDBLK
  5
2E12D
  8
0
  0
BLOCK
  8
0
  2
*U393
 70
     1
 10
0.0
 20
0.0
 30
0.0
  3
*U393
  1

  0
TEXT
  5
2E12F
  8
0
 10
8.1651173358793923
 20
3.4999752548728948
 30
0.0
 40
0.125
  1
Chair Rail Assembly
  0
TEXT
  5
2E130
  8
0
 10
8.1697217015001282
 20
3.2911303253594801
 30
0.0
 40
0.125
  1
TL-653
  0
TEXT
  5
2E131
  8
0
 10
8.1548001462477409
 20
3.0806653412758052
 30
0.0
 40
0.125
  1
1-1/2" x 5-7/16"
  0
TEXT
  5
2E132
  8
0
 10
8.1667373904496507
 20
2.8702003571921311
 30
0.0
 40
0.125
  1
800.66.TAGUE
  0
ENDBLK
  5
2E134
  8
0
  0
BLOCK
  8
0
  2
*U394
 70
     1
 10
0.0
 20
0.0
 30
0.0
  3
*U394
  1

  0
TEXT
  5
2E136
  8
0
 10
7.3899986573591772
 20
2.5315573398911622
 30
0.0
 40
0.125
  1
TL-390
  0
ENDBLK
  5
2E138
  8
0
  0
BLOCK
  8
0
  2
*U395
 70
     1
 10
0.0
 20
0.0
 30
0.0
  3
*U395
  1

  0
INSERT
  5
2E13A
  8
0
  2
_OPEN30
 10
6.7591924497347122
 20
3.114732246303447
 30
0.0
 41
0.046875
 42
0.046875
 43
0.046875
 50
132.93792903708609
  0
POLYLINE
  5
2E13B
  8
0
 66
     1
 10
0.0
 20
0.0
 30
0.0
  0
VERTEX
  5
2E13C
  8
0
 10
6.7911239647348536
 20
3.080415428636365
 30
0.0
  0
VERTEX
  5
2E13D
  8
0
 10
7.2434381255711742
 20
2.5943131379812021
 30
0.0
  0
VERTEX
  5
2E13E
  8
0
 10
7.3315914267998323
 20
2.5943131379812021
 30
0.0
  0
SEQEND
  5
2E13F
  8
0
  0
ENDBLK
  5
2E141
  8
0
  0
BLOCK
  8
0
  2
*U396
 70
     1
 10
0.0
 20
0.0
 30
0.0
  3
*U396
  1

  0
TEXT
  5
2E143
  8
0
 10
7.0550206862507761
 20
5.1338304609951253
 30
0.0
 40
0.125
  1
TL-468
  0
ENDBLK
  5
2E145
  8
0
  0
BLOCK
  8
0
  2
*U397
 70
     1
 10
0.0
 20
0.0
 30
0.0
  3
*U397
  1

  0
INSERT
  5
2E147
  8
0
  2
_OPEN30
 10
6.2025017924829049
 20
4.7139996674121667
 30
0.0
 41
0.046875
 42
0.046875
 43
0.046875
 50
214.0515843714972
  0
POLYLINE
  5
2E148
  8
0
 66
     1
 10
0.0
 20
0.0
 30
0.0
  0
VERTEX
  5
2E149
  8
0
 10
6.2413393136866038
 20
4.7402468114806604
 30
0.0
  0
VERTEX
  5
2E14A
  8
0
 10
6.9165782244867842
 20
5.1965862590851648
 30
0.0
  0
VERTEX
  5
2E14B
  8
0
 10
6.9966134556914312
 20
5.1965862590851648
 30
0.0
  0
SEQEND
  5
2E14C
  8
0
  0
ENDBLK
  5
2E14E
  8
0
  0
BLOCK
  8
0
  2
*U398
 70
     1
 10
0.0
 20
0.0
 30
0.0
  3
*U398
  1

  0
TEXT
  5
2E150
  8
0
 10
8.4372908295851285
 20
2.497359873693783
 30
0.0
 40
0.125
  1
Chair Rail Assembly
  0
TEXT
  5
2E151
  8
0
 10
8.4418951952058645
 20
2.2885149441803678
 30
0.0
 40
0.125
  1
TL-654
  0
TEXT
  5
2E152
  8
0
 10
8.4269736399534771
 20
2.0780499600966928
 30
0.0
 40
0.125
  1
1-5/8" x 4-1/4"
  0
TEXT
  5
2E153
  8
0
 10
8.438910884155387
 20
1.867584976013019
 30
0.0
 40
0.125
  1
800.66.TAGUE
  0
ENDBLK
  5
2E155
  8
0
  0
BLOCK
  8
0
  2
*U399
 70
     1
 10
0.0
 20
0.0
 30
0.0
  3
*U399
  1

  0
TEXT
  5
2E157
  8
0
 10
7.4610545718214256
 20
1.900488391075452
 30
0.0
 40
0.125
  1
TL-300
  0
ENDBLK
  5
2E159
  8
0
  0
BLOCK
  8
0
  2
*U400
 70
     1
 10
0.0
 20
0.0
 30
0.0
  3
*U400
  1

  0
INSERT
  5
2E15B
  8
0
  2
_OPEN30
 10
6.8506487564097824
 20
2.3008926258520428
 30
0.0
 41
0.046875
 42
0.046875
 43
0.046875
 50
144.8547723867911
  0
POLYLINE
  5
2E15C
  8
0
 66
     1
 10
0.0
 20
0.0
 30
0.0
  0
VERTEX
  5
2E15D
  8
0
 10
6.8889782362648004
 20
2.2739089900880511
 30
0.0
  0
VERTEX
  5
2E15E
  8
0
 10
7.330268666241408
 20
1.963244189165493
 30
0.0
  0
VERTEX
  5
2E15F
  8
0
 10
7.4026473412620808
 20
1.963244189165493
 30
0.0
  0
SEQEND
  5
2E160
  8
0
  0
ENDBLK
  5
2E162
  8
0
  0
BLOCK
  8
0
  2
*U401
 70
     1
 10
0.0
 20
0.0
 30
0.0
  3
*U401
  1

  0
TEXT
  5
2E164
  8
0
 10
7.1498320901277497
 20
3.4269050234272629
 30
0.0
 40
0.125
  1
TL-304
  0
ENDBLK
  5
2E166
  8
0
  0
BLOCK
  8
0
  2
*U402
 70
     1
 10
0.0
 20
0.0
 30
0.0
  3
*U402
  1

  0
INSERT
  5
2E168
  8
0
  2
_OPEN30
 10
5.7711768465040327
 20
4.0430179863308231
 30
0.0
 41
0.046875
 42
0.046875
 43
0.046875
 50
155.6837605735858
  0
POLYLINE
  5
2E169
  8
0
 66
     1
 10
0.0
 20
0.0
 30
0.0
  0
VERTEX
  5
2E16A
  8
0
 10
5.8138934060624861
 20
4.0237161427792572
 30
0.0
  0
VERTEX
  5
2E16B
  8
0
 10
7.0118116432713569
 20
3.4824265201790459
 30
0.0
  0
VERTEX
  5
2E16C
  8
0
 10
7.0914248595684048
 20
3.4896608215173042
 30
0.0
  0
SEQEND
  5
2E16D
  8
0
  0
ENDBLK
  5
2E16F
  8
0
  0
BLOCK
  8
0
  2
*U403
 70
     1
 10
0.0
 20
0.0
 30
0.0
  3
*U403
  1

  0
TEXT
  5
2E171
  8
0
 10
-376.97132904177511
 20
845.5122965223718
 30
0.0
 40
0.125
  1
Chair Rail Assembly
  0
TEXT
  5
2E172
  8
0
 10
-376.96672467615451
 20
845.30345159285855
 30
0.0
 40
0.125
  1
TL-654
  0
TEXT
  5
2E173
  8
0
 10
-376.98164623140678
 20
845.09298660877471
 30
0.0
 40
0.125
  1
1-5/8" x 4-1/4"
  0
TEXT
  5
2E174
  8
0
 10
-376.96970898720491
 20
844.88252162469132
 30
0.0
 40
0.125
  1
800.66.TAGUE
  0
ENDBLK
  5
2E176
  8
0
  0
BLOCK
  8
0
  2
*U404
 70
     1
 10
0.0
 20
0.0
 30
0.0
  3
*U404
  1

  0
TEXT
  5
2E178
  8
0
 10
-377.94756529953889
 20
844.91542503975347
 30
0.0
 40
0.125
  1
TL-300
  0
ENDBLK
  5
2E17A
  8
0
  0
BLOCK
  8
0
  2
*U405
 70
     1
 10
0.0
 20
0.0
 30
0.0
  3
*U405
  1

  0
INSERT
  5
2E17C
  8
0
  2
_OPEN30
 10
-378.55797111495048
 20
845.31582927453007
 30
0.0
 41
0.046875
 42
0.046875
 43
0.046875
 50
144.8547723867911
  0
POLYLINE
  5
2E17D
  8
0
 66
     1
 10
0.0
 20
0.0
 30
0.0
  0
VERTEX
  5
2E17E
  8
0
 10
-378.51964163509552
 20
845.28884563876625
 30
0.0
  0
VERTEX
  5
2E17F
  8
0
 10
-378.07835120511891
 20
844.97818083784352
 30
0.0
  0
VERTEX
  5
2E180
  8
0
 10
-378.00597253009818
 20
844.97818083784352
 30
0.0
  0
SEQEND
  5
2E181
  8
0
  0
ENDBLK
  5
2E183
  8
0
  0
BLOCK
  8
0
  2
*U406
 70
     1
 10
0.0
 20
0.0
 30
0.0
  3
*U406
  1

  0
TEXT
  5
2E185
  8
0
 10
-378.25878778123263
 20
846.4418416721054
 30
0.0
 40
0.125
  1
TL-304
  0
ENDBLK
  5
2E187
  8
0
  0
BLOCK
  8
0
  2
*U407
 70
     1
 10
0.0
 20
0.0
 30
0.0
  3
*U407
  1

  0
INSERT
  5
2E189
  8
0
  2
_OPEN30
 10
-379.63744302485628
 20
847.05795463500885
 30
0.0
 41
0.046875
 42
0.046875
 43
0.046875
 50
155.6837605735858
  0
POLYLINE
  5
2E18A
  8
0
 66
     1
 10
0.0
 20
0.0
 30
0.0
  0
VERTEX
  5
2E18B
  8
0
 10
-379.59472646529781
 20
847.03865279145725
 30
0.0
  0
VERTEX
  5
2E18C
  8
0
 10
-378.3968082280889
 20
846.49736316885719
 30
0.0
  0
VERTEX
  5
2E18D
  8
0
 10
-378.31719501179191
 20
846.50459747019545
 30
0.0
  0
SEQEND
  5
2E18E
  8
0
  0
ENDBLK
  5
2E190
  8
0
  0
ENDSEC
  0
SECTION
  2
ENTITIES
  0
INSERT
  5
2DA9A
  8
0
  2
*U403
 10
0.0
 20
0.0
 30
0.0
  0
INSERT
  5
2DA9B
  8
0
  2
*U404
 10
0.0
 20
0.0
 30
0.0
  0
INSERT
  5
2DA9C
  8
0
  2
*U405
 10
0.0
 20
0.0
 30
0.0
1001
ACAD
1000
DSTYLE
1002
{
1070
   147
1040
0.0625
1070
    77
1070
     0
1002
}
  0
INSERT
  5
2DA9D
  8
0
  2
*U406
 10
0.0
 20
0.0
 30
0.0
  0
INSERT
  5
2DA9E
  8
0
  2
*U407
 10
0.0
 20
0.0
 30
0.0
1001
ACAD
1000
DSTYLE
1002
{
1070
   147
1040
0.0625
1070
    77
1070
     0
1002
}
  0
LINE
  5
2DA9F
  8
0
 10
-379.60955925727461
 20
843.65556130026584
 30
0.0
 11
-379.60955925727473
 21
846.62431130026584
 31
0.0
  0
LINE
  5
2DAA0
  8
0
 10
-380.1614545023491
 20
847.26493630026573
 30
0.0
 11
-380.1614545023491
 21
843.01493630026584
 31
0.0
  0
LINE
  5
2DAA1
  8
0
 10
-379.43279737384961
 20
843.74321255776431
 30
0.0
 11
-379.43279737384961
 21
843.65556130026584
 31
0.0
  0
LINE
  5
2DAA2
  8
0
 10
-378.93092959099289
 20
844.91535766107063
 30
0.0
 11
-378.93092959099289
 21
844.77404996506834
 31
0.0
  0
LINE
  5
2DAA3
  8
0
 10
-378.93515250189239
 20
845.97757467324482
 30
0.0
 11
-378.9351525018925
 21
845.7123261085444
 31
0.0
  0
LINE
  5
2DAA4
  8
0
 10
-379.40115453520389
 20
846.62431130026584
 30
0.0
 11
-379.60955925727461
 21
846.62431130026584
 31
0.0
  0
LINE
  5
2DAA5
  8
0
 10
-378.98448119788992
 20
846.03867104589415
 30
0.0
 11
-379.06421834106231
 21
846.05586097235732
 31
0.0
  0
LINE
  5
2DAA6
  8
0
 10
-379.05488237242031
 20
844.69354465519075
 30
0.0
 11
-378.97773947025632
 21
844.7135514517704
 31
0.0
  0
LINE
  5
2DAA7
  8
0
 10
-379.60955925727461
 20
843.65556130026584
 30
0.0
 11
-379.43279737384961
 21
843.65556130026584
 31
0.0
  0
LINE
  5
2DAA8
  8
0
 10
-380.1614545023491
 20
843.01493630026584
 30
0.0
 11
-379.74897995265951
 21
843.0149363002655
 31
0.0
  0
LINE
  5
2DAA9
  8
0
 10
-380.1614545023491
 20
847.26493630026573
 30
0.0
 11
-379.74897995265951
 21
847.26493630026573
 31
0.0
  0
ARC
  5
2DAAA
  8
0
  6
CONTINUOUS
 10
-379.87111059861297
 20
847.06558035732655
 30
0.0
 40
0.2337919730576862
 50
297.75436192246531
 51
58.507278631036947
  0
ARC
  5
2DAAB
  8
0
  6
CONTINUOUS
 10
-379.8433512303323
 20
846.63941567798395
 30
0.0
 40
0.2337919730576862
 50
0.0
 51
69.699333733315612
  0
ARC
  5
2DAAC
  8
0
  6
CONTINUOUS
 10
-378.95718617450672
 20
845.31371394658765
 30
0.0
 40
0.3992206637797162
 50
273.77104255619122
 51
86.836140095012013
  0
POLYLINE
  8
0
  5
2E273
  66
     1
 10
0.000000
 20
0.000000
 30
0.000000
  70
     8
  0
VERTEX
  8
0
  5
2E274
 10
-379.401
 20
846.624
 30
0.000000
  70
    32
  0
VERTEX
  8
0
  5
2E275
 10
-379.401
 20
846.622
 30
0.000000
  70
    32
  0
VERTEX
  8
0
  5
2E276
 10
-379.400
 20
846.620
 30
0.000000
  70
    32
  0
VERTEX
  8
0
  5
2E277
 10
-379.400
 20
846.617
 30
0.000000
  70
    32
  0
VERTEX
  8
0
  5
2E278
 10
-379.400
 20
846.615
 30
0.000000
  70
    32
  0
VERTEX
  8
0
  5
2E279
 10
-379.399
 20
846.613
 30
0.000000
  70
    32
  0
VERTEX
  8
0
  5
2E27A
 10
-379.399
 20
846.610
 30
0.000000
  70
    32
  0
VERTEX
  8
0
  5
2E27B
 10
-379.398
 20
846.608
 30
0.000000
  70
    32
  0
VERTEX
  8
0
  5
2E27C
 10
-379.398
 20
846.606
 30
0.000000
  70
    32
  0
VERTEX
  8
0
  5
2E27D
 10
-379.398
 20
846.603
 30
0.000000
  70
    32
  0
VERTEX
  8
0
  5
2E27E
 10
-379.397
 20
846.601
 30
0.000000
  70
    32
  0
VERTEX
  8
0
  5
2E27F
 10
-379.396
 20
846.599
 30
0.000000
  70
    32
  0
VERTEX
  8
0
  5
2E280
 10
-379.396
 20
846.596
 30
0.000000
  70
    32
  0
VERTEX
  8
0
  5
2E281
 10
-379.395
 20
846.594
 30
0.000000
  70
    32
  0
VERTEX
  8
0
  5
2E282
 10
-379.395
 20
846.592
 30
0.000000
  70
    32
  0
VERTEX
  8
0
  5
2E283
 10
-379.394
 20
846.589
 30
0.000000
  70
    32
  0
VERTEX
  8
0
  5
2E284
 10
-379.393
 20
846.587
 30
0.000000
  70
    32
  0
VERTEX
  8
0
  5
2E285
 10
-379.393
 20
846.585
 30
0.000000
  70
    32
  0
VERTEX
  8
0
  5
2E286
 10
-379.392
 20
846.583
 30
0.000000
  70
    32
  0
VERTEX
  8
0
  5
2E287
 10
-379.391
 20
846.580
 30
0.000000
  70
    32
  0
VERTEX
  8
0
  5
2E288
 10
-379.390
 20
846.578
 30
0.000000
  70
    32
  0
VERTEX
  8
0
  5
2E289
 10
-379.389
 20
846.576
 30
0.000000
  70
    32
  0
VERTEX
  8
0
  5
2E28A
 10
-379.389
 20
846.574
 30
0.000000
  70
    32
  0
VERTEX
  8
0
  5
2E28B
 10
-379.388
 20
846.572
 30
0.000000
  70
    32
  0
VERTEX
  8
0
  5
2E28C
 10
-379.387
 20
846.569
 30
0.000000
  70
    32
  0
VERTEX
  8
0
  5
2E28D
 10
-379.386
 20
846.567
 30
0.000000
  70
    32
  0
VERTEX
  8
0
  5
2E28E
 10
-379.385
 20
846.565
 30
0.000000
  70
    32
  0
VERTEX
  8
0
  5
2E28F
 10
-379.383
 20
846.563
 30
0.000000
  70
    32
  0
VERTEX
  8
0
  5
2E290
 10
-379.382
 20
846.561
 30
0.000000
  70
    32
  0
VERTEX
  8
0
  5
2E291
 10
-379.381
 20
846.559
 30
0.000000
  70
    32
  0
VERTEX
  8
0
  5
2E292
 10
-379.380
 20
846.557
 30
0.000000
  70
    32
  0
VERTEX
  8
0
  5
2E293
 10
-379.379
 20
846.555
 30
0.000000
  70
    32
  0
VERTEX
  8
0
  5
2E294
 10
-379.377
 20
846.553
 30
0.000000
  70
    32
  0
VERTEX
  8
0
  5
2E295
 10
-379.376
 20
846.551
 30
0.000000
  70
    32
  0
VERTEX
  8
0
  5
2E296
 10
-379.375
 20
846.549
 30
0.000000
  70
    32
  0
VERTEX
  8
0
  5
2E297
 10
-379.373
 20
846.547
 30
0.000000
  70
    32
  0
VERTEX
  8
0
  5
2E298
 10
-379.372
 20
846.545
 30
0.000000
  70
    32
  0
VERTEX
  8
0
  5
2E299
 10
-379.371
 20
846.544
 30
0.000000
  70
    32
  0
VERTEX
  8
0
  5
2E29A
 10
-379.369
 20
846.542
 30
0.000000
  70
    32
  0
VERTEX
  8
0
  5
2E29B
 10
-379.368
 20
846.540
 30
0.000000
  70
    32
  0
VERTEX
  8
0
  5
2E29C
 10
-379.366
 20
846.538
 30
0.000000
  70
    32
  0
VERTEX
  8
0
  5
2E29D
 10
-379.365
 20
846.536
 30
0.000000
  70
    32
  0
VERTEX
  8
0
  5
2E29E
 10
-379.363
 20
846.534
 30
0.000000
  70
    32
  0
VERTEX
  8
0
  5
2E29F
 10
-379.361
 20
846.533
 30
0.000000
  70
    32
  0
VERTEX
  8
0
  5
2E2A0
 10
-379.360
 20
846.531
 30
0.000000
  70
    32
  0
VERTEX
  8
0
  5
2E2A1
 10
-379.358
 20
846.529
 30
0.000000
  70
    32
  0
VERTEX
  8
0
  5
2E2A2
 10
-379.357
 20
846.527
 30
0.000000
  70
    32
  0
VERTEX
  8
0
  5
2E2A3
 10
-379.355
 20
846.525
 30
0.000000
  70
    32
  0
VERTEX
  8
0
  5
2E2A4
 10
-379.353
 20
846.524
 30
0.000000
  70
    32
  0
VERTEX
  8
0
  5
2E2A5
 10
-379.352
 20
846.522
 30
0.000000
  70
    32
  0
VERTEX
  8
0
  5
2E2A6
 10
-379.350
 20
846.520
 30
0.000000
  70
    32
  0
VERTEX
  8
0
  5
2E2A7
 10
-379.349
 20
846.518
 30
0.000000
  70
    32
  0
VERTEX
  8
0
  5
2E2A8
 10
-379.347
 20
846.517
 30
0.000000
  70
    32
  0
VERTEX
  8
0
  5
2E2A9
 10
-379.345
 20
846.515
 30
0.000000
  70
    32
  0
VERTEX
  8
0
  5
2E2AA
 10
-379.344
 20
846.513
 30
0.000000
  70
    32
  0
VERTEX
  8
0
  5
2E2AB
 10
-379.342
 20
846.511
 30
0.000000
  70
    32
  0
VERTEX
  8
0
  5
2E2AC
 10
-379.340
 20
846.510
 30
0.000000
  70
    32
  0
VERTEX
  8
0
  5
2E2AD
 10
-379.339
 20
846.508
 30
0.000000
  70
    32
  0
VERTEX
  8
0
  5
2E2AE
 10
-379.337
 20
846.506
 30
0.000000
  70
    32
  0
VERTEX
  8
0
  5
2E2AF
 10
-379.335
 20
846.504
 30
0.000000
  70
    32
  0
VERTEX
  8
0
  5
2E2B0
 10
-379.334
 20
846.503
 30
0.000000
  70
    32
  0
VERTEX
  8
0
  5
2E2B1
 10
-379.332
 20
846.501
 30
0.000000
  70
    32
  0
VERTEX
  8
0
  5
2E2B2
 10
-379.331
 20
846.499
 30
0.000000
  70
    32
  0
VERTEX
  8
0
  5
2E2B3
 10
-379.329
 20
846.497
 30
0.000000
  70
    32
  0
VERTEX
  8
0
  5
2E2B4
 10
-379.327
 20
846.496
 30
0.000000
  70
    32
  0
VERTEX
  8
0
  5
2E2B5
 10
-379.326
 20
846.494
 30
0.000000
  70
    32
  0
VERTEX
  8
0
  5
2E2B6
 10
-379.324
 20
846.492
 30
0.000000
  70
    32
  0
VERTEX
  8
0
  5
2E2B7
 10
-379.322
 20
846.491
 30
0.000000
  70
    32
  0
VERTEX
  8
0
  5
2E2B8
 10
-379.321
 20
846.489
 30
0.000000
  70
    32
  0
VERTEX
  8
0
  5
2E2B9
 10
-379.319
 20
846.487
 30
0.000000
  70
    32
  0
VERTEX
  8
0
  5
2E2BA
 10
-379.317
 20
846.485
 30
0.000000
  70
    32
  0
VERTEX
  8
0
  5
2E2BB
 10
-379.316
 20
846.484
 30
0.000000
  70
    32
  0
VERTEX
  8
0
  5
2E2BC
 10
-379.314
 20
846.482
 30
0.000000
  70
    32
  0
VERTEX
  8
0
  5
2E2BD
 10
-379.313
 20
846.480
 30
0.000000
  70
    32
  0
VERTEX
  8
0
  5
2E2BE
 10
-379.311
 20
846.479
 30
0.000000
  70
    32
  0
VERTEX
  8
0
  5
2E2BF
 10
-379.309
 20
846.477
 30
0.000000
  70
    32
  0
VERTEX
  8
0
  5
2E2C0
 10
-379.308
 20
846.475
 30
0.000000
  70
    32
  0
VERTEX
  8
0
  5
2E2C1
 10
-379.306
 20
846.473
 30
0.000000
  70
    32
  0
VERTEX
  8
0
  5
2E2C2
 10
-379.304
 20
846.472
 30
0.000000
  70
    32
  0
VERTEX
  8
0
  5
2E2C3
 10
-379.303
 20
846.470
 30
0.000000
  70
    32
  0
VERTEX
  8
0
  5
2E2C4
 10
-379.301
 20
846.468
 30
0.000000
  70
    32
  0
VERTEX
  8
0
  5
2E2C5
 10
-379.300
 20
846.466
 30
0.000000
  70
    32
  0
VERTEX
  8
0
  5
2E2C6
 10
-379.298
 20
846.465
 30
0.000000
  70
    32
  0
VERTEX
  8
0
  5
2E2C7
 10
-379.296
 20
846.463
 30
0.000000
  70
    32
  0
VERTEX
  8
0
  5
2E2C8
 10
-379.295
 20
846.461
 30
0.000000
  70
    32
  0
VERTEX
  8
0
  5
2E2C9
 10
-379.293
 20
846.460
 30
0.000000
  70
    32
  0
VERTEX
  8
0
  5
2E2CA
 10
-379.292
 20
846.458
 30
0.000000
  70
    32
  0
VERTEX
  8
0
  5
2E2CB
 10
-379.290
 20
846.456
 30
0.000000
  70
    32
  0
VERTEX
  8
0
  5
2E2CC
 10
-379.288
 20
846.454
 30
0.000000
  70
    32
  0
VERTEX
  8
0
  5
2E2CD
 10
-379.287
 20
846.453
 30
0.000000
  70
    32
  0
VERTEX
  8
0
  5
2E2CE
 10
-379.285
 20
846.451
 30
0.000000
  70
    32
  0
VERTEX
  8
0
  5
2E2CF
 10
-379.284
 20
846.449
 30
0.000000
  70
    32
  0
VERTEX
  8
0
  5
2E2D0
 10
-379.282
 20
846.448
 30
0.000000
  70
    32
  0
VERTEX
  8
0
  5
2E2D1
 10
-379.280
 20
846.446
 30
0.000000
  70
    32
  0
VERTEX
  8
0
  5
2E2D2
 10
-379.279
 20
846.444
 30
0.000000
  70
    32
  0
VERTEX
  8
0
  5
2E2D3
 10
-379.277
 20
846.442
 30
0.000000
  70
    32
  0
VERTEX
  8
0
  5
2E2D4
 10
-379.276
 20
846.441
 30
0.000000
  70
    32
  0
VERTEX
  8
0
  5
2E2D5
 10
-379.274
 20
846.439
 30
0.000000
  70
    32
  0
VERTEX
  8
0
  5
2E2D6
 10
-379.272
 20
846.437
 30
0.000000
  70
    32
  0
VERTEX
  8
0
  5
2E2D7
 10
-379.271
 20
846.436
 30
0.000000
  70
    32
  0
VERTEX
  8
0
  5
2E2D8
 10
-379.269
 20
846.434
 30
0.000000
  70
    32
  0
VERTEX
  8
0
  5
2E2D9
 10
-379.268
 20
846.432
 30
0.000000
  70
    32
  0
VERTEX
  8
0
  5
2E2DA
 10
-379.266
 20
846.430
 30
0.000000
  70
    32
  0
VERTEX
  8
0
  5
2E2DB
 10
-379.264
 20
846.429
 30
0.000000
  70
    32
  0
VERTEX
  8
0
  5
2E2DC
 10
-379.263
 20
846.427
 30
0.000000
  70
    32
  0
VERTEX
  8
0
  5
2E2DD
 10
-379.261
 20
846.425
 30
0.000000
  70
    32
  0
VERTEX
  8
0
  5
2E2DE
 10
-379.260
 20
846.423
 30
0.000000
  70
    32
  0
VERTEX
  8
0
  5
2E2DF
 10
-379.258
 20
846.422
 30
0.000000
  70
    32
  0
VERTEX
  8
0
  5
2E2E0
 10
-379.256
 20
846.420
 30
0.000000
  70
    32
  0
VERTEX
  8
0
  5
2E2E1
 10
-379.255
 20
846.418
 30
0.000000
  70
    32
  0
VERTEX
  8
0
  5
2E2E2
 10
-379.253
 20
846.417
 30
0.000000
  70
    32
  0
VERTEX
  8
0
  5
2E2E3
 10
-379.252
 20
846.415
 30
0.000000
  70
    32
  0
VERTEX
  8
0
  5
2E2E4
 10
-379.250
 20
846.413
 30
0.000000
  70
    32
  0
VERTEX
  8
0
  5
2E2E5
 10
-379.248
 20
846.411
 30
0.000000
  70
    32
  0
VERTEX
  8
0
  5
2E2E6
 10
-379.247
 20
846.410
 30
0.000000
  70
    32
  0
VERTEX
  8
0
  5
2E2E7
 10
-379.245
 20
846.408
 30
0.000000
  70
    32
  0
VERTEX
  8
0
  5
2E2E8
 10
-379.244
 20
846.406
 30
0.000000
  70
    32
  0
VERTEX
  8
0
  5
2E2E9
 10
-379.242
 20
846.404
 30
0.000000
  70
    32
  0
VERTEX
  8
0
  5
2E2EA
 10
-379.240
 20
846.403
 30
0.000000
  70
    32
  0
VERTEX
  8
0
  5
2E2EB
 10
-379.239
 20
846.401
 30
0.000000
  70
    32
  0
VERTEX
  8
0
  5
2E2EC
 10
-379.237
 20
846.399
 30
0.000000
  70
    32
  0
VERTEX
  8
0
  5
2E2ED
 10
-379.236
 20
846.397
 30
0.000000
  70
    32
  0
VERTEX
  8
0
  5
2E2EE
 10
-379.234
 20
846.396
 30
0.000000
  70
    32
  0
VERTEX
  8
0
  5
2E2EF
 10
-379.233
 20
846.394
 30
0.000000
  70
    32
  0
VERTEX
  8
0
  5
2E2F0
 10
-379.231
 20
846.392
 30
0.000000
  70
    32
  0
VERTEX
  8
0
  5
2E2F1
 10
-379.229
 20
846.390
 30
0.000000
  70
    32
  0
VERTEX
  8
0
  5
2E2F2
 10
-379.228
 20
846.389
 30
0.000000
  70
    32
  0
VERTEX
  8
0
  5
2E2F3
 10
-379.226
 20
846.387
 30
0.000000
  70
    32
  0
VERTEX
  8
0
  5
2E2F4
 10
-379.225
 20
846.385
 30
0.000000
  70
    32
  0
VERTEX
  8
0
  5
2E2F5
 10
-379.223
 20
846.383
 30
0.000000
  70
    32
  0
VERTEX
  8
0
  5
2E2F6
 10
-379.221
 20
846.382
 30
0.000000
  70
    32
  0
VERTEX
  8
0
  5
2E2F7
 10
-379.220
 20
846.380
 30
0.000000
  70
    32
  0
VERTEX
  8
0
  5
2E2F8
 10
-379.218
 20
846.378
 30
0.000000
  70
    32
  0
VERTEX
  8
0
  5
2E2F9
 10
-379.217
 20
846.376
 30
0.000000
  70
    32
  0
VERTEX
  8
0
  5
2E2FA
 10
-379.215
 20
846.375
 30
0.000000
  70
    32
  0
VERTEX
  8
0
  5
2E2FB
 10
-379.213
 20
846.373
 30
0.000000
  70
    32
  0
VERTEX
  8
0
  5
2E2FC
 10
-379.212
 20
846.371
 30
0.000000
  70
    32
  0
VERTEX
  8
0
  5
2E2FD
 10
-379.210
 20
846.369
 30
0.000000
  70
    32
  0
VERTEX
  8
0
  5
2E2FE
 10
-379.209
 20
846.368
 30
0.000000
  70
    32
  0
VERTEX
  8
0
  5
2E2FF
 10
-379.207
 20
846.366
 30
0.000000
  70
    32
  0
VERTEX
  8
0
  5
2E300
 10
-379.206
 20
846.364
 30
0.000000
  70
    32
  0
VERTEX
  8
0
  5
2E301
 10
-379.204
 20
846.362
 30
0.000000
  70
    32
  0
VERTEX
  8
0
  5
2E302
 10
-379.202
 20
846.361
 30
0.000000
  70
    32
  0
VERTEX
  8
0
  5
2E303
 10
-379.201
 20
846.359
 30
0.000000
  70
    32
  0
VERTEX
  8
0
  5
2E304
 10
-379.199
 20
846.357
 30
0.000000
  70
    32
  0
VERTEX
  8
0
  5
2E305
 10
-379.198
 20
846.355
 30
0.000000
  70
    32
  0
VERTEX
  8
0
  5
2E306
 10
-379.196
 20
846.354
 30
0.000000
  70
    32
  0
VERTEX
  8
0
  5
2E307
 10
-379.194
 20
846.352
 30
0.000000
  70
    32
  0
VERTEX
  8
0
  5
2E308
 10
-379.193
 20
846.350
 30
0.000000
  70
    32
  0
VERTEX
  8
0
  5
2E309
 10
-379.191
 20
846.348
 30
0.000000
  70
    32
  0
VERTEX
  8
0
  5
2E30A
 10
-379.190
 20
846.346
 30
0.000000
  70
    32
  0
VERTEX
  8
0
  5
2E30B
 10
-379.188
 20
846.345
 30
0.000000
  70
    32
  0
VERTEX
  8
0
  5
2E30C
 10
-379.186
 20
846.343
 30
0.000000
  70
    32
  0
VERTEX
  8
0
  5
2E30D
 10
-379.185
 20
846.341
 30
0.000000
  70
    32
  0
VERTEX
  8
0
  5
2E30E
 10
-379.183
 20
846.339
 30
0.000000
  70
    32
  0
VERTEX
  8
0
  5
2E30F
 10
-379.182
 20
846.338
 30
0.000000
  70
    32
  0
VERTEX
  8
0
  5
2E310
 10
-379.180
 20
846.336
 30
0.000000
  70
    32
  0
VERTEX
  8
0
  5
2E311
 10
-379.178
 20
846.334
 30
0.000000
  70
    32
  0
VERTEX
  8
0
  5
2E312
 10
-379.177
 20
846.332
 30
0.000000
  70
    32
  0
VERTEX
  8
0
  5
2E313
 10
-379.175
 20
846.331
 30
0.000000
  70
    32
  0
VERTEX
  8
0
  5
2E314
 10
-379.174
 20
846.329
 30
0.000000
  70
    32
  0
VERTEX
  8
0
  5
2E315
 10
-379.172
 20
846.327
 30
0.000000
  70
    32
  0
VERTEX
  8
0
  5
2E316
 10
-379.170
 20
846.325
 30
0.000000
  70
    32
  0
VERTEX
  8
0
  5
2E317
 10
-379.169
 20
846.323
 30
0.000000
  70
    32
  0
VERTEX
  8
0
  5
2E318
 10
-379.167
 20
846.322
 30
0.000000
  70
    32
  0
VERTEX
  8
0
  5
2E319
 10
-379.166
 20
846.320
 30
0.000000
  70
    32
  0
VERTEX
  8
0
  5
2E31A
 10
-379.164
 20
846.318
 30
0.000000
  70
    32
  0
VERTEX
  8
0
  5
2E31B
 10
-379.162
 20
846.316
 30
0.000000
  70
    32
  0
VERTEX
  8
0
  5
2E31C
 10
-379.161
 20
846.314
 30
0.000000
  70
    32
  0
VERTEX
  8
0
  5
2E31D
 10
-379.159
 20
846.313
 30
0.000000
  70
    32
  0
VERTEX
  8
0
  5
2E31E
 10
-379.158
 20
846.311
 30
0.000000
  70
    32
  0
VERTEX
  8
0
  5
2E31F
 10
-379.156
 20
846.309
 30
0.000000
  70
    32
  0
VERTEX
  8
0
  5
2E320
 10
-379.155
 20
846.307
 30
0.000000
  70
    32
  0
VERTEX
  8
0
  5
2E321
 10
-379.153
 20
846.305
 30
0.000000
  70
    32
  0
VERTEX
  8
0
  5
2E322
 10
-379.151
 20
846.304
 30
0.000000
  70
    32
  0
VERTEX
  8
0
  5
2E323
 10
-379.150
 20
846.302
 30
0.000000
  70
    32
  0
VERTEX
  8
0
  5
2E324
 10
-379.148
 20
846.300
 30
0.000000
  70
    32
  0
VERTEX
  8
0
  5
2E325
 10
-379.147
 20
846.298
 30
0.000000
  70
    32
  0
VERTEX
  8
0
  5
2E326
 10
-379.145
 20
846.296
 30
0.000000
  70
    32
  0
VERTEX
  8
0
  5
2E327
 10
-379.144
 20
846.294
 30
0.000000
  70
    32
  0
VERTEX
  8
0
  5
2E328
 10
-379.142
 20
846.293
 30
0.000000
  70
    32
  0
VERTEX
  8
0
  5
2E329
 10
-379.141
 20
846.291
 30
0.000000
  70
    32
  0
VERTEX
  8
0
  5
2E32A
 10
-379.139
 20
846.289
 30
0.000000
  70
    32
  0
VERTEX
  8
0
  5
2E32B
 10
-379.138
 20
846.287
 30
0.000000
  70
    32
  0
VERTEX
  8
0
  5
2E32C
 10
-379.137
 20
846.285
 30
0.000000
  70
    32
  0
VERTEX
  8
0
  5
2E32D
 10
-379.135
 20
846.283
 30
0.000000
  70
    32
  0
VERTEX
  8
0
  5
2E32E
 10
-379.134
 20
846.281
 30
0.000000
  70
    32
  0
VERTEX
  8
0
  5
2E32F
 10
-379.132
 20
846.279
 30
0.000000
  70
    32
  0
VERTEX
  8
0
  5
2E330
 10
-379.131
 20
846.277
 30
0.000000
  70
    32
  0
VERTEX
  8
0
  5
2E331
 10
-379.129
 20
846.276
 30
0.000000
  70
    32
  0
VERTEX
  8
0
  5
2E332
 10
-379.128
 20
846.274
 30
0.000000
  70
    32
  0
VERTEX
  8
0
  5
2E333
 10
-379.127
 20
846.272
 30
0.000000
  70
    32
  0
VERTEX
  8
0
  5
2E334
 10
-379.125
 20
846.270
 30
0.000000
  70
    32
  0
VERTEX
  8
0
  5
2E335
 10
-379.124
 20
846.268
 30
0.000000
  70
    32
  0
VERTEX
  8
0
  5
2E336
 10
-379.123
 20
846.266
 30
0.000000
  70
    32
  0
VERTEX
  8
0
  5
2E337
 10
-379.121
 20
846.264
 30
0.000000
  70
    32
  0
VERTEX
  8
0
  5
2E338
 10
-379.120
 20
846.262
 30
0.000000
  70
    32
  0
VERTEX
  8
0
  5
2E339
 10
-379.119
 20
846.260
 30
0.000000
  70
    32
  0
VERTEX
  8
0
  5
2E33A
 10
-379.118
 20
846.258
 30
0.000000
  70
    32
  0
VERTEX
  8
0
  5
2E33B
 10
-379.116
 20
846.256
 30
0.000000
  70
    32
  0
VERTEX
  8
0
  5
2E33C
 10
-379.115
 20
846.254
 30
0.000000
  70
    32
  0
VERTEX
  8
0
  5
2E33D
 10
-379.114
 20
846.252
 30
0.000000
  70
    32
  0
VERTEX
  8
0
  5
2E33E
 10
-379.113
 20
846.250
 30
0.000000
  70
    32
  0
VERTEX
  8
0
  5
2E33F
 10
-379.111
 20
846.248
 30
0.000000
  70
    32
  0
VERTEX
  8
0
  5
2E340
 10
-379.110
 20
846.246
 30
0.000000
  70
    32
  0
VERTEX
  8
0
  5
2E341
 10
-379.109
 20
846.244
 30
0.000000
  70
    32
  0
VERTEX
  8
0
  5
2E342
 10
-379.108
 20
846.242
 30
0.000000
  70
    32
  0
VERTEX
  8
0
  5
2E343
 10
-379.107
 20
846.240
 30
0.000000
  70
    32
  0
VERTEX
  8
0
  5
2E344
 10
-379.106
 20
846.238
 30
0.000000
  70
    32
  0
VERTEX
  8
0
  5
2E345
 10
-379.105
 20
846.236
 30
0.000000
  70
    32
  0
VERTEX
  8
0
  5
2E346
 10
-379.104
 20
846.234
 30
0.000000
  70
    32
  0
VERTEX
  8
0
  5
2E347
 10
-379.103
 20
846.232
 30
0.000000
  70
    32
  0
VERTEX
  8
0
  5
2E348
 10
-379.102
 20
846.229
 30
0.000000
  70
    32
  0
VERTEX
  8
0
  5
2E349
 10
-379.101
 20
846.227
 30
0.000000
  70
    32
  0
VERTEX
  8
0
  5
2E34A
 10
-379.100
 20
846.225
 30
0.000000
  70
    32
  0
VERTEX
  8
0
  5
2E34B
 10
-379.099
 20
846.223
 30
0.000000
  70
    32
  0
VERTEX
  8
0
  5
2E34C
 10
-379.098
 20
846.221
 30
0.000000
  70
    32
  0
VERTEX
  8
0
  5
2E34D
 10
-379.097
 20
846.219
 30
0.000000
  70
    32
  0
VERTEX
  8
0
  5
2E34E
 10
-379.096
 20
846.217
 30
0.000000
  70
    32
  0
VERTEX
  8
0
  5
2E34F
 10
-379.095
 20
846.214
 30
0.000000
  70
    32
  0
VERTEX
  8
0
  5
2E350
 10
-379.094
 20
846.212
 30
0.000000
  70
    32
  0
VERTEX
  8
0
  5
2E351
 10
-379.093
 20
846.210
 30
0.000000
  70
    32
  0
VERTEX
  8
0
  5
2E352
 10
-379.093
 20
846.208
 30
0.000000
  70
    32
  0
VERTEX
  8
0
  5
2E353
 10
-379.092
 20
846.206
 30
0.000000
  70
    32
  0
VERTEX
  8
0
  5
2E354
 10
-379.091
 20
846.203
 30
0.000000
  70
    32
  0
VERTEX
  8
0
  5
2E355
 10
-379.090
 20
846.201
 30
0.000000
  70
    32
  0
VERTEX
  8
0
  5
2E356
 10
-379.089
 20
846.199
 30
0.000000
  70
    32
  0
VERTEX
  8
0
  5
2E357
 10
-379.089
 20
846.197
 30
0.000000
  70
    32
  0
VERTEX
  8
0
  5
2E358
 10
-379.088
 20
846.195
 30
0.000000
  70
    32
  0
VERTEX
  8
0
  5
2E359
 10
-379.087
 20
846.192
 30
0.000000
  70
    32
  0
VERTEX
  8
0
  5
2E35A
 10
-379.086
 20
846.190
 30
0.000000
  70
    32
  0
VERTEX
  8
0
  5
2E35B
 10
-379.086
 20
846.188
 30
0.000000
  70
    32
  0
VERTEX
  8
0
  5
2E35C
 10
-379.085
 20
846.185
 30
0.000000
  70
    32
  0
VERTEX
  8
0
  5
2E35D
 10
-379.084
 20
846.183
 30
0.000000
  70
    32
  0
VERTEX
  8
0
  5
2E35E
 10
-379.084
 20
846.181
 30
0.000000
  70
    32
  0
VERTEX
  8
0
  5
2E35F
 10
-379.083
 20
846.179
 30
0.000000
  70
    32
  0
VERTEX
  8
0
  5
2E360
 10
-379.083
 20
846.176
 30
0.000000
  70
    32
  0
VERTEX
  8
0
  5
2E361
 10
-379.082
 20
846.174
 30
0.000000
  70
    32
  0
VERTEX
  8
0
  5
2E362
 10
-379.081
 20
846.172
 30
0.000000
  70
    32
  0
VERTEX
  8
0
  5
2E363
 10
-379.081
 20
846.169
 30
0.000000
  70
    32
  0
VERTEX
  8
0
  5
2E364
 10
-379.080
 20
846.167
 30
0.000000
  70
    32
  0
VERTEX
  8
0
  5
2E365
 10
-379.080
 20
846.165
 30
0.000000
  70
    32
  0
VERTEX
  8
0
  5
2E366
 10
-379.079
 20
846.162
 30
0.000000
  70
    32
  0
VERTEX
  8
0
  5
2E367
 10
-379.079
 20
846.160
 30
0.000000
  70
    32
  0
VERTEX
  8
0
  5
2E368
 10
-379.078
 20
846.158
 30
0.000000
  70
    32
  0
VERTEX
  8
0
  5
2E369
 10
-379.078
 20
846.155
 30
0.000000
  70
    32
  0
VERTEX
  8
0
  5
2E36A
 10
-379.077
 20
846.153
 30
0.000000
  70
    32
  0
VERTEX
  8
0
  5
2E36B
 10
-379.077
 20
846.151
 30
0.000000
  70
    32
  0
VERTEX
  8
0
  5
2E36C
 10
-379.076
 20
846.148
 30
0.000000
  70
    32
  0
VERTEX
  8
0
  5
2E36D
 10
-379.076
 20
846.146
 30
0.000000
  70
    32
  0
VERTEX
  8
0
  5
2E36E
 10
-379.075
 20
846.144
 30
0.000000
  70
    32
  0
VERTEX
  8
0
  5
2E36F
 10
-379.075
 20
846.141
 30
0.000000
  70
    32
  0
VERTEX
  8
0
  5
2E370
 10
-379.074
 20
846.139
 30
0.000000
  70
    32
  0
VERTEX
  8
0
  5
2E371
 10
-379.074
 20
846.137
 30
0.000000
  70
    32
  0
VERTEX
  8
0
  5
2E372
 10
-379.074
 20
846.134
 30
0.000000
  70
    32
  0
VERTEX
  8
0
  5
2E373
 10
-379.073
 20
846.132
 30
0.000000
  70
    32
  0
VERTEX
  8
0
  5
2E374
 10
-379.073
 20
846.130
 30
0.000000
  70
    32
  0
VERTEX
  8
0
  5
2E375
 10
-379.072
 20
846.127
 30
0.000000
  70
    32
  0
VERTEX
  8
0
  5
2E376
 10
-379.072
 20
846.125
 30
0.000000
  70
    32
  0
VERTEX
  8
0
  5
2E377
 10
-379.072
 20
846.122
 30
0.000000
  70
    32
  0
VERTEX
  8
0
  5
2E378
 10
-379.071
 20
846.120
 30
0.000000
  70
    32
  0
VERTEX
  8
0
  5
2E379
 10
-379.071
 20
846.118
 30
0.000000
  70
    32
  0
VERTEX
  8
0
  5
2E37A
 10
-379.071
 20
846.115
 30
0.000000
  70
    32
  0
VERTEX
  8
0
  5
2E37B
 10
-379.070
 20
846.113
 30
0.000000
  70
    32
  0
VERTEX
  8
0
  5
2E37C
 10
-379.070
 20
846.111
 30
0.000000
  70
    32
  0
VERTEX
  8
0
  5
2E37D
 10
-379.070
 20
846.108
 30
0.000000
  70
    32
  0
VERTEX
  8
0
  5
2E37E
 10
-379.069
 20
846.106
 30
0.000000
  70
    32
  0
VERTEX
  8
0
  5
2E37F
 10
-379.069
 20
846.103
 30
0.000000
  70
    32
  0
VERTEX
  8
0
  5
2E380
 10
-379.069
 20
846.101
 30
0.000000
  70
    32
  0
VERTEX
  8
0
  5
2E381
 10
-379.069
 20
846.099
 30
0.000000
  70
    32
  0
VERTEX
  8
0
  5
2E382
 10
-379.068
 20
846.096
 30
0.000000
  70
    32
  0
VERTEX
  8
0
  5
2E383
 10
-379.068
 20
846.094
 30
0.000000
  70
    32
  0
VERTEX
  8
0
  5
2E384
 10
-379.068
 20
846.091
 30
0.000000
  70
    32
  0
VERTEX
  8
0
  5
2E385
 10
-379.067
 20
846.089
 30
0.000000
  70
    32
  0
VERTEX
  8
0
  5
2E386
 10
-379.067
 20
846.087
 30
0.000000
  70
    32
  0
VERTEX
  8
0
  5
2E387
 10
-379.067
 20
846.084
 30
0.000000
  70
    32
  0
VERTEX
  8
0
  5
2E388
 10
-379.067
 20
846.082
 30
0.000000
  70
    32
  0
VERTEX
  8
0
  5
2E389
 10
-379.066
 20
846.080
 30
0.000000
  70
    32
  0
VERTEX
  8
0
  5
2E38A
 10
-379.066
 20
846.077
 30
0.000000
  70
    32
  0
VERTEX
  8
0
  5
2E38B
 10
-379.066
 20
846.075
 30
0.000000
  70
    32
  0
VERTEX
  8
0
  5
2E38C
 10
-379.066
 20
846.072
 30
0.000000
  70
    32
  0
VERTEX
  8
0
  5
2E38D
 10
-379.066
 20
846.070
 30
0.000000
  70
    32
  0
VERTEX
  8
0
  5
2E38E
 10
-379.065
 20
846.068
 30
0.000000
  70
    32
  0
VERTEX
  8
0
  5
2E38F
 10
-379.065
 20
846.065
 30
0.000000
  70
    32
  0
VERTEX
  8
0
  5
2E390
 10
-379.065
 20
846.063
 30
0.000000
  70
    32
  0
VERTEX
  8
0
  5
2E391
 10
-379.065
 20
846.061
 30
0.000000
  70
    32
  0
VERTEX
  8
0
  5
2E392
 10
-379.064
 20
846.058
 30
0.000000
  70
    32
  0
VERTEX
  8
0
  5
2E393
 10
-379.064
 20
846.056
 30
0.000000
  70
    32
  0
SEQEND
  8
0
  5
2E394
  0
ARC
  5
2DAAE
  8
0
  6
CONTINUOUS
 10
-378.99342959099289
 20
844.77404996506834
 30
0.0
 40
0.0625
 50
284.53917689847191
 51
0.0
  0
ARC
  5
2DAAF
  8
0
  6
CONTINUOUS
 10
-378.99765250189239
 20
845.97757467324482
 30
0.0
 40
0.0625
 50
0.0
 51
77.834227706549484
  0
ARC
  5
2DAB0
  8
0
  6
CONTINUOUS
 10
-379.42822618687649
 20
843.95074919388219
 30
0.0
 40
0.2075869723310639
 50
268.7382113166945
 51
61.793770172879839
  0
ARC
  5
2DAB1
  8
0
  6
CONTINUOUS
 10
-379.8433512303323
 20
843.64045692254729
 30
0.0
 40
0.2337919730576862
 50
290.30066626668429
 51
0.0
  0
ARC
  5
2DAB2
  8
0
  6
CONTINUOUS
 10
-379.87111059861297
 20
843.21429224320491
 30
0.0
 40
0.2337919730576862
 50
301.49272136896309
 51
62.245638077531851
  0
POLYLINE
  8
0
  5
2E395
  66
     1
 10
0.000000
 20
0.000000
 30
0.000000
  70
     8
  0
VERTEX
  8
0
  5
2E396
 10
-379.055
 20
844.694
 30
0.000000
  70
    32
  0
VERTEX
  8
0
  5
2E397
 10
-379.055
 20
844.691
 30
0.000000
  70
    32
  0
VERTEX
  8
0
  5
2E398
 10
-379.055
 20
844.689
 30
0.000000
  70
    32
  0
VERTEX
  8
0
  5
2E399
 10
-379.056
 20
844.687
 30
0.000000
  70
    32
  0
VERTEX
  8
0
  5
2E39A
 10
-379.056
 20
844.685
 30
0.000000
  70
    32
  0
VERTEX
  8
0
  5
2E39B
 10
-379.056
 20
844.683
 30
0.000000
  70
    32
  0
VERTEX
  8
0
  5
2E39C
 10
-379.056
 20
844.680
 30
0.000000
  70
    32
  0
VERTEX
  8
0
  5
2E39D
 10
-379.056
 20
844.678
 30
0.000000
  70
    32
  0
VERTEX
  8
0
  5
2E39E
 10
-379.057
 20
844.676
 30
0.000000
  70
    32
  0
VERTEX
  8
0
  5
2E39F
 10
-379.057
 20
844.674
 30
0.000000
  70
    32
  0
VERTEX
  8
0
  5
2E3A0
 10
-379.057
 20
844.672
 30
0.000000
  70
    32
  0
VERTEX
  8
0
  5
2E3A1
 10
-379.057
 20
844.669
 30
0.000000
  70
    32
  0
VERTEX
  8
0
  5
2E3A2
 10
-379.058
 20
844.667
 30
0.000000
  70
    32
  0
VERTEX
  8
0
  5
2E3A3
 10
-379.058
 20
844.665
 30
0.000000
  70
    32
  0
VERTEX
  8
0
  5
2E3A4
 10
-379.058
 20
844.663
 30
0.000000
  70
    32
  0
VERTEX
  8
0
  5
2E3A5
 10
-379.058
 20
844.660
 30
0.000000
  70
    32
  0
VERTEX
  8
0
  5
2E3A6
 10
-379.058
 20
844.658
 30
0.000000
  70
    32
  0
VERTEX
  8
0
  5
2E3A7
 10
-379.059
 20
844.656
 30
0.000000
  70
    32
  0
VERTEX
  8
0
  5
2E3A8
 10
-379.059
 20
844.654
 30
0.000000
  70
    32
  0
VERTEX
  8
0
  5
2E3A9
 10
-379.059
 20
844.652
 30
0.000000
  70
    32
  0
VERTEX
  8
0
  5
2E3AA
 10
-379.059
 20
844.649
 30
0.000000
  70
    32
  0
VERTEX
  8
0
  5
2E3AB
 10
-379.060
 20
844.647
 30
0.000000
  70
    32
  0
VERTEX
  8
0
  5
2E3AC
 10
-379.060
 20
844.645
 30
0.000000
  70
    32
  0
VERTEX
  8
0
  5
2E3AD
 10
-379.060
 20
844.643
 30
0.000000
  70
    32
  0
VERTEX
  8
0
  5
2E3AE
 10
-379.061
 20
844.641
 30
0.000000
  70
    32
  0
VERTEX
  8
0
  5
2E3AF
 10
-379.061
 20
844.639
 30
0.000000
  70
    32
  0
VERTEX
  8
0
  5
2E3B0
 10
-379.061
 20
844.636
 30
0.000000
  70
    32
  0
VERTEX
  8
0
  5
2E3B1
 10
-379.062
 20
844.634
 30
0.000000
  70
    32
  0
VERTEX
  8
0
  5
2E3B2
 10
-379.062
 20
844.632
 30
0.000000
  70
    32
  0
VERTEX
  8
0
  5
2E3B3
 10
-379.062
 20
844.630
 30
0.000000
  70
    32
  0
VERTEX
  8
0
  5
2E3B4
 10
-379.063
 20
844.628
 30
0.000000
  70
    32
  0
VERTEX
  8
0
  5
2E3B5
 10
-379.063
 20
844.625
 30
0.000000
  70
    32
  0
VERTEX
  8
0
  5
2E3B6
 10
-379.063
 20
844.623
 30
0.000000
  70
    32
  0
VERTEX
  8
0
  5
2E3B7
 10
-379.064
 20
844.621
 30
0.000000
  70
    32
  0
VERTEX
  8
0
  5
2E3B8
 10
-379.064
 20
844.619
 30
0.000000
  70
    32
  0
VERTEX
  8
0
  5
2E3B9
 10
-379.064
 20
844.617
 30
0.000000
  70
    32
  0
VERTEX
  8
0
  5
2E3BA
 10
-379.065
 20
844.614
 30
0.000000
  70
    32
  0
VERTEX
  8
0
  5
2E3BB
 10
-379.065
 20
844.612
 30
0.000000
  70
    32
  0
VERTEX
  8
0
  5
2E3BC
 10
-379.066
 20
844.610
 30
0.000000
  70
    32
  0
VERTEX
  8
0
  5
2E3BD
 10
-379.066
 20
844.608
 30
0.000000
  70
    32
  0
VERTEX
  8
0
  5
2E3BE
 10
-379.067
 20
844.606
 30
0.000000
  70
    32
  0
VERTEX
  8
0
  5
2E3BF
 10
-379.067
 20
844.604
 30
0.000000
  70
    32
  0
VERTEX
  8
0
  5
2E3C0
 10
-379.068
 20
844.602
 30
0.000000
  70
    32
  0
VERTEX
  8
0
  5
2E3C1
 10
-379.068
 20
844.599
 30
0.000000
  70
    32
  0
VERTEX
  8
0
  5
2E3C2
 10
-379.069
 20
844.597
 30
0.000000
  70
    32
  0
VERTEX
  8
0
  5
2E3C3
 10
-379.069
 20
844.595
 30
0.000000
  70
    32
  0
VERTEX
  8
0
  5
2E3C4
 10
-379.070
 20
844.593
 30
0.000000
  70
    32
  0
VERTEX
  8
0
  5
2E3C5
 10
-379.070
 20
844.591
 30
0.000000
  70
    32
  0
VERTEX
  8
0
  5
2E3C6
 10
-379.071
 20
844.589
 30
0.000000
  70
    32
  0
VERTEX
  8
0
  5
2E3C7
 10
-379.072
 20
844.586
 30
0.000000
  70
    32
  0
VERTEX
  8
0
  5
2E3C8
 10
-379.072
 20
844.584
 30
0.000000
  70
    32
  0
VERTEX
  8
0
  5
2E3C9
 10
-379.073
 20
844.582
 30
0.000000
  70
    32
  0
VERTEX
  8
0
  5
2E3CA
 10
-379.074
 20
844.580
 30
0.000000
  70
    32
  0
VERTEX
  8
0
  5
2E3CB
 10
-379.074
 20
844.578
 30
0.000000
  70
    32
  0
VERTEX
  8
0
  5
2E3CC
 10
-379.075
 20
844.576
 30
0.000000
  70
    32
  0
VERTEX
  8
0
  5
2E3CD
 10
-379.076
 20
844.574
 30
0.000000
  70
    32
  0
VERTEX
  8
0
  5
2E3CE
 10
-379.076
 20
844.572
 30
0.000000
  70
    32
  0
VERTEX
  8
0
  5
2E3CF
 10
-379.077
 20
844.570
 30
0.000000
  70
    32
  0
VERTEX
  8
0
  5
2E3D0
 10
-379.078
 20
844.567
 30
0.000000
  70
    32
  0
VERTEX
  8
0
  5
2E3D1
 10
-379.079
 20
844.565
 30
0.000000
  70
    32
  0
VERTEX
  8
0
  5
2E3D2
 10
-379.079
 20
844.563
 30
0.000000
  70
    32
  0
VERTEX
  8
0
  5
2E3D3
 10
-379.080
 20
844.561
 30
0.000000
  70
    32
  0
VERTEX
  8
0
  5
2E3D4
 10
-379.081
 20
844.559
 30
0.000000
  70
    32
  0
VERTEX
  8
0
  5
2E3D5
 10
-379.082
 20
844.557
 30
0.000000
  70
    32
  0
VERTEX
  8
0
  5
2E3D6
 10
-379.083
 20
844.555
 30
0.000000
  70
    32
  0
VERTEX
  8
0
  5
2E3D7
 10
-379.083
 20
844.553
 30
0.000000
  70
    32
  0
VERTEX
  8
0
  5
2E3D8
 10
-379.084
 20
844.551
 30
0.000000
  70
    32
  0
VERTEX
  8
0
  5
2E3D9
 10
-379.085
 20
844.549
 30
0.000000
  70
    32
  0
VERTEX
  8
0
  5
2E3DA
 10
-379.086
 20
844.547
 30
0.000000
  70
    32
  0
VERTEX
  8
0
  5
2E3DB
 10
-379.087
 20
844.545
 30
0.000000
  70
    32
  0
VERTEX
  8
0
  5
2E3DC
 10
-379.088
 20
844.543
 30
0.000000
  70
    32
  0
VERTEX
  8
0
  5
2E3DD
 10
-379.089
 20
844.541
 30
0.000000
  70
    32
  0
VERTEX
  8
0
  5
2E3DE
 10
-379.090
 20
844.539
 30
0.000000
  70
    32
  0
VERTEX
  8
0
  5
2E3DF
 10
-379.091
 20
844.537
 30
0.000000
  70
    32
  0
VERTEX
  8
0
  5
2E3E0
 10
-379.092
 20
844.535
 30
0.000000
  70
    32
  0
VERTEX
  8
0
  5
2E3E1
 10
-379.093
 20
844.533
 30
0.000000
  70
    32
  0
VERTEX
  8
0
  5
2E3E2
 10
-379.094
 20
844.531
 30
0.000000
  70
    32
  0
VERTEX
  8
0
  5
2E3E3
 10
-379.095
 20
844.529
 30
0.000000
  70
    32
  0
VERTEX
  8
0
  5
2E3E4
 10
-379.096
 20
844.527
 30
0.000000
  70
    32
  0
VERTEX
  8
0
  5
2E3E5
 10
-379.097
 20
844.525
 30
0.000000
  70
    32
  0
VERTEX
  8
0
  5
2E3E6
 10
-379.098
 20
844.523
 30
0.000000
  70
    32
  0
VERTEX
  8
0
  5
2E3E7
 10
-379.099
 20
844.521
 30
0.000000
  70
    32
  0
VERTEX
  8
0
  5
2E3E8
 10
-379.100
 20
844.519
 30
0.000000
  70
    32
  0
VERTEX
  8
0
  5
2E3E9
 10
-379.101
 20
844.517
 30
0.000000
  70
    32
  0
VERTEX
  8
0
  5
2E3EA
 10
-379.102
 20
844.515
 30
0.000000
  70
    32
  0
VERTEX
  8
0
  5
2E3EB
 10
-379.103
 20
844.513
 30
0.000000
  70
    32
  0
VERTEX
  8
0
  5
2E3EC
 10
-379.104
 20
844.511
 30
0.000000
  70
    32
  0
VERTEX
  8
0
  5
2E3ED
 10
-379.105
 20
844.509
 30
0.000000
  70
    32
  0
VERTEX
  8
0
  5
2E3EE
 10
-379.106
 20
844.507
 30
0.000000
  70
    32
  0
VERTEX
  8
0
  5
2E3EF
 10
-379.107
 20
844.505
 30
0.000000
  70
    32
  0
VERTEX
  8
0
  5
2E3F0
 10
-379.109
 20
844.503
 30
0.000000
  70
    32
  0
VERTEX
  8
0
  5
2E3F1
 10
-379.110
 20
844.501
 30
0.000000
  70
    32
  0
VERTEX
  8
0
  5
2E3F2
 10
-379.111
 20
844.500
 30
0.000000
  70
    32
  0
VERTEX
  8
0
  5
2E3F3
 10
-379.112
 20
844.498
 30
0.000000
  70
    32
  0
VERTEX
  8
0
  5
2E3F4
 10
-379.113
 20
844.496
 30
0.000000
  70
    32
  0
VERTEX
  8
0
  5
2E3F5
 10
-379.114
 20
844.494
 30
0.000000
  70
    32
  0
VERTEX
  8
0
  5
2E3F6
 10
-379.116
 20
844.492
 30
0.000000
  70
    32
  0
VERTEX
  8
0
  5
2E3F7
 10
-379.117
 20
844.490
 30
0.000000
  70
    32
  0
VERTEX
  8
0
  5
2E3F8
 10
-379.118
 20
844.488
 30
0.000000
  70
    32
  0
VERTEX
  8
0
  5
2E3F9
 10
-379.119
 20
844.487
 30
0.000000
  70
    32
  0
VERTEX
  8
0
  5
2E3FA
 10
-379.121
 20
844.485
 30
0.000000
  70
    32
  0
VERTEX
  8
0
  5
2E3FB
 10
-379.122
 20
844.483
 30
0.000000
  70
    32
  0
VERTEX
  8
0
  5
2E3FC
 10
-379.123
 20
844.481
 30
0.000000
  70
    32
  0
VERTEX
  8
0
  5
2E3FD
 10
-379.124
 20
844.479
 30
0.000000
  70
    32
  0
VERTEX
  8
0
  5
2E3FE
 10
-379.126
 20
844.477
 30
0.000000
  70
    32
  0
VERTEX
  8
0
  5
2E3FF
 10
-379.127
 20
844.476
 30
0.000000
  70
    32
  0
VERTEX
  8
0
  5
2E400
 10
-379.128
 20
844.474
 30
0.000000
  70
    32
  0
VERTEX
  8
0
  5
2E401
 10
-379.129
 20
844.472
 30
0.000000
  70
    32
  0
VERTEX
  8
0
  5
2E402
 10
-379.131
 20
844.470
 30
0.000000
  70
    32
  0
VERTEX
  8
0
  5
2E403
 10
-379.132
 20
844.468
 30
0.000000
  70
    32
  0
VERTEX
  8
0
  5
2E404
 10
-379.133
 20
844.467
 30
0.000000
  70
    32
  0
VERTEX
  8
0
  5
2E405
 10
-379.135
 20
844.465
 30
0.000000
  70
    32
  0
VERTEX
  8
0
  5
2E406
 10
-379.136
 20
844.463
 30
0.000000
  70
    32
  0
VERTEX
  8
0
  5
2E407
 10
-379.137
 20
844.461
 30
0.000000
  70
    32
  0
VERTEX
  8
0
  5
2E408
 10
-379.139
 20
844.460
 30
0.000000
  70
    32
  0
VERTEX
  8
0
  5
2E409
 10
-379.140
 20
844.458
 30
0.000000
  70
    32
  0
VERTEX
  8
0
  5
2E40A
 10
-379.141
 20
844.456
 30
0.000000
  70
    32
  0
VERTEX
  8
0
  5
2E40B
 10
-379.143
 20
844.454
 30
0.000000
  70
    32
  0
VERTEX
  8
0
  5
2E40C
 10
-379.144
 20
844.453
 30
0.000000
  70
    32
  0
VERTEX
  8
0
  5
2E40D
 10
-379.146
 20
844.451
 30
0.000000
  70
    32
  0
VERTEX
  8
0
  5
2E40E
 10
-379.147
 20
844.449
 30
0.000000
  70
    32
  0
VERTEX
  8
0
  5
2E40F
 10
-379.148
 20
844.447
 30
0.000000
  70
    32
  0
VERTEX
  8
0
  5
2E410
 10
-379.150
 20
844.446
 30
0.000000
  70
    32
  0
VERTEX
  8
0
  5
2E411
 10
-379.151
 20
844.444
 30
0.000000
  70
    32
  0
VERTEX
  8
0
  5
2E412
 10
-379.152
 20
844.442
 30
0.000000
  70
    32
  0
VERTEX
  8
0
  5
2E413
 10
-379.154
 20
844.440
 30
0.000000
  70
    32
  0
VERTEX
  8
0
  5
2E414
 10
-379.155
 20
844.439
 30
0.000000
  70
    32
  0
VERTEX
  8
0
  5
2E415
 10
-379.157
 20
844.437
 30
0.000000
  70
    32
  0
VERTEX
  8
0
  5
2E416
 10
-379.158
 20
844.435
 30
0.000000
  70
    32
  0
VERTEX
  8
0
  5
2E417
 10
-379.159
 20
844.434
 30
0.000000
  70
    32
  0
VERTEX
  8
0
  5
2E418
 10
-379.161
 20
844.432
 30
0.000000
  70
    32
  0
VERTEX
  8
0
  5
2E419
 10
-379.162
 20
844.430
 30
0.000000
  70
    32
  0
VERTEX
  8
0
  5
2E41A
 10
-379.164
 20
844.428
 30
0.000000
  70
    32
  0
VERTEX
  8
0
  5
2E41B
 10
-379.165
 20
844.427
 30
0.000000
  70
    32
  0
VERTEX
  8
0
  5
2E41C
 10
-379.166
 20
844.425
 30
0.000000
  70
    32
  0
VERTEX
  8
0
  5
2E41D
 10
-379.168
 20
844.423
 30
0.000000
  70
    32
  0
VERTEX
  8
0
  5
2E41E
 10
-379.169
 20
844.422
 30
0.000000
  70
    32
  0
VERTEX
  8
0
  5
2E41F
 10
-379.171
 20
844.420
 30
0.000000
  70
    32
  0
VERTEX
  8
0
  5
2E420
 10
-379.172
 20
844.418
 30
0.000000
  70
    32
  0
VERTEX
  8
0
  5
2E421
 10
-379.173
 20
844.416
 30
0.000000
  70
    32
  0
VERTEX
  8
0
  5
2E422
 10
-379.175
 20
844.415
 30
0.000000
  70
    32
  0
VERTEX
  8
0
  5
2E423
 10
-379.176
 20
844.413
 30
0.000000
  70
    32
  0
VERTEX
  8
0
  5
2E424
 10
-379.178
 20
844.411
 30
0.000000
  70
    32
  0
VERTEX
  8
0
  5
2E425
 10
-379.179
 20
844.410
 30
0.000000
  70
    32
  0
VERTEX
  8
0
  5
2E426
 10
-379.180
 20
844.408
 30
0.000000
  70
    32
  0
VERTEX
  8
0
  5
2E427
 10
-379.182
 20
844.406
 30
0.000000
  70
    32
  0
VERTEX
  8
0
  5
2E428
 10
-379.183
 20
844.404
 30
0.000000
  70
    32
  0
VERTEX
  8
0
  5
2E429
 10
-379.185
 20
844.403
 30
0.000000
  70
    32
  0
VERTEX
  8
0
  5
2E42A
 10
-379.186
 20
844.401
 30
0.000000
  70
    32
  0
VERTEX
  8
0
  5
2E42B
 10
-379.187
 20
844.399
 30
0.000000
  70
    32
  0
VERTEX
  8
0
  5
2E42C
 10
-379.189
 20
844.398
 30
0.000000
  70
    32
  0
VERTEX
  8
0
  5
2E42D
 10
-379.190
 20
844.396
 30
0.000000
  70
    32
  0
VERTEX
  8
0
  5
2E42E
 10
-379.192
 20
844.394
 30
0.000000
  70
    32
  0
VERTEX
  8
0
  5
2E42F
 10
-379.193
 20
844.392
 30
0.000000
  70
    32
  0
VERTEX
  8
0
  5
2E430
 10
-379.194
 20
844.391
 30
0.000000
  70
    32
  0
VERTEX
  8
0
  5
2E431
 10
-379.196
 20
844.389
 30
0.000000
  70
    32
  0
VERTEX
  8
0
  5
2E432
 10
-379.197
 20
844.387
 30
0.000000
  70
    32
  0
VERTEX
  8
0
  5
2E433
 10
-379.198
 20
844.385
 30
0.000000
  70
    32
  0
VERTEX
  8
0
  5
2E434
 10
-379.200
 20
844.384
 30
0.000000
  70
    32
  0
VERTEX
  8
0
  5
2E435
 10
-379.201
 20
844.382
 30
0.000000
  70
    32
  0
VERTEX
  8
0
  5
2E436
 10
-379.203
 20
844.380
 30
0.000000
  70
    32
  0
VERTEX
  8
0
  5
2E437
 10
-379.204
 20
844.378
 30
0.000000
  70
    32
  0
VERTEX
  8
0
  5
2E438
 10
-379.205
 20
844.377
 30
0.000000
  70
    32
  0
VERTEX
  8
0
  5
2E439
 10
-379.207
 20
844.375
 30
0.000000
  70
    32
  0
VERTEX
  8
0
  5
2E43A
 10
-379.208
 20
844.373
 30
0.000000
  70
    32
  0
VERTEX
  8
0
  5
2E43B
 10
-379.209
 20
844.371
 30
0.000000
  70
    32
  0
VERTEX
  8
0
  5
2E43C
 10
-379.211
 20
844.370
 30
0.000000
  70
    32
  0
VERTEX
  8
0
  5
2E43D
 10
-379.212
 20
844.368
 30
0.000000
  70
    32
  0
VERTEX
  8
0
  5
2E43E
 10
-379.213
 20
844.366
 30
0.000000
  70
    32
  0
VERTEX
  8
0
  5
2E43F
 10
-379.215
 20
844.364
 30
0.000000
  70
    32
  0
VERTEX
  8
0
  5
2E440
 10
-379.216
 20
844.363
 30
0.000000
  70
    32
  0
VERTEX
  8
0
  5
2E441
 10
-379.217
 20
844.361
 30
0.000000
  70
    32
  0
VERTEX
  8
0
  5
2E442
 10
-379.219
 20
844.359
 30
0.000000
  70
    32
  0
VERTEX
  8
0
  5
2E443
 10
-379.220
 20
844.357
 30
0.000000
  70
    32
  0
VERTEX
  8
0
  5
2E444
 10
-379.221
 20
844.356
 30
0.000000
  70
    32
  0
VERTEX
  8
0
  5
2E445
 10
-379.223
 20
844.354
 30
0.000000
  70
    32
  0
VERTEX
  8
0
  5
2E446
 10
-379.224
 20
844.352
 30
0.000000
  70
    32
  0
VERTEX
  8
0
  5
2E447
 10
-379.225
 20
844.350
 30
0.000000
  70
    32
  0
VERTEX
  8
0
  5
2E448
 10
-379.227
 20
844.349
 30
0.000000
  70
    32
  0
VERTEX
  8
0
  5
2E449
 10
-379.228
 20
844.347
 30
0.000000
  70
    32
  0
VERTEX
  8
0
  5
2E44A
 10
-379.229
 20
844.345
 30
0.000000
  70
    32
  0
VERTEX
  8
0
  5
2E44B
 10
-379.231
 20
844.343
 30
0.000000
  70
    32
  0
VERTEX
  8
0
  5
2E44C
 10
-379.232
 20
844.342
 30
0.000000
  70
    32
  0
VERTEX
  8
0
  5
2E44D
 10
-379.233
 20
844.340
 30
0.000000
  70
    32
  0
VERTEX
  8
0
  5
2E44E
 10
-379.235
 20
844.338
 30
0.000000
  70
    32
  0
VERTEX
  8
0
  5
2E44F
 10
-379.236
 20
844.336
 30
0.000000
  70
    32
  0
VERTEX
  8
0
  5
2E450
 10
-379.237
 20
844.334
 30
0.000000
  70
    32
  0
VERTEX
  8
0
  5
2E451
 10
-379.239
 20
844.333
 30
0.000000
  70
    32
  0
VERTEX
  8
0
  5
2E452
 10
-379.240
 20
844.331
 30
0.000000
  70
    32
  0
VERTEX
  8
0
  5
2E453
 10
-379.241
 20
844.329
 30
0.000000
  70
    32
  0
VERTEX
  8
0
  5
2E454
 10
-379.243
 20
844.327
 30
0.000000
  70
    32
  0
VERTEX
  8
0
  5
2E455
 10
-379.244
 20
844.326
 30
0.000000
  70
    32
  0
VERTEX
  8
0
  5
2E456
 10
-379.245
 20
844.324
 30
0.000000
  70
    32
  0
VERTEX
  8
0
  5
2E457
 10
-379.247
 20
844.322
 30
0.000000
  70
    32
  0
VERTEX
  8
0
  5
2E458
 10
-379.248
 20
844.320
 30
0.000000
  70
    32
  0
VERTEX
  8
0
  5
2E459
 10
-379.249
 20
844.318
 30
0.000000
  70
    32
  0
VERTEX
  8
0
  5
2E45A
 10
-379.251
 20
844.317
 30
0.000000
  70
    32
  0
VERTEX
  8
0
  5
2E45B
 10
-379.252
 20
844.315
 30
0.000000
  70
    32
  0
VERTEX
  8
0
  5
2E45C
 10
-379.253
 20
844.313
 30
0.000000
  70
    32
  0
VERTEX
  8
0
  5
2E45D
 10
-379.254
 20
844.311
 30
0.000000
  70
    32
  0
VERTEX
  8
0
  5
2E45E
 10
-379.256
 20
844.309
 30
0.000000
  70
    32
  0
VERTEX
  8
0
  5
2E45F
 10
-379.257
 20
844.308
 30
0.000000
  70
    32
  0
VERTEX
  8
0
  5
2E460
 10
-379.258
 20
844.306
 30
0.000000
  70
    32
  0
VERTEX
  8
0
  5
2E461
 10
-379.260
 20
844.304
 30
0.000000
  70
    32
  0
VERTEX
  8
0
  5
2E462
 10
-379.261
 20
844.302
 30
0.000000
  70
    32
  0
VERTEX
  8
0
  5
2E463
 10
-379.262
 20
844.300
 30
0.000000
  70
    32
  0
VERTEX
  8
0
  5
2E464
 10
-379.264
 20
844.299
 30
0.000000
  70
    32
  0
VERTEX
  8
0
  5
2E465
 10
-379.265
 20
844.297
 30
0.000000
  70
    32
  0
VERTEX
  8
0
  5
2E466
 10
-379.266
 20
844.295
 30
0.000000
  70
    32
  0
VERTEX
  8
0
  5
2E467
 10
-379.267
 20
844.293
 30
0.000000
  70
    32
  0
VERTEX
  8
0
  5
2E468
 10
-379.269
 20
844.291
 30
0.000000
  70
    32
  0
VERTEX
  8
0
  5
2E469
 10
-379.270
 20
844.289
 30
0.000000
  70
    32
  0
VERTEX
  8
0
  5
2E46A
 10
-379.271
 20
844.288
 30
0.000000
  70
    32
  0
VERTEX
  8
0
  5
2E46B
 10
-379.272
 20
844.286
 30
0.000000
  70
    32
  0
VERTEX
  8
0
  5
2E46C
 10
-379.274
 20
844.284
 30
0.000000
  70
    32
  0
VERTEX
  8
0
  5
2E46D
 10
-379.275
 20
844.282
 30
0.000000
  70
    32
  0
VERTEX
  8
0
  5
2E46E
 10
-379.276
 20
844.280
 30
0.000000
  70
    32
  0
VERTEX
  8
0
  5
2E46F
 10
-379.277
 20
844.278
 30
0.000000
  70
    32
  0
VERTEX
  8
0
  5
2E470
 10
-379.278
 20
844.276
 30
0.000000
  70
    32
  0
VERTEX
  8
0
  5
2E471
 10
-379.280
 20
844.275
 30
0.000000
  70
    32
  0
VERTEX
  8
0
  5
2E472
 10
-379.281
 20
844.273
 30
0.000000
  70
    32
  0
VERTEX
  8
0
  5
2E473
 10
-379.282
 20
844.271
 30
0.000000
  70
    32
  0
VERTEX
  8
0
  5
2E474
 10
-379.283
 20
844.269
 30
0.000000
  70
    32
  0
VERTEX
  8
0
  5
2E475
 10
-379.284
 20
844.267
 30
0.000000
  70
    32
  0
VERTEX
  8
0
  5
2E476
 10
-379.285
 20
844.265
 30
0.000000
  70
    32
  0
VERTEX
  8
0
  5
2E477
 10
-379.286
 20
844.263
 30
0.000000
  70
    32
  0
VERTEX
  8
0
  5
2E478
 10
-379.288
 20
844.261
 30
0.000000
  70
    32
  0
VERTEX
  8
0
  5
2E479
 10
-379.289
 20
844.259
 30
0.000000
  70
    32
  0
VERTEX
  8
0
  5
2E47A
 10
-379.290
 20
844.257
 30
0.000000
  70
    32
  0
VERTEX
  8
0
  5
2E47B
 10
-379.291
 20
844.256
 30
0.000000
  70
    32
  0
VERTEX
  8
0
  5
2E47C
 10
-379.292
 20
844.254
 30
0.000000
  70
    32
  0
VERTEX
  8
0
  5
2E47D
 10
-379.293
 20
844.252
 30
0.000000
  70
    32
  0
VERTEX
  8
0
  5
2E47E
 10
-379.294
 20
844.250
 30
0.000000
  70
    32
  0
VERTEX
  8
0
  5
2E47F
 10
-379.295
 20
844.248
 30
0.000000
  70
    32
  0
VERTEX
  8
0
  5
2E480
 10
-379.296
 20
844.246
 30
0.000000
  70
    32
  0
VERTEX
  8
0
  5
2E481
 10
-379.297
 20
844.244
 30
0.000000
  70
    32
  0
VERTEX
  8
0
  5
2E482
 10
-379.298
 20
844.242
 30
0.000000
  70
    32
  0
VERTEX
  8
0
  5
2E483
 10
-379.299
 20
844.240
 30
0.000000
  70
    32
  0
VERTEX
  8
0
  5
2E484
 10
-379.300
 20
844.238
 30
0.000000
  70
    32
  0
VERTEX
  8
0
  5
2E485
 10
-379.301
 20
844.236
 30
0.000000
  70
    32
  0
VERTEX
  8
0
  5
2E486
 10
-379.302
 20
844.234
 30
0.000000
  70
    32
  0
VERTEX
  8
0
  5
2E487
 10
-379.303
 20
844.232
 30
0.000000
  70
    32
  0
VERTEX
  8
0
  5
2E488
 10
-379.304
 20
844.230
 30
0.000000
  70
    32
  0
VERTEX
  8
0
  5
2E489
 10
-379.305
 20
844.228
 30
0.000000
  70
    32
  0
VERTEX
  8
0
  5
2E48A
 10
-379.305
 20
844.226
 30
0.000000
  70
    32
  0
VERTEX
  8
0
  5
2E48B
 10
-379.306
 20
844.224
 30
0.000000
  70
    32
  0
VERTEX
  8
0
  5
2E48C
 10
-379.307
 20
844.222
 30
0.000000
  70
    32
  0
VERTEX
  8
0
  5
2E48D
 10
-379.308
 20
844.220
 30
0.000000
  70
    32
  0
VERTEX
  8
0
  5
2E48E
 10
-379.309
 20
844.218
 30
0.000000
  70
    32
  0
VERTEX
  8
0
  5
2E48F
 10
-379.310
 20
844.215
 30
0.000000
  70
    32
  0
VERTEX
  8
0
  5
2E490
 10
-379.310
 20
844.213
 30
0.000000
  70
    32
  0
VERTEX
  8
0
  5
2E491
 10
-379.311
 20
844.211
 30
0.000000
  70
    32
  0
VERTEX
  8
0
  5
2E492
 10
-379.312
 20
844.209
 30
0.000000
  70
    32
  0
VERTEX
  8
0
  5
2E493
 10
-379.313
 20
844.207
 30
0.000000
  70
    32
  0
VERTEX
  8
0
  5
2E494
 10
-379.313
 20
844.205
 30
0.000000
  70
    32
  0
VERTEX
  8
0
  5
2E495
 10
-379.314
 20
844.203
 30
0.000000
  70
    32
  0
VERTEX
  8
0
  5
2E496
 10
-379.315
 20
844.201
 30
0.000000
  70
    32
  0
VERTEX
  8
0
  5
2E497
 10
-379.315
 20
844.199
 30
0.000000
  70
    32
  0
VERTEX
  8
0
  5
2E498
 10
-379.316
 20
844.197
 30
0.000000
  70
    32
  0
VERTEX
  8
0
  5
2E499
 10
-379.317
 20
844.194
 30
0.000000
  70
    32
  0
VERTEX
  8
0
  5
2E49A
 10
-379.317
 20
844.192
 30
0.000000
  70
    32
  0
VERTEX
  8
0
  5
2E49B
 10
-379.318
 20
844.190
 30
0.000000
  70
    32
  0
VERTEX
  8
0
  5
2E49C
 10
-379.319
 20
844.188
 30
0.000000
  70
    32
  0
VERTEX
  8
0
  5
2E49D
 10
-379.319
 20
844.186
 30
0.000000
  70
    32
  0
VERTEX
  8
0
  5
2E49E
 10
-379.320
 20
844.184
 30
0.000000
  70
    32
  0
VERTEX
  8
0
  5
2E49F
 10
-379.320
 20
844.182
 30
0.000000
  70
    32
  0
VERTEX
  8
0
  5
2E4A0
 10
-379.321
 20
844.179
 30
0.000000
  70
    32
  0
VERTEX
  8
0
  5
2E4A1
 10
-379.322
 20
844.177
 30
0.000000
  70
    32
  0
VERTEX
  8
0
  5
2E4A2
 10
-379.322
 20
844.175
 30
0.000000
  70
    32
  0
VERTEX
  8
0
  5
2E4A3
 10
-379.323
 20
844.173
 30
0.000000
  70
    32
  0
VERTEX
  8
0
  5
2E4A4
 10
-379.323
 20
844.171
 30
0.000000
  70
    32
  0
VERTEX
  8
0
  5
2E4A5
 10
-379.324
 20
844.169
 30
0.000000
  70
    32
  0
VERTEX
  8
0
  5
2E4A6
 10
-379.324
 20
844.166
 30
0.000000
  70
    32
  0
VERTEX
  8
0
  5
2E4A7
 10
-379.325
 20
844.164
 30
0.000000
  70
    32
  0
VERTEX
  8
0
  5
2E4A8
 10
-379.325
 20
844.162
 30
0.000000
  70
    32
  0
VERTEX
  8
0
  5
2E4A9
 10
-379.326
 20
844.160
 30
0.000000
  70
    32
  0
VERTEX
  8
0
  5
2E4AA
 10
-379.326
 20
844.158
 30
0.000000
  70
    32
  0
VERTEX
  8
0
  5
2E4AB
 10
-379.326
 20
844.156
 30
0.000000
  70
    32
  0
VERTEX
  8
0
  5
2E4AC
 10
-379.327
 20
844.153
 30
0.000000
  70
    32
  0
VERTEX
  8
0
  5
2E4AD
 10
-379.327
 20
844.151
 30
0.000000
  70
    32
  0
VERTEX
  8
0
  5
2E4AE
 10
-379.328
 20
844.149
 30
0.000000
  70
    32
  0
VERTEX
  8
0
  5
2E4AF
 10
-379.328
 20
844.147
 30
0.000000
  70
    32
  0
VERTEX
  8
0
  5
2E4B0
 10
-379.328
 20
844.145
 30
0.000000
  70
    32
  0
VERTEX
  8
0
  5
2E4B1
 10
-379.329
 20
844.142
 30
0.000000
  70
    32
  0
VERTEX
  8
0
  5
2E4B2
 10
-379.329
 20
844.140
 30
0.000000
  70
    32
  0
VERTEX
  8
0
  5
2E4B3
 10
-379.329
 20
844.138
 30
0.000000
  70
    32
  0
VERTEX
  8
0
  5
2E4B4
 10
-379.330
 20
844.136
 30
0.000000
  70
    32
  0
VERTEX
  8
0
  5
2E4B5
 10
-379.330
 20
844.134
 30
0.000000
  70
    32
  0
SEQEND
  8
0
  5
2E4B6
  0
LINE
  5
2DAB4
  8
0
 10
-379.60955925727473
 20
846.62431130026584
 30
0.0
 11
-379.60955925727461
 21
846.63941567798395
 31
0.0
  0
LINE
  5
2DAB5
  8
0
 10
-379.60955925727461
 20
843.64045692254729
 30
0.0
 11
-379.60955925727461
 21
843.65556130026584
 31
0.0
  0
LINE
  5
2DAB6
  8
0
 10
-383.40862012987742
 20
846.62431130026584
 30
0.0
 11
-383.40862012987742
 21
846.63941567798395
 31
0.0
  0
LINE
  5
2DAB7
  8
0
 10
-383.2318582464523
 20
843.74321255776431
 30
0.0
 11
-383.2318582464523
 21
843.65556130026584
 31
0.0
  0
LINE
  5
2DAB8
  8
0
 10
-382.72999046359558
 20
844.91535766107063
 30
0.0
 11
-382.72999046359558
 21
844.77404996506834
 31
0.0
  0
LINE
  5
2DAB9
  8
0
 10
-382.73421337449508
 20
845.97757467324482
 30
0.0
 11
-382.7342133744952
 21
845.7123261085444
 31
0.0
  0
LINE
  5
2DABA
  8
0
 10
-383.40862012987742
 20
843.64045692254729
 30
0.0
 11
-383.40862012987742
 21
843.65556130026584
 31
0.0
  0
LINE
  5
2DABB
  8
0
 10
-383.20021540780658
 20
846.62431130026584
 30
0.0
 11
-383.40862012987742
 21
846.62431130026584
 31
0.0
  0
LINE
  5
2DABC
  8
0
 10
-382.78354207049262
 20
846.03867104589415
 30
0.0
 11
-382.86327921366512
 21
846.05586097235732
 31
0.0
  0
LINE
  5
2DABD
  8
0
 10
-382.85394324502312
 20
844.69354465519075
 30
0.0
 11
-382.77680034285908
 21
844.7135514517704
 31
0.0
  0
LINE
  5
2DABE
  8
0
 10
-383.40862012987742
 20
843.65556130026584
 30
0.0
 11
-383.2318582464523
 21
843.65556130026584
 31
0.0
  0
LINE
  5
2DABF
  8
0
 10
-383.9605153749518
 20
843.01493630026584
 30
0.0
 11
-383.54804082526232
 21
843.0149363002655
 31
0.0
  0
LINE
  5
2DAC0
  8
0
 10
-383.9605153749518
 20
847.26493630026573
 30
0.0
 11
-383.54804082526232
 21
847.26493630026573
 31
0.0
  0
ARC
  5
2DAC1
  8
0
  6
CONTINUOUS
 10
-383.67017147121572
 20
847.06558035732655
 30
0.0
 40
0.2337919730576862
 50
297.75436192246531
 51
58.507278631036947
  0
ARC
  5
2DAC2
  8
0
  6
CONTINUOUS
 10
-383.64241210293511
 20
846.63941567798395
 30
0.0
 40
0.2337919730576862
 50
0.0
 51
69.699333733315612
  0
ARC
  5
2DAC3
  8
0
  6
CONTINUOUS
 10
-382.75624704710941
 20
845.31371394658765
 30
0.0
 40
0.3992206637797162
 50
273.77104255619122
 51
86.836140095012013
  0
POLYLINE
  8
0
  5
2E4B7
  66
     1
 10
0.000000
 20
0.000000
 30
0.000000
  70
     8
  0
VERTEX
  8
0
  5
2E4B8
 10
-383.200
 20
846.624
 30
0.000000
  70
    32
  0
VERTEX
  8
0
  5
2E4B9
 10
-383.200
 20
846.622
 30
0.000000
  70
    32
  0
VERTEX
  8
0
  5
2E4BA
 10
-383.200
 20
846.620
 30
0.000000
  70
    32
  0
VERTEX
  8
0
  5
2E4BB
 10
-383.199
 20
846.617
 30
0.000000
  70
    32
  0
VERTEX
  8
0
  5
2E4BC
 10
-383.199
 20
846.615
 30
0.000000
  70
    32
  0
VERTEX
  8
0
  5
2E4BD
 10
-383.198
 20
846.613
 30
0.000000
  70
    32
  0
VERTEX
  8
0
  5
2E4BE
 10
-383.198
 20
846.610
 30
0.000000
  70
    32
  0
VERTEX
  8
0
  5
2E4BF
 10
-383.198
 20
846.608
 30
0.000000
  70
    32
  0
VERTEX
  8
0
  5
2E4C0
 10
-383.197
 20
846.606
 30
0.000000
  70
    32
  0
VERTEX
  8
0
  5
2E4C1
 10
-383.197
 20
846.603
 30
0.000000
  70
    32
  0
VERTEX
  8
0
  5
2E4C2
 10
-383.196
 20
846.601
 30
0.000000
  70
    32
  0
VERTEX
  8
0
  5
2E4C3
 10
-383.196
 20
846.599
 30
0.000000
  70
    32
  0
VERTEX
  8
0
  5
2E4C4
 10
-383.195
 20
846.596
 30
0.000000
  70
    32
  0
VERTEX
  8
0
  5
2E4C5
 10
-383.194
 20
846.594
 30
0.000000
  70
    32
  0
VERTEX
  8
0
  5
2E4C6
 10
-383.194
 20
846.592
 30
0.000000
  70
    32
  0
VERTEX
  8
0
  5
2E4C7
 10
-383.193
 20
846.589
 30
0.000000
  70
    32
  0
VERTEX
  8
0
  5
2E4C8
 10
-383.192
 20
846.587
 30
0.000000
  70
    32
  0
VERTEX
  8
0
  5
2E4C9
 10
-383.192
 20
846.585
 30
0.000000
  70
    32
  0
VERTEX
  8
0
  5
2E4CA
 10
-383.191
 20
846.583
 30
0.000000
  70
    32
  0
VERTEX
  8
0
  5
2E4CB
 10
-383.190
 20
846.580
 30
0.000000
  70
    32
  0
VERTEX
  8
0
  5
2E4CC
 10
-383.189
 20
846.578
 30
0.000000
  70
    32
  0
VERTEX
  8
0
  5
2E4CD
 10
-383.189
 20
846.576
 30
0.000000
  70
    32
  0
VERTEX
  8
0
  5
2E4CE
 10
-383.188
 20
846.574
 30
0.000000
  70
    32
  0
VERTEX
  8
0
  5
2E4CF
 10
-383.187
 20
846.572
 30
0.000000
  70
    32
  0
VERTEX
  8
0
  5
2E4D0
 10
-383.186
 20
846.569
 30
0.000000
  70
    32
  0
VERTEX
  8
0
  5
2E4D1
 10
-383.185
 20
846.567
 30
0.000000
  70
    32
  0
VERTEX
  8
0
  5
2E4D2
 10
-383.184
 20
846.565
 30
0.000000
  70
    32
  0
VERTEX
  8
0
  5
2E4D3
 10
-383.183
 20
846.563
 30
0.000000
  70
    32
  0
VERTEX
  8
0
  5
2E4D4
 10
-383.181
 20
846.561
 30
0.000000
  70
    32
  0
VERTEX
  8
0
  5
2E4D5
 10
-383.180
 20
846.559
 30
0.000000
  70
    32
  0
VERTEX
  8
0
  5
2E4D6
 10
-383.179
 20
846.557
 30
0.000000
  70
    32
  0
VERTEX
  8
0
  5
2E4D7
 10
-383.178
 20
846.555
 30
0.000000
  70
    32
  0
VERTEX
  8
0
  5
2E4D8
 10
-383.176
 20
846.553
 30
0.000000
  70
    32
  0
VERTEX
  8
0
  5
2E4D9
 10
-383.175
 20
846.551
 30
0.000000
  70
    32
  0
VERTEX
  8
0
  5
2E4DA
 10
-383.174
 20
846.549
 30
0.000000
  70
    32
  0
VERTEX
  8
0
  5
2E4DB
 10
-383.172
 20
846.547
 30
0.000000
  70
    32
  0
VERTEX
  8
0
  5
2E4DC
 10
-383.171
 20
846.545
 30
0.000000
  70
    32
  0
VERTEX
  8
0
  5
2E4DD
 10
-383.170
 20
846.544
 30
0.000000
  70
    32
  0
VERTEX
  8
0
  5
2E4DE
 10
-383.168
 20
846.542
 30
0.000000
  70
    32
  0
VERTEX
  8
0
  5
2E4DF
 10
-383.167
 20
846.540
 30
0.000000
  70
    32
  0
VERTEX
  8
0
  5
2E4E0
 10
-383.165
 20
846.538
 30
0.000000
  70
    32
  0
VERTEX
  8
0
  5
2E4E1
 10
-383.164
 20
846.536
 30
0.000000
  70
    32
  0
VERTEX
  8
0
  5
2E4E2
 10
-383.162
 20
846.534
 30
0.000000
  70
    32
  0
VERTEX
  8
0
  5
2E4E3
 10
-383.161
 20
846.533
 30
0.000000
  70
    32
  0
VERTEX
  8
0
  5
2E4E4
 10
-383.159
 20
846.531
 30
0.000000
  70
    32
  0
VERTEX
  8
0
  5
2E4E5
 10
-383.157
 20
846.529
 30
0.000000
  70
    32
  0
VERTEX
  8
0
  5
2E4E6
 10
-383.156
 20
846.527
 30
0.000000
  70
    32
  0
VERTEX
  8
0
  5
2E4E7
 10
-383.154
 20
846.525
 30
0.000000
  70
    32
  0
VERTEX
  8
0
  5
2E4E8
 10
-383.153
 20
846.524
 30
0.000000
  70
    32
  0
VERTEX
  8
0
  5
2E4E9
 10
-383.151
 20
846.522
 30
0.000000
  70
    32
  0
VERTEX
  8
0
  5
2E4EA
 10
-383.149
 20
846.520
 30
0.000000
  70
    32
  0
VERTEX
  8
0
  5
2E4EB
 10
-383.148
 20
846.518
 30
0.000000
  70
    32
  0
VERTEX
  8
0
  5
2E4EC
 10
-383.146
 20
846.517
 30
0.000000
  70
    32
  0
VERTEX
  8
0
  5
2E4ED
 10
-383.144
 20
846.515
 30
0.000000
  70
    32
  0
VERTEX
  8
0
  5
2E4EE
 10
-383.143
 20
846.513
 30
0.000000
  70
    32
  0
VERTEX
  8
0
  5
2E4EF
 10
-383.141
 20
846.511
 30
0.000000
  70
    32
  0
VERTEX
  8
0
  5
2E4F0
 10
-383.139
 20
846.510
 30
0.000000
  70
    32
  0
VERTEX
  8
0
  5
2E4F1
 10
-383.138
 20
846.508
 30
0.000000
  70
    32
  0
VERTEX
  8
0
  5
2E4F2
 10
-383.136
 20
846.506
 30
0.000000
  70
    32
  0
VERTEX
  8
0
  5
2E4F3
 10
-383.134
 20
846.504
 30
0.000000
  70
    32
  0
VERTEX
  8
0
  5
2E4F4
 10
-383.133
 20
846.503
 30
0.000000
  70
    32
  0
VERTEX
  8
0
  5
2E4F5
 10
-383.131
 20
846.501
 30
0.000000
  70
    32
  0
VERTEX
  8
0
  5
2E4F6
 10
-383.130
 20
846.499
 30
0.000000
  70
    32
  0
VERTEX
  8
0
  5
2E4F7
 10
-383.128
 20
846.497
 30
0.000000
  70
    32
  0
VERTEX
  8
0
  5
2E4F8
 10
-383.126
 20
846.496
 30
0.000000
  70
    32
  0
VERTEX
  8
0
  5
2E4F9
 10
-383.125
 20
846.494
 30
0.000000
  70
    32
  0
VERTEX
  8
0
  5
2E4FA
 10
-383.123
 20
846.492
 30
0.000000
  70
    32
  0
VERTEX
  8
0
  5
2E4FB
 10
-383.121
 20
846.491
 30
0.000000
  70
    32
  0
VERTEX
  8
0
  5
2E4FC
 10
-383.120
 20
846.489
 30
0.000000
  70
    32
  0
VERTEX
  8
0
  5
2E4FD
 10
-383.118
 20
846.487
 30
0.000000
  70
    32
  0
VERTEX
  8
0
  5
2E4FE
 10
-383.117
 20
846.485
 30
0.000000
  70
    32
  0
VERTEX
  8
0
  5
2E4FF
 10
-383.115
 20
846.484
 30
0.000000
  70
    32
  0
VERTEX
  8
0
  5
2E500
 10
-383.113
 20
846.482
 30
0.000000
  70
    32
  0
VERTEX
  8
0
  5
2E501
 10
-383.112
 20
846.480
 30
0.000000
  70
    32
  0
VERTEX
  8
0
  5
2E502
 10
-383.110
 20
846.479
 30
0.000000
  70
    32
  0
VERTEX
  8
0
  5
2E503
 10
-383.108
 20
846.477
 30
0.000000
  70
    32
  0
VERTEX
  8
0
  5
2E504
 10
-383.107
 20
846.475
 30
0.000000
  70
    32
  0
VERTEX
  8
0
  5
2E505
 10
-383.105
 20
846.473
 30
0.000000
  70
    32
  0
VERTEX
  8
0
  5
2E506
 10
-383.104
 20
846.472
 30
0.000000
  70
    32
  0
VERTEX
  8
0
  5
2E507
 10
-383.102
 20
846.470
 30
0.000000
  70
    32
  0
VERTEX
  8
0
  5
2E508
 10
-383.100
 20
846.468
 30
0.000000
  70
    32
  0
VERTEX
  8
0
  5
2E509
 10
-383.099
 20
846.466
 30
0.000000
  70
    32
  0
VERTEX
  8
0
  5
2E50A
 10
-383.097
 20
846.465
 30
0.000000
  70
    32
  0
VERTEX
  8
0
  5
2E50B
 10
-383.095
 20
846.463
 30
0.000000
  70
    32
  0
VERTEX
  8
0
  5
2E50C
 10
-383.094
 20
846.461
 30
0.000000
  70
    32
  0
VERTEX
  8
0
  5
2E50D
 10
-383.092
 20
846.460
 30
0.000000
  70
    32
  0
VERTEX
  8
0
  5
2E50E
 10
-383.091
 20
846.458
 30
0.000000
  70
    32
  0
VERTEX
  8
0
  5
2E50F
 10
-383.089
 20
846.456
 30
0.000000
  70
    32
  0
VERTEX
  8
0
  5
2E510
 10
-383.087
 20
846.454
 30
0.000000
  70
    32
  0
VERTEX
  8
0
  5
2E511
 10
-383.086
 20
846.453
 30
0.000000
  70
    32
  0
VERTEX
  8
0
  5
2E512
 10
-383.084
 20
846.451
 30
0.000000
  70
    32
  0
VERTEX
  8
0
  5
2E513
 10
-383.083
 20
846.449
 30
0.000000
  70
    32
  0
VERTEX
  8
0
  5
2E514
 10
-383.081
 20
846.448
 30
0.000000
  70
    32
  0
VERTEX
  8
0
  5
2E515
 10
-383.079
 20
846.446
 30
0.000000
  70
    32
  0
VERTEX
  8
0
  5
2E516
 10
-383.078
 20
846.444
 30
0.000000
  70
    32
  0
VERTEX
  8
0
  5
2E517
 10
-383.076
 20
846.442
 30
0.000000
  70
    32
  0
VERTEX
  8
0
  5
2E518
 10
-383.075
 20
846.441
 30
0.000000
  70
    32
  0
VERTEX
  8
0
  5
2E519
 10
-383.073
 20
846.439
 30
0.000000
  70
    32
  0
VERTEX
  8
0
  5
2E51A
 10
-383.071
 20
846.437
 30
0.000000
  70
    32
  0
VERTEX
  8
0
  5
2E51B
 10
-383.070
 20
846.436
 30
0.000000
  70
    32
  0
VERTEX
  8
0
  5
2E51C
 10
-383.068
 20
846.434
 30
0.000000
  70
    32
  0
VERTEX
  8
0
  5
2E51D
 10
-383.067
 20
846.432
 30
0.000000
  70
    32
  0
VERTEX
  8
0
  5
2E51E
 10
-383.065
 20
846.430
 30
0.000000
  70
    32
  0
VERTEX
  8
0
  5
2E51F
 10
-383.063
 20
846.429
 30
0.000000
  70
    32
  0
VERTEX
  8
0
  5
2E520
 10
-383.062
 20
846.427
 30
0.000000
  70
    32
  0
VERTEX
  8
0
  5
2E521
 10
-383.060
 20
846.425
 30
0.000000
  70
    32
  0
VERTEX
  8
0
  5
2E522
 10
-383.059
 20
846.423
 30
0.000000
  70
    32
  0
VERTEX
  8
0
  5
2E523
 10
-383.057
 20
846.422
 30
0.000000
  70
    32
  0
VERTEX
  8
0
  5
2E524
 10
-383.055
 20
846.420
 30
0.000000
  70
    32
  0
VERTEX
  8
0
  5
2E525
 10
-383.054
 20
846.418
 30
0.000000
  70
    32
  0
VERTEX
  8
0
  5
2E526
 10
-383.052
 20
846.417
 30
0.000000
  70
    32
  0
VERTEX
  8
0
  5
2E527
 10
-383.051
 20
846.415
 30
0.000000
  70
    32
  0
VERTEX
  8
0
  5
2E528
 10
-383.049
 20
846.413
 30
0.000000
  70
    32
  0
VERTEX
  8
0
  5
2E529
 10
-383.047
 20
846.411
 30
0.000000
  70
    32
  0
VERTEX
  8
0
  5
2E52A
 10
-383.046
 20
846.410
 30
0.000000
  70
    32
  0
VERTEX
  8
0
  5
2E52B
 10
-383.044
 20
846.408
 30
0.000000
  70
    32
  0
VERTEX
  8
0
  5
2E52C
 10
-383.043
 20
846.406
 30
0.000000
  70
    32
  0
VERTEX
  8
0
  5
2E52D
 10
-383.041
 20
846.404
 30
0.000000
  70
    32
  0
VERTEX
  8
0
  5
2E52E
 10
-383.040
 20
846.403
 30
0.000000
  70
    32
  0
VERTEX
  8
0
  5
2E52F
 10
-383.038
 20
846.401
 30
0.000000
  70
    32
  0
VERTEX
  8
0
  5
2E530
 10
-383.036
 20
846.399
 30
0.000000
  70
    32
  0
VERTEX
  8
0
  5
2E531
 10
-383.035
 20
846.397
 30
0.000000
  70
    32
  0
VERTEX
  8
0
  5
2E532
 10
-383.033
 20
846.396
 30
0.000000
  70
    32
  0
VERTEX
  8
0
  5
2E533
 10
-383.032
 20
846.394
 30
0.000000
  70
    32
  0
VERTEX
  8
0
  5
2E534
 10
-383.030
 20
846.392
 30
0.000000
  70
    32
  0
VERTEX
  8
0
  5
2E535
 10
-383.028
 20
846.390
 30
0.000000
  70
    32
  0
VERTEX
  8
0
  5
2E536
 10
-383.027
 20
846.389
 30
0.000000
  70
    32
  0
VERTEX
  8
0
  5
2E537
 10
-383.025
 20
846.387
 30
0.000000
  70
    32
  0
VERTEX
  8
0
  5
2E538
 10
-383.024
 20
846.385
 30
0.000000
  70
    32
  0
VERTEX
  8
0
  5
2E539
 10
-383.022
 20
846.383
 30
0.000000
  70
    32
  0
VERTEX
  8
0
  5
2E53A
 10
-383.021
 20
846.382
 30
0.000000
  70
    32
  0
VERTEX
  8
0
  5
2E53B
 10
-383.019
 20
846.380
 30
0.000000
  70
    32
  0
VERTEX
  8
0
  5
2E53C
 10
-383.017
 20
846.378
 30
0.000000
  70
    32
  0
VERTEX
  8
0
  5
2E53D
 10
-383.016
 20
846.376
 30
0.000000
  70
    32
  0
VERTEX
  8
0
  5
2E53E
 10
-383.014
 20
846.375
 30
0.000000
  70
    32
  0
VERTEX
  8
0
  5
2E53F
 10
-383.013
 20
846.373
 30
0.000000
  70
    32
  0
VERTEX
  8
0
  5
2E540
 10
-383.011
 20
846.371
 30
0.000000
  70
    32
  0
VERTEX
  8
0
  5
2E541
 10
-383.009
 20
846.369
 30
0.000000
  70
    32
  0
VERTEX
  8
0
  5
2E542
 10
-383.008
 20
846.368
 30
0.000000
  70
    32
  0
VERTEX
  8
0
  5
2E543
 10
-383.006
 20
846.366
 30
0.000000
  70
    32
  0
VERTEX
  8
0
  5
2E544
 10
-383.005
 20
846.364
 30
0.000000
  70
    32
  0
VERTEX
  8
0
  5
2E545
 10
-383.003
 20
846.362
 30
0.000000
  70
    32
  0
VERTEX
  8
0
  5
2E546
 10
-383.001
 20
846.361
 30
0.000000
  70
    32
  0
VERTEX
  8
0
  5
2E547
 10
-383.000
 20
846.359
 30
0.000000
  70
    32
  0
VERTEX
  8
0
  5
2E548
 10
-382.998
 20
846.357
 30
0.000000
  70
    32
  0
VERTEX
  8
0
  5
2E549
 10
-382.997
 20
846.355
 30
0.000000
  70
    32
  0
VERTEX
  8
0
  5
2E54A
 10
-382.995
 20
846.354
 30
0.000000
  70
    32
  0
VERTEX
  8
0
  5
2E54B
 10
-382.993
 20
846.352
 30
0.000000
  70
    32
  0
VERTEX
  8
0
  5
2E54C
 10
-382.992
 20
846.350
 30
0.000000
  70
    32
  0
VERTEX
  8
0
  5
2E54D
 10
-382.990
 20
846.348
 30
0.000000
  70
    32
  0
VERTEX
  8
0
  5
2E54E
 10
-382.989
 20
846.346
 30
0.000000
  70
    32
  0
VERTEX
  8
0
  5
2E54F
 10
-382.987
 20
846.345
 30
0.000000
  70
    32
  0
VERTEX
  8
0
  5
2E550
 10
-382.985
 20
846.343
 30
0.000000
  70
    32
  0
VERTEX
  8
0
  5
2E551
 10
-382.984
 20
846.341
 30
0.000000
  70
    32
  0
VERTEX
  8
0
  5
2E552
 10
-382.982
 20
846.339
 30
0.000000
  70
    32
  0
VERTEX
  8
0
  5
2E553
 10
-382.981
 20
846.338
 30
0.000000
  70
    32
  0
VERTEX
  8
0
  5
2E554
 10
-382.979
 20
846.336
 30
0.000000
  70
    32
  0
VERTEX
  8
0
  5
2E555
 10
-382.977
 20
846.334
 30
0.000000
  70
    32
  0
VERTEX
  8
0
  5
2E556
 10
-382.976
 20
846.332
 30
0.000000
  70
    32
  0
VERTEX
  8
0
  5
2E557
 10
-382.974
 20
846.331
 30
0.000000
  70
    32
  0
VERTEX
  8
0
  5
2E558
 10
-382.973
 20
846.329
 30
0.000000
  70
    32
  0
VERTEX
  8
0
  5
2E559
 10
-382.971
 20
846.327
 30
0.000000
  70
    32
  0
VERTEX
  8
0
  5
2E55A
 10
-382.969
 20
846.325
 30
0.000000
  70
    32
  0
VERTEX
  8
0
  5
2E55B
 10
-382.968
 20
846.323
 30
0.000000
  70
    32
  0
VERTEX
  8
0
  5
2E55C
 10
-382.966
 20
846.322
 30
0.000000
  70
    32
  0
VERTEX
  8
0
  5
2E55D
 10
-382.965
 20
846.320
 30
0.000000
  70
    32
  0
VERTEX
  8
0
  5
2E55E
 10
-382.963
 20
846.318
 30
0.000000
  70
    32
  0
VERTEX
  8
0
  5
2E55F
 10
-382.961
 20
846.316
 30
0.000000
  70
    32
  0
VERTEX
  8
0
  5
2E560
 10
-382.960
 20
846.314
 30
0.000000
  70
    32
  0
VERTEX
  8
0
  5
2E561
 10
-382.958
 20
846.313
 30
0.000000
  70
    32
  0
VERTEX
  8
0
  5
2E562
 10
-382.957
 20
846.311
 30
0.000000
  70
    32
  0
VERTEX
  8
0
  5
2E563
 10
-382.955
 20
846.309
 30
0.000000
  70
    32
  0
VERTEX
  8
0
  5
2E564
 10
-382.954
 20
846.307
 30
0.000000
  70
    32
  0
VERTEX
  8
0
  5
2E565
 10
-382.952
 20
846.305
 30
0.000000
  70
    32
  0
VERTEX
  8
0
  5
2E566
 10
-382.951
 20
846.304
 30
0.000000
  70
    32
  0
VERTEX
  8
0
  5
2E567
 10
-382.949
 20
846.302
 30
0.000000
  70
    32
  0
VERTEX
  8
0
  5
2E568
 10
-382.948
 20
846.300
 30
0.000000
  70
    32
  0
VERTEX
  8
0
  5
2E569
 10
-382.946
 20
846.298
 30
0.000000
  70
    32
  0
VERTEX
  8
0
  5
2E56A
 10
-382.944
 20
846.296
 30
0.000000
  70
    32
  0
VERTEX
  8
0
  5
2E56B
 10
-382.943
 20
846.294
 30
0.000000
  70
    32
  0
VERTEX
  8
0
  5
2E56C
 10
-382.941
 20
846.293
 30
0.000000
  70
    32
  0
VERTEX
  8
0
  5
2E56D
 10
-382.940
 20
846.291
 30
0.000000
  70
    32
  0
VERTEX
  8
0
  5
2E56E
 10
-382.939
 20
846.289
 30
0.000000
  70
    32
  0
VERTEX
  8
0
  5
2E56F
 10
-382.937
 20
846.287
 30
0.000000
  70
    32
  0
VERTEX
  8
0
  5
2E570
 10
-382.936
 20
846.285
 30
0.000000
  70
    32
  0
VERTEX
  8
0
  5
2E571
 10
-382.934
 20
846.283
 30
0.000000
  70
    32
  0
VERTEX
  8
0
  5
2E572
 10
-382.933
 20
846.281
 30
0.000000
  70
    32
  0
VERTEX
  8
0
  5
2E573
 10
-382.931
 20
846.279
 30
0.000000
  70
    32
  0
VERTEX
  8
0
  5
2E574
 10
-382.930
 20
846.277
 30
0.000000
  70
    32
  0
VERTEX
  8
0
  5
2E575
 10
-382.929
 20
846.276
 30
0.000000
  70
    32
  0
VERTEX
  8
0
  5
2E576
 10
-382.927
 20
846.274
 30
0.000000
  70
    32
  0
VERTEX
  8
0
  5
2E577
 10
-382.926
 20
846.272
 30
0.000000
  70
    32
  0
VERTEX
  8
0
  5
2E578
 10
-382.924
 20
846.270
 30
0.000000
  70
    32
  0
VERTEX
  8
0
  5
2E579
 10
-382.923
 20
846.268
 30
0.000000
  70
    32
  0
VERTEX
  8
0
  5
2E57A
 10
-382.922
 20
846.266
 30
0.000000
  70
    32
  0
VERTEX
  8
0
  5
2E57B
 10
-382.920
 20
846.264
 30
0.000000
  70
    32
  0
VERTEX
  8
0
  5
2E57C
 10
-382.919
 20
846.262
 30
0.000000
  70
    32
  0
VERTEX
  8
0
  5
2E57D
 10
-382.918
 20
846.260
 30
0.000000
  70
    32
  0
VERTEX
  8
0
  5
2E57E
 10
-382.917
 20
846.258
 30
0.000000
  70
    32
  0
VERTEX
  8
0
  5
2E57F
 10
-382.915
 20
846.256
 30
0.000000
  70
    32
  0
VERTEX
  8
0
  5
2E580
 10
-382.914
 20
846.254
 30
0.000000
  70
    32
  0
VERTEX
  8
0
  5
2E581
 10
-382.913
 20
846.252
 30
0.000000
  70
    32
  0
VERTEX
  8
0
  5
2E582
 10
-382.912
 20
846.250
 30
0.000000
  70
    32
  0
VERTEX
  8
0
  5
2E583
 10
-382.911
 20
846.248
 30
0.000000
  70
    32
  0
VERTEX
  8
0
  5
2E584
 10
-382.909
 20
846.246
 30
0.000000
  70
    32
  0
VERTEX
  8
0
  5
2E585
 10
-382.908
 20
846.244
 30
0.000000
  70
    32
  0
VERTEX
  8
0
  5
2E586
 10
-382.907
 20
846.242
 30
0.000000
  70
    32
  0
VERTEX
  8
0
  5
2E587
 10
-382.906
 20
846.240
 30
0.000000
  70
    32
  0
VERTEX
  8
0
  5
2E588
 10
-382.905
 20
846.238
 30
0.000000
  70
    32
  0
VERTEX
  8
0
  5
2E589
 10
-382.904
 20
846.236
 30
0.000000
  70
    32
  0
VERTEX
  8
0
  5
2E58A
 10
-382.903
 20
846.234
 30
0.000000
  70
    32
  0
VERTEX
  8
0
  5
2E58B
 10
-382.902
 20
846.232
 30
0.000000
  70
    32
  0
VERTEX
  8
0
  5
2E58C
 10
-382.901
 20
846.229
 30
0.000000
  70
    32
  0
VERTEX
  8
0
  5
2E58D
 10
-382.900
 20
846.227
 30
0.000000
  70
    32
  0
VERTEX
  8
0
  5
2E58E
 10
-382.899
 20
846.225
 30
0.000000
  70
    32
  0
VERTEX
  8
0
  5
2E58F
 10
-382.898
 20
846.223
 30
0.000000
  70
    32
  0
VERTEX
  8
0
  5
2E590
 10
-382.897
 20
846.221
 30
0.000000
  70
    32
  0
VERTEX
  8
0
  5
2E591
 10
-382.896
 20
846.219
 30
0.000000
  70
    32
  0
VERTEX
  8
0
  5
2E592
 10
-382.895
 20
846.217
 30
0.000000
  70
    32
  0
VERTEX
  8
0
  5
2E593
 10
-382.894
 20
846.214
 30
0.000000
  70
    32
  0
VERTEX
  8
0
  5
2E594
 10
-382.893
 20
846.212
 30
0.000000
  70
    32
  0
VERTEX
  8
0
  5
2E595
 10
-382.892
 20
846.210
 30
0.000000
  70
    32
  0
VERTEX
  8
0
  5
2E596
 10
-382.892
 20
846.208
 30
0.000000
  70
    32
  0
VERTEX
  8
0
  5
2E597
 10
-382.891
 20
846.206
 30
0.000000
  70
    32
  0
VERTEX
  8
0
  5
2E598
 10
-382.890
 20
846.203
 30
0.000000
  70
    32
  0
VERTEX
  8
0
  5
2E599
 10
-382.889
 20
846.201
 30
0.000000
  70
    32
  0
VERTEX
  8
0
  5
2E59A
 10
-382.888
 20
846.199
 30
0.000000
  70
    32
  0
VERTEX
  8
0
  5
2E59B
 10
-382.888
 20
846.197
 30
0.000000
  70
    32
  0
VERTEX
  8
0
  5
2E59C
 10
-382.887
 20
846.195
 30
0.000000
  70
    32
  0
VERTEX
  8
0
  5
2E59D
 10
-382.886
 20
846.192
 30
0.000000
  70
    32
  0
VERTEX
  8
0
  5
2E59E
 10
-382.886
 20
846.190
 30
0.000000
  70
    32
  0
VERTEX
  8
0
  5
2E59F
 10
-382.885
 20
846.188
 30
0.000000
  70
    32
  0
VERTEX
  8
0
  5
2E5A0
 10
-382.884
 20
846.185
 30
0.000000
  70
    32
  0
VERTEX
  8
0
  5
2E5A1
 10
-382.884
 20
846.183
 30
0.000000
  70
    32
  0
VERTEX
  8
0
  5
2E5A2
 10
-382.883
 20
846.181
 30
0.000000
  70
    32
  0
VERTEX
  8
0
  5
2E5A3
 10
-382.882
 20
846.179
 30
0.000000
  70
    32
  0
VERTEX
  8
0
  5
2E5A4
 10
-382.882
 20
846.176
 30
0.000000
  70
    32
  0
VERTEX
  8
0
  5
2E5A5
 10
-382.881
 20
846.174
 30
0.000000
  70
    32
  0
VERTEX
  8
0
  5
2E5A6
 10
-382.880
 20
846.172
 30
0.000000
  70
    32
  0
VERTEX
  8
0
  5
2E5A7
 10
-382.880
 20
846.169
 30
0.000000
  70
    32
  0
VERTEX
  8
0
  5
2E5A8
 10
-382.879
 20
846.167
 30
0.000000
  70
    32
  0
VERTEX
  8
0
  5
2E5A9
 10
-382.879
 20
846.165
 30
0.000000
  70
    32
  0
VERTEX
  8
0
  5
2E5AA
 10
-382.878
 20
846.162
 30
0.000000
  70
    32
  0
VERTEX
  8
0
  5
2E5AB
 10
-382.878
 20
846.160
 30
0.000000
  70
    32
  0
VERTEX
  8
0
  5
2E5AC
 10
-382.877
 20
846.158
 30
0.000000
  70
    32
  0
VERTEX
  8
0
  5
2E5AD
 10
-382.877
 20
846.155
 30
0.000000
  70
    32
  0
VERTEX
  8
0
  5
2E5AE
 10
-382.876
 20
846.153
 30
0.000000
  70
    32
  0
VERTEX
  8
0
  5
2E5AF
 10
-382.876
 20
846.151
 30
0.000000
  70
    32
  0
VERTEX
  8
0
  5
2E5B0
 10
-382.875
 20
846.148
 30
0.000000
  70
    32
  0
VERTEX
  8
0
  5
2E5B1
 10
-382.875
 20
846.146
 30
0.000000
  70
    32
  0
VERTEX
  8
0
  5
2E5B2
 10
-382.874
 20
846.144
 30
0.000000
  70
    32
  0
VERTEX
  8
0
  5
2E5B3
 10
-382.874
 20
846.141
 30
0.000000
  70
    32
  0
VERTEX
  8
0
  5
2E5B4
 10
-382.873
 20
846.139
 30
0.000000
  70
    32
  0
VERTEX
  8
0
  5
2E5B5
 10
-382.873
 20
846.137
 30
0.000000
  70
    32
  0
VERTEX
  8
0
  5
2E5B6
 10
-382.873
 20
846.134
 30
0.000000
  70
    32
  0
VERTEX
  8
0
  5
2E5B7
 10
-382.872
 20
846.132
 30
0.000000
  70
    32
  0
VERTEX
  8
0
  5
2E5B8
 10
-382.872
 20
846.130
 30
0.000000
  70
    32
  0
VERTEX
  8
0
  5
2E5B9
 10
-382.872
 20
846.127
 30
0.000000
  70
    32
  0
VERTEX
  8
0
  5
2E5BA
 10
-382.871
 20
846.125
 30
0.000000
  70
    32
  0
VERTEX
  8
0
  5
2E5BB
 10
-382.871
 20
846.122
 30
0.000000
  70
    32
  0
VERTEX
  8
0
  5
2E5BC
 10
-382.870
 20
846.120
 30
0.000000
  70
    32
  0
VERTEX
  8
0
  5
2E5BD
 10
-382.870
 20
846.118
 30
0.000000
  70
    32
  0
VERTEX
  8
0
  5
2E5BE
 10
-382.870
 20
846.115
 30
0.000000
  70
    32
  0
VERTEX
  8
0
  5
2E5BF
 10
-382.869
 20
846.113
 30
0.000000
  70
    32
  0
VERTEX
  8
0
  5
2E5C0
 10
-382.869
 20
846.111
 30
0.000000
  70
    32
  0
VERTEX
  8
0
  5
2E5C1
 10
-382.869
 20
846.108
 30
0.000000
  70
    32
  0
VERTEX
  8
0
  5
2E5C2
 10
-382.868
 20
846.106
 30
0.000000
  70
    32
  0
VERTEX
  8
0
  5
2E5C3
 10
-382.868
 20
846.103
 30
0.000000
  70
    32
  0
VERTEX
  8
0
  5
2E5C4
 10
-382.868
 20
846.101
 30
0.000000
  70
    32
  0
VERTEX
  8
0
  5
2E5C5
 10
-382.868
 20
846.099
 30
0.000000
  70
    32
  0
VERTEX
  8
0
  5
2E5C6
 10
-382.867
 20
846.096
 30
0.000000
  70
    32
  0
VERTEX
  8
0
  5
2E5C7
 10
-382.867
 20
846.094
 30
0.000000
  70
    32
  0
VERTEX
  8
0
  5
2E5C8
 10
-382.867
 20
846.091
 30
0.000000
  70
    32
  0
VERTEX
  8
0
  5
2E5C9
 10
-382.867
 20
846.089
 30
0.000000
  70
    32
  0
VERTEX
  8
0
  5
2E5CA
 10
-382.866
 20
846.087
 30
0.000000
  70
    32
  0
VERTEX
  8
0
  5
2E5CB
 10
-382.866
 20
846.084
 30
0.000000
  70
    32
  0
VERTEX
  8
0
  5
2E5CC
 10
-382.866
 20
846.082
 30
0.000000
  70
    32
  0
VERTEX
  8
0
  5
2E5CD
 10
-382.866
 20
846.080
 30
0.000000
  70
    32
  0
VERTEX
  8
0
  5
2E5CE
 10
-382.865
 20
846.077
 30
0.000000
  70
    32
  0
VERTEX
  8
0
  5
2E5CF
 10
-382.865
 20
846.075
 30
0.000000
  70
    32
  0
VERTEX
  8
0
  5
2E5D0
 10
-382.865
 20
846.072
 30
0.000000
  70
    32
  0
VERTEX
  8
0
  5
2E5D1
 10
-382.865
 20
846.070
 30
0.000000
  70
    32
  0
VERTEX
  8
0
  5
2E5D2
 10
-382.864
 20
846.068
 30
0.000000
  70
    32
  0
VERTEX
  8
0
  5
2E5D3
 10
-382.864
 20
846.065
 30
0.000000
  70
    32
  0
VERTEX
  8
0
  5
2E5D4
 10
-382.864
 20
846.063
 30
0.000000
  70
    32
  0
VERTEX
  8
0
  5
2E5D5
 10
-382.864
 20
846.061
 30
0.000000
  70
    32
  0
VERTEX
  8
0
  5
2E5D6
 10
-382.863
 20
846.058
 30
0.000000
  70
    32
  0
VERTEX
  8
0
  5
2E5D7
 10
-382.863
 20
846.056
 30
0.000000
  70
    32
  0
SEQEND
  8
0
  5
2E5D8
  0
ARC
  5
2DAC5
  8
0
  6
CONTINUOUS
 10
-382.7924904635957
 20
844.77404996506834
 30
0.0
 40
0.0625
 50
284.53917689847191
 51
0.0
  0
ARC
  5
2DAC6
  8
0
  6
CONTINUOUS
 10
-382.7967133744952
 20
845.97757467324482
 30
0.0
 40
0.0625
 50
0.0
 51
77.834227706549484
  0
ARC
  5
2DAC7
  8
0
  6
CONTINUOUS
 10
-383.22728705947918
 20
843.95074919388219
 30
0.0
 40
0.2075869723310639
 50
268.7382113166945
 51
61.793770172879839
  0
ARC
  5
2DAC8
  8
0
  6
CONTINUOUS
 10
-383.64241210293511
 20
843.64045692254729
 30
0.0
 40
0.2337919730576862
 50
290.30066626668429
 51
0.0
  0
ARC
  5
2DAC9
  8
0
  6
CONTINUOUS
 10
-383.67017147121572
 20
843.21429224320491
 30
0.0
 40
0.2337919730576862
 50
301.49272136896309
 51
62.245638077531851
  0
POLYLINE
  8
0
  5
2E5D9
  66
     1
 10
0.000000
 20
0.000000
 30
0.000000
  70
     8
  0
VERTEX
  8
0
  5
2E5DA
 10
-382.854
 20
844.694
 30
0.000000
  70
    32
  0
VERTEX
  8
0
  5
2E5DB
 10
-382.854
 20
844.691
 30
0.000000
  70
    32
  0
VERTEX
  8
0
  5
2E5DC
 10
-382.854
 20
844.689
 30
0.000000
  70
    32
  0
VERTEX
  8
0
  5
2E5DD
 10
-382.855
 20
844.687
 30
0.000000
  70
    32
  0
VERTEX
  8
0
  5
2E5DE
 10
-382.855
 20
844.685
 30
0.000000
  70
    32
  0
VERTEX
  8
0
  5
2E5DF
 10
-382.855
 20
844.683
 30
0.000000
  70
    32
  0
VERTEX
  8
0
  5
2E5E0
 10
-382.855
 20
844.680
 30
0.000000
  70
    32
  0
VERTEX
  8
0
  5
2E5E1
 10
-382.856
 20
844.678
 30
0.000000
  70
    32
  0
VERTEX
  8
0
  5
2E5E2
 10
-382.856
 20
844.676
 30
0.000000
  70
    32
  0
VERTEX
  8
0
  5
2E5E3
 10
-382.856
 20
844.674
 30
0.000000
  70
    32
  0
VERTEX
  8
0
  5
2E5E4
 10
-382.856
 20
844.672
 30
0.000000
  70
    32
  0
VERTEX
  8
0
  5
2E5E5
 10
-382.856
 20
844.669
 30
0.000000
  70
    32
  0
VERTEX
  8
0
  5
2E5E6
 10
-382.857
 20
844.667
 30
0.000000
  70
    32
  0
VERTEX
  8
0
  5
2E5E7
 10
-382.857
 20
844.665
 30
0.000000
  70
    32
  0
VERTEX
  8
0
  5
2E5E8
 10
-382.857
 20
844.663
 30
0.000000
  70
    32
  0
VERTEX
  8
0
  5
2E5E9
 10
-382.857
 20
844.660
 30
0.000000
  70
    32
  0
VERTEX
  8
0
  5
2E5EA
 10
-382.858
 20
844.658
 30
0.000000
  70
    32
  0
VERTEX
  8
0
  5
2E5EB
 10
-382.858
 20
844.656
 30
0.000000
  70
    32
  0
VERTEX
  8
0
  5
2E5EC
 10
-382.858
 20
844.654
 30
0.000000
  70
    32
  0
VERTEX
  8
0
  5
2E5ED
 10
-382.858
 20
844.652
 30
0.000000
  70
    32
  0
VERTEX
  8
0
  5
2E5EE
 10
-382.859
 20
844.649
 30
0.000000
  70
    32
  0
VERTEX
  8
0
  5
2E5EF
 10
-382.859
 20
844.647
 30
0.000000
  70
    32
  0
VERTEX
  8
0
  5
2E5F0
 10
-382.859
 20
844.645
 30
0.000000
  70
    32
  0
VERTEX
  8
0
  5
2E5F1
 10
-382.859
 20
844.643
 30
0.000000
  70
    32
  0
VERTEX
  8
0
  5
2E5F2
 10
-382.860
 20
844.641
 30
0.000000
  70
    32
  0
VERTEX
  8
0
  5
2E5F3
 10
-382.860
 20
844.639
 30
0.000000
  70
    32
  0
VERTEX
  8
0
  5
2E5F4
 10
-382.860
 20
844.636
 30
0.000000
  70
    32
  0
VERTEX
  8
0
  5
2E5F5
 10
-382.861
 20
844.634
 30
0.000000
  70
    32
  0
VERTEX
  8
0
  5
2E5F6
 10
-382.861
 20
844.632
 30
0.000000
  70
    32
  0
VERTEX
  8
0
  5
2E5F7
 10
-382.861
 20
844.630
 30
0.000000
  70
    32
  0
VERTEX
  8
0
  5
2E5F8
 10
-382.862
 20
844.628
 30
0.000000
  70
    32
  0
VERTEX
  8
0
  5
2E5F9
 10
-382.862
 20
844.625
 30
0.000000
  70
    32
  0
VERTEX
  8
0
  5
2E5FA
 10
-382.862
 20
844.623
 30
0.000000
  70
    32
  0
VERTEX
  8
0
  5
2E5FB
 10
-382.863
 20
844.621
 30
0.000000
  70
    32
  0
VERTEX
  8
0
  5
2E5FC
 10
-382.863
 20
844.619
 30
0.000000
  70
    32
  0
VERTEX
  8
0
  5
2E5FD
 10
-382.863
 20
844.617
 30
0.000000
  70
    32
  0
VERTEX
  8
0
  5
2E5FE
 10
-382.864
 20
844.614
 30
0.000000
  70
    32
  0
VERTEX
  8
0
  5
2E5FF
 10
-382.864
 20
844.612
 30
0.000000
  70
    32
  0
VERTEX
  8
0
  5
2E600
 10
-382.865
 20
844.610
 30
0.000000
  70
    32
  0
VERTEX
  8
0
  5
2E601
 10
-382.865
 20
844.608
 30
0.000000
  70
    32
  0
VERTEX
  8
0
  5
2E602
 10
-382.866
 20
844.606
 30
0.000000
  70
    32
  0
VERTEX
  8
0
  5
2E603
 10
-382.866
 20
844.604
 30
0.000000
  70
    32
  0
VERTEX
  8
0
  5
2E604
 10
-382.867
 20
844.602
 30
0.000000
  70
    32
  0
VERTEX
  8
0
  5
2E605
 10
-382.867
 20
844.599
 30
0.000000
  70
    32
  0
VERTEX
  8
0
  5
2E606
 10
-382.868
 20
844.597
 30
0.000000
  70
    32
  0
VERTEX
  8
0
  5
2E607
 10
-382.868
 20
844.595
 30
0.000000
  70
    32
  0
VERTEX
  8
0
  5
2E608
 10
-382.869
 20
844.593
 30
0.000000
  70
    32
  0
VERTEX
  8
0
  5
2E609
 10
-382.870
 20
844.591
 30
0.000000
  70
    32
  0
VERTEX
  8
0
  5
2E60A
 10
-382.870
 20
844.589
 30
0.000000
  70
    32
  0
VERTEX
  8
0
  5
2E60B
 10
-382.871
 20
844.586
 30
0.000000
  70
    32
  0
VERTEX
  8
0
  5
2E60C
 10
-382.871
 20
844.584
 30
0.000000
  70
    32
  0
VERTEX
  8
0
  5
2E60D
 10
-382.872
 20
844.582
 30
0.000000
  70
    32
  0
VERTEX
  8
0
  5
2E60E
 10
-382.873
 20
844.580
 30
0.000000
  70
    32
  0
VERTEX
  8
0
  5
2E60F
 10
-382.873
 20
844.578
 30
0.000000
  70
    32
  0
VERTEX
  8
0
  5
2E610
 10
-382.874
 20
844.576
 30
0.000000
  70
    32
  0
VERTEX
  8
0
  5
2E611
 10
-382.875
 20
844.574
 30
0.000000
  70
    32
  0
VERTEX
  8
0
  5
2E612
 10
-382.875
 20
844.572
 30
0.000000
  70
    32
  0
VERTEX
  8
0
  5
2E613
 10
-382.876
 20
844.570
 30
0.000000
  70
    32
  0
VERTEX
  8
0
  5
2E614
 10
-382.877
 20
844.567
 30
0.000000
  70
    32
  0
VERTEX
  8
0
  5
2E615
 10
-382.878
 20
844.565
 30
0.000000
  70
    32
  0
VERTEX
  8
0
  5
2E616
 10
-382.878
 20
844.563
 30
0.000000
  70
    32
  0
VERTEX
  8
0
  5
2E617
 10
-382.879
 20
844.561
 30
0.000000
  70
    32
  0
VERTEX
  8
0
  5
2E618
 10
-382.880
 20
844.559
 30
0.000000
  70
    32
  0
VERTEX
  8
0
  5
2E619
 10
-382.881
 20
844.557
 30
0.000000
  70
    32
  0
VERTEX
  8
0
  5
2E61A
 10
-382.882
 20
844.555
 30
0.000000
  70
    32
  0
VERTEX
  8
0
  5
2E61B
 10
-382.883
 20
844.553
 30
0.000000
  70
    32
  0
VERTEX
  8
0
  5
2E61C
 10
-382.883
 20
844.551
 30
0.000000
  70
    32
  0
VERTEX
  8
0
  5
2E61D
 10
-382.884
 20
844.549
 30
0.000000
  70
    32
  0
VERTEX
  8
0
  5
2E61E
 10
-382.885
 20
844.547
 30
0.000000
  70
    32
  0
VERTEX
  8
0
  5
2E61F
 10
-382.886
 20
844.545
 30
0.000000
  70
    32
  0
VERTEX
  8
0
  5
2E620
 10
-382.887
 20
844.543
 30
0.000000
  70
    32
  0
VERTEX
  8
0
  5
2E621
 10
-382.888
 20
844.541
 30
0.000000
  70
    32
  0
VERTEX
  8
0
  5
2E622
 10
-382.889
 20
844.539
 30
0.000000
  70
    32
  0
VERTEX
  8
0
  5
2E623
 10
-382.890
 20
844.537
 30
0.000000
  70
    32
  0
VERTEX
  8
0
  5
2E624
 10
-382.891
 20
844.535
 30
0.000000
  70
    32
  0
VERTEX
  8
0
  5
2E625
 10
-382.892
 20
844.533
 30
0.000000
  70
    32
  0
VERTEX
  8
0
  5
2E626
 10
-382.893
 20
844.531
 30
0.000000
  70
    32
  0
VERTEX
  8
0
  5
2E627
 10
-382.894
 20
844.529
 30
0.000000
  70
    32
  0
VERTEX
  8
0
  5
2E628
 10
-382.895
 20
844.527
 30
0.000000
  70
    32
  0
VERTEX
  8
0
  5
2E629
 10
-382.896
 20
844.525
 30
0.000000
  70
    32
  0
VERTEX
  8
0
  5
2E62A
 10
-382.897
 20
844.523
 30
0.000000
  70
    32
  0
VERTEX
  8
0
  5
2E62B
 10
-382.898
 20
844.521
 30
0.000000
  70
    32
  0
VERTEX
  8
0
  5
2E62C
 10
-382.899
 20
844.519
 30
0.000000
  70
    32
  0
VERTEX
  8
0
  5
2E62D
 10
-382.900
 20
844.517
 30
0.000000
  70
    32
  0
VERTEX
  8
0
  5
2E62E
 10
-382.901
 20
844.515
 30
0.000000
  70
    32
  0
VERTEX
  8
0
  5
2E62F
 10
-382.902
 20
844.513
 30
0.000000
  70
    32
  0
VERTEX
  8
0
  5
2E630
 10
-382.903
 20
844.511
 30
0.000000
  70
    32
  0
VERTEX
  8
0
  5
2E631
 10
-382.904
 20
844.509
 30
0.000000
  70
    32
  0
VERTEX
  8
0
  5
2E632
 10
-382.905
 20
844.507
 30
0.000000
  70
    32
  0
VERTEX
  8
0
  5
2E633
 10
-382.906
 20
844.505
 30
0.000000
  70
    32
  0
VERTEX
  8
0
  5
2E634
 10
-382.908
 20
844.503
 30
0.000000
  70
    32
  0
VERTEX
  8
0
  5
2E635
 10
-382.909
 20
844.501
 30
0.000000
  70
    32
  0
VERTEX
  8
0
  5
2E636
 10
-382.910
 20
844.500
 30
0.000000
  70
    32
  0
VERTEX
  8
0
  5
2E637
 10
-382.911
 20
844.498
 30
0.000000
  70
    32
  0
VERTEX
  8
0
  5
2E638
 10
-382.912
 20
844.496
 30
0.000000
  70
    32
  0
VERTEX
  8
0
  5
2E639
 10
-382.913
 20
844.494
 30
0.000000
  70
    32
  0
VERTEX
  8
0
  5
2E63A
 10
-382.915
 20
844.492
 30
0.000000
  70
    32
  0
VERTEX
  8
0
  5
2E63B
 10
-382.916
 20
844.490
 30
0.000000
  70
    32
  0
VERTEX
  8
0
  5
2E63C
 10
-382.917
 20
844.488
 30
0.000000
  70
    32
  0
VERTEX
  8
0
  5
2E63D
 10
-382.918
 20
844.487
 30
0.000000
  70
    32
  0
VERTEX
  8
0
  5
2E63E
 10
-382.920
 20
844.485
 30
0.000000
  70
    32
  0
VERTEX
  8
0
  5
2E63F
 10
-382.921
 20
844.483
 30
0.000000
  70
    32
  0
VERTEX
  8
0
  5
2E640
 10
-382.922
 20
844.481
 30
0.000000
  70
    32
  0
VERTEX
  8
0
  5
2E641
 10
-382.923
 20
844.479
 30
0.000000
  70
    32
  0
VERTEX
  8
0
  5
2E642
 10
-382.925
 20
844.477
 30
0.000000
  70
    32
  0
VERTEX
  8
0
  5
2E643
 10
-382.926
 20
844.476
 30
0.000000
  70
    32
  0
VERTEX
  8
0
  5
2E644
 10
-382.927
 20
844.474
 30
0.000000
  70
    32
  0
VERTEX
  8
0
  5
2E645
 10
-382.929
 20
844.472
 30
0.000000
  70
    32
  0
VERTEX
  8
0
  5
2E646
 10
-382.930
 20
844.470
 30
0.000000
  70
    32
  0
VERTEX
  8
0
  5
2E647
 10
-382.931
 20
844.468
 30
0.000000
  70
    32
  0
VERTEX
  8
0
  5
2E648
 10
-382.932
 20
844.467
 30
0.000000
  70
    32
  0
VERTEX
  8
0
  5
2E649
 10
-382.934
 20
844.465
 30
0.000000
  70
    32
  0
VERTEX
  8
0
  5
2E64A
 10
-382.935
 20
844.463
 30
0.000000
  70
    32
  0
VERTEX
  8
0
  5
2E64B
 10
-382.936
 20
844.461
 30
0.000000
  70
    32
  0
VERTEX
  8
0
  5
2E64C
 10
-382.938
 20
844.460
 30
0.000000
  70
    32
  0
VERTEX
  8
0
  5
2E64D
 10
-382.939
 20
844.458
 30
0.000000
  70
    32
  0
VERTEX
  8
0
  5
2E64E
 10
-382.941
 20
844.456
 30
0.000000
  70
    32
  0
VERTEX
  8
0
  5
2E64F
 10
-382.942
 20
844.454
 30
0.000000
  70
    32
  0
VERTEX
  8
0
  5
2E650
 10
-382.943
 20
844.453
 30
0.000000
  70
    32
  0
VERTEX
  8
0
  5
2E651
 10
-382.945
 20
844.451
 30
0.000000
  70
    32
  0
VERTEX
  8
0
  5
2E652
 10
-382.946
 20
844.449
 30
0.000000
  70
    32
  0
VERTEX
  8
0
  5
2E653
 10
-382.947
 20
844.447
 30
0.000000
  70
    32
  0
VERTEX
  8
0
  5
2E654
 10
-382.949
 20
844.446
 30
0.000000
  70
    32
  0
VERTEX
  8
0
  5
2E655
 10
-382.950
 20
844.444
 30
0.000000
  70
    32
  0
VERTEX
  8
0
  5
2E656
 10
-382.952
 20
844.442
 30
0.000000
  70
    32
  0
VERTEX
  8
0
  5
2E657
 10
-382.953
 20
844.440
 30
0.000000
  70
    32
  0
VERTEX
  8
0
  5
2E658
 10
-382.954
 20
844.439
 30
0.000000
  70
    32
  0
VERTEX
  8
0
  5
2E659
 10
-382.956
 20
844.437
 30
0.000000
  70
    32
  0
VERTEX
  8
0
  5
2E65A
 10
-382.957
 20
844.435
 30
0.000000
  70
    32
  0
VERTEX
  8
0
  5
2E65B
 10
-382.958
 20
844.434
 30
0.000000
  70
    32
  0
VERTEX
  8
0
  5
2E65C
 10
-382.960
 20
844.432
 30
0.000000
  70
    32
  0
VERTEX
  8
0
  5
2E65D
 10
-382.961
 20
844.430
 30
0.000000
  70
    32
  0
VERTEX
  8
0
  5
2E65E
 10
-382.963
 20
844.428
 30
0.000000
  70
    32
  0
VERTEX
  8
0
  5
2E65F
 10
-382.964
 20
844.427
 30
0.000000
  70
    32
  0
VERTEX
  8
0
  5
2E660
 10
-382.966
 20
844.425
 30
0.000000
  70
    32
  0
VERTEX
  8
0
  5
2E661
 10
-382.967
 20
844.423
 30
0.000000
  70
    32
  0
VERTEX
  8
0
  5
2E662
 10
-382.968
 20
844.422
 30
0.000000
  70
    32
  0
VERTEX
  8
0
  5
2E663
 10
-382.970
 20
844.420
 30
0.000000
  70
    32
  0
VERTEX
  8
0
  5
2E664
 10
-382.971
 20
844.418
 30
0.000000
  70
    32
  0
VERTEX
  8
0
  5
2E665
 10
-382.973
 20
844.416
 30
0.000000
  70
    32
  0
VERTEX
  8
0
  5
2E666
 10
-382.974
 20
844.415
 30
0.000000
  70
    32
  0
VERTEX
  8
0
  5
2E667
 10
-382.975
 20
844.413
 30
0.000000
  70
    32
  0
VERTEX
  8
0
  5
2E668
 10
-382.977
 20
844.411
 30
0.000000
  70
    32
  0
VERTEX
  8
0
  5
2E669
 10
-382.978
 20
844.410
 30
0.000000
  70
    32
  0
VERTEX
  8
0
  5
2E66A
 10
-382.980
 20
844.408
 30
0.000000
  70
    32
  0
VERTEX
  8
0
  5
2E66B
 10
-382.981
 20
844.406
 30
0.000000
  70
    32
  0
VERTEX
  8
0
  5
2E66C
 10
-382.982
 20
844.404
 30
0.000000
  70
    32
  0
VERTEX
  8
0
  5
2E66D
 10
-382.984
 20
844.403
 30
0.000000
  70
    32
  0
VERTEX
  8
0
  5
2E66E
 10
-382.985
 20
844.401
 30
0.000000
  70
    32
  0
VERTEX
  8
0
  5
2E66F
 10
-382.986
 20
844.399
 30
0.000000
  70
    32
  0
VERTEX
  8
0
  5
2E670
 10
-382.988
 20
844.398
 30
0.000000
  70
    32
  0
VERTEX
  8
0
  5
2E671
 10
-382.989
 20
844.396
 30
0.000000
  70
    32
  0
VERTEX
  8
0
  5
2E672
 10
-382.991
 20
844.394
 30
0.000000
  70
    32
  0
VERTEX
  8
0
  5
2E673
 10
-382.992
 20
844.392
 30
0.000000
  70
    32
  0
VERTEX
  8
0
  5
2E674
 10
-382.993
 20
844.391
 30
0.000000
  70
    32
  0
VERTEX
  8
0
  5
2E675
 10
-382.995
 20
844.389
 30
0.000000
  70
    32
  0
VERTEX
  8
0
  5
2E676
 10
-382.996
 20
844.387
 30
0.000000
  70
    32
  0
VERTEX
  8
0
  5
2E677
 10
-382.997
 20
844.385
 30
0.000000
  70
    32
  0
VERTEX
  8
0
  5
2E678
 10
-382.999
 20
844.384
 30
0.000000
  70
    32
  0
VERTEX
  8
0
  5
2E679
 10
-383.000
 20
844.382
 30
0.000000
  70
    32
  0
VERTEX
  8
0
  5
2E67A
 10
-383.002
 20
844.380
 30
0.000000
  70
    32
  0
VERTEX
  8
0
  5
2E67B
 10
-383.003
 20
844.378
 30
0.000000
  70
    32
  0
VERTEX
  8
0
  5
2E67C
 10
-383.004
 20
844.377
 30
0.000000
  70
    32
  0
VERTEX
  8
0
  5
2E67D
 10
-383.006
 20
844.375
 30
0.000000
  70
    32
  0
VERTEX
  8
0
  5
2E67E
 10
-383.007
 20
844.373
 30
0.000000
  70
    32
  0
VERTEX
  8
0
  5
2E67F
 10
-383.008
 20
844.371
 30
0.000000
  70
    32
  0
VERTEX
  8
0
  5
2E680
 10
-383.010
 20
844.370
 30
0.000000
  70
    32
  0
VERTEX
  8
0
  5
2E681
 10
-383.011
 20
844.368
 30
0.000000
  70
    32
  0
VERTEX
  8
0
  5
2E682
 10
-383.012
 20
844.366
 30
0.000000
  70
    32
  0
VERTEX
  8
0
  5
2E683
 10
-383.014
 20
844.364
 30
0.000000
  70
    32
  0
VERTEX
  8
0
  5
2E684
 10
-383.015
 20
844.363
 30
0.000000
  70
    32
  0
VERTEX
  8
0
  5
2E685
 10
-383.016
 20
844.361
 30
0.000000
  70
    32
  0
VERTEX
  8
0
  5
2E686
 10
-383.018
 20
844.359
 30
0.000000
  70
    32
  0
VERTEX
  8
0
  5
2E687
 10
-383.019
 20
844.357
 30
0.000000
  70
    32
  0
VERTEX
  8
0
  5
2E688
 10
-383.020
 20
844.356
 30
0.000000
  70
    32
  0
VERTEX
  8
0
  5
2E689
 10
-383.022
 20
844.354
 30
0.000000
  70
    32
  0
VERTEX
  8
0
  5
2E68A
 10
-383.023
 20
844.352
 30
0.000000
  70
    32
  0
VERTEX
  8
0
  5
2E68B
 10
-383.024
 20
844.350
 30
0.000000
  70
    32
  0
VERTEX
  8
0
  5
2E68C
 10
-383.026
 20
844.349
 30
0.000000
  70
    32
  0
VERTEX
  8
0
  5
2E68D
 10
-383.027
 20
844.347
 30
0.000000
  70
    32
  0
VERTEX
  8
0
  5
2E68E
 10
-383.028
 20
844.345
 30
0.000000
  70
    32
  0
VERTEX
  8
0
  5
2E68F
 10
-383.030
 20
844.343
 30
0.000000
  70
    32
  0
VERTEX
  8
0
  5
2E690
 10
-383.031
 20
844.342
 30
0.000000
  70
    32
  0
VERTEX
  8
0
  5
2E691
 10
-383.032
 20
844.340
 30
0.000000
  70
    32
  0
VERTEX
  8
0
  5
2E692
 10
-383.034
 20
844.338
 30
0.000000
  70
    32
  0
VERTEX
  8
0
  5
2E693
 10
-383.035
 20
844.336
 30
0.000000
  70
    32
  0
VERTEX
  8
0
  5
2E694
 10
-383.036
 20
844.334
 30
0.000000
  70
    32
  0
VERTEX
  8
0
  5
2E695
 10
-383.038
 20
844.333
 30
0.000000
  70
    32
  0
VERTEX
  8
0
  5
2E696
 10
-383.039
 20
844.331
 30
0.000000
  70
    32
  0
VERTEX
  8
0
  5
2E697
 10
-383.040
 20
844.329
 30
0.000000
  70
    32
  0
VERTEX
  8
0
  5
2E698
 10
-383.042
 20
844.327
 30
0.000000
  70
    32
  0
VERTEX
  8
0
  5
2E699
 10
-383.043
 20
844.326
 30
0.000000
  70
    32
  0
VERTEX
  8
0
  5
2E69A
 10
-383.044
 20
844.324
 30
0.000000
  70
    32
  0
VERTEX
  8
0
  5
2E69B
 10
-383.046
 20
844.322
 30
0.000000
  70
    32
  0
VERTEX
  8
0
  5
2E69C
 10
-383.047
 20
844.320
 30
0.000000
  70
    32
  0
VERTEX
  8
0
  5
2E69D
 10
-383.048
 20
844.318
 30
0.000000
  70
    32
  0
VERTEX
  8
0
  5
2E69E
 10
-383.050
 20
844.317
 30
0.000000
  70
    32
  0
VERTEX
  8
0
  5
2E69F
 10
-383.051
 20
844.315
 30
0.000000
  70
    32
  0
VERTEX
  8
0
  5
2E6A0
 10
-383.052
 20
844.313
 30
0.000000
  70
    32
  0
VERTEX
  8
0
  5
2E6A1
 10
-383.054
 20
844.311
 30
0.000000
  70
    32
  0
VERTEX
  8
0
  5
2E6A2
 10
-383.055
 20
844.309
 30
0.000000
  70
    32
  0
VERTEX
  8
0
  5
2E6A3
 10
-383.056
 20
844.308
 30
0.000000
  70
    32
  0
VERTEX
  8
0
  5
2E6A4
 10
-383.057
 20
844.306
 30
0.000000
  70
    32
  0
VERTEX
  8
0
  5
2E6A5
 10
-383.059
 20
844.304
 30
0.000000
  70
    32
  0
VERTEX
  8
0
  5
2E6A6
 10
-383.060
 20
844.302
 30
0.000000
  70
    32
  0
VERTEX
  8
0
  5
2E6A7
 10
-383.061
 20
844.300
 30
0.000000
  70
    32
  0
VERTEX
  8
0
  5
2E6A8
 10
-383.063
 20
844.299
 30
0.000000
  70
    32
  0
VERTEX
  8
0
  5
2E6A9
 10
-383.064
 20
844.297
 30
0.000000
  70
    32
  0
VERTEX
  8
0
  5
2E6AA
 10
-383.065
 20
844.295
 30
0.000000
  70
    32
  0
VERTEX
  8
0
  5
2E6AB
 10
-383.066
 20
844.293
 30
0.000000
  70
    32
  0
VERTEX
  8
0
  5
2E6AC
 10
-383.068
 20
844.291
 30
0.000000
  70
    32
  0
VERTEX
  8
0
  5
2E6AD
 10
-383.069
 20
844.289
 30
0.000000
  70
    32
  0
VERTEX
  8
0
  5
2E6AE
 10
-383.070
 20
844.288
 30
0.000000
  70
    32
  0
VERTEX
  8
0
  5
2E6AF
 10
-383.071
 20
844.286
 30
0.000000
  70
    32
  0
VERTEX
  8
0
  5
2E6B0
 10
-383.073
 20
844.284
 30
0.000000
  70
    32
  0
VERTEX
  8
0
  5
2E6B1
 10
-383.074
 20
844.282
 30
0.000000
  70
    32
  0
VERTEX
  8
0
  5
2E6B2
 10
-383.075
 20
844.280
 30
0.000000
  70
    32
  0
VERTEX
  8
0
  5
2E6B3
 10
-383.076
 20
844.278
 30
0.000000
  70
    32
  0
VERTEX
  8
0
  5
2E6B4
 10
-383.077
 20
844.276
 30
0.000000
  70
    32
  0
VERTEX
  8
0
  5
2E6B5
 10
-383.079
 20
844.275
 30
0.000000
  70
    32
  0
VERTEX
  8
0
  5
2E6B6
 10
-383.080
 20
844.273
 30
0.000000
  70
    32
  0
VERTEX
  8
0
  5
2E6B7
 10
-383.081
 20
844.271
 30
0.000000
  70
    32
  0
VERTEX
  8
0
  5
2E6B8
 10
-383.082
 20
844.269
 30
0.000000
  70
    32
  0
VERTEX
  8
0
  5
2E6B9
 10
-383.083
 20
844.267
 30
0.000000
  70
    32
  0
VERTEX
  8
0
  5
2E6BA
 10
-383.084
 20
844.265
 30
0.000000
  70
    32
  0
VERTEX
  8
0
  5
2E6BB
 10
-383.086
 20
844.263
 30
0.000000
  70
    32
  0
VERTEX
  8
0
  5
2E6BC
 10
-383.087
 20
844.261
 30
0.000000
  70
    32
  0
VERTEX
  8
0
  5
2E6BD
 10
-383.088
 20
844.259
 30
0.000000
  70
    32
  0
VERTEX
  8
0
  5
2E6BE
 10
-383.089
 20
844.257
 30
0.000000
  70
    32
  0
VERTEX
  8
0
  5
2E6BF
 10
-383.090
 20
844.256
 30
0.000000
  70
    32
  0
VERTEX
  8
0
  5
2E6C0
 10
-383.091
 20
844.254
 30
0.000000
  70
    32
  0
VERTEX
  8
0
  5
2E6C1
 10
-383.092
 20
844.252
 30
0.000000
  70
    32
  0
VERTEX
  8
0
  5
2E6C2
 10
-383.093
 20
844.250
 30
0.000000
  70
    32
  0
VERTEX
  8
0
  5
2E6C3
 10
-383.094
 20
844.248
 30
0.000000
  70
    32
  0
VERTEX
  8
0
  5
2E6C4
 10
-383.095
 20
844.246
 30
0.000000
  70
    32
  0
VERTEX
  8
0
  5
2E6C5
 10
-383.096
 20
844.244
 30
0.000000
  70
    32
  0
VERTEX
  8
0
  5
2E6C6
 10
-383.097
 20
844.242
 30
0.000000
  70
    32
  0
VERTEX
  8
0
  5
2E6C7
 10
-383.098
 20
844.240
 30
0.000000
  70
    32
  0
VERTEX
  8
0
  5
2E6C8
 10
-383.099
 20
844.238
 30
0.000000
  70
    32
  0
VERTEX
  8
0
  5
2E6C9
 10
-383.100
 20
844.236
 30
0.000000
  70
    32
  0
VERTEX
  8
0
  5
2E6CA
 10
-383.101
 20
844.234
 30
0.000000
  70
    32
  0
VERTEX
  8
0
  5
2E6CB
 10
-383.102
 20
844.232
 30
0.000000
  70
    32
  0
VERTEX
  8
0
  5
2E6CC
 10
-383.103
 20
844.230
 30
0.000000
  70
    32
  0
VERTEX
  8
0
  5
2E6CD
 10
-383.104
 20
844.228
 30
0.000000
  70
    32
  0
VERTEX
  8
0
  5
2E6CE
 10
-383.105
 20
844.226
 30
0.000000
  70
    32
  0
VERTEX
  8
0
  5
2E6CF
 10
-383.105
 20
844.224
 30
0.000000
  70
    32
  0
VERTEX
  8
0
  5
2E6D0
 10
-383.106
 20
844.222
 30
0.000000
  70
    32
  0
VERTEX
  8
0
  5
2E6D1
 10
-383.107
 20
844.220
 30
0.000000
  70
    32
  0
VERTEX
  8
0
  5
2E6D2
 10
-383.108
 20
844.218
 30
0.000000
  70
    32
  0
VERTEX
  8
0
  5
2E6D3
 10
-383.109
 20
844.215
 30
0.000000
  70
    32
  0
VERTEX
  8
0
  5
2E6D4
 10
-383.109
 20
844.213
 30
0.000000
  70
    32
  0
VERTEX
  8
0
  5
2E6D5
 10
-383.110
 20
844.211
 30
0.000000
  70
    32
  0
VERTEX
  8
0
  5
2E6D6
 10
-383.111
 20
844.209
 30
0.000000
  70
    32
  0
VERTEX
  8
0
  5
2E6D7
 10
-383.112
 20
844.207
 30
0.000000
  70
    32
  0
VERTEX
  8
0
  5
2E6D8
 10
-383.112
 20
844.205
 30
0.000000
  70
    32
  0
VERTEX
  8
0
  5
2E6D9
 10
-383.113
 20
844.203
 30
0.000000
  70
    32
  0
VERTEX
  8
0
  5
2E6DA
 10
-383.114
 20
844.201
 30
0.000000
  70
    32
  0
VERTEX
  8
0
  5
2E6DB
 10
-383.114
 20
844.199
 30
0.000000
  70
    32
  0
VERTEX
  8
0
  5
2E6DC
 10
-383.115
 20
844.197
 30
0.000000
  70
    32
  0
VERTEX
  8
0
  5
2E6DD
 10
-383.116
 20
844.194
 30
0.000000
  70
    32
  0
VERTEX
  8
0
  5
2E6DE
 10
-383.116
 20
844.192
 30
0.000000
  70
    32
  0
VERTEX
  8
0
  5
2E6DF
 10
-383.117
 20
844.190
 30
0.000000
  70
    32
  0
VERTEX
  8
0
  5
2E6E0
 10
-383.118
 20
844.188
 30
0.000000
  70
    32
  0
VERTEX
  8
0
  5
2E6E1
 10
-383.118
 20
844.186
 30
0.000000
  70
    32
  0
VERTEX
  8
0
  5
2E6E2
 10
-383.119
 20
844.184
 30
0.000000
  70
    32
  0
VERTEX
  8
0
  5
2E6E3
 10
-383.119
 20
844.182
 30
0.000000
  70
    32
  0
VERTEX
  8
0
  5
2E6E4
 10
-383.120
 20
844.179
 30
0.000000
  70
    32
  0
VERTEX
  8
0
  5
2E6E5
 10
-383.121
 20
844.177
 30
0.000000
  70
    32
  0
VERTEX
  8
0
  5
2E6E6
 10
-383.121
 20
844.175
 30
0.000000
  70
    32
  0
VERTEX
  8
0
  5
2E6E7
 10
-383.122
 20
844.173
 30
0.000000
  70
    32
  0
VERTEX
  8
0
  5
2E6E8
 10
-383.122
 20
844.171
 30
0.000000
  70
    32
  0
VERTEX
  8
0
  5
2E6E9
 10
-383.123
 20
844.169
 30
0.000000
  70
    32
  0
VERTEX
  8
0
  5
2E6EA
 10
-383.123
 20
844.166
 30
0.000000
  70
    32
  0
VERTEX
  8
0
  5
2E6EB
 10
-383.124
 20
844.164
 30
0.000000
  70
    32
  0
VERTEX
  8
0
  5
2E6EC
 10
-383.124
 20
844.162
 30
0.000000
  70
    32
  0
VERTEX
  8
0
  5
2E6ED
 10
-383.125
 20
844.160
 30
0.000000
  70
    32
  0
VERTEX
  8
0
  5
2E6EE
 10
-383.125
 20
844.158
 30
0.000000
  70
    32
  0
VERTEX
  8
0
  5
2E6EF
 10
-383.125
 20
844.156
 30
0.000000
  70
    32
  0
VERTEX
  8
0
  5
2E6F0
 10
-383.126
 20
844.153
 30
0.000000
  70
    32
  0
VERTEX
  8
0
  5
2E6F1
 10
-383.126
 20
844.151
 30
0.000000
  70
    32
  0
VERTEX
  8
0
  5
2E6F2
 10
-383.127
 20
844.149
 30
0.000000
  70
    32
  0
VERTEX
  8
0
  5
2E6F3
 10
-383.127
 20
844.147
 30
0.000000
  70
    32
  0
VERTEX
  8
0
  5
2E6F4
 10
-383.127
 20
844.145
 30
0.000000
  70
    32
  0
VERTEX
  8
0
  5
2E6F5
 10
-383.128
 20
844.142
 30
0.000000
  70
    32
  0
VERTEX
  8
0
  5
2E6F6
 10
-383.128
 20
844.140
 30
0.000000
  70
    32
  0
VERTEX
  8
0
  5
2E6F7
 10
-383.129
 20
844.138
 30
0.000000
  70
    32
  0
VERTEX
  8
0
  5
2E6F8
 10
-383.129
 20
844.136
 30
0.000000
  70
    32
  0
VERTEX
  8
0
  5
2E6F9
 10
-383.129
 20
844.134
 30
0.000000
  70
    32
  0
SEQEND
  8
0
  5
2E6FA
  0
LINE
  5
2DACB
  8
0
  6
CONTINUOUS
 10
-385.40862012987742
 20
847.26493630026573
 30
0.0
 11
-383.54804082526232
 21
847.26493630026573
 31
0.0
  0
LINE
  5
2DACC
  8
0
  6
CONTINUOUS
 10
-383.56129878263312
 20
846.85868563930057
 30
0.0
 11
-385.40862012987742
 21
846.85868563930057
 31
0.0
  0
LINE
  5
2DACD
  8
0
  6
CONTINUOUS
 10
-383.409108557227
 20
846.62431130026584
 30
0.0
 11
-385.40862012987742
 21
846.62431130026584
 31
0.0
  0
LINE
  5
2DACE
  8
0
  6
CONTINUOUS
 10
-382.8632792136649
 20
846.05586097235732
 30
0.0
 11
-385.40862012987742
 21
846.05586097235732
 31
0.0
  0
LINE
  5
2DACF
  8
0
  6
CONTINUOUS
 10
-382.73421337449508
 20
845.97757467324482
 30
0.0
 11
-385.40862012987742
 21
845.97757467324482
 31
0.0
  0
LINE
  5
2DAD0
  8
0
  6
CONTINUOUS
 10
-382.73421337449508
 20
845.7123261085444
 30
0.0
 11
-385.40862012987742
 21
845.7123261085444
 31
0.0
  0
LINE
  5
2DAD1
  8
0
  6
CONTINUOUS
 10
-382.72999046359558
 20
844.91535766107063
 30
0.0
 11
-385.40862012987742
 21
844.91535766107063
 31
0.0
  0
LINE
  5
2DAD2
  8
0
  6
CONTINUOUS
 10
-382.72999046359558
 20
844.77404996506834
 30
0.0
 11
-385.40862012987742
 21
844.77404996506834
 31
0.0
  0
LINE
  5
2DAD3
  8
0
  6
CONTINUOUS
 10
-382.85394324502312
 20
844.69354465519075
 30
0.0
 11
-385.40862012987742
 21
844.69354465519075
 31
0.0
  0
LINE
  5
2DAD4
  8
0
  6
CONTINUOUS
 10
-385.40862012987742
 20
843.01493630026584
 30
0.0
 11
-383.54804082526232
 21
843.01493630026584
 31
0.0
  0
LINE
  5
2DAD5
  8
0
  6
CONTINUOUS
 10
-383.12917178548531
 20
844.13368564211146
 30
0.0
 11
-385.40862012987742
 21
844.13368564211146
 31
0.0
  0
LINE
  5
2DAD6
  8
0
  6
CONTINUOUS
 10
-383.2318582464523
 20
843.74321255776431
 30
0.0
 11
-385.40862012987742
 21
843.74321255776431
 31
0.0
  0
LINE
  5
2DAD7
  8
0
  6
CONTINUOUS
 10
-383.409108557227
 20
843.65556130026584
 30
0.0
 11
-385.40862012987742
 21
843.65556130026584
 31
0.0
  0
LINE
  5
2DAD8
  8
0
  6
CONTINUOUS
 10
-383.56129878263312
 20
843.42118696123077
 30
0.0
 11
-385.40862012987742
 21
843.42118696123077
 31
0.0
  0
LINE
  5
2DAD9
  8
0
  6
CONTINUOUS
 10
-385.40862012987742
 20
847.26493630026573
 30
0.0
 11
-385.40862012987742
 21
843.01493630026584
 31
0.0
  0
VIEWPORT
  5
BADA
 67
     1
  8
0
 10
5.249999665167536
 20
4.0168608648543138
 30
0.0
 40
16.023543186357209
 41
8.0117715931786062
 68
     1
 69
     1
1001
ACAD
1000
MVIEW
1002
{
1070
    16
1010
0.0
1020
0.0
1030
0.0
1010
0.0
1020
0.0
1030
1.0
1040
0.0
1040
8.0117715931786062
1040
5.249999665167536
1040
4.0168608648543138
1040
50.0
1040
0.0
1040
0.0
1070
     0
1070
   100
1070
     1
1070
     1
1070
     0
1070
     0
1070
     0
1070
     0
1040
0.0
1040
0.0
1040
0.0
1040
0.5
1040
0.5
1040
0.5
1040
0.5
1070
     0
1002
{
1002
}
1002
}
  0
VIEWPORT
  5
BADD
 67
     1
  8
0
 10
5.2499996294871929
 20
4.0166741807634683
 30
0.0
 40
10.44245679893058
 41
7.8813805131999892
 68
     2
 69
     2
1001
ACAD
1000
MVIEW
1002
{
1070
    16
1010
0.0
1020
0.0
1030
0.0
1010
0.0
1020
0.0
1030
1.0
1040
0.0
1040
7.8813805174158951
1040
-380.47374948856708
1040
845.23714280674119
1040
50.0
1040
0.0
1040
0.0
1070
     0
1070
   100
1070
     1
1070
     2
1070
     0
1070
     0
1070
     0
1070
     0
1040
0.0
1040
0.0
1040
0.0
1040
0.5
1040
0.5
1040
0.5
1040
0.5
1070
     0
1002
{
1002
}
1002
}
  0
ENDSEC
  0
EOF
