  0
SECTION
  2
HEADER
  9
$ACADVER
  1
AC1009
  9
$INSBASE
 10
0.0
 20
0.0
 30
0.0
  9
$EXTMIN
 10
-388.0615153254812
 20
836.71254254735538
 30
-0.0015258207003583
  9
$EXTMAX
 10
-384.02799833371949
 20
845.9625425473555
 30
0.0000000349246037
  9
$LIMMIN
 10
0.0
 20
0.0
  9
$LIMMAX
 10
1500.0
 20
1500.0
  9
$ORTHOMODE
 70
     0
  9
$REGENMODE
 70
     1
  9
$FILLMODE
 70
     1
  9
$QTEXTMODE
 70
     0
  9
$MIRRTEXT
 70
     1
  9
$DRAGMODE
 70
     2
  9
$LTSCALE
 40
1.0
  9
$OSMODE
 70
    37
  9
$ATTMODE
 70
     1
  9
$TEXTSIZE
 40
1.5
  9
$TRACEWID
 40
0.05
  9
$TEXTSTYLE
  7
STANDARD
  9
$CLAYER
  8
0
  9
$CELTYPE
  6
BYLAYER
  9
$CECOLOR
 62
   256
  9
$DIMSCALE
 40
1.0
  9
$DIMASZ
 40
0.75
  9
$DIMEXO
 40
1.5
  9
$DIMDLI
 40
2.0
  9
$DIMRND
 40
0.0
  9
$DIMDLE
 40
0.0
  9
$DIMEXE
 40
1.0
  9
$DIMTP
 40
0.0
  9
$DIMTM
 40
0.0
  9
$DIMTXT
 40
1.5
  9
$DIMCEN
 40
2.0
  9
$DIMTSZ
 40
0.0
  9
$DIMTOL
 70
     0
  9
$DIMLIM
 70
     0
  9
$DIMTIH
 70
     0
  9
$DIMTOH
 70
     0
  9
$DIMSE1
 70
     0
  9
$DIMSE2
 70
     0
  9
$DIMTAD
 70
     1
  9
$DIMZIN
 70
     0
  9
$DIMBLK
  1
ARCHTICK
  9
$DIMASO
 70
     1
  9
$DIMSHO
 70
     1
  9
$DIMPOST
  1
"
  9
$DIMAPOST
  1

  9
$DIMALT
 70
     0
  9
$DIMALTD
 70
     2
  9
$DIMALTF
 40
25.399999999999999
  9
$DIMLFAC
 40
1.0
  9
$DIMTOFL
 70
     0
  9
$DIMTVP
 40
0.0
  9
$DIMTIX
 70
     1
  9
$DIMSOXD
 70
     0
  9
$DIMSAH
 70
     0
  9
$DIMBLK1
  1

  9
$DIMBLK2
  1

  9
$DIMSTYLE
  2
THREE_QUARTER_INCH_SCALE
  9
$DIMCLRD
 70
     0
  9
$DIMCLRE
 70
     0
  9
$DIMCLRT
 70
     0
  9
$DIMTFAC
 40
1.0
  9
$DIMGAP
 40
1.0
  9
$LUNITS
 70
     2
  9
$LUPREC
 70
     4
  9
$SKETCHINC
 40
0.1
  9
$FILLETRAD
 40
0.0
  9
$AUNITS
 70
     0
  9
$AUPREC
 70
     0
  9
$MENU
  1
.
  9
$ELEVATION
 40
0.0
  9
$PELEVATION
 40
0.0
  9
$THICKNESS
 40
0.0
  9
$LIMCHECK
 70
     0
  9
$BLIPMODE
 70
     0
  9
$CHAMFERA
 40
0.5
  9
$CHAMFERB
 40
0.5
  9
$SKPOLY
 70
     0
  9
$TDCREATE
 40
2452089.395738773
  9
$TDUPDATE
 40
2453607.3810362378
  9
$TDINDWG
 40
1.0603664583000001
  9
$TDUSRTIMER
 40
1.0603664583000001
  9
$USRTIMER
 70
     1
  9
$ANGBASE
 50
0.0
  9
$ANGDIR
 70
     0
  9
$PDMODE
 70
     0
  9
$PDSIZE
 40
10.0
  9
$PLINEWID
 40
0.0
  9
$COORDS
 70
     1
  9
$SPLFRAME
 70
     0
  9
$SPLINETYPE
 70
     6
  9
$SPLINESEGS
 70
     8
  9
$ATTDIA
 70
     0
  9
$ATTREQ
 70
     1
  9
$HANDLING
 70
     1
  9
$HANDSEED
  5
F036
  9
$SURFTAB1
 70
     6
  9
$SURFTAB2
 70
     6
  9
$SURFTYPE
 70
     6
  9
$SURFU
 70
     6
  9
$SURFV
 70
     6
  9
$UCSNAME
  2

  9
$UCSORG
 10
0.0
 20
0.0
 30
0.0
  9
$UCSXDIR
 10
1.0
 20
0.0
 30
0.0
  9
$UCSYDIR
 10
0.0
 20
1.0
 30
0.0
  9
$PUCSNAME
  2

  9
$PUCSORG
 10
0.0
 20
0.0
 30
0.0
  9
$PUCSXDIR
 10
1.0
 20
0.0
 30
0.0
  9
$PUCSYDIR
 10
0.0
 20
1.0
 30
0.0
  9
$USERI1
 70
     0
  9
$USERI2
 70
     0
  9
$USERI3
 70
     0
  9
$USERI4
 70
     0
  9
$USERI5
 70
     0
  9
$USERR1
 40
0.0
  9
$USERR2
 40
0.0
  9
$USERR3
 40
0.0
  9
$USERR4
 40
0.0
  9
$USERR5
 40
0.0
  9
$WORLDVIEW
 70
     1
  9
$SHADEDGE
 70
     3
  9
$SHADEDIF
 70
    70
  9
$TILEMODE
 70
     0
  9
$MAXACTVP
 70
    64
  9
$PLIMCHECK
 70
     0
  9
$PEXTMIN
 10
0.0282895744820664
 20
0.0759353784799721
 30
-0.0015258207003583
  9
$PEXTMAX
 10
10.471709755853
 20
7.9577863512286546
 30
0.0000000349246037
  9
$PLIMMIN
 10
-0.2500002402958907
 20
-0.2499999962453767
  9
$PLIMMAX
 10
10.74999951940821
 20
8.2499997634587316
  9
$UNITMODE
 70
     0
  9
$VISRETAIN
 70
     1
  9
$PLINEGEN
 70
     0
  9
$PSLTSCALE
 70
     1
  0
ENDSEC
  0
SECTION
  2
TABLES
  0
TABLE
  2
VPORT
 70
    37
  0
VPORT
  2
*ACTIVE
 70
     0
 10
0.0
 20
0.0
 11
1.0
 21
1.0
 12
-386.32581642136768
 22
841.36608530633873
 13
0.0
 23
0.0
 14
0.5
 24
0.5
 15
0.5
 25
0.5
 16
0.0
 26
0.0
 36
1.0
 17
0.0
 27
0.0
 37
0.0
 40
11.642079406459411
 41
2.0226628895184131
 42
50.0
 43
0.0
 44
0.0
 50
0.0
 51
0.0
 71
     0
 72
   100
 73
     1
 74
     2
 75
     0
 76
     0
 77
     0
 78
     0
  0
ENDTAB
  0
TABLE
  2
LTYPE
 70
     1
  0
LTYPE
  2
CONTINUOUS
 70
     0
  3
Solid line
 72
    65
 73
     0
 40
0.0
  0
ENDTAB
  0
TABLE
  2
LAYER
 70
    10
  0
LAYER
  2
0
 70
     0
 62
     7
  6
CONTINUOUS
  0
LAYER
  2
DEFPOINTS
 70
     0
 62
     7
  6
CONTINUOUS
  0
LAYER
  2
FRAME_200
 70
     0
 62
     8
  6
CONTINUOUS
  0
LAYER
  2
FRAME_070
 70
     0
 62
     5
  6
CONTINUOUS
  0
LAYER
  2
FRAME_050
 70
     0
 62
     6
  6
CONTINUOUS
  0
LAYER
  2
TITLE_BLOCK
 70
     0
 62
     7
  6
CONTINUOUS
  0
LAYER
  2
FRAME_025
 70
     0
 62
     7
  6
CONTINUOUS
  0
LAYER
  2
VIEWPORT
 70
     0
 62
     7
  6
CONTINUOUS
  0
LAYER
  2
PROF
 70
     0
 62
     7
  6
CONTINUOUS
  0
LAYER
  2
PROFILE
 70
     0
 62
     7
  6
CONTINUOUS
  0
ENDTAB
  0
TABLE
  2
STYLE
 70
     2
  0
STYLE
  2
STANDARD
 70
     0
 40
0.0
 41
1.0
 50
0.0
 71
     0
 42
1.5
  3
txt
  4

  0
STYLE
  2
ISO_PROPORTIONAL
 70
     0
 40
0.0
 41
1.0
 50
0.0
 71
     0
 42
2.5
  3
isocp.shx
  4

  0
ENDTAB
  0
TABLE
  2
VIEW
 70
    38
  0
ENDTAB
  0
TABLE
  2
UCS
 70
     0
  0
ENDTAB
  0
TABLE
  2
APPID
 70
     6
  0
APPID
  2
ACAD
 70
     0
  0
APPID
  2
DCO15
 70
     0
  0
APPID
  2
ACAD_EXEMPT_FROM_CAD_STANDARDS
 70
     0
  0
APPID
  2
ACAD_PSEXT
 70
     0
  0
APPID
  2
CONTENTBLOCKDESCRIPTION
 70
     0
  0
APPID
  2
CONTENTBLOCKICON
 70
     0
  0
ENDTAB
  0
TABLE
  2
DIMSTYLE
 70
     5
  0
DIMSTYLE
  2
FULL_SCALE
 70
     0
  3
"
  4

  5
ARCHTICK
  6

  7

 40
1.0
 41
0.046875
 42
0.09375
 43
0.125
 44
0.0625
 45
0.0
 46
0.0
 47
0.0
 48
0.0
140
0.125
141
0.125
142
0.0
143
25.399999999999999
144
1.0
145
0.0
146
1.0
147
0.0625
 71
     0
 72
     0
 73
     0
 74
     0
 75
     0
 76
     0
 77
     1
 78
     0
170
     0
171
     2
172
     0
173
     0
174
     1
175
     0
176
     0
177
     0
178
     0
  0
DIMSTYLE
  2
HALF_SCALE
 70
     0
  3
"
  4

  5
ARCHTICK
  6

  7

 40
1.0
 41
0.09375
 42
0.1875
 43
0.25
 44
0.125
 45
0.0
 46
0.0
 47
0.0
 48
0.0
140
0.25
141
0.25
142
0.0
143
25.399999999999999
144
1.0
145
0.0
146
1.0
147
0.125
 71
     0
 72
     0
 73
     0
 74
     0
 75
     0
 76
     0
 77
     1
 78
     0
170
     0
171
     2
172
     0
173
     0
174
     1
175
     0
176
     0
177
     0
178
     0
  0
DIMSTYLE
  2
INCH_SCALE
 70
     0
  3
"
  4

  5
ARCHTICK
  6

  7

 40
1.0
 41
0.5625
 42
1.125
 43
1.5
 44
0.75
 45
0.0
 46
0.0
 47
0.0
 48
0.0
140
1.125
141
1.5
142
0.0
143
25.399999999999999
144
1.0
145
0.0
146
1.0
147
0.75
 71
     0
 72
     0
 73
     0
 74
     0
 75
     0
 76
     0
 77
     1
 78
     0
170
     0
171
     2
172
     0
173
     0
174
     1
175
     0
176
     0
177
     0
178
     0
  0
DIMSTYLE
  2
THREE_QUARTER_INCH_SCALE
 70
     0
  3
"
  4

  5
ARCHTICK
  6

  7

 40
1.0
 41
0.75
 42
1.5
 43
2.0
 44
1.0
 45
0.0
 46
0.0
 47
0.0
 48
0.0
140
1.5
141
2.0
142
0.0
143
25.399999999999999
144
1.0
145
0.0
146
1.0
147
1.0
 71
     0
 72
     0
 73
     0
 74
     0
 75
     0
 76
     0
 77
     1
 78
     0
170
     0
171
     2
172
     0
173
     0
174
     1
175
     0
176
     0
177
     0
178
     0
  0
DIMSTYLE
  2
ZHALF_INCH_SCALE
 70
     0
  3
"
  4

  5
ARCHTICK
  6

  7

 40
1.0
 41
1.125
 42
2.25
 43
3.0
 44
1.5
 45
0.0
 46
0.0
 47
0.0
 48
0.0
140
2.25
141
3.0
142
0.0
143
25.399999999999999
144
1.0
145
0.0
146
1.0
147
1.5
 71
     0
 72
     0
 73
     0
 74
     0
 75
     0
 76
     0
 77
     1
 78
     0
170
     0
171
     2
172
     0
173
     0
174
     1
175
     0
176
     0
177
     0
178
     0
  0
ENDTAB
  0
ENDSEC
  0
SECTION
  2
BLOCKS
  0
BLOCK
  8
0
  2
$MODEL_SPACE
 70
     0
 10
0.0
 20
0.0
 30
0.0
  3
$MODEL_SPACE
  1

  0
ENDBLK
  5
21
  8
0
  0
BLOCK
 67
     1
  8
0
  2
$PAPER_SPACE
 70
     0
 10
0.0
 20
0.0
 30
0.0
  3
$PAPER_SPACE
  1

  0
ENDBLK
  5
BAD5
 67
     1
  8
0
  0
BLOCK
  8
0
  2
_ARCHTICK
 70
     0
 10
0.0
 20
0.0
 30
0.0
  3
_ARCHTICK
  1

  0
POLYLINE
  5
158
  8
0
  6
BYBLOCK
 62
     0
 66
     1
 10
0.0
 20
0.0
 30
0.0
 40
0.15
 41
0.15
  0
VERTEX
  5
EE4E
  8
0
  6
BYBLOCK
 62
     0
 10
-0.5
 20
-0.5
 30
0.0
  0
VERTEX
  5
EE4F
  8
0
  6
BYBLOCK
 62
     0
 10
0.5
 20
0.5
 30
0.0
  0
SEQEND
  5
EE50
  8
0
  6
BYBLOCK
 62
     0
  0
ENDBLK
  5
15A
  8
0
  0
BLOCK
  8
0
  2
_OPEN30
 70
     0
 10
0.0
 20
0.0
 30
0.0
  3
_OPEN30
  1

  0
LINE
  5
15C
  8
0
  6
BYBLOCK
 62
     0
 10
-1.0
 20
0.26794919
 30
0.0
 11
0.0
 21
0.0
 31
0.0
  0
LINE
  5
15D
  8
0
  6
BYBLOCK
 62
     0
 10
0.0
 20
0.0
 30
0.0
 11
-1.0
 21
-0.26794919
 31
0.0
  0
LINE
  5
15E
  8
0
  6
BYBLOCK
 62
     0
 10
0.0
 20
0.0
 30
0.0
 11
-1.0
 21
0.0
 31
0.0
  0
ENDBLK
  5
160
  8
0
  0
BLOCK
  8
0
  2
ISO_A2_TITLE_BLOCK
 70
     2
 10
0.0
 20
0.0
 30
0.0
  3
ISO_A2_TITLE_BLOCK
  1

  0
LINE
  5
BDD
  8
FRAME_050
 10
299.5
 20
12.5
 30
0.0
 11
297.0
 21
7.5
 31
0.0
  0
LINE
  5
BDE
  8
FRAME_050
 10
294.5
 20
12.5
 30
0.0
 11
299.5
 21
12.5
 31
0.0
  0
LINE
  5
BDF
  8
FRAME_050
 10
247.0
 20
5.0
 30
0.0
 11
347.0
 21
5.0
 31
0.0
  0
LINE
  5
BE0
  8
FRAME_070
 10
584.0
 20
410.0
 30
0.0
 11
10.0
 21
410.0
 31
0.0
  0
LINE
  5
BE1
  8
FRAME_070
 10
10.0
 20
10.0
 30
0.0
 11
584.0
 21
10.0
 31
0.0
  0
LINE
  5
BE2
  8
FRAME_050
 10
12.5
 20
207.5
 30
0.0
 11
7.5
 21
210.0
 31
0.0
  0
LINE
  5
BE3
  8
FRAME_050
 10
12.5
 20
212.5
 30
0.0
 11
12.5
 21
207.5
 31
0.0
  0
LINE
  5
BE4
  8
FRAME_070
 10
10.0
 20
410.0
 30
0.0
 11
10.0
 21
10.0
 31
0.0
  0
LINE
  5
BE5
  8
FRAME_200
 10
0.0
 20
0.0
 30
0.0
 11
0.0
 21
10.0
 31
0.0
  0
LINE
  5
BE6
  8
FRAME_200
 10
0.0
 20
0.0
 30
0.0
 11
10.0
 21
0.0
 31
0.0
  0
TEXT
  5
BE7
  8
FRAME_050
 10
5.9000000000000004
 20
35.0
 30
0.0
 40
4.0
  1
H
  7
ISO_PROPORTIONAL
 72
     4
 11
7.5
 21
37.0
 31
0.0
  0
LINE
  5
BE8
  8
FRAME_050
 10
10.0
 20
60.0
 30
0.0
 11
5.0
 21
60.0
 31
0.0
  0
LINE
  5
BE9
  8
FRAME_050
 10
81.75
 20
5.0
 30
0.0
 11
81.75
 21
10.0
 31
0.0
  0
TEXT
  5
BEA
  8
FRAME_050
 10
44.874999999999993
 20
5.5
 30
0.0
 40
4.0
  1
1
  7
ISO_PROPORTIONAL
 72
     4
 11
45.875
 21
7.5
 31
0.0
  0
TEXT
  5
BEB
  8
FRAME_050
 10
6.0035533905932743
 20
85.0
 30
0.0
 40
4.0
  1
G
  7
ISO_PROPORTIONAL
 72
     4
 11
7.5
 21
87.0
 31
0.0
  0
LINE
  5
BEC
  8
FRAME_050
 10
10.0
 20
110.0
 30
0.0
 11
5.0
 21
110.0
 31
0.0
  0
TEXT
  5
BED
  8
FRAME_050
 10
6.0999999999999988
 20
135.0
 30
0.0
 40
4.0
  1
F
  7
ISO_PROPORTIONAL
 72
     4
 11
7.5
 21
137.0
 31
0.0
  0
LINE
  5
BEE
  8
FRAME_050
 10
10.0
 20
160.0
 30
0.0
 11
5.0
 21
160.0
 31
0.0
  0
TEXT
  5
BEF
  8
FRAME_050
 10
6.0999999999999988
 20
185.0
 30
0.0
 40
4.0
  1
E
  7
ISO_PROPORTIONAL
 72
     4
 11
7.5
 21
187.0
 31
0.0
  0
LINE
  5
BF0
  8
FRAME_050
 10
153.5
 20
5.0
 30
0.0
 11
153.5
 21
10.0
 31
0.0
  0
TEXT
  5
BF1
  8
FRAME_050
 10
116.1556692913386
 20
5.3996062992125982
 30
0.0
 40
4.0
  1
2
  7
ISO_PROPORTIONAL
 72
     4
 11
117.625
 21
7.5
 31
0.0
  0
TEXT
  5
BF2
  8
FRAME_050
 10
187.89215728752529
 20
5.5828427124746138
 30
0.0
 40
4.0
  1
3
  7
ISO_PROPORTIONAL
 72
     4
 11
189.375
 21
7.5
 31
0.0
  0
LINE
  5
BF3
  8
FRAME_050
 10
225.25
 20
5.0
 30
0.0
 11
225.25
 21
10.0
 31
0.0
  0
LINE
  5
BF4
  8
FRAME_050
 10
297.0
 20
7.5
 30
0.0
 11
294.5
 21
12.5
 31
0.0
  0
LINE
  5
BF5
  8
FRAME_050
 10
287.0
 20
5.0
 30
0.0
 11
287.0
 21
10.0
 31
0.0
  0
LINE
  5
BF6
  8
FRAME_050
 10
277.0
 20
5.0
 30
0.0
 11
277.0
 21
10.0
 31
0.0
  0
LINE
  5
BF7
  8
FRAME_050
 10
267.0
 20
5.0
 30
0.0
 11
267.0
 21
10.0
 31
0.0
  0
LINE
  5
BF8
  8
FRAME_050
 10
257.0
 20
5.0
 30
0.0
 11
257.0
 21
10.0
 31
0.0
  0
LINE
  5
BF9
  8
FRAME_050
 10
247.0
 20
5.0
 30
0.0
 11
247.0
 21
10.0
 31
0.0
  0
LINE
  5
BFA
  8
FRAME_050
 10
297.0
 20
10.0
 30
0.0
 11
297.0
 21
5.0
 31
0.0
  0
LINE
  5
BFB
  8
FRAME_050
 10
297.0
 20
10.0
 30
0.0
 11
297.0
 21
15.0
 31
0.0
  0
LINE
  5
BFC
  8
FRAME_050
 10
5.0
 20
210.0
 30
0.0
 11
15.0
 21
210.0
 31
0.0
  0
LINE
  5
BFD
  8
FRAME_050
 10
7.5
 20
210.0
 30
0.0
 11
12.5
 21
212.5
 31
0.0
  0
TEXT
  5
BFE
  8
FRAME_050
 10
5.7860912703473977
 20
235.0
 30
0.0
 40
4.0
  1
D
  7
ISO_PROPORTIONAL
 72
     4
 11
7.5
 21
237.0
 31
0.0
  0
LINE
  5
BFF
  8
FRAME_050
 10
10.0
 20
260.0
 30
0.0
 11
5.0
 21
260.0
 31
0.0
  0
TEXT
  5
C00
  8
FRAME_050
 10
6.1931980515339466
 20
285.0
 30
0.0
 40
4.0
  1
C
  7
ISO_PROPORTIONAL
 72
     4
 11
7.5
 21
287.0
 31
0.0
  0
LINE
  5
C01
  8
FRAME_050
 10
10.0
 20
310.0
 30
0.0
 11
5.0
 21
310.0
 31
0.0
  0
TEXT
  5
C02
  8
FRAME_050
 10
5.8999999999999959
 20
335.0
 30
0.0
 40
4.0
  1
B
  7
ISO_PROPORTIONAL
 72
     4
 11
7.5
 21
337.0
 31
0.0
  0
LINE
  5
C03
  8
FRAME_050
 10
10.0
 20
360.0
 30
0.0
 11
5.0
 21
360.0
 31
0.0
  0
TEXT
  5
C04
  8
FRAME_050
 10
5.6999999999999993
 20
385.0
 30
0.0
 40
4.0
  1
A
  7
ISO_PROPORTIONAL
 72
     4
 11
7.5
 21
387.0
 31
0.0
  0
LINE
  5
C05
  8
FRAME_200
 10
10.0
 20
420.0
 30
0.0
 11
0.0
 21
420.0
 31
0.0
  0
LINE
  5
C06
  8
FRAME_200
 10
0.0
 20
420.0
 30
0.0
 11
0.0
 21
410.0
 31
0.0
  0
TEXT
  5
C07
  8
FRAME_050
 10
44.874999999999993
 20
410.5
 30
0.0
 40
4.0
  1
1
  7
ISO_PROPORTIONAL
 72
     4
 11
45.875
 21
412.5
 31
0.0
  0
LINE
  5
C08
  8
FRAME_050
 10
81.75
 20
410.0
 30
0.0
 11
81.75
 21
415.0
 31
0.0
  0
TEXT
  5
C09
  8
FRAME_050
 10
116.1556692913386
 20
410.39960629921262
 30
0.0
 40
4.0
  1
2
  7
ISO_PROPORTIONAL
 72
     4
 11
117.625
 21
412.5
 31
0.0
  0
LINE
  5
C0A
  8
FRAME_050
 10
153.5
 20
410.0
 30
0.0
 11
153.5
 21
415.0
 31
0.0
  0
TEXT
  5
C0B
  8
FRAME_050
 10
187.89215728752529
 20
410.58284271247459
 30
0.0
 40
4.0
  1
3
  7
ISO_PROPORTIONAL
 72
     4
 11
189.375
 21
412.5
 31
0.0
  0
LINE
  5
C0C
  8
FRAME_050
 10
297.0
 20
405.0
 30
0.0
 11
297.0
 21
415.0
 31
0.0
  0
LINE
  5
C0D
  8
FRAME_050
 10
225.25
 20
410.0
 30
0.0
 11
225.25
 21
415.0
 31
0.0
  0
TEXT
  5
C0E
  8
FRAME_050
 10
259.52499999999998
 20
410.5
 30
0.0
 40
4.0
  1
4
  7
ISO_PROPORTIONAL
 72
     4
 11
261.125
 21
412.5
 31
0.0
  0
LINE
  5
C0F
  8
FRAME_070
 10
584.0
 20
10.0
 30
0.0
 11
584.0
 21
410.0
 31
0.0
  0
ATTDEF
  5
C10
  8
FRAME_025
 10
473.0
 20
31.75
 30
0.0
 40
2.5
  1
XXX - 00/00/00
  7
ISO_PROPORTIONAL
 11
473.0
 21
33.0
 31
0.0
  3
Approved by - Date
  2
APPROVED_BY_DATE
 70
     8
 74
     2
  0
TEXT
  5
C11
  8
FRAME_025
 10
448.0
 20
41.749999999999993
 30
0.0
 40
2.5
  1
Title/Name, designation, material, dimension etc
  7
ISO_PROPORTIONAL
 11
448.0
 21
43.0
 31
0.0
 73
     2
  0
TEXT
  5
C12
  8
FRAME_025
 10
473.0
 20
35.75
 30
0.0
 40
2.5
  1
Approved by - date
  7
ISO_PROPORTIONAL
 11
473.0
 21
37.0
 31
0.0
 73
     2
  0
LINE
  5
C13
  8
FRAME_070
 10
414.0
 20
46.0
 30
0.0
 11
584.0
 21
46.0
 31
0.0
  0
LINE
  5
C14
  8
FRAME_070
 10
414.0
 20
40.0
 30
0.0
 11
584.0
 21
40.0
 31
0.0
  0
LINE
  5
C15
  8
FRAME_070
 10
414.0
 20
30.0
 30
0.0
 11
584.0
 21
30.0
 31
0.0
  0
LINE
  5
C16
  8
FRAME_050
 10
368.75
 20
5.0
 30
0.0
 11
368.75
 21
10.0
 31
0.0
  0
LINE
  5
C17
  8
FRAME_050
 10
337.0
 20
5.0
 30
0.0
 11
337.0
 21
10.0
 31
0.0
  0
LINE
  5
C18
  8
FRAME_050
 10
327.0
 20
5.0
 30
0.0
 11
327.0
 21
10.0
 31
0.0
  0
LINE
  5
C19
  8
FRAME_050
 10
317.0
 20
5.0
 30
0.0
 11
317.0
 21
10.0
 31
0.0
  0
LINE
  5
C1A
  8
FRAME_050
 10
307.0
 20
5.0
 30
0.0
 11
307.0
 21
10.0
 31
0.0
  0
LINE
  5
C1B
  8
FRAME_050
 10
347.0
 20
5.0
 30
0.0
 11
347.0
 21
10.0
 31
0.0
  0
LINE
  5
C1C
  8
FRAME_050
 10
440.5
 20
5.0
 30
0.0
 11
440.5
 21
10.0
 31
0.0
  0
TEXT
  5
C1D
  8
FRAME_050
 10
403.24547244094481
 20
5.4102362204724406
 30
0.0
 40
4.0
  1
6
  7
ISO_PROPORTIONAL
 72
     4
 11
404.62499999999989
 21
7.5
 31
0.0
  0
TEXT
  5
C1E
  8
FRAME_050
 10
474.97500000000002
 20
5.5
 30
0.0
 40
4.0
  1
7
  7
ISO_PROPORTIONAL
 72
     4
 11
476.37499999999989
 21
7.5
 31
0.0
  0
TEXT
  5
C1F
  8
FRAME_025
 10
431.0
 20
41.749999999999993
 30
0.0
 40
2.5
  1
Quantity
  7
ISO_PROPORTIONAL
 11
431.0
 21
43.0
 31
0.0
 73
     2
  0
TEXT
  5
C20
  8
FRAME_025
 10
416.0
 20
41.749999999999993
 30
0.0
 40
2.5
  1
Itemref
  7
ISO_PROPORTIONAL
 11
416.0
 21
43.0
 31
0.0
 73
     2
  0
LINE
  5
C21
  8
FRAME_070
 10
414.0
 20
40.0
 30
0.0
 11
414.0
 21
46.0
 31
0.0
  0
LINE
  5
C22
  8
FRAME_070
 10
429.0
 20
40.0
 30
0.0
 11
429.0
 21
46.0
 31
0.0
  0
LINE
  5
C23
  8
FRAME_070
 10
414.0
 20
10.0
 30
0.0
 11
414.0
 21
40.0
 31
0.0
  0
ATTDEF
  5
C24
  8
FRAME_025
 10
416.0
 20
31.75
 30
0.0
 40
2.5
  1
XXX
  7
ISO_PROPORTIONAL
 11
416.0
 21
33.0
 31
0.0
  3
Designed by
  2
DESIGNED_BY
 70
     8
 74
     2
  0
TEXT
  5
C25
  8
FRAME_025
 10
416.0
 20
35.75
 30
0.0
 40
2.5
  1
Designed by
  7
ISO_PROPORTIONAL
 11
416.0
 21
37.0
 31
0.0
 73
     2
  0
LINE
  5
C26
  8
FRAME_070
 10
446.0
 20
40.0
 30
0.0
 11
446.0
 21
46.0
 31
0.0
  0
ATTDEF
  5
C27
  8
FRAME_025
 10
448.0
 20
31.75
 30
0.0
 40
2.5
  1
XXX
  7
ISO_PROPORTIONAL
 11
448.0
 21
33.0
 31
0.0
  3
Checked by
  2
CHECKED_BY
 70
     8
 74
     2
  0
TEXT
  5
C28
  8
FRAME_025
 10
448.0
 20
35.75
 30
0.0
 40
2.5
  1
Checked by
  7
ISO_PROPORTIONAL
 11
448.0
 21
37.0
 31
0.0
 73
     2
  0
ATTDEF
  5
C29
  8
FRAME_050
 10
444.74999999999989
 20
17.5
 30
0.0
 40
5.0
  1
XXX
  7
ISO_PROPORTIONAL
 72
     4
 11
451.49999999999989
 21
20.0
 31
0.0
  3
Owner
  2
OWNER
 70
     8
  0
LINE
  5
C2A
  8
FRAME_070
 10
446.0
 20
30.0
 30
0.0
 11
446.0
 21
40.0
 31
0.0
  0
LINE
  5
C2B
  8
FRAME_070
 10
471.0
 20
30.0
 30
0.0
 11
471.0
 21
40.0
 31
0.0
  0
LINE
  5
C2C
  8
FRAME_070
 10
489.0
 20
20.0
 30
0.0
 11
584.0
 21
20.0
 31
0.0
  0
LINE
  5
C2D
  8
FRAME_050
 10
512.25
 20
5.0
 30
0.0
 11
512.25
 21
10.0
 31
0.0
  0
TEXT
  5
C2E
  8
FRAME_050
 10
546.72499999999991
 20
5.5
 30
0.0
 40
4.0
  1
8
  7
ISO_PROPORTIONAL
 72
     4
 11
548.125
 21
7.5
 31
0.0
  0
ATTDEF
  5
C2F
  8
FRAME_050
 10
517.64999999999986
 20
13.5
 30
0.0
 40
3.0
  1
X
  7
ISO_PROPORTIONAL
 72
     4
 11
519.0
 21
15.0
 31
0.0
  3
Drawing number
  2
DRAWING_NUMBER
 70
     8
  0
ATTDEF
  5
C30
  8
FRAME_050
 10
529.75
 20
22.5
 30
0.0
 40
5.0
  1
XXX
  7
ISO_PROPORTIONAL
 72
     4
 11
536.5
 21
25.0
 31
0.0
  3
Title / Name
  2
TITLE
 70
     8
  0
LINE
  5
C31
  8
FRAME_070
 10
489.0
 20
10.0
 30
0.0
 11
489.0
 21
30.0
 31
0.0
  0
ATTDEF
  5
C32
  8
FRAME_025
 10
511.0
 20
31.75
 30
0.0
 40
2.5
  1
XXX
  7
ISO_PROPORTIONAL
 11
511.0
 21
33.0
 31
0.0
  3
Filename
  2
FILENAME
 70
     8
 74
     2
  0
TEXT
  5
C33
  8
FRAME_025
 10
511.0
 20
35.75
 30
0.0
 40
2.5
  1
Filename
  7
ISO_PROPORTIONAL
 11
511.0
 21
37.0
 31
0.0
 73
     2
  0
LINE
  5
C34
  8
FRAME_070
 10
509.0
 20
30.0
 30
0.0
 11
509.0
 21
40.0
 31
0.0
  0
TEXT
  5
C35
  8
FRAME_025
 10
536.0
 20
41.749999999999993
 30
0.0
 40
2.5
  1
Article No./Reference
  7
ISO_PROPORTIONAL
 11
536.0
 21
43.0
 31
0.0
 73
     2
  0
LINE
  5
C36
  8
FRAME_070
 10
534.0
 20
40.0
 30
0.0
 11
534.0
 21
46.0
 31
0.0
  0
ATTDEF
  5
C37
  8
FRAME_025
 10
551.0
 20
11.75
 30
0.0
 40
2.5
  1
0
  7
ISO_PROPORTIONAL
 11
551.0
 21
13.0
 31
0.0
  3
Edition
  2
EDITION
 70
     8
 74
     2
  0
TEXT
  5
C38
  8
FRAME_025
 10
551.0
 20
15.75
 30
0.0
 40
2.5
  1
Edition
  7
ISO_PROPORTIONAL
 11
551.0
 21
17.0
 31
0.0
 73
     2
  0
LINE
  5
C39
  8
FRAME_070
 10
549.0
 20
10.0
 30
0.0
 11
549.0
 21
20.0
 31
0.0
  0
ATTDEF
  5
C3A
  8
FRAME_025
 10
536.0
 20
31.75
 30
0.0
 40
2.5
  1
00/00/00
  7
ISO_PROPORTIONAL
 11
536.0
 21
33.0
 31
0.0
  3
Date
  2
DATE
 70
     8
 74
     2
  0
TEXT
  5
C3B
  8
FRAME_025
 10
536.0
 20
35.75
 30
0.0
 40
2.5
  1
Date
  7
ISO_PROPORTIONAL
 11
536.0
 21
37.0
 31
0.0
 73
     2
  0
LINE
  5
C3C
  8
FRAME_070
 10
534.0
 20
30.0
 30
0.0
 11
534.0
 21
40.0
 31
0.0
  0
ATTDEF
  5
C3D
  8
FRAME_025
 10
566.0
 20
11.75
 30
0.0
 40
2.5
  1
1/1
  7
ISO_PROPORTIONAL
 11
566.0
 21
13.0
 31
0.0
  3
Sheet
  2
SHEET
 70
     8
 74
     2
  0
TEXT
  5
C3E
  8
FRAME_025
 10
566.0
 20
15.75
 30
0.0
 40
2.5
  1
Sheet
  7
ISO_PROPORTIONAL
 11
566.0
 21
17.0
 31
0.0
 73
     2
  0
LINE
  5
C3F
  8
FRAME_070
 10
564.0
 20
10.0
 30
0.0
 11
564.0
 21
20.0
 31
0.0
  0
ATTDEF
  5
C40
  8
FRAME_025
 10
566.0
 20
31.75
 30
0.0
 40
2.5
  1
1:1
  7
ISO_PROPORTIONAL
 11
566.0
 21
33.0
 31
0.0
  3
Scale
  2
SCALE
 70
     8
 74
     2
  0
TEXT
  5
C41
  8
FRAME_025
 10
566.0
 20
35.75
 30
0.0
 40
2.5
  1
Scale
  7
ISO_PROPORTIONAL
 11
566.0
 21
37.0
 31
0.0
 73
     2
  0
LINE
  5
C42
  8
FRAME_070
 10
564.0
 20
30.0
 30
0.0
 11
564.0
 21
40.0
 31
0.0
  0
LINE
  5
C43
  8
FRAME_200
 10
594.0
 20
0.0
 30
0.0
 11
594.0
 21
10.0
 31
0.0
  0
LINE
  5
C44
  8
FRAME_200
 10
594.0
 20
0.0
 30
0.0
 11
584.0
 21
0.0
 31
0.0
  0
TEXT
  5
C45
  8
FRAME_050
 10
584.89999999999998
 20
35.0
 30
0.0
 40
4.0
  1
H
  7
ISO_PROPORTIONAL
 72
     4
 11
586.5
 21
37.0
 31
0.0
  0
LINE
  5
C46
  8
FRAME_050
 10
589.0
 20
60.0
 30
0.0
 11
584.0
 21
60.0
 31
0.0
  0
TEXT
  5
C47
  8
FRAME_050
 10
585.0035533905932
 20
85.0
 30
0.0
 40
4.0
  1
G
  7
ISO_PROPORTIONAL
 72
     4
 11
586.5
 21
87.0
 31
0.0
  0
LINE
  5
C48
  8
FRAME_050
 10
589.0
 20
110.0
 30
0.0
 11
584.0
 21
110.0
 31
0.0
  0
TEXT
  5
C49
  8
FRAME_050
 10
585.09999999999991
 20
135.0
 30
0.0
 40
4.0
  1
F
  7
ISO_PROPORTIONAL
 72
     4
 11
586.5
 21
137.0
 31
0.0
  0
LINE
  5
C4A
  8
FRAME_050
 10
589.0
 20
160.0
 30
0.0
 11
584.0
 21
160.0
 31
0.0
  0
TEXT
  5
C4B
  8
FRAME_050
 10
585.09999999999991
 20
185.0
 30
0.0
 40
4.0
  1
E
  7
ISO_PROPORTIONAL
 72
     4
 11
586.5
 21
187.0
 31
0.0
  0
LINE
  5
C4C
  8
FRAME_070
 10
414.0
 20
404.0
 30
0.0
 11
584.0
 21
404.0
 31
0.0
  0
TEXT
  5
C4D
  8
FRAME_050
 10
331.39215728752538
 20
410.58284271247459
 30
0.0
 40
4.0
  1
5
  7
ISO_PROPORTIONAL
 72
     4
 11
332.875
 21
412.5
 31
0.0
  0
LINE
  5
C4E
  8
FRAME_050
 10
368.75
 20
410.0
 30
0.0
 11
368.75
 21
415.0
 31
0.0
  0
TEXT
  5
C4F
  8
FRAME_025
 10
428.0
 20
405.75
 30
0.0
 40
2.5
  1
Revision note
  7
ISO_PROPORTIONAL
 11
428.0
 21
407.0
 31
0.0
 73
     2
  0
TEXT
  5
C50
  8
FRAME_025
 10
416.0
 20
405.75
 30
0.0
 40
2.5
  1
RevNo
  7
ISO_PROPORTIONAL
 11
416.0
 21
407.0
 31
0.0
 73
     2
  0
LINE
  5
C51
  8
FRAME_070
 10
426.0
 20
404.0
 30
0.0
 11
426.0
 21
410.0
 31
0.0
  0
LINE
  5
C52
  8
FRAME_070
 10
414.0
 20
404.0
 30
0.0
 11
414.0
 21
410.0
 31
0.0
  0
TEXT
  5
C53
  8
FRAME_050
 10
403.24547244094481
 20
410.41023622047243
 30
0.0
 40
4.0
  1
6
  7
ISO_PROPORTIONAL
 72
     4
 11
404.62499999999989
 21
412.5
 31
0.0
  0
LINE
  5
C54
  8
FRAME_050
 10
440.5
 20
410.0
 30
0.0
 11
440.5
 21
415.0
 31
0.0
  0
TEXT
  5
C55
  8
FRAME_050
 10
474.97500000000002
 20
410.5
 30
0.0
 40
4.0
  1
7
  7
ISO_PROPORTIONAL
 72
     4
 11
476.37499999999989
 21
412.5
 31
0.0
  0
LINE
  5
C56
  8
FRAME_050
 10
579.0
 20
210.0
 30
0.0
 11
589.0
 21
210.0
 31
0.0
  0
TEXT
  5
C57
  8
FRAME_050
 10
584.78609127034736
 20
235.0
 30
0.0
 40
4.0
  1
D
  7
ISO_PROPORTIONAL
 72
     4
 11
586.5
 21
237.0
 31
0.0
  0
LINE
  5
C58
  8
FRAME_050
 10
589.0
 20
260.0
 30
0.0
 11
584.0
 21
260.0
 31
0.0
  0
TEXT
  5
C59
  8
FRAME_050
 10
585.19319805153395
 20
285.0
 30
0.0
 40
4.0
  1
C
  7
ISO_PROPORTIONAL
 72
     4
 11
586.5
 21
287.0
 31
0.0
  0
LINE
  5
C5A
  8
FRAME_050
 10
589.0
 20
310.0
 30
0.0
 11
584.0
 21
310.0
 31
0.0
  0
TEXT
  5
C5B
  8
FRAME_050
 10
584.89999999999998
 20
335.0
 30
0.0
 40
4.0
  1
B
  7
ISO_PROPORTIONAL
 72
     4
 11
586.5
 21
337.0
 31
0.0
  0
TEXT
  5
C5C
  8
FRAME_025
 10
571.08299391850551
 20
405.75
 30
0.0
 40
2.5
  1
Checked
  7
ISO_PROPORTIONAL
 11
571.08299391850551
 21
407.0
 31
0.0
 73
     2
  0
TEXT
  5
C5D
  8
FRAME_025
 10
555.36099797283532
 20
405.75
 30
0.0
 40
2.5
  1
Signature
  7
ISO_PROPORTIONAL
 11
555.36099797283532
 21
407.0
 31
0.0
 73
     2
  0
TEXT
  5
C5E
  8
FRAME_025
 10
537.0
 20
405.75
 30
0.0
 40
2.5
  1
Date
  7
ISO_PROPORTIONAL
 11
537.0
 21
407.0
 31
0.0
 73
     2
  0
LINE
  5
C5F
  8
FRAME_070
 10
570.0
 20
404.0
 30
0.0
 11
570.0
 21
410.0
 31
0.0
  0
LINE
  5
C60
  8
FRAME_070
 10
555.0
 20
404.0
 30
0.0
 11
555.0
 21
410.0
 31
0.0
  0
LINE
  5
C61
  8
FRAME_070
 10
535.0
 20
404.0
 30
0.0
 11
535.0
 21
410.0
 31
0.0
  0
LINE
  5
C62
  8
FRAME_050
 10
512.25
 20
410.0
 30
0.0
 11
512.25
 21
415.0
 31
0.0
  0
TEXT
  5
C63
  8
FRAME_050
 10
546.72499999999991
 20
410.5
 30
0.0
 40
4.0
  1
8
  7
ISO_PROPORTIONAL
 72
     4
 11
548.125
 21
412.5
 31
0.0
  0
LINE
  5
C64
  8
FRAME_050
 10
589.0
 20
360.0
 30
0.0
 11
584.0
 21
360.0
 31
0.0
  0
TEXT
  5
C65
  8
FRAME_050
 10
584.70000000000005
 20
385.0
 30
0.0
 40
4.0
  1
A
  7
ISO_PROPORTIONAL
 72
     4
 11
586.5
 21
387.0
 31
0.0
  0
LINE
  5
C66
  8
FRAME_200
 10
594.0
 20
420.0
 30
0.0
 11
584.0
 21
420.0
 31
0.0
  0
LINE
  5
C67
  8
FRAME_200
 10
594.0
 20
410.0
 30
0.0
 11
594.0
 21
420.0
 31
0.0
  0
ENDBLK
  5
C69
  8
0
  0
BLOCK
  8
0
  2
WOBB001END
 70
     0
 10
0.0
 20
0.0
 30
0.0
  3
WOBB001END
  1

  0
LINE
  5
4D66
  8
0
  6
CONTINUOUS
 10
0.0
 20
0.0
 30
0.0
 11
0.8749999999999998
 21
0.0
 31
0.0
  0
ARC
  5
4D67
  8
0
  6
CONTINUOUS
 10
0.0331648379439287
 20
-0.5087238935900232
 30
0.0
 40
0.8790130605592325
 50
284.06490243660443
 51
312.19222981924361
  0
ARC
  5
4D68
  8
0
  6
CONTINUOUS
 10
0.2841534338796767
 20
-1.510548310625538
 30
0.0
 40
0.1537731892806598
 50
104.0649024366044
 51
179.4721730735024
  0
LINE
  5
4D69
  8
0
  6
CONTINUOUS
 10
0.0
 20
0.0
 30
0.0
 11
-0.0000000000000003
 21
-1.7501564476661919
 31
0.0
  0
ARC
  5
4D6A
  8
0
  6
CONTINUOUS
 10
0.1404622019506122
 20
-1.6303137183546199
 30
0.0
 40
0.1198427293115722
 50
275.0
 51
85.000000000000057
  0
LINE
  5
4D6B
  8
0
  6
CONTINUOUS
 10
-0.0000000000000003
 20
-1.7501564476661919
 30
0.0
 11
0.1456946485130855
 21
-1.7501564476661919
 31
0.0
  0
LINE
  5
4D6C
  8
0
  6
CONTINUOUS
 10
0.1377603739254348
 20
-1.7508506067459131
 30
0.0
 11
0.150907184036669
 21
-1.749700409899652
 31
0.0
  0
LINE
  5
4D6D
  8
0
  6
CONTINUOUS
 10
0.1303867696719884
 20
-1.5091317231818231
 30
0.0
 11
0.1509071840366689
 21
-1.5109270268095869
 31
0.0
  0
LINE
  5
4D6E
  8
0
  6
CONTINUOUS
 10
0.8749999999999998
 20
0.0
 30
0.0
 11
0.8749999999999996
 21
-0.8649327026588228
 31
0.0
  0
LINE
  5
4D6F
  8
0
  6
CONTINUOUS
 10
0.727014513830997
 20
-0.8726882933550612
 30
0.0
 11
0.727014513830997
 21
-0.9264923397184784
 31
0.0
  0
ARC
  5
4D70
  8
0
  6
CONTINUOUS
 10
0.41187090827646
 20
-0.9264923397184784
 30
0.0
 40
0.315143605554537
 50
312.19222981924361
 51
0.0
  0
LINE
  5
4D71
  8
0
  6
CONTINUOUS
 10
0.727014513830997
 20
-0.8726882933550612
 30
0.0
 11
0.8749999999999996
 21
-0.8649327026588228
 31
0.0
  0
ENDBLK
  5
4D72
  8
0
  0
BLOCK
  8
0
  2
A$C0A61123B
 70
     0
 10
0.0
 20
0.0
 30
0.0
  3
A$C0A61123B
  1

  0
LINE
  5
C0AD
  8
PROF
  6
CONTINUOUS
 10
4.9012016798694162
 20
13.325025853350891
 30
0.0000000000000002
 11
4.9012016798694162
 21
12.88585218805485
 31
0.0000000000000003
  0
INSERT
  5
C0AE
  8
0
  2
*U38
 10
0.0
 20
0.0
 30
0.0
  0
LINE
  5
C0AF
  8
PROF
 10
4.5198575031869259
 20
12.72227734589444
 30
0.0000000000000001
 11
4.5198575031869259
 21
12.88585218805485
 31
0.0000000000000001
  0
LINE
  5
C0B0
  8
PROF
  6
CONTINUOUS
 10
3.6306271195888371
 20
13.325025853350891
 30
0.0000000000000002
 11
4.9012016798694162
 21
13.325025853350891
 31
0.0000000000000002
  0
LINE
  5
C0B1
  8
PROF
 10
1.9750295148747341
 20
10.37671325491794
 30
0.0000000000000002
 11
1.9750295148747341
 21
10.11391186758919
 31
0.0000000000000002
  0
LINE
  5
C0B2
  8
PROF
 10
1.607967335755631
 20
10.11391186758919
 30
0.0000000000000001
 11
1.9750295148747341
 21
10.11391186758919
 31
0.0000000000000001
  0
LINE
  5
C0B3
  8
PROF
 10
1.9750295148747341
 20
10.11391186758919
 30
0.0000000000000001
 11
1.944958486898144
 21
10.11391186758919
 31
0.0000000000000001
  0
LINE
  5
C0B4
  8
PROF
 10
1.9750295148747341
 20
10.11391186758919
 30
0.0000000000000001
 11
1.944958486898144
 21
10.11391186758919
 31
0.0000000000000001
  0
LINE
  5
C0B5
  8
PROF
 10
0.3222605517169654
 20
7.5247473351056442
 30
-0.0000000000000002
 11
-0.0000008570117416
 21
7.5247473351056442
 31
0.0
  0
LINE
  5
C0B6
  8
PROF
 10
-0.0000008570117416
 20
7.5247473351056442
 30
0.0
 11
-0.0000008570117416
 21
9.1943336957369866
 31
0.0
  0
POLYLINE
  5
C0B7
  8
PROF
 66
     1
 10
0.0
 20
0.0
 30
0.0000000000000001
 70
     4
 75
     6
  0
VERTEX
  5
C0B8
  8
PROF
 10
1.607967335755631
 20
10.11391186758919
 30
0.0000000000000001
 70
    16
  0
VERTEX
  5
C0B9
  8
PROF
 10
1.607967335755631
 20
10.11391186758919
 30
0.0000000000000001
 70
     8
  0
VERTEX
  5
C0BA
  8
PROF
 10
1.646813232648582
 20
10.02198069336111
 30
0.0000000000000001
 70
     8
  0
VERTEX
  5
C0BB
  8
PROF
 10
1.67335966680929
 20
9.9344134163010267
 30
0.0000000000000001
 70
     8
  0
VERTEX
  5
C0BC
  8
PROF
 10
1.689008640046324
 20
9.8512576644480987
 30
0.0000000000000001
 70
     8
  0
VERTEX
  5
C0BD
  8
PROF
 10
1.695162154168258
 20
9.7725610658417281
 30
0.0000000000000001
 70
     8
  0
VERTEX
  5
C0BE
  8
PROF
 10
1.6932222109836059
 20
9.6983712485214255
 30
0.0000000000000001
 70
     8
  0
VERTEX
  5
C0BF
  8
PROF
 10
1.6845908123009961
 20
9.6287358405263603
 30
0.0000000000000001
 70
     8
  0
VERTEX
  5
C0C0
  8
PROF
 10
1.6706699599288859
 20
9.5637024698960431
 30
0.0000000000000001
 70
     8
  0
VERTEX
  5
C0C1
  8
PROF
 10
1.6528616556759621
 20
9.503318764669757
 30
0.0000000000000001
 70
     8
  0
VERTEX
  5
C0C2
  8
PROF
 10
1.6323562992730549
 20
9.4475843259650674
 30
0.0000000000000001
 70
     8
  0
VERTEX
  5
C0C3
  8
PROF
 10
1.609497882140658
 20
9.3963066472123273
 30
0.0000000000000001
 70
     8
  0
VERTEX
  5
C0C4
  8
PROF
 10
1.584418793621637
 20
9.3492451949202842
 30
0.0000000000000001
 70
     8
  0
VERTEX
  5
C0C5
  8
PROF
 10
1.557251423058744
 20
9.3061594355972375
 30
0.0000000000000001
 70
     8
  0
VERTEX
  5
C0C6
  8
PROF
 10
1.5281281597949601
 20
9.2668088357519292
 30
0.0000000000000001
 70
     8
  0
VERTEX
  5
C0C7
  8
PROF
 10
1.4971813931729789
 20
9.2309528618930017
 30
0.0000000000000001
 70
     8
  0
VERTEX
  5
C0C8
  8
PROF
 10
1.464543512535726
 20
9.1983509805288577
 30
0.0000000000000001
 70
     8
  0
VERTEX
  5
C0C9
  8
PROF
 10
1.4303469072260091
 20
9.1687626581682462
 30
0.0000000000000001
 70
     8
  0
VERTEX
  5
C0CA
  8
PROF
 10
1.3947360332574019
 20
9.1419547918675335
 30
0.0000000000000001
 70
     8
  0
VERTEX
  5
C0CB
  8
PROF
 10
1.3579036133264131
 20
9.1177240008747731
 30
0.0000000000000001
 70
     8
  0
VERTEX
  5
C0CC
  8
PROF
 10
1.3200544368004321
 20
9.0958743349860924
 30
0.0000000000000001
 70
     8
  0
VERTEX
  5
C0CD
  8
PROF
 10
1.281393293046676
 20
9.0762098439975034
 30
0.0000000000000001
 70
     8
  0
VERTEX
  5
C0CE
  8
PROF
 10
1.242124971432417
 20
9.0585345777049042
 30
0.0000000000000001
 70
     8
  0
VERTEX
  5
C0CF
  8
PROF
 10
1.2024542613249869
 20
9.0426525859044204
 30
0.0000000000000001
 70
     8
  0
VERTEX
  5
C0D0
  8
PROF
 10
1.1625859520916599
 20
9.0283679183919503
 30
0.0000000000000001
 70
     8
  0
VERTEX
  5
C0D1
  8
PROF
 10
1.1227248330997091
 20
9.0154846249635057
 30
0.0000000000000001
 70
     8
  0
VERTEX
  5
C0D2
  8
PROF
 10
1.0829726247361
 20
9.0034643862466055
 30
0.0000000000000001
 70
     8
  0
VERTEX
  5
C0D3
  8
PROF
 10
1.043018771466222
 20
8.9903994061946833
 30
0.0000000000000001
 70
     8
  0
VERTEX
  5
C0D4
  8
PROF
 10
1.002449648775211
 20
8.9740395195925657
 30
0.0000000000000001
 70
     8
  0
VERTEX
  5
C0D5
  8
PROF
 10
0.9608516321480919
 20
8.9521345612251935
 30
0.0000000000000001
 70
     8
  0
VERTEX
  5
C0D6
  8
PROF
 10
0.9178110970699435
 20
8.9224343658775052
 30
0.0000000000000001
 70
     8
  0
VERTEX
  5
C0D7
  8
PROF
 10
0.8729144190259034
 20
8.8826887683343312
 30
0.0000000000000001
 70
     8
  0
VERTEX
  5
C0D8
  8
PROF
 10
0.8257479735009951
 20
8.8306476033806121
 30
0.0000000000000001
 70
     8
  0
VERTEX
  5
C0D9
  8
PROF
 10
0.7758981359802988
 20
8.764060705801171
 30
0.0000000000000001
 70
     8
  0
VERTEX
  5
C0DA
  8
PROF
 10
1.729201901609656
 20
9.8629858761255491
 30
0.0000000000000001
 70
    16
  0
VERTEX
  5
C0DB
  8
PROF
 10
1.6793731231140889
 20
9.4532143012734196
 30
0.0000000000000001
 70
    16
  0
VERTEX
  5
C0DC
  8
PROF
 10
1.4455611507419801
 20
9.1391837193732481
 30
0.0000000000000001
 70
    16
  0
VERTEX
  5
C0DD
  8
PROF
 10
1.120463717273821
 20
9.0026267702428413
 30
0.0000000000000001
 70
    16
  0
VERTEX
  5
C0DE
  8
PROF
 10
0.9127765582653638
 20
8.9630202230383702
 30
0.0000000000000001
 70
    16
  0
VERTEX
  5
C0DF
  8
PROF
 10
0.7758981359802988
 20
8.764060705801171
 30
0.0000000000000001
 70
    16
  0
SEQEND
  5
C0E0
  8
PROF
  0
ARC
  5
C0E1
  8
PROF
 10
0.733429816733235
 20
8.4849506952165257
 30
0.0000000000000001
 40
0.2823224329524727
 50
269.73652020831901
 51
81.348449993176914
  0
LINE
  5
C0E2
  8
PROF
  6
CONTINUOUS
 10
-0.0000008570117416
 20
9.1943336957369866
 30
-0.0000000000000001
 11
3.6306271195888371
 21
13.325025853350891
 31
0.0000000000000002
  0
POLYLINE
  5
C0E3
  8
PROF
 66
     1
 10
0.0
 20
0.0
 30
0.0000000000000001
 70
     4
 75
     6
  0
VERTEX
  5
C0E4
  8
PROF
 10
4.5198575031869259
 20
12.72227734589444
 30
0.0000000000000001
 70
    16
  0
VERTEX
  5
C0E5
  8
PROF
 10
4.5198575031869259
 20
12.72227734589444
 30
0.0000000000000001
 70
     8
  0
VERTEX
  5
C0E6
  8
PROF
 10
4.4467035366886298
 20
12.741128108778071
 30
0.0000000000000001
 70
     8
  0
VERTEX
  5
C0E7
  8
PROF
 10
4.3786645761268801
 20
12.754675269913941
 30
0.0000000000000001
 70
     8
  0
VERTEX
  5
C0E8
  8
PROF
 10
4.3154364111440477
 20
12.76334314092332
 30
0.0000000000000001
 70
     8
  0
VERTEX
  5
C0E9
  8
PROF
 10
4.256714831382566
 20
12.76755603342724
 30
0.0000000000000001
 70
     8
  0
VERTEX
  5
C0EA
  8
PROF
 10
4.2021956264849791
 20
12.76773825904672
 30
0.0000000000000001
 70
     8
  0
VERTEX
  5
C0EB
  8
PROF
 10
4.1515745860935453
 20
12.764314129403139
 30
0.0000000000000001
 70
     8
  0
VERTEX
  5
C0EC
  8
PROF
 10
4.1045474998508658
 20
12.75770795611743
 30
0.0000000000000001
 70
     8
  0
VERTEX
  5
C0ED
  8
PROF
 10
4.0608101573993158
 20
12.748344050810831
 30
0.0000000000000001
 70
     8
  0
VERTEX
  5
C0EE
  8
PROF
 10
4.0200583483813261
 20
12.736646725104491
 30
0.0000000000000001
 70
     8
  0
VERTEX
  5
C0EF
  8
PROF
 10
3.9819878624393819
 20
12.72304029061945
 30
0.0000000000000001
 70
     8
  0
VERTEX
  5
C0F0
  8
PROF
 10
3.946294489215858
 20
12.707949058976959
 30
0.0000000000000001
 70
     8
  0
VERTEX
  5
C0F1
  8
PROF
 10
3.9126740183532429
 20
12.691797341798059
 30
0.0000000000000001
 70
     8
  0
VERTEX
  5
C0F2
  8
PROF
 10
3.8808638350742508
 20
12.67494295718654
 30
0.0000000000000001
 70
     8
  0
VERTEX
  5
C0F3
  8
PROF
 10
3.850767706922738
 20
12.65747774917668
 30
0.0000000000000001
 70
     8
  0
VERTEX
  5
C0F4
  8
PROF
 10
3.8223309970228452
 20
12.639427068285499
 30
0.0000000000000001
 70
     8
  0
VERTEX
  5
C0F5
  8
PROF
 10
3.7954990684987129
 20
12.62081626503004
 30
0.0000000000000001
 70
     8
  0
VERTEX
  5
C0F6
  8
PROF
 10
3.7702172844744828
 20
12.601670689926999
 30
0.0000000000000001
 70
     8
  0
VERTEX
  5
C0F7
  8
PROF
 10
3.746431008074353
 20
12.58201569349364
 30
0.0000000000000001
 70
     8
  0
VERTEX
  5
C0F8
  8
PROF
 10
3.7240856024224618
 20
12.56187662624666
 30
0.0000000000000001
 70
     8
  0
VERTEX
  5
C0F9
  8
PROF
 10
3.7031264306428961
 20
12.541278838703191
 30
0.0000000000000001
 70
     8
  0
VERTEX
  5
C0FA
  8
PROF
 10
3.6834988558599089
 20
12.520247681380051
 30
0.0000000000000001
 70
     8
  0
VERTEX
  5
C0FB
  8
PROF
 10
3.665148241197528
 20
12.49880850479428
 30
0.0000000000000001
 70
     8
  0
VERTEX
  5
C0FC
  8
PROF
 10
3.6480199497799499
 20
12.47698665946279
 30
0.0000000000000001
 70
     8
  0
VERTEX
  5
C0FD
  8
PROF
 10
3.6320593447313172
 20
12.45480749590263
 30
0.0000000000000001
 70
     8
  0
VERTEX
  5
C0FE
  8
PROF
 10
3.6171895848866589
 20
12.43223790353807
 30
0.0000000000000001
 70
     8
  0
VERTEX
  5
C0FF
  8
PROF
 10
3.6032450119242858
 20
12.40901092742285
 30
0.0000000000000001
 70
     8
  0
VERTEX
  5
C100
  8
PROF
 10
3.590037763233453
 20
12.38480115151844
 30
0.0000000000000001
 70
     8
  0
VERTEX
  5
C101
  8
PROF
 10
3.5773799762033032
 20
12.35928315978594
 30
0.0000000000000001
 70
     8
  0
VERTEX
  5
C102
  8
PROF
 10
3.5650837882230908
 20
12.33213153618658
 30
0.0000000000000001
 70
     8
  0
VERTEX
  5
C103
  8
PROF
 10
3.5529613366819599
 20
12.303020864681571
 30
0.0000000000000001
 70
     8
  0
VERTEX
  5
C104
  8
PROF
 10
3.540824758969165
 20
12.271625729232371
 30
0.0000000000000001
 70
     8
  0
VERTEX
  5
C105
  8
PROF
 10
3.5284861924738489
 20
12.23762071379997
 30
0.0000000000000001
 70
     8
  0
VERTEX
  5
C106
  8
PROF
 10
3.5157577745852668
 20
12.200680402345711
 30
0.0000000000000001
 70
     8
  0
VERTEX
  5
C107
  8
PROF
 10
3.5024516426926189
 20
12.16047937883093
 30
0.0000000000000001
 70
     8
  0
VERTEX
  5
C108
  8
PROF
 10
3.4883799341851041
 20
12.116692227216619
 30
0.0000000000000001
 70
     8
  0
VERTEX
  5
C109
  8
PROF
 10
3.4733547864519201
 20
12.06899353146423
 30
0.0000000000000001
 70
     8
  0
VERTEX
  5
C10A
  8
PROF
 10
3.45723654619428
 20
12.0172095445447
 30
0.0000000000000001
 70
     8
  0
VERTEX
  5
C10B
  8
PROF
 10
3.4400783973613889
 20
11.961773195467799
 30
0.0000000000000001
 70
     8
  0
VERTEX
  5
C10C
  8
PROF
 10
3.421981733214579
 20
11.90326908225302
 30
0.0000000000000001
 70
     8
  0
VERTEX
  5
C10D
  8
PROF
 10
3.4030479470150108
 20
11.842281802919951
 30
0.0000000000000001
 70
     8
  0
VERTEX
  5
C10E
  8
PROF
 10
3.383378432024017
 20
11.779395955487979
 30
0.0000000000000001
 70
     8
  0
VERTEX
  5
C10F
  8
PROF
 10
3.3630745815028709
 20
11.715196137976809
 30
0.0000000000000001
 70
     8
  0
VERTEX
  5
C110
  8
PROF
 10
3.3422377887127359
 20
11.650266948405831
 30
0.0000000000000001
 70
     8
  0
VERTEX
  5
C111
  8
PROF
 10
3.320969446915
 20
11.58519298479461
 30
0.0000000000000001
 70
     8
  0
VERTEX
  5
C112
  8
PROF
 10
3.2993709493707679
 20
11.520558845162549
 30
0.0000000000000001
 70
     8
  0
VERTEX
  5
C113
  8
PROF
 10
3.277543689341428
 20
11.456949127529469
 30
0.0000000000000001
 70
     8
  0
VERTEX
  5
C114
  8
PROF
 10
3.2555890600881412
 20
11.3949484299145
 30
0.0000000000000001
 70
     8
  0
VERTEX
  5
C115
  8
PROF
 10
3.233608454872182
 20
11.335141350337491
 30
0.0000000000000001
 70
     8
  0
VERTEX
  5
C116
  8
PROF
 10
3.2116715641212181
 20
11.27799544797778
 30
0.0000000000000001
 70
     8
  0
VERTEX
  5
C117
  8
PROF
 10
3.189721266927847
 20
11.22351012665467
 30
0.0000000000000001
 70
     8
  0
VERTEX
  5
C118
  8
PROF
 10
3.1676687395512881
 20
11.17156775134765
 30
0.0000000000000001
 70
     8
  0
VERTEX
  5
C119
  8
PROF
 10
3.1454251582505321
 20
11.12205068703588
 30
0.0000000000000001
 70
     8
  0
VERTEX
  5
C11A
  8
PROF
 10
3.122901699284625
 20
11.07484129869874
 30
0.0000000000000001
 70
     8
  0
VERTEX
  5
C11B
  8
PROF
 10
3.1000095389127291
 20
11.02982195131551
 30
0.0000000000000001
 70
     8
  0
VERTEX
  5
C11C
  8
PROF
 10
3.0766598533938909
 20
10.986875009865679
 30
0.0000000000000001
 70
     8
  0
VERTEX
  5
C11D
  8
PROF
 10
3.0527638189871591
 20
10.9458828393283
 30
0.0000000000000001
 70
     8
  0
VERTEX
  5
C11E
  8
PROF
 10
3.0282326119516361
 20
10.90672780468298
 30
0.0000000000000001
 70
     8
  0
VERTEX
  5
C11F
  8
PROF
 10
3.002977408546371
 20
10.869292270908771
 30
0.0000000000000001
 70
     8
  0
VERTEX
  5
C120
  8
PROF
 10
2.9769093850304098
 20
10.833458602985161
 30
0.0000000000000001
 70
     8
  0
VERTEX
  5
C121
  8
PROF
 10
2.9499397176628568
 20
10.799109165891419
 30
0.0000000000000001
 70
     8
  0
VERTEX
  5
C122
  8
PROF
 10
2.9220006098404379
 20
10.76614363969508
 30
0.0000000000000001
 70
     8
  0
VERTEX
  5
C123
  8
PROF
 10
2.8931083735103011
 20
10.7345309648158
 30
0.0000000000000001
 70
     8
  0
VERTEX
  5
C124
  8
PROF
 10
2.8633003477572738
 20
10.70425739676193
 30
0.0000000000000001
 70
     8
  0
VERTEX
  5
C125
  8
PROF
 10
2.8326138716660689
 20
10.67530919104115
 30
0.0000000000000001
 70
     8
  0
VERTEX
  5
C126
  8
PROF
 10
2.8010862843216269
 20
10.647672603161711
 30
0.0000000000000001
 70
     8
  0
VERTEX
  5
C127
  8
PROF
 10
2.7687549248087171
 20
10.62133388863162
 30
0.0000000000000001
 70
     8
  0
VERTEX
  5
C128
  8
PROF
 10
2.735657132212054
 20
10.5962793029588
 30
0.0000000000000001
 70
     8
  0
VERTEX
  5
C129
  8
PROF
 10
2.7018302456165202
 20
10.572495101651381
 30
0.0000000000000001
 70
     8
  0
VERTEX
  5
C12A
  8
PROF
 10
2.6673116041068852
 20
10.54996754021726
 30
0.0000000000000001
 70
     8
  0
VERTEX
  5
C12B
  8
PROF
 10
2.6321385467680321
 20
10.528682874164581
 30
0.0000000000000001
 70
     8
  0
VERTEX
  5
C12C
  8
PROF
 10
2.5963484126846188
 20
10.508627359001251
 30
0.0000000000000001
 70
     8
  0
VERTEX
  5
C12D
  8
PROF
 10
2.5599785409415849
 20
10.489787250235279
 30
0.0000000000000001
 70
     8
  0
VERTEX
  5
C12E
  8
PROF
 10
2.522998630314361
 20
10.472162234281081
 30
0.0000000000000001
 70
     8
  0
VERTEX
  5
C12F
  8
PROF
 10
2.4851078183409072
 20
10.455805721177621
 30
0.0000000000000001
 70
     8
  0
VERTEX
  5
C130
  8
PROF
 10
2.4459376022498982
 20
10.44078455187036
 30
0.0000000000000001
 70
     8
  0
VERTEX
  5
C131
  8
PROF
 10
2.4051194792701258
 20
10.42716556730465
 30
0.0000000000000001
 70
     8
  0
VERTEX
  5
C132
  8
PROF
 10
2.3622849466301541
 20
10.415015608425851
 30
0.0000000000000001
 70
     8
  0
VERTEX
  5
C133
  8
PROF
 10
2.3170655015587149
 20
10.40440151617929
 30
0.0000000000000001
 70
     8
  0
VERTEX
  5
C134
  8
PROF
 10
2.2690926412844301
 20
10.395390131510339
 30
0.0000000000000001
 70
     8
  0
VERTEX
  5
C135
  8
PROF
 10
2.2179978630360888
 20
10.388048295364451
 30
0.0000000000000001
 70
     8
  0
VERTEX
  5
C136
  8
PROF
 10
2.1634126640422551
 20
10.38244284868688
 30
0.0000000000000001
 70
     8
  0
VERTEX
  5
C137
  8
PROF
 10
2.104968541531604
 20
10.37864063242295
 30
0.0000000000000001
 70
     8
  0
VERTEX
  5
C138
  8
PROF
 10
2.0422969927328718
 20
10.37670848751816
 30
0.0000000000000001
 70
     8
  0
VERTEX
  5
C139
  8
PROF
 10
1.9750295148747341
 20
10.37671325491794
 30
0.0000000000000001
 70
     8
  0
VERTEX
  5
C13A
  8
PROF
 10
4.2166060115107484
 20
12.80885334975255
 30
0.0000000000000001
 70
    16
  0
VERTEX
  5
C13B
  8
PROF
 10
3.8702254102732918
 20
12.707065515763929
 30
0.0000000000000001
 70
    16
  0
VERTEX
  5
C13C
  8
PROF
 10
3.605346156896871
 20
12.46277472098552
 30
0.0000000000000001
 70
    16
  0
VERTEX
  5
C13D
  8
PROF
 10
3.500746030527238
 20
12.170680575709749
 30
0.0000000000000001
 70
    16
  0
VERTEX
  5
C13E
  8
PROF
 10
3.231798439705698
 20
11.26846416496107
 30
0.0000000000000001
 70
    16
  0
VERTEX
  5
C13F
  8
PROF
 10
2.9737109398832891
 20
10.76631086647069
 30
0.0000000000000001
 70
    16
  0
VERTEX
  5
C140
  8
PROF
 10
2.5729961067384011
 20
10.460947364504699
 30
0.0000000000000001
 70
    16
  0
VERTEX
  5
C141
  8
PROF
 10
2.253782621454604
 20
10.372731239449759
 30
0.0000000000000001
 70
    16
  0
VERTEX
  5
C142
  8
PROF
 10
1.9750295148747341
 20
10.37671325491794
 30
0.0000000000000001
 70
    16
  0
SEQEND
  5
C143
  8
PROF
  0
LINE
  5
C144
  8
PROF
 10
4.9012016798694162
 20
12.88585218805485
 30
0.0000000000000003
 11
4.5198575031869259
 21
12.88585218805485
 31
0.0000000000000003
  0
LINE
  5
C145
  8
PROF
 10
0.7321315362267457
 20
8.2026312473991538
 30
0.0000000000000006
 11
0.7321315362267457
 21
8.0511853963434987
 31
0.0000000000000006
  0
ARC
  5
C146
  8
PROF
 10
0.7977322214551919
 20
7.5773339332026799
 30
0.0000000000000006
 40
0.4783708383912012
 50
97.882010168942529
 51
186.31119505698649
  0
LINE
  5
C147
  8
FRAME_050
 10
7.8016377197432121
 20
17.99371054969447
 30
0.0
 11
7.8016377197432121
 21
0.0000000000002274
 31
0.0
  0
ENDBLK
  5
C149
  8
0
  0
BLOCK
  8
0
  2
*U38
 70
     1
 10
0.0
 20
0.0
 30
0.0
  3
*U38
  1

  0
TEXT
  5
EE5C
  8
0
 10
3.5177832928899071
 20
10.38601584255777
 30
0.0
 40
0.125
  1
Crown Moulding
  0
TEXT
  5
EE5D
  8
0
 10
3.5223876585106431
 20
10.17717091304435
 30
0.0
 40
0.125
  1
TL-AB509
  0
TEXT
  5
EE5E
  8
0
 10
3.5074661032582561
 20
9.9667059289606801
 30
0.0
 40
0.125
  1
1-5/16" x 7-9/16"
  0
TEXT
  5
EE5F
  8
0
 10
3.519403347460166
 20
9.7562409448770051
 30
0.0
 40
0.125
  1
800.66.TAGUE
  0
ENDBLK
  5
EE61
  8
0
  0
BLOCK
  8
0
  2
*U39
 70
     1
 10
0.0
 20
0.0
 30
0.0
  3
*U39
  1

  0
TEXT
  5
EE63
  8
0
 10
5.3066868277875692
 20
1.767659498411035
 30
0.0
 40
0.125
  1
Back Band
  0
TEXT
  5
EE64
  8
0
 10
5.3153839628489603
 20
1.55881456889762
 30
0.0
 40
0.125
  1
TL-1
  0
TEXT
  5
EE65
  8
0
 10
5.3004624075965721
 20
1.3483495848139451
 30
0.0
 40
0.125
  1
1-3/8" x 1-9/16"
  0
TEXT
  5
EE66
  8
0
 10
5.3123996517984819
 20
1.137884600730271
 30
0.0
 40
0.125
  1
800.66.TAGUE
  0
ENDBLK
  5
EE68
  8
0
  0
BLOCK
  8
0
  2
*U40
 70
     1
 10
0.0
 20
0.0
 30
0.0
  3
*U40
  1

  0
TEXT
  5
EE6A
  8
0
 10
2.551252809835812
 20
0.9623111621543785
 30
0.0
 40
0.125
  1
Back Band
  0
TEXT
  5
EE6B
  8
0
 10
2.5599499448972041
 20
0.7534662326409634
 30
0.0
 40
0.125
  1
TL-288
  0
TEXT
  5
EE6C
  8
0
 10
2.5450283896448158
 20
0.5430012485572889
 30
0.0
 40
0.125
  1
1-11/16" x 1-13/16"
  0
TEXT
  5
EE6D
  8
0
 10
2.5569656338467261
 20
0.3325362644736145
 30
0.0
 40
0.125
  1
800.66.TAGUE
  0
ENDBLK
  5
EE6F
  8
0
  0
BLOCK
  8
0
  2
*U41
 70
     1
 10
0.0
 20
0.0
 30
0.0
  3
*U41
  1

  0
TEXT
  5
EE71
  8
0
 10
1.8364329238504911
 20
0.882982778245946
 30
0.0
 40
0.125
  1
Back Band
  0
TEXT
  5
EE72
  8
0
 10
1.845130058911882
 20
0.6741378487325309
 30
0.0
 40
0.125
  1
TL-289
  0
TEXT
  5
EE73
  8
0
 10
1.8302085036594951
 20
0.4636728646488565
 30
0.0
 40
0.125
  1
1-1/16" x 1-11/16"
  0
TEXT
  5
EE74
  8
0
 10
1.8421457478614049
 20
0.2532078805651821
 30
0.0
 40
0.125
  1
800.66.TAGUE
  0
ENDBLK
  5
EE76
  8
0
  0
BLOCK
  8
0
  2
*U42
 70
     1
 10
0.0
 20
0.0
 30
0.0
  3
*U42
  1

  0
TEXT
  5
EE78
  8
0
 10
1.929931786774016
 20
0.8512665098620573
 30
0.0
 40
0.125
  1
Back Band
  0
TEXT
  5
EE79
  8
0
 10
1.9386289218354069
 20
0.6424215803486422
 30
0.0
 40
0.125
  1
TL-601
  0
TEXT
  5
EE7A
  8
0
 10
1.92370736658302
 20
0.4319565962649678
 30
0.0
 40
0.125
  1
1-5/16" x 1-3/8"
  0
TEXT
  5
EE7B
  8
0
 10
1.9356446107849301
 20
0.2214916121812933
 30
0.0
 40
0.125
  1
800.66.TAGUE
  0
ENDBLK
  5
EE7D
  8
0
  0
BLOCK
  8
0
  2
*U43
 70
     1
 10
0.0
 20
0.0
 30
0.0
  3
*U43
  1

  0
TEXT
  5
EE7F
  8
0
 10
1.8237739904796331
 20
0.9081704084311468
 30
0.0
 40
0.125
  1
Back Band
  0
TEXT
  5
EE80
  8
0
 10
1.832471125541024
 20
0.6993254789177317
 30
0.0
 40
0.125
  1
TL-2075
  0
TEXT
  5
EE81
  8
0
 10
1.8175495702886371
 20
0.4888604948340573
 30
0.0
 40
0.125
  1
1-5/16" x 1-5/8"
  0
TEXT
  5
EE82
  8
0
 10
1.829486814490547
 20
0.2783955107503828
 30
0.0
 40
0.125
  1
800.66.TAGUE
  0
ENDBLK
  5
EE84
  8
0
  0
BLOCK
  8
0
  2
*U44
 70
     1
 10
0.0
 20
0.0
 30
0.0
  3
*U44
  1

  0
TEXT
  5
EE86
  8
0
 10
1.9545668919090351
 20
0.8644213446237927
 30
0.0
 40
0.125
  1
Back Band
  0
TEXT
  5
EE87
  8
0
 10
1.963264026970426
 20
0.6555764151103776
 30
0.0
 40
0.125
  1
TL-2208 
  0
TEXT
  5
EE88
  8
0
 10
1.9483424717180391
 20
0.4451114310267032
 30
0.0
 40
0.125
  1
1-3/8" x 1-5/8"
  0
TEXT
  5
EE89
  8
0
 10
1.960279715919949
 20
0.2346464469430287
 30
0.0
 40
0.125
  1
800.66.TAGUE
  0
ENDBLK
  5
EE8B
  8
0
  0
BLOCK
  8
0
  2
*U45
 70
     1
 10
0.0
 20
0.0
 30
0.0
  3
*U45
  1

  0
TEXT
  5
EE8D
  8
0
 10
2.7644474121262692
 20
0.8344220463493456
 30
0.0
 40
0.125
  1
Back Band
  0
TEXT
  5
EE8E
  8
0
 10
2.7731445471876608
 20
0.6255771168359307
 30
0.0
 40
0.125
  1
TL-2221 
  0
TEXT
  5
EE8F
  8
0
 10
2.7689665117169922
 20
0.4151121327522561
 30
0.0
 40
0.125
  1
7/8" x 1-3/4"
  0
TEXT
  5
EE90
  8
0
 10
2.7701602361371829
 20
0.2046471486685817
 30
0.0
 40
0.125
  1
800.66.TAGUE
  0
ENDBLK
  5
EE92
  8
0
  0
BLOCK
  8
0
  2
*U46
 70
     1
 10
0.0
 20
0.0
 30
0.0
  3
*U46
  1

  0
TEXT
  5
EE94
  8
0
 10
2.6915324485008609
 20
1.1836703361148011
 30
0.0
 40
0.125
  1
Back Band
  0
TEXT
  5
EE95
  8
0
 10
2.700229583562253
 20
0.974825406601386
 30
0.0
 40
0.125
  1
TL-2266
  0
TEXT
  5
EE96
  8
0
 10
2.685308028309866
 20
0.7643604225177115
 30
0.0
 40
0.125
  1
1-11/32" x 1-15/32"
  0
TEXT
  5
EE97
  8
0
 10
2.697245272511775
 20
0.5538954384340372
 30
0.0
 40
0.125
  1
800.66.TAGUE
  0
ENDBLK
  5
EE99
  8
0
  0
BLOCK
  8
0
  2
*U47
 70
     1
 10
0.0
 20
0.0
 30
0.0
  3
*U47
  1

  0
TEXT
  5
EE9B
  8
0
 10
3.1852595440213172
 20
1.4826139655959869
 30
0.0
 40
0.125
  1
Back Band
  0
TEXT
  5
EE9C
  8
0
 10
3.1939566790827079
 20
1.273769036082572
 30
0.0
 40
0.125
  1
TL-2293
  0
TEXT
  5
EE9D
  8
0
 10
3.1790351238303209
 20
1.0147194680971241
 30
0.0
 40
0.125
  1
1-
  0
TEXT
  5
EE9E
  8
0
 10
3.3285150010472382
 20
1.1040697409484199
 30
0.0
 40
0.0875
  1
7
  0
LINE
  5
EE9F
  8
0
 10
3.3553421833758441
 20
1.032393937073133
 30
0.0
 11
3.4557180597372761
 21
1.1757455448237071
 31
0.0
  0
TEXT
  5
EEA0
  8
0
 10
3.4151594985461009
 20
0.9855528014304578
 30
0.0
 40
0.0875
  1
8
  0
TEXT
  5
EEA1
  8
0
 10
3.483619594044054
 20
1.0147194680971241
 30
0.0
 40
0.125
  1
" x 2-
  0
TEXT
  5
EEA2
  8
0
 10
3.8794330319703851
 20
1.1040697409484199
 30
0.0
 40
0.0875
  1
7
  0
LINE
  5
EEA3
  8
0
 10
3.9062602142989902
 20
1.032393937073133
 30
0.0
 11
4.0066360906604244
 21
1.1757455448237071
 31
0.0
  0
TEXT
  5
EEA4
  8
0
 10
3.957721458527911
 20
0.9855528014304578
 30
0.0
 40
0.0875
  1
16
  0
TEXT
  5
EEA5
  8
0
 10
4.0939254148717028
 20
1.0147194680971241
 30
0.0
 40
0.125
  1
"
  0
TEXT
  5
EEA6
  8
0
 10
3.1909723680322308
 20
0.8459211506801169
 30
0.0
 40
0.125
  1
800.66.TAGUE
  0
ENDBLK
  5
EEA8
  8
0
  0
BLOCK
  8
0
  2
*U48
 70
     1
 10
0.0
 20
0.0
 30
0.0
  3
*U48
  1

  0
TEXT
  5
EEAA
  8
0
 10
2.4900996379053408
 20
1.0092498715596481
 30
0.0
 40
0.125
  1
Baluster Stock
  0
TEXT
  5
EEAB
  8
0
 10
2.4987967729667329
 20
0.800404942046233
 30
0.0
 40
0.125
  1
TL-236
  0
TEXT
  5
EEAC
  8
0
 10
2.4838752177143451
 20
0.5899399579625585
 30
0.0
 40
0.125
  1
1-9/16" x 1-9/16"
  0
TEXT
  5
EEAD
  8
0
 10
2.4958124619162549
 20
0.3794749738788841
 30
0.0
 40
0.125
  1
800.66.TAGUE
  0
ENDBLK
  5
EEAF
  8
0
  0
BLOCK
  8
0
  2
*U49
 70
     1
 10
0.0
 20
0.0
 30
0.0
  3
*U49
  1

  0
TEXT
  5
EEB1
  8
0
 10
2.3591545502839431
 20
0.9010435759007737
 30
0.0
 40
0.125
  1
Baluster Stock
  0
TEXT
  5
EEB2
  8
0
 10
2.3678516853453342
 20
0.6921986463873587
 30
0.0
 40
0.125
  1
TL-237
  0
TEXT
  5
EEB3
  8
0
 10
2.3529301300929468
 20
0.4817336623036842
 30
0.0
 40
0.125
  1
1-5/16" x 1-5/16"
  0
TEXT
  5
EEB4
  8
0
 10
2.3648673742948572
 20
0.2712686782200098
 30
0.0
 40
0.125
  1
800.66.TAGUE
  0
ENDBLK
  5
EEB6
  8
0
  0
BLOCK
  8
0
  2
*U50
 70
     1
 10
0.0
 20
0.0
 30
0.0
  3
*U50
  1

  0
TEXT
  5
EEB8
  8
0
 10
2.098510450655322
 20
0.7826568183311498
 30
0.0
 40
0.125
  1
Baluster Stock
  0
TEXT
  5
EEB9
  8
0
 10
2.1072075857167132
 20
0.5738118888177346
 30
0.0
 40
0.125
  1
TL-238
  0
TEXT
  5
EEBA
  8
0
 10
2.0922860304643258
 20
0.3633469047340601
 30
0.0
 40
0.125
  1
1-1/16" x 1-1/16"
  0
TEXT
  5
EEBB
  8
0
 10
2.1042232746662362
 20
0.1528819206503857
 30
0.0
 40
0.125
  1
800.66.TAGUE
  0
ENDBLK
  5
EEBD
  8
0
  0
BLOCK
  8
0
  2
*U51
 70
     1
 10
0.0
 20
0.0
 30
0.0
  3
*U51
  1

  0
TEXT
  5
EEBF
  8
0
 10
1.7835912292499461
 20
0.6784890753194919
 30
0.0
 40
0.125
  1
Baluster Stock
  0
TEXT
  5
EEC0
  8
0
 10
1.792288364311337
 20
0.4696441458060768
 30
0.0
 40
0.125
  1
TL-239
  0
TEXT
  5
EEC1
  8
0
 10
1.7890482551708189
 20
0.2591791617224023
 30
0.0
 40
0.125
  1
3/4" x 3/4"
  0
TEXT
  5
EEC2
  8
0
 10
1.78930405326086
 20
0.0487141776387279
 30
0.0
 40
0.125
  1
800.66.TAGUE
  0
ENDBLK
  5
EEC4
  8
0
  0
BLOCK
  8
0
  2
*U52
 70
     1
 10
0.0
 20
0.0
 30
0.0
  3
*U52
  1

  0
TEXT
  5
EEC6
  8
0
 10
2.750346038648086
 20
1.209669783574115
 30
0.0
 40
0.125
  1
Baluster Stock
  0
TEXT
  5
EEC7
  8
0
 10
2.7590431737094772
 20
1.0008248540607001
 30
0.0
 40
0.125
  1
TL-526
  0
TEXT
  5
EEC8
  8
0
 10
2.7441216184570898
 20
0.7903598699770261
 30
0.0
 40
0.125
  1
1-3/4" x 1-3/4"
  0
TEXT
  5
EEC9
  8
0
 10
2.7560588626590001
 20
0.5798948858933518
 30
0.0
 40
0.125
  1
800.66.TAGUE
  0
ENDBLK
  5
EECB
  8
0
  0
BLOCK
  8
0
  2
*U53
 70
     1
 10
0.0
 20
0.0
 30
0.0
  3
*U53
  1

  0
TEXT
  5
EECD
  8
0
 10
4.1934393821158942
 20
3.6154353709422362
 30
0.0
 40
0.125
  1
Bar Rail
  0
TEXT
  5
EECE
  8
0
 10
4.2021365171772853
 20
3.4065904414288211
 30
0.0
 40
0.125
  1
TL-13
  0
TEXT
  5
EECF
  8
0
 10
4.19898167406678
 20
3.1961254573451461
 30
0.0
 40
0.125
  1
5-1/2" x 1-5/8"
  0
TEXT
  5
EED0
  8
0
 10
4.199152206126807
 20
2.985660473261472
 30
0.0
 40
0.125
  1
800.66.TAGUE
  0
ENDBLK
  5
EED2
  8
0
  0
BLOCK
  8
0
  2
*U54
 70
     1
 10
0.0
 20
0.0
 30
0.0
  3
*U54
  1

  0
TEXT
  5
EED4
  8
0
 10
2.7915496004018041
 20
1.6928133759646471
 30
0.0
 40
0.125
  1
Bar Rail
  0
TEXT
  5
EED5
  8
0
 10
2.8002467354631961
 20
1.483968446451231
 30
0.0
 40
0.125
  1
TL-130
  0
TEXT
  5
EED6
  8
0
 10
2.7853251802108079
 20
1.273503462367557
 30
0.0
 40
0.125
  1
1-11/16" x 2-1/4"
  0
TEXT
  5
EED7
  8
0
 10
2.7972624244127182
 20
1.0630384782838831
 30
0.0
 40
0.125
  1
800.66.TAGUE
  0
ENDBLK
  5
EED9
  8
0
  0
BLOCK
  8
0
  2
*U55
 70
     1
 10
0.0
 20
0.0
 30
0.0
  3
*U55
  1

  0
TEXT
  5
EEDB
  8
0
 10
0.7422973615718824
 20
1.83447380854534
 30
0.0
 40
0.125
  1
Bar Rail
  0
TEXT
  5
EEDC
  8
0
 10
0.750994496633274
 20
1.625628879031924
 30
0.0
 40
0.125
  1
TL-537
  0
TEXT
  5
EEDD
  8
0
 10
0.7360729413808864
 20
1.4151638949482499
 30
0.0
 40
0.125
  1
1-5/16" x 5-3/16" / 7/8" x 3-1/16"
  0
TEXT
  5
EEDE
  8
0
 10
0.7480101855827965
 20
1.204698910864576
 30
0.0
 40
0.125
  1
800.66.TAGUE
  0
ENDBLK
  5
EEE0
  8
0
  0
BLOCK
  8
0
  2
*U56
 70
     1
 10
0.0
 20
0.0
 30
0.0
  3
*U56
  1

  0
TEXT
  5
EEE2
  8
0
 10
1.8164004611375999
 20
3.819697741885534
 30
0.0
 40
0.125
  1
Base Board Assembly
  0
TEXT
  5
EEE3
  8
0
 10
1.8250975961989919
 20
3.610852812372118
 30
0.0
 40
0.125
  1
TL-680
  0
TEXT
  5
EEE4
  8
0
 10
1.8101760409466039
 20
3.4003878282884439
 30
0.0
 40
0.125
  1
1-1/16" x 6-3/4"
  0
TEXT
  5
EEE5
  8
0
 10
1.822113285148514
 20
3.1899228442047698
 30
0.0
 40
0.125
  1
800.66.TAGUE
  0
ENDBLK
  5
EEE7
  8
0
  0
BLOCK
  8
0
  2
*U57
 70
     1
 10
0.0
 20
0.0
 30
0.0
  3
*U57
  1

  0
TEXT
  5
EEE9
  8
0
 10
1.880121442934813
 20
2.5708737061797931
 30
0.0
 40
0.125
  1
TL-541
  0
ENDBLK
  5
EEEB
  8
0
  0
BLOCK
  8
0
  2
*U58
 70
     1
 10
0.0
 20
0.0
 30
0.0
  3
*U58
  1

  0
INSERT
  5
EEED
  8
0
  2
_OPEN30
 10
0.9370004965966245
 20
1.998969839043752
 30
0.0
 41
0.046875
 42
0.046875
 43
0.046875
 50
220.2352165150823
  0
POLYLINE
  5
EEEE
  8
0
 66
     1
 10
0.0
 20
0.0
 30
0.0
  0
VERTEX
  5
EEEF
  8
0
 10
0.9727848321090522
 20
2.0292476685058189
 30
0.0
  0
VERTEX
  5
EEF0
  8
0
 10
1.687083141229663
 20
2.633629504269833
 30
0.0
  0
VERTEX
  5
EEF1
  8
0
 10
1.8217142123754679
 20
2.633629504269833
 30
0.0
  0
SEQEND
  5
EEF2
  8
0
  0
ENDBLK
  5
EEF4
  8
0
  0
BLOCK
  8
0
  2
*U59
 70
     1
 10
0.0
 20
0.0
 30
0.0
  3
*U59
  1

  0
TEXT
  5
EEF6
  8
0
 10
1.8608875418177091
 20
6.6078272811635204
 30
0.0
 40
0.125
  1
TL-540
  0
TEXT
  5
EEF7
  8
0
 10
1.8649803112583641
 20
6.399238149740146
 30
0.0
 40
0.125
  1
 
  0
ENDBLK
  5
EEF9
  8
0
  0
BLOCK
  8
0
  2
*U60
 70
     1
 10
0.0
 20
0.0
 30
0.0
  3
*U60
  1

  0
INSERT
  5
EEFB
  8
0
  2
_OPEN30
 10
0.8157519259211198
 20
5.9858143171212532
 30
0.0
 41
0.046875
 42
0.046875
 43
0.046875
 50
218.1633806826421
  0
POLYLINE
  5
EEFC
  8
0
 66
     1
 10
0.0
 20
0.0
 30
0.0
  0
VERTEX
  5
EEFD
  8
0
 10
0.8526074872282775
 20
6.0147786611624072
 30
0.0
  0
VERTEX
  5
EEFE
  8
0
 10
1.687083141229663
 20
6.6705830792535599
 30
0.0
  0
VERTEX
  5
EEFF
  8
0
 10
1.8024803112583641
 20
6.6705830792535599
 30
0.0
  0
SEQEND
  5
EF00
  8
0
  0
ENDBLK
  5
EF02
  8
0
  0
BLOCK
  8
0
  2
*U61
 70
     1
 10
0.0
 20
0.0
 30
0.0
  3
*U61
  1

  0
TEXT
  5
EF04
  8
0
 10
1.200091944455248
 20
3.6095250915403758
 30
0.0
 40
0.125
  1
Base Board Assembly
  0
TEXT
  5
EF05
  8
0
 10
1.2087890795166401
 20
3.4006801620269611
 30
0.0
 40
0.125
  1
TL-681
  0
TEXT
  5
EF06
  8
0
 10
1.193867524264252
 20
3.190215177943287
 30
0.0
 40
0.125
  1
1" x 9-1/4"
  0
TEXT
  5
EF07
  8
0
 10
1.2058047684661619
 20
2.979750193859612
 30
0.0
 40
0.125
  1
800.66.TAGUE
  0
ENDBLK
  5
EF09
  8
0
  0
BLOCK
  8
0
  2
*U62
 70
     1
 10
0.0
 20
0.0
 30
0.0
  3
*U62
  1

  0
INSERT
  5
EF0B
  8
0
  6
CONTINUOUS
  2
_OPEN30
 10
0.7500005591156196
 20
6.587852449929982
 30
0.0
 41
0.046875
 42
0.046875
 43
0.046875
 50
224.09146837719419
  0
POLYLINE
  5
EF0C
  8
0
  6
CONTINUOUS
 66
     1
 10
0.0
 20
0.0
 30
0.0
  0
VERTEX
  5
EF0D
  8
0
  6
CONTINUOUS
 10
0.7836675863640283
 20
6.6204683494462451
 30
0.0
  0
VERTEX
  5
EF0E
  8
0
  6
CONTINUOUS
 10
1.7133956757769511
 20
7.5211691365396973
 30
0.0
  0
VERTEX
  5
EF0F
  8
0
  6
CONTINUOUS
 10
1.9000752793112949
 20
7.5211691365396973
 30
0.0
  0
SEQEND
  5
EF10
  8
0
  6
CONTINUOUS
  0
ENDBLK
  5
EF12
  8
0
  0
BLOCK
  8
0
  2
*U63
 70
     1
 10
0.0
 20
0.0
 30
0.0
  3
*U63
  1

  0
TEXT
  5
EF14
  8
0
 10
1.95848250987064
 20
7.458413338449656
 30
0.0
 40
0.125
  1
TL-602
  0
ENDBLK
  5
EF16
  8
0
  0
BLOCK
  8
0
  2
*U64
 70
     1
 10
0.0
 20
0.0
 30
0.0
  3
*U64
  1

  0
INSERT
  5
EF18
  8
0
  6
CONTINUOUS
  2
_OPEN30
 10
1.0000005591156189
 20
0.8124995480944789
 30
0.0
 41
0.046875
 42
0.046875
 43
0.046875
 50
224.09146837719419
  0
POLYLINE
  5
EF19
  8
0
  6
CONTINUOUS
 66
     1
 10
0.0
 20
0.0
 30
0.0
  0
VERTEX
  5
EF1A
  8
0
  6
CONTINUOUS
 10
1.0336675863640279
 20
0.8451154476107411
 30
0.0
  0
VERTEX
  5
EF1B
  8
0
  6
CONTINUOUS
 10
1.9633956757769511
 20
1.745816234704193
 30
0.0
  0
VERTEX
  5
EF1C
  8
0
  6
CONTINUOUS
 10
2.1500752793112952
 20
1.745816234704193
 30
0.0
  0
SEQEND
  5
EF1D
  8
0
  6
CONTINUOUS
  0
ENDBLK
  5
EF1F
  8
0
  0
BLOCK
  8
0
  2
*U65
 70
     1
 10
0.0
 20
0.0
 30
0.0
  3
*U65
  1

  0
TEXT
  5
EF21
  8
0
 10
2.20848250987064
 20
1.6828046385241111
 30
0.0
 40
0.125
  1
TL-266
  0
ENDBLK
  5
EF23
  8
0
  0
BLOCK
  8
0
  2
*U66
 70
     1
 10
0.0
 20
0.0
 30
0.0
  3
*U66
  1

  0
INSERT
  5
EF25
  8
0
  6
CONTINUOUS
  2
_OPEN30
 10
0.7500004105942253
 20
6.3960963538685291
 30
0.0
 41
0.046875
 42
0.046875
 43
0.046875
 50
219.47434747209351
  0
POLYLINE
  5
EF26
  8
0
  6
CONTINUOUS
 66
     1
 10
0.0
 20
0.0
 30
0.0
  0
VERTEX
  5
EF27
  8
0
  6
CONTINUOUS
 10
0.7861836586409798
 20
6.4258963234286979
 30
0.0
  0
VERTEX
  5
EF28
  8
0
  6
CONTINUOUS
 10
1.374056000801033
 20
6.9100589911637371
 30
0.0
  0
VERTEX
  5
EF29
  8
0
  6
CONTINUOUS
 10
1.5384924777565061
 20
6.9100589911637371
 30
0.0
  0
SEQEND
  5
EF2A
  8
0
  6
CONTINUOUS
  0
ENDBLK
  5
EF2C
  8
0
  0
BLOCK
  8
0
  2
*U67
 70
     1
 10
0.0
 20
0.0
 30
0.0
  3
*U67
  1

  0
TEXT
  5
EF2E
  8
0
 10
1.5968997083158509
 20
6.8473031930736958
 30
0.0
 40
0.125
  1
TL-550
  0
ENDBLK
  5
EF30
  8
0
  0
BLOCK
  8
0
  2
*U68
 70
     1
 10
0.0
 20
0.0
 30
0.0
  3
*U68
  1

  0
INSERT
  5
EF32
  8
0
  6
CONTINUOUS
  2
_OPEN30
 10
0.7500004105942253
 20
2.53267018701797
 30
0.0
 41
0.046875
 42
0.046875
 43
0.046875
 50
222.22478218143399
  0
POLYLINE
  5
EF33
  8
0
  6
CONTINUOUS
 66
     1
 10
0.0
 20
0.0
 30
0.0
  0
VERTEX
  5
EF34
  8
0
  6
CONTINUOUS
 10
0.7847120037465148
 20
2.5641721064171099
 30
0.0
  0
VERTEX
  5
EF35
  8
0
  6
CONTINUOUS
 10
1.5311175519539111
 20
3.2415598401215671
 30
0.0
  0
VERTEX
  5
EF36
  8
0
  6
CONTINUOUS
 10
1.6247289838881891
 20
3.2416177465441929
 30
0.0
  0
SEQEND
  5
EF37
  8
0
  6
CONTINUOUS
  0
ENDBLK
  5
EF39
  8
0
  0
BLOCK
  8
0
  2
*U69
 70
     1
 10
0.0
 20
0.0
 30
0.0
  3
*U69
  1

  0
TEXT
  5
EF3B
  8
0
 10
1.6831362144475339
 20
3.178861948454152
 30
0.0
 40
0.125
  1
TL-551
  0
ENDBLK
  5
EF3D
  8
0
  0
BLOCK
  8
0
  2
*U70
 70
     1
 10
0.0
 20
0.0
 30
0.0
  3
*U70
  1

  0
INSERT
  5
EF3F
  8
0
  6
CONTINUOUS
  2
_OPEN30
 10
1.04738175721161
 20
0.4967917735383481
 30
0.0
 41
0.046875
 42
0.046875
 43
0.046875
 50
212.67418530855349
  0
POLYLINE
  5
EF40
  8
0
  6
CONTINUOUS
 66
     1
 10
0.0
 20
0.0
 30
0.0
  0
VERTEX
  5
EF41
  8
0
  6
CONTINUOUS
 10
1.0868389807680281
 20
0.5220977636240739
 30
0.0
  0
VERTEX
  5
EF42
  8
0
  6
CONTINUOUS
 10
1.4785839895729389
 20
0.7733444154513336
 30
0.0
  0
VERTEX
  5
EF43
  8
0
  6
CONTINUOUS
 10
1.535363721355395
 20
0.7733444154513336
 30
0.0
  0
SEQEND
  5
EF44
  8
0
  6
CONTINUOUS
  0
ENDBLK
  5
EF46
  8
0
  0
BLOCK
  8
0
  2
*U71
 70
     1
 10
0.0
 20
0.0
 30
0.0
  3
*U71
  1

  0
TEXT
  5
EF48
  8
0
 10
1.5937709519147401
 20
0.7105886173612928
 30
0.0
 40
0.125
  1
TL-127
  0
ENDBLK
  5
EF4A
  8
0
  0
BLOCK
  8
0
  2
*U72
 70
     1
 10
0.0
 20
0.0
 30
0.0
  3
*U72
  1

  0
TEXT
  5
EF4C
  8
0
 10
2.1409458709672249
 20
2.6869009874993699
 30
0.0
 40
0.125
  1
Base Board Assembly
  0
TEXT
  5
EF4D
  8
0
 10
2.1496430060286169
 20
2.4780560579859552
 30
0.0
 40
0.125
  1
TL-682
  0
TEXT
  5
EF4E
  8
0
 10
2.1347214507762291
 20
2.2675910739022811
 30
0.0
 40
0.125
  1
1-1/16" x 7-3/8"
  0
TEXT
  5
EF4F
  8
0
 10
2.146658694978139
 20
2.057126089818607
 30
0.0
 40
0.125
  1
800.66.TAGUE
  0
ENDBLK
  5
EF51
  8
0
  0
BLOCK
  8
0
  2
*U73
 70
     1
 10
0.0
 20
0.0
 30
0.0
  3
*U73
  1

  0
TEXT
  5
EF53
  8
0
 10
2.290801695922692
 20
2.6689022993974731
 30
0.0
 40
0.125
  1
Base Board Assembly
  0
TEXT
  5
EF54
  8
0
 10
2.2994988309840831
 20
2.4600573698840571
 30
0.0
 40
0.125
  1
TL-683
  0
TEXT
  5
EF55
  8
0
 10
2.2845772757316962
 20
2.249592385800383
 30
0.0
 40
0.125
  1
1-1/8" x 5-15/16"
  0
TEXT
  5
EF56
  8
0
 10
2.2965145199336061
 20
2.0391274017167089
 30
0.0
 40
0.125
  1
800.66.TAGUE
  0
ENDBLK
  5
EF58
  8
0
  0
BLOCK
  8
0
  2
*U74
 70
     1
 10
0.0
 20
0.0
 30
0.0
  3
*U74
  1

  0
INSERT
  5
EF5A
  8
0
  6
CONTINUOUS
  2
_OPEN30
 10
1.12500054900903
 20
5.65624955358237
 30
0.0
 41
0.046875
 42
0.046875
 43
0.046875
 50
212.76268937863
  0
POLYLINE
  5
EF5B
  8
0
  6
CONTINUOUS
 66
     1
 10
0.0
 20
0.0
 30
0.0
  0
VERTEX
  5
EF5C
  8
0
  6
CONTINUOUS
 10
1.164418635662722
 20
5.6816164625300907
 30
0.0
  0
VERTEX
  5
EF5D
  8
0
  6
CONTINUOUS
 10
1.5566905795914741
 20
5.9340570939541522
 30
0.0
  0
VERTEX
  5
EF5E
  8
0
  6
CONTINUOUS
 10
1.625384535953855
 20
5.9340570939541522
 30
0.0
  0
SEQEND
  5
EF5F
  8
0
  6
CONTINUOUS
  0
ENDBLK
  5
EF61
  8
0
  0
BLOCK
  8
0
  2
*U75
 70
     1
 10
0.0
 20
0.0
 30
0.0
  3
*U75
  1

  0
TEXT
  5
EF63
  8
0
 10
1.6837917665132001
 20
5.8710454977740696
 30
0.0
 40
0.125
  1
TL-522
  0
ENDBLK
  5
EF65
  8
0
  0
BLOCK
  8
0
  2
*U76
 70
     1
 10
0.0
 20
0.0
 30
0.0
  3
*U76
  1

  0
INSERT
  5
EF67
  8
0
  6
CONTINUOUS
  2
_OPEN30
 10
1.2500005459876879
 20
0.2499995505611423
 30
0.0
 41
0.046875
 42
0.046875
 43
0.046875
 50
202.31861548713121
  0
POLYLINE
  5
EF68
  8
0
  6
CONTINUOUS
 66
     1
 10
0.0
 20
0.0
 30
0.0
  0
VERTEX
  5
EF69
  8
0
  6
CONTINUOUS
 10
1.293363970221912
 20
0.2678006478217807
 30
0.0
  0
VERTEX
  5
EF6A
  8
0
  6
CONTINUOUS
 10
2.1572010681318261
 20
0.6224139761923198
 30
0.0
  0
VERTEX
  5
EF6B
  8
0
  6
CONTINUOUS
 10
2.2687807536349851
 20
0.626210466030102
 30
0.0
  0
SEQEND
  5
EF6C
  8
0
  6
CONTINUOUS
  0
ENDBLK
  5
EF6E
  8
0
  0
BLOCK
  8
0
  2
*U77
 70
     1
 10
0.0
 20
0.0
 30
0.0
  3
*U77
  1

  0
TEXT
  5
EF70
  8
0
 10
2.3271879841943299
 20
0.5634546679400611
 30
0.0
 40
0.125
  1
TL-126
  0
ENDBLK
  5
EF72
  8
0
  0
BLOCK
  8
0
  2
*U78
 70
     1
 10
0.0
 20
0.0
 30
0.0
  3
*U78
  1

  0
INSERT
  5
EF74
  8
0
  6
CONTINUOUS
  2
_OPEN30
 10
0.7500005490090304
 20
2.74999955358237
 30
0.0
 41
0.046875
 42
0.046875
 43
0.046875
 50
202.16313132933621
  0
POLYLINE
  5
EF75
  8
0
  6
CONTINUOUS
 66
     1
 10
0.0
 20
0.0
 30
0.0
  0
VERTEX
  5
EF76
  8
0
  6
CONTINUOUS
 10
0.7934121205394016
 20
2.7676829096626911
 30
0.0
  0
VERTEX
  5
EF77
  8
0
  6
CONTINUOUS
 10
1.403356379662966
 20
3.0161388199879862
 30
0.0
  0
VERTEX
  5
EF78
  8
0
  6
CONTINUOUS
 10
1.4759478210543191
 20
3.0161388199879862
 30
0.0
  0
SEQEND
  5
EF79
  8
0
  6
CONTINUOUS
  0
ENDBLK
  5
EF7B
  8
0
  0
BLOCK
  8
0
  2
*U79
 70
     1
 10
0.0
 20
0.0
 30
0.0
  3
*U79
  1

  0
TEXT
  5
EF7D
  8
0
 10
1.5194334963612759
 20
2.9533830218979449
 30
0.0
 40
0.125
  1
1 x 6
  0
ENDBLK
  5
EF7F
  8
0
  0
BLOCK
  8
0
  2
*U80
 70
     1
 10
0.0
 20
0.0
 30
0.0
  3
*U80
  1

  0
TEXT
  5
EF81
  8
0
 10
2.704137288033603
 20
3.332115229613577
 30
0.0
 40
0.125
  1
Base Board Assembly
  0
TEXT
  5
EF82
  8
0
 10
2.712834423094995
 20
3.1232703001001618
 30
0.0
 40
0.125
  1
TL-684
  0
TEXT
  5
EF83
  8
0
 10
2.6979128678426072
 20
2.9128053160164882
 30
0.0
 40
0.125
  1
1-1/4" x 7-1/8"
  0
TEXT
  5
EF84
  8
0
 10
2.7098501120445171
 20
2.7023403319328141
 30
0.0
 40
0.125
  1
800.66.TAGUE
  0
ENDBLK
  5
EF86
  8
0
  0
BLOCK
  8
0
  2
*U81
 70
     1
 10
0.0
 20
0.0
 30
0.0
  3
*U81
  1

  0
INSERT
  5
EF88
  8
0
  6
CONTINUOUS
  2
_OPEN30
 10
0.7451914169819816
 20
2.7500006434855768
 30
0.0
 41
0.046875
 42
0.046875
 43
0.046875
 50
202.16313132933621
  0
POLYLINE
  5
EF89
  8
0
  6
CONTINUOUS
 66
     1
 10
0.0
 20
0.0
 30
0.0
  0
VERTEX
  5
EF8A
  8
0
  6
CONTINUOUS
 10
0.7886029885123529
 20
2.7676839995658988
 30
0.0
  0
VERTEX
  5
EF8B
  8
0
  6
CONTINUOUS
 10
1.3985472476359171
 20
3.0161399098911938
 30
0.0
  0
VERTEX
  5
EF8C
  8
0
  6
CONTINUOUS
 10
1.47113868902727
 20
3.0161399098911938
 30
0.0
  0
SEQEND
  5
EF8D
  8
0
  6
CONTINUOUS
  0
ENDBLK
  5
EF8F
  8
0
  0
BLOCK
  8
0
  2
*U82
 70
     1
 10
0.0
 20
0.0
 30
0.0
  3
*U82
  1

  0
TEXT
  5
EF91
  8
0
 10
1.5146243643342281
 20
2.953384111801153
 30
0.0
 40
0.125
  1
1 x 6
  0
ENDBLK
  5
EF93
  8
0
  0
BLOCK
  8
0
  2
*U83
 70
     1
 10
0.0
 20
0.0
 30
0.0
  3
*U83
  1

  0
INSERT
  5
EF95
  8
0
  6
CONTINUOUS
  2
_OPEN30
 10
1.1801914169819829
 20
0.4698936434855341
 30
0.0
 41
0.046875
 42
0.046875
 43
0.046875
 50
202.3186154871324
  0
POLYLINE
  5
EF96
  8
0
  6
CONTINUOUS
 66
     1
 10
0.0
 20
0.0
 30
0.0
  0
VERTEX
  5
EF97
  8
0
  6
CONTINUOUS
 10
1.2235548412162069
 20
0.4876947407461734
 30
0.0
  0
VERTEX
  5
EF98
  8
0
  6
CONTINUOUS
 10
2.0873919391260638
 20
0.8423080691167115
 30
0.0
  0
VERTEX
  5
EF99
  8
0
  6
CONTINUOUS
 10
2.1989716246292801
 20
0.8461045589546075
 30
0.0
  0
SEQEND
  5
EF9A
  8
0
  6
CONTINUOUS
  0
ENDBLK
  5
EF9C
  8
0
  0
BLOCK
  8
0
  2
*U84
 70
     1
 10
0.0
 20
0.0
 30
0.0
  3
*U84
  1

  0
TEXT
  5
EF9E
  8
0
 10
2.2573788551886249
 20
0.7830929627745256
 30
0.0
 40
0.125
  1
TL-936
  0
ENDBLK
  5
EFA0
  8
0
  0
BLOCK
  8
0
  2
*U85
 70
     1
 10
0.0
 20
0.0
 30
0.0
  3
*U85
  1

  0
INSERT
  5
EFA2
  8
0
  6
CONTINUOUS
  2
_OPEN30
 10
1.1140370353124349
 20
6.0172615651794104
 30
0.0
 41
0.046875
 42
0.046875
 43
0.046875
 50
212.76268937861931
  0
POLYLINE
  5
EFA3
  8
0
  6
CONTINUOUS
 66
     1
 10
0.0
 20
0.0
 30
0.0
  0
VERTEX
  5
EFA4
  8
0
  6
CONTINUOUS
 10
1.153455121966132
 20
6.0426284741271239
 30
0.0
  0
VERTEX
  5
EFA5
  8
0
  6
CONTINUOUS
 10
1.5457270658948801
 20
6.2950691055510779
 30
0.0
  0
VERTEX
  5
EFA6
  8
0
  6
CONTINUOUS
 10
1.614421022257261
 20
6.2950691055510779
 30
0.0
  0
SEQEND
  5
EFA7
  8
0
  6
CONTINUOUS
  0
ENDBLK
  5
EFA9
  8
0
  0
BLOCK
  8
0
  2
*U86
 70
     1
 10
0.0
 20
0.0
 30
0.0
  3
*U86
  1

  0
TEXT
  5
EFAB
  8
0
 10
1.6728282528166061
 20
6.2320575093709971
 30
0.0
 40
0.125
  1
TL-64
  0
ENDBLK
  5
EFAD
  8
0
  0
BLOCK
  8
0
  2
*U87
 70
     1
 10
0.0
 20
0.0
 30
0.0
  3
*U87
  1

  0
INSERT
  5
EFAF
  8
0
  2
_OPEN30
 10
0.7499984483362711
 20
3.323717158281283
 30
0.0
 41
0.046875
 42
0.046875
 43
0.046875
 50
223.3453603417224
  0
POLYLINE
  5
EFB0
  8
0
 66
     1
 10
0.0
 20
0.0
 30
0.0
  0
VERTEX
  5
EFB1
  8
0
 10
0.7840873347090377
 20
3.3558918913938451
 30
0.0
  0
VERTEX
  5
EFB2
  8
0
 10
1.5886209634041959
 20
4.1152494867193354
 30
0.0
  0
VERTEX
  5
EFB3
  8
0
 10
1.696609421136031
 20
4.1152494867193354
 30
0.0
  0
SEQEND
  5
EFB4
  8
0
  0
ENDBLK
  5
EFB6
  8
0
  0
BLOCK
  8
0
  2
*U88
 70
     1
 10
0.0
 20
0.0
 30
0.0
  3
*U88
  1

  0
TEXT
  5
EFB8
  8
0
 10
1.755016651695376
 20
4.0522378905392529
 30
0.0
 40
0.125
  1
TL-AB212
  0
ENDBLK
  5
EFBA
  8
0
  0
BLOCK
  8
0
  2
*U89
 70
     1
 10
0.0
 20
0.0
 30
0.0
  3
*U89
  1

  0
INSERT
  5
EFBC
  8
0
  2
_OPEN30
 10
1.044936595452554
 20
0.5089059855812366
 30
0.0
 41
0.046875
 42
0.046875
 43
0.046875
 50
218.32432662178419
  0
POLYLINE
  5
EFBD
  8
0
 66
     1
 10
0.0
 20
0.0
 30
0.0
  0
VERTEX
  5
EFBE
  8
0
 10
1.0817106495577451
 20
0.5379737438310308
 30
0.0
  0
VERTEX
  5
EFBF
  8
0
 10
1.624617115981436
 20
0.9671098372601819
 30
0.0
  0
VERTEX
  5
EFC0
  8
0
 10
1.7056084592803691
 20
0.9671098372601819
 30
0.0
  0
SEQEND
  5
EFC1
  8
0
  0
ENDBLK
  5
EFC3
  8
0
  0
BLOCK
  8
0
  2
*U90
 70
     1
 10
0.0
 20
0.0
 30
0.0
  3
*U90
  1

  0
TEXT
  5
EFC5
  8
0
 10
1.7640156898397139
 20
0.9043540391701409
 30
0.0
 40
0.125
  1
TL-AB027
  0
ENDBLK
  5
EFC7
  8
0
  0
BLOCK
  8
0
  2
*U91
 70
     1
 10
0.0
 20
0.0
 30
0.0
  3
*U91
  1

  0
TEXT
  5
EFC9
  8
0
 10
2.1745549234235391
 20
2.6225473309813192
 30
0.0
 40
0.125
  1
Base Board Assembly
  0
TEXT
  5
EFCA
  8
0
 10
2.1832520584849302
 20
2.413702401467904
 30
0.0
 40
0.125
  1
TL-685
  0
TEXT
  5
EFCB
  8
0
 10
2.1683305032325428
 20
2.2032374173842291
 30
0.0
 40
0.125
  1
1-1/4" x 5-1/2"
  0
TEXT
  5
EFCC
  8
0
 10
2.1802677474344532
 20
1.992772433300555
 30
0.0
 40
0.125
  1
800.66.TAGUE
  0
ENDBLK
  5
EFCE
  8
0
  0
BLOCK
  8
0
  2
*U92
 70
     1
 10
0.0
 20
0.0
 30
0.0
  3
*U92
  1

  0
INSERT
  5
EFD0
  8
0
  2
_OPEN30
 10
1.237403731795552
 20
0.7228374639378217
 30
0.0
 41
0.046875
 42
0.046875
 43
0.046875
 50
218.32432662178419
  0
POLYLINE
  5
EFD1
  8
0
 66
     1
 10
0.0
 20
0.0
 30
0.0
  0
VERTEX
  5
EFD2
  8
0
 10
1.274177785900743
 20
0.7519052221876159
 30
0.0
  0
VERTEX
  5
EFD3
  8
0
 10
1.8170842523244339
 20
1.1810413156167661
 30
0.0
  0
VERTEX
  5
EFD4
  8
0
 10
1.898075595623367
 20
1.1810413156167661
 30
0.0
  0
SEQEND
  5
EFD5
  8
0
  0
ENDBLK
  5
EFD7
  8
0
  0
BLOCK
  8
0
  2
*U93
 70
     1
 10
0.0
 20
0.0
 30
0.0
  3
*U93
  1

  0
TEXT
  5
EFD9
  8
0
 10
1.9564828261827121
 20
1.1180297194366851
 30
0.0
 40
0.125
  1
TL-AB205-2
  0
ENDBLK
  5
EFDB
  8
0
  0
BLOCK
  8
0
  2
*U94
 70
     1
 10
0.0
 20
0.0
 30
0.0
  3
*U94
  1

  0
INSERT
  5
EFDD
  8
0
  2
_OPEN30
 10
0.7805394140341379
 20
3.428009497764946
 30
0.0
 41
0.046875
 42
0.046875
 43
0.046875
 50
223.3453603417224
  0
POLYLINE
  5
EFDE
  8
0
 66
     1
 10
0.0
 20
0.0
 30
0.0
  0
VERTEX
  5
EFDF
  8
0
 10
0.8146283004069044
 20
3.460184230877509
 30
0.0
  0
VERTEX
  5
EFE0
  8
0
 10
1.619161929102062
 20
4.219541826202998
 30
0.0
  0
VERTEX
  5
EFE1
  8
0
 10
1.727150386833898
 20
4.219541826202998
 30
0.0
  0
SEQEND
  5
EFE2
  8
0
  0
ENDBLK
  5
EFE4
  8
0
  0
BLOCK
  8
0
  2
*U95
 70
     1
 10
0.0
 20
0.0
 30
0.0
  3
*U95
  1

  0
TEXT
  5
EFE6
  8
0
 10
1.785557617393243
 20
4.1565302300229172
 30
0.0
 40
0.125
  1
TL-AB205-1
  0
ENDBLK
  5
EFE8
  8
0
  0
BLOCK
  8
0
  2
*U96
 70
     1
 10
0.0
 20
0.0
 30
0.0
  3
*U96
  1

  0
TEXT
  5
EFEA
  8
0
 10
1.775461282784117
 20
2.9617887573592721
 30
0.0
 40
0.125
  1
Base Board Assembly
  0
TEXT
  5
EFEB
  8
0
 10
1.784158417845509
 20
2.7529438278458569
 30
0.0
 40
0.125
  1
TL-686
  0
TEXT
  5
EFEC
  8
0
 10
1.769236862593121
 20
2.5424788437621819
 30
0.0
 40
0.125
  1
1-1/4" x 6"
  0
TEXT
  5
EFED
  8
0
 10
1.7811741067950311
 20
2.3320138596785078
 30
0.0
 40
0.125
  1
800.66.TAGUE
  0
ENDBLK
  5
EFEF
  8
0
  0
BLOCK
  8
0
  2
*U97
 70
     1
 10
0.0
 20
0.0
 30
0.0
  3
*U97
  1

  0
TEXT
  5
EFF1
  8
0
 10
1.8629812104003169
 20
1.3751718201384611
 30
0.0
 40
0.125
  1
Base Board
  0
TEXT
  5
EFF2
  8
0
 10
1.8716783454617081
 20
1.1663268906250459
 30
0.0
 40
0.125
  1
TL-540
  0
TEXT
  5
EFF3
  8
0
 10
1.8567567902093209
 20
0.9558619065413724
 30
0.0
 40
0.125
  1
1-1/16" x 1-7/8"
  0
TEXT
  5
EFF4
  8
0
 10
1.8686940344112311
 20
0.745396922457698
 30
0.0
 40
0.125
  1
800.66.TAGUE
  0
ENDBLK
  5
EFF6
  8
0
  0
BLOCK
  8
0
  2
*U98
 70
     1
 10
0.0
 20
0.0
 30
0.0
  3
*U98
  1

  0
TEXT
  5
EFF8
  8
0
 10
2.095166123738732
 20
2.843700788541923
 30
0.0
 40
0.125
  1
Base Board
  0
TEXT
  5
EFF9
  8
0
 10
2.1038632588001231
 20
2.6348558590285078
 30
0.0
 40
0.125
  1
TL-541
  0
TEXT
  5
EFFA
  8
0
 10
2.0889417035477358
 20
2.4243908749448329
 30
0.0
 40
0.125
  1
1-5/16" x 5-1/8"
  0
TEXT
  5
EFFB
  8
0
 10
2.1008789477496461
 20
2.2139258908611592
 30
0.0
 40
0.125
  1
800.66.TAGUE
  0
ENDBLK
  5
EFFD
  8
0
  0
BLOCK
  8
0
  2
*U99
 70
     1
 10
0.0
 20
0.0
 30
0.0
  3
*U99
  1

  0
TEXT
  5
EFFF
  8
0
 10
1.3029084100507859
 20
2.5127676930541152
 30
0.0
 40
0.125
  1
Base Board
  0
TEXT
  5
F000
  8
0
 10
1.3116055451121771
 20
2.3039227635407
 30
0.0
 40
0.125
  1
TL-36
  0
TEXT
  5
F001
  8
0
 10
1.3084507020016729
 20
2.093457779457025
 30
0.0
 40
0.125
  1
9/16" x 5-1/16"
  0
TEXT
  5
F002
  8
0
 10
1.3086212340617001
 20
1.882992795373351
 30
0.0
 40
0.125
  1
800.66.TAGUE
  0
ENDBLK
  5
F004
  8
0
  0
BLOCK
  8
0
  2
*U100
 70
     1
 10
0.0
 20
0.0
 30
0.0
  3
*U100
  1

  0
TEXT
  5
F006
  8
0
 10
1.1612344098374301
 20
2.1628857347385511
 30
0.0
 40
0.125
  1
Base Board
  0
TEXT
  5
F007
  8
0
 10
1.169931544898821
 20
1.9540408052251359
 30
0.0
 40
0.125
  1
TL-543
  0
TEXT
  5
F008
  8
0
 10
1.1667767017883159
 20
1.743575821141462
 30
0.0
 40
0.125
  1
9/16" x 4-3/16"
  0
TEXT
  5
F009
  8
0
 10
1.1669472338483431
 20
1.5331108370577871
 30
0.0
 40
0.125
  1
800.66.TAGUE
  0
ENDBLK
  5
F00B
  8
0
  0
BLOCK
  8
0
  2
*U101
 70
     1
 10
0.0
 20
0.0
 30
0.0
  3
*U101
  1

  0
TEXT
  5
F00D
  8
0
 10
1.038992604214154
 20
2.7540114932149891
 30
0.0
 40
0.125
  1
Base Board
  0
TEXT
  5
F00E
  8
0
 10
1.0476897392755451
 20
2.545166563701573
 30
0.0
 40
0.125
  1
TL-618
  0
TEXT
  5
F00F
  8
0
 10
1.0445348961650409
 20
2.3347015796178989
 30
0.0
 40
0.125
  1
9/16" x 5-1/4"
  0
TEXT
  5
F010
  8
0
 10
1.0447054282250681
 20
2.1242365955342248
 30
0.0
 40
0.125
  1
800.66.TAGUE
  0
ENDBLK
  5
F012
  8
0
  0
BLOCK
  8
0
  2
*U102
 70
     1
 10
0.0
 20
0.0
 30
0.0
  3
*U102
  1

  0
TEXT
  5
F014
  8
0
 10
1.182401194441109
 20
1.819766214437663
 30
0.0
 40
0.125
  1
Base Board
  0
TEXT
  5
F015
  8
0
 10
1.1910983295024999
 20
1.610921284924248
 30
0.0
 40
0.125
  1
TL-623
  0
TEXT
  5
F016
  8
0
 10
1.1879434863919951
 20
1.400456300840573
 30
0.0
 40
0.125
  1
9/16" x 3-1/2"
  0
TEXT
  5
F017
  8
0
 10
1.188114018452022
 20
1.189991316756899
 30
0.0
 40
0.125
  1
800.66.TAGUE
  0
ENDBLK
  5
F019
  8
0
  0
BLOCK
  8
0
  2
*U103
 70
     1
 10
0.0
 20
0.0
 30
0.0
  3
*U103
  1

  0
TEXT
  5
F01B
  8
0
 10
1.300654159433843
 20
1.884782119222677
 30
0.0
 40
0.125
  1
Base Board
  0
TEXT
  5
F01C
  8
0
 10
1.309351294495235
 20
1.6759371897092621
 30
0.0
 40
0.125
  1
TL-713
  0
TEXT
  5
F01D
  8
0
 10
1.30619645138473
 20
1.4654722056255871
 30
0.0
 40
0.125
  1
9/16" x 3-1/4"
  0
TEXT
  5
F01E
  8
0
 10
1.3063669834447571
 20
1.255007221541913
 30
0.0
 40
0.125
  1
800.66.TAGUE
  0
ENDBLK
  5
F020
  8
0
  0
BLOCK
  8
0
  2
*U104
 70
     1
 10
0.0
 20
0.0
 30
0.0
  3
*U104
  1

  0
TEXT
  5
F022
  8
0
 10
1.5968605762384229
 20
3.9529851600731258
 30
0.0
 40
0.125
  1
Base Board
  0
TEXT
  5
F023
  8
0
 10
1.6055577112998141
 20
3.7441402305597111
 30
0.0
 40
0.125
  1
TL-602
  0
TEXT
  5
F024
  8
0
 10
1.602317602159296
 20
3.5336752464760361
 30
0.0
 40
0.125
  1
3/4" x 9-1/4"
  0
TEXT
  5
F025
  8
0
 10
1.602573400249337
 20
3.3232102623923621
 30
0.0
 40
0.125
  1
800.66.TAGUE
  0
ENDBLK
  5
F027
  8
0
  0
BLOCK
  8
0
  2
*U105
 70
     1
 10
0.0
 20
0.0
 30
0.0
  3
*U105
  1

  0
TEXT
  5
F029
  8
0
 10
1.524246887462577
 20
2.1988362265429942
 30
0.0
 40
0.125
  1
Base Board
  0
TEXT
  5
F02A
  8
0
 10
1.532944022523969
 20
1.989991297029579
 30
0.0
 40
0.125
  1
TL-603
  0
TEXT
  5
F02B
  8
0
 10
1.52970391338345
 20
1.779526312945904
 30
0.0
 40
0.125
  1
3/4" x 4-1/2"
  0
TEXT
  5
F02C
  8
0
 10
1.5299597114734911
 20
1.5690613288622299
 30
0.0
 40
0.125
  1
800.66.TAGUE
  0
ENDBLK
  5
F02E
  8
0
  0
BLOCK
  8
0
  2
*U106
 70
     1
 10
0.0
 20
0.0
 30
0.0
  3
*U106
  1

  0
TEXT
  5
F030
  8
0
 10
-385.62492623802598
 20
841.67390581148402
 30
0.0
 40
0.125
  1
Base Board
  0
TEXT
  5
F031
  8
0
 10
-385.61622910296461
 20
841.46506088197066
 30
0.0
 40
0.125
  1
TL-603
  0
TEXT
  5
F032
  8
0
 10
-385.61946921210512
 20
841.25459589788716
 30
0.0
 40
0.125
  1
3/4" x 4-1/2"
  0
TEXT
  5
F033
  8
0
 10
-385.61921341401512
 20
841.04413091380331
 30
0.0
 40
0.125
  1
800.66.TAGUE
  0
ENDBLK
  5
F035
  8
0
  0
ENDSEC
  0
SECTION
  2
ENTITIES
  0
INSERT
  5
EE39
  8
0
  2
*U106
 10
0.0
 20
0.0
 30
0.0
  0
LINE
  5
EE3A
  8
0
  6
CONTINUOUS
 10
-386.95583115120218
 20
843.97506931669443
 30
0.0
 11
-387.14917197692478
 21
843.97506931669443
 31
0.0
  0
LINE
  5
EE3B
  8
0
  6
CONTINUOUS
 10
-386.57230642625768
 20
843.04507590425669
 30
0.0
 11
-386.57230642625768
 21
842.99671313741828
 31
0.0
  0
LINE
  5
EE3C
  8
0
  6
CONTINUOUS
 10
-386.57230642625768
 20
842.99671313741828
 30
0.0
 11
-386.40053658195529
 21
842.99671313741828
 31
0.0
  0
LINE
  5
EE3D
  8
0
  6
CONTINUOUS
 10
-386.6583226890881
 20
843.47467334068619
 30
0.0
 11
-386.57466003209049
 21
843.47467334068619
 31
0.0
  0
ARC
  5
EE3E
  8
0
  6
CONTINUOUS
 10
-386.61456712036369
 20
843.25964953899154
 30
0.0
 40
0.2186957040950777
 50
281.14191057486357
 51
79.48588801163703
  0
LINE
  5
EE3F
  8
0
  6
CONTINUOUS
 10
-387.14917197692478
 20
842.47506931669432
 30
0.0
 11
-387.06078362927661
 21
842.38668096904598
 31
0.0
  0
LINE
  5
EE40
  8
0
  6
CONTINUOUS
 10
-386.6583226890881
 20
843.47467334068619
 30
0.0
 11
-386.6583226890881
 21
843.58951830275771
 31
0.0
  0
ARC
  5
EE41
  8
0
  6
CONTINUOUS
 10
-386.54426071267568
 20
843.98509458803176
 30
0.0
 40
0.4116925211056956
 50
181.3953678805056
 51
253.91541060230429
  0
LINE
  5
EE42
  8
0
  6
CONTINUOUS
 10
-387.14917197692478
 20
843.97506931669443
 30
0.0
 11
-387.14917197692478
 21
842.47506931669432
 31
0.0
  0
LINE
  5
EE43
  8
0
  6
CONTINUOUS
 10
-387.14917197692478
 20
839.47506931669443
 30
0.0
 11
-387.14917197692478
 21
840.47506931669443
 31
0.0
  0
LINE
  5
EE44
  8
0
  6
CONTINUOUS
 10
-387.14917197692478
 20
840.47506931669443
 30
0.0
 11
-387.06078362927661
 21
840.56345766434265
 31
0.0
  0
LINE
  5
EE45
  8
0
  6
CONTINUOUS
 10
-387.06078362927661
 20
840.55723593422351
 30
0.0
 11
-387.06078362927661
 21
840.55723593422351
 31
0.0
  0
LINE
  5
EE46
  8
0
  6
CONTINUOUS
 10
-386.40053658195529
 20
839.47506931669443
 30
0.0
 11
-387.14917197692478
 21
839.47506931669443
 31
0.0
  0
LINE
  5
EE47
  8
0
  6
CONTINUOUS
 10
-386.40053658195529
 20
842.99671313741828
 30
0.0
 11
-386.40053658195529
 21
839.47506931669443
 31
0.0
  0
LINE
  5
EE48
  8
0
  6
CONTINUOUS
 10
-387.06078362927661
 20
842.38668096904598
 30
0.0
 11
-387.06078362927661
 21
840.55723593422351
 31
0.0
  0
VIEWPORT
  5
BADA
 67
     1
  8
0
 10
5.249999665167536
 20
4.0168608648543129
 30
0.0
 40
16.212536403349191
 41
8.0154416672020492
 68
     1
 69
     1
1001
ACAD
1000
MVIEW
1002
{
1070
    16
1010
0.0
1020
0.0
1030
0.0
1010
0.0
1020
0.0
1030
1.0
1040
0.0
1040
8.0154416672020492
1040
5.249999665167536
1040
4.0168608648543129
1040
50.0
1040
0.0
1040
0.0
1070
     0
1070
   100
1070
     1
1070
     1
1070
     0
1070
     0
1070
     0
1070
     0
1040
0.0
1040
0.0
1040
0.0
1040
0.5
1040
0.5
1040
0.5
1040
0.5
1070
     0
1002
{
1002
}
1002
}
  0
VIEWPORT
  5
BADD
 67
     1
  8
0
 10
5.2499996294871929
 20
4.0166741807634683
 30
0.0
 40
10.44245679893058
 41
7.8813805131999892
 68
     2
 69
     2
1001
ACAD
1000
MVIEW
1002
{
1070
    16
1010
0.0
1020
0.0
1030
0.0
1010
0.0
1020
0.0
1030
1.0
1040
0.0
1040
9.6845689600492761
1040
-386.36428259394302
1040
841.2860578125011
1040
50.0
1040
0.0
1040
0.0
1070
     0
1070
   100
1070
     1
1070
     2
1070
     0
1070
     0
1070
     0
1070
     0
1040
0.0
1040
0.0
1040
0.0
1040
0.5
1040
0.5
1040
0.5
1040
0.5
1070
     0
1002
{
1002
}
1002
}
  0
ENDSEC
  0
EOF
