  0
SECTION
  2
HEADER
  9
$ACADVER
  1
AC1009
  9
$INSBASE
 10
0.0
 20
0.0
 30
0.0
  9
$EXTMIN
 10
-388.02427903846348
 20
836.95350068165851
 30
0.0
  9
$EXTMAX
 10
-382.84619066977348
 20
841.09233797680747
 30
0.0
  9
$LIMMIN
 10
0.0
 20
0.0
  9
$LIMMAX
 10
1500.0
 20
1500.0
  9
$ORTHOMODE
 70
     0
  9
$REGENMODE
 70
     1
  9
$FILLMODE
 70
     1
  9
$QTEXTMODE
 70
     0
  9
$MIRRTEXT
 70
     1
  9
$DRAGMODE
 70
     2
  9
$LTSCALE
 40
1.0
  9
$OSMODE
 70
    37
  9
$ATTMODE
 70
     1
  9
$TEXTSIZE
 40
1.5
  9
$TRACEWID
 40
0.05
  9
$TEXTSTYLE
  7
STANDARD
  9
$CLAYER
  8
0
  9
$CELTYPE
  6
BYLAYER
  9
$CECOLOR
 62
   256
  9
$DIMSCALE
 40
1.0
  9
$DIMASZ
 40
0.75
  9
$DIMEXO
 40
1.5
  9
$DIMDLI
 40
2.0
  9
$DIMRND
 40
0.0
  9
$DIMDLE
 40
0.0
  9
$DIMEXE
 40
1.0
  9
$DIMTP
 40
0.0
  9
$DIMTM
 40
0.0
  9
$DIMTXT
 40
1.5
  9
$DIMCEN
 40
2.0
  9
$DIMTSZ
 40
0.0
  9
$DIMTOL
 70
     0
  9
$DIMLIM
 70
     0
  9
$DIMTIH
 70
     0
  9
$DIMTOH
 70
     0
  9
$DIMSE1
 70
     0
  9
$DIMSE2
 70
     0
  9
$DIMTAD
 70
     1
  9
$DIMZIN
 70
     0
  9
$DIMBLK
  1
ARCHTICK
  9
$DIMASO
 70
     1
  9
$DIMSHO
 70
     1
  9
$DIMPOST
  1
"
  9
$DIMAPOST
  1

  9
$DIMALT
 70
     0
  9
$DIMALTD
 70
     2
  9
$DIMALTF
 40
25.399999999999999
  9
$DIMLFAC
 40
1.0
  9
$DIMTOFL
 70
     0
  9
$DIMTVP
 40
0.0
  9
$DIMTIX
 70
     1
  9
$DIMSOXD
 70
     0
  9
$DIMSAH
 70
     0
  9
$DIMBLK1
  1

  9
$DIMBLK2
  1

  9
$DIMSTYLE
  2
THREE_QUARTER_INCH_SCALE
  9
$DIMCLRD
 70
     0
  9
$DIMCLRE
 70
     0
  9
$DIMCLRT
 70
     0
  9
$DIMTFAC
 40
1.0
  9
$DIMGAP
 40
1.0
  9
$LUNITS
 70
     2
  9
$LUPREC
 70
     4
  9
$SKETCHINC
 40
0.1
  9
$FILLETRAD
 40
0.0
  9
$AUNITS
 70
     0
  9
$AUPREC
 70
     0
  9
$MENU
  1
.
  9
$ELEVATION
 40
0.0
  9
$PELEVATION
 40
0.0
  9
$THICKNESS
 40
0.0
  9
$LIMCHECK
 70
     0
  9
$BLIPMODE
 70
     0
  9
$CHAMFERA
 40
0.5
  9
$CHAMFERB
 40
0.5
  9
$SKPOLY
 70
     0
  9
$TDCREATE
 40
2452089.395738773
  9
$TDUPDATE
 40
2453608.5553317252
  9
$TDINDWG
 40
1.0077821991
  9
$TDUSRTIMER
 40
1.0077821991
  9
$USRTIMER
 70
     1
  9
$ANGBASE
 50
0.0
  9
$ANGDIR
 70
     0
  9
$PDMODE
 70
     0
  9
$PDSIZE
 40
10.0
  9
$PLINEWID
 40
0.0
  9
$COORDS
 70
     1
  9
$SPLFRAME
 70
     0
  9
$SPLINETYPE
 70
     6
  9
$SPLINESEGS
 70
     8
  9
$ATTDIA
 70
     0
  9
$ATTREQ
 70
     1
  9
$HANDLING
 70
     1
  9
$HANDSEED
  5
D323
  9
$SURFTAB1
 70
     6
  9
$SURFTAB2
 70
     6
  9
$SURFTYPE
 70
     6
  9
$SURFU
 70
     6
  9
$SURFV
 70
     6
  9
$UCSNAME
  2

  9
$UCSORG
 10
0.0
 20
0.0
 30
0.0
  9
$UCSXDIR
 10
1.0
 20
0.0
 30
0.0
  9
$UCSYDIR
 10
0.0
 20
1.0
 30
0.0
  9
$PUCSNAME
  2

  9
$PUCSORG
 10
0.0
 20
0.0
 30
0.0
  9
$PUCSXDIR
 10
1.0
 20
0.0
 30
0.0
  9
$PUCSYDIR
 10
0.0
 20
1.0
 30
0.0
  9
$USERI1
 70
     0
  9
$USERI2
 70
     0
  9
$USERI3
 70
     0
  9
$USERI4
 70
     0
  9
$USERI5
 70
     0
  9
$USERR1
 40
0.0
  9
$USERR2
 40
0.0
  9
$USERR3
 40
0.0
  9
$USERR4
 40
0.0
  9
$USERR5
 40
0.0
  9
$WORLDVIEW
 70
     1
  9
$SHADEDGE
 70
     3
  9
$SHADEDIF
 70
    70
  9
$TILEMODE
 70
     0
  9
$MAXACTVP
 70
    64
  9
$PLIMCHECK
 70
     0
  9
$PEXTMIN
 10
0.0282895744820664
 20
0.0759353784799721
 30
-0.0015258207003583
  9
$PEXTMAX
 10
10.471709755853
 20
7.9577863512286546
 30
0.0000000349246037
  9
$PLIMMIN
 10
-0.2500002402958907
 20
-0.2499999962453767
  9
$PLIMMAX
 10
10.74999951940821
 20
8.2499997634587316
  9
$UNITMODE
 70
     0
  9
$VISRETAIN
 70
     1
  9
$PLINEGEN
 70
     0
  9
$PSLTSCALE
 70
     1
  0
ENDSEC
  0
SECTION
  2
TABLES
  0
TABLE
  2
VPORT
 70
     1
  0
VPORT
  2
*ACTIVE
 70
     0
 10
0.0
 20
0.0
 11
1.0
 21
1.0
 12
-385.23175403236718
 22
839.08547985868574
 13
0.0
 23
0.0
 14
0.5
 24
0.5
 15
0.5
 25
0.5
 16
0.0
 26
0.0
 36
1.0
 17
0.0
 27
0.0
 37
0.0
 40
6.3689507457618211
 41
2.0226628895184131
 42
50.0
 43
0.0
 44
0.0
 50
0.0
 51
0.0
 71
     0
 72
   100
 73
     1
 74
     2
 75
     0
 76
     0
 77
     0
 78
     0
  0
ENDTAB
  0
TABLE
  2
LTYPE
 70
     1
  0
LTYPE
  2
CONTINUOUS
 70
     0
  3
Solid line
 72
    65
 73
     0
 40
0.0
  0
ENDTAB
  0
TABLE
  2
LAYER
 70
    10
  0
LAYER
  2
0
 70
     0
 62
     7
  6
CONTINUOUS
  0
LAYER
  2
DEFPOINTS
 70
     0
 62
     7
  6
CONTINUOUS
  0
LAYER
  2
FRAME_200
 70
     0
 62
     8
  6
CONTINUOUS
  0
LAYER
  2
FRAME_070
 70
     0
 62
     5
  6
CONTINUOUS
  0
LAYER
  2
FRAME_050
 70
     0
 62
     6
  6
CONTINUOUS
  0
LAYER
  2
TITLE_BLOCK
 70
     0
 62
     7
  6
CONTINUOUS
  0
LAYER
  2
FRAME_025
 70
     0
 62
     7
  6
CONTINUOUS
  0
LAYER
  2
VIEWPORT
 70
     0
 62
     7
  6
CONTINUOUS
  0
LAYER
  2
PROF
 70
     0
 62
     7
  6
CONTINUOUS
  0
LAYER
  2
PROFILE
 70
     0
 62
     7
  6
CONTINUOUS
  0
ENDTAB
  0
TABLE
  2
STYLE
 70
     2
  0
STYLE
  2
STANDARD
 70
     0
 40
0.0
 41
1.0
 50
0.0
 71
     0
 42
1.5
  3
txt
  4

  0
STYLE
  2
ISO_PROPORTIONAL
 70
     0
 40
0.0
 41
1.0
 50
0.0
 71
     0
 42
2.5
  3
isocp.shx
  4

  0
ENDTAB
  0
TABLE
  2
VIEW
 70
     0
  0
ENDTAB
  0
TABLE
  2
UCS
 70
     0
  0
ENDTAB
  0
TABLE
  2
APPID
 70
     6
  0
APPID
  2
ACAD
 70
     0
  0
APPID
  2
DCO15
 70
     0
  0
APPID
  2
ACAD_EXEMPT_FROM_CAD_STANDARDS
 70
     0
  0
APPID
  2
ACAD_PSEXT
 70
     0
  0
APPID
  2
CONTENTBLOCKDESCRIPTION
 70
     0
  0
APPID
  2
CONTENTBLOCKICON
 70
     0
  0
ENDTAB
  0
TABLE
  2
DIMSTYLE
 70
     5
  0
DIMSTYLE
  2
FULL_SCALE
 70
     0
  3
"
  4

  5
ARCHTICK
  6

  7

 40
1.0
 41
0.046875
 42
0.09375
 43
0.125
 44
0.0625
 45
0.0
 46
0.0
 47
0.0
 48
0.0
140
0.125
141
0.125
142
0.0
143
25.399999999999999
144
1.0
145
0.0
146
1.0
147
0.0625
 71
     0
 72
     0
 73
     0
 74
     0
 75
     0
 76
     0
 77
     1
 78
     0
170
     0
171
     2
172
     0
173
     0
174
     1
175
     0
176
     0
177
     0
178
     0
  0
DIMSTYLE
  2
HALF_SCALE
 70
     0
  3
"
  4

  5
ARCHTICK
  6

  7

 40
1.0
 41
0.09375
 42
0.1875
 43
0.25
 44
0.125
 45
0.0
 46
0.0
 47
0.0
 48
0.0
140
0.25
141
0.25
142
0.0
143
25.399999999999999
144
1.0
145
0.0
146
1.0
147
0.125
 71
     0
 72
     0
 73
     0
 74
     0
 75
     0
 76
     0
 77
     1
 78
     0
170
     0
171
     2
172
     0
173
     0
174
     1
175
     0
176
     0
177
     0
178
     0
  0
DIMSTYLE
  2
INCH_SCALE
 70
     0
  3
"
  4

  5
ARCHTICK
  6

  7

 40
1.0
 41
0.5625
 42
1.125
 43
1.5
 44
0.75
 45
0.0
 46
0.0
 47
0.0
 48
0.0
140
1.125
141
1.5
142
0.0
143
25.399999999999999
144
1.0
145
0.0
146
1.0
147
0.75
 71
     0
 72
     0
 73
     0
 74
     0
 75
     0
 76
     0
 77
     1
 78
     0
170
     0
171
     2
172
     0
173
     0
174
     1
175
     0
176
     0
177
     0
178
     0
  0
DIMSTYLE
  2
THREE_QUARTER_INCH_SCALE
 70
     0
  3
"
  4

  5
ARCHTICK
  6

  7

 40
1.0
 41
0.75
 42
1.5
 43
2.0
 44
1.0
 45
0.0
 46
0.0
 47
0.0
 48
0.0
140
1.5
141
2.0
142
0.0
143
25.399999999999999
144
1.0
145
0.0
146
1.0
147
1.0
 71
     0
 72
     0
 73
     0
 74
     0
 75
     0
 76
     0
 77
     1
 78
     0
170
     0
171
     2
172
     0
173
     0
174
     1
175
     0
176
     0
177
     0
178
     0
  0
DIMSTYLE
  2
ZHALF_INCH_SCALE
 70
     0
  3
"
  4

  5
ARCHTICK
  6

  7

 40
1.0
 41
1.125
 42
2.25
 43
3.0
 44
1.5
 45
0.0
 46
0.0
 47
0.0
 48
0.0
140
2.25
141
3.0
142
0.0
143
25.399999999999999
144
1.0
145
0.0
146
1.0
147
1.5
 71
     0
 72
     0
 73
     0
 74
     0
 75
     0
 76
     0
 77
     1
 78
     0
170
     0
171
     2
172
     0
173
     0
174
     1
175
     0
176
     0
177
     0
178
     0
  0
ENDTAB
  0
ENDSEC
  0
SECTION
  2
BLOCKS
  0
BLOCK
  8
0
  2
$MODEL_SPACE
 70
     0
 10
0.0
 20
0.0
 30
0.0
  3
$MODEL_SPACE
  1

  0
ENDBLK
  5
21
  8
0
  0
BLOCK
 67
     1
  8
0
  2
$PAPER_SPACE
 70
     0
 10
0.0
 20
0.0
 30
0.0
  3
$PAPER_SPACE
  1

  0
ENDBLK
  5
BAD5
 67
     1
  8
0
  0
BLOCK
  8
0
  2
_ARCHTICK
 70
     0
 10
0.0
 20
0.0
 30
0.0
  3
_ARCHTICK
  1

  0
POLYLINE
  5
158
  8
0
  6
BYBLOCK
 62
     0
 66
     1
 10
0.0
 20
0.0
 30
0.0
 40
0.15
 41
0.15
  0
VERTEX
  5
D0C6
  8
0
  6
BYBLOCK
 62
     0
 10
-0.5
 20
-0.5
 30
0.0
  0
VERTEX
  5
D0C7
  8
0
  6
BYBLOCK
 62
     0
 10
0.5
 20
0.5
 30
0.0
  0
SEQEND
  5
D0C8
  8
0
  6
BYBLOCK
 62
     0
  0
ENDBLK
  5
15A
  8
0
  0
BLOCK
  8
0
  2
_OPEN30
 70
     0
 10
0.0
 20
0.0
 30
0.0
  3
_OPEN30
  1

  0
LINE
  5
15C
  8
0
  6
BYBLOCK
 62
     0
 10
-1.0
 20
0.26794919
 30
0.0
 11
0.0
 21
0.0
 31
0.0
  0
LINE
  5
15D
  8
0
  6
BYBLOCK
 62
     0
 10
0.0
 20
0.0
 30
0.0
 11
-1.0
 21
-0.26794919
 31
0.0
  0
LINE
  5
15E
  8
0
  6
BYBLOCK
 62
     0
 10
0.0
 20
0.0
 30
0.0
 11
-1.0
 21
0.0
 31
0.0
  0
ENDBLK
  5
160
  8
0
  0
BLOCK
  8
0
  2
ISO_A2_TITLE_BLOCK
 70
     2
 10
0.0
 20
0.0
 30
0.0
  3
ISO_A2_TITLE_BLOCK
  1

  0
LINE
  5
BDD
  8
FRAME_050
 10
299.5
 20
12.5
 30
0.0
 11
297.0
 21
7.5
 31
0.0
  0
LINE
  5
BDE
  8
FRAME_050
 10
294.5
 20
12.5
 30
0.0
 11
299.5
 21
12.5
 31
0.0
  0
LINE
  5
BDF
  8
FRAME_050
 10
247.0
 20
5.0
 30
0.0
 11
347.0
 21
5.0
 31
0.0
  0
LINE
  5
BE0
  8
FRAME_070
 10
584.0
 20
410.0
 30
0.0
 11
10.0
 21
410.0
 31
0.0
  0
LINE
  5
BE1
  8
FRAME_070
 10
10.0
 20
10.0
 30
0.0
 11
584.0
 21
10.0
 31
0.0
  0
LINE
  5
BE2
  8
FRAME_050
 10
12.5
 20
207.5
 30
0.0
 11
7.5
 21
210.0
 31
0.0
  0
LINE
  5
BE3
  8
FRAME_050
 10
12.5
 20
212.5
 30
0.0
 11
12.5
 21
207.5
 31
0.0
  0
LINE
  5
BE4
  8
FRAME_070
 10
10.0
 20
410.0
 30
0.0
 11
10.0
 21
10.0
 31
0.0
  0
LINE
  5
BE5
  8
FRAME_200
 10
0.0
 20
0.0
 30
0.0
 11
0.0
 21
10.0
 31
0.0
  0
LINE
  5
BE6
  8
FRAME_200
 10
0.0
 20
0.0
 30
0.0
 11
10.0
 21
0.0
 31
0.0
  0
TEXT
  5
BE7
  8
FRAME_050
 10
5.9000000000000004
 20
35.0
 30
0.0
 40
4.0
  1
H
  7
ISO_PROPORTIONAL
 72
     4
 11
7.5
 21
37.0
 31
0.0
  0
LINE
  5
BE8
  8
FRAME_050
 10
10.0
 20
60.0
 30
0.0
 11
5.0
 21
60.0
 31
0.0
  0
LINE
  5
BE9
  8
FRAME_050
 10
81.75
 20
5.0
 30
0.0
 11
81.75
 21
10.0
 31
0.0
  0
TEXT
  5
BEA
  8
FRAME_050
 10
44.874999999999993
 20
5.5
 30
0.0
 40
4.0
  1
1
  7
ISO_PROPORTIONAL
 72
     4
 11
45.875
 21
7.5
 31
0.0
  0
TEXT
  5
BEB
  8
FRAME_050
 10
6.0035533905932743
 20
85.0
 30
0.0
 40
4.0
  1
G
  7
ISO_PROPORTIONAL
 72
     4
 11
7.5
 21
87.0
 31
0.0
  0
LINE
  5
BEC
  8
FRAME_050
 10
10.0
 20
110.0
 30
0.0
 11
5.0
 21
110.0
 31
0.0
  0
TEXT
  5
BED
  8
FRAME_050
 10
6.0999999999999988
 20
135.0
 30
0.0
 40
4.0
  1
F
  7
ISO_PROPORTIONAL
 72
     4
 11
7.5
 21
137.0
 31
0.0
  0
LINE
  5
BEE
  8
FRAME_050
 10
10.0
 20
160.0
 30
0.0
 11
5.0
 21
160.0
 31
0.0
  0
TEXT
  5
BEF
  8
FRAME_050
 10
6.0999999999999988
 20
185.0
 30
0.0
 40
4.0
  1
E
  7
ISO_PROPORTIONAL
 72
     4
 11
7.5
 21
187.0
 31
0.0
  0
LINE
  5
BF0
  8
FRAME_050
 10
153.5
 20
5.0
 30
0.0
 11
153.5
 21
10.0
 31
0.0
  0
TEXT
  5
BF1
  8
FRAME_050
 10
116.1556692913386
 20
5.3996062992125982
 30
0.0
 40
4.0
  1
2
  7
ISO_PROPORTIONAL
 72
     4
 11
117.625
 21
7.5
 31
0.0
  0
TEXT
  5
BF2
  8
FRAME_050
 10
187.89215728752529
 20
5.5828427124746138
 30
0.0
 40
4.0
  1
3
  7
ISO_PROPORTIONAL
 72
     4
 11
189.375
 21
7.5
 31
0.0
  0
LINE
  5
BF3
  8
FRAME_050
 10
225.25
 20
5.0
 30
0.0
 11
225.25
 21
10.0
 31
0.0
  0
LINE
  5
BF4
  8
FRAME_050
 10
297.0
 20
7.5
 30
0.0
 11
294.5
 21
12.5
 31
0.0
  0
LINE
  5
BF5
  8
FRAME_050
 10
287.0
 20
5.0
 30
0.0
 11
287.0
 21
10.0
 31
0.0
  0
LINE
  5
BF6
  8
FRAME_050
 10
277.0
 20
5.0
 30
0.0
 11
277.0
 21
10.0
 31
0.0
  0
LINE
  5
BF7
  8
FRAME_050
 10
267.0
 20
5.0
 30
0.0
 11
267.0
 21
10.0
 31
0.0
  0
LINE
  5
BF8
  8
FRAME_050
 10
257.0
 20
5.0
 30
0.0
 11
257.0
 21
10.0
 31
0.0
  0
LINE
  5
BF9
  8
FRAME_050
 10
247.0
 20
5.0
 30
0.0
 11
247.0
 21
10.0
 31
0.0
  0
LINE
  5
BFA
  8
FRAME_050
 10
297.0
 20
10.0
 30
0.0
 11
297.0
 21
5.0
 31
0.0
  0
LINE
  5
BFB
  8
FRAME_050
 10
297.0
 20
10.0
 30
0.0
 11
297.0
 21
15.0
 31
0.0
  0
LINE
  5
BFC
  8
FRAME_050
 10
5.0
 20
210.0
 30
0.0
 11
15.0
 21
210.0
 31
0.0
  0
LINE
  5
BFD
  8
FRAME_050
 10
7.5
 20
210.0
 30
0.0
 11
12.5
 21
212.5
 31
0.0
  0
TEXT
  5
BFE
  8
FRAME_050
 10
5.7860912703473977
 20
235.0
 30
0.0
 40
4.0
  1
D
  7
ISO_PROPORTIONAL
 72
     4
 11
7.5
 21
237.0
 31
0.0
  0
LINE
  5
BFF
  8
FRAME_050
 10
10.0
 20
260.0
 30
0.0
 11
5.0
 21
260.0
 31
0.0
  0
TEXT
  5
C00
  8
FRAME_050
 10
6.1931980515339466
 20
285.0
 30
0.0
 40
4.0
  1
C
  7
ISO_PROPORTIONAL
 72
     4
 11
7.5
 21
287.0
 31
0.0
  0
LINE
  5
C01
  8
FRAME_050
 10
10.0
 20
310.0
 30
0.0
 11
5.0
 21
310.0
 31
0.0
  0
TEXT
  5
C02
  8
FRAME_050
 10
5.8999999999999959
 20
335.0
 30
0.0
 40
4.0
  1
B
  7
ISO_PROPORTIONAL
 72
     4
 11
7.5
 21
337.0
 31
0.0
  0
LINE
  5
C03
  8
FRAME_050
 10
10.0
 20
360.0
 30
0.0
 11
5.0
 21
360.0
 31
0.0
  0
TEXT
  5
C04
  8
FRAME_050
 10
5.6999999999999993
 20
385.0
 30
0.0
 40
4.0
  1
A
  7
ISO_PROPORTIONAL
 72
     4
 11
7.5
 21
387.0
 31
0.0
  0
LINE
  5
C05
  8
FRAME_200
 10
10.0
 20
420.0
 30
0.0
 11
0.0
 21
420.0
 31
0.0
  0
LINE
  5
C06
  8
FRAME_200
 10
0.0
 20
420.0
 30
0.0
 11
0.0
 21
410.0
 31
0.0
  0
TEXT
  5
C07
  8
FRAME_050
 10
44.874999999999993
 20
410.5
 30
0.0
 40
4.0
  1
1
  7
ISO_PROPORTIONAL
 72
     4
 11
45.875
 21
412.5
 31
0.0
  0
LINE
  5
C08
  8
FRAME_050
 10
81.75
 20
410.0
 30
0.0
 11
81.75
 21
415.0
 31
0.0
  0
TEXT
  5
C09
  8
FRAME_050
 10
116.1556692913386
 20
410.39960629921262
 30
0.0
 40
4.0
  1
2
  7
ISO_PROPORTIONAL
 72
     4
 11
117.625
 21
412.5
 31
0.0
  0
LINE
  5
C0A
  8
FRAME_050
 10
153.5
 20
410.0
 30
0.0
 11
153.5
 21
415.0
 31
0.0
  0
TEXT
  5
C0B
  8
FRAME_050
 10
187.89215728752529
 20
410.58284271247459
 30
0.0
 40
4.0
  1
3
  7
ISO_PROPORTIONAL
 72
     4
 11
189.375
 21
412.5
 31
0.0
  0
LINE
  5
C0C
  8
FRAME_050
 10
297.0
 20
405.0
 30
0.0
 11
297.0
 21
415.0
 31
0.0
  0
LINE
  5
C0D
  8
FRAME_050
 10
225.25
 20
410.0
 30
0.0
 11
225.25
 21
415.0
 31
0.0
  0
TEXT
  5
C0E
  8
FRAME_050
 10
259.52499999999998
 20
410.5
 30
0.0
 40
4.0
  1
4
  7
ISO_PROPORTIONAL
 72
     4
 11
261.125
 21
412.5
 31
0.0
  0
LINE
  5
C0F
  8
FRAME_070
 10
584.0
 20
10.0
 30
0.0
 11
584.0
 21
410.0
 31
0.0
  0
ATTDEF
  5
C10
  8
FRAME_025
 10
473.0
 20
31.75
 30
0.0
 40
2.5
  1
XXX - 00/00/00
  7
ISO_PROPORTIONAL
 11
473.0
 21
33.0
 31
0.0
  3
Approved by - Date
  2
APPROVED_BY_DATE
 70
     8
 74
     2
  0
TEXT
  5
C11
  8
FRAME_025
 10
448.0
 20
41.749999999999993
 30
0.0
 40
2.5
  1
Title/Name, designation, material, dimension etc
  7
ISO_PROPORTIONAL
 11
448.0
 21
43.0
 31
0.0
 73
     2
  0
TEXT
  5
C12
  8
FRAME_025
 10
473.0
 20
35.75
 30
0.0
 40
2.5
  1
Approved by - date
  7
ISO_PROPORTIONAL
 11
473.0
 21
37.0
 31
0.0
 73
     2
  0
LINE
  5
C13
  8
FRAME_070
 10
414.0
 20
46.0
 30
0.0
 11
584.0
 21
46.0
 31
0.0
  0
LINE
  5
C14
  8
FRAME_070
 10
414.0
 20
40.0
 30
0.0
 11
584.0
 21
40.0
 31
0.0
  0
LINE
  5
C15
  8
FRAME_070
 10
414.0
 20
30.0
 30
0.0
 11
584.0
 21
30.0
 31
0.0
  0
LINE
  5
C16
  8
FRAME_050
 10
368.75
 20
5.0
 30
0.0
 11
368.75
 21
10.0
 31
0.0
  0
LINE
  5
C17
  8
FRAME_050
 10
337.0
 20
5.0
 30
0.0
 11
337.0
 21
10.0
 31
0.0
  0
LINE
  5
C18
  8
FRAME_050
 10
327.0
 20
5.0
 30
0.0
 11
327.0
 21
10.0
 31
0.0
  0
LINE
  5
C19
  8
FRAME_050
 10
317.0
 20
5.0
 30
0.0
 11
317.0
 21
10.0
 31
0.0
  0
LINE
  5
C1A
  8
FRAME_050
 10
307.0
 20
5.0
 30
0.0
 11
307.0
 21
10.0
 31
0.0
  0
LINE
  5
C1B
  8
FRAME_050
 10
347.0
 20
5.0
 30
0.0
 11
347.0
 21
10.0
 31
0.0
  0
LINE
  5
C1C
  8
FRAME_050
 10
440.5
 20
5.0
 30
0.0
 11
440.5
 21
10.0
 31
0.0
  0
TEXT
  5
C1D
  8
FRAME_050
 10
403.24547244094481
 20
5.4102362204724406
 30
0.0
 40
4.0
  1
6
  7
ISO_PROPORTIONAL
 72
     4
 11
404.62499999999989
 21
7.5
 31
0.0
  0
TEXT
  5
C1E
  8
FRAME_050
 10
474.97500000000002
 20
5.5
 30
0.0
 40
4.0
  1
7
  7
ISO_PROPORTIONAL
 72
     4
 11
476.37499999999989
 21
7.5
 31
0.0
  0
TEXT
  5
C1F
  8
FRAME_025
 10
431.0
 20
41.749999999999993
 30
0.0
 40
2.5
  1
Quantity
  7
ISO_PROPORTIONAL
 11
431.0
 21
43.0
 31
0.0
 73
     2
  0
TEXT
  5
C20
  8
FRAME_025
 10
416.0
 20
41.749999999999993
 30
0.0
 40
2.5
  1
Itemref
  7
ISO_PROPORTIONAL
 11
416.0
 21
43.0
 31
0.0
 73
     2
  0
LINE
  5
C21
  8
FRAME_070
 10
414.0
 20
40.0
 30
0.0
 11
414.0
 21
46.0
 31
0.0
  0
LINE
  5
C22
  8
FRAME_070
 10
429.0
 20
40.0
 30
0.0
 11
429.0
 21
46.0
 31
0.0
  0
LINE
  5
C23
  8
FRAME_070
 10
414.0
 20
10.0
 30
0.0
 11
414.0
 21
40.0
 31
0.0
  0
ATTDEF
  5
C24
  8
FRAME_025
 10
416.0
 20
31.75
 30
0.0
 40
2.5
  1
XXX
  7
ISO_PROPORTIONAL
 11
416.0
 21
33.0
 31
0.0
  3
Designed by
  2
DESIGNED_BY
 70
     8
 74
     2
  0
TEXT
  5
C25
  8
FRAME_025
 10
416.0
 20
35.75
 30
0.0
 40
2.5
  1
Designed by
  7
ISO_PROPORTIONAL
 11
416.0
 21
37.0
 31
0.0
 73
     2
  0
LINE
  5
C26
  8
FRAME_070
 10
446.0
 20
40.0
 30
0.0
 11
446.0
 21
46.0
 31
0.0
  0
ATTDEF
  5
C27
  8
FRAME_025
 10
448.0
 20
31.75
 30
0.0
 40
2.5
  1
XXX
  7
ISO_PROPORTIONAL
 11
448.0
 21
33.0
 31
0.0
  3
Checked by
  2
CHECKED_BY
 70
     8
 74
     2
  0
TEXT
  5
C28
  8
FRAME_025
 10
448.0
 20
35.75
 30
0.0
 40
2.5
  1
Checked by
  7
ISO_PROPORTIONAL
 11
448.0
 21
37.0
 31
0.0
 73
     2
  0
ATTDEF
  5
C29
  8
FRAME_050
 10
444.74999999999989
 20
17.5
 30
0.0
 40
5.0
  1
XXX
  7
ISO_PROPORTIONAL
 72
     4
 11
451.49999999999989
 21
20.0
 31
0.0
  3
Owner
  2
OWNER
 70
     8
  0
LINE
  5
C2A
  8
FRAME_070
 10
446.0
 20
30.0
 30
0.0
 11
446.0
 21
40.0
 31
0.0
  0
LINE
  5
C2B
  8
FRAME_070
 10
471.0
 20
30.0
 30
0.0
 11
471.0
 21
40.0
 31
0.0
  0
LINE
  5
C2C
  8
FRAME_070
 10
489.0
 20
20.0
 30
0.0
 11
584.0
 21
20.0
 31
0.0
  0
LINE
  5
C2D
  8
FRAME_050
 10
512.25
 20
5.0
 30
0.0
 11
512.25
 21
10.0
 31
0.0
  0
TEXT
  5
C2E
  8
FRAME_050
 10
546.72499999999991
 20
5.5
 30
0.0
 40
4.0
  1
8
  7
ISO_PROPORTIONAL
 72
     4
 11
548.125
 21
7.5
 31
0.0
  0
ATTDEF
  5
C2F
  8
FRAME_050
 10
517.64999999999986
 20
13.5
 30
0.0
 40
3.0
  1
X
  7
ISO_PROPORTIONAL
 72
     4
 11
519.0
 21
15.0
 31
0.0
  3
Drawing number
  2
DRAWING_NUMBER
 70
     8
  0
ATTDEF
  5
C30
  8
FRAME_050
 10
529.75
 20
22.5
 30
0.0
 40
5.0
  1
XXX
  7
ISO_PROPORTIONAL
 72
     4
 11
536.5
 21
25.0
 31
0.0
  3
Title / Name
  2
TITLE
 70
     8
  0
LINE
  5
C31
  8
FRAME_070
 10
489.0
 20
10.0
 30
0.0
 11
489.0
 21
30.0
 31
0.0
  0
ATTDEF
  5
C32
  8
FRAME_025
 10
511.0
 20
31.75
 30
0.0
 40
2.5
  1
XXX
  7
ISO_PROPORTIONAL
 11
511.0
 21
33.0
 31
0.0
  3
Filename
  2
FILENAME
 70
     8
 74
     2
  0
TEXT
  5
C33
  8
FRAME_025
 10
511.0
 20
35.75
 30
0.0
 40
2.5
  1
Filename
  7
ISO_PROPORTIONAL
 11
511.0
 21
37.0
 31
0.0
 73
     2
  0
LINE
  5
C34
  8
FRAME_070
 10
509.0
 20
30.0
 30
0.0
 11
509.0
 21
40.0
 31
0.0
  0
TEXT
  5
C35
  8
FRAME_025
 10
536.0
 20
41.749999999999993
 30
0.0
 40
2.5
  1
Article No./Reference
  7
ISO_PROPORTIONAL
 11
536.0
 21
43.0
 31
0.0
 73
     2
  0
LINE
  5
C36
  8
FRAME_070
 10
534.0
 20
40.0
 30
0.0
 11
534.0
 21
46.0
 31
0.0
  0
ATTDEF
  5
C37
  8
FRAME_025
 10
551.0
 20
11.75
 30
0.0
 40
2.5
  1
0
  7
ISO_PROPORTIONAL
 11
551.0
 21
13.0
 31
0.0
  3
Edition
  2
EDITION
 70
     8
 74
     2
  0
TEXT
  5
C38
  8
FRAME_025
 10
551.0
 20
15.75
 30
0.0
 40
2.5
  1
Edition
  7
ISO_PROPORTIONAL
 11
551.0
 21
17.0
 31
0.0
 73
     2
  0
LINE
  5
C39
  8
FRAME_070
 10
549.0
 20
10.0
 30
0.0
 11
549.0
 21
20.0
 31
0.0
  0
ATTDEF
  5
C3A
  8
FRAME_025
 10
536.0
 20
31.75
 30
0.0
 40
2.5
  1
00/00/00
  7
ISO_PROPORTIONAL
 11
536.0
 21
33.0
 31
0.0
  3
Date
  2
DATE
 70
     8
 74
     2
  0
TEXT
  5
C3B
  8
FRAME_025
 10
536.0
 20
35.75
 30
0.0
 40
2.5
  1
Date
  7
ISO_PROPORTIONAL
 11
536.0
 21
37.0
 31
0.0
 73
     2
  0
LINE
  5
C3C
  8
FRAME_070
 10
534.0
 20
30.0
 30
0.0
 11
534.0
 21
40.0
 31
0.0
  0
ATTDEF
  5
C3D
  8
FRAME_025
 10
566.0
 20
11.75
 30
0.0
 40
2.5
  1
1/1
  7
ISO_PROPORTIONAL
 11
566.0
 21
13.0
 31
0.0
  3
Sheet
  2
SHEET
 70
     8
 74
     2
  0
TEXT
  5
C3E
  8
FRAME_025
 10
566.0
 20
15.75
 30
0.0
 40
2.5
  1
Sheet
  7
ISO_PROPORTIONAL
 11
566.0
 21
17.0
 31
0.0
 73
     2
  0
LINE
  5
C3F
  8
FRAME_070
 10
564.0
 20
10.0
 30
0.0
 11
564.0
 21
20.0
 31
0.0
  0
ATTDEF
  5
C40
  8
FRAME_025
 10
566.0
 20
31.75
 30
0.0
 40
2.5
  1
1:1
  7
ISO_PROPORTIONAL
 11
566.0
 21
33.0
 31
0.0
  3
Scale
  2
SCALE
 70
     8
 74
     2
  0
TEXT
  5
C41
  8
FRAME_025
 10
566.0
 20
35.75
 30
0.0
 40
2.5
  1
Scale
  7
ISO_PROPORTIONAL
 11
566.0
 21
37.0
 31
0.0
 73
     2
  0
LINE
  5
C42
  8
FRAME_070
 10
564.0
 20
30.0
 30
0.0
 11
564.0
 21
40.0
 31
0.0
  0
LINE
  5
C43
  8
FRAME_200
 10
594.0
 20
0.0
 30
0.0
 11
594.0
 21
10.0
 31
0.0
  0
LINE
  5
C44
  8
FRAME_200
 10
594.0
 20
0.0
 30
0.0
 11
584.0
 21
0.0
 31
0.0
  0
TEXT
  5
C45
  8
FRAME_050
 10
584.89999999999998
 20
35.0
 30
0.0
 40
4.0
  1
H
  7
ISO_PROPORTIONAL
 72
     4
 11
586.5
 21
37.0
 31
0.0
  0
LINE
  5
C46
  8
FRAME_050
 10
589.0
 20
60.0
 30
0.0
 11
584.0
 21
60.0
 31
0.0
  0
TEXT
  5
C47
  8
FRAME_050
 10
585.0035533905932
 20
85.0
 30
0.0
 40
4.0
  1
G
  7
ISO_PROPORTIONAL
 72
     4
 11
586.5
 21
87.0
 31
0.0
  0
LINE
  5
C48
  8
FRAME_050
 10
589.0
 20
110.0
 30
0.0
 11
584.0
 21
110.0
 31
0.0
  0
TEXT
  5
C49
  8
FRAME_050
 10
585.09999999999991
 20
135.0
 30
0.0
 40
4.0
  1
F
  7
ISO_PROPORTIONAL
 72
     4
 11
586.5
 21
137.0
 31
0.0
  0
LINE
  5
C4A
  8
FRAME_050
 10
589.0
 20
160.0
 30
0.0
 11
584.0
 21
160.0
 31
0.0
  0
TEXT
  5
C4B
  8
FRAME_050
 10
585.09999999999991
 20
185.0
 30
0.0
 40
4.0
  1
E
  7
ISO_PROPORTIONAL
 72
     4
 11
586.5
 21
187.0
 31
0.0
  0
LINE
  5
C4C
  8
FRAME_070
 10
414.0
 20
404.0
 30
0.0
 11
584.0
 21
404.0
 31
0.0
  0
TEXT
  5
C4D
  8
FRAME_050
 10
331.39215728752538
 20
410.58284271247459
 30
0.0
 40
4.0
  1
5
  7
ISO_PROPORTIONAL
 72
     4
 11
332.875
 21
412.5
 31
0.0
  0
LINE
  5
C4E
  8
FRAME_050
 10
368.75
 20
410.0
 30
0.0
 11
368.75
 21
415.0
 31
0.0
  0
TEXT
  5
C4F
  8
FRAME_025
 10
428.0
 20
405.75
 30
0.0
 40
2.5
  1
Revision note
  7
ISO_PROPORTIONAL
 11
428.0
 21
407.0
 31
0.0
 73
     2
  0
TEXT
  5
C50
  8
FRAME_025
 10
416.0
 20
405.75
 30
0.0
 40
2.5
  1
RevNo
  7
ISO_PROPORTIONAL
 11
416.0
 21
407.0
 31
0.0
 73
     2
  0
LINE
  5
C51
  8
FRAME_070
 10
426.0
 20
404.0
 30
0.0
 11
426.0
 21
410.0
 31
0.0
  0
LINE
  5
C52
  8
FRAME_070
 10
414.0
 20
404.0
 30
0.0
 11
414.0
 21
410.0
 31
0.0
  0
TEXT
  5
C53
  8
FRAME_050
 10
403.24547244094481
 20
410.41023622047243
 30
0.0
 40
4.0
  1
6
  7
ISO_PROPORTIONAL
 72
     4
 11
404.62499999999989
 21
412.5
 31
0.0
  0
LINE
  5
C54
  8
FRAME_050
 10
440.5
 20
410.0
 30
0.0
 11
440.5
 21
415.0
 31
0.0
  0
TEXT
  5
C55
  8
FRAME_050
 10
474.97500000000002
 20
410.5
 30
0.0
 40
4.0
  1
7
  7
ISO_PROPORTIONAL
 72
     4
 11
476.37499999999989
 21
412.5
 31
0.0
  0
LINE
  5
C56
  8
FRAME_050
 10
579.0
 20
210.0
 30
0.0
 11
589.0
 21
210.0
 31
0.0
  0
TEXT
  5
C57
  8
FRAME_050
 10
584.78609127034736
 20
235.0
 30
0.0
 40
4.0
  1
D
  7
ISO_PROPORTIONAL
 72
     4
 11
586.5
 21
237.0
 31
0.0
  0
LINE
  5
C58
  8
FRAME_050
 10
589.0
 20
260.0
 30
0.0
 11
584.0
 21
260.0
 31
0.0
  0
TEXT
  5
C59
  8
FRAME_050
 10
585.19319805153395
 20
285.0
 30
0.0
 40
4.0
  1
C
  7
ISO_PROPORTIONAL
 72
     4
 11
586.5
 21
287.0
 31
0.0
  0
LINE
  5
C5A
  8
FRAME_050
 10
589.0
 20
310.0
 30
0.0
 11
584.0
 21
310.0
 31
0.0
  0
TEXT
  5
C5B
  8
FRAME_050
 10
584.89999999999998
 20
335.0
 30
0.0
 40
4.0
  1
B
  7
ISO_PROPORTIONAL
 72
     4
 11
586.5
 21
337.0
 31
0.0
  0
TEXT
  5
C5C
  8
FRAME_025
 10
571.08299391850551
 20
405.75
 30
0.0
 40
2.5
  1
Checked
  7
ISO_PROPORTIONAL
 11
571.08299391850551
 21
407.0
 31
0.0
 73
     2
  0
TEXT
  5
C5D
  8
FRAME_025
 10
555.36099797283532
 20
405.75
 30
0.0
 40
2.5
  1
Signature
  7
ISO_PROPORTIONAL
 11
555.36099797283532
 21
407.0
 31
0.0
 73
     2
  0
TEXT
  5
C5E
  8
FRAME_025
 10
537.0
 20
405.75
 30
0.0
 40
2.5
  1
Date
  7
ISO_PROPORTIONAL
 11
537.0
 21
407.0
 31
0.0
 73
     2
  0
LINE
  5
C5F
  8
FRAME_070
 10
570.0
 20
404.0
 30
0.0
 11
570.0
 21
410.0
 31
0.0
  0
LINE
  5
C60
  8
FRAME_070
 10
555.0
 20
404.0
 30
0.0
 11
555.0
 21
410.0
 31
0.0
  0
LINE
  5
C61
  8
FRAME_070
 10
535.0
 20
404.0
 30
0.0
 11
535.0
 21
410.0
 31
0.0
  0
LINE
  5
C62
  8
FRAME_050
 10
512.25
 20
410.0
 30
0.0
 11
512.25
 21
415.0
 31
0.0
  0
TEXT
  5
C63
  8
FRAME_050
 10
546.72499999999991
 20
410.5
 30
0.0
 40
4.0
  1
8
  7
ISO_PROPORTIONAL
 72
     4
 11
548.125
 21
412.5
 31
0.0
  0
LINE
  5
C64
  8
FRAME_050
 10
589.0
 20
360.0
 30
0.0
 11
584.0
 21
360.0
 31
0.0
  0
TEXT
  5
C65
  8
FRAME_050
 10
584.70000000000005
 20
385.0
 30
0.0
 40
4.0
  1
A
  7
ISO_PROPORTIONAL
 72
     4
 11
586.5
 21
387.0
 31
0.0
  0
LINE
  5
C66
  8
FRAME_200
 10
594.0
 20
420.0
 30
0.0
 11
584.0
 21
420.0
 31
0.0
  0
LINE
  5
C67
  8
FRAME_200
 10
594.0
 20
410.0
 30
0.0
 11
594.0
 21
420.0
 31
0.0
  0
ENDBLK
  5
C69
  8
0
  0
BLOCK
  8
0
  2
WOBB001END
 70
     0
 10
0.0
 20
0.0
 30
0.0
  3
WOBB001END
  1

  0
LINE
  5
4D66
  8
0
  6
CONTINUOUS
 10
0.0
 20
0.0
 30
0.0
 11
0.8749999999999998
 21
0.0
 31
0.0
  0
ARC
  5
4D67
  8
0
  6
CONTINUOUS
 10
0.0331648379439287
 20
-0.5087238935900232
 30
0.0
 40
0.8790130605592325
 50
284.06490243660443
 51
312.19222981924361
  0
ARC
  5
4D68
  8
0
  6
CONTINUOUS
 10
0.2841534338796767
 20
-1.510548310625538
 30
0.0
 40
0.1537731892806598
 50
104.0649024366044
 51
179.4721730735024
  0
LINE
  5
4D69
  8
0
  6
CONTINUOUS
 10
0.0
 20
0.0
 30
0.0
 11
-0.0000000000000003
 21
-1.7501564476661919
 31
0.0
  0
ARC
  5
4D6A
  8
0
  6
CONTINUOUS
 10
0.1404622019506122
 20
-1.6303137183546199
 30
0.0
 40
0.1198427293115722
 50
275.0
 51
85.000000000000057
  0
LINE
  5
4D6B
  8
0
  6
CONTINUOUS
 10
-0.0000000000000003
 20
-1.7501564476661919
 30
0.0
 11
0.1456946485130855
 21
-1.7501564476661919
 31
0.0
  0
LINE
  5
4D6C
  8
0
  6
CONTINUOUS
 10
0.1377603739254348
 20
-1.7508506067459131
 30
0.0
 11
0.150907184036669
 21
-1.749700409899652
 31
0.0
  0
LINE
  5
4D6D
  8
0
  6
CONTINUOUS
 10
0.1303867696719884
 20
-1.5091317231818231
 30
0.0
 11
0.1509071840366689
 21
-1.5109270268095869
 31
0.0
  0
LINE
  5
4D6E
  8
0
  6
CONTINUOUS
 10
0.8749999999999998
 20
0.0
 30
0.0
 11
0.8749999999999996
 21
-0.8649327026588228
 31
0.0
  0
LINE
  5
4D6F
  8
0
  6
CONTINUOUS
 10
0.727014513830997
 20
-0.8726882933550612
 30
0.0
 11
0.727014513830997
 21
-0.9264923397184784
 31
0.0
  0
ARC
  5
4D70
  8
0
  6
CONTINUOUS
 10
0.41187090827646
 20
-0.9264923397184784
 30
0.0
 40
0.315143605554537
 50
312.19222981924361
 51
0.0
  0
LINE
  5
4D71
  8
0
  6
CONTINUOUS
 10
0.727014513830997
 20
-0.8726882933550612
 30
0.0
 11
0.8749999999999996
 21
-0.8649327026588228
 31
0.0
  0
ENDBLK
  5
4D72
  8
0
  0
BLOCK
  8
0
  2
A$C0A61123B
 70
     0
 10
0.0
 20
0.0
 30
0.0
  3
A$C0A61123B
  1

  0
LINE
  5
C0AD
  8
PROF
  6
CONTINUOUS
 10
4.9012016798694162
 20
13.325025853350891
 30
0.0000000000000002
 11
4.9012016798694162
 21
12.88585218805485
 31
0.0000000000000003
  0
INSERT
  5
C0AE
  8
0
  2
*U5
 10
0.0
 20
0.0
 30
0.0
  0
LINE
  5
C0AF
  8
PROF
 10
4.5198575031869259
 20
12.72227734589444
 30
0.0000000000000001
 11
4.5198575031869259
 21
12.88585218805485
 31
0.0000000000000001
  0
LINE
  5
C0B0
  8
PROF
  6
CONTINUOUS
 10
3.6306271195888371
 20
13.325025853350891
 30
0.0000000000000002
 11
4.9012016798694162
 21
13.325025853350891
 31
0.0000000000000002
  0
LINE
  5
C0B1
  8
PROF
 10
1.9750295148747341
 20
10.37671325491794
 30
0.0000000000000002
 11
1.9750295148747341
 21
10.11391186758919
 31
0.0000000000000002
  0
LINE
  5
C0B2
  8
PROF
 10
1.607967335755631
 20
10.11391186758919
 30
0.0000000000000001
 11
1.9750295148747341
 21
10.11391186758919
 31
0.0000000000000001
  0
LINE
  5
C0B3
  8
PROF
 10
1.9750295148747341
 20
10.11391186758919
 30
0.0000000000000001
 11
1.944958486898144
 21
10.11391186758919
 31
0.0000000000000001
  0
LINE
  5
C0B4
  8
PROF
 10
1.9750295148747341
 20
10.11391186758919
 30
0.0000000000000001
 11
1.944958486898144
 21
10.11391186758919
 31
0.0000000000000001
  0
LINE
  5
C0B5
  8
PROF
 10
0.3222605517169654
 20
7.5247473351056442
 30
-0.0000000000000002
 11
-0.0000008570117416
 21
7.5247473351056442
 31
0.0
  0
LINE
  5
C0B6
  8
PROF
 10
-0.0000008570117416
 20
7.5247473351056442
 30
0.0
 11
-0.0000008570117416
 21
9.1943336957369866
 31
0.0
  0
POLYLINE
  5
C0B7
  8
PROF
 66
     1
 10
0.0
 20
0.0
 30
0.0000000000000001
 70
     4
 75
     6
  0
VERTEX
  5
C0B8
  8
PROF
 10
1.607967335755631
 20
10.11391186758919
 30
0.0000000000000001
 70
    16
  0
VERTEX
  5
C0B9
  8
PROF
 10
1.607967335755631
 20
10.11391186758919
 30
0.0000000000000001
 70
     8
  0
VERTEX
  5
C0BA
  8
PROF
 10
1.646813232648582
 20
10.02198069336111
 30
0.0000000000000001
 70
     8
  0
VERTEX
  5
C0BB
  8
PROF
 10
1.67335966680929
 20
9.9344134163010267
 30
0.0000000000000001
 70
     8
  0
VERTEX
  5
C0BC
  8
PROF
 10
1.689008640046324
 20
9.8512576644480987
 30
0.0000000000000001
 70
     8
  0
VERTEX
  5
C0BD
  8
PROF
 10
1.695162154168258
 20
9.7725610658417281
 30
0.0000000000000001
 70
     8
  0
VERTEX
  5
C0BE
  8
PROF
 10
1.6932222109836059
 20
9.6983712485214255
 30
0.0000000000000001
 70
     8
  0
VERTEX
  5
C0BF
  8
PROF
 10
1.6845908123009961
 20
9.6287358405263603
 30
0.0000000000000001
 70
     8
  0
VERTEX
  5
C0C0
  8
PROF
 10
1.6706699599288859
 20
9.5637024698960431
 30
0.0000000000000001
 70
     8
  0
VERTEX
  5
C0C1
  8
PROF
 10
1.6528616556759621
 20
9.503318764669757
 30
0.0000000000000001
 70
     8
  0
VERTEX
  5
C0C2
  8
PROF
 10
1.6323562992730549
 20
9.4475843259650674
 30
0.0000000000000001
 70
     8
  0
VERTEX
  5
C0C3
  8
PROF
 10
1.609497882140658
 20
9.3963066472123273
 30
0.0000000000000001
 70
     8
  0
VERTEX
  5
C0C4
  8
PROF
 10
1.584418793621637
 20
9.3492451949202842
 30
0.0000000000000001
 70
     8
  0
VERTEX
  5
C0C5
  8
PROF
 10
1.557251423058744
 20
9.3061594355972375
 30
0.0000000000000001
 70
     8
  0
VERTEX
  5
C0C6
  8
PROF
 10
1.5281281597949601
 20
9.2668088357519292
 30
0.0000000000000001
 70
     8
  0
VERTEX
  5
C0C7
  8
PROF
 10
1.4971813931729789
 20
9.2309528618930017
 30
0.0000000000000001
 70
     8
  0
VERTEX
  5
C0C8
  8
PROF
 10
1.464543512535726
 20
9.1983509805288577
 30
0.0000000000000001
 70
     8
  0
VERTEX
  5
C0C9
  8
PROF
 10
1.4303469072260091
 20
9.1687626581682462
 30
0.0000000000000001
 70
     8
  0
VERTEX
  5
C0CA
  8
PROF
 10
1.3947360332574019
 20
9.1419547918675335
 30
0.0000000000000001
 70
     8
  0
VERTEX
  5
C0CB
  8
PROF
 10
1.3579036133264131
 20
9.1177240008747731
 30
0.0000000000000001
 70
     8
  0
VERTEX
  5
C0CC
  8
PROF
 10
1.3200544368004321
 20
9.0958743349860924
 30
0.0000000000000001
 70
     8
  0
VERTEX
  5
C0CD
  8
PROF
 10
1.281393293046676
 20
9.0762098439975034
 30
0.0000000000000001
 70
     8
  0
VERTEX
  5
C0CE
  8
PROF
 10
1.242124971432417
 20
9.0585345777049042
 30
0.0000000000000001
 70
     8
  0
VERTEX
  5
C0CF
  8
PROF
 10
1.2024542613249869
 20
9.0426525859044204
 30
0.0000000000000001
 70
     8
  0
VERTEX
  5
C0D0
  8
PROF
 10
1.1625859520916599
 20
9.0283679183919503
 30
0.0000000000000001
 70
     8
  0
VERTEX
  5
C0D1
  8
PROF
 10
1.1227248330997091
 20
9.0154846249635057
 30
0.0000000000000001
 70
     8
  0
VERTEX
  5
C0D2
  8
PROF
 10
1.0829726247361
 20
9.0034643862466055
 30
0.0000000000000001
 70
     8
  0
VERTEX
  5
C0D3
  8
PROF
 10
1.043018771466222
 20
8.9903994061946833
 30
0.0000000000000001
 70
     8
  0
VERTEX
  5
C0D4
  8
PROF
 10
1.002449648775211
 20
8.9740395195925657
 30
0.0000000000000001
 70
     8
  0
VERTEX
  5
C0D5
  8
PROF
 10
0.9608516321480919
 20
8.9521345612251935
 30
0.0000000000000001
 70
     8
  0
VERTEX
  5
C0D6
  8
PROF
 10
0.9178110970699435
 20
8.9224343658775052
 30
0.0000000000000001
 70
     8
  0
VERTEX
  5
C0D7
  8
PROF
 10
0.8729144190259034
 20
8.8826887683343312
 30
0.0000000000000001
 70
     8
  0
VERTEX
  5
C0D8
  8
PROF
 10
0.8257479735009951
 20
8.8306476033806121
 30
0.0000000000000001
 70
     8
  0
VERTEX
  5
C0D9
  8
PROF
 10
0.7758981359802988
 20
8.764060705801171
 30
0.0000000000000001
 70
     8
  0
VERTEX
  5
C0DA
  8
PROF
 10
1.729201901609656
 20
9.8629858761255491
 30
0.0000000000000001
 70
    16
  0
VERTEX
  5
C0DB
  8
PROF
 10
1.6793731231140889
 20
9.4532143012734196
 30
0.0000000000000001
 70
    16
  0
VERTEX
  5
C0DC
  8
PROF
 10
1.4455611507419801
 20
9.1391837193732481
 30
0.0000000000000001
 70
    16
  0
VERTEX
  5
C0DD
  8
PROF
 10
1.120463717273821
 20
9.0026267702428413
 30
0.0000000000000001
 70
    16
  0
VERTEX
  5
C0DE
  8
PROF
 10
0.9127765582653638
 20
8.9630202230383702
 30
0.0000000000000001
 70
    16
  0
VERTEX
  5
C0DF
  8
PROF
 10
0.7758981359802988
 20
8.764060705801171
 30
0.0000000000000001
 70
    16
  0
SEQEND
  5
C0E0
  8
PROF
  0
ARC
  5
C0E1
  8
PROF
 10
0.733429816733235
 20
8.4849506952165257
 30
0.0000000000000001
 40
0.2823224329524727
 50
269.73652020831901
 51
81.348449993176914
  0
LINE
  5
C0E2
  8
PROF
  6
CONTINUOUS
 10
-0.0000008570117416
 20
9.1943336957369866
 30
-0.0000000000000001
 11
3.6306271195888371
 21
13.325025853350891
 31
0.0000000000000002
  0
POLYLINE
  5
C0E3
  8
PROF
 66
     1
 10
0.0
 20
0.0
 30
0.0000000000000001
 70
     4
 75
     6
  0
VERTEX
  5
C0E4
  8
PROF
 10
4.5198575031869259
 20
12.72227734589444
 30
0.0000000000000001
 70
    16
  0
VERTEX
  5
C0E5
  8
PROF
 10
4.5198575031869259
 20
12.72227734589444
 30
0.0000000000000001
 70
     8
  0
VERTEX
  5
C0E6
  8
PROF
 10
4.4467035366886298
 20
12.741128108778071
 30
0.0000000000000001
 70
     8
  0
VERTEX
  5
C0E7
  8
PROF
 10
4.3786645761268801
 20
12.754675269913941
 30
0.0000000000000001
 70
     8
  0
VERTEX
  5
C0E8
  8
PROF
 10
4.3154364111440477
 20
12.76334314092332
 30
0.0000000000000001
 70
     8
  0
VERTEX
  5
C0E9
  8
PROF
 10
4.256714831382566
 20
12.76755603342724
 30
0.0000000000000001
 70
     8
  0
VERTEX
  5
C0EA
  8
PROF
 10
4.2021956264849791
 20
12.76773825904672
 30
0.0000000000000001
 70
     8
  0
VERTEX
  5
C0EB
  8
PROF
 10
4.1515745860935453
 20
12.764314129403139
 30
0.0000000000000001
 70
     8
  0
VERTEX
  5
C0EC
  8
PROF
 10
4.1045474998508658
 20
12.75770795611743
 30
0.0000000000000001
 70
     8
  0
VERTEX
  5
C0ED
  8
PROF
 10
4.0608101573993158
 20
12.748344050810831
 30
0.0000000000000001
 70
     8
  0
VERTEX
  5
C0EE
  8
PROF
 10
4.0200583483813261
 20
12.736646725104491
 30
0.0000000000000001
 70
     8
  0
VERTEX
  5
C0EF
  8
PROF
 10
3.9819878624393819
 20
12.72304029061945
 30
0.0000000000000001
 70
     8
  0
VERTEX
  5
C0F0
  8
PROF
 10
3.946294489215858
 20
12.707949058976959
 30
0.0000000000000001
 70
     8
  0
VERTEX
  5
C0F1
  8
PROF
 10
3.9126740183532429
 20
12.691797341798059
 30
0.0000000000000001
 70
     8
  0
VERTEX
  5
C0F2
  8
PROF
 10
3.8808638350742508
 20
12.67494295718654
 30
0.0000000000000001
 70
     8
  0
VERTEX
  5
C0F3
  8
PROF
 10
3.850767706922738
 20
12.65747774917668
 30
0.0000000000000001
 70
     8
  0
VERTEX
  5
C0F4
  8
PROF
 10
3.8223309970228452
 20
12.639427068285499
 30
0.0000000000000001
 70
     8
  0
VERTEX
  5
C0F5
  8
PROF
 10
3.7954990684987129
 20
12.62081626503004
 30
0.0000000000000001
 70
     8
  0
VERTEX
  5
C0F6
  8
PROF
 10
3.7702172844744828
 20
12.601670689926999
 30
0.0000000000000001
 70
     8
  0
VERTEX
  5
C0F7
  8
PROF
 10
3.746431008074353
 20
12.58201569349364
 30
0.0000000000000001
 70
     8
  0
VERTEX
  5
C0F8
  8
PROF
 10
3.7240856024224618
 20
12.56187662624666
 30
0.0000000000000001
 70
     8
  0
VERTEX
  5
C0F9
  8
PROF
 10
3.7031264306428961
 20
12.541278838703191
 30
0.0000000000000001
 70
     8
  0
VERTEX
  5
C0FA
  8
PROF
 10
3.6834988558599089
 20
12.520247681380051
 30
0.0000000000000001
 70
     8
  0
VERTEX
  5
C0FB
  8
PROF
 10
3.665148241197528
 20
12.49880850479428
 30
0.0000000000000001
 70
     8
  0
VERTEX
  5
C0FC
  8
PROF
 10
3.6480199497799499
 20
12.47698665946279
 30
0.0000000000000001
 70
     8
  0
VERTEX
  5
C0FD
  8
PROF
 10
3.6320593447313172
 20
12.45480749590263
 30
0.0000000000000001
 70
     8
  0
VERTEX
  5
C0FE
  8
PROF
 10
3.6171895848866589
 20
12.43223790353807
 30
0.0000000000000001
 70
     8
  0
VERTEX
  5
C0FF
  8
PROF
 10
3.6032450119242858
 20
12.40901092742285
 30
0.0000000000000001
 70
     8
  0
VERTEX
  5
C100
  8
PROF
 10
3.590037763233453
 20
12.38480115151844
 30
0.0000000000000001
 70
     8
  0
VERTEX
  5
C101
  8
PROF
 10
3.5773799762033032
 20
12.35928315978594
 30
0.0000000000000001
 70
     8
  0
VERTEX
  5
C102
  8
PROF
 10
3.5650837882230908
 20
12.33213153618658
 30
0.0000000000000001
 70
     8
  0
VERTEX
  5
C103
  8
PROF
 10
3.5529613366819599
 20
12.303020864681571
 30
0.0000000000000001
 70
     8
  0
VERTEX
  5
C104
  8
PROF
 10
3.540824758969165
 20
12.271625729232371
 30
0.0000000000000001
 70
     8
  0
VERTEX
  5
C105
  8
PROF
 10
3.5284861924738489
 20
12.23762071379997
 30
0.0000000000000001
 70
     8
  0
VERTEX
  5
C106
  8
PROF
 10
3.5157577745852668
 20
12.200680402345711
 30
0.0000000000000001
 70
     8
  0
VERTEX
  5
C107
  8
PROF
 10
3.5024516426926189
 20
12.16047937883093
 30
0.0000000000000001
 70
     8
  0
VERTEX
  5
C108
  8
PROF
 10
3.4883799341851041
 20
12.116692227216619
 30
0.0000000000000001
 70
     8
  0
VERTEX
  5
C109
  8
PROF
 10
3.4733547864519201
 20
12.06899353146423
 30
0.0000000000000001
 70
     8
  0
VERTEX
  5
C10A
  8
PROF
 10
3.45723654619428
 20
12.0172095445447
 30
0.0000000000000001
 70
     8
  0
VERTEX
  5
C10B
  8
PROF
 10
3.4400783973613889
 20
11.961773195467799
 30
0.0000000000000001
 70
     8
  0
VERTEX
  5
C10C
  8
PROF
 10
3.421981733214579
 20
11.90326908225302
 30
0.0000000000000001
 70
     8
  0
VERTEX
  5
C10D
  8
PROF
 10
3.4030479470150108
 20
11.842281802919951
 30
0.0000000000000001
 70
     8
  0
VERTEX
  5
C10E
  8
PROF
 10
3.383378432024017
 20
11.779395955487979
 30
0.0000000000000001
 70
     8
  0
VERTEX
  5
C10F
  8
PROF
 10
3.3630745815028709
 20
11.715196137976809
 30
0.0000000000000001
 70
     8
  0
VERTEX
  5
C110
  8
PROF
 10
3.3422377887127359
 20
11.650266948405831
 30
0.0000000000000001
 70
     8
  0
VERTEX
  5
C111
  8
PROF
 10
3.320969446915
 20
11.58519298479461
 30
0.0000000000000001
 70
     8
  0
VERTEX
  5
C112
  8
PROF
 10
3.2993709493707679
 20
11.520558845162549
 30
0.0000000000000001
 70
     8
  0
VERTEX
  5
C113
  8
PROF
 10
3.277543689341428
 20
11.456949127529469
 30
0.0000000000000001
 70
     8
  0
VERTEX
  5
C114
  8
PROF
 10
3.2555890600881412
 20
11.3949484299145
 30
0.0000000000000001
 70
     8
  0
VERTEX
  5
C115
  8
PROF
 10
3.233608454872182
 20
11.335141350337491
 30
0.0000000000000001
 70
     8
  0
VERTEX
  5
C116
  8
PROF
 10
3.2116715641212181
 20
11.27799544797778
 30
0.0000000000000001
 70
     8
  0
VERTEX
  5
C117
  8
PROF
 10
3.189721266927847
 20
11.22351012665467
 30
0.0000000000000001
 70
     8
  0
VERTEX
  5
C118
  8
PROF
 10
3.1676687395512881
 20
11.17156775134765
 30
0.0000000000000001
 70
     8
  0
VERTEX
  5
C119
  8
PROF
 10
3.1454251582505321
 20
11.12205068703588
 30
0.0000000000000001
 70
     8
  0
VERTEX
  5
C11A
  8
PROF
 10
3.122901699284625
 20
11.07484129869874
 30
0.0000000000000001
 70
     8
  0
VERTEX
  5
C11B
  8
PROF
 10
3.1000095389127291
 20
11.02982195131551
 30
0.0000000000000001
 70
     8
  0
VERTEX
  5
C11C
  8
PROF
 10
3.0766598533938909
 20
10.986875009865679
 30
0.0000000000000001
 70
     8
  0
VERTEX
  5
C11D
  8
PROF
 10
3.0527638189871591
 20
10.9458828393283
 30
0.0000000000000001
 70
     8
  0
VERTEX
  5
C11E
  8
PROF
 10
3.0282326119516361
 20
10.90672780468298
 30
0.0000000000000001
 70
     8
  0
VERTEX
  5
C11F
  8
PROF
 10
3.002977408546371
 20
10.869292270908771
 30
0.0000000000000001
 70
     8
  0
VERTEX
  5
C120
  8
PROF
 10
2.9769093850304098
 20
10.833458602985161
 30
0.0000000000000001
 70
     8
  0
VERTEX
  5
C121
  8
PROF
 10
2.9499397176628568
 20
10.799109165891419
 30
0.0000000000000001
 70
     8
  0
VERTEX
  5
C122
  8
PROF
 10
2.9220006098404379
 20
10.76614363969508
 30
0.0000000000000001
 70
     8
  0
VERTEX
  5
C123
  8
PROF
 10
2.8931083735103011
 20
10.7345309648158
 30
0.0000000000000001
 70
     8
  0
VERTEX
  5
C124
  8
PROF
 10
2.8633003477572738
 20
10.70425739676193
 30
0.0000000000000001
 70
     8
  0
VERTEX
  5
C125
  8
PROF
 10
2.8326138716660689
 20
10.67530919104115
 30
0.0000000000000001
 70
     8
  0
VERTEX
  5
C126
  8
PROF
 10
2.8010862843216269
 20
10.647672603161711
 30
0.0000000000000001
 70
     8
  0
VERTEX
  5
C127
  8
PROF
 10
2.7687549248087171
 20
10.62133388863162
 30
0.0000000000000001
 70
     8
  0
VERTEX
  5
C128
  8
PROF
 10
2.735657132212054
 20
10.5962793029588
 30
0.0000000000000001
 70
     8
  0
VERTEX
  5
C129
  8
PROF
 10
2.7018302456165202
 20
10.572495101651381
 30
0.0000000000000001
 70
     8
  0
VERTEX
  5
C12A
  8
PROF
 10
2.6673116041068852
 20
10.54996754021726
 30
0.0000000000000001
 70
     8
  0
VERTEX
  5
C12B
  8
PROF
 10
2.6321385467680321
 20
10.528682874164581
 30
0.0000000000000001
 70
     8
  0
VERTEX
  5
C12C
  8
PROF
 10
2.5963484126846188
 20
10.508627359001251
 30
0.0000000000000001
 70
     8
  0
VERTEX
  5
C12D
  8
PROF
 10
2.5599785409415849
 20
10.489787250235279
 30
0.0000000000000001
 70
     8
  0
VERTEX
  5
C12E
  8
PROF
 10
2.522998630314361
 20
10.472162234281081
 30
0.0000000000000001
 70
     8
  0
VERTEX
  5
C12F
  8
PROF
 10
2.4851078183409072
 20
10.455805721177621
 30
0.0000000000000001
 70
     8
  0
VERTEX
  5
C130
  8
PROF
 10
2.4459376022498982
 20
10.44078455187036
 30
0.0000000000000001
 70
     8
  0
VERTEX
  5
C131
  8
PROF
 10
2.4051194792701258
 20
10.42716556730465
 30
0.0000000000000001
 70
     8
  0
VERTEX
  5
C132
  8
PROF
 10
2.3622849466301541
 20
10.415015608425851
 30
0.0000000000000001
 70
     8
  0
VERTEX
  5
C133
  8
PROF
 10
2.3170655015587149
 20
10.40440151617929
 30
0.0000000000000001
 70
     8
  0
VERTEX
  5
C134
  8
PROF
 10
2.2690926412844301
 20
10.395390131510339
 30
0.0000000000000001
 70
     8
  0
VERTEX
  5
C135
  8
PROF
 10
2.2179978630360888
 20
10.388048295364451
 30
0.0000000000000001
 70
     8
  0
VERTEX
  5
C136
  8
PROF
 10
2.1634126640422551
 20
10.38244284868688
 30
0.0000000000000001
 70
     8
  0
VERTEX
  5
C137
  8
PROF
 10
2.104968541531604
 20
10.37864063242295
 30
0.0000000000000001
 70
     8
  0
VERTEX
  5
C138
  8
PROF
 10
2.0422969927328718
 20
10.37670848751816
 30
0.0000000000000001
 70
     8
  0
VERTEX
  5
C139
  8
PROF
 10
1.9750295148747341
 20
10.37671325491794
 30
0.0000000000000001
 70
     8
  0
VERTEX
  5
C13A
  8
PROF
 10
4.2166060115107484
 20
12.80885334975255
 30
0.0000000000000001
 70
    16
  0
VERTEX
  5
C13B
  8
PROF
 10
3.8702254102732918
 20
12.707065515763929
 30
0.0000000000000001
 70
    16
  0
VERTEX
  5
C13C
  8
PROF
 10
3.605346156896871
 20
12.46277472098552
 30
0.0000000000000001
 70
    16
  0
VERTEX
  5
C13D
  8
PROF
 10
3.500746030527238
 20
12.170680575709749
 30
0.0000000000000001
 70
    16
  0
VERTEX
  5
C13E
  8
PROF
 10
3.231798439705698
 20
11.26846416496107
 30
0.0000000000000001
 70
    16
  0
VERTEX
  5
C13F
  8
PROF
 10
2.9737109398832891
 20
10.76631086647069
 30
0.0000000000000001
 70
    16
  0
VERTEX
  5
C140
  8
PROF
 10
2.5729961067384011
 20
10.460947364504699
 30
0.0000000000000001
 70
    16
  0
VERTEX
  5
C141
  8
PROF
 10
2.253782621454604
 20
10.372731239449759
 30
0.0000000000000001
 70
    16
  0
VERTEX
  5
C142
  8
PROF
 10
1.9750295148747341
 20
10.37671325491794
 30
0.0000000000000001
 70
    16
  0
SEQEND
  5
C143
  8
PROF
  0
LINE
  5
C144
  8
PROF
 10
4.9012016798694162
 20
12.88585218805485
 30
0.0000000000000003
 11
4.5198575031869259
 21
12.88585218805485
 31
0.0000000000000003
  0
LINE
  5
C145
  8
PROF
 10
0.7321315362267457
 20
8.2026312473991538
 30
0.0000000000000006
 11
0.7321315362267457
 21
8.0511853963434987
 31
0.0000000000000006
  0
ARC
  5
C146
  8
PROF
 10
0.7977322214551919
 20
7.5773339332026799
 30
0.0000000000000006
 40
0.4783708383912012
 50
97.882010168942529
 51
186.31119505698649
  0
LINE
  5
C147
  8
FRAME_050
 10
7.8016377197432121
 20
17.99371054969447
 30
0.0
 11
7.8016377197432121
 21
0.0000000000002274
 31
0.0
  0
ENDBLK
  5
C149
  8
0
  0
BLOCK
  8
0
  2
*U5
 70
     1
 10
0.0
 20
0.0
 30
0.0
  3
*U5
  1

  0
TEXT
  5
D0D4
  8
0
 10
3.5177832928899071
 20
10.38601584255777
 30
0.0
 40
0.125
  1
Crown Moulding
  0
TEXT
  5
D0D5
  8
0
 10
3.5223876585106431
 20
10.17717091304435
 30
0.0
 40
0.125
  1
TL-AB509
  0
TEXT
  5
D0D6
  8
0
 10
3.5074661032582561
 20
9.9667059289606801
 30
0.0
 40
0.125
  1
1-5/16" x 7-9/16"
  0
TEXT
  5
D0D7
  8
0
 10
3.519403347460166
 20
9.7562409448770051
 30
0.0
 40
0.125
  1
800.66.TAGUE
  0
ENDBLK
  5
D0D9
  8
0
  0
BLOCK
  8
0
  2
*U6
 70
     1
 10
0.0
 20
0.0
 30
0.0
  3
*U6
  1

  0
TEXT
  5
D0DB
  8
0
 10
-387.28211017866209
 20
838.78797438765059
 30
0.0
 40
0.125
  1
Bar Rail
  0
TEXT
  5
D0DC
  8
0
 10
-387.27341304360078
 20
838.57912945813734
 30
0.0
 40
0.125
  1
TL-537
  0
TEXT
  5
D0DD
  8
0
 10
-387.28833459885323
 20
838.3686644740535
 30
0.0
 40
0.125
  1
1-5/16" x 5-3/16" / 7/8" x 3-1/16"
  0
TEXT
  5
D0DE
  8
0
 10
-387.27639735465118
 20
838.15819948996989
 30
0.0
 40
0.125
  1
800.66.TAGUE
  0
ENDBLK
  5
D0E0
  8
0
  0
ENDSEC
  0
SECTION
  2
ENTITIES
  0
INSERT
  5
D08C
  8
0
  2
*U6
 10
0.0
 20
0.0
 30
0.0
  0
LINE
  5
D08D
  8
0
 10
-383.72101920574022
 20
836.95350068165851
 30
0.0
 11
-383.07068897048259
 21
836.95350068165874
 31
0.0
  0
LINE
  5
D08E
  8
0
 10
-383.72101920574022
 20
839.70748975908771
 30
0.0
 11
-383.72101920574022
 21
836.95350068165851
 31
0.0
  0
LINE
  5
D08F
  8
0
 10
-383.1142963533872
 20
839.70678069563303
 30
0.0
 11
-383.1142963533872
 21
839.99449780218845
 31
0.0
  0
LINE
  5
D090
  8
0
 10
-383.35442391366718
 20
839.99449780218845
 30
0.0
 11
-383.35442391366718
 21
839.70748975908771
 31
0.0
  0
LINE
  5
D091
  8
0
 10
-383.1142963533872
 20
839.70678069563303
 30
0.0
 11
-382.90778661664922
 21
839.70678069563326
 31
0.0
  0
LINE
  5
D092
  8
0
 10
-383.72101920574022
 20
839.70748975908771
 30
0.0
 11
-383.35442391366718
 21
839.70748975908771
 31
0.0
  0
LINE
  5
D093
  8
0
 10
-383.35442391366718
 20
839.99449780218845
 30
0.0
 11
-383.1142963533872
 21
839.99449780218845
 31
0.0
  0
LINE
  5
D094
  8
0
 10
-386.90778655380279
 20
839.70748975908771
 30
0.0
 11
-383.72101920574022
 21
839.70748975908771
 31
0.0
  0
LINE
  5
D095
  8
0
 10
-387.89196591328948
 20
840.07193190905969
 30
0.0
 11
-386.90778655380279
 21
840.12365243114016
 31
0.0
  0
ARC
  5
D096
  8
0
  6
CONTINUOUS
 10
-390.20157365607241
 20
838.75687043740936
 30
0.0
 40
7.3553829862989542
 50
345.80771374764259
 51
7.4201826196509408
  0
LINE
  5
D097
  8
0
  6
CONTINUOUS
 10
-386.90778655380279
 20
839.70748975908771
 30
0.0
 11
-386.90778655380279
 21
840.12365243114016
 31
0.0
  0
ARC
  5
D098
  8
0
  6
CONTINUOUS
 10
-387.87081866183718
 20
840.21019475570995
 30
0.0
 40
0.1398707296318911
 50
189.33772468450189
 51
261.3040237553077
  0
POLYLINE
  8
0
  5
D0E1
  66
     1
 10
0.000000
 20
0.000000
 30
0.000000
  70
     8
  0
VERTEX
  8
0
  5
D0E2
 10
-388.009
 20
840.188
 30
0.000000
  70
    32
  0
VERTEX
  8
0
  5
D0E3
 10
-388.011
 20
840.199
 30
0.000000
  70
    32
  0
VERTEX
  8
0
  5
D0E4
 10
-388.014
 20
840.211
 30
0.000000
  70
    32
  0
VERTEX
  8
0
  5
D0E5
 10
-388.016
 20
840.223
 30
0.000000
  70
    32
  0
VERTEX
  8
0
  5
D0E6
 10
-388.018
 20
840.235
 30
0.000000
  70
    32
  0
VERTEX
  8
0
  5
D0E7
 10
-388.019
 20
840.246
 30
0.000000
  70
    32
  0
VERTEX
  8
0
  5
D0E8
 10
-388.021
 20
840.258
 30
0.000000
  70
    32
  0
VERTEX
  8
0
  5
D0E9
 10
-388.022
 20
840.270
 30
0.000000
  70
    32
  0
VERTEX
  8
0
  5
D0EA
 10
-388.023
 20
840.282
 30
0.000000
  70
    32
  0
VERTEX
  8
0
  5
D0EB
 10
-388.024
 20
840.293
 30
0.000000
  70
    32
  0
VERTEX
  8
0
  5
D0EC
 10
-388.025
 20
840.305
 30
0.000000
  70
    32
  0
VERTEX
  8
0
  5
D0ED
 10
-388.026
 20
840.316
 30
0.000000
  70
    32
  0
VERTEX
  8
0
  5
D0EE
 10
-388.026
 20
840.328
 30
0.000000
  70
    32
  0
VERTEX
  8
0
  5
D0EF
 10
-388.026
 20
840.340
 30
0.000000
  70
    32
  0
VERTEX
  8
0
  5
D0F0
 10
-388.026
 20
840.351
 30
0.000000
  70
    32
  0
VERTEX
  8
0
  5
D0F1
 10
-388.026
 20
840.363
 30
0.000000
  70
    32
  0
VERTEX
  8
0
  5
D0F2
 10
-388.026
 20
840.374
 30
0.000000
  70
    32
  0
VERTEX
  8
0
  5
D0F3
 10
-388.025
 20
840.386
 30
0.000000
  70
    32
  0
VERTEX
  8
0
  5
D0F4
 10
-388.024
 20
840.397
 30
0.000000
  70
    32
  0
VERTEX
  8
0
  5
D0F5
 10
-388.023
 20
840.409
 30
0.000000
  70
    32
  0
VERTEX
  8
0
  5
D0F6
 10
-388.022
 20
840.420
 30
0.000000
  70
    32
  0
VERTEX
  8
0
  5
D0F7
 10
-388.021
 20
840.432
 30
0.000000
  70
    32
  0
VERTEX
  8
0
  5
D0F8
 10
-388.019
 20
840.443
 30
0.000000
  70
    32
  0
VERTEX
  8
0
  5
D0F9
 10
-388.018
 20
840.454
 30
0.000000
  70
    32
  0
VERTEX
  8
0
  5
D0FA
 10
-388.016
 20
840.466
 30
0.000000
  70
    32
  0
VERTEX
  8
0
  5
D0FB
 10
-388.014
 20
840.477
 30
0.000000
  70
    32
  0
VERTEX
  8
0
  5
D0FC
 10
-388.011
 20
840.489
 30
0.000000
  70
    32
  0
VERTEX
  8
0
  5
D0FD
 10
-388.009
 20
840.500
 30
0.000000
  70
    32
  0
VERTEX
  8
0
  5
D0FE
 10
-388.006
 20
840.511
 30
0.000000
  70
    32
  0
VERTEX
  8
0
  5
D0FF
 10
-388.004
 20
840.522
 30
0.000000
  70
    32
  0
VERTEX
  8
0
  5
D100
 10
-388.001
 20
840.534
 30
0.000000
  70
    32
  0
VERTEX
  8
0
  5
D101
 10
-387.997
 20
840.545
 30
0.000000
  70
    32
  0
VERTEX
  8
0
  5
D102
 10
-387.994
 20
840.556
 30
0.000000
  70
    32
  0
VERTEX
  8
0
  5
D103
 10
-387.991
 20
840.567
 30
0.000000
  70
    32
  0
VERTEX
  8
0
  5
D104
 10
-387.987
 20
840.578
 30
0.000000
  70
    32
  0
VERTEX
  8
0
  5
D105
 10
-387.983
 20
840.589
 30
0.000000
  70
    32
  0
VERTEX
  8
0
  5
D106
 10
-387.979
 20
840.600
 30
0.000000
  70
    32
  0
VERTEX
  8
0
  5
D107
 10
-387.975
 20
840.611
 30
0.000000
  70
    32
  0
VERTEX
  8
0
  5
D108
 10
-387.971
 20
840.622
 30
0.000000
  70
    32
  0
VERTEX
  8
0
  5
D109
 10
-387.966
 20
840.633
 30
0.000000
  70
    32
  0
VERTEX
  8
0
  5
D10A
 10
-387.962
 20
840.643
 30
0.000000
  70
    32
  0
VERTEX
  8
0
  5
D10B
 10
-387.957
 20
840.654
 30
0.000000
  70
    32
  0
VERTEX
  8
0
  5
D10C
 10
-387.952
 20
840.665
 30
0.000000
  70
    32
  0
VERTEX
  8
0
  5
D10D
 10
-387.947
 20
840.675
 30
0.000000
  70
    32
  0
VERTEX
  8
0
  5
D10E
 10
-387.942
 20
840.686
 30
0.000000
  70
    32
  0
VERTEX
  8
0
  5
D10F
 10
-387.936
 20
840.696
 30
0.000000
  70
    32
  0
VERTEX
  8
0
  5
D110
 10
-387.931
 20
840.706
 30
0.000000
  70
    32
  0
VERTEX
  8
0
  5
D111
 10
-387.925
 20
840.717
 30
0.000000
  70
    32
  0
VERTEX
  8
0
  5
D112
 10
-387.919
 20
840.727
 30
0.000000
  70
    32
  0
VERTEX
  8
0
  5
D113
 10
-387.913
 20
840.737
 30
0.000000
  70
    32
  0
VERTEX
  8
0
  5
D114
 10
-387.907
 20
840.747
 30
0.000000
  70
    32
  0
VERTEX
  8
0
  5
D115
 10
-387.901
 20
840.757
 30
0.000000
  70
    32
  0
VERTEX
  8
0
  5
D116
 10
-387.894
 20
840.767
 30
0.000000
  70
    32
  0
VERTEX
  8
0
  5
D117
 10
-387.888
 20
840.776
 30
0.000000
  70
    32
  0
VERTEX
  8
0
  5
D118
 10
-387.881
 20
840.786
 30
0.000000
  70
    32
  0
VERTEX
  8
0
  5
D119
 10
-387.874
 20
840.795
 30
0.000000
  70
    32
  0
VERTEX
  8
0
  5
D11A
 10
-387.867
 20
840.805
 30
0.000000
  70
    32
  0
VERTEX
  8
0
  5
D11B
 10
-387.860
 20
840.814
 30
0.000000
  70
    32
  0
VERTEX
  8
0
  5
D11C
 10
-387.853
 20
840.824
 30
0.000000
  70
    32
  0
VERTEX
  8
0
  5
D11D
 10
-387.845
 20
840.833
 30
0.000000
  70
    32
  0
VERTEX
  8
0
  5
D11E
 10
-387.838
 20
840.842
 30
0.000000
  70
    32
  0
VERTEX
  8
0
  5
D11F
 10
-387.830
 20
840.851
 30
0.000000
  70
    32
  0
VERTEX
  8
0
  5
D120
 10
-387.822
 20
840.859
 30
0.000000
  70
    32
  0
VERTEX
  8
0
  5
D121
 10
-387.814
 20
840.868
 30
0.000000
  70
    32
  0
VERTEX
  8
0
  5
D122
 10
-387.806
 20
840.877
 30
0.000000
  70
    32
  0
VERTEX
  8
0
  5
D123
 10
-387.798
 20
840.885
 30
0.000000
  70
    32
  0
VERTEX
  8
0
  5
D124
 10
-387.790
 20
840.893
 30
0.000000
  70
    32
  0
VERTEX
  8
0
  5
D125
 10
-387.781
 20
840.902
 30
0.000000
  70
    32
  0
VERTEX
  8
0
  5
D126
 10
-387.773
 20
840.910
 30
0.000000
  70
    32
  0
VERTEX
  8
0
  5
D127
 10
-387.764
 20
840.918
 30
0.000000
  70
    32
  0
VERTEX
  8
0
  5
D128
 10
-387.755
 20
840.925
 30
0.000000
  70
    32
  0
VERTEX
  8
0
  5
D129
 10
-387.746
 20
840.933
 30
0.000000
  70
    32
  0
VERTEX
  8
0
  5
D12A
 10
-387.737
 20
840.940
 30
0.000000
  70
    32
  0
VERTEX
  8
0
  5
D12B
 10
-387.728
 20
840.948
 30
0.000000
  70
    32
  0
VERTEX
  8
0
  5
D12C
 10
-387.719
 20
840.955
 30
0.000000
  70
    32
  0
VERTEX
  8
0
  5
D12D
 10
-387.709
 20
840.962
 30
0.000000
  70
    32
  0
VERTEX
  8
0
  5
D12E
 10
-387.700
 20
840.969
 30
0.000000
  70
    32
  0
VERTEX
  8
0
  5
D12F
 10
-387.690
 20
840.975
 30
0.000000
  70
    32
  0
VERTEX
  8
0
  5
D130
 10
-387.681
 20
840.982
 30
0.000000
  70
    32
  0
VERTEX
  8
0
  5
D131
 10
-387.671
 20
840.988
 30
0.000000
  70
    32
  0
VERTEX
  8
0
  5
D132
 10
-387.661
 20
840.994
 30
0.000000
  70
    32
  0
VERTEX
  8
0
  5
D133
 10
-387.651
 20
841.000
 30
0.000000
  70
    32
  0
VERTEX
  8
0
  5
D134
 10
-387.641
 20
841.006
 30
0.000000
  70
    32
  0
VERTEX
  8
0
  5
D135
 10
-387.631
 20
841.011
 30
0.000000
  70
    32
  0
VERTEX
  8
0
  5
D136
 10
-387.621
 20
841.017
 30
0.000000
  70
    32
  0
VERTEX
  8
0
  5
D137
 10
-387.610
 20
841.022
 30
0.000000
  70
    32
  0
VERTEX
  8
0
  5
D138
 10
-387.600
 20
841.027
 30
0.000000
  70
    32
  0
VERTEX
  8
0
  5
D139
 10
-387.589
 20
841.032
 30
0.000000
  70
    32
  0
VERTEX
  8
0
  5
D13A
 10
-387.579
 20
841.036
 30
0.000000
  70
    32
  0
VERTEX
  8
0
  5
D13B
 10
-387.568
 20
841.040
 30
0.000000
  70
    32
  0
VERTEX
  8
0
  5
D13C
 10
-387.557
 20
841.045
 30
0.000000
  70
    32
  0
VERTEX
  8
0
  5
D13D
 10
-387.547
 20
841.048
 30
0.000000
  70
    32
  0
VERTEX
  8
0
  5
D13E
 10
-387.536
 20
841.052
 30
0.000000
  70
    32
  0
VERTEX
  8
0
  5
D13F
 10
-387.525
 20
841.056
 30
0.000000
  70
    32
  0
VERTEX
  8
0
  5
D140
 10
-387.514
 20
841.059
 30
0.000000
  70
    32
  0
VERTEX
  8
0
  5
D141
 10
-387.503
 20
841.062
 30
0.000000
  70
    32
  0
VERTEX
  8
0
  5
D142
 10
-387.491
 20
841.065
 30
0.000000
  70
    32
  0
VERTEX
  8
0
  5
D143
 10
-387.480
 20
841.068
 30
0.000000
  70
    32
  0
VERTEX
  8
0
  5
D144
 10
-387.469
 20
841.071
 30
0.000000
  70
    32
  0
VERTEX
  8
0
  5
D145
 10
-387.458
 20
841.073
 30
0.000000
  70
    32
  0
VERTEX
  8
0
  5
D146
 10
-387.446
 20
841.076
 30
0.000000
  70
    32
  0
VERTEX
  8
0
  5
D147
 10
-387.435
 20
841.078
 30
0.000000
  70
    32
  0
VERTEX
  8
0
  5
D148
 10
-387.423
 20
841.080
 30
0.000000
  70
    32
  0
VERTEX
  8
0
  5
D149
 10
-387.412
 20
841.082
 30
0.000000
  70
    32
  0
VERTEX
  8
0
  5
D14A
 10
-387.400
 20
841.083
 30
0.000000
  70
    32
  0
VERTEX
  8
0
  5
D14B
 10
-387.389
 20
841.085
 30
0.000000
  70
    32
  0
VERTEX
  8
0
  5
D14C
 10
-387.377
 20
841.086
 30
0.000000
  70
    32
  0
VERTEX
  8
0
  5
D14D
 10
-387.366
 20
841.088
 30
0.000000
  70
    32
  0
VERTEX
  8
0
  5
D14E
 10
-387.354
 20
841.089
 30
0.000000
  70
    32
  0
VERTEX
  8
0
  5
D14F
 10
-387.342
 20
841.090
 30
0.000000
  70
    32
  0
VERTEX
  8
0
  5
D150
 10
-387.331
 20
841.091
 30
0.000000
  70
    32
  0
VERTEX
  8
0
  5
D151
 10
-387.319
 20
841.092
 30
0.000000
  70
    32
  0
VERTEX
  8
0
  5
D152
 10
-387.308
 20
841.093
 30
0.000000
  70
    32
  0
VERTEX
  8
0
  5
D153
 10
-387.296
 20
841.093
 30
0.000000
  70
    32
  0
VERTEX
  8
0
  5
D154
 10
-387.285
 20
841.094
 30
0.000000
  70
    32
  0
VERTEX
  8
0
  5
D155
 10
-387.273
 20
841.094
 30
0.000000
  70
    32
  0
VERTEX
  8
0
  5
D156
 10
-387.261
 20
841.095
 30
0.000000
  70
    32
  0
VERTEX
  8
0
  5
D157
 10
-387.250
 20
841.095
 30
0.000000
  70
    32
  0
VERTEX
  8
0
  5
D158
 10
-387.238
 20
841.095
 30
0.000000
  70
    32
  0
VERTEX
  8
0
  5
D159
 10
-387.227
 20
841.095
 30
0.000000
  70
    32
  0
VERTEX
  8
0
  5
D15A
 10
-387.215
 20
841.095
 30
0.000000
  70
    32
  0
VERTEX
  8
0
  5
D15B
 10
-387.203
 20
841.095
 30
0.000000
  70
    32
  0
VERTEX
  8
0
  5
D15C
 10
-387.192
 20
841.094
 30
0.000000
  70
    32
  0
VERTEX
  8
0
  5
D15D
 10
-387.180
 20
841.094
 30
0.000000
  70
    32
  0
VERTEX
  8
0
  5
D15E
 10
-387.169
 20
841.094
 30
0.000000
  70
    32
  0
VERTEX
  8
0
  5
D15F
 10
-387.157
 20
841.093
 30
0.000000
  70
    32
  0
VERTEX
  8
0
  5
D160
 10
-387.146
 20
841.092
 30
0.000000
  70
    32
  0
VERTEX
  8
0
  5
D161
 10
-387.134
 20
841.091
 30
0.000000
  70
    32
  0
VERTEX
  8
0
  5
D162
 10
-387.123
 20
841.090
 30
0.000000
  70
    32
  0
VERTEX
  8
0
  5
D163
 10
-387.111
 20
841.089
 30
0.000000
  70
    32
  0
VERTEX
  8
0
  5
D164
 10
-387.100
 20
841.088
 30
0.000000
  70
    32
  0
VERTEX
  8
0
  5
D165
 10
-387.089
 20
841.087
 30
0.000000
  70
    32
  0
VERTEX
  8
0
  5
D166
 10
-387.077
 20
841.085
 30
0.000000
  70
    32
  0
VERTEX
  8
0
  5
D167
 10
-387.066
 20
841.084
 30
0.000000
  70
    32
  0
VERTEX
  8
0
  5
D168
 10
-387.054
 20
841.082
 30
0.000000
  70
    32
  0
VERTEX
  8
0
  5
D169
 10
-387.043
 20
841.081
 30
0.000000
  70
    32
  0
VERTEX
  8
0
  5
D16A
 10
-387.032
 20
841.079
 30
0.000000
  70
    32
  0
VERTEX
  8
0
  5
D16B
 10
-387.020
 20
841.077
 30
0.000000
  70
    32
  0
VERTEX
  8
0
  5
D16C
 10
-387.009
 20
841.075
 30
0.000000
  70
    32
  0
VERTEX
  8
0
  5
D16D
 10
-386.998
 20
841.073
 30
0.000000
  70
    32
  0
VERTEX
  8
0
  5
D16E
 10
-386.986
 20
841.071
 30
0.000000
  70
    32
  0
VERTEX
  8
0
  5
D16F
 10
-386.975
 20
841.068
 30
0.000000
  70
    32
  0
VERTEX
  8
0
  5
D170
 10
-386.964
 20
841.066
 30
0.000000
  70
    32
  0
VERTEX
  8
0
  5
D171
 10
-386.953
 20
841.064
 30
0.000000
  70
    32
  0
VERTEX
  8
0
  5
D172
 10
-386.941
 20
841.061
 30
0.000000
  70
    32
  0
VERTEX
  8
0
  5
D173
 10
-386.930
 20
841.059
 30
0.000000
  70
    32
  0
VERTEX
  8
0
  5
D174
 10
-386.919
 20
841.056
 30
0.000000
  70
    32
  0
VERTEX
  8
0
  5
D175
 10
-386.908
 20
841.053
 30
0.000000
  70
    32
  0
VERTEX
  8
0
  5
D176
 10
-386.897
 20
841.050
 30
0.000000
  70
    32
  0
VERTEX
  8
0
  5
D177
 10
-386.885
 20
841.048
 30
0.000000
  70
    32
  0
VERTEX
  8
0
  5
D178
 10
-386.874
 20
841.045
 30
0.000000
  70
    32
  0
VERTEX
  8
0
  5
D179
 10
-386.863
 20
841.042
 30
0.000000
  70
    32
  0
VERTEX
  8
0
  5
D17A
 10
-386.852
 20
841.039
 30
0.000000
  70
    32
  0
VERTEX
  8
0
  5
D17B
 10
-386.841
 20
841.035
 30
0.000000
  70
    32
  0
VERTEX
  8
0
  5
D17C
 10
-386.830
 20
841.032
 30
0.000000
  70
    32
  0
VERTEX
  8
0
  5
D17D
 10
-386.819
 20
841.029
 30
0.000000
  70
    32
  0
VERTEX
  8
0
  5
D17E
 10
-386.808
 20
841.026
 30
0.000000
  70
    32
  0
VERTEX
  8
0
  5
D17F
 10
-386.797
 20
841.023
 30
0.000000
  70
    32
  0
VERTEX
  8
0
  5
D180
 10
-386.785
 20
841.019
 30
0.000000
  70
    32
  0
VERTEX
  8
0
  5
D181
 10
-386.774
 20
841.016
 30
0.000000
  70
    32
  0
VERTEX
  8
0
  5
D182
 10
-386.763
 20
841.012
 30
0.000000
  70
    32
  0
VERTEX
  8
0
  5
D183
 10
-386.752
 20
841.009
 30
0.000000
  70
    32
  0
VERTEX
  8
0
  5
D184
 10
-386.741
 20
841.005
 30
0.000000
  70
    32
  0
VERTEX
  8
0
  5
D185
 10
-386.730
 20
841.002
 30
0.000000
  70
    32
  0
VERTEX
  8
0
  5
D186
 10
-386.719
 20
840.998
 30
0.000000
  70
    32
  0
VERTEX
  8
0
  5
D187
 10
-386.708
 20
840.994
 30
0.000000
  70
    32
  0
VERTEX
  8
0
  5
D188
 10
-386.697
 20
840.991
 30
0.000000
  70
    32
  0
VERTEX
  8
0
  5
D189
 10
-386.686
 20
840.987
 30
0.000000
  70
    32
  0
VERTEX
  8
0
  5
D18A
 10
-386.675
 20
840.983
 30
0.000000
  70
    32
  0
VERTEX
  8
0
  5
D18B
 10
-386.664
 20
840.980
 30
0.000000
  70
    32
  0
VERTEX
  8
0
  5
D18C
 10
-386.653
 20
840.976
 30
0.000000
  70
    32
  0
VERTEX
  8
0
  5
D18D
 10
-386.642
 20
840.972
 30
0.000000
  70
    32
  0
VERTEX
  8
0
  5
D18E
 10
-386.631
 20
840.968
 30
0.000000
  70
    32
  0
VERTEX
  8
0
  5
D18F
 10
-386.620
 20
840.965
 30
0.000000
  70
    32
  0
VERTEX
  8
0
  5
D190
 10
-386.609
 20
840.961
 30
0.000000
  70
    32
  0
VERTEX
  8
0
  5
D191
 10
-386.598
 20
840.957
 30
0.000000
  70
    32
  0
VERTEX
  8
0
  5
D192
 10
-386.587
 20
840.953
 30
0.000000
  70
    32
  0
VERTEX
  8
0
  5
D193
 10
-386.576
 20
840.949
 30
0.000000
  70
    32
  0
VERTEX
  8
0
  5
D194
 10
-386.565
 20
840.945
 30
0.000000
  70
    32
  0
VERTEX
  8
0
  5
D195
 10
-386.554
 20
840.942
 30
0.000000
  70
    32
  0
VERTEX
  8
0
  5
D196
 10
-386.543
 20
840.938
 30
0.000000
  70
    32
  0
VERTEX
  8
0
  5
D197
 10
-386.532
 20
840.934
 30
0.000000
  70
    32
  0
VERTEX
  8
0
  5
D198
 10
-386.521
 20
840.930
 30
0.000000
  70
    32
  0
VERTEX
  8
0
  5
D199
 10
-386.510
 20
840.926
 30
0.000000
  70
    32
  0
VERTEX
  8
0
  5
D19A
 10
-386.499
 20
840.923
 30
0.000000
  70
    32
  0
VERTEX
  8
0
  5
D19B
 10
-386.488
 20
840.919
 30
0.000000
  70
    32
  0
VERTEX
  8
0
  5
D19C
 10
-386.477
 20
840.915
 30
0.000000
  70
    32
  0
VERTEX
  8
0
  5
D19D
 10
-386.466
 20
840.911
 30
0.000000
  70
    32
  0
VERTEX
  8
0
  5
D19E
 10
-386.455
 20
840.908
 30
0.000000
  70
    32
  0
VERTEX
  8
0
  5
D19F
 10
-386.444
 20
840.904
 30
0.000000
  70
    32
  0
VERTEX
  8
0
  5
D1A0
 10
-386.433
 20
840.900
 30
0.000000
  70
    32
  0
VERTEX
  8
0
  5
D1A1
 10
-386.422
 20
840.897
 30
0.000000
  70
    32
  0
VERTEX
  8
0
  5
D1A2
 10
-386.410
 20
840.893
 30
0.000000
  70
    32
  0
VERTEX
  8
0
  5
D1A3
 10
-386.399
 20
840.890
 30
0.000000
  70
    32
  0
VERTEX
  8
0
  5
D1A4
 10
-386.388
 20
840.886
 30
0.000000
  70
    32
  0
VERTEX
  8
0
  5
D1A5
 10
-386.377
 20
840.882
 30
0.000000
  70
    32
  0
VERTEX
  8
0
  5
D1A6
 10
-386.366
 20
840.879
 30
0.000000
  70
    32
  0
VERTEX
  8
0
  5
D1A7
 10
-386.355
 20
840.875
 30
0.000000
  70
    32
  0
VERTEX
  8
0
  5
D1A8
 10
-386.344
 20
840.872
 30
0.000000
  70
    32
  0
VERTEX
  8
0
  5
D1A9
 10
-386.333
 20
840.869
 30
0.000000
  70
    32
  0
VERTEX
  8
0
  5
D1AA
 10
-386.322
 20
840.865
 30
0.000000
  70
    32
  0
VERTEX
  8
0
  5
D1AB
 10
-386.311
 20
840.862
 30
0.000000
  70
    32
  0
VERTEX
  8
0
  5
D1AC
 10
-386.300
 20
840.859
 30
0.000000
  70
    32
  0
VERTEX
  8
0
  5
D1AD
 10
-386.289
 20
840.856
 30
0.000000
  70
    32
  0
VERTEX
  8
0
  5
D1AE
 10
-386.277
 20
840.852
 30
0.000000
  70
    32
  0
VERTEX
  8
0
  5
D1AF
 10
-386.266
 20
840.849
 30
0.000000
  70
    32
  0
VERTEX
  8
0
  5
D1B0
 10
-386.255
 20
840.846
 30
0.000000
  70
    32
  0
VERTEX
  8
0
  5
D1B1
 10
-386.244
 20
840.843
 30
0.000000
  70
    32
  0
VERTEX
  8
0
  5
D1B2
 10
-386.233
 20
840.840
 30
0.000000
  70
    32
  0
VERTEX
  8
0
  5
D1B3
 10
-386.222
 20
840.837
 30
0.000000
  70
    32
  0
VERTEX
  8
0
  5
D1B4
 10
-386.211
 20
840.834
 30
0.000000
  70
    32
  0
VERTEX
  8
0
  5
D1B5
 10
-386.199
 20
840.831
 30
0.000000
  70
    32
  0
VERTEX
  8
0
  5
D1B6
 10
-386.188
 20
840.829
 30
0.000000
  70
    32
  0
VERTEX
  8
0
  5
D1B7
 10
-386.177
 20
840.826
 30
0.000000
  70
    32
  0
VERTEX
  8
0
  5
D1B8
 10
-386.166
 20
840.823
 30
0.000000
  70
    32
  0
VERTEX
  8
0
  5
D1B9
 10
-386.155
 20
840.821
 30
0.000000
  70
    32
  0
VERTEX
  8
0
  5
D1BA
 10
-386.143
 20
840.818
 30
0.000000
  70
    32
  0
VERTEX
  8
0
  5
D1BB
 10
-386.132
 20
840.816
 30
0.000000
  70
    32
  0
VERTEX
  8
0
  5
D1BC
 10
-386.121
 20
840.813
 30
0.000000
  70
    32
  0
VERTEX
  8
0
  5
D1BD
 10
-386.110
 20
840.811
 30
0.000000
  70
    32
  0
VERTEX
  8
0
  5
D1BE
 10
-386.098
 20
840.809
 30
0.000000
  70
    32
  0
VERTEX
  8
0
  5
D1BF
 10
-386.087
 20
840.807
 30
0.000000
  70
    32
  0
VERTEX
  8
0
  5
D1C0
 10
-386.076
 20
840.804
 30
0.000000
  70
    32
  0
VERTEX
  8
0
  5
D1C1
 10
-386.064
 20
840.802
 30
0.000000
  70
    32
  0
VERTEX
  8
0
  5
D1C2
 10
-386.053
 20
840.800
 30
0.000000
  70
    32
  0
VERTEX
  8
0
  5
D1C3
 10
-386.042
 20
840.799
 30
0.000000
  70
    32
  0
VERTEX
  8
0
  5
D1C4
 10
-386.030
 20
840.797
 30
0.000000
  70
    32
  0
VERTEX
  8
0
  5
D1C5
 10
-386.019
 20
840.795
 30
0.000000
  70
    32
  0
VERTEX
  8
0
  5
D1C6
 10
-386.008
 20
840.793
 30
0.000000
  70
    32
  0
VERTEX
  8
0
  5
D1C7
 10
-385.996
 20
840.792
 30
0.000000
  70
    32
  0
VERTEX
  8
0
  5
D1C8
 10
-385.985
 20
840.790
 30
0.000000
  70
    32
  0
VERTEX
  8
0
  5
D1C9
 10
-385.973
 20
840.789
 30
0.000000
  70
    32
  0
VERTEX
  8
0
  5
D1CA
 10
-385.962
 20
840.788
 30
0.000000
  70
    32
  0
VERTEX
  8
0
  5
D1CB
 10
-385.950
 20
840.786
 30
0.000000
  70
    32
  0
VERTEX
  8
0
  5
D1CC
 10
-385.939
 20
840.785
 30
0.000000
  70
    32
  0
VERTEX
  8
0
  5
D1CD
 10
-385.927
 20
840.784
 30
0.000000
  70
    32
  0
VERTEX
  8
0
  5
D1CE
 10
-385.916
 20
840.783
 30
0.000000
  70
    32
  0
VERTEX
  8
0
  5
D1CF
 10
-385.904
 20
840.782
 30
0.000000
  70
    32
  0
VERTEX
  8
0
  5
D1D0
 10
-385.893
 20
840.782
 30
0.000000
  70
    32
  0
VERTEX
  8
0
  5
D1D1
 10
-385.881
 20
840.781
 30
0.000000
  70
    32
  0
VERTEX
  8
0
  5
D1D2
 10
-385.870
 20
840.780
 30
0.000000
  70
    32
  0
VERTEX
  8
0
  5
D1D3
 10
-385.858
 20
840.779
 30
0.000000
  70
    32
  0
VERTEX
  8
0
  5
D1D4
 10
-385.847
 20
840.779
 30
0.000000
  70
    32
  0
VERTEX
  8
0
  5
D1D5
 10
-385.835
 20
840.778
 30
0.000000
  70
    32
  0
VERTEX
  8
0
  5
D1D6
 10
-385.824
 20
840.778
 30
0.000000
  70
    32
  0
VERTEX
  8
0
  5
D1D7
 10
-385.812
 20
840.778
 30
0.000000
  70
    32
  0
VERTEX
  8
0
  5
D1D8
 10
-385.801
 20
840.778
 30
0.000000
  70
    32
  0
VERTEX
  8
0
  5
D1D9
 10
-385.789
 20
840.777
 30
0.000000
  70
    32
  0
VERTEX
  8
0
  5
D1DA
 10
-385.777
 20
840.777
 30
0.000000
  70
    32
  0
VERTEX
  8
0
  5
D1DB
 10
-385.766
 20
840.777
 30
0.000000
  70
    32
  0
VERTEX
  8
0
  5
D1DC
 10
-385.754
 20
840.777
 30
0.000000
  70
    32
  0
VERTEX
  8
0
  5
D1DD
 10
-385.743
 20
840.777
 30
0.000000
  70
    32
  0
VERTEX
  8
0
  5
D1DE
 10
-385.731
 20
840.778
 30
0.000000
  70
    32
  0
VERTEX
  8
0
  5
D1DF
 10
-385.719
 20
840.778
 30
0.000000
  70
    32
  0
VERTEX
  8
0
  5
D1E0
 10
-385.708
 20
840.778
 30
0.000000
  70
    32
  0
VERTEX
  8
0
  5
D1E1
 10
-385.696
 20
840.778
 30
0.000000
  70
    32
  0
VERTEX
  8
0
  5
D1E2
 10
-385.685
 20
840.779
 30
0.000000
  70
    32
  0
VERTEX
  8
0
  5
D1E3
 10
-385.673
 20
840.779
 30
0.000000
  70
    32
  0
VERTEX
  8
0
  5
D1E4
 10
-385.661
 20
840.780
 30
0.000000
  70
    32
  0
VERTEX
  8
0
  5
D1E5
 10
-385.650
 20
840.780
 30
0.000000
  70
    32
  0
VERTEX
  8
0
  5
D1E6
 10
-385.638
 20
840.781
 30
0.000000
  70
    32
  0
VERTEX
  8
0
  5
D1E7
 10
-385.627
 20
840.782
 30
0.000000
  70
    32
  0
VERTEX
  8
0
  5
D1E8
 10
-385.615
 20
840.782
 30
0.000000
  70
    32
  0
VERTEX
  8
0
  5
D1E9
 10
-385.604
 20
840.783
 30
0.000000
  70
    32
  0
VERTEX
  8
0
  5
D1EA
 10
-385.592
 20
840.784
 30
0.000000
  70
    32
  0
VERTEX
  8
0
  5
D1EB
 10
-385.580
 20
840.785
 30
0.000000
  70
    32
  0
VERTEX
  8
0
  5
D1EC
 10
-385.569
 20
840.786
 30
0.000000
  70
    32
  0
VERTEX
  8
0
  5
D1ED
 10
-385.557
 20
840.787
 30
0.000000
  70
    32
  0
VERTEX
  8
0
  5
D1EE
 10
-385.546
 20
840.788
 30
0.000000
  70
    32
  0
VERTEX
  8
0
  5
D1EF
 10
-385.534
 20
840.789
 30
0.000000
  70
    32
  0
VERTEX
  8
0
  5
D1F0
 10
-385.523
 20
840.790
 30
0.000000
  70
    32
  0
VERTEX
  8
0
  5
D1F1
 10
-385.511
 20
840.791
 30
0.000000
  70
    32
  0
VERTEX
  8
0
  5
D1F2
 10
-385.500
 20
840.793
 30
0.000000
  70
    32
  0
VERTEX
  8
0
  5
D1F3
 10
-385.488
 20
840.794
 30
0.000000
  70
    32
  0
VERTEX
  8
0
  5
D1F4
 10
-385.477
 20
840.795
 30
0.000000
  70
    32
  0
VERTEX
  8
0
  5
D1F5
 10
-385.465
 20
840.797
 30
0.000000
  70
    32
  0
VERTEX
  8
0
  5
D1F6
 10
-385.454
 20
840.798
 30
0.000000
  70
    32
  0
VERTEX
  8
0
  5
D1F7
 10
-385.442
 20
840.800
 30
0.000000
  70
    32
  0
VERTEX
  8
0
  5
D1F8
 10
-385.431
 20
840.801
 30
0.000000
  70
    32
  0
VERTEX
  8
0
  5
D1F9
 10
-385.419
 20
840.803
 30
0.000000
  70
    32
  0
VERTEX
  8
0
  5
D1FA
 10
-385.408
 20
840.804
 30
0.000000
  70
    32
  0
VERTEX
  8
0
  5
D1FB
 10
-385.396
 20
840.806
 30
0.000000
  70
    32
  0
VERTEX
  8
0
  5
D1FC
 10
-385.385
 20
840.807
 30
0.000000
  70
    32
  0
VERTEX
  8
0
  5
D1FD
 10
-385.374
 20
840.809
 30
0.000000
  70
    32
  0
VERTEX
  8
0
  5
D1FE
 10
-385.362
 20
840.811
 30
0.000000
  70
    32
  0
VERTEX
  8
0
  5
D1FF
 10
-385.351
 20
840.813
 30
0.000000
  70
    32
  0
VERTEX
  8
0
  5
D200
 10
-385.339
 20
840.814
 30
0.000000
  70
    32
  0
VERTEX
  8
0
  5
D201
 10
-385.328
 20
840.816
 30
0.000000
  70
    32
  0
VERTEX
  8
0
  5
D202
 10
-385.317
 20
840.818
 30
0.000000
  70
    32
  0
VERTEX
  8
0
  5
D203
 10
-385.305
 20
840.820
 30
0.000000
  70
    32
  0
VERTEX
  8
0
  5
D204
 10
-385.294
 20
840.822
 30
0.000000
  70
    32
  0
VERTEX
  8
0
  5
D205
 10
-385.282
 20
840.824
 30
0.000000
  70
    32
  0
VERTEX
  8
0
  5
D206
 10
-385.271
 20
840.826
 30
0.000000
  70
    32
  0
VERTEX
  8
0
  5
D207
 10
-385.260
 20
840.828
 30
0.000000
  70
    32
  0
VERTEX
  8
0
  5
D208
 10
-385.248
 20
840.830
 30
0.000000
  70
    32
  0
VERTEX
  8
0
  5
D209
 10
-385.237
 20
840.832
 30
0.000000
  70
    32
  0
VERTEX
  8
0
  5
D20A
 10
-385.226
 20
840.834
 30
0.000000
  70
    32
  0
VERTEX
  8
0
  5
D20B
 10
-385.214
 20
840.836
 30
0.000000
  70
    32
  0
VERTEX
  8
0
  5
D20C
 10
-385.203
 20
840.838
 30
0.000000
  70
    32
  0
VERTEX
  8
0
  5
D20D
 10
-385.192
 20
840.841
 30
0.000000
  70
    32
  0
VERTEX
  8
0
  5
D20E
 10
-385.180
 20
840.843
 30
0.000000
  70
    32
  0
VERTEX
  8
0
  5
D20F
 10
-385.169
 20
840.845
 30
0.000000
  70
    32
  0
VERTEX
  8
0
  5
D210
 10
-385.158
 20
840.847
 30
0.000000
  70
    32
  0
VERTEX
  8
0
  5
D211
 10
-385.146
 20
840.850
 30
0.000000
  70
    32
  0
VERTEX
  8
0
  5
D212
 10
-385.135
 20
840.852
 30
0.000000
  70
    32
  0
VERTEX
  8
0
  5
D213
 10
-385.124
 20
840.854
 30
0.000000
  70
    32
  0
VERTEX
  8
0
  5
D214
 10
-385.112
 20
840.857
 30
0.000000
  70
    32
  0
VERTEX
  8
0
  5
D215
 10
-385.101
 20
840.859
 30
0.000000
  70
    32
  0
VERTEX
  8
0
  5
D216
 10
-385.090
 20
840.861
 30
0.000000
  70
    32
  0
VERTEX
  8
0
  5
D217
 10
-385.079
 20
840.864
 30
0.000000
  70
    32
  0
VERTEX
  8
0
  5
D218
 10
-385.067
 20
840.866
 30
0.000000
  70
    32
  0
VERTEX
  8
0
  5
D219
 10
-385.056
 20
840.869
 30
0.000000
  70
    32
  0
VERTEX
  8
0
  5
D21A
 10
-385.045
 20
840.871
 30
0.000000
  70
    32
  0
VERTEX
  8
0
  5
D21B
 10
-385.033
 20
840.874
 30
0.000000
  70
    32
  0
VERTEX
  8
0
  5
D21C
 10
-385.022
 20
840.876
 30
0.000000
  70
    32
  0
VERTEX
  8
0
  5
D21D
 10
-385.011
 20
840.879
 30
0.000000
  70
    32
  0
VERTEX
  8
0
  5
D21E
 10
-385.000
 20
840.881
 30
0.000000
  70
    32
  0
VERTEX
  8
0
  5
D21F
 10
-384.988
 20
840.884
 30
0.000000
  70
    32
  0
VERTEX
  8
0
  5
D220
 10
-384.977
 20
840.886
 30
0.000000
  70
    32
  0
VERTEX
  8
0
  5
D221
 10
-384.966
 20
840.889
 30
0.000000
  70
    32
  0
VERTEX
  8
0
  5
D222
 10
-384.954
 20
840.892
 30
0.000000
  70
    32
  0
VERTEX
  8
0
  5
D223
 10
-384.943
 20
840.894
 30
0.000000
  70
    32
  0
VERTEX
  8
0
  5
D224
 10
-384.932
 20
840.897
 30
0.000000
  70
    32
  0
VERTEX
  8
0
  5
D225
 10
-384.921
 20
840.899
 30
0.000000
  70
    32
  0
VERTEX
  8
0
  5
D226
 10
-384.909
 20
840.902
 30
0.000000
  70
    32
  0
VERTEX
  8
0
  5
D227
 10
-384.898
 20
840.905
 30
0.000000
  70
    32
  0
VERTEX
  8
0
  5
D228
 10
-384.887
 20
840.907
 30
0.000000
  70
    32
  0
VERTEX
  8
0
  5
D229
 10
-384.876
 20
840.910
 30
0.000000
  70
    32
  0
VERTEX
  8
0
  5
D22A
 10
-384.864
 20
840.913
 30
0.000000
  70
    32
  0
VERTEX
  8
0
  5
D22B
 10
-384.853
 20
840.915
 30
0.000000
  70
    32
  0
VERTEX
  8
0
  5
D22C
 10
-384.842
 20
840.918
 30
0.000000
  70
    32
  0
VERTEX
  8
0
  5
D22D
 10
-384.830
 20
840.921
 30
0.000000
  70
    32
  0
VERTEX
  8
0
  5
D22E
 10
-384.819
 20
840.923
 30
0.000000
  70
    32
  0
VERTEX
  8
0
  5
D22F
 10
-384.808
 20
840.926
 30
0.000000
  70
    32
  0
VERTEX
  8
0
  5
D230
 10
-384.797
 20
840.929
 30
0.000000
  70
    32
  0
VERTEX
  8
0
  5
D231
 10
-384.785
 20
840.931
 30
0.000000
  70
    32
  0
VERTEX
  8
0
  5
D232
 10
-384.774
 20
840.934
 30
0.000000
  70
    32
  0
VERTEX
  8
0
  5
D233
 10
-384.763
 20
840.937
 30
0.000000
  70
    32
  0
VERTEX
  8
0
  5
D234
 10
-384.751
 20
840.939
 30
0.000000
  70
    32
  0
VERTEX
  8
0
  5
D235
 10
-384.740
 20
840.942
 30
0.000000
  70
    32
  0
VERTEX
  8
0
  5
D236
 10
-384.729
 20
840.945
 30
0.000000
  70
    32
  0
VERTEX
  8
0
  5
D237
 10
-384.718
 20
840.947
 30
0.000000
  70
    32
  0
VERTEX
  8
0
  5
D238
 10
-384.706
 20
840.950
 30
0.000000
  70
    32
  0
VERTEX
  8
0
  5
D239
 10
-384.695
 20
840.952
 30
0.000000
  70
    32
  0
VERTEX
  8
0
  5
D23A
 10
-384.684
 20
840.955
 30
0.000000
  70
    32
  0
VERTEX
  8
0
  5
D23B
 10
-384.672
 20
840.957
 30
0.000000
  70
    32
  0
VERTEX
  8
0
  5
D23C
 10
-384.661
 20
840.960
 30
0.000000
  70
    32
  0
VERTEX
  8
0
  5
D23D
 10
-384.650
 20
840.963
 30
0.000000
  70
    32
  0
VERTEX
  8
0
  5
D23E
 10
-384.638
 20
840.965
 30
0.000000
  70
    32
  0
VERTEX
  8
0
  5
D23F
 10
-384.627
 20
840.968
 30
0.000000
  70
    32
  0
VERTEX
  8
0
  5
D240
 10
-384.616
 20
840.970
 30
0.000000
  70
    32
  0
VERTEX
  8
0
  5
D241
 10
-384.604
 20
840.972
 30
0.000000
  70
    32
  0
VERTEX
  8
0
  5
D242
 10
-384.593
 20
840.975
 30
0.000000
  70
    32
  0
VERTEX
  8
0
  5
D243
 10
-384.582
 20
840.977
 30
0.000000
  70
    32
  0
VERTEX
  8
0
  5
D244
 10
-384.570
 20
840.980
 30
0.000000
  70
    32
  0
VERTEX
  8
0
  5
D245
 10
-384.559
 20
840.982
 30
0.000000
  70
    32
  0
VERTEX
  8
0
  5
D246
 10
-384.548
 20
840.984
 30
0.000000
  70
    32
  0
VERTEX
  8
0
  5
D247
 10
-384.536
 20
840.987
 30
0.000000
  70
    32
  0
VERTEX
  8
0
  5
D248
 10
-384.525
 20
840.989
 30
0.000000
  70
    32
  0
VERTEX
  8
0
  5
D249
 10
-384.514
 20
840.991
 30
0.000000
  70
    32
  0
VERTEX
  8
0
  5
D24A
 10
-384.502
 20
840.993
 30
0.000000
  70
    32
  0
VERTEX
  8
0
  5
D24B
 10
-384.491
 20
840.995
 30
0.000000
  70
    32
  0
VERTEX
  8
0
  5
D24C
 10
-384.480
 20
840.997
 30
0.000000
  70
    32
  0
VERTEX
  8
0
  5
D24D
 10
-384.468
 20
840.999
 30
0.000000
  70
    32
  0
VERTEX
  8
0
  5
D24E
 10
-384.457
 20
841.001
 30
0.000000
  70
    32
  0
VERTEX
  8
0
  5
D24F
 10
-384.446
 20
841.003
 30
0.000000
  70
    32
  0
VERTEX
  8
0
  5
D250
 10
-384.434
 20
841.005
 30
0.000000
  70
    32
  0
VERTEX
  8
0
  5
D251
 10
-384.423
 20
841.007
 30
0.000000
  70
    32
  0
VERTEX
  8
0
  5
D252
 10
-384.411
 20
841.009
 30
0.000000
  70
    32
  0
VERTEX
  8
0
  5
D253
 10
-384.400
 20
841.011
 30
0.000000
  70
    32
  0
VERTEX
  8
0
  5
D254
 10
-384.389
 20
841.012
 30
0.000000
  70
    32
  0
VERTEX
  8
0
  5
D255
 10
-384.377
 20
841.014
 30
0.000000
  70
    32
  0
VERTEX
  8
0
  5
D256
 10
-384.366
 20
841.016
 30
0.000000
  70
    32
  0
VERTEX
  8
0
  5
D257
 10
-384.355
 20
841.017
 30
0.000000
  70
    32
  0
VERTEX
  8
0
  5
D258
 10
-384.343
 20
841.019
 30
0.000000
  70
    32
  0
VERTEX
  8
0
  5
D259
 10
-384.332
 20
841.020
 30
0.000000
  70
    32
  0
VERTEX
  8
0
  5
D25A
 10
-384.320
 20
841.022
 30
0.000000
  70
    32
  0
VERTEX
  8
0
  5
D25B
 10
-384.309
 20
841.023
 30
0.000000
  70
    32
  0
VERTEX
  8
0
  5
D25C
 10
-384.297
 20
841.024
 30
0.000000
  70
    32
  0
VERTEX
  8
0
  5
D25D
 10
-384.286
 20
841.026
 30
0.000000
  70
    32
  0
VERTEX
  8
0
  5
D25E
 10
-384.275
 20
841.027
 30
0.000000
  70
    32
  0
VERTEX
  8
0
  5
D25F
 10
-384.263
 20
841.028
 30
0.000000
  70
    32
  0
VERTEX
  8
0
  5
D260
 10
-384.252
 20
841.029
 30
0.000000
  70
    32
  0
VERTEX
  8
0
  5
D261
 10
-384.240
 20
841.030
 30
0.000000
  70
    32
  0
VERTEX
  8
0
  5
D262
 10
-384.229
 20
841.031
 30
0.000000
  70
    32
  0
VERTEX
  8
0
  5
D263
 10
-384.217
 20
841.031
 30
0.000000
  70
    32
  0
VERTEX
  8
0
  5
D264
 10
-384.206
 20
841.032
 30
0.000000
  70
    32
  0
VERTEX
  8
0
  5
D265
 10
-384.194
 20
841.033
 30
0.000000
  70
    32
  0
VERTEX
  8
0
  5
D266
 10
-384.183
 20
841.034
 30
0.000000
  70
    32
  0
VERTEX
  8
0
  5
D267
 10
-384.171
 20
841.034
 30
0.000000
  70
    32
  0
VERTEX
  8
0
  5
D268
 10
-384.160
 20
841.035
 30
0.000000
  70
    32
  0
VERTEX
  8
0
  5
D269
 10
-384.148
 20
841.035
 30
0.000000
  70
    32
  0
VERTEX
  8
0
  5
D26A
 10
-384.137
 20
841.035
 30
0.000000
  70
    32
  0
VERTEX
  8
0
  5
D26B
 10
-384.125
 20
841.036
 30
0.000000
  70
    32
  0
VERTEX
  8
0
  5
D26C
 10
-384.114
 20
841.036
 30
0.000000
  70
    32
  0
VERTEX
  8
0
  5
D26D
 10
-384.102
 20
841.036
 30
0.000000
  70
    32
  0
VERTEX
  8
0
  5
D26E
 10
-384.091
 20
841.036
 30
0.000000
  70
    32
  0
VERTEX
  8
0
  5
D26F
 10
-384.079
 20
841.036
 30
0.000000
  70
    32
  0
VERTEX
  8
0
  5
D270
 10
-384.068
 20
841.036
 30
0.000000
  70
    32
  0
VERTEX
  8
0
  5
D271
 10
-384.056
 20
841.036
 30
0.000000
  70
    32
  0
VERTEX
  8
0
  5
D272
 10
-384.045
 20
841.036
 30
0.000000
  70
    32
  0
VERTEX
  8
0
  5
D273
 10
-384.033
 20
841.035
 30
0.000000
  70
    32
  0
VERTEX
  8
0
  5
D274
 10
-384.022
 20
841.035
 30
0.000000
  70
    32
  0
VERTEX
  8
0
  5
D275
 10
-384.010
 20
841.035
 30
0.000000
  70
    32
  0
VERTEX
  8
0
  5
D276
 10
-383.999
 20
841.034
 30
0.000000
  70
    32
  0
VERTEX
  8
0
  5
D277
 10
-383.987
 20
841.033
 30
0.000000
  70
    32
  0
VERTEX
  8
0
  5
D278
 10
-383.976
 20
841.033
 30
0.000000
  70
    32
  0
VERTEX
  8
0
  5
D279
 10
-383.964
 20
841.032
 30
0.000000
  70
    32
  0
VERTEX
  8
0
  5
D27A
 10
-383.953
 20
841.031
 30
0.000000
  70
    32
  0
VERTEX
  8
0
  5
D27B
 10
-383.941
 20
841.030
 30
0.000000
  70
    32
  0
VERTEX
  8
0
  5
D27C
 10
-383.930
 20
841.029
 30
0.000000
  70
    32
  0
VERTEX
  8
0
  5
D27D
 10
-383.918
 20
841.028
 30
0.000000
  70
    32
  0
VERTEX
  8
0
  5
D27E
 10
-383.907
 20
841.027
 30
0.000000
  70
    32
  0
VERTEX
  8
0
  5
D27F
 10
-383.895
 20
841.026
 30
0.000000
  70
    32
  0
VERTEX
  8
0
  5
D280
 10
-383.884
 20
841.025
 30
0.000000
  70
    32
  0
VERTEX
  8
0
  5
D281
 10
-383.872
 20
841.024
 30
0.000000
  70
    32
  0
VERTEX
  8
0
  5
D282
 10
-383.861
 20
841.022
 30
0.000000
  70
    32
  0
VERTEX
  8
0
  5
D283
 10
-383.849
 20
841.021
 30
0.000000
  70
    32
  0
VERTEX
  8
0
  5
D284
 10
-383.837
 20
841.019
 30
0.000000
  70
    32
  0
VERTEX
  8
0
  5
D285
 10
-383.826
 20
841.018
 30
0.000000
  70
    32
  0
VERTEX
  8
0
  5
D286
 10
-383.814
 20
841.016
 30
0.000000
  70
    32
  0
VERTEX
  8
0
  5
D287
 10
-383.803
 20
841.014
 30
0.000000
  70
    32
  0
VERTEX
  8
0
  5
D288
 10
-383.791
 20
841.012
 30
0.000000
  70
    32
  0
VERTEX
  8
0
  5
D289
 10
-383.780
 20
841.010
 30
0.000000
  70
    32
  0
VERTEX
  8
0
  5
D28A
 10
-383.768
 20
841.008
 30
0.000000
  70
    32
  0
VERTEX
  8
0
  5
D28B
 10
-383.757
 20
841.006
 30
0.000000
  70
    32
  0
VERTEX
  8
0
  5
D28C
 10
-383.745
 20
841.004
 30
0.000000
  70
    32
  0
VERTEX
  8
0
  5
D28D
 10
-383.734
 20
841.002
 30
0.000000
  70
    32
  0
VERTEX
  8
0
  5
D28E
 10
-383.722
 20
840.999
 30
0.000000
  70
    32
  0
VERTEX
  8
0
  5
D28F
 10
-383.711
 20
840.997
 30
0.000000
  70
    32
  0
VERTEX
  8
0
  5
D290
 10
-383.699
 20
840.995
 30
0.000000
  70
    32
  0
VERTEX
  8
0
  5
D291
 10
-383.688
 20
840.992
 30
0.000000
  70
    32
  0
VERTEX
  8
0
  5
D292
 10
-383.676
 20
840.989
 30
0.000000
  70
    32
  0
VERTEX
  8
0
  5
D293
 10
-383.665
 20
840.987
 30
0.000000
  70
    32
  0
VERTEX
  8
0
  5
D294
 10
-383.653
 20
840.984
 30
0.000000
  70
    32
  0
VERTEX
  8
0
  5
D295
 10
-383.642
 20
840.981
 30
0.000000
  70
    32
  0
VERTEX
  8
0
  5
D296
 10
-383.630
 20
840.978
 30
0.000000
  70
    32
  0
VERTEX
  8
0
  5
D297
 10
-383.619
 20
840.975
 30
0.000000
  70
    32
  0
VERTEX
  8
0
  5
D298
 10
-383.607
 20
840.972
 30
0.000000
  70
    32
  0
VERTEX
  8
0
  5
D299
 10
-383.596
 20
840.969
 30
0.000000
  70
    32
  0
VERTEX
  8
0
  5
D29A
 10
-383.584
 20
840.965
 30
0.000000
  70
    32
  0
VERTEX
  8
0
  5
D29B
 10
-383.573
 20
840.962
 30
0.000000
  70
    32
  0
VERTEX
  8
0
  5
D29C
 10
-383.561
 20
840.959
 30
0.000000
  70
    32
  0
VERTEX
  8
0
  5
D29D
 10
-383.550
 20
840.955
 30
0.000000
  70
    32
  0
VERTEX
  8
0
  5
D29E
 10
-383.539
 20
840.951
 30
0.000000
  70
    32
  0
VERTEX
  8
0
  5
D29F
 10
-383.527
 20
840.948
 30
0.000000
  70
    32
  0
VERTEX
  8
0
  5
D2A0
 10
-383.516
 20
840.944
 30
0.000000
  70
    32
  0
VERTEX
  8
0
  5
D2A1
 10
-383.505
 20
840.940
 30
0.000000
  70
    32
  0
VERTEX
  8
0
  5
D2A2
 10
-383.494
 20
840.936
 30
0.000000
  70
    32
  0
VERTEX
  8
0
  5
D2A3
 10
-383.483
 20
840.932
 30
0.000000
  70
    32
  0
VERTEX
  8
0
  5
D2A4
 10
-383.472
 20
840.927
 30
0.000000
  70
    32
  0
VERTEX
  8
0
  5
D2A5
 10
-383.461
 20
840.923
 30
0.000000
  70
    32
  0
VERTEX
  8
0
  5
D2A6
 10
-383.450
 20
840.919
 30
0.000000
  70
    32
  0
VERTEX
  8
0
  5
D2A7
 10
-383.439
 20
840.914
 30
0.000000
  70
    32
  0
VERTEX
  8
0
  5
D2A8
 10
-383.428
 20
840.909
 30
0.000000
  70
    32
  0
VERTEX
  8
0
  5
D2A9
 10
-383.417
 20
840.905
 30
0.000000
  70
    32
  0
VERTEX
  8
0
  5
D2AA
 10
-383.406
 20
840.900
 30
0.000000
  70
    32
  0
VERTEX
  8
0
  5
D2AB
 10
-383.396
 20
840.895
 30
0.000000
  70
    32
  0
VERTEX
  8
0
  5
D2AC
 10
-383.385
 20
840.889
 30
0.000000
  70
    32
  0
VERTEX
  8
0
  5
D2AD
 10
-383.375
 20
840.884
 30
0.000000
  70
    32
  0
VERTEX
  8
0
  5
D2AE
 10
-383.364
 20
840.879
 30
0.000000
  70
    32
  0
VERTEX
  8
0
  5
D2AF
 10
-383.354
 20
840.873
 30
0.000000
  70
    32
  0
VERTEX
  8
0
  5
D2B0
 10
-383.344
 20
840.868
 30
0.000000
  70
    32
  0
VERTEX
  8
0
  5
D2B1
 10
-383.334
 20
840.862
 30
0.000000
  70
    32
  0
VERTEX
  8
0
  5
D2B2
 10
-383.324
 20
840.856
 30
0.000000
  70
    32
  0
VERTEX
  8
0
  5
D2B3
 10
-383.314
 20
840.850
 30
0.000000
  70
    32
  0
VERTEX
  8
0
  5
D2B4
 10
-383.304
 20
840.844
 30
0.000000
  70
    32
  0
VERTEX
  8
0
  5
D2B5
 10
-383.294
 20
840.838
 30
0.000000
  70
    32
  0
VERTEX
  8
0
  5
D2B6
 10
-383.285
 20
840.831
 30
0.000000
  70
    32
  0
VERTEX
  8
0
  5
D2B7
 10
-383.275
 20
840.825
 30
0.000000
  70
    32
  0
VERTEX
  8
0
  5
D2B8
 10
-383.266
 20
840.818
 30
0.000000
  70
    32
  0
VERTEX
  8
0
  5
D2B9
 10
-383.257
 20
840.811
 30
0.000000
  70
    32
  0
VERTEX
  8
0
  5
D2BA
 10
-383.248
 20
840.804
 30
0.000000
  70
    32
  0
VERTEX
  8
0
  5
D2BB
 10
-383.239
 20
840.797
 30
0.000000
  70
    32
  0
VERTEX
  8
0
  5
D2BC
 10
-383.230
 20
840.790
 30
0.000000
  70
    32
  0
VERTEX
  8
0
  5
D2BD
 10
-383.221
 20
840.782
 30
0.000000
  70
    32
  0
VERTEX
  8
0
  5
D2BE
 10
-383.213
 20
840.775
 30
0.000000
  70
    32
  0
VERTEX
  8
0
  5
D2BF
 10
-383.204
 20
840.767
 30
0.000000
  70
    32
  0
VERTEX
  8
0
  5
D2C0
 10
-383.196
 20
840.759
 30
0.000000
  70
    32
  0
VERTEX
  8
0
  5
D2C1
 10
-383.188
 20
840.751
 30
0.000000
  70
    32
  0
VERTEX
  8
0
  5
D2C2
 10
-383.180
 20
840.743
 30
0.000000
  70
    32
  0
VERTEX
  8
0
  5
D2C3
 10
-383.172
 20
840.735
 30
0.000000
  70
    32
  0
VERTEX
  8
0
  5
D2C4
 10
-383.164
 20
840.726
 30
0.000000
  70
    32
  0
VERTEX
  8
0
  5
D2C5
 10
-383.157
 20
840.718
 30
0.000000
  70
    32
  0
VERTEX
  8
0
  5
D2C6
 10
-383.150
 20
840.709
 30
0.000000
  70
    32
  0
VERTEX
  8
0
  5
D2C7
 10
-383.142
 20
840.700
 30
0.000000
  70
    32
  0
VERTEX
  8
0
  5
D2C8
 10
-383.135
 20
840.691
 30
0.000000
  70
    32
  0
VERTEX
  8
0
  5
D2C9
 10
-383.128
 20
840.682
 30
0.000000
  70
    32
  0
VERTEX
  8
0
  5
D2CA
 10
-383.122
 20
840.673
 30
0.000000
  70
    32
  0
VERTEX
  8
0
  5
D2CB
 10
-383.115
 20
840.663
 30
0.000000
  70
    32
  0
VERTEX
  8
0
  5
D2CC
 10
-383.108
 20
840.654
 30
0.000000
  70
    32
  0
VERTEX
  8
0
  5
D2CD
 10
-383.102
 20
840.644
 30
0.000000
  70
    32
  0
VERTEX
  8
0
  5
D2CE
 10
-383.096
 20
840.635
 30
0.000000
  70
    32
  0
VERTEX
  8
0
  5
D2CF
 10
-383.090
 20
840.625
 30
0.000000
  70
    32
  0
VERTEX
  8
0
  5
D2D0
 10
-383.084
 20
840.615
 30
0.000000
  70
    32
  0
VERTEX
  8
0
  5
D2D1
 10
-383.078
 20
840.605
 30
0.000000
  70
    32
  0
VERTEX
  8
0
  5
D2D2
 10
-383.072
 20
840.595
 30
0.000000
  70
    32
  0
VERTEX
  8
0
  5
D2D3
 10
-383.066
 20
840.584
 30
0.000000
  70
    32
  0
VERTEX
  8
0
  5
D2D4
 10
-383.061
 20
840.574
 30
0.000000
  70
    32
  0
VERTEX
  8
0
  5
D2D5
 10
-383.055
 20
840.564
 30
0.000000
  70
    32
  0
VERTEX
  8
0
  5
D2D6
 10
-383.050
 20
840.553
 30
0.000000
  70
    32
  0
VERTEX
  8
0
  5
D2D7
 10
-383.045
 20
840.543
 30
0.000000
  70
    32
  0
VERTEX
  8
0
  5
D2D8
 10
-383.040
 20
840.532
 30
0.000000
  70
    32
  0
VERTEX
  8
0
  5
D2D9
 10
-383.035
 20
840.522
 30
0.000000
  70
    32
  0
VERTEX
  8
0
  5
D2DA
 10
-383.030
 20
840.511
 30
0.000000
  70
    32
  0
VERTEX
  8
0
  5
D2DB
 10
-383.025
 20
840.500
 30
0.000000
  70
    32
  0
VERTEX
  8
0
  5
D2DC
 10
-383.020
 20
840.489
 30
0.000000
  70
    32
  0
VERTEX
  8
0
  5
D2DD
 10
-383.016
 20
840.479
 30
0.000000
  70
    32
  0
VERTEX
  8
0
  5
D2DE
 10
-383.011
 20
840.468
 30
0.000000
  70
    32
  0
VERTEX
  8
0
  5
D2DF
 10
-383.007
 20
840.457
 30
0.000000
  70
    32
  0
VERTEX
  8
0
  5
D2E0
 10
-383.002
 20
840.446
 30
0.000000
  70
    32
  0
VERTEX
  8
0
  5
D2E1
 10
-382.998
 20
840.435
 30
0.000000
  70
    32
  0
VERTEX
  8
0
  5
D2E2
 10
-382.994
 20
840.424
 30
0.000000
  70
    32
  0
VERTEX
  8
0
  5
D2E3
 10
-382.990
 20
840.413
 30
0.000000
  70
    32
  0
VERTEX
  8
0
  5
D2E4
 10
-382.986
 20
840.402
 30
0.000000
  70
    32
  0
VERTEX
  8
0
  5
D2E5
 10
-382.982
 20
840.391
 30
0.000000
  70
    32
  0
VERTEX
  8
0
  5
D2E6
 10
-382.978
 20
840.380
 30
0.000000
  70
    32
  0
VERTEX
  8
0
  5
D2E7
 10
-382.974
 20
840.369
 30
0.000000
  70
    32
  0
VERTEX
  8
0
  5
D2E8
 10
-382.970
 20
840.358
 30
0.000000
  70
    32
  0
VERTEX
  8
0
  5
D2E9
 10
-382.967
 20
840.347
 30
0.000000
  70
    32
  0
VERTEX
  8
0
  5
D2EA
 10
-382.963
 20
840.335
 30
0.000000
  70
    32
  0
VERTEX
  8
0
  5
D2EB
 10
-382.960
 20
840.324
 30
0.000000
  70
    32
  0
VERTEX
  8
0
  5
D2EC
 10
-382.957
 20
840.313
 30
0.000000
  70
    32
  0
VERTEX
  8
0
  5
D2ED
 10
-382.953
 20
840.302
 30
0.000000
  70
    32
  0
VERTEX
  8
0
  5
D2EE
 10
-382.950
 20
840.291
 30
0.000000
  70
    32
  0
VERTEX
  8
0
  5
D2EF
 10
-382.947
 20
840.280
 30
0.000000
  70
    32
  0
VERTEX
  8
0
  5
D2F0
 10
-382.944
 20
840.268
 30
0.000000
  70
    32
  0
VERTEX
  8
0
  5
D2F1
 10
-382.941
 20
840.257
 30
0.000000
  70
    32
  0
VERTEX
  8
0
  5
D2F2
 10
-382.938
 20
840.246
 30
0.000000
  70
    32
  0
VERTEX
  8
0
  5
D2F3
 10
-382.936
 20
840.235
 30
0.000000
  70
    32
  0
VERTEX
  8
0
  5
D2F4
 10
-382.933
 20
840.224
 30
0.000000
  70
    32
  0
VERTEX
  8
0
  5
D2F5
 10
-382.930
 20
840.212
 30
0.000000
  70
    32
  0
VERTEX
  8
0
  5
D2F6
 10
-382.928
 20
840.201
 30
0.000000
  70
    32
  0
VERTEX
  8
0
  5
D2F7
 10
-382.926
 20
840.190
 30
0.000000
  70
    32
  0
VERTEX
  8
0
  5
D2F8
 10
-382.923
 20
840.178
 30
0.000000
  70
    32
  0
VERTEX
  8
0
  5
D2F9
 10
-382.921
 20
840.167
 30
0.000000
  70
    32
  0
VERTEX
  8
0
  5
D2FA
 10
-382.919
 20
840.156
 30
0.000000
  70
    32
  0
VERTEX
  8
0
  5
D2FB
 10
-382.917
 20
840.144
 30
0.000000
  70
    32
  0
VERTEX
  8
0
  5
D2FC
 10
-382.916
 20
840.133
 30
0.000000
  70
    32
  0
VERTEX
  8
0
  5
D2FD
 10
-382.914
 20
840.122
 30
0.000000
  70
    32
  0
VERTEX
  8
0
  5
D2FE
 10
-382.912
 20
840.110
 30
0.000000
  70
    32
  0
VERTEX
  8
0
  5
D2FF
 10
-382.911
 20
840.099
 30
0.000000
  70
    32
  0
VERTEX
  8
0
  5
D300
 10
-382.909
 20
840.087
 30
0.000000
  70
    32
  0
VERTEX
  8
0
  5
D301
 10
-382.908
 20
840.076
 30
0.000000
  70
    32
  0
VERTEX
  8
0
  5
D302
 10
-382.907
 20
840.065
 30
0.000000
  70
    32
  0
VERTEX
  8
0
  5
D303
 10
-382.906
 20
840.053
 30
0.000000
  70
    32
  0
VERTEX
  8
0
  5
D304
 10
-382.905
 20
840.042
 30
0.000000
  70
    32
  0
VERTEX
  8
0
  5
D305
 10
-382.904
 20
840.030
 30
0.000000
  70
    32
  0
VERTEX
  8
0
  5
D306
 10
-382.903
 20
840.019
 30
0.000000
  70
    32
  0
VERTEX
  8
0
  5
D307
 10
-382.903
 20
840.007
 30
0.000000
  70
    32
  0
VERTEX
  8
0
  5
D308
 10
-382.902
 20
839.996
 30
0.000000
  70
    32
  0
VERTEX
  8
0
  5
D309
 10
-382.902
 20
839.984
 30
0.000000
  70
    32
  0
VERTEX
  8
0
  5
D30A
 10
-382.901
 20
839.973
 30
0.000000
  70
    32
  0
VERTEX
  8
0
  5
D30B
 10
-382.901
 20
839.961
 30
0.000000
  70
    32
  0
VERTEX
  8
0
  5
D30C
 10
-382.901
 20
839.950
 30
0.000000
  70
    32
  0
VERTEX
  8
0
  5
D30D
 10
-382.901
 20
839.938
 30
0.000000
  70
    32
  0
VERTEX
  8
0
  5
D30E
 10
-382.901
 20
839.927
 30
0.000000
  70
    32
  0
VERTEX
  8
0
  5
D30F
 10
-382.901
 20
839.915
 30
0.000000
  70
    32
  0
VERTEX
  8
0
  5
D310
 10
-382.901
 20
839.903
 30
0.000000
  70
    32
  0
VERTEX
  8
0
  5
D311
 10
-382.901
 20
839.892
 30
0.000000
  70
    32
  0
VERTEX
  8
0
  5
D312
 10
-382.901
 20
839.880
 30
0.000000
  70
    32
  0
VERTEX
  8
0
  5
D313
 10
-382.902
 20
839.869
 30
0.000000
  70
    32
  0
VERTEX
  8
0
  5
D314
 10
-382.902
 20
839.857
 30
0.000000
  70
    32
  0
VERTEX
  8
0
  5
D315
 10
-382.902
 20
839.846
 30
0.000000
  70
    32
  0
VERTEX
  8
0
  5
D316
 10
-382.903
 20
839.834
 30
0.000000
  70
    32
  0
VERTEX
  8
0
  5
D317
 10
-382.903
 20
839.822
 30
0.000000
  70
    32
  0
VERTEX
  8
0
  5
D318
 10
-382.903
 20
839.811
 30
0.000000
  70
    32
  0
VERTEX
  8
0
  5
D319
 10
-382.904
 20
839.799
 30
0.000000
  70
    32
  0
VERTEX
  8
0
  5
D31A
 10
-382.904
 20
839.788
 30
0.000000
  70
    32
  0
VERTEX
  8
0
  5
D31B
 10
-382.905
 20
839.776
 30
0.000000
  70
    32
  0
VERTEX
  8
0
  5
D31C
 10
-382.905
 20
839.765
 30
0.000000
  70
    32
  0
VERTEX
  8
0
  5
D31D
 10
-382.906
 20
839.753
 30
0.000000
  70
    32
  0
VERTEX
  8
0
  5
D31E
 10
-382.906
 20
839.741
 30
0.000000
  70
    32
  0
VERTEX
  8
0
  5
D31F
 10
-382.907
 20
839.730
 30
0.000000
  70
    32
  0
VERTEX
  8
0
  5
D320
 10
-382.907
 20
839.718
 30
0.000000
  70
    32
  0
VERTEX
  8
0
  5
D321
 10
-382.908
 20
839.707
 30
0.000000
  70
    32
  0
SEQEND
  8
0
  5
D322
  0
VIEWPORT
  5
BADA
 67
     1
  8
0
 10
5.249999665167536
 20
4.0168608648543138
 30
0.0
 40
16.023543186357209
 41
8.0117715931786062
 68
     1
 69
     1
1001
ACAD
1000
MVIEW
1002
{
1070
    16
1010
0.0
1020
0.0
1030
0.0
1010
0.0
1020
0.0
1030
1.0
1040
0.0
1040
8.0117715931786062
1040
5.249999665167536
1040
4.0168608648543138
1040
50.0
1040
0.0
1040
0.0
1070
     0
1070
   100
1070
     1
1070
     1
1070
     0
1070
     0
1070
     0
1070
     0
1040
0.0
1040
0.0
1040
0.0
1040
0.5
1040
0.5
1040
0.5
1040
0.5
1070
     0
1002
{
1002
}
1002
}
  0
VIEWPORT
  5
BADD
 67
     1
  8
0
 10
5.2499996294871929
 20
4.0166741807634683
 30
0.0
 40
10.44245679893058
 41
7.8813805131999892
 68
     2
 69
     2
1001
ACAD
1000
MVIEW
1002
{
1070
    16
1010
0.0
1020
0.0
1030
0.0
1010
0.0
1020
0.0
1030
1.0
1040
0.0
1040
7.8813805007985662
1040
-385.30295854130537
1040
839.08571015797736
1040
50.0
1040
0.0
1040
0.0
1070
     0
1070
   100
1070
     1
1070
     2
1070
     0
1070
     0
1070
     0
1070
     0
1040
0.0
1040
0.0
1040
0.0
1040
0.5
1040
0.5
1040
0.5
1040
0.5
1070
     0
1002
{
1002
}
1002
}
  0
ENDSEC
  0
EOF
