  0
SECTION
  2
HEADER
  9
$ACADVER
  1
AC1009
  9
$INSBASE
 10
0.0
 20
0.0
 30
0.0
  9
$EXTMIN
 10
-390.21280206415412
 20
834.65667183693085
 30
0.0
  9
$EXTMAX
 10
-380.21353317307199
 20
845.38586254496488
 30
0.0
  9
$LIMMIN
 10
0.0
 20
0.0
  9
$LIMMAX
 10
1500.0
 20
1500.0
  9
$ORTHOMODE
 70
     0
  9
$REGENMODE
 70
     1
  9
$FILLMODE
 70
     1
  9
$QTEXTMODE
 70
     0
  9
$MIRRTEXT
 70
     1
  9
$DRAGMODE
 70
     2
  9
$LTSCALE
 40
1.0
  9
$OSMODE
 70
    37
  9
$ATTMODE
 70
     1
  9
$TEXTSIZE
 40
1.5
  9
$TRACEWID
 40
0.05
  9
$TEXTSTYLE
  7
STANDARD
  9
$CLAYER
  8
0
  9
$CELTYPE
  6
BYLAYER
  9
$CECOLOR
 62
   256
  9
$DIMSCALE
 40
1.0
  9
$DIMASZ
 40
0.75
  9
$DIMEXO
 40
1.5
  9
$DIMDLI
 40
2.0
  9
$DIMRND
 40
0.0
  9
$DIMDLE
 40
0.0
  9
$DIMEXE
 40
1.0
  9
$DIMTP
 40
0.0
  9
$DIMTM
 40
0.0
  9
$DIMTXT
 40
1.5
  9
$DIMCEN
 40
2.0
  9
$DIMTSZ
 40
0.0
  9
$DIMTOL
 70
     0
  9
$DIMLIM
 70
     0
  9
$DIMTIH
 70
     0
  9
$DIMTOH
 70
     0
  9
$DIMSE1
 70
     0
  9
$DIMSE2
 70
     0
  9
$DIMTAD
 70
     1
  9
$DIMZIN
 70
     0
  9
$DIMBLK
  1
ARCHTICK
  9
$DIMASO
 70
     1
  9
$DIMSHO
 70
     1
  9
$DIMPOST
  1
"
  9
$DIMAPOST
  1

  9
$DIMALT
 70
     0
  9
$DIMALTD
 70
     2
  9
$DIMALTF
 40
25.399999999999999
  9
$DIMLFAC
 40
1.0
  9
$DIMTOFL
 70
     0
  9
$DIMTVP
 40
0.0
  9
$DIMTIX
 70
     1
  9
$DIMSOXD
 70
     0
  9
$DIMSAH
 70
     0
  9
$DIMBLK1
  1

  9
$DIMBLK2
  1

  9
$DIMSTYLE
  2
THREE_QUARTER_INCH_SCALE
  9
$DIMCLRD
 70
     0
  9
$DIMCLRE
 70
     0
  9
$DIMCLRT
 70
     0
  9
$DIMTFAC
 40
1.0
  9
$DIMGAP
 40
1.0
  9
$LUNITS
 70
     2
  9
$LUPREC
 70
     4
  9
$SKETCHINC
 40
0.1
  9
$FILLETRAD
 40
0.0
  9
$AUNITS
 70
     0
  9
$AUPREC
 70
     0
  9
$MENU
  1
.
  9
$ELEVATION
 40
0.0
  9
$PELEVATION
 40
0.0
  9
$THICKNESS
 40
0.0
  9
$LIMCHECK
 70
     0
  9
$BLIPMODE
 70
     0
  9
$CHAMFERA
 40
0.5
  9
$CHAMFERB
 40
0.5
  9
$SKPOLY
 70
     0
  9
$TDCREATE
 40
2452089.395738773
  9
$TDUPDATE
 40
2453612.4331217362
  9
$TDINDWG
 40
1.1144938889
  9
$TDUSRTIMER
 40
1.1144935301000001
  9
$USRTIMER
 70
     1
  9
$ANGBASE
 50
0.0
  9
$ANGDIR
 70
     0
  9
$PDMODE
 70
     0
  9
$PDSIZE
 40
10.0
  9
$PLINEWID
 40
0.0
  9
$COORDS
 70
     1
  9
$SPLFRAME
 70
     0
  9
$SPLINETYPE
 70
     6
  9
$SPLINESEGS
 70
     8
  9
$ATTDIA
 70
     0
  9
$ATTREQ
 70
     1
  9
$HANDLING
 70
     1
  9
$HANDSEED
  5
1ADFB
  9
$SURFTAB1
 70
     6
  9
$SURFTAB2
 70
     6
  9
$SURFTYPE
 70
     6
  9
$SURFU
 70
     6
  9
$SURFV
 70
     6
  9
$UCSNAME
  2

  9
$UCSORG
 10
0.0
 20
0.0
 30
0.0
  9
$UCSXDIR
 10
1.0
 20
0.0
 30
0.0
  9
$UCSYDIR
 10
0.0
 20
1.0
 30
0.0
  9
$PUCSNAME
  2

  9
$PUCSORG
 10
0.0
 20
0.0
 30
0.0
  9
$PUCSXDIR
 10
1.0
 20
0.0
 30
0.0
  9
$PUCSYDIR
 10
0.0
 20
1.0
 30
0.0
  9
$USERI1
 70
     0
  9
$USERI2
 70
     0
  9
$USERI3
 70
     0
  9
$USERI4
 70
     0
  9
$USERI5
 70
     0
  9
$USERR1
 40
0.0
  9
$USERR2
 40
0.0
  9
$USERR3
 40
0.0
  9
$USERR4
 40
0.0
  9
$USERR5
 40
0.0
  9
$WORLDVIEW
 70
     1
  9
$SHADEDGE
 70
     3
  9
$SHADEDIF
 70
    70
  9
$TILEMODE
 70
     0
  9
$MAXACTVP
 70
    64
  9
$PLIMCHECK
 70
     0
  9
$PEXTMIN
 10
0.0280982296770773
 20
0.0758747945053777
 30
-0.0000000000112498
  9
$PEXTMAX
 10
10.47163505903136
 20
7.9578465084694647
 30
0.0000000000002956
  9
$PLIMMIN
 10
-0.1682389550263349
 20
-0.2033427855578579
  9
$PLIMMAX
 10
10.754640548407011
 20
8.2370640492290015
  9
$UNITMODE
 70
     0
  9
$VISRETAIN
 70
     1
  9
$PLINEGEN
 70
     0
  9
$PSLTSCALE
 70
     1
  0
ENDSEC
  0
SECTION
  2
TABLES
  0
TABLE
  2
VPORT
 70
     1
  0
VPORT
  2
*ACTIVE
 70
     0
 10
0.0
 20
0.0
 11
1.0
 21
1.0
 12
-386.52380251144001
 22
838.09204166179234
 13
0.0
 23
0.0
 14
0.5
 24
0.5
 15
0.5
 25
0.5
 16
0.0
 26
0.0
 36
1.0
 17
0.0
 27
0.0
 37
0.0
 40
3.930952126162941
 41
2.0226628895184122
 42
50.0
 43
0.0
 44
0.0
 50
0.0
 51
0.0
 71
     0
 72
   100
 73
     1
 74
     2
 75
     0
 76
     0
 77
     0
 78
     0
  0
ENDTAB
  0
TABLE
  2
LTYPE
 70
     2
  0
LTYPE
  2
CONTINUOUS
 70
     0
  3
Solid line
 72
    65
 73
     0
 40
0.0
  0
ENDTAB
  0
TABLE
  2
LAYER
 70
    10
  0
LAYER
  2
0
 70
     0
 62
     7
  6
CONTINUOUS
  0
LAYER
  2
DEFPOINTS
 70
     0
 62
     7
  6
CONTINUOUS
  0
LAYER
  2
FRAME_200
 70
     0
 62
     8
  6
CONTINUOUS
  0
LAYER
  2
FRAME_070
 70
     0
 62
     5
  6
CONTINUOUS
  0
LAYER
  2
FRAME_050
 70
     0
 62
     6
  6
CONTINUOUS
  0
LAYER
  2
TITLE_BLOCK
 70
     0
 62
     7
  6
CONTINUOUS
  0
LAYER
  2
FRAME_025
 70
     0
 62
     7
  6
CONTINUOUS
  0
LAYER
  2
VIEWPORT
 70
     0
 62
     7
  6
CONTINUOUS
  0
LAYER
  2
PROF
 70
     0
 62
     7
  6
CONTINUOUS
  0
LAYER
  2
PROFILE
 70
     0
 62
     7
  6
CONTINUOUS
  0
ENDTAB
  0
TABLE
  2
STYLE
 70
     2
  0
STYLE
  2
STANDARD
 70
     0
 40
0.0
 41
1.0
 50
0.0
 71
     0
 42
1.5
  3
txt
  4

  0
STYLE
  2
ISO_PROPORTIONAL
 70
     0
 40
0.0
 41
1.0
 50
0.0
 71
     0
 42
2.5
  3
isocp.shx
  4

  0
ENDTAB
  0
TABLE
  2
VIEW
 70
     2
  0
ENDTAB
  0
TABLE
  2
UCS
 70
     0
  0
ENDTAB
  0
TABLE
  2
APPID
 70
     6
  0
APPID
  2
ACAD
 70
     0
  0
APPID
  2
DCO15
 70
     0
  0
APPID
  2
ACAD_EXEMPT_FROM_CAD_STANDARDS
 70
     0
  0
APPID
  2
ACAD_PSEXT
 70
     0
  0
APPID
  2
CONTENTBLOCKDESCRIPTION
 70
     0
  0
APPID
  2
CONTENTBLOCKICON
 70
     0
  0
ENDTAB
  0
TABLE
  2
DIMSTYLE
 70
    11
  0
DIMSTYLE
  2
FULL_SCALE
 70
     0
  3
"
  4

  5

  6

  7

 40
1.0
 41
0.046875
 42
0.09375
 43
0.125
 44
0.0625
 45
0.0
 46
0.0
 47
0.0
 48
0.0
140
0.125
141
0.125
142
0.0
143
25.399999999999999
144
1.0
145
0.0
146
1.0
147
0.0625
 71
     0
 72
     0
 73
     0
 74
     0
 75
     0
 76
     0
 77
     1
 78
     0
170
     0
171
     2
172
     0
173
     0
174
     1
175
     0
176
     0
177
     0
178
     0
  0
DIMSTYLE
  2
HALF_SCALE
 70
     0
  3
"
  4

  5

  6

  7

 40
1.0
 41
0.09375
 42
0.1875
 43
0.25
 44
0.125
 45
0.0
 46
0.0
 47
0.0
 48
0.0
140
0.25
141
0.25
142
0.0
143
25.399999999999999
144
1.0
145
0.0
146
1.0
147
0.125
 71
     0
 72
     0
 73
     0
 74
     0
 75
     0
 76
     0
 77
     1
 78
     0
170
     0
171
     2
172
     0
173
     0
174
     1
175
     0
176
     0
177
     0
178
     0
  0
DIMSTYLE
  2
INCH_SCALE
 70
     0
  3
"
  4

  5

  6

  7

 40
1.0
 41
0.5625
 42
1.125
 43
1.5
 44
0.75
 45
0.0
 46
0.0
 47
0.0
 48
0.0
140
1.125
141
1.5
142
0.0
143
25.399999999999999
144
1.0
145
0.0
146
1.0
147
0.75
 71
     0
 72
     0
 73
     0
 74
     0
 75
     0
 76
     0
 77
     1
 78
     0
170
     0
171
     2
172
     0
173
     0
174
     1
175
     0
176
     0
177
     0
178
     0
  0
DIMSTYLE
  2
THREE_QUARTER_INCH_SCALE
 70
     0
  3
"
  4

  5

  6

  7

 40
1.0
 41
0.75
 42
1.5
 43
2.0
 44
1.0
 45
0.0
 46
0.0
 47
0.0
 48
0.0
140
1.5
141
2.0
142
0.0
143
25.399999999999999
144
1.0
145
0.0
146
1.0
147
1.0
 71
     0
 72
     0
 73
     0
 74
     0
 75
     0
 76
     0
 77
     1
 78
     0
170
     0
171
     2
172
     0
173
     0
174
     1
175
     0
176
     0
177
     0
178
     0
  0
DIMSTYLE
  2
ZHALF_INCH_SCALE
 70
     0
  3
"
  4

  5

  6

  7

 40
1.0
 41
1.125
 42
2.25
 43
3.0
 44
1.5
 45
0.0
 46
0.0
 47
0.0
 48
0.0
140
2.25
141
3.0
142
0.0
143
25.399999999999999
144
1.0
145
0.0
146
1.0
147
1.5
 71
     0
 72
     0
 73
     0
 74
     0
 75
     0
 76
     0
 77
     1
 78
     0
170
     0
171
     2
172
     0
173
     0
174
     1
175
     0
176
     0
177
     0
178
     0
  0
DIMSTYLE
  2
FULL_SCALE0
 70
     0
  3
"
  4

  5
ARCHTICK
  6

  7

 40
1.0
 41
0.046875
 42
0.09375
 43
0.125
 44
0.0625
 45
0.0
 46
0.0
 47
0.0
 48
0.0
140
0.125
141
0.125
142
0.0
143
25.399999999999999
144
1.0
145
0.0
146
1.0
147
0.0625
 71
     0
 72
     0
 73
     0
 74
     0
 75
     0
 76
     0
 77
     1
 78
     0
170
     0
171
     2
172
     0
173
     0
174
     1
175
     0
176
     0
177
     0
178
     0
  0
DIMSTYLE
  2
HALF_SCALE0
 70
     0
  3
"
  4

  5
ARCHTICK
  6

  7

 40
1.0
 41
0.09375
 42
0.1875
 43
0.25
 44
0.125
 45
0.0
 46
0.0
 47
0.0
 48
0.0
140
0.25
141
0.25
142
0.0
143
25.399999999999999
144
1.0
145
0.0
146
1.0
147
0.125
 71
     0
 72
     0
 73
     0
 74
     0
 75
     0
 76
     0
 77
     1
 78
     0
170
     0
171
     2
172
     0
173
     0
174
     1
175
     0
176
     0
177
     0
178
     0
  0
DIMSTYLE
  2
INCH_SCALE0
 70
     0
  3
"
  4

  5
ARCHTICK
  6

  7

 40
1.0
 41
0.5625
 42
1.125
 43
1.5
 44
0.75
 45
0.0
 46
0.0
 47
0.0
 48
0.0
140
1.125
141
1.5
142
0.0
143
25.399999999999999
144
1.0
145
0.0
146
1.0
147
0.75
 71
     0
 72
     0
 73
     0
 74
     0
 75
     0
 76
     0
 77
     1
 78
     0
170
     0
171
     2
172
     0
173
     0
174
     1
175
     0
176
     0
177
     0
178
     0
  0
DIMSTYLE
  2
THREE_QUARTER_INCH_SCALE0
 70
     0
  3
"
  4

  5
ARCHTICK
  6

  7

 40
1.0
 41
0.75
 42
1.5
 43
2.0
 44
1.0
 45
0.0
 46
0.0
 47
0.0
 48
0.0
140
1.5
141
2.0
142
0.0
143
25.399999999999999
144
1.0
145
0.0
146
1.0
147
1.0
 71
     0
 72
     0
 73
     0
 74
     0
 75
     0
 76
     0
 77
     1
 78
     0
170
     0
171
     2
172
     0
173
     0
174
     1
175
     0
176
     0
177
     0
178
     0
  0
DIMSTYLE
  2
ZHALF_INCH_SCALE0
 70
     0
  3
"
  4

  5
ARCHTICK
  6

  7

 40
1.0
 41
1.125
 42
2.25
 43
3.0
 44
1.5
 45
0.0
 46
0.0
 47
0.0
 48
0.0
140
2.25
141
3.0
142
0.0
143
25.399999999999999
144
1.0
145
0.0
146
1.0
147
1.5
 71
     0
 72
     0
 73
     0
 74
     0
 75
     0
 76
     0
 77
     1
 78
     0
170
     0
171
     2
172
     0
173
     0
174
     1
175
     0
176
     0
177
     0
178
     0
  0
ENDTAB
  0
ENDSEC
  0
SECTION
  2
BLOCKS
  0
BLOCK
  8
0
  2
$MODEL_SPACE
 70
     0
 10
0.0
 20
0.0
 30
0.0
  3
$MODEL_SPACE
  1

  0
ENDBLK
  5
C9DC
  8
0
  0
BLOCK
 67
     1
  8
0
  2
$PAPER_SPACE
 70
     0
 10
0.0
 20
0.0
 30
0.0
  3
$PAPER_SPACE
  1

  0
ENDBLK
  5
C9D8
 67
     1
  8
0
  0
BLOCK
  8
0
  2
_ARCHTICK
 70
     0
 10
0.0
 20
0.0
 30
0.0
  3
_ARCHTICK
  1

  0
POLYLINE
  5
158
  8
0
  6
BYBLOCK
 62
     0
 66
     1
 10
0.0
 20
0.0
 30
0.0
 40
0.15
 41
0.15
  0
VERTEX
  5
1A2BE
  8
0
  6
BYBLOCK
 62
     0
 10
-0.5
 20
-0.5
 30
0.0
  0
VERTEX
  5
1A2BF
  8
0
  6
BYBLOCK
 62
     0
 10
0.5
 20
0.5
 30
0.0
  0
SEQEND
  5
1A2C0
  8
0
  6
BYBLOCK
 62
     0
  0
ENDBLK
  5
15A
  8
0
  0
BLOCK
  8
0
  2
_OPEN30
 70
     0
 10
0.0
 20
0.0
 30
0.0
  3
_OPEN30
  1

  0
LINE
  5
15C
  8
0
  6
BYBLOCK
 62
     0
 10
-1.0
 20
0.26794919
 30
0.0
 11
0.0
 21
0.0
 31
0.0
  0
LINE
  5
15D
  8
0
  6
BYBLOCK
 62
     0
 10
0.0
 20
0.0
 30
0.0
 11
-1.0
 21
-0.26794919
 31
0.0
  0
LINE
  5
15E
  8
0
  6
BYBLOCK
 62
     0
 10
0.0
 20
0.0
 30
0.0
 11
-1.0
 21
0.0
 31
0.0
  0
ENDBLK
  5
160
  8
0
  0
BLOCK
  8
0
  2
ISO_A2_TITLE_BLOCK
 70
     2
 10
0.0
 20
0.0
 30
0.0
  3
ISO_A2_TITLE_BLOCK
  1

  0
LINE
  5
BDD
  8
FRAME_050
 10
299.5
 20
12.5
 30
0.0
 11
297.0
 21
7.5
 31
0.0
  0
LINE
  5
BDE
  8
FRAME_050
 10
294.5
 20
12.5
 30
0.0
 11
299.5
 21
12.5
 31
0.0
  0
LINE
  5
BDF
  8
FRAME_050
 10
247.0
 20
5.0
 30
0.0
 11
347.0
 21
5.0
 31
0.0
  0
LINE
  5
BE0
  8
FRAME_070
 10
584.0
 20
410.0
 30
0.0
 11
10.0
 21
410.0
 31
0.0
  0
LINE
  5
BE1
  8
FRAME_070
 10
10.0
 20
10.0
 30
0.0
 11
584.0
 21
10.0
 31
0.0
  0
LINE
  5
BE2
  8
FRAME_050
 10
12.5
 20
207.5
 30
0.0
 11
7.5
 21
210.0
 31
0.0
  0
LINE
  5
BE3
  8
FRAME_050
 10
12.5
 20
212.5
 30
0.0
 11
12.5
 21
207.5
 31
0.0
  0
LINE
  5
BE4
  8
FRAME_070
 10
10.0
 20
410.0
 30
0.0
 11
10.0
 21
10.0
 31
0.0
  0
LINE
  5
BE5
  8
FRAME_200
 10
0.0
 20
0.0
 30
0.0
 11
0.0
 21
10.0
 31
0.0
  0
LINE
  5
BE6
  8
FRAME_200
 10
0.0
 20
0.0
 30
0.0
 11
10.0
 21
0.0
 31
0.0
  0
TEXT
  5
BE7
  8
FRAME_050
 10
5.9000000000000004
 20
35.0
 30
0.0
 40
4.0
  1
H
  7
ISO_PROPORTIONAL
 72
     4
 11
7.5
 21
37.0
 31
0.0
  0
LINE
  5
BE8
  8
FRAME_050
 10
10.0
 20
60.0
 30
0.0
 11
5.0
 21
60.0
 31
0.0
  0
LINE
  5
BE9
  8
FRAME_050
 10
81.75
 20
5.0
 30
0.0
 11
81.75
 21
10.0
 31
0.0
  0
TEXT
  5
BEA
  8
FRAME_050
 10
44.874999999999993
 20
5.5
 30
0.0
 40
4.0
  1
1
  7
ISO_PROPORTIONAL
 72
     4
 11
45.875
 21
7.5
 31
0.0
  0
TEXT
  5
BEB
  8
FRAME_050
 10
6.0035533905932743
 20
85.0
 30
0.0
 40
4.0
  1
G
  7
ISO_PROPORTIONAL
 72
     4
 11
7.5
 21
87.0
 31
0.0
  0
LINE
  5
BEC
  8
FRAME_050
 10
10.0
 20
110.0
 30
0.0
 11
5.0
 21
110.0
 31
0.0
  0
TEXT
  5
BED
  8
FRAME_050
 10
6.0999999999999988
 20
135.0
 30
0.0
 40
4.0
  1
F
  7
ISO_PROPORTIONAL
 72
     4
 11
7.5
 21
137.0
 31
0.0
  0
LINE
  5
BEE
  8
FRAME_050
 10
10.0
 20
160.0
 30
0.0
 11
5.0
 21
160.0
 31
0.0
  0
TEXT
  5
BEF
  8
FRAME_050
 10
6.0999999999999988
 20
185.0
 30
0.0
 40
4.0
  1
E
  7
ISO_PROPORTIONAL
 72
     4
 11
7.5
 21
187.0
 31
0.0
  0
LINE
  5
BF0
  8
FRAME_050
 10
153.5
 20
5.0
 30
0.0
 11
153.5
 21
10.0
 31
0.0
  0
TEXT
  5
BF1
  8
FRAME_050
 10
116.1556692913386
 20
5.3996062992125982
 30
0.0
 40
4.0
  1
2
  7
ISO_PROPORTIONAL
 72
     4
 11
117.625
 21
7.5
 31
0.0
  0
TEXT
  5
BF2
  8
FRAME_050
 10
187.89215728752529
 20
5.5828427124746138
 30
0.0
 40
4.0
  1
3
  7
ISO_PROPORTIONAL
 72
     4
 11
189.375
 21
7.5
 31
0.0
  0
LINE
  5
BF3
  8
FRAME_050
 10
225.25
 20
5.0
 30
0.0
 11
225.25
 21
10.0
 31
0.0
  0
LINE
  5
BF4
  8
FRAME_050
 10
297.0
 20
7.5
 30
0.0
 11
294.5
 21
12.5
 31
0.0
  0
LINE
  5
BF5
  8
FRAME_050
 10
287.0
 20
5.0
 30
0.0
 11
287.0
 21
10.0
 31
0.0
  0
LINE
  5
BF6
  8
FRAME_050
 10
277.0
 20
5.0
 30
0.0
 11
277.0
 21
10.0
 31
0.0
  0
LINE
  5
BF7
  8
FRAME_050
 10
267.0
 20
5.0
 30
0.0
 11
267.0
 21
10.0
 31
0.0
  0
LINE
  5
BF8
  8
FRAME_050
 10
257.0
 20
5.0
 30
0.0
 11
257.0
 21
10.0
 31
0.0
  0
LINE
  5
BF9
  8
FRAME_050
 10
247.0
 20
5.0
 30
0.0
 11
247.0
 21
10.0
 31
0.0
  0
LINE
  5
BFA
  8
FRAME_050
 10
297.0
 20
10.0
 30
0.0
 11
297.0
 21
5.0
 31
0.0
  0
LINE
  5
BFB
  8
FRAME_050
 10
297.0
 20
10.0
 30
0.0
 11
297.0
 21
15.0
 31
0.0
  0
LINE
  5
BFC
  8
FRAME_050
 10
5.0
 20
210.0
 30
0.0
 11
15.0
 21
210.0
 31
0.0
  0
LINE
  5
BFD
  8
FRAME_050
 10
7.5
 20
210.0
 30
0.0
 11
12.5
 21
212.5
 31
0.0
  0
TEXT
  5
BFE
  8
FRAME_050
 10
5.7860912703473977
 20
235.0
 30
0.0
 40
4.0
  1
D
  7
ISO_PROPORTIONAL
 72
     4
 11
7.5
 21
237.0
 31
0.0
  0
LINE
  5
BFF
  8
FRAME_050
 10
10.0
 20
260.0
 30
0.0
 11
5.0
 21
260.0
 31
0.0
  0
TEXT
  5
C00
  8
FRAME_050
 10
6.1931980515339466
 20
285.0
 30
0.0
 40
4.0
  1
C
  7
ISO_PROPORTIONAL
 72
     4
 11
7.5
 21
287.0
 31
0.0
  0
LINE
  5
C01
  8
FRAME_050
 10
10.0
 20
310.0
 30
0.0
 11
5.0
 21
310.0
 31
0.0
  0
TEXT
  5
C02
  8
FRAME_050
 10
5.8999999999999959
 20
335.0
 30
0.0
 40
4.0
  1
B
  7
ISO_PROPORTIONAL
 72
     4
 11
7.5
 21
337.0
 31
0.0
  0
LINE
  5
C03
  8
FRAME_050
 10
10.0
 20
360.0
 30
0.0
 11
5.0
 21
360.0
 31
0.0
  0
TEXT
  5
C04
  8
FRAME_050
 10
5.6999999999999993
 20
385.0
 30
0.0
 40
4.0
  1
A
  7
ISO_PROPORTIONAL
 72
     4
 11
7.5
 21
387.0
 31
0.0
  0
LINE
  5
C05
  8
FRAME_200
 10
10.0
 20
420.0
 30
0.0
 11
0.0
 21
420.0
 31
0.0
  0
LINE
  5
C06
  8
FRAME_200
 10
0.0
 20
420.0
 30
0.0
 11
0.0
 21
410.0
 31
0.0
  0
TEXT
  5
C07
  8
FRAME_050
 10
44.874999999999993
 20
410.5
 30
0.0
 40
4.0
  1
1
  7
ISO_PROPORTIONAL
 72
     4
 11
45.875
 21
412.5
 31
0.0
  0
LINE
  5
C08
  8
FRAME_050
 10
81.75
 20
410.0
 30
0.0
 11
81.75
 21
415.0
 31
0.0
  0
TEXT
  5
C09
  8
FRAME_050
 10
116.1556692913386
 20
410.39960629921262
 30
0.0
 40
4.0
  1
2
  7
ISO_PROPORTIONAL
 72
     4
 11
117.625
 21
412.5
 31
0.0
  0
LINE
  5
C0A
  8
FRAME_050
 10
153.5
 20
410.0
 30
0.0
 11
153.5
 21
415.0
 31
0.0
  0
TEXT
  5
C0B
  8
FRAME_050
 10
187.89215728752529
 20
410.58284271247459
 30
0.0
 40
4.0
  1
3
  7
ISO_PROPORTIONAL
 72
     4
 11
189.375
 21
412.5
 31
0.0
  0
LINE
  5
C0C
  8
FRAME_050
 10
297.0
 20
405.0
 30
0.0
 11
297.0
 21
415.0
 31
0.0
  0
LINE
  5
C0D
  8
FRAME_050
 10
225.25
 20
410.0
 30
0.0
 11
225.25
 21
415.0
 31
0.0
  0
TEXT
  5
C0E
  8
FRAME_050
 10
259.52499999999998
 20
410.5
 30
0.0
 40
4.0
  1
4
  7
ISO_PROPORTIONAL
 72
     4
 11
261.125
 21
412.5
 31
0.0
  0
LINE
  5
C0F
  8
FRAME_070
 10
584.0
 20
10.0
 30
0.0
 11
584.0
 21
410.0
 31
0.0
  0
ATTDEF
  5
C10
  8
FRAME_025
 10
473.0
 20
31.75
 30
0.0
 40
2.5
  1
XXX - 00/00/00
  7
ISO_PROPORTIONAL
 11
473.0
 21
33.0
 31
0.0
  3
Approved by - Date
  2
APPROVED_BY_DATE
 70
     8
 74
     2
  0
TEXT
  5
C11
  8
FRAME_025
 10
448.0
 20
41.749999999999993
 30
0.0
 40
2.5
  1
Title/Name, designation, material, dimension etc
  7
ISO_PROPORTIONAL
 11
448.0
 21
43.0
 31
0.0
 73
     2
  0
TEXT
  5
C12
  8
FRAME_025
 10
473.0
 20
35.75
 30
0.0
 40
2.5
  1
Approved by - date
  7
ISO_PROPORTIONAL
 11
473.0
 21
37.0
 31
0.0
 73
     2
  0
LINE
  5
C13
  8
FRAME_070
 10
414.0
 20
46.0
 30
0.0
 11
584.0
 21
46.0
 31
0.0
  0
LINE
  5
C14
  8
FRAME_070
 10
414.0
 20
40.0
 30
0.0
 11
584.0
 21
40.0
 31
0.0
  0
LINE
  5
C15
  8
FRAME_070
 10
414.0
 20
30.0
 30
0.0
 11
584.0
 21
30.0
 31
0.0
  0
LINE
  5
C16
  8
FRAME_050
 10
368.75
 20
5.0
 30
0.0
 11
368.75
 21
10.0
 31
0.0
  0
LINE
  5
C17
  8
FRAME_050
 10
337.0
 20
5.0
 30
0.0
 11
337.0
 21
10.0
 31
0.0
  0
LINE
  5
C18
  8
FRAME_050
 10
327.0
 20
5.0
 30
0.0
 11
327.0
 21
10.0
 31
0.0
  0
LINE
  5
C19
  8
FRAME_050
 10
317.0
 20
5.0
 30
0.0
 11
317.0
 21
10.0
 31
0.0
  0
LINE
  5
C1A
  8
FRAME_050
 10
307.0
 20
5.0
 30
0.0
 11
307.0
 21
10.0
 31
0.0
  0
LINE
  5
C1B
  8
FRAME_050
 10
347.0
 20
5.0
 30
0.0
 11
347.0
 21
10.0
 31
0.0
  0
LINE
  5
C1C
  8
FRAME_050
 10
440.5
 20
5.0
 30
0.0
 11
440.5
 21
10.0
 31
0.0
  0
TEXT
  5
C1D
  8
FRAME_050
 10
403.24547244094481
 20
5.4102362204724406
 30
0.0
 40
4.0
  1
6
  7
ISO_PROPORTIONAL
 72
     4
 11
404.62499999999989
 21
7.5
 31
0.0
  0
TEXT
  5
C1E
  8
FRAME_050
 10
474.97499999999991
 20
5.5
 30
0.0
 40
4.0
  1
7
  7
ISO_PROPORTIONAL
 72
     4
 11
476.37499999999989
 21
7.5
 31
0.0
  0
TEXT
  5
C1F
  8
FRAME_025
 10
431.0
 20
41.749999999999993
 30
0.0
 40
2.5
  1
Quantity
  7
ISO_PROPORTIONAL
 11
431.0
 21
43.0
 31
0.0
 73
     2
  0
TEXT
  5
C20
  8
FRAME_025
 10
416.0
 20
41.749999999999993
 30
0.0
 40
2.5
  1
Itemref
  7
ISO_PROPORTIONAL
 11
416.0
 21
43.0
 31
0.0
 73
     2
  0
LINE
  5
C21
  8
FRAME_070
 10
414.0
 20
40.0
 30
0.0
 11
414.0
 21
46.0
 31
0.0
  0
LINE
  5
C22
  8
FRAME_070
 10
429.0
 20
40.0
 30
0.0
 11
429.0
 21
46.0
 31
0.0
  0
LINE
  5
C23
  8
FRAME_070
 10
414.0
 20
10.0
 30
0.0
 11
414.0
 21
40.0
 31
0.0
  0
ATTDEF
  5
C24
  8
FRAME_025
 10
416.0
 20
31.75
 30
0.0
 40
2.5
  1
XXX
  7
ISO_PROPORTIONAL
 11
416.0
 21
33.0
 31
0.0
  3
Designed by
  2
DESIGNED_BY
 70
     8
 74
     2
  0
TEXT
  5
C25
  8
FRAME_025
 10
416.0
 20
35.75
 30
0.0
 40
2.5
  1
Designed by
  7
ISO_PROPORTIONAL
 11
416.0
 21
37.0
 31
0.0
 73
     2
  0
LINE
  5
C26
  8
FRAME_070
 10
446.0
 20
40.0
 30
0.0
 11
446.0
 21
46.0
 31
0.0
  0
ATTDEF
  5
C27
  8
FRAME_025
 10
448.0
 20
31.75
 30
0.0
 40
2.5
  1
XXX
  7
ISO_PROPORTIONAL
 11
448.0
 21
33.0
 31
0.0
  3
Checked by
  2
CHECKED_BY
 70
     8
 74
     2
  0
TEXT
  5
C28
  8
FRAME_025
 10
448.0
 20
35.75
 30
0.0
 40
2.5
  1
Checked by
  7
ISO_PROPORTIONAL
 11
448.0
 21
37.0
 31
0.0
 73
     2
  0
ATTDEF
  5
C29
  8
FRAME_050
 10
444.74999999999989
 20
17.5
 30
0.0
 40
5.0
  1
XXX
  7
ISO_PROPORTIONAL
 72
     4
 11
451.49999999999989
 21
20.0
 31
0.0
  3
Owner
  2
OWNER
 70
     8
  0
LINE
  5
C2A
  8
FRAME_070
 10
446.0
 20
30.0
 30
0.0
 11
446.0
 21
40.0
 31
0.0
  0
LINE
  5
C2B
  8
FRAME_070
 10
471.0
 20
30.0
 30
0.0
 11
471.0
 21
40.0
 31
0.0
  0
LINE
  5
C2C
  8
FRAME_070
 10
489.0
 20
20.0
 30
0.0
 11
584.0
 21
20.0
 31
0.0
  0
LINE
  5
C2D
  8
FRAME_050
 10
512.25
 20
5.0
 30
0.0
 11
512.25
 21
10.0
 31
0.0
  0
TEXT
  5
C2E
  8
FRAME_050
 10
546.72499999999991
 20
5.5
 30
0.0
 40
4.0
  1
8
  7
ISO_PROPORTIONAL
 72
     4
 11
548.125
 21
7.5
 31
0.0
  0
ATTDEF
  5
C2F
  8
FRAME_050
 10
517.64999999999986
 20
13.5
 30
0.0
 40
3.0
  1
X
  7
ISO_PROPORTIONAL
 72
     4
 11
519.0
 21
15.0
 31
0.0
  3
Drawing number
  2
DRAWING_NUMBER
 70
     8
  0
ATTDEF
  5
C30
  8
FRAME_050
 10
529.75
 20
22.5
 30
0.0
 40
5.0
  1
XXX
  7
ISO_PROPORTIONAL
 72
     4
 11
536.5
 21
25.0
 31
0.0
  3
Title / Name
  2
TITLE
 70
     8
  0
LINE
  5
C31
  8
FRAME_070
 10
489.0
 20
10.0
 30
0.0
 11
489.0
 21
30.0
 31
0.0
  0
ATTDEF
  5
C32
  8
FRAME_025
 10
511.0
 20
31.75
 30
0.0
 40
2.5
  1
XXX
  7
ISO_PROPORTIONAL
 11
511.0
 21
33.0
 31
0.0
  3
Filename
  2
FILENAME
 70
     8
 74
     2
  0
TEXT
  5
C33
  8
FRAME_025
 10
511.0
 20
35.75
 30
0.0
 40
2.5
  1
Filename
  7
ISO_PROPORTIONAL
 11
511.0
 21
37.0
 31
0.0
 73
     2
  0
LINE
  5
C34
  8
FRAME_070
 10
509.0
 20
30.0
 30
0.0
 11
509.0
 21
40.0
 31
0.0
  0
TEXT
  5
C35
  8
FRAME_025
 10
536.0
 20
41.749999999999993
 30
0.0
 40
2.5
  1
Article No./Reference
  7
ISO_PROPORTIONAL
 11
536.0
 21
43.0
 31
0.0
 73
     2
  0
LINE
  5
C36
  8
FRAME_070
 10
534.0
 20
40.0
 30
0.0
 11
534.0
 21
46.0
 31
0.0
  0
ATTDEF
  5
C37
  8
FRAME_025
 10
551.0
 20
11.75
 30
0.0
 40
2.5
  1
0
  7
ISO_PROPORTIONAL
 11
551.0
 21
13.0
 31
0.0
  3
Edition
  2
EDITION
 70
     8
 74
     2
  0
TEXT
  5
C38
  8
FRAME_025
 10
551.0
 20
15.75
 30
0.0
 40
2.5
  1
Edition
  7
ISO_PROPORTIONAL
 11
551.0
 21
17.0
 31
0.0
 73
     2
  0
LINE
  5
C39
  8
FRAME_070
 10
549.0
 20
10.0
 30
0.0
 11
549.0
 21
20.0
 31
0.0
  0
ATTDEF
  5
C3A
  8
FRAME_025
 10
536.0
 20
31.75
 30
0.0
 40
2.5
  1
00/00/00
  7
ISO_PROPORTIONAL
 11
536.0
 21
33.0
 31
0.0
  3
Date
  2
DATE
 70
     8
 74
     2
  0
TEXT
  5
C3B
  8
FRAME_025
 10
536.0
 20
35.75
 30
0.0
 40
2.5
  1
Date
  7
ISO_PROPORTIONAL
 11
536.0
 21
37.0
 31
0.0
 73
     2
  0
LINE
  5
C3C
  8
FRAME_070
 10
534.0
 20
30.0
 30
0.0
 11
534.0
 21
40.0
 31
0.0
  0
ATTDEF
  5
C3D
  8
FRAME_025
 10
566.0
 20
11.75
 30
0.0
 40
2.5
  1
1/1
  7
ISO_PROPORTIONAL
 11
566.0
 21
13.0
 31
0.0
  3
Sheet
  2
SHEET
 70
     8
 74
     2
  0
TEXT
  5
C3E
  8
FRAME_025
 10
566.0
 20
15.75
 30
0.0
 40
2.5
  1
Sheet
  7
ISO_PROPORTIONAL
 11
566.0
 21
17.0
 31
0.0
 73
     2
  0
LINE
  5
C3F
  8
FRAME_070
 10
564.0
 20
10.0
 30
0.0
 11
564.0
 21
20.0
 31
0.0
  0
ATTDEF
  5
C40
  8
FRAME_025
 10
566.0
 20
31.75
 30
0.0
 40
2.5
  1
1:1
  7
ISO_PROPORTIONAL
 11
566.0
 21
33.0
 31
0.0
  3
Scale
  2
SCALE
 70
     8
 74
     2
  0
TEXT
  5
C41
  8
FRAME_025
 10
566.0
 20
35.75
 30
0.0
 40
2.5
  1
Scale
  7
ISO_PROPORTIONAL
 11
566.0
 21
37.0
 31
0.0
 73
     2
  0
LINE
  5
C42
  8
FRAME_070
 10
564.0
 20
30.0
 30
0.0
 11
564.0
 21
40.0
 31
0.0
  0
LINE
  5
C43
  8
FRAME_200
 10
594.0
 20
0.0
 30
0.0
 11
594.0
 21
10.0
 31
0.0
  0
LINE
  5
C44
  8
FRAME_200
 10
594.0
 20
0.0
 30
0.0
 11
584.0
 21
0.0
 31
0.0
  0
TEXT
  5
C45
  8
FRAME_050
 10
584.89999999999998
 20
35.0
 30
0.0
 40
4.0
  1
H
  7
ISO_PROPORTIONAL
 72
     4
 11
586.5
 21
37.0
 31
0.0
  0
LINE
  5
C46
  8
FRAME_050
 10
589.0
 20
60.0
 30
0.0
 11
584.0
 21
60.0
 31
0.0
  0
TEXT
  5
C47
  8
FRAME_050
 10
585.0035533905932
 20
85.0
 30
0.0
 40
4.0
  1
G
  7
ISO_PROPORTIONAL
 72
     4
 11
586.5
 21
87.0
 31
0.0
  0
LINE
  5
C48
  8
FRAME_050
 10
589.0
 20
110.0
 30
0.0
 11
584.0
 21
110.0
 31
0.0
  0
TEXT
  5
C49
  8
FRAME_050
 10
585.09999999999991
 20
135.0
 30
0.0
 40
4.0
  1
F
  7
ISO_PROPORTIONAL
 72
     4
 11
586.5
 21
137.0
 31
0.0
  0
LINE
  5
C4A
  8
FRAME_050
 10
589.0
 20
160.0
 30
0.0
 11
584.0
 21
160.0
 31
0.0
  0
TEXT
  5
C4B
  8
FRAME_050
 10
585.09999999999991
 20
185.0
 30
0.0
 40
4.0
  1
E
  7
ISO_PROPORTIONAL
 72
     4
 11
586.5
 21
187.0
 31
0.0
  0
LINE
  5
C4C
  8
FRAME_070
 10
414.0
 20
404.0
 30
0.0
 11
584.0
 21
404.0
 31
0.0
  0
TEXT
  5
C4D
  8
FRAME_050
 10
331.39215728752538
 20
410.58284271247459
 30
0.0
 40
4.0
  1
5
  7
ISO_PROPORTIONAL
 72
     4
 11
332.875
 21
412.5
 31
0.0
  0
LINE
  5
C4E
  8
FRAME_050
 10
368.75
 20
410.0
 30
0.0
 11
368.75
 21
415.0
 31
0.0
  0
TEXT
  5
C4F
  8
FRAME_025
 10
428.0
 20
405.75
 30
0.0
 40
2.5
  1
Revision note
  7
ISO_PROPORTIONAL
 11
428.0
 21
407.0
 31
0.0
 73
     2
  0
TEXT
  5
C50
  8
FRAME_025
 10
416.0
 20
405.75
 30
0.0
 40
2.5
  1
RevNo
  7
ISO_PROPORTIONAL
 11
416.0
 21
407.0
 31
0.0
 73
     2
  0
LINE
  5
C51
  8
FRAME_070
 10
426.0
 20
404.0
 30
0.0
 11
426.0
 21
410.0
 31
0.0
  0
LINE
  5
C52
  8
FRAME_070
 10
414.0
 20
404.0
 30
0.0
 11
414.0
 21
410.0
 31
0.0
  0
TEXT
  5
C53
  8
FRAME_050
 10
403.24547244094481
 20
410.41023622047243
 30
0.0
 40
4.0
  1
6
  7
ISO_PROPORTIONAL
 72
     4
 11
404.62499999999989
 21
412.5
 31
0.0
  0
LINE
  5
C54
  8
FRAME_050
 10
440.5
 20
410.0
 30
0.0
 11
440.5
 21
415.0
 31
0.0
  0
TEXT
  5
C55
  8
FRAME_050
 10
474.97499999999991
 20
410.5
 30
0.0
 40
4.0
  1
7
  7
ISO_PROPORTIONAL
 72
     4
 11
476.37499999999989
 21
412.5
 31
0.0
  0
LINE
  5
C56
  8
FRAME_050
 10
579.0
 20
210.0
 30
0.0
 11
589.0
 21
210.0
 31
0.0
  0
TEXT
  5
C57
  8
FRAME_050
 10
584.78609127034736
 20
235.0
 30
0.0
 40
4.0
  1
D
  7
ISO_PROPORTIONAL
 72
     4
 11
586.5
 21
237.0
 31
0.0
  0
LINE
  5
C58
  8
FRAME_050
 10
589.0
 20
260.0
 30
0.0
 11
584.0
 21
260.0
 31
0.0
  0
TEXT
  5
C59
  8
FRAME_050
 10
585.19319805153395
 20
285.0
 30
0.0
 40
4.0
  1
C
  7
ISO_PROPORTIONAL
 72
     4
 11
586.5
 21
287.0
 31
0.0
  0
LINE
  5
C5A
  8
FRAME_050
 10
589.0
 20
310.0
 30
0.0
 11
584.0
 21
310.0
 31
0.0
  0
TEXT
  5
C5B
  8
FRAME_050
 10
584.89999999999998
 20
335.0
 30
0.0
 40
4.0
  1
B
  7
ISO_PROPORTIONAL
 72
     4
 11
586.5
 21
337.0
 31
0.0
  0
TEXT
  5
C5C
  8
FRAME_025
 10
571.08299391850551
 20
405.75
 30
0.0
 40
2.5
  1
Checked
  7
ISO_PROPORTIONAL
 11
571.08299391850551
 21
407.0
 31
0.0
 73
     2
  0
TEXT
  5
C5D
  8
FRAME_025
 10
555.36099797283521
 20
405.75
 30
0.0
 40
2.5
  1
Signature
  7
ISO_PROPORTIONAL
 11
555.36099797283521
 21
407.0
 31
0.0
 73
     2
  0
TEXT
  5
C5E
  8
FRAME_025
 10
537.0
 20
405.75
 30
0.0
 40
2.5
  1
Date
  7
ISO_PROPORTIONAL
 11
537.0
 21
407.0
 31
0.0
 73
     2
  0
LINE
  5
C5F
  8
FRAME_070
 10
570.0
 20
404.0
 30
0.0
 11
570.0
 21
410.0
 31
0.0
  0
LINE
  5
C60
  8
FRAME_070
 10
555.0
 20
404.0
 30
0.0
 11
555.0
 21
410.0
 31
0.0
  0
LINE
  5
C61
  8
FRAME_070
 10
535.0
 20
404.0
 30
0.0
 11
535.0
 21
410.0
 31
0.0
  0
LINE
  5
C62
  8
FRAME_050
 10
512.25
 20
410.0
 30
0.0
 11
512.25
 21
415.0
 31
0.0
  0
TEXT
  5
C63
  8
FRAME_050
 10
546.72499999999991
 20
410.5
 30
0.0
 40
4.0
  1
8
  7
ISO_PROPORTIONAL
 72
     4
 11
548.125
 21
412.5
 31
0.0
  0
LINE
  5
C64
  8
FRAME_050
 10
589.0
 20
360.0
 30
0.0
 11
584.0
 21
360.0
 31
0.0
  0
TEXT
  5
C65
  8
FRAME_050
 10
584.70000000000005
 20
385.0
 30
0.0
 40
4.0
  1
A
  7
ISO_PROPORTIONAL
 72
     4
 11
586.5
 21
387.0
 31
0.0
  0
LINE
  5
C66
  8
FRAME_200
 10
594.0
 20
420.0
 30
0.0
 11
584.0
 21
420.0
 31
0.0
  0
LINE
  5
C67
  8
FRAME_200
 10
594.0
 20
410.0
 30
0.0
 11
594.0
 21
420.0
 31
0.0
  0
ENDBLK
  5
C69
  8
0
  0
BLOCK
  8
0
  2
WOBB001END
 70
     0
 10
0.0
 20
0.0
 30
0.0
  3
WOBB001END
  1

  0
LINE
  5
4D66
  8
0
  6
CONTINUOUS
 10
0.0
 20
0.0
 30
0.0
 11
0.8749999999999998
 21
0.0
 31
0.0
  0
ARC
  5
4D67
  8
0
  6
CONTINUOUS
 10
0.0331648379439287
 20
-0.5087238935900234
 30
0.0
 40
0.8790130605592325
 50
284.06490243660443
 51
312.19222981924361
  0
ARC
  5
4D68
  8
0
  6
CONTINUOUS
 10
0.2841534338796767
 20
-1.510548310625538
 30
0.0
 40
0.1537731892806598
 50
104.0649024366044
 51
179.4721730735024
  0
LINE
  5
4D69
  8
0
  6
CONTINUOUS
 10
0.0
 20
0.0
 30
0.0
 11
-0.0000000000000003
 21
-1.7501564476661911
 31
0.0
  0
ARC
  5
4D6A
  8
0
  6
CONTINUOUS
 10
0.1404622019506122
 20
-1.630313718354619
 30
0.0
 40
0.1198427293115722
 50
275.0
 51
85.000000000000057
  0
LINE
  5
4D6B
  8
0
  6
CONTINUOUS
 10
-0.0000000000000003
 20
-1.7501564476661911
 30
0.0
 11
0.1456946485130855
 21
-1.7501564476661911
 31
0.0
  0
LINE
  5
4D6C
  8
0
  6
CONTINUOUS
 10
0.1377603739254348
 20
-1.7508506067459131
 30
0.0
 11
0.150907184036669
 21
-1.7497004098996509
 31
0.0
  0
LINE
  5
4D6D
  8
0
  6
CONTINUOUS
 10
0.1303867696719884
 20
-1.5091317231818231
 30
0.0
 11
0.1509071840366689
 21
-1.510927026809586
 31
0.0
  0
LINE
  5
4D6E
  8
0
  6
CONTINUOUS
 10
0.8749999999999998
 20
0.0
 30
0.0
 11
0.8749999999999996
 21
-0.8649327026588228
 31
0.0
  0
LINE
  5
4D6F
  8
0
  6
CONTINUOUS
 10
0.727014513830997
 20
-0.872688293355061
 30
0.0
 11
0.727014513830997
 21
-0.9264923397184784
 31
0.0
  0
ARC
  5
4D70
  8
0
  6
CONTINUOUS
 10
0.41187090827646
 20
-0.9264923397184784
 30
0.0
 40
0.3151436055545369
 50
312.19222981924361
 51
0.0
  0
LINE
  5
4D71
  8
0
  6
CONTINUOUS
 10
0.727014513830997
 20
-0.872688293355061
 30
0.0
 11
0.8749999999999996
 21
-0.8649327026588228
 31
0.0
  0
ENDBLK
  5
4D72
  8
0
  0
BLOCK
  8
0
  2
A$C0A61123B
 70
     0
 10
0.0
 20
0.0
 30
0.0
  3
A$C0A61123B
  1

  0
LINE
  5
C0AD
  8
PROF
  6
CONTINUOUS
 10
4.9012016798694162
 20
13.325025853350891
 30
0.0000000000000002
 11
4.9012016798694162
 21
12.88585218805485
 31
0.0000000000000003
  0
INSERT
  5
C0AE
  8
0
  2
*U7
 10
0.0
 20
0.0
 30
0.0
  0
LINE
  5
C0AF
  8
PROF
 10
4.519857503186925
 20
12.72227734589444
 30
0.0000000000000001
 11
4.519857503186925
 21
12.88585218805485
 31
0.0000000000000001
  0
LINE
  5
C0B0
  8
PROF
  6
CONTINUOUS
 10
3.6306271195888362
 20
13.325025853350891
 30
0.0000000000000002
 11
4.9012016798694162
 21
13.325025853350891
 31
0.0000000000000002
  0
LINE
  5
C0B1
  8
PROF
 10
1.9750295148747341
 20
10.37671325491794
 30
0.0000000000000002
 11
1.9750295148747341
 21
10.11391186758919
 31
0.0000000000000002
  0
LINE
  5
C0B2
  8
PROF
 10
1.6079673357556299
 20
10.11391186758919
 30
0.0000000000000001
 11
1.9750295148747341
 21
10.11391186758919
 31
0.0000000000000001
  0
LINE
  5
C0B3
  8
PROF
 10
1.9750295148747341
 20
10.11391186758919
 30
0.0000000000000001
 11
1.944958486898144
 21
10.11391186758919
 31
0.0000000000000001
  0
LINE
  5
C0B4
  8
PROF
 10
1.9750295148747341
 20
10.11391186758919
 30
0.0000000000000001
 11
1.944958486898144
 21
10.11391186758919
 31
0.0000000000000001
  0
LINE
  5
C0B5
  8
PROF
 10
0.3222605517169654
 20
7.5247473351056451
 30
-0.0000000000000002
 11
-0.0000008570117416
 21
7.5247473351056451
 31
0.0
  0
LINE
  5
C0B6
  8
PROF
 10
-0.0000008570117416
 20
7.5247473351056451
 30
0.0
 11
-0.0000008570117416
 21
9.1943336957369848
 31
0.0
  0
POLYLINE
  5
C0B7
  8
PROF
 66
     1
 10
0.0
 20
0.0
 30
0.0000000000000001
 70
     4
 75
     6
  0
VERTEX
  5
C0B8
  8
PROF
 10
1.6079673357556299
 20
10.11391186758919
 30
0.0000000000000001
 70
    16
  0
VERTEX
  5
C0B9
  8
PROF
 10
1.6079673357556299
 20
10.11391186758919
 30
0.0000000000000001
 70
     8
  0
VERTEX
  5
C0BA
  8
PROF
 10
1.6468132326485809
 20
10.02198069336111
 30
0.0000000000000001
 70
     8
  0
VERTEX
  5
C0BB
  8
PROF
 10
1.67335966680929
 20
9.9344134163010231
 30
0.0000000000000001
 70
     8
  0
VERTEX
  5
C0BC
  8
PROF
 10
1.6890086400463229
 20
9.8512576644480951
 30
0.0000000000000001
 70
     8
  0
VERTEX
  5
C0BD
  8
PROF
 10
1.6951621541682571
 20
9.7725610658417281
 30
0.0000000000000001
 70
     8
  0
VERTEX
  5
C0BE
  8
PROF
 10
1.693222210983605
 20
9.6983712485214237
 30
0.0000000000000001
 70
     8
  0
VERTEX
  5
C0BF
  8
PROF
 10
1.6845908123009961
 20
9.6287358405263603
 30
0.0000000000000001
 70
     8
  0
VERTEX
  5
C0C0
  8
PROF
 10
1.670669959928885
 20
9.5637024698960431
 30
0.0000000000000001
 70
     8
  0
VERTEX
  5
C0C1
  8
PROF
 10
1.6528616556759621
 20
9.5033187646697552
 30
0.0000000000000001
 70
     8
  0
VERTEX
  5
C0C2
  8
PROF
 10
1.632356299273054
 20
9.4475843259650691
 30
0.0000000000000001
 70
     8
  0
VERTEX
  5
C0C3
  8
PROF
 10
1.609497882140658
 20
9.3963066472123273
 30
0.0000000000000001
 70
     8
  0
VERTEX
  5
C0C4
  8
PROF
 10
1.584418793621637
 20
9.3492451949202842
 30
0.0000000000000001
 70
     8
  0
VERTEX
  5
C0C5
  8
PROF
 10
1.5572514230587431
 20
9.3061594355972357
 30
0.0000000000000001
 70
     8
  0
VERTEX
  5
C0C6
  8
PROF
 10
1.5281281597949601
 20
9.2668088357519274
 30
0.0000000000000001
 70
     8
  0
VERTEX
  5
C0C7
  8
PROF
 10
1.497181393172978
 20
9.2309528618929981
 30
0.0000000000000001
 70
     8
  0
VERTEX
  5
C0C8
  8
PROF
 10
1.4645435125357249
 20
9.1983509805288541
 30
0.0000000000000001
 70
     8
  0
VERTEX
  5
C0C9
  8
PROF
 10
1.4303469072260091
 20
9.1687626581682462
 30
0.0000000000000001
 70
     8
  0
VERTEX
  5
C0CA
  8
PROF
 10
1.394736033257401
 20
9.1419547918675335
 30
0.0000000000000001
 70
     8
  0
VERTEX
  5
C0CB
  8
PROF
 10
1.3579036133264131
 20
9.1177240008747713
 30
0.0000000000000001
 70
     8
  0
VERTEX
  5
C0CC
  8
PROF
 10
1.3200544368004321
 20
9.0958743349860924
 30
0.0000000000000001
 70
     8
  0
VERTEX
  5
C0CD
  8
PROF
 10
1.281393293046676
 20
9.0762098439975034
 30
0.0000000000000001
 70
     8
  0
VERTEX
  5
C0CE
  8
PROF
 10
1.2421249714324161
 20
9.0585345777049042
 30
0.0000000000000001
 70
     8
  0
VERTEX
  5
C0CF
  8
PROF
 10
1.202454261324986
 20
9.0426525859044187
 30
0.0000000000000001
 70
     8
  0
VERTEX
  5
C0D0
  8
PROF
 10
1.162585952091659
 20
9.0283679183919503
 30
0.0000000000000001
 70
     8
  0
VERTEX
  5
C0D1
  8
PROF
 10
1.1227248330997091
 20
9.0154846249635021
 30
0.0000000000000001
 70
     8
  0
VERTEX
  5
C0D2
  8
PROF
 10
1.0829726247361
 20
9.0034643862466055
 30
0.0000000000000001
 70
     8
  0
VERTEX
  5
C0D3
  8
PROF
 10
1.043018771466222
 20
8.9903994061946833
 30
0.0000000000000001
 70
     8
  0
VERTEX
  5
C0D4
  8
PROF
 10
1.002449648775211
 20
8.9740395195925622
 30
0.0000000000000001
 70
     8
  0
VERTEX
  5
C0D5
  8
PROF
 10
0.9608516321480919
 20
8.9521345612251935
 30
0.0000000000000001
 70
     8
  0
VERTEX
  5
C0D6
  8
PROF
 10
0.9178110970699435
 20
8.9224343658775052
 30
0.0000000000000001
 70
     8
  0
VERTEX
  5
C0D7
  8
PROF
 10
0.8729144190259033
 20
8.8826887683343312
 30
0.0000000000000001
 70
     8
  0
VERTEX
  5
C0D8
  8
PROF
 10
0.8257479735009949
 20
8.8306476033806121
 30
0.0000000000000001
 70
     8
  0
VERTEX
  5
C0D9
  8
PROF
 10
0.7758981359802988
 20
8.764060705801171
 30
0.0000000000000001
 70
     8
  0
VERTEX
  5
C0DA
  8
PROF
 10
1.7292019016096549
 20
9.8629858761255491
 30
0.0000000000000001
 70
    16
  0
VERTEX
  5
C0DB
  8
PROF
 10
1.679373123114088
 20
9.4532143012734213
 30
0.0000000000000001
 70
    16
  0
VERTEX
  5
C0DC
  8
PROF
 10
1.4455611507419801
 20
9.1391837193732481
 30
0.0000000000000001
 70
    16
  0
VERTEX
  5
C0DD
  8
PROF
 10
1.1204637172738201
 20
9.0026267702428413
 30
0.0000000000000001
 70
    16
  0
VERTEX
  5
C0DE
  8
PROF
 10
0.9127765582653638
 20
8.9630202230383702
 30
0.0000000000000001
 70
    16
  0
VERTEX
  5
C0DF
  8
PROF
 10
0.7758981359802988
 20
8.764060705801171
 30
0.0000000000000001
 70
    16
  0
SEQEND
  5
C0E0
  8
PROF
  0
ARC
  5
C0E1
  8
PROF
 10
0.733429816733235
 20
8.4849506952165257
 30
0.0000000000000001
 40
0.2823224329524727
 50
269.73652020831901
 51
81.348449993176914
  0
LINE
  5
C0E2
  8
PROF
  6
CONTINUOUS
 10
-0.0000008570117416
 20
9.1943336957369848
 30
-0.0000000000000001
 11
3.6306271195888362
 21
13.325025853350891
 31
0.0000000000000002
  0
POLYLINE
  5
C0E3
  8
PROF
 66
     1
 10
0.0
 20
0.0
 30
0.0000000000000001
 70
     4
 75
     6
  0
VERTEX
  5
C0E4
  8
PROF
 10
4.519857503186925
 20
12.72227734589444
 30
0.0000000000000001
 70
    16
  0
VERTEX
  5
C0E5
  8
PROF
 10
4.519857503186925
 20
12.72227734589444
 30
0.0000000000000001
 70
     8
  0
VERTEX
  5
C0E6
  8
PROF
 10
4.4467035366886289
 20
12.741128108778071
 30
0.0000000000000001
 70
     8
  0
VERTEX
  5
C0E7
  8
PROF
 10
4.3786645761268801
 20
12.754675269913941
 30
0.0000000000000001
 70
     8
  0
VERTEX
  5
C0E8
  8
PROF
 10
4.3154364111440469
 20
12.76334314092332
 30
0.0000000000000001
 70
     8
  0
VERTEX
  5
C0E9
  8
PROF
 10
4.256714831382566
 20
12.76755603342724
 30
0.0000000000000001
 70
     8
  0
VERTEX
  5
C0EA
  8
PROF
 10
4.2021956264849791
 20
12.76773825904672
 30
0.0000000000000001
 70
     8
  0
VERTEX
  5
C0EB
  8
PROF
 10
4.1515745860935436
 20
12.764314129403139
 30
0.0000000000000001
 70
     8
  0
VERTEX
  5
C0EC
  8
PROF
 10
4.1045474998508649
 20
12.75770795611743
 30
0.0000000000000001
 70
     8
  0
VERTEX
  5
C0ED
  8
PROF
 10
4.0608101573993149
 20
12.748344050810831
 30
0.0000000000000001
 70
     8
  0
VERTEX
  5
C0EE
  8
PROF
 10
4.0200583483813261
 20
12.736646725104491
 30
0.0000000000000001
 70
     8
  0
VERTEX
  5
C0EF
  8
PROF
 10
3.981987862439381
 20
12.72304029061945
 30
0.0000000000000001
 70
     8
  0
VERTEX
  5
C0F0
  8
PROF
 10
3.946294489215858
 20
12.707949058976959
 30
0.0000000000000001
 70
     8
  0
VERTEX
  5
C0F1
  8
PROF
 10
3.912674018353242
 20
12.691797341798059
 30
0.0000000000000001
 70
     8
  0
VERTEX
  5
C0F2
  8
PROF
 10
3.8808638350742499
 20
12.67494295718654
 30
0.0000000000000001
 70
     8
  0
VERTEX
  5
C0F3
  8
PROF
 10
3.850767706922738
 20
12.65747774917668
 30
0.0000000000000001
 70
     8
  0
VERTEX
  5
C0F4
  8
PROF
 10
3.8223309970228438
 20
12.639427068285499
 30
0.0000000000000001
 70
     8
  0
VERTEX
  5
C0F5
  8
PROF
 10
3.795499068498712
 20
12.62081626503004
 30
0.0000000000000001
 70
     8
  0
VERTEX
  5
C0F6
  8
PROF
 10
3.7702172844744819
 20
12.601670689926999
 30
0.0000000000000001
 70
     8
  0
VERTEX
  5
C0F7
  8
PROF
 10
3.7464310080743521
 20
12.58201569349364
 30
0.0000000000000001
 70
     8
  0
VERTEX
  5
C0F8
  8
PROF
 10
3.7240856024224609
 20
12.56187662624666
 30
0.0000000000000001
 70
     8
  0
VERTEX
  5
C0F9
  8
PROF
 10
3.7031264306428961
 20
12.541278838703191
 30
0.0000000000000001
 70
     8
  0
VERTEX
  5
C0FA
  8
PROF
 10
3.683498855859908
 20
12.520247681380051
 30
0.0000000000000001
 70
     8
  0
VERTEX
  5
C0FB
  8
PROF
 10
3.665148241197528
 20
12.49880850479428
 30
0.0000000000000001
 70
     8
  0
VERTEX
  5
C0FC
  8
PROF
 10
3.648019949779949
 20
12.47698665946279
 30
0.0000000000000001
 70
     8
  0
VERTEX
  5
C0FD
  8
PROF
 10
3.6320593447313159
 20
12.45480749590263
 30
0.0000000000000001
 70
     8
  0
VERTEX
  5
C0FE
  8
PROF
 10
3.617189584886658
 20
12.43223790353807
 30
0.0000000000000001
 70
     8
  0
VERTEX
  5
C0FF
  8
PROF
 10
3.6032450119242849
 20
12.40901092742285
 30
0.0000000000000001
 70
     8
  0
VERTEX
  5
C100
  8
PROF
 10
3.590037763233453
 20
12.38480115151844
 30
0.0000000000000001
 70
     8
  0
VERTEX
  5
C101
  8
PROF
 10
3.5773799762033032
 20
12.35928315978594
 30
0.0000000000000001
 70
     8
  0
VERTEX
  5
C102
  8
PROF
 10
3.5650837882230899
 20
12.33213153618658
 30
0.0000000000000001
 70
     8
  0
VERTEX
  5
C103
  8
PROF
 10
3.552961336681959
 20
12.303020864681571
 30
0.0000000000000001
 70
     8
  0
VERTEX
  5
C104
  8
PROF
 10
3.540824758969165
 20
12.271625729232371
 30
0.0000000000000001
 70
     8
  0
VERTEX
  5
C105
  8
PROF
 10
3.528486192473848
 20
12.23762071379997
 30
0.0000000000000001
 70
     8
  0
VERTEX
  5
C106
  8
PROF
 10
3.5157577745852659
 20
12.200680402345711
 30
0.0000000000000001
 70
     8
  0
VERTEX
  5
C107
  8
PROF
 10
3.502451642692618
 20
12.16047937883093
 30
0.0000000000000001
 70
     8
  0
VERTEX
  5
C108
  8
PROF
 10
3.4883799341851041
 20
12.116692227216619
 30
0.0000000000000001
 70
     8
  0
VERTEX
  5
C109
  8
PROF
 10
3.4733547864519201
 20
12.06899353146423
 30
0.0000000000000001
 70
     8
  0
VERTEX
  5
C10A
  8
PROF
 10
3.45723654619428
 20
12.0172095445447
 30
0.0000000000000001
 70
     8
  0
VERTEX
  5
C10B
  8
PROF
 10
3.440078397361388
 20
11.961773195467799
 30
0.0000000000000001
 70
     8
  0
VERTEX
  5
C10C
  8
PROF
 10
3.4219817332145781
 20
11.90326908225302
 30
0.0000000000000001
 70
     8
  0
VERTEX
  5
C10D
  8
PROF
 10
3.4030479470150099
 20
11.842281802919951
 30
0.0000000000000001
 70
     8
  0
VERTEX
  5
C10E
  8
PROF
 10
3.383378432024017
 20
11.779395955487979
 30
0.0000000000000001
 70
     8
  0
VERTEX
  5
C10F
  8
PROF
 10
3.36307458150287
 20
11.7151961379768
 30
0.0000000000000001
 70
     8
  0
VERTEX
  5
C110
  8
PROF
 10
3.342237788712735
 20
11.650266948405831
 30
0.0000000000000001
 70
     8
  0
VERTEX
  5
C111
  8
PROF
 10
3.3209694469149991
 20
11.58519298479461
 30
0.0000000000000001
 70
     8
  0
VERTEX
  5
C112
  8
PROF
 10
3.299370949370767
 20
11.52055884516254
 30
0.0000000000000001
 70
     8
  0
VERTEX
  5
C113
  8
PROF
 10
3.277543689341428
 20
11.456949127529461
 30
0.0000000000000001
 70
     8
  0
VERTEX
  5
C114
  8
PROF
 10
3.2555890600881399
 20
11.3949484299145
 30
0.0000000000000001
 70
     8
  0
VERTEX
  5
C115
  8
PROF
 10
3.2336084548721811
 20
11.335141350337491
 30
0.0000000000000001
 70
     8
  0
VERTEX
  5
C116
  8
PROF
 10
3.2116715641212181
 20
11.277995447977769
 30
0.0000000000000001
 70
     8
  0
VERTEX
  5
C117
  8
PROF
 10
3.1897212669278461
 20
11.22351012665467
 30
0.0000000000000001
 70
     8
  0
VERTEX
  5
C118
  8
PROF
 10
3.1676687395512881
 20
11.17156775134765
 30
0.0000000000000001
 70
     8
  0
VERTEX
  5
C119
  8
PROF
 10
3.1454251582505321
 20
11.12205068703588
 30
0.0000000000000001
 70
     8
  0
VERTEX
  5
C11A
  8
PROF
 10
3.122901699284625
 20
11.07484129869874
 30
0.0000000000000001
 70
     8
  0
VERTEX
  5
C11B
  8
PROF
 10
3.1000095389127278
 20
11.02982195131551
 30
0.0000000000000001
 70
     8
  0
VERTEX
  5
C11C
  8
PROF
 10
3.07665985339389
 20
10.986875009865679
 30
0.0000000000000001
 70
     8
  0
VERTEX
  5
C11D
  8
PROF
 10
3.0527638189871591
 20
10.9458828393283
 30
0.0000000000000001
 70
     8
  0
VERTEX
  5
C11E
  8
PROF
 10
3.0282326119516361
 20
10.90672780468298
 30
0.0000000000000001
 70
     8
  0
VERTEX
  5
C11F
  8
PROF
 10
3.0029774085463701
 20
10.869292270908771
 30
0.0000000000000001
 70
     8
  0
VERTEX
  5
C120
  8
PROF
 10
2.9769093850304089
 20
10.833458602985161
 30
0.0000000000000001
 70
     8
  0
VERTEX
  5
C121
  8
PROF
 10
2.9499397176628559
 20
10.799109165891419
 30
0.0000000000000001
 70
     8
  0
VERTEX
  5
C122
  8
PROF
 10
2.922000609840437
 20
10.76614363969508
 30
0.0000000000000001
 70
     8
  0
VERTEX
  5
C123
  8
PROF
 10
2.8931083735102998
 20
10.7345309648158
 30
0.0000000000000001
 70
     8
  0
VERTEX
  5
C124
  8
PROF
 10
2.8633003477572729
 20
10.70425739676193
 30
0.0000000000000001
 70
     8
  0
VERTEX
  5
C125
  8
PROF
 10
2.8326138716660689
 20
10.67530919104115
 30
0.0000000000000001
 70
     8
  0
VERTEX
  5
C126
  8
PROF
 10
2.801086284321626
 20
10.647672603161711
 30
0.0000000000000001
 70
     8
  0
VERTEX
  5
C127
  8
PROF
 10
2.7687549248087162
 20
10.62133388863162
 30
0.0000000000000001
 70
     8
  0
VERTEX
  5
C128
  8
PROF
 10
2.7356571322120531
 20
10.5962793029588
 30
0.0000000000000001
 70
     8
  0
VERTEX
  5
C129
  8
PROF
 10
2.7018302456165202
 20
10.572495101651381
 30
0.0000000000000001
 70
     8
  0
VERTEX
  5
C12A
  8
PROF
 10
2.6673116041068838
 20
10.54996754021726
 30
0.0000000000000001
 70
     8
  0
VERTEX
  5
C12B
  8
PROF
 10
2.6321385467680321
 20
10.528682874164581
 30
0.0000000000000001
 70
     8
  0
VERTEX
  5
C12C
  8
PROF
 10
2.5963484126846179
 20
10.508627359001251
 30
0.0000000000000001
 70
     8
  0
VERTEX
  5
C12D
  8
PROF
 10
2.5599785409415841
 20
10.489787250235279
 30
0.0000000000000001
 70
     8
  0
VERTEX
  5
C12E
  8
PROF
 10
2.522998630314361
 20
10.472162234281081
 30
0.0000000000000001
 70
     8
  0
VERTEX
  5
C12F
  8
PROF
 10
2.4851078183409072
 20
10.455805721177621
 30
0.0000000000000001
 70
     8
  0
VERTEX
  5
C130
  8
PROF
 10
2.4459376022498982
 20
10.44078455187036
 30
0.0000000000000001
 70
     8
  0
VERTEX
  5
C131
  8
PROF
 10
2.4051194792701249
 20
10.42716556730465
 30
0.0000000000000001
 70
     8
  0
VERTEX
  5
C132
  8
PROF
 10
2.3622849466301541
 20
10.415015608425851
 30
0.0000000000000001
 70
     8
  0
VERTEX
  5
C133
  8
PROF
 10
2.317065501558714
 20
10.40440151617929
 30
0.0000000000000001
 70
     8
  0
VERTEX
  5
C134
  8
PROF
 10
2.2690926412844301
 20
10.395390131510339
 30
0.0000000000000001
 70
     8
  0
VERTEX
  5
C135
  8
PROF
 10
2.2179978630360879
 20
10.388048295364451
 30
0.0000000000000001
 70
     8
  0
VERTEX
  5
C136
  8
PROF
 10
2.1634126640422551
 20
10.38244284868688
 30
0.0000000000000001
 70
     8
  0
VERTEX
  5
C137
  8
PROF
 10
2.1049685415316031
 20
10.37864063242295
 30
0.0000000000000001
 70
     8
  0
VERTEX
  5
C138
  8
PROF
 10
2.0422969927328709
 20
10.37670848751816
 30
0.0000000000000001
 70
     8
  0
VERTEX
  5
C139
  8
PROF
 10
1.9750295148747341
 20
10.37671325491794
 30
0.0000000000000001
 70
     8
  0
VERTEX
  5
C13A
  8
PROF
 10
4.2166060115107484
 20
12.80885334975255
 30
0.0000000000000001
 70
    16
  0
VERTEX
  5
C13B
  8
PROF
 10
3.8702254102732909
 20
12.707065515763929
 30
0.0000000000000001
 70
    16
  0
VERTEX
  5
C13C
  8
PROF
 10
3.605346156896871
 20
12.46277472098552
 30
0.0000000000000001
 70
    16
  0
VERTEX
  5
C13D
  8
PROF
 10
3.500746030527238
 20
12.170680575709749
 30
0.0000000000000001
 70
    16
  0
VERTEX
  5
C13E
  8
PROF
 10
3.231798439705698
 20
11.26846416496107
 30
0.0000000000000001
 70
    16
  0
VERTEX
  5
C13F
  8
PROF
 10
2.9737109398832882
 20
10.76631086647069
 30
0.0000000000000001
 70
    16
  0
VERTEX
  5
C140
  8
PROF
 10
2.5729961067384002
 20
10.460947364504699
 30
0.0000000000000001
 70
    16
  0
VERTEX
  5
C141
  8
PROF
 10
2.2537826214546031
 20
10.372731239449759
 30
0.0000000000000001
 70
    16
  0
VERTEX
  5
C142
  8
PROF
 10
1.9750295148747341
 20
10.37671325491794
 30
0.0000000000000001
 70
    16
  0
SEQEND
  5
C143
  8
PROF
  0
LINE
  5
C144
  8
PROF
 10
4.9012016798694162
 20
12.88585218805485
 30
0.0000000000000003
 11
4.519857503186925
 21
12.88585218805485
 31
0.0000000000000003
  0
LINE
  5
C145
  8
PROF
 10
0.7321315362267457
 20
8.2026312473991556
 30
0.0000000000000006
 11
0.7321315362267457
 21
8.0511853963434952
 31
0.0000000000000006
  0
ARC
  5
C146
  8
PROF
 10
0.7977322214551919
 20
7.577333933202679
 30
0.0000000000000006
 40
0.4783708383912013
 50
97.882010168942557
 51
186.31119505698641
  0
LINE
  5
C147
  8
FRAME_050
 10
7.8016377197432121
 20
17.99371054969447
 30
0.0
 11
7.8016377197432121
 21
0.0000000000002274
 31
0.0
  0
ENDBLK
  5
C149
  8
0
  0
BLOCK
  8
0
  2
*U7
 70
     1
 10
0.0
 20
0.0
 30
0.0
  3
*U7
  1

  0
TEXT
  5
C8C3
  8
0
 10
3.5177832928899071
 20
10.38601584255777
 30
0.0
 40
0.125
  1
Crown Moulding
  0
TEXT
  5
C8C4
  8
0
 10
3.5223876585106431
 20
10.17717091304435
 30
0.0
 40
0.125
  1
TL-AB509
  0
TEXT
  5
C8C5
  8
0
 10
3.5074661032582561
 20
9.9667059289606801
 30
0.0
 40
0.125
  1
1-5/16" x 7-9/16"
  0
TEXT
  5
C8C6
  8
0
 10
3.519403347460166
 20
9.7562409448770051
 30
0.0
 40
0.125
  1
800.66.TAGUE
  0
ENDBLK
  5
C8C8
  8
0
  0
BLOCK
  8
0
  2
*U8
 70
     1
 10
0.0
 20
0.0
 30
0.0
  3
*U8
  1

  0
TEXT
  5
C8CA
  8
0
 10
5.3066868277875692
 20
1.767659498411035
 30
0.0
 40
0.125
  1
Back Band
  0
TEXT
  5
C8CB
  8
0
 10
5.3153839628489603
 20
1.55881456889762
 30
0.0
 40
0.125
  1
TL-1
  0
TEXT
  5
C8CC
  8
0
 10
5.3004624075965721
 20
1.3483495848139451
 30
0.0
 40
0.125
  1
1-3/8" x 1-9/16"
  0
TEXT
  5
C8CD
  8
0
 10
5.3123996517984811
 20
1.1378846007302701
 30
0.0
 40
0.125
  1
800.66.TAGUE
  0
ENDBLK
  5
C8CF
  8
0
  0
BLOCK
  8
0
  2
*U9
 70
     1
 10
0.0
 20
0.0
 30
0.0
  3
*U9
  1

  0
TEXT
  5
C8D1
  8
0
 10
-385.7580743253551
 20
838.2627455404056
 30
0.0
 40
0.125
  1
Back Band
  0
TEXT
  5
C8D2
  8
0
 10
-385.74937719029373
 20
838.05390061089247
 30
0.0
 40
0.125
  1
TL-1
  0
TEXT
  5
C8D3
  8
0
 10
-385.76429874554611
 20
837.84343562680851
 30
0.0
 40
0.125
  1
1-3/8" x 1-9/16"
  0
TEXT
  5
C8D4
  8
0
 10
-385.75236150134418
 20
837.63297064272513
 30
0.0
 40
0.125
  1
800.66.TAGUE
  0
ENDBLK
  5
C8D6
  8
0
  0
BLOCK
  8
0
  2
*D21
 70
     1
 10
0.0
 20
0.0
 30
0.0
  3
*D21
  1

  0
LINE
  5
CDAB
  8
0
 62
     0
 10
-346.64573732984462
 20
509.42191863586828
 30
0.0
 11
-346.03266106471222
 21
509.42191863586828
 31
0.0
  0
LINE
  5
CDAC
  8
0
 62
     0
 10
-347.59461414974379
 20
507.61166709199199
 30
0.0
 11
-346.03266106471222
 21
507.61166709199199
 31
0.0
  0
LINE
  5
CDAD
  8
0
 62
     0
 10
-346.09516106471222
 20
509.42191863586828
 30
0.0
 11
-346.09516106471222
 21
507.61166709199199
 31
0.0
  0
INSERT
  5
CDAE
  8
0
 62
     0
  2
_ARCHTICK
 10
-346.09516106471222
 20
509.42191863586828
 30
0.0
 41
0.046875
 42
0.046875
 43
0.046875
 50
90.0
  0
INSERT
  5
CDAF
  8
0
 62
     0
  2
_ARCHTICK
 10
-346.09516106471222
 20
507.61166709199199
 30
0.0
 41
0.046875
 42
0.046875
 43
0.046875
 50
270.0
  0
INSERT
  5
CDB0
  8
0
  2
*U159
 10
0.0
 20
0.0
 30
0.0
  0
POINT
  5
CDB1
  8
DEFPOINTS
 62
     0
 10
-346.73948732984462
 20
509.42191863586828
 30
0.0
  0
POINT
  5
CDB2
  8
DEFPOINTS
 62
     0
 10
-347.68836414974379
 20
507.61166709199199
 30
0.0
  0
POINT
  5
CDB3
  8
DEFPOINTS
 62
     0
 10
-346.09516106471222
 20
507.61166709199199
 30
0.0
  0
ENDBLK
  5
CDB4
  8
0
  0
BLOCK
  8
0
  2
*D23
 70
     1
 10
0.0
 20
0.0
 30
0.0
  3
*D23
  1

  0
LINE
  5
CDEB
  8
0
 62
     0
 10
-387.02714157709249
 20
839.57969957928674
 30
0.0
 11
-386.41406531196009
 21
839.57969957928674
 31
0.0
  0
LINE
  5
CDEC
  8
0
 62
     0
 10
-387.97601839699172
 20
837.76944803541039
 30
0.0
 11
-386.41406531196009
 21
837.76944803541039
 31
0.0
  0
LINE
  5
CDED
  8
0
 62
     0
 10
-386.47656531196009
 20
839.57969957928674
 30
0.0
 11
-386.47656531196009
 21
837.76944803541039
 31
0.0
  0
INSERT
  5
CDEE
  8
0
 62
     0
  2
_ARCHTICK
 10
-386.47656531196009
 20
839.57969957928674
 30
0.0
 41
0.046875
 42
0.046875
 43
0.046875
 50
90.0
  0
INSERT
  5
CDEF
  8
0
 62
     0
  2
_ARCHTICK
 10
-386.47656531196009
 20
837.76944803541039
 30
0.0
 41
0.046875
 42
0.046875
 43
0.046875
 50
270.0
  0
INSERT
  5
CDF0
  8
0
  2
*U161
 10
0.0
 20
0.0
 30
0.0
  0
POINT
  5
CDF1
  8
DEFPOINTS
 62
     0
 10
-387.12089157709249
 20
839.57969957928674
 30
0.0
  0
POINT
  5
CDF2
  8
DEFPOINTS
 62
     0
 10
-388.06976839699172
 20
837.76944803541039
 30
0.0
  0
POINT
  5
CDF3
  8
DEFPOINTS
 62
     0
 10
-386.47656531196009
 20
837.76944803541039
 30
0.0
  0
ENDBLK
  5
CDEA
  8
0
  0
BLOCK
  8
0
  2
*D79
 70
     1
 10
0.0
 20
0.0
 30
0.0
  3
*D79
  1

  0
LINE
  5
11681
  8
0
 62
     0
 10
-365.81818307486373
 20
427.35429858331162
 30
0.0
 11
-366.93955544547038
 21
427.35429858331162
 31
0.0
  0
LINE
  5
11682
  8
0
 62
     0
 10
-365.81818307486373
 20
425.60429858331167
 30
0.0
 11
-366.93955544547038
 21
425.60429858331167
 31
0.0
  0
LINE
  5
11683
  8
0
 62
     0
 10
-366.87705544547038
 20
427.35429858331162
 30
0.0
 11
-366.87705544547038
 21
425.60429858331167
 31
0.0
  0
INSERT
  5
11684
  8
0
 62
     0
  2
_ARCHTICK
 10
-366.87705544547038
 20
427.35429858331162
 30
0.0
 41
0.046875
 42
0.046875
 43
0.046875
 50
90.0
  0
INSERT
  5
11685
  8
0
 62
     0
  2
_ARCHTICK
 10
-366.87705544547038
 20
425.60429858331167
 30
0.0
 41
0.046875
 42
0.046875
 43
0.046875
 50
270.0
  0
INSERT
  5
11686
  8
0
  2
*U210
 10
0.0
 20
0.0
 30
0.0
  0
POINT
  5
11687
  8
DEFPOINTS
 62
     0
 10
-365.72443307486373
 20
427.35429858331162
 30
0.0
  0
POINT
  5
11688
  8
DEFPOINTS
 62
     0
 10
-365.72443307486373
 20
425.60429858331167
 30
0.0
  0
POINT
  5
11689
  8
DEFPOINTS
 62
     0
 10
-366.87705544547038
 20
425.60429858331167
 30
0.0
  0
ENDBLK
  5
1168A
  8
0
  0
BLOCK
  8
0
  2
*D80
 70
     1
 10
0.0
 20
0.0
 30
0.0
  3
*D80
  1

  0
LINE
  5
1168D
  8
0
 62
     0
 10
-364.54417472031452
 20
426.21180552517308
 30
0.0
 11
-364.54417472031452
 21
424.99659347863422
 31
0.0
  0
LINE
  5
1168E
  8
0
 62
     0
 10
-363.66917472031452
 20
426.21180552517308
 30
0.0
 11
-363.66917472031452
 21
424.99659347863422
 31
0.0
  0
LINE
  5
1168F
  8
0
 62
     0
 10
-364.54417472031452
 20
425.05909347863428
 30
0.0
 11
-363.66917472031452
 21
425.05909347863428
 31
0.0
  0
INSERT
  5
11690
  8
0
 62
     0
  2
_ARCHTICK
 10
-364.54417472031452
 20
425.05909347863428
 30
0.0
 41
0.046875
 42
0.046875
 43
0.046875
 50
180.0
  0
INSERT
  5
11691
  8
0
 62
     0
  2
_ARCHTICK
 10
-363.66917472031452
 20
425.05909347863428
 30
0.0
 41
0.046875
 42
0.046875
 43
0.046875
  0
INSERT
  5
11692
  8
0
  2
*U211
 10
0.0
 20
0.0
 30
0.0
  0
POINT
  5
11693
  8
DEFPOINTS
 62
     0
 10
-364.54417472031452
 20
426.30555552517302
 30
0.0
  0
POINT
  5
11694
  8
DEFPOINTS
 62
     0
 10
-363.66917472031452
 20
426.30555552517302
 30
0.0
  0
POINT
  5
11695
  8
DEFPOINTS
 62
     0
 10
-363.66917472031452
 20
425.05909347863428
 30
0.0
  0
ENDBLK
  5
11696
  8
0
  0
BLOCK
  8
0
  2
*D81
 70
     1
 10
0.0
 20
0.0
 30
0.0
  3
*D81
  1

  0
LINE
  5
11699
  8
0
 62
     0
 10
-363.88792472031452
 20
427.24305552517302
 30
0.0
 11
-362.93745003010213
 21
427.24305552517302
 31
0.0
  0
LINE
  5
1169A
  8
0
 62
     0
 10
-364.0129247203148
 20
425.72929858331162
 30
0.0
 11
-362.93745003010213
 21
425.72929858331162
 31
0.0
  0
LINE
  5
1169B
  8
0
 62
     0
 10
-362.99995003010213
 20
427.24305552517302
 30
0.0
 11
-362.99995003010213
 21
425.72929858331162
 31
0.0
  0
INSERT
  5
1169C
  8
0
 62
     0
  2
_ARCHTICK
 10
-362.99995003010213
 20
427.24305552517302
 30
0.0
 41
0.046875
 42
0.046875
 43
0.046875
 50
90.0
  0
INSERT
  5
1169D
  8
0
 62
     0
  2
_ARCHTICK
 10
-362.99995003010213
 20
425.72929858331162
 30
0.0
 41
0.046875
 42
0.046875
 43
0.046875
 50
270.0
  0
INSERT
  5
1169E
  8
0
  2
*U212
 10
0.0
 20
0.0
 30
0.0
  0
POINT
  5
1169F
  8
DEFPOINTS
 62
     0
 10
-363.98167472031452
 20
427.24305552517302
 30
0.0
  0
POINT
  5
116A0
  8
DEFPOINTS
 62
     0
 10
-364.1066747203148
 20
425.72929858331162
 30
0.0
  0
POINT
  5
116A1
  8
DEFPOINTS
 62
     0
 10
-362.99995003010213
 20
425.72929858331162
 30
0.0
  0
ENDBLK
  5
116A2
  8
0
  0
BLOCK
  8
0
  2
*D83
 70
     1
 10
0.0
 20
0.0
 30
0.0
  3
*D83
  1

  0
LINE
  5
11701
  8
0
 62
     0
 10
-386.76054169220339
 20
839.74518098663441
 30
0.0
 11
-387.88191406281021
 21
839.74518098663441
 31
0.0
  0
LINE
  5
11702
  8
0
 62
     0
 10
-386.76054169220339
 20
837.99518098663441
 30
0.0
 11
-387.88191406281021
 21
837.99518098663441
 31
0.0
  0
LINE
  5
11703
  8
0
 62
     0
 10
-387.81941406281021
 20
839.74518098663441
 30
0.0
 11
-387.81941406281021
 21
837.99518098663441
 31
0.0
  0
INSERT
  5
11704
  8
0
 62
     0
  2
_ARCHTICK
 10
-387.81941406281021
 20
839.74518098663441
 30
0.0
 41
0.046875
 42
0.046875
 43
0.046875
 50
90.0
  0
INSERT
  5
11705
  8
0
 62
     0
  2
_ARCHTICK
 10
-387.81941406281021
 20
837.99518098663441
 30
0.0
 41
0.046875
 42
0.046875
 43
0.046875
 50
270.0
  0
INSERT
  5
11706
  8
0
  2
*U213
 10
0.0
 20
0.0
 30
0.0
  0
POINT
  5
11707
  8
DEFPOINTS
 62
     0
 10
-386.66679169220339
 20
839.74518098663441
 30
0.0
  0
POINT
  5
11708
  8
DEFPOINTS
 62
     0
 10
-386.66679169220339
 20
837.99518098663441
 30
0.0
  0
POINT
  5
11709
  8
DEFPOINTS
 62
     0
 10
-387.81941406281021
 20
837.99518098663441
 30
0.0
  0
ENDBLK
  5
116E8
  8
0
  0
BLOCK
  8
0
  2
*D84
 70
     1
 10
0.0
 20
0.0
 30
0.0
  3
*D84
  1

  0
LINE
  5
1170A
  8
0
 62
     0
 10
-385.48653333765429
 20
838.60268792849581
 30
0.0
 11
-385.48653333765429
 21
837.3874758819569
 31
0.0
  0
LINE
  5
1170B
  8
0
 62
     0
 10
-384.61153333765429
 20
838.60268792849581
 30
0.0
 11
-384.61153333765429
 21
837.3874758819569
 31
0.0
  0
LINE
  5
1170C
  8
0
 62
     0
 10
-385.48653333765429
 20
837.44997588195702
 30
0.0
 11
-384.61153333765429
 21
837.44997588195702
 31
0.0
  0
INSERT
  5
1170D
  8
0
 62
     0
  2
_ARCHTICK
 10
-385.48653333765429
 20
837.44997588195702
 30
0.0
 41
0.046875
 42
0.046875
 43
0.046875
 50
180.0
  0
INSERT
  5
1170E
  8
0
 62
     0
  2
_ARCHTICK
 10
-384.61153333765429
 20
837.44997588195702
 30
0.0
 41
0.046875
 42
0.046875
 43
0.046875
  0
INSERT
  5
1170F
  8
0
  2
*U214
 10
0.0
 20
0.0
 30
0.0
  0
POINT
  5
11710
  8
DEFPOINTS
 62
     0
 10
-385.48653333765429
 20
838.6964379284957
 30
0.0
  0
POINT
  5
11711
  8
DEFPOINTS
 62
     0
 10
-384.61153333765429
 20
838.6964379284957
 30
0.0
  0
POINT
  5
11712
  8
DEFPOINTS
 62
     0
 10
-384.61153333765429
 20
837.44997588195702
 30
0.0
  0
ENDBLK
  5
116F4
  8
0
  0
BLOCK
  8
0
  2
*D85
 70
     1
 10
0.0
 20
0.0
 30
0.0
  3
*D85
  1

  0
LINE
  5
11713
  8
0
 62
     0
 10
-384.83028333765429
 20
839.63393792849581
 30
0.0
 11
-383.87980864744191
 21
839.63393792849581
 31
0.0
  0
LINE
  5
11714
  8
0
 62
     0
 10
-384.95528333765452
 20
838.1201809866343
 30
0.0
 11
-383.87980864744191
 21
838.1201809866343
 31
0.0
  0
LINE
  5
11715
  8
0
 62
     0
 10
-383.94230864744191
 20
839.63393792849581
 30
0.0
 11
-383.94230864744191
 21
838.1201809866343
 31
0.0
  0
INSERT
  5
11716
  8
0
 62
     0
  2
_ARCHTICK
 10
-383.94230864744191
 20
839.63393792849581
 30
0.0
 41
0.046875
 42
0.046875
 43
0.046875
 50
90.0
  0
INSERT
  5
11717
  8
0
 62
     0
  2
_ARCHTICK
 10
-383.94230864744191
 20
838.1201809866343
 30
0.0
 41
0.046875
 42
0.046875
 43
0.046875
 50
270.0
  0
INSERT
  5
11718
  8
0
  2
*U215
 10
0.0
 20
0.0
 30
0.0
  0
POINT
  5
11719
  8
DEFPOINTS
 62
     0
 10
-384.92403333765429
 20
839.63393792849581
 30
0.0
  0
POINT
  5
1171A
  8
DEFPOINTS
 62
     0
 10
-385.04903333765452
 20
838.1201809866343
 30
0.0
  0
POINT
  5
1171B
  8
DEFPOINTS
 62
     0
 10
-383.94230864744191
 20
838.1201809866343
 30
0.0
  0
ENDBLK
  5
11700
  8
0
  0
BLOCK
  8
0
  2
*D87
 70
     1
 10
0.0
 20
0.0
 30
0.0
  3
*D87
  1

  0
LINE
  5
11B0C
  8
0
 62
     0
 10
-321.4967715029747
 20
426.11559169813472
 30
0.0
 11
-323.04650060770268
 21
426.11559169813472
 31
0.0
  0
LINE
  5
11B0D
  8
0
 62
     0
 10
-321.4967715029747
 20
424.36559169813472
 30
0.0
 11
-323.04650060770268
 21
424.36559169813472
 31
0.0
  0
LINE
  5
11B0E
  8
0
 62
     0
 10
-322.98400060770268
 20
426.11559169813472
 30
0.0
 11
-322.98400060770268
 21
424.36559169813472
 31
0.0
  0
INSERT
  5
11B0F
  8
0
 62
     0
  2
_ARCHTICK
 10
-322.98400060770268
 20
426.11559169813472
 30
0.0
 41
0.046875
 42
0.046875
 43
0.046875
 50
90.0
  0
INSERT
  5
11B10
  8
0
 62
     0
  2
_ARCHTICK
 10
-322.98400060770268
 20
424.36559169813472
 30
0.0
 41
0.046875
 42
0.046875
 43
0.046875
 50
270.0
  0
INSERT
  5
11B11
  8
0
  2
*U216
 10
0.0
 20
0.0
 30
0.0
  0
POINT
  5
11B12
  8
DEFPOINTS
 62
     0
 10
-321.4030215029747
 20
426.11559169813472
 30
0.0
  0
POINT
  5
11B13
  8
DEFPOINTS
 62
     0
 10
-321.4030215029747
 20
424.36559169813472
 30
0.0
  0
POINT
  5
11B14
  8
DEFPOINTS
 62
     0
 10
-322.98400060770268
 20
424.36559169813472
 30
0.0
  0
ENDBLK
  5
11B15
  8
0
  0
BLOCK
  8
0
  2
*D88
 70
     1
 10
0.0
 20
0.0
 30
0.0
  3
*D88
  1

  0
LINE
  5
11B18
  8
0
 62
     0
 10
-319.28256169396042
 20
425.92809169813472
 30
0.0
 11
-318.41048055355549
 21
425.92809169813472
 31
0.0
  0
LINE
  5
11B19
  8
0
 62
     0
 10
-319.28256169396042
 20
424.55309169813472
 30
0.0
 11
-318.41048055355549
 21
424.55309169813472
 31
0.0
  0
LINE
  5
11B1A
  8
0
 62
     0
 10
-318.47298055355549
 20
425.92809169813472
 30
0.0
 11
-318.47298055355549
 21
424.55309169813472
 31
0.0
  0
INSERT
  5
11B1B
  8
0
 62
     0
  2
_ARCHTICK
 10
-318.47298055355549
 20
425.92809169813472
 30
0.0
 41
0.046875
 42
0.046875
 43
0.046875
 50
90.0
  0
INSERT
  5
11B1C
  8
0
 62
     0
  2
_ARCHTICK
 10
-318.47298055355549
 20
424.55309169813472
 30
0.0
 41
0.046875
 42
0.046875
 43
0.046875
 50
270.0
  0
INSERT
  5
11B1D
  8
0
  2
*U217
 10
0.0
 20
0.0
 30
0.0
  0
POINT
  5
11B1E
  8
DEFPOINTS
 62
     0
 10
-319.37631169396042
 20
425.92809169813472
 30
0.0
  0
POINT
  5
11B1F
  8
DEFPOINTS
 62
     0
 10
-319.37631169396042
 20
424.55309169813472
 30
0.0
  0
POINT
  5
11B20
  8
DEFPOINTS
 62
     0
 10
-318.47298055355549
 20
424.55309169813472
 30
0.0
  0
ENDBLK
  5
11B21
  8
0
  0
BLOCK
  8
0
  2
*D90
 70
     1
 10
0.0
 20
0.0
 30
0.0
  3
*D90
  1

  0
LINE
  5
11B82
  8
0
 62
     0
 10
-385.93155206415412
 20
839.89288512488679
 30
0.0
 11
-387.48128116888211
 21
839.89288512488679
 31
0.0
  0
LINE
  5
11B83
  8
0
 62
     0
 10
-385.93155206415412
 20
838.14288512488679
 30
0.0
 11
-387.48128116888211
 21
838.14288512488679
 31
0.0
  0
LINE
  5
11B84
  8
0
 62
     0
 10
-387.41878116888211
 20
839.89288512488679
 30
0.0
 11
-387.41878116888211
 21
838.14288512488679
 31
0.0
  0
INSERT
  5
11B85
  8
0
 62
     0
  2
_ARCHTICK
 10
-387.41878116888211
 20
839.89288512488679
 30
0.0
 41
0.046875
 42
0.046875
 43
0.046875
 50
90.0
  0
INSERT
  5
11B86
  8
0
 62
     0
  2
_ARCHTICK
 10
-387.41878116888211
 20
838.14288512488679
 30
0.0
 41
0.046875
 42
0.046875
 43
0.046875
 50
270.0
  0
INSERT
  5
11B87
  8
0
  2
*U218
 10
0.0
 20
0.0
 30
0.0
  0
POINT
  5
11B88
  8
DEFPOINTS
 62
     0
 10
-385.83780206415412
 20
839.89288512488679
 30
0.0
  0
POINT
  5
11B89
  8
DEFPOINTS
 62
     0
 10
-385.83780206415412
 20
838.14288512488679
 30
0.0
  0
POINT
  5
11B8A
  8
DEFPOINTS
 62
     0
 10
-387.41878116888211
 20
838.14288512488679
 30
0.0
  0
ENDBLK
  5
11B75
  8
0
  0
BLOCK
  8
0
  2
*D91
 70
     1
 10
0.0
 20
0.0
 30
0.0
  3
*D91
  1

  0
LINE
  5
11B8B
  8
0
 62
     0
 10
-383.71734225513978
 20
839.70538512488679
 30
0.0
 11
-382.84526111473491
 21
839.70538512488679
 31
0.0
  0
LINE
  5
11B8C
  8
0
 62
     0
 10
-383.71734225513978
 20
838.33038512488679
 30
0.0
 11
-382.84526111473491
 21
838.33038512488679
 31
0.0
  0
LINE
  5
11B8D
  8
0
 62
     0
 10
-382.90776111473491
 20
839.70538512488679
 30
0.0
 11
-382.90776111473491
 21
838.33038512488679
 31
0.0
  0
INSERT
  5
11B8E
  8
0
 62
     0
  2
_ARCHTICK
 10
-382.90776111473491
 20
839.70538512488679
 30
0.0
 41
0.046875
 42
0.046875
 43
0.046875
 50
90.0
  0
INSERT
  5
11B8F
  8
0
 62
     0
  2
_ARCHTICK
 10
-382.90776111473491
 20
838.33038512488679
 30
0.0
 41
0.046875
 42
0.046875
 43
0.046875
 50
270.0
  0
INSERT
  5
11B90
  8
0
  2
*U219
 10
0.0
 20
0.0
 30
0.0
  0
POINT
  5
11B91
  8
DEFPOINTS
 62
     0
 10
-383.81109225513978
 20
839.70538512488679
 30
0.0
  0
POINT
  5
11B92
  8
DEFPOINTS
 62
     0
 10
-383.81109225513978
 20
838.33038512488679
 30
0.0
  0
POINT
  5
11B93
  8
DEFPOINTS
 62
     0
 10
-382.90776111473491
 20
838.33038512488679
 30
0.0
  0
ENDBLK
  5
11B81
  8
0
  0
BLOCK
  8
0
  2
*D128
 70
     1
 10
0.0
 20
0.0
 30
0.0
  3
*D128
  1

  0
LINE
  5
17AED
  8
0
 62
     0
 10
-265.85715049456587
 20
274.42038345687388
 30
0.0
 11
-266.22047975343469
 21
274.42038345687388
 31
0.0
  0
LINE
  5
17AEE
  8
0
 62
     0
 10
-265.52696349978612
 20
273.09820699771632
 30
0.0
 11
-266.22047975343469
 21
273.09820699771632
 31
0.0
  0
LINE
  5
17AEF
  8
0
 62
     0
 10
-266.15797975343457
 20
274.42038345687388
 30
0.0
 11
-266.15797975343457
 21
273.09820699771632
 31
0.0
  0
INSERT
  5
17AF0
  8
0
 62
     0
  2
_ARCHTICK
 10
-266.15797975343457
 20
274.42038345687388
 30
0.0
 41
0.046875
 42
0.046875
 43
0.046875
 50
90.0
  0
INSERT
  5
17AF1
  8
0
 62
     0
  2
_ARCHTICK
 10
-266.15797975343457
 20
273.09820699771632
 30
0.0
 41
0.046875
 42
0.046875
 43
0.046875
 50
270.0
  0
INSERT
  5
17AF2
  8
0
  2
*U254
 10
0.0
 20
0.0
 30
0.0
  0
POINT
  5
17AF3
  8
DEFPOINTS
 62
     0
 10
-265.76340049456587
 20
274.42038345687388
 30
0.0
  0
POINT
  5
17AF4
  8
DEFPOINTS
 62
     0
 10
-265.43321349978612
 20
273.09820699771632
 30
0.0
  0
POINT
  5
17AF5
  8
DEFPOINTS
 62
     0
 10
-266.15797975343457
 20
273.09820699771632
 30
0.0
  0
ENDBLK
  5
17AF6
  8
0
  0
BLOCK
  8
0
  2
*D129
 70
     1
 10
0.0
 20
0.0
 30
0.0
  3
*D129
  1

  0
LINE
  5
17AF9
  8
0
 62
     0
 10
-265.76340049456587
 20
274.32663345687388
 30
0.0
 11
-265.76340049456587
 21
273.69679522729513
 31
0.0
  0
LINE
  5
17AFA
  8
0
 62
     0
 10
-265.43321349978612
 20
274.32663345687388
 30
0.0
 11
-265.43321349978612
 21
273.69679522729513
 31
0.0
  0
LINE
  5
17AFB
  8
0
 62
     0
 10
-265.76340049456587
 20
273.75929522729513
 30
0.0
 11
-265.81027549456587
 21
273.75929522729513
 31
0.0
  0
LINE
  5
17AFC
  8
0
 62
     0
 10
-265.43321349978612
 20
273.75929522729513
 30
0.0
 11
-265.38633849978612
 21
273.75929522729513
 31
0.0
  0
INSERT
  5
17AFD
  8
0
 62
     0
  2
_ARCHTICK
 10
-265.76340049456587
 20
273.75929522729513
 30
0.0
 41
0.046875
 42
0.046875
 43
0.046875
  0
INSERT
  5
17AFE
  8
0
 62
     0
  2
_ARCHTICK
 10
-265.43321349978612
 20
273.75929522729513
 30
0.0
 41
0.046875
 42
0.046875
 43
0.046875
 50
180.0
  0
INSERT
  5
17AFF
  8
0
  2
*U255
 10
0.0
 20
0.0
 30
0.0
  0
POINT
  5
17B00
  8
DEFPOINTS
 62
     0
 10
-265.76340049456587
 20
274.42038345687388
 30
0.0
  0
POINT
  5
17B01
  8
DEFPOINTS
 62
     0
 10
-265.43321349978612
 20
274.42038345687388
 30
0.0
  0
POINT
  5
17B02
  8
DEFPOINTS
 62
     0
 10
-265.43321349978612
 20
273.75929522729513
 30
0.0
  0
ENDBLK
  5
17B03
  8
0
  0
BLOCK
  8
0
  2
*D131
 70
     1
 10
0.0
 20
0.0
 30
0.0
  3
*D131
  1

  0
LINE
  5
17B39
  8
0
 62
     0
 10
-387.65429506319202
 20
839.30724886751887
 30
0.0
 11
-388.01762432206078
 21
839.30724886751887
 31
0.0
  0
LINE
  5
17B3A
  8
0
 62
     0
 10
-387.32410806841222
 20
837.98507240836125
 30
0.0
 11
-388.01762432206078
 21
837.98507240836125
 31
0.0
  0
LINE
  5
17B3B
  8
0
 62
     0
 10
-387.95512432206078
 20
839.30724886751887
 30
0.0
 11
-387.95512432206078
 21
837.98507240836125
 31
0.0
  0
INSERT
  5
17B3C
  8
0
 62
     0
  2
_ARCHTICK
 10
-387.95512432206078
 20
839.30724886751887
 30
0.0
 41
0.046875
 42
0.046875
 43
0.046875
 50
90.0
  0
INSERT
  5
17B3D
  8
0
 62
     0
  2
_ARCHTICK
 10
-387.95512432206078
 20
837.98507240836125
 30
0.0
 41
0.046875
 42
0.046875
 43
0.046875
 50
270.0
  0
INSERT
  5
17B3E
  8
0
  2
*U257
 10
0.0
 20
0.0
 30
0.0
  0
POINT
  5
17B3F
  8
DEFPOINTS
 62
     0
 10
-387.56054506319202
 20
839.30724886751887
 30
0.0
  0
POINT
  5
17B40
  8
DEFPOINTS
 62
     0
 10
-387.23035806841222
 20
837.98507240836125
 30
0.0
  0
POINT
  5
17B41
  8
DEFPOINTS
 62
     0
 10
-387.95512432206078
 20
837.98507240836125
 30
0.0
  0
ENDBLK
  5
17B2B
  8
0
  0
BLOCK
  8
0
  2
*D132
 70
     1
 10
0.0
 20
0.0
 30
0.0
  3
*D132
  1

  0
LINE
  5
17B42
  8
0
 62
     0
 10
-387.56054506319202
 20
839.21349886751898
 30
0.0
 11
-387.56054506319202
 21
838.58366063794006
 31
0.0
  0
LINE
  5
17B43
  8
0
 62
     0
 10
-387.23035806841222
 20
839.21349886751898
 30
0.0
 11
-387.23035806841222
 21
838.58366063794006
 31
0.0
  0
LINE
  5
17B44
  8
0
 62
     0
 10
-387.56054506319202
 20
838.64616063794017
 30
0.0
 11
-387.60742006319202
 21
838.64616063794017
 31
0.0
  0
LINE
  5
17B45
  8
0
 62
     0
 10
-387.23035806841222
 20
838.64616063794017
 30
0.0
 11
-387.18348306841222
 21
838.64616063794017
 31
0.0
  0
INSERT
  5
17B46
  8
0
 62
     0
  2
_ARCHTICK
 10
-387.56054506319202
 20
838.64616063794017
 30
0.0
 41
0.046875
 42
0.046875
 43
0.046875
  0
INSERT
  5
17B47
  8
0
 62
     0
  2
_ARCHTICK
 10
-387.23035806841222
 20
838.64616063794017
 30
0.0
 41
0.046875
 42
0.046875
 43
0.046875
 50
180.0
  0
INSERT
  5
17B48
  8
0
  2
*U258
 10
0.0
 20
0.0
 30
0.0
  0
POINT
  5
17B49
  8
DEFPOINTS
 62
     0
 10
-387.56054506319202
 20
839.30724886751887
 30
0.0
  0
POINT
  5
17B4A
  8
DEFPOINTS
 62
     0
 10
-387.23035806841222
 20
839.30724886751887
 30
0.0
  0
POINT
  5
17B4B
  8
DEFPOINTS
 62
     0
 10
-387.23035806841222
 20
838.64616063794017
 30
0.0
  0
ENDBLK
  5
17B38
  8
0
  0
BLOCK
  8
0
  2
*U148
 70
     1
 10
0.0
 20
0.0
 30
0.0
  3
*U148
  1

  0
TEXT
  5
1A2CD
  8
0
 10
2.0520856342580478
 20
1.4053520973297959
 30
0.0
 40
0.125
  1
Exterior Casing
  0
TEXT
  5
1A2CE
  8
0
 10
2.0520856342580478
 20
1.1970187639964629
 30
0.0
 40
0.125
  1
TL-180
  0
TEXT
  5
1A2CF
  8
0
 10
2.0520856342580478
 20
0.9886854306631298
 30
0.0
 40
0.125
  1
1-1/4" x 2"
  0
TEXT
  5
1A2D0
  8
0
 10
2.0520856342580478
 20
0.7803520973297964
 30
0.0
 40
0.125
  1
800.66.TAGUE
  0
ENDBLK
  5
1A2D2
  8
0
  0
BLOCK
  8
0
  2
*U149
 70
     1
 10
0.0
 20
0.0
 30
0.0
  3
*U149
  1

  0
TEXT
  5
1A2D4
  8
0
 10
1.875832532300876
 20
1.1538771312937111
 30
0.0
 40
0.125
  1
Exterior Casing
  0
TEXT
  5
1A2D5
  8
0
 10
1.875832532300876
 20
0.9455437979603782
 30
0.0
 40
0.125
  1
TL-544
  0
TEXT
  5
1A2D6
  8
0
 10
1.875832532300876
 20
0.7372104646270449
 30
0.0
 40
0.125
  1
1-1/8" x 1-9/16"
  0
TEXT
  5
1A2D7
  8
0
 10
1.875832532300876
 20
0.5288771312937115
 30
0.0
 40
0.125
  1
800.66.TAGUE
  0
ENDBLK
  5
1A2D9
  8
0
  0
BLOCK
  8
0
  2
*U150
 70
     1
 10
0.0
 20
0.0
 30
0.0
  3
*U150
  1

  0
TEXT
  5
1A2DB
  8
0
 10
2.2653468102219558
 20
1.612015904330746
 30
0.0
 40
0.125
  1
Exterior Casing
  0
TEXT
  5
1A2DC
  8
0
 10
2.2653468102219558
 20
1.403682570997413
 30
0.0
 40
0.125
  1
TL-2023
  0
TEXT
  5
1A2DD
  8
0
 10
2.2653468102219558
 20
1.19534923766408
 30
0.0
 40
0.125
  1
1-13/16" x 3" 
  0
TEXT
  5
1A2DE
  8
0
 10
2.2653468102219558
 20
0.9870159043307467
 30
0.0
 40
0.125
  1
800.66.TAGUE
  0
ENDBLK
  5
1A2E0
  8
0
  0
BLOCK
  8
0
  2
*U151
 70
     1
 10
0.0
 20
0.0
 30
0.0
  3
*U151
  1

  0
TEXT
  5
1A2E2
  8
0
 10
2.0898675486657221
 20
0.9145072342178082
 30
0.0
 40
0.125
  1
Exterior Casing
  0
TEXT
  5
1A2E3
  8
0
 10
2.0898675486657221
 20
0.706173900884475
 30
0.0
 40
0.125
  1
TL-2087
  0
TEXT
  5
1A2E4
  8
0
 10
2.0898675486657221
 20
0.4978405675511416
 30
0.0
 40
0.125
  1
7/8" x 1-7/16"
  0
TEXT
  5
1A2E5
  8
0
 10
2.0898675486657221
 20
0.2895072342178082
 30
0.0
 40
0.125
  1
800.66.TAGUE
  0
ENDBLK
  5
1A2E7
  8
0
  0
BLOCK
  8
0
  2
*U152
 70
     1
 10
0.0
 20
0.0
 30
0.0
  3
*U152
  1

  0
TEXT
  5
1A2E9
  8
0
 10
2.1806631076311191
 20
0.8419101546792263
 30
0.0
 40
0.125
  1
Exterior Casing
  0
TEXT
  5
1A2EA
  8
0
 10
2.1806631076311191
 20
0.6335768213458931
 30
0.0
 40
0.125
  1
TL-2158
  0
TEXT
  5
1A2EB
  8
0
 10
2.1806631076311191
 20
0.4252434880125597
 30
0.0
 40
0.125
  1
1-1/16" x 1-5/16"
  0
TEXT
  5
1A2EC
  8
0
 10
2.1806631076311191
 20
0.2169101546792262
 30
0.0
 40
0.125
  1
800.66.TAGUE
  0
ENDBLK
  5
1A2EE
  8
0
  0
BLOCK
  8
0
  2
*U153
 70
     1
 10
0.0
 20
0.0
 30
0.0
  3
*U153
  1

  0
TEXT
  5
1A2F0
  8
0
 10
2.2408536425556909
 20
1.2992247915469759
 30
0.0
 40
0.125
  1
Exterior Casing
  0
TEXT
  5
1A2F1
  8
0
 10
2.2408536425556909
 20
1.090891458213642
 30
0.0
 40
0.125
  1
TL-2174
  0
TEXT
  5
1A2F2
  8
0
 10
2.2408536425556909
 20
0.8825581248803095
 30
0.0
 40
0.125
  1
1-3/8" x 1-7/16"
  0
TEXT
  5
1A2F3
  8
0
 10
2.2408536425556909
 20
0.6742247915469762
 30
0.0
 40
0.125
  1
800.66.TAGUE
  0
ENDBLK
  5
1A2F5
  8
0
  0
BLOCK
  8
0
  2
*U154
 70
     1
 10
0.0
 20
0.0
 30
0.0
  3
*U154
  1

  0
TEXT
  5
1A2F7
  8
0
 10
2.8048346441314029
 20
1.129982283289336
 30
0.0
 40
0.125
  1
Exterior Casing
  0
TEXT
  5
1A2F8
  8
0
 10
2.8048346441314029
 20
0.9216489499560037
 30
0.0
 40
0.125
  1
TL-2175
  0
TEXT
  5
1A2F9
  8
0
 10
2.8048346441314029
 20
0.7133156166226704
 30
0.0
 40
0.125
  1
1-9/32" x 1-29/32"
  0
TEXT
  5
1A2FA
  8
0
 10
2.8048346441314029
 20
0.504982283289337
 30
0.0
 40
0.125
  1
800.66.TAGUE
  0
ENDBLK
  5
1A2FC
  8
0
  0
BLOCK
  8
0
  2
*U155
 70
     1
 10
0.0
 20
0.0
 30
0.0
  3
*U155
  1

  0
TEXT
  5
1A2FE
  8
0
 10
2.5484960182450891
 20
0.679430053902138
 30
0.0
 40
0.125
  1
Exterior Casing
  0
TEXT
  5
1A2FF
  8
0
 10
2.5484960182450891
 20
0.4710967205688046
 30
0.0
 40
0.125
  1
TL-2176
  0
TEXT
  5
1A300
  8
0
 10
2.5484960182450891
 20
0.2627633872354712
 30
0.0
 40
0.125
  1
19/32" x 1-5/8"
  0
TEXT
  5
1A301
  8
0
 10
2.5484960182450891
 20
0.0544300539021379
 30
0.0
 40
0.125
  1
800.66.TAGUE
  0
ENDBLK
  5
1A303
  8
0
  0
BLOCK
  8
0
  2
*U156
 70
     1
 10
0.0
 20
0.0
 30
0.0
  3
*U156
  1

  0
TEXT
  5
1A305
  8
0
 10
2.105732231568993
 20
0.7255830389262883
 30
0.0
 40
0.125
  1
Exterior Casing
  0
TEXT
  5
1A306
  8
0
 10
2.105732231568993
 20
0.5172497055929551
 30
0.0
 40
0.125
  1
TL-2108
  0
TEXT
  5
1A307
  8
0
 10
2.105732231568993
 20
0.3089163722596217
 30
0.0
 40
0.125
  1
15/16" x 1-1/16"
  0
TEXT
  5
1A308
  8
0
 10
2.105732231568993
 20
0.1005830389262883
 30
0.0
 40
0.125
  1
800.66.TAGUE
  0
ENDBLK
  5
1A30A
  8
0
  0
BLOCK
  8
0
  2
*U157
 70
     1
 10
0.0
 20
0.0
 30
0.0
  3
*U157
  1

  0
TEXT
  5
1A30C
  8
0
 10
0.0469294570366401
 20
0.67943073463357
 30
0.0
 40
0.125
  1
Exterior Casing
  0
TEXT
  5
1A30D
  8
0
 10
0.0469294570366401
 20
0.4710974013002366
 30
0.0
 40
0.125
  1
TL-2206
  0
TEXT
  5
1A30E
  8
0
 10
0.0469294570366401
 20
0.2627640679669033
 30
0.0
 40
0.125
  1
1-3/32" x 1-23/32"
  0
TEXT
  5
1A30F
  8
0
 10
0.0469294570366401
 20
0.05443073463357
 30
0.0
 40
0.125
  1
800.66.TAGUE
  0
ENDBLK
  5
1A311
  8
0
  0
BLOCK
  8
0
  2
*U158
 70
     1
 10
0.0
 20
0.0
 30
0.0
  3
*U158
  1

  0
TEXT
  5
1A313
  8
0
 10
0.0449853036485593
 20
0.6794309447934666
 30
0.0
 40
0.125
  1
Exterior Casing
  0
TEXT
  5
1A314
  8
0
 10
0.0449853036485593
 20
0.4710976114601333
 30
0.0
 40
0.125
  1
TL-2207
  0
TEXT
  5
1A315
  8
0
 10
0.0449853036485593
 20
0.2627642781267999
 30
0.0
 40
0.125
  1
1-1/8" x 2-15/16"
  0
TEXT
  5
1A316
  8
0
 10
0.0449853036485593
 20
0.0544309447934666
 30
0.0
 40
0.125
  1
800.66.TAGUE
  0
ENDBLK
  5
1A318
  8
0
  0
BLOCK
  8
0
  2
*U159
 70
     1
 10
0.0
 20
0.0
 30
0.0
  3
*U159
  1

  0
TEXT
  5
1A31A
  8
0
 62
     0
 10
-346.15979271546257
 20
508.16262619726342
 30
0.0
 40
0.125
  1
Cutter
 50
90.0
  0
ENDBLK
  5
1A31C
  8
0
  0
BLOCK
  8
0
  2
*U160
 70
     1
 10
0.0
 20
0.0
 30
0.0
  3
*U160
  1

  0
TEXT
  5
1A31E
  8
0
 10
3.5112004937425918
 20
2.3236705000861089
 30
0.0
 40
0.125
  1
Exterior Casing
  0
TEXT
  5
1A31F
  8
0
 10
3.5112004937425918
 20
2.1153371667527749
 30
0.0
 40
0.125
  1
TL-2242
  0
TEXT
  5
1A320
  8
0
 10
3.5112004937425918
 20
1.9070038334194419
 30
0.0
 40
0.125
  1
2" x 4-1/2"
  0
TEXT
  5
1A321
  8
0
 10
3.5112004937425918
 20
1.6986705000861091
 30
0.0
 40
0.125
  1
800.66.TAGUE
  0
ENDBLK
  5
1A323
  8
0
  0
BLOCK
  8
0
  2
*U161
 70
     1
 10
0.0
 20
0.0
 30
0.0
  3
*U161
  1

  0
TEXT
  5
1A325
  8
0
 62
     0
 10
-386.5390653119602
 20
838.32040714068194
 30
0.0
 40
0.125
  1
Cutter
 50
90.0
  0
ENDBLK
  5
1A327
  8
0
  0
BLOCK
  8
0
  2
*U162
 70
     1
 10
0.0
 20
0.0
 30
0.0
  3
*U162
  1

  0
TEXT
  5
1A329
  8
0
 10
1.983241637717696
 20
1.2297917133489591
 30
0.0
 40
0.125
  1
Exterior Casing
  0
TEXT
  5
1A32A
  8
0
 10
1.983241637717696
 20
1.0214583800156249
 30
0.0
 40
0.125
  1
TL-2254
  0
TEXT
  5
1A32B
  8
0
 10
1.983241637717696
 20
0.8131250466822924
 30
0.0
 40
0.125
  1
1-1/4" x 1-3/4"
  0
TEXT
  5
1A32C
  8
0
 10
1.983241637717696
 20
0.6047917133489591
 30
0.0
 40
0.125
  1
800.66.TAGUE
  0
ENDBLK
  5
1A32E
  8
0
  0
BLOCK
  8
0
  2
*U163
 70
     1
 10
0.0
 20
0.0
 30
0.0
  3
*U163
  1

  0
TEXT
  5
1A330
  8
0
 10
2.2285402119240412
 20
3.7215677387475798
 30
0.0
 40
0.125
  1
Exterior Jamb
  0
TEXT
  5
1A331
  8
0
 10
2.2285402119240412
 20
3.5132344054142468
 30
0.0
 40
0.125
  1
TL-2126
  0
TEXT
  5
1A332
  8
0
 10
2.2285402119240412
 20
3.3049010720809142
 30
0.0
 40
0.125
  1
1-1/4" x 6-5/8"
  0
TEXT
  5
1A333
  8
0
 10
2.2285402119240412
 20
3.0965677387475798
 30
0.0
 40
0.125
  1
800.66.TAGUE
  0
ENDBLK
  5
1A335
  8
0
  0
BLOCK
  8
0
  2
*U164
 70
     1
 10
0.0
 20
0.0
 30
0.0
  3
*U164
  1

  0
TEXT
  5
1A337
  8
0
 10
2.025590122046196
 20
3.8877018206065941
 30
0.0
 40
0.125
  1
Exterior Jamb
  0
TEXT
  5
1A338
  8
0
 10
2.025590122046196
 20
3.6793684872732602
 30
0.0
 40
0.125
  1
TL-2127
  0
TEXT
  5
1A339
  8
0
 10
2.025590122046196
 20
3.4710351539399271
 30
0.0
 40
0.125
  1
1-1/4" x 6-5/8"
  0
TEXT
  5
1A33A
  8
0
 10
2.025590122046196
 20
3.2627018206065941
 30
0.0
 40
0.125
  1
800.66.TAGUE
  0
ENDBLK
  5
1A33C
  8
0
  0
BLOCK
  8
0
  2
*U165
 70
     1
 10
0.0
 20
0.0
 30
0.0
  3
*U165
  1

  0
TEXT
  5
1A33E
  8
0
 10
1.8279899277385421
 20
2.0085009357213721
 30
0.0
 40
0.125
  1
Fluting
  0
TEXT
  5
1A33F
  8
0
 10
1.8279899277385421
 20
1.800167602388038
 30
0.0
 40
0.125
  1
TL-123
  0
TEXT
  5
1A340
  8
0
 10
1.8279899277385421
 20
1.5918342690547049
 30
0.0
 40
0.125
  1
3/4" x 3-1/2"
  0
TEXT
  5
1A341
  8
0
 10
1.8279899277385421
 20
1.3835009357213719
 30
0.0
 40
0.125
  1
800.66.TAGUE
  0
ENDBLK
  5
1A343
  8
0
  0
BLOCK
  8
0
  2
*U166
 70
     1
 10
0.0
 20
0.0
 30
0.0
  3
*U166
  1

  0
TEXT
  5
1A345
  8
0
 10
1.9710461263608181
 20
3.9608870512416838
 30
0.0
 40
0.125
  1
Fluting
  0
TEXT
  5
1A346
  8
0
 10
1.9710461263608181
 20
3.7525537179083499
 30
0.0
 40
0.125
  1
TL-343
  0
TEXT
  5
1A347
  8
0
 10
1.9710461263608181
 20
3.5442203845750169
 30
0.0
 40
0.125
  1
7/8" x 7-3/16"
  0
TEXT
  5
1A348
  8
0
 10
1.9710461263608181
 20
3.3358870512416838
 30
0.0
 40
0.125
  1
800.66.TAGUE
  0
ENDBLK
  5
1A34A
  8
0
  0
BLOCK
  8
0
  2
*U167
 70
     1
 10
0.0
 20
0.0
 30
0.0
  3
*U167
  1

  0
TEXT
  5
1A34C
  8
0
 10
1.4662897697170929
 20
3.8395028676267202
 30
0.0
 40
0.125
  1
Fluting
  0
TEXT
  5
1A34D
  8
0
 10
1.4662897697170929
 20
3.6311695342933858
 30
0.0
 40
0.125
  1
TL-2183
  0
TEXT
  5
1A34E
  8
0
 10
1.4662897697170929
 20
3.4228362009600528
 30
0.0
 40
0.125
  1
3/4" x 7-1/4"
  0
TEXT
  5
1A34F
  8
0
 10
1.4662897697170929
 20
3.2145028676267202
 30
0.0
 40
0.125
  1
800.66.TAGUE
  0
ENDBLK
  5
1A351
  8
0
  0
BLOCK
  8
0
  2
*U168
 70
     1
 10
0.0
 20
0.0
 30
0.0
  3
*U168
  1

  0
TEXT
  5
1A353
  8
0
 10
2.0951853732560148
 20
2.6676693683394879
 30
0.0
 40
0.125
  1
Fluting
  0
TEXT
  5
1A354
  8
0
 10
2.0951853732560148
 20
2.4593360350061548
 30
0.0
 40
0.125
  1
TL-2276
  0
TEXT
  5
1A355
  8
0
 10
2.0951853732560148
 20
2.2510027016728218
 30
0.0
 40
0.125
  1
11/16" x 3"
  0
TEXT
  5
1A356
  8
0
 10
2.0951853732560148
 20
2.0426693683394879
 30
0.0
 40
0.125
  1
800.66.TAGUE
  0
ENDBLK
  5
1A358
  8
0
  0
BLOCK
  8
0
  2
*U169
 70
     1
 10
0.0
 20
0.0
 30
0.0
  3
*U169
  1

  0
TEXT
  5
1A35A
  8
0
 10
2.4586482925877808
 20
1.0775582798773931
 30
0.0
 40
0.125
  1
Full Round
  0
TEXT
  5
1A35B
  8
0
 10
2.4586482925877808
 20
0.8692249465440607
 30
0.0
 40
0.125
  1
TL-232
  0
TEXT
  5
1A35C
  8
0
 10
2.4586482925877808
 20
0.6608916132107274
 30
0.0
 40
0.125
  1
1-7/16" x 1-7/16"
  0
TEXT
  5
1A35D
  8
0
 10
2.4586482925877808
 20
0.452558279877394
 30
0.0
 40
0.125
  1
800.66.TAGUE
  0
ENDBLK
  5
1A35F
  8
0
  0
BLOCK
  8
0
  2
*U170
 70
     1
 10
0.0
 20
0.0
 30
0.0
  3
*U170
  1

  0
TEXT
  5
1A361
  8
0
 10
2.339763263951113
 20
0.912090443150646
 30
0.0
 40
0.125
  1
Full Round
  0
TEXT
  5
1A362
  8
0
 10
2.339763263951113
 20
0.7037571098173128
 30
0.0
 40
0.125
  1
TL-233
  0
TEXT
  5
1A363
  8
0
 10
2.339763263951113
 20
0.4954237764839795
 30
0.0
 40
0.125
  1
1-3/16" x 1-3/16"
  0
TEXT
  5
1A364
  8
0
 10
2.339763263951113
 20
0.287090443150646
 30
0.0
 40
0.125
  1
800.66.TAGUE
  0
ENDBLK
  5
1A366
  8
0
  0
BLOCK
  8
0
  2
*U171
 70
     1
 10
0.0
 20
0.0
 30
0.0
  3
*U171
  1

  0
TEXT
  5
1A368
  8
0
 10
2.2927598682417729
 20
0.8643692839127652
 30
0.0
 40
0.125
  1
Full Round
  0
TEXT
  5
1A369
  8
0
 10
2.2927598682417729
 20
0.6560359505794321
 30
0.0
 40
0.125
  1
TL-234
  0
TEXT
  5
1A36A
  8
0
 10
2.2927598682417729
 20
0.4477026172460987
 30
0.0
 40
0.125
  1
1-1/16" x 1-1/16"
  0
TEXT
  5
1A36B
  8
0
 10
2.2927598682417729
 20
0.2393692839127652
 30
0.0
 40
0.125
  1
800.66.TAGUE
  0
ENDBLK
  5
1A36D
  8
0
  0
BLOCK
  8
0
  2
*U172
 70
     1
 10
0.0
 20
0.0
 30
0.0
  3
*U172
  1

  0
TEXT
  5
1A36F
  8
0
 10
2.0765905058337921
 20
1.0252762384561711
 30
0.0
 40
0.125
  1
Glass Bead
  0
TEXT
  5
1A370
  8
0
 10
2.0765905058337921
 20
0.8169429051228387
 30
0.0
 40
0.125
  1
TL-145
  0
TEXT
  5
1A371
  8
0
 10
2.0765905058337921
 20
0.6086095717895054
 30
0.0
 40
0.125
  1
11/16" x 3/4"
  0
TEXT
  5
1A372
  8
0
 10
2.0765905058337921
 20
0.400276238456172
 30
0.0
 40
0.125
  1
800.66.TAGUE
  0
ENDBLK
  5
1A374
  8
0
  0
BLOCK
  8
0
  2
*U173
 70
     1
 10
0.0
 20
0.0
 30
0.0
  3
*U173
  1

  0
TEXT
  5
1A376
  8
0
 10
1.468683703905185
 20
0.7455079879047162
 30
0.0
 40
0.125
  1
Glass Bead
  0
TEXT
  5
1A377
  8
0
 10
1.468683703905185
 20
0.537174654571383
 30
0.0
 40
0.125
  1
TL-147
  0
TEXT
  5
1A378
  8
0
 10
1.468683703905185
 20
0.3288413212380496
 30
0.0
 40
0.125
  1
1/2" x 9/16"
  0
TEXT
  5
1A379
  8
0
 10
1.468683703905185
 20
0.1205079879047162
 30
0.0
 40
0.125
  1
800.66.TAGUE
  0
ENDBLK
  5
1A37B
  8
0
  0
BLOCK
  8
0
  2
*U174
 70
     1
 10
0.0
 20
0.0
 30
0.0
  3
*U174
  1

  0
TEXT
  5
1A37D
  8
0
 10
1.584020839760341
 20
0.6794303041602916
 30
0.0
 40
0.125
  1
Glass Bead
  0
TEXT
  5
1A37E
  8
0
 10
1.584020839760341
 20
0.4710969708269583
 30
0.0
 40
0.125
  1
TL-152
  0
TEXT
  5
1A37F
  8
0
 10
1.584020839760341
 20
0.262763637493625
 30
0.0
 40
0.125
  1
3/8" x 11/16"
  0
TEXT
  5
1A380
  8
0
 10
1.584020839760341
 20
0.0544303041602916
 30
0.0
 40
0.125
  1
800.66.TAGUE
  0
ENDBLK
  5
1A382
  8
0
  0
BLOCK
  8
0
  2
*U175
 70
     1
 10
0.0
 20
0.0
 30
0.0
  3
*U175
  1

  0
TEXT
  5
1A384
  8
0
 10
1.3526095965341931
 20
0.7381811042487243
 30
0.0
 40
0.125
  1
Glass Bead
  0
TEXT
  5
1A385
  8
0
 10
1.3526095965341931
 20
0.5298477709153912
 30
0.0
 40
0.125
  1
TL-2142
  0
TEXT
  5
1A386
  8
0
 10
1.3526095965341931
 20
0.3215144375820577
 30
0.0
 40
0.125
  1
11/32" x 29/32"
  0
TEXT
  5
1A387
  8
0
 10
1.3526095965341931
 20
0.1131811042487243
 30
0.0
 40
0.125
  1
800.66.TAGUE
  0
ENDBLK
  5
1A389
  8
0
  0
BLOCK
  8
0
  2
*U176
 70
     1
 10
0.0
 20
0.0
 30
0.0
  3
*U176
  1

  0
TEXT
  5
1A38B
  8
0
 10
1.3435544091540801
 20
0.6794309539541246
 30
0.0
 40
0.125
  1
Glass Bead
  0
TEXT
  5
1A38C
  8
0
 10
1.3435544091540801
 20
0.4710976206207913
 30
0.0
 40
0.125
  1
TL-2149
  0
TEXT
  5
1A38D
  8
0
 10
1.3435544091540801
 20
0.2627642872874579
 30
0.0
 40
0.125
  1
3/8" x 1/2"
  0
TEXT
  5
1A38E
  8
0
 10
1.3435544091540801
 20
0.0544309539541246
 30
0.0
 40
0.125
  1
800.66.TAGUE
  0
ENDBLK
  5
1A390
  8
0
  0
BLOCK
  8
0
  2
*U177
 70
     1
 10
0.0
 20
0.0
 30
0.0
  3
*U177
  1

  0
TEXT
  5
1A392
  8
0
 10
1.488844305553698
 20
0.6807937379744545
 30
0.0
 40
0.125
  1
Glass Bead
  0
TEXT
  5
1A393
  8
0
 10
1.488844305553698
 20
0.4724604046411212
 30
0.0
 40
0.125
  1
TL-2155
  0
TEXT
  5
1A394
  8
0
 10
1.488844305553698
 20
0.2641270713077878
 30
0.0
 40
0.125
  1
1/2" x 13/16"
  0
TEXT
  5
1A395
  8
0
 10
1.488844305553698
 20
0.0557937379744544
 30
0.0
 40
0.125
  1
800.66.TAGUE
  0
ENDBLK
  5
1A397
  8
0
  0
BLOCK
  8
0
  2
*U178
 70
     1
 10
0.0
 20
0.0
 30
0.0
  3
*U178
  1

  0
TEXT
  5
1A399
  8
0
 10
1.52304343587059
 20
0.6794307504626432
 30
0.0
 40
0.125
  1
Glass Bead
  0
TEXT
  5
1A39A
  8
0
 10
1.52304343587059
 20
0.4710974171293099
 30
0.0
 40
0.125
  1
TL-2218
  0
TEXT
  5
1A39B
  8
0
 10
1.52304343587059
 20
0.2627640837959765
 30
0.0
 40
0.125
  1
1/4" x 5/8"
  0
TEXT
  5
1A39C
  8
0
 10
1.52304343587059
 20
0.0544307504626431
 30
0.0
 40
0.125
  1
800.66.TAGUE
  0
ENDBLK
  5
1A39E
  8
0
  0
BLOCK
  8
0
  2
*U179
 70
     1
 10
0.0
 20
0.0
 30
0.0
  3
*U179
  1

  0
TEXT
  5
1A3A0
  8
0
 10
2.8235364504146778
 20
0.7161662597191026
 30
0.0
 40
0.125
  1
Half Round
  0
TEXT
  5
1A3A1
  8
0
 10
2.8235364504146778
 20
0.5078329263857692
 30
0.0
 40
0.125
  1
TL-6
  0
TEXT
  5
1A3A2
  8
0
 10
2.8235364504146778
 20
0.2994995930524358
 30
0.0
 40
0.125
  1
7/8" x 1-3/4"
  0
TEXT
  5
1A3A3
  8
0
 10
2.8235364504146778
 20
0.0911662597191025
 30
0.0
 40
0.125
  1
800.66.TAGUE
  0
ENDBLK
  5
1A3A5
  8
0
  0
BLOCK
  8
0
  2
*U180
 70
     1
 10
0.0
 20
0.0
 30
0.0
  3
*U180
  1

  0
TEXT
  5
1A3A7
  8
0
 10
2.8316039409763221
 20
0.7222806133900122
 30
0.0
 40
0.125
  1
Half Round
  0
TEXT
  5
1A3A8
  8
0
 10
2.8316039409763221
 20
0.5139472800566788
 30
0.0
 40
0.125
  1
TL-7
  0
TEXT
  5
1A3A9
  8
0
 10
2.8316039409763221
 20
0.3056139467233454
 30
0.0
 40
0.125
  1
1" x 2"
  0
TEXT
  5
1A3AA
  8
0
 10
2.8316039409763221
 20
0.0972806133900122
 30
0.0
 40
0.125
  1
800.66.TAGUE
  0
ENDBLK
  5
1A3AC
  8
0
  0
BLOCK
  8
0
  2
*U181
 70
     1
 10
0.0
 20
0.0
 30
0.0
  3
*U181
  1

  0
TEXT
  5
1A3AE
  8
0
 10
4.3092556456276148
 20
0.8292621657587915
 30
0.0
 40
0.125
  1
Half Round
  0
TEXT
  5
1A3AF
  8
0
 10
4.3092556456276148
 20
0.6209288324254582
 30
0.0
 40
0.125
  1
TL-8
  0
TEXT
  5
1A3B0
  8
0
 10
4.3092556456276148
 20
0.4125954990921248
 30
0.0
 40
0.125
  1
1-1/2" x 3"
  0
TEXT
  5
1A3B1
  8
0
 10
4.3092556456276148
 20
0.2042621657587915
 30
0.0
 40
0.125
  1
800.66.TAGUE
  0
ENDBLK
  5
1A3B3
  8
0
  0
BLOCK
  8
0
  2
*U182
 70
     1
 10
0.0
 20
0.0
 30
0.0
  3
*U182
  1

  0
TEXT
  5
1A3B5
  8
0
 10
2.524104426630799
 20
0.6794299200373644
 30
0.0
 40
0.125
  1
Half Round
  0
TEXT
  5
1A3B6
  8
0
 10
2.524104426630799
 20
0.471096586704031
 30
0.0
 40
0.125
  1
TL-116
  0
TEXT
  5
1A3B7
  8
0
 10
2.524104426630799
 20
0.2627632533706976
 30
0.0
 40
0.125
  1
3/4" x 1-1/2"
  0
TEXT
  5
1A3B8
  8
0
 10
2.524104426630799
 20
0.0544299200373644
 30
0.0
 40
0.125
  1
800.66.TAGUE
  0
ENDBLK
  5
1A3BA
  8
0
  0
BLOCK
  8
0
  2
*U183
 70
     1
 10
0.0
 20
0.0
 30
0.0
  3
*U183
  1

  0
TEXT
  5
1A3BC
  8
0
 10
2.4691699319003528
 20
0.6794301275302815
 30
0.0
 40
0.125
  1
Half Round
  0
TEXT
  5
1A3BD
  8
0
 10
2.4691699319003528
 20
0.4710967941969481
 30
0.0
 40
0.125
  1
TL-119
  0
TEXT
  5
1A3BE
  8
0
 10
2.4691699319003528
 20
0.2627634608636147
 30
0.0
 40
0.125
  1
5/8" x 1-1/4"
  0
TEXT
  5
1A3BF
  8
0
 10
2.4691699319003528
 20
0.0544301275302814
 30
0.0
 40
0.125
  1
800.66.TAGUE
  0
ENDBLK
  5
1A3C1
  8
0
  0
BLOCK
  8
0
  2
*U184
 70
     1
 10
0.0
 20
0.0
 30
0.0
  3
*U184
  1

  0
TEXT
  5
1A3C3
  8
0
 10
1.96218194837894
 20
0.679429735423696
 30
0.0
 40
0.125
  1
Half Round
  0
TEXT
  5
1A3C4
  8
0
 10
1.96218194837894
 20
0.4710964020903626
 30
0.0
 40
0.125
  1
TL-120
  0
TEXT
  5
1A3C5
  8
0
 10
1.96218194837894
 20
0.2627630687570293
 30
0.0
 40
0.125
  1
1/2" x 1"
  0
TEXT
  5
1A3C6
  8
0
 10
1.96218194837894
 20
0.054429735423696
 30
0.0
 40
0.125
  1
800.66.TAGUE
  0
ENDBLK
  5
1A3C8
  8
0
  0
BLOCK
  8
0
  2
*U185
 70
     1
 10
0.0
 20
0.0
 30
0.0
  3
*U185
  1

  0
TEXT
  5
1A3CA
  8
0
 10
1.51989036816559
 20
0.679429754589819
 30
0.0
 40
0.125
  1
Half Round
  0
TEXT
  5
1A3CB
  8
0
 10
1.51989036816559
 20
0.4710964212564856
 30
0.0
 40
0.125
  1
TL-122
  0
TEXT
  5
1A3CC
  8
0
 10
1.51989036816559
 20
0.2627630879231522
 30
0.0
 40
0.125
  1
11/32" x 11/16"
  0
TEXT
  5
1A3CD
  8
0
 10
1.51989036816559
 20
0.0544297545898189
 30
0.0
 40
0.125
  1
800.66.TAGUE
  0
ENDBLK
  5
1A3CF
  8
0
  0
BLOCK
  8
0
  2
*U186
 70
     1
 10
0.0
 20
0.0
 30
0.0
  3
*U186
  1

  0
TEXT
  5
1A3D1
  8
0
 10
1.332760358760481
 20
0.6794306489528026
 30
0.0
 40
0.125
  1
Half Round
  0
TEXT
  5
1A3D2
  8
0
 10
1.332760358760481
 20
0.4710973156194692
 30
0.0
 40
0.125
  1
TL-124
  0
TEXT
  5
1A3D3
  8
0
 10
1.332760358760481
 20
0.2627639822861358
 30
0.0
 40
0.125
  1
1/4" x 1/2"
  0
TEXT
  5
1A3D4
  8
0
 10
1.332760358760481
 20
0.0544306489528026
 30
0.0
 40
0.125
  1
800.66.TAGUE
  0
ENDBLK
  5
1A3D6
  8
0
  0
BLOCK
  8
0
  2
*U187
 70
     1
 10
0.0
 20
0.0
 30
0.0
  3
*U187
  1

  0
TEXT
  5
1A3D8
  8
0
 10
2.6263646070054838
 20
2.827461056571678
 30
0.0
 40
0.125
  1
Hand Rail
  0
TEXT
  5
1A3D9
  8
0
 10
2.6263646070054838
 20
2.6191277232383441
 30
0.0
 40
0.125
  1
TL-14
  0
TEXT
  5
1A3DA
  8
0
 10
2.6263646070054838
 20
2.410794389905011
 30
0.0
 40
0.125
  1
1-5/8" x 5-1/4"
  0
TEXT
  5
1A3DB
  8
0
 10
2.6263646070054838
 20
2.202461056571678
 30
0.0
 40
0.125
  1
800.66.TAGUE
  0
ENDBLK
  5
1A3DD
  8
0
  0
BLOCK
  8
0
  2
*U188
 70
     1
 10
0.0
 20
0.0
 30
0.0
  3
*U188
  1

  0
TEXT
  5
1A3DF
  8
0
 10
2.2830209502855041
 20
2.755934710444194
 30
0.0
 40
0.125
  1
Hand Rail
  0
TEXT
  5
1A3E0
  8
0
 10
2.2830209502855041
 20
2.5476013771108601
 30
0.0
 40
0.125
  1
TL-15
  0
TEXT
  5
1A3E1
  8
0
 10
2.2830209502855041
 20
2.3392680437775271
 30
0.0
 40
0.125
  1
1-3/8" x 5-1/2"
  0
TEXT
  5
1A3E2
  8
0
 10
2.2830209502855041
 20
2.130934710444194
 30
0.0
 40
0.125
  1
800.66.TAGUE
  0
ENDBLK
  5
1A3E4
  8
0
  0
BLOCK
  8
0
  2
*U189
 70
     1
 10
0.0
 20
0.0
 30
0.0
  3
*U189
  1

  0
TEXT
  5
1A3E6
  8
0
 10
3.5100871080940119
 20
1.046126857764647
 30
0.0
 40
0.125
  1
Hand Rail
  0
TEXT
  5
1A3E7
  8
0
 10
3.5100871080940119
 20
0.8377935244313146
 30
0.0
 40
0.125
  1
TL-96
  0
TEXT
  5
1A3E8
  8
0
 10
3.5100871080940119
 20
0.6294601910979814
 30
0.0
 40
0.125
  1
1-1/4" x 2-1/4"
  0
TEXT
  5
1A3E9
  8
0
 10
3.5100871080940119
 20
0.4211268577646479
 30
0.0
 40
0.125
  1
800.66.TAGUE
  0
ENDBLK
  5
1A3EB
  8
0
  0
BLOCK
  8
0
  2
*U190
 70
     1
 10
0.0
 20
0.0
 30
0.0
  3
*U190
  1

  0
TEXT
  5
1A3ED
  8
0
 10
2.3417636350062589
 20
4.2171919217870482
 30
0.0
 40
0.125
  1
Hand Rail
  0
TEXT
  5
1A3EE
  8
0
 10
2.3417636350062589
 20
4.0088585884537151
 30
0.0
 40
0.125
  1
TL-117
  0
TEXT
  5
1A3EF
  8
0
 10
2.3417636350062589
 20
3.8005252551203812
 30
0.0
 40
0.125
  1
1-1/4" x 8-1/8"
  0
TEXT
  5
1A3F0
  8
0
 10
2.3417636350062589
 20
3.5921919217870482
 30
0.0
 40
0.125
  1
800.66.TAGUE
  0
ENDBLK
  5
1A3F2
  8
0
  0
BLOCK
  8
0
  2
*U191
 70
     1
 10
0.0
 20
0.0
 30
0.0
  3
*U191
  1

  0
TEXT
  5
1A3F4
  8
0
 10
2.7125232555794119
 20
1.098442957172892
 30
0.0
 40
0.125
  1
Hand Rail
  0
TEXT
  5
1A3F5
  8
0
 10
2.7125232555794119
 20
0.8901096238395592
 30
0.0
 40
0.125
  1
TL-231
  0
TEXT
  5
1A3F6
  8
0
 10
2.7125232555794119
 20
0.6817762905062259
 30
0.0
 40
0.125
  1
1-1/2" x 1-11/16"
  0
TEXT
  5
1A3F7
  8
0
 10
2.7125232555794119
 20
0.4734429571728925
 30
0.0
 40
0.125
  1
800.66.TAGUE
  0
ENDBLK
  5
1A3F9
  8
0
  0
BLOCK
  8
0
  2
*U192
 70
     1
 10
0.0
 20
0.0
 30
0.0
  3
*U192
  1

  0
TEXT
  5
1A3FB
  8
0
 10
2.960252587020249
 20
0.6772989443436474
 30
0.0
 40
0.125
  1
Lattice
  0
TEXT
  5
1A3FC
  8
0
 10
2.960252587020249
 20
0.468965611010314
 30
0.0
 40
0.125
  1
TL-266
  0
TEXT
  5
1A3FD
  8
0
 10
2.960252587020249
 20
0.2606322776769806
 30
0.0
 40
0.125
  1
1/4" x 1-5/8"
  0
TEXT
  5
1A3FE
  8
0
 10
2.960252587020249
 20
0.0522989443436472
 30
0.0
 40
0.125
  1
800.66.TAGUE
  0
ENDBLK
  5
1A400
  8
0
  0
BLOCK
  8
0
  2
*U193
 70
     1
 10
0.0
 20
0.0
 30
0.0
  3
*U193
  1

  0
TEXT
  5
1A402
  8
0
 10
2.5177643903332401
 20
0.6772985360157691
 30
0.0
 40
0.125
  1
Lattice
  0
TEXT
  5
1A403
  8
0
 10
2.5177643903332401
 20
0.4689652026824358
 30
0.0
 40
0.125
  1
TL-267
  0
TEXT
  5
1A404
  8
0
 10
2.5177643903332401
 20
0.2606318693491024
 30
0.0
 40
0.125
  1
1/4" x 1-3/8"
  0
TEXT
  5
1A405
  8
0
 10
2.5177643903332401
 20
0.0522985360157691
 30
0.0
 40
0.125
  1
800.66.TAGUE
  0
ENDBLK
  5
1A407
  8
0
  0
BLOCK
  8
0
  2
*U194
 70
     1
 10
0.0
 20
0.0
 30
0.0
  3
*U194
  1

  0
TEXT
  5
1A409
  8
0
 10
2.3872073702682419
 20
0.6772987437404936
 30
0.0
 40
0.125
  1
Lattice
  0
TEXT
  5
1A40A
  8
0
 10
2.3872073702682419
 20
0.4689654104071603
 30
0.0
 40
0.125
  1
TL-268
  0
TEXT
  5
1A40B
  8
0
 10
2.3872073702682419
 20
0.260632077073827
 30
0.0
 40
0.125
  1
1/4" x 1-1/8"
  0
TEXT
  5
1A40C
  8
0
 10
2.3872073702682419
 20
0.0522987437404936
 30
0.0
 40
0.125
  1
800.66.TAGUE
  0
ENDBLK
  5
1A40E
  8
0
  0
BLOCK
  8
0
  2
*U195
 70
     1
 10
0.0
 20
0.0
 30
0.0
  3
*U195
  1

  0
TEXT
  5
1A410
  8
0
 10
1.7198452767448771
 20
0.6772982915522335
 30
0.0
 40
0.125
  1
Lattice
  0
TEXT
  5
1A411
  8
0
 10
1.7198452767448771
 20
0.4689649582189002
 30
0.0
 40
0.125
  1
TL-269
  0
TEXT
  5
1A412
  8
0
 10
1.7198452767448771
 20
0.2606316248855668
 30
0.0
 40
0.125
  1
1/4" x 3/4"
  0
TEXT
  5
1A413
  8
0
 10
1.7198452767448771
 20
0.0522982915522334
 30
0.0
 40
0.125
  1
800.66.TAGUE
  0
ENDBLK
  5
1A415
  8
0
  0
BLOCK
  8
0
  2
*U196
 70
     1
 10
0.0
 20
0.0
 30
0.0
  3
*U196
  1

  0
TEXT
  5
1A417
  8
0
 10
2.0085733028087129
 20
0.6772989387914095
 30
0.0
 40
0.125
  1
Lattice
  0
TEXT
  5
1A418
  8
0
 10
2.0085733028087129
 20
0.4689656054580762
 30
0.0
 40
0.125
  1
TL-270
  0
TEXT
  5
1A419
  8
0
 10
2.0085733028087129
 20
0.2606322721247428
 30
0.0
 40
0.125
  1
1/4" x 7/8"
  0
TEXT
  5
1A41A
  8
0
 10
2.0085733028087129
 20
0.0522989387914095
 30
0.0
 40
0.125
  1
800.66.TAGUE
  0
ENDBLK
  5
1A41C
  8
0
  0
BLOCK
  8
0
  2
*U197
 70
     1
 10
0.0
 20
0.0
 30
0.0
  3
*U197
  1

  0
TEXT
  5
1A41E
  8
0
 10
2.940701223973178
 20
0.6772980715210224
 30
0.0
 40
0.125
  1
Lattice
  0
TEXT
  5
1A41F
  8
0
 10
2.940701223973178
 20
0.4689647381876891
 30
0.0
 40
0.125
  1
TL-962
  0
TEXT
  5
1A420
  8
0
 10
2.940701223973178
 20
0.2606314048543558
 30
0.0
 40
0.125
  1
1/4" x 2"
  0
TEXT
  5
1A421
  8
0
 10
2.940701223973178
 20
0.0522980715210224
 30
0.0
 40
0.125
  1
800.66.TAGUE
  0
ENDBLK
  5
1A423
  8
0
  0
BLOCK
  8
0
  2
*U198
 70
     1
 10
0.0
 20
0.0
 30
0.0
  3
*U198
  1

  0
TEXT
  5
1A425
  8
0
 10
1.983768624240724
 20
1.1498699559202801
 30
0.0
 40
0.125
  1
Lip Moulding
  0
TEXT
  5
1A426
  8
0
 10
1.983768624240724
 20
0.9415366225869473
 30
0.0
 40
0.125
  1
TL-18
  0
TEXT
  5
1A427
  8
0
 10
1.983768624240724
 20
0.7332032892536139
 30
0.0
 40
0.125
  1
3/4" x 1-15/16"
  0
TEXT
  5
1A428
  8
0
 10
1.983768624240724
 20
0.5248699559202806
 30
0.0
 40
0.125
  1
800.66.TAGUE
  0
ENDBLK
  5
1A42A
  8
0
  0
BLOCK
  8
0
  2
*U199
 70
     1
 10
0.0
 20
0.0
 30
0.0
  3
*U199
  1

  0
TEXT
  5
1A42C
  8
0
 10
2.2853728967398861
 20
1.2855052394233999
 30
0.0
 40
0.125
  1
Lip Moulding
  0
TEXT
  5
1A42D
  8
0
 10
2.2853728967398861
 20
1.0771719060900671
 30
0.0
 40
0.125
  1
TL-530
  0
TEXT
  5
1A42E
  8
0
 10
2.2853728967398861
 20
0.8688385727567342
 30
0.0
 40
0.125
  1
5/8" x 1-5/8"
  0
TEXT
  5
1A42F
  8
0
 10
2.2853728967398861
 20
0.6605052394234008
 30
0.0
 40
0.125
  1
800.66.TAGUE
  0
ENDBLK
  5
1A431
  8
0
  0
BLOCK
  8
0
  2
*U200
 70
     1
 10
0.0
 20
0.0
 30
0.0
  3
*U200
  1

  0
TEXT
  5
1A433
  8
0
 10
2.269200201813987
 20
1.1997502285778401
 30
0.0
 40
0.125
  1
Lip Moulding
  0
TEXT
  5
1A434
  8
0
 10
2.269200201813987
 20
0.9914168952445077
 30
0.0
 40
0.125
  1
TL-532
  0
TEXT
  5
1A435
  8
0
 10
2.269200201813987
 20
0.7830835619111745
 30
0.0
 40
0.125
  1
3/4" x 1-3/4"
  0
TEXT
  5
1A436
  8
0
 10
2.269200201813987
 20
0.574750228577841
 30
0.0
 40
0.125
  1
800.66.TAGUE
  0
ENDBLK
  5
1A438
  8
0
  0
BLOCK
  8
0
  2
*U201
 70
     1
 10
0.0
 20
0.0
 30
0.0
  3
*U201
  1

  0
TEXT
  5
1A43A
  8
0
 10
1.8892783014391621
 20
1.241449235052527
 30
0.0
 40
0.125
  1
Lip Moulding
  0
TEXT
  5
1A43B
  8
0
 10
1.8892783014391621
 20
1.033115901719194
 30
0.0
 40
0.125
  1
TL-2169
  0
TEXT
  5
1A43C
  8
0
 10
1.8892783014391621
 20
0.8247825683858613
 30
0.0
 40
0.125
  1
11/16" x 1-7/8"
  0
TEXT
  5
1A43D
  8
0
 10
1.8892783014391621
 20
0.6164492350525279
 30
0.0
 40
0.125
  1
800.66.TAGUE
  0
ENDBLK
  5
1A43F
  8
0
  0
BLOCK
  8
0
  2
*U202
 70
     1
 10
0.0
 20
0.0
 30
0.0
  3
*U202
  1

  0
TEXT
  5
1A441
  8
0
 10
1.620143794977025
 20
1.0038028284741349
 30
0.0
 40
0.125
  1
Lip Moulding
  0
TEXT
  5
1A442
  8
0
 10
1.620143794977025
 20
0.7954694951408026
 30
0.0
 40
0.125
  1
TL-2179
  0
TEXT
  5
1A443
  8
0
 10
1.620143794977025
 20
0.5871361618074693
 30
0.0
 40
0.125
  1
3/4" x 1-1/4"
  0
TEXT
  5
1A444
  8
0
 10
1.620143794977025
 20
0.3788028284741358
 30
0.0
 40
0.125
  1
800.66.TAGUE
  0
ENDBLK
  5
1A446
  8
0
  0
BLOCK
  8
0
  2
*U203
 70
     1
 10
0.0
 20
0.0
 30
0.0
  3
*U203
  1

  0
TEXT
  5
1A448
  8
0
 10
1.9163743563030939
 20
1.019442403193352
 30
0.0
 40
0.125
  1
Lip Moulding
  0
TEXT
  5
1A449
  8
0
 10
1.9163743563030939
 20
0.811109069860019
 30
0.0
 40
0.125
  1
TL-2181
  0
TEXT
  5
1A44A
  8
0
 10
1.9163743563030939
 20
0.6027757365266857
 30
0.0
 40
0.125
  1
3/4" x 1-11/16"
  0
TEXT
  5
1A44B
  8
0
 10
1.9163743563030939
 20
0.3944424031933522
 30
0.0
 40
0.125
  1
800.66.TAGUE
  0
ENDBLK
  5
1A44D
  8
0
  0
BLOCK
  8
0
  2
*U204
 70
     1
 10
0.0
 20
0.0
 30
0.0
  3
*U204
  1

  0
TEXT
  5
1A44F
  8
0
 10
2.0010341316657332
 20
0.9876257387668374
 30
0.0
 40
0.125
  1
Lip Moulding
  0
TEXT
  5
1A450
  8
0
 10
2.0010341316657332
 20
0.7792924054335043
 30
0.0
 40
0.125
  1
TL-2211
  0
TEXT
  5
1A451
  8
0
 10
2.0010341316657332
 20
0.5709590721001709
 30
0.0
 40
0.125
  1
1" x 1-15/32"
  0
TEXT
  5
1A452
  8
0
 10
2.0010341316657332
 20
0.3626257387668375
 30
0.0
 40
0.125
  1
800.66.TAGUE
  0
ENDBLK
  5
1A454
  8
0
  0
BLOCK
  8
0
  2
*U205
 70
     1
 10
0.0
 20
0.0
 30
0.0
  3
*U205
  1

  0
TEXT
  5
1A456
  8
0
 10
1.9547841412725111
 20
1.2443911534714971
 30
0.0
 40
0.125
  1
Lip Mldg
  0
TEXT
  5
1A457
  8
0
 10
1.9547841412725111
 20
1.0360578201381629
 30
0.0
 40
0.125
  1
TL-2302
  0
TEXT
  5
1A458
  8
0
 10
1.9547841412725111
 20
0.8277244868048304
 30
0.0
 40
0.125
  1
13/16" x 1-3/4"
  0
TEXT
  5
1A459
  8
0
 10
1.9547841412725111
 20
0.6193911534714971
 30
0.0
 40
0.125
  1
800.66.TAGUE
  0
ENDBLK
  5
1A45B
  8
0
  0
BLOCK
  8
0
  2
*U206
 70
     1
 10
0.0
 20
0.0
 30
0.0
  3
*U206
  1

  0
TEXT
  5
1A45D
  8
0
 10
1.971391504344296
 20
2.3593485866246051
 30
0.0
 40
0.125
  1
Mantle Moulding
  0
TEXT
  5
1A45E
  8
0
 10
1.971391504344296
 20
2.1510152532912721
 30
0.0
 40
0.125
  1
TL-9
  0
TEXT
  5
1A45F
  8
0
 10
1.971391504344296
 20
1.942681919957939
 30
0.0
 40
0.125
  1
1-5/8" x 5-1/8"
  0
TEXT
  5
1A460
  8
0
 10
1.971391504344296
 20
1.7343485866246049
 30
0.0
 40
0.125
  1
800.66.TAGUE
  0
ENDBLK
  5
1A462
  8
0
  0
BLOCK
  8
0
  2
*U207
 70
     1
 10
0.0
 20
0.0
 30
0.0
  3
*U207
  1

  0
TEXT
  5
1A464
  8
0
 10
1.824484143033146
 20
2.7467482000251939
 30
0.0
 40
0.125
  1
Mantle Moulding
  0
TEXT
  5
1A465
  8
0
 10
1.824484143033146
 20
2.5384148666918609
 30
0.0
 40
0.125
  1
TL-10
  0
TEXT
  5
1A466
  8
0
 10
1.824484143033146
 20
2.3300815333585279
 30
0.0
 40
0.125
  1
1-3/8" x 5"
  0
TEXT
  5
1A467
  8
0
 10
1.824484143033146
 20
2.1217482000251939
 30
0.0
 40
0.125
  1
800.66.TAGUE
  0
ENDBLK
  5
1A469
  8
0
  0
BLOCK
  8
0
  2
*U208
 70
     1
 10
0.0
 20
0.0
 30
0.0
  3
*U208
  1

  0
TEXT
  5
1A46B
  8
0
 10
1.778440342841463
 20
0.6794305349126262
 30
0.0
 40
0.125
  1
Mantle Shelf
  0
TEXT
  5
1A46C
  8
0
 10
1.778440342841463
 20
0.4710972015792928
 30
0.0
 40
0.125
  1
TL-2184
  0
TEXT
  5
1A46D
  8
0
 10
1.778440342841463
 20
0.2627638682459594
 30
0.0
 40
0.125
  1
1-1/4" x 5-1/2"
  0
TEXT
  5
1A46E
  8
0
 10
1.778440342841463
 20
0.0544305349126262
 30
0.0
 40
0.125
  1
800.66.TAGUE
  0
ENDBLK
  5
1A470
  8
0
  0
BLOCK
  8
0
  2
*U209
 70
     1
 10
0.0
 20
0.0
 30
0.0
  3
*U209
  1

  0
TEXT
  5
1A472
  8
0
 10
2.009611089016857
 20
0.679430549910876
 30
0.0
 40
0.125
  1
Mantle Shelf
  0
TEXT
  5
1A473
  8
0
 10
2.009611089016857
 20
0.4710972165775426
 30
0.0
 40
0.125
  1
TL-2185
  0
TEXT
  5
1A474
  8
0
 10
2.009611089016857
 20
0.2627638832442092
 30
0.0
 40
0.125
  1
1-1/2" x 5-1/2"
  0
TEXT
  5
1A475
  8
0
 10
2.009611089016857
 20
0.0544305499108759
 30
0.0
 40
0.125
  1
800.66.TAGUE
  0
ENDBLK
  5
1A477
  8
0
  0
BLOCK
  8
0
  2
*U210
 70
     1
 10
0.0
 20
0.0
 30
0.0
  3
*U210
  1

  0
TEXT
  5
1A479
  8
0
 62
     0
 10
-367.02425303528412
 20
426.35429858331162
 30
0.0
 40
0.125
  1
1
 50
90.0
  0
TEXT
  5
1A47A
  8
0
 62
     0
 10
-367.10758636861738
 20
426.43763191664488
 30
0.0
 40
0.125
  1
3
 50
90.0
  0
LINE
  5
1A47B
  8
0
 62
     0
 10
-367.08675303528412
 20
426.43763191664488
 30
0.0
 11
-367.08675303528412
 21
426.52096524997819
 31
0.0
  0
TEXT
  5
1A47C
  8
0
 62
     0
 10
-366.9409197019508
 20
426.43763191664488
 30
0.0
 40
0.125
  1
4
 50
90.0
  0
TEXT
  5
1A47D
  8
0
 62
     0
 10
-367.02425303528412
 20
426.56263191664482
 30
0.0
 40
0.125
  1
"
 50
90.0
  0
ENDBLK
  5
1A47F
  8
0
  0
BLOCK
  8
0
  2
*U211
 70
     1
 10
0.0
 20
0.0
 30
0.0
  3
*U211
  1

  0
TEXT
  5
1A481
  8
0
 62
     0
 10
-364.19000805364777
 20
425.28877174148101
 30
0.0
 40
0.125
  1
7
  0
LINE
  5
1A482
  8
0
 62
     0
 10
-364.19000805364777
 20
425.2679384081477
 30
0.0
 11
-364.10667472031452
 21
425.2679384081477
 31
0.0
  0
TEXT
  5
1A483
  8
0
 62
     0
 10
-364.19000805364777
 20
425.12210507481433
 30
0.0
 40
0.125
  1
8
  0
TEXT
  5
1A484
  8
0
 62
     0
 10
-364.06500805364777
 20
425.2054384081477
 30
0.0
 40
0.125
  1
"
  0
ENDBLK
  5
1A486
  8
0
  0
BLOCK
  8
0
  2
*U212
 70
     1
 10
0.0
 20
0.0
 30
0.0
  3
*U212
  1

  0
TEXT
  5
1A488
  8
0
 62
     0
 10
-363.14629495961572
 20
426.36117705424232
 30
0.0
 40
0.125
  1
1
 50
90.0
  0
TEXT
  5
1A489
  8
0
 62
     0
 10
-363.22962829294897
 20
426.46534372090889
 30
0.0
 40
0.125
  1
1
 50
90.0
  0
LINE
  5
1A48A
  8
0
 62
     0
 10
-363.20879495961572
 20
426.44451038757558
 30
0.0
 11
-363.20879495961572
 21
426.52784372090889
 31
0.0
  0
TEXT
  5
1A48B
  8
0
 62
     0
 10
-363.06296162628229
 20
426.44451038757558
 30
0.0
 40
0.125
  1
2
 50
90.0
  0
TEXT
  5
1A48C
  8
0
 62
     0
 10
-363.14629495961572
 20
426.56951038757558
 30
0.0
 40
0.125
  1
"
 50
90.0
  0
ENDBLK
  5
1A48E
  8
0
  0
BLOCK
  8
0
  2
*U213
 70
     1
 10
0.0
 20
0.0
 30
0.0
  3
*U213
  1

  0
TEXT
  5
1A490
  8
0
 62
     0
 10
-387.96524739614358
 20
838.7451809866343
 30
0.0
 40
0.125
  1
1
 50
90.0
  0
TEXT
  5
1A491
  8
0
 62
     0
 10
-388.0485807294769
 20
838.82851431996767
 30
0.0
 40
0.125
  1
3
 50
90.0
  0
LINE
  5
1A492
  8
0
 62
     0
 10
-388.02774739614358
 20
838.82851431996767
 30
0.0
 11
-388.02774739614358
 21
838.91184765330104
 31
0.0
  0
TEXT
  5
1A493
  8
0
 62
     0
 10
-387.88191406281032
 20
838.82851431996767
 30
0.0
 40
0.125
  1
4
 50
90.0
  0
TEXT
  5
1A494
  8
0
 62
     0
 10
-387.96524739614358
 20
838.95351431996755
 30
0.0
 40
0.125
  1
"
 50
90.0
  0
ENDBLK
  5
1A496
  8
0
  0
BLOCK
  8
0
  2
*U214
 70
     1
 10
0.0
 20
0.0
 30
0.0
  3
*U214
  1

  0
TEXT
  5
1A498
  8
0
 62
     0
 10
-385.13236667098761
 20
837.67914254862364
 30
0.0
 40
0.125
  1
7
  0
LINE
  5
1A499
  8
0
 62
     0
 10
-385.13236667098761
 20
837.65830921529016
 30
0.0
 11
-385.04903333765429
 21
837.65830921529016
 31
0.0
  0
TEXT
  5
1A49A
  8
0
 62
     0
 10
-385.13236667098761
 20
837.51247588195702
 30
0.0
 40
0.125
  1
8
  0
TEXT
  5
1A49B
  8
0
 62
     0
 10
-385.00736667098761
 20
837.59580921529039
 30
0.0
 40
0.125
  1
"
  0
ENDBLK
  5
1A49D
  8
0
  0
BLOCK
  8
0
  2
*U215
 70
     1
 10
0.0
 20
0.0
 30
0.0
  3
*U215
  1

  0
TEXT
  5
1A49F
  8
0
 62
     0
 10
-384.08814198077528
 20
838.75205945756488
 30
0.0
 40
0.125
  1
1
 50
90.0
  0
TEXT
  5
1A4A0
  8
0
 62
     0
 10
-384.1714753141087
 20
838.85622612423163
 30
0.0
 40
0.125
  1
1
 50
90.0
  0
LINE
  5
1A4A1
  8
0
 62
     0
 10
-384.15064198077539
 20
838.83539279089825
 30
0.0
 11
-384.15064198077539
 21
838.91872612423185
 31
0.0
  0
TEXT
  5
1A4A2
  8
0
 62
     0
 10
-384.00480864744202
 20
838.83539279089825
 30
0.0
 40
0.125
  1
2
 50
90.0
  0
TEXT
  5
1A4A3
  8
0
 62
     0
 10
-384.08814198077528
 20
838.96039279089837
 30
0.0
 40
0.125
  1
"
 50
90.0
  0
ENDBLK
  5
1A4A5
  8
0
  0
BLOCK
  8
0
  2
*U216
 70
     1
 10
0.0
 20
0.0
 30
0.0
  3
*U216
  1

  0
TEXT
  5
1A4A7
  8
0
 62
     0
 10
-323.13119819751643
 20
425.11559169813461
 30
0.0
 40
0.125
  1
1
 50
90.0
  0
TEXT
  5
1A4A8
  8
0
 62
     0
 10
-323.2145315308498
 20
425.19892503146798
 30
0.0
 40
0.125
  1
3
 50
90.0
  0
LINE
  5
1A4A9
  8
0
 62
     0
 10
-323.19369819751643
 20
425.19892503146798
 30
0.0
 11
-323.19369819751643
 21
425.28225836480118
 31
0.0
  0
TEXT
  5
1A4AA
  8
0
 62
     0
 10
-323.04786486418311
 20
425.19892503146798
 30
0.0
 40
0.125
  1
4
 50
90.0
  0
TEXT
  5
1A4AB
  8
0
 62
     0
 10
-323.13119819751643
 20
425.32392503146792
 30
0.0
 40
0.125
  1
"
 50
90.0
  0
ENDBLK
  5
1A4AD
  8
0
  0
BLOCK
  8
0
  2
*U217
 70
     1
 10
0.0
 20
0.0
 30
0.0
  3
*U217
  1

  0
TEXT
  5
1A4AF
  8
0
 62
     0
 10
-318.6214997668344
 20
425.11559169813461
 30
0.0
 40
0.125
  1
1
 50
90.0
  0
TEXT
  5
1A4B0
  8
0
 62
     0
 10
-318.70483310016772
 20
425.19892503146798
 30
0.0
 40
0.125
  1
3
 50
90.0
  0
LINE
  5
1A4B1
  8
0
 62
     0
 10
-318.6839997668344
 20
425.19892503146798
 30
0.0
 11
-318.6839997668344
 21
425.28225836480118
 31
0.0
  0
TEXT
  5
1A4B2
  8
0
 62
     0
 10
-318.53816643350109
 20
425.19892503146798
 30
0.0
 40
0.125
  1
8
 50
90.0
  0
TEXT
  5
1A4B3
  8
0
 62
     0
 10
-318.6214997668344
 20
425.32392503146792
 30
0.0
 40
0.125
  1
"
 50
90.0
  0
ENDBLK
  5
1A4B5
  8
0
  0
BLOCK
  8
0
  2
*U218
 70
     1
 10
0.0
 20
0.0
 30
0.0
  3
*U218
  1

  0
TEXT
  5
1A4B7
  8
0
 62
     0
 10
-387.56461450221548
 20
838.89288512488679
 30
0.0
 40
0.125
  1
1
 50
90.0
  0
TEXT
  5
1A4B8
  8
0
 62
     0
 10
-387.64794783554891
 20
838.97621845822005
 30
0.0
 40
0.125
  1
3
 50
90.0
  0
LINE
  5
1A4B9
  8
0
 62
     0
 10
-387.62711450221559
 20
838.97621845822005
 30
0.0
 11
-387.62711450221559
 21
839.05955179155353
 31
0.0
  0
TEXT
  5
1A4BA
  8
0
 62
     0
 10
-387.48128116888222
 20
838.97621845822005
 30
0.0
 40
0.125
  1
4
 50
90.0
  0
TEXT
  5
1A4BB
  8
0
 62
     0
 10
-387.56461450221548
 20
839.10121845822005
 30
0.0
 40
0.125
  1
"
 50
90.0
  0
ENDBLK
  5
1A4BD
  8
0
  0
BLOCK
  8
0
  2
*U219
 70
     1
 10
0.0
 20
0.0
 30
0.0
  3
*U219
  1

  0
TEXT
  5
1A4BF
  8
0
 62
     0
 10
-383.05359444806828
 20
838.89288512488679
 30
0.0
 40
0.125
  1
1
 50
90.0
  0
TEXT
  5
1A4C0
  8
0
 62
     0
 10
-383.13692778140171
 20
838.97621845822005
 30
0.0
 40
0.125
  1
3
 50
90.0
  0
LINE
  5
1A4C1
  8
0
 62
     0
 10
-383.1160944480684
 20
838.97621845822005
 30
0.0
 11
-383.1160944480684
 21
839.05955179155353
 31
0.0
  0
TEXT
  5
1A4C2
  8
0
 62
     0
 10
-382.97026111473502
 20
838.97621845822005
 30
0.0
 40
0.125
  1
8
 50
90.0
  0
TEXT
  5
1A4C3
  8
0
 62
     0
 10
-383.05359444806828
 20
839.10121845822005
 30
0.0
 40
0.125
  1
"
 50
90.0
  0
ENDBLK
  5
1A4C5
  8
0
  0
BLOCK
  8
0
  2
*U220
 70
     1
 10
0.0
 20
0.0
 30
0.0
  3
*U220
  1

  0
TEXT
  5
1A4C7
  8
0
 10
1.872123119890716
 20
0.7588046473348414
 30
0.0
 40
0.125
  1
Nosing & Cove
  0
TEXT
  5
1A4C8
  8
0
 10
1.872123119890716
 20
0.5504713140015081
 30
0.0
 40
0.125
  1
TL-20
  0
TEXT
  5
1A4C9
  8
0
 10
1.872123119890716
 20
0.3421379806681747
 30
0.0
 40
0.125
  1
3/4" x 1-5/16"
  0
TEXT
  5
1A4CA
  8
0
 10
1.872123119890716
 20
0.1338046473348413
 30
0.0
 40
0.125
  1
800.66.TAGUE
  0
ENDBLK
  5
1A4CC
  8
0
  0
BLOCK
  8
0
  2
*U221
 70
     1
 10
0.0
 20
0.0
 30
0.0
  3
*U221
  1

  0
TEXT
  5
1A4CE
  8
0
 10
1.914126813415123
 20
0.8585704022782466
 30
0.0
 40
0.125
  1
Nosing & Cove
  0
TEXT
  5
1A4CF
  8
0
 10
1.914126813415123
 20
0.6502370689449134
 30
0.0
 40
0.125
  1
TL-21
  0
TEXT
  5
1A4D0
  8
0
 10
1.914126813415123
 20
0.44190373561158
 30
0.0
 40
0.125
  1
1-1/8" x 1-3/4"
  0
TEXT
  5
1A4D1
  8
0
 10
1.914126813415123
 20
0.2335704022782465
 30
0.0
 40
0.125
  1
800.66.TAGUE
  0
ENDBLK
  5
1A4D3
  8
0
  0
BLOCK
  8
0
  2
*U222
 70
     1
 10
0.0
 20
0.0
 30
0.0
  3
*U222
  1

  0
TEXT
  5
1A4D5
  8
0
 10
2.1633643582791811
 20
1.2559710060997979
 30
0.0
 40
0.125
  1
Nosing & Cove
  0
TEXT
  5
1A4D6
  8
0
 10
2.1633643582791811
 20
1.0476376727664649
 30
0.0
 40
0.125
  1
TL-22
  0
TEXT
  5
1A4D7
  8
0
 10
2.1633643582791811
 20
0.839304339433132
 30
0.0
 40
0.125
  1
1-5/16" x 2-1/4"
  0
TEXT
  5
1A4D8
  8
0
 10
2.1633643582791811
 20
0.6309710060997987
 30
0.0
 40
0.125
  1
800.66.TAGUE
  0
ENDBLK
  5
1A4DA
  8
0
  0
BLOCK
  8
0
  2
*U223
 70
     1
 10
0.0
 20
0.0
 30
0.0
  3
*U223
  1

  0
TEXT
  5
1A4DC
  8
0
 10
1.1386258441601731
 20
1.192489029325315
 30
0.0
 40
0.125
  1
Nosing & Cove
  0
TEXT
  5
1A4DD
  8
0
 10
1.1386258441601731
 20
0.9841556959919824
 30
0.0
 40
0.125
  1
TL-2256
  0
TEXT
  5
1A4DE
  8
0
 10
1.1386258441601731
 20
0.7758223626586491
 30
0.0
 40
0.125
  1
5/8" x 1-1/2"
  0
TEXT
  5
1A4DF
  8
0
 10
1.1386258441601731
 20
0.5674890293253158
 30
0.0
 40
0.125
  1
800.66.TAGUE
  0
ENDBLK
  5
1A4E1
  8
0
  0
BLOCK
  8
0
  2
*U224
 70
     1
 10
0.0
 20
0.0
 30
0.0
  3
*U224
  1

  0
TEXT
  5
1A4E3
  8
0
 10
0.8465252202594228
 20
0.679429976342135
 30
0.0
 40
0.125
  1
Nosing & Cove
  0
TEXT
  5
1A4E4
  8
0
 10
0.8465252202594228
 20
0.4710966430088017
 30
0.0
 40
0.125
  1
TL-2257
  0
TEXT
  5
1A4E5
  8
0
 10
0.8465252202594228
 20
0.2627633096754684
 30
0.0
 40
0.125
  1
5/16" x 1/2"
  0
TEXT
  5
1A4E6
  8
0
 10
0.8465252202594228
 20
0.054429976342135
 30
0.0
 40
0.125
  1
800.66.TAGUE
  0
ENDBLK
  5
1A4E8
  8
0
  0
BLOCK
  8
0
  2
*U225
 70
     1
 10
0.0
 20
0.0
 30
0.0
  3
*U225
  1

  0
TEXT
  5
1A4EA
  8
0
 10
2.3806405474079488
 20
1.3133539302667709
 30
0.0
 40
0.125
  1
Ogee
  0
TEXT
  5
1A4EB
  8
0
 10
2.3806405474079488
 20
1.1050205969334379
 30
0.0
 40
0.125
  1
TL-16
  0
TEXT
  5
1A4EC
  8
0
 10
2.3806405474079488
 20
0.8966872636001046
 30
0.0
 40
0.125
  1
1-3/8" x 2"
  0
TEXT
  5
1A4ED
  8
0
 10
2.3806405474079488
 20
0.6883539302667714
 30
0.0
 40
0.125
  1
800.66.TAGUE
  0
ENDBLK
  5
1A4EF
  8
0
  0
BLOCK
  8
0
  2
*U226
 70
     1
 10
0.0
 20
0.0
 30
0.0
  3
*U226
  1

  0
TEXT
  5
1A502
  8
0
 10
2.7261344289668719
 20
1.6601320963039821
 30
0.0
 40
0.125
  1
Ogee
  0
TEXT
  5
1A503
  8
0
 10
2.7261344289668719
 20
1.451798762970649
 30
0.0
 40
0.125
  1
TL-17
  0
TEXT
  5
1A504
  8
0
 10
2.7261344289668719
 20
1.2434654296373151
 30
0.0
 40
0.125
  1
2-5/16" x 1-7/8"
  0
TEXT
  5
1A505
  8
0
 10
2.7261344289668719
 20
1.0351320963039821
 30
0.0
 40
0.125
  1
800.66.TAGUE
  0
ENDBLK
  5
1A507
  8
0
  0
BLOCK
  8
0
  2
*U227
 70
     1
 10
0.0
 20
0.0
 30
0.0
  3
*U227
  1

  0
TEXT
  5
1A509
  8
0
 10
1.8303727118446309
 20
0.9120296408366357
 30
0.0
 40
0.125
  1
Ogee
  0
TEXT
  5
1A50A
  8
0
 10
1.8303727118446309
 20
0.7036963075033026
 30
0.0
 40
0.125
  1
TL-166
  0
TEXT
  5
1A50B
  8
0
 10
1.8303727118446309
 20
0.4953629741699692
 30
0.0
 40
0.125
  1
11/16" x 1-1/4"
  0
TEXT
  5
1A50C
  8
0
 10
1.8303727118446309
 20
0.2870296408366357
 30
0.0
 40
0.125
  1
800.66.TAGUE
  0
ENDBLK
  5
1A50E
  8
0
  0
BLOCK
  8
0
  2
*U228
 70
     1
 10
0.0
 20
0.0
 30
0.0
  3
*U228
  1

  0
TEXT
  5
1A510
  8
0
 10
1.573032674973148
 20
0.835411988577448
 30
0.0
 40
0.125
  1
Ogee
  0
TEXT
  5
1A511
  8
0
 10
1.573032674973148
 20
0.6270786552441149
 30
0.0
 40
0.125
  1
TL-167
  0
TEXT
  5
1A512
  8
0
 10
1.573032674973148
 20
0.4187453219107815
 30
0.0
 40
0.125
  1
11/16" x 7/8"
  0
TEXT
  5
1A513
  8
0
 10
1.573032674973148
 20
0.210411988577448
 30
0.0
 40
0.125
  1
800.66.TAGUE
  0
ENDBLK
  5
1A515
  8
0
  0
BLOCK
  8
0
  2
*U229
 70
     1
 10
0.0
 20
0.0
 30
0.0
  3
*U229
  1

  0
TEXT
  5
1A517
  8
0
 10
1.814825501310565
 20
1.0878383681827011
 30
0.0
 40
0.125
  1
Ogee Moulding
  0
TEXT
  5
1A518
  8
0
 10
1.814825501310565
 20
0.8795050348493685
 30
0.0
 40
0.125
  1
TL-2240
  0
TEXT
  5
1A519
  8
0
 10
1.814825501310565
 20
0.6711717015160352
 30
0.0
 40
0.125
  1
25/32" x 13/16"
  0
TEXT
  5
1A51A
  8
0
 10
1.814825501310565
 20
0.4628383681827018
 30
0.0
 40
0.125
  1
800.66.TAGUE
  0
ENDBLK
  5
1A51C
  8
0
  0
BLOCK
  8
0
  2
*U230
 70
     1
 10
0.0
 20
0.0
 30
0.0
  3
*U230
  1

  0
TEXT
  5
1A51E
  8
0
 10
2.966704883543116
 20
1.2733224952305591
 30
0.0
 40
0.125
  1
Ogee Moulding
  0
TEXT
  5
1A51F
  8
0
 10
2.966704883543116
 20
1.0649891618972249
 30
0.0
 40
0.125
  1
TL-2255
  0
TEXT
  5
1A520
  8
0
 10
2.966704883543116
 20
0.8566558285638924
 30
0.0
 40
0.125
  1
1-1/2" x 2-1/8"
  0
TEXT
  5
1A521
  8
0
 10
2.966704883543116
 20
0.6483224952305591
 30
0.0
 40
0.125
  1
800.66.TAGUE
  0
ENDBLK
  5
1A523
  8
0
  0
BLOCK
  8
0
  2
*U231
 70
     1
 10
0.0
 20
0.0
 30
0.0
  3
*U231
  1

  0
TEXT
  5
1A525
  8
0
 10
1.767740232165522
 20
0.6795164786933583
 30
0.0
 40
0.125
  1
Ogee
  0
TEXT
  5
1A526
  8
0
 10
1.767740232165522
 20
0.471183145360025
 30
0.0
 40
0.125
  1
TL-2280
  0
TEXT
  5
1A527
  8
0
 10
1.767740232165522
 20
0.2628498120266917
 30
0.0
 40
0.125
  1
1/2"  x 5/8"
  0
TEXT
  5
1A528
  8
0
 10
1.767740232165522
 20
0.0545164786933583
 30
0.0
 40
0.125
  1
800.66.TAGUE
  0
ENDBLK
  5
1A52A
  8
0
  0
BLOCK
  8
0
  2
*U232
 70
     1
 10
0.0
 20
0.0
 30
0.0
  3
*U232
  1

  0
TEXT
  5
1A52C
  8
0
 10
2.5765420776576198
 20
0.9513347006069352
 30
0.0
 40
0.125
  1
Ogee
  0
TEXT
  5
1A52D
  8
0
 10
2.5765420776576198
 20
0.7430013672736021
 30
0.0
 40
0.125
  1
TL-2326
  0
TEXT
  5
1A52E
  8
0
 10
2.5765420776576198
 20
0.5346680339402687
 30
0.0
 40
0.125
  1
1-3/4" x 1-13/32"
  0
TEXT
  5
1A52F
  8
0
 10
2.5765420776576198
 20
0.3263347006069353
 30
0.0
 40
0.125
  1
800.66.TAGUE
  0
ENDBLK
  5
1A531
  8
0
  0
BLOCK
  8
0
  2
*U233
 70
     1
 10
0.0
 20
0.0
 30
0.0
  3
*U233
  1

  0
TEXT
  5
1A533
  8
0
 10
1.8232672208571321
 20
1.0097170300313101
 30
0.0
 40
0.125
  1
Panel Moulding
  0
TEXT
  5
1A534
  8
0
 10
1.8232672208571321
 20
0.8013836966979775
 30
0.0
 40
0.125
  1
TL-54
  0
TEXT
  5
1A535
  8
0
 10
1.8232672208571321
 20
0.5930503633646445
 30
0.0
 40
0.125
  1
5/8" x 1-3/8"
  0
TEXT
  5
1A536
  8
0
 10
1.8232672208571321
 20
0.384717030031311
 30
0.0
 40
0.125
  1
800.66.TAGUE
  0
ENDBLK
  5
1A538
  8
0
  0
BLOCK
  8
0
  2
*U234
 70
     1
 10
0.0
 20
0.0
 30
0.0
  3
*U234
  1

  0
TEXT
  5
1A53A
  8
0
 10
1.6082414945508381
 20
0.8848429445537249
 30
0.0
 40
0.125
  1
Panel Moulding
  0
TEXT
  5
1A53B
  8
0
 10
1.6082414945508381
 20
0.6765096112203916
 30
0.0
 40
0.125
  1
TL-56
  0
TEXT
  5
1A53C
  8
0
 10
1.6082414945508381
 20
0.4681762778870584
 30
0.0
 40
0.125
  1
3/4" x 1-1/2"
  0
TEXT
  5
1A53D
  8
0
 10
1.6082414945508381
 20
0.2598429445537249
 30
0.0
 40
0.125
  1
800.66.TAGUE
  0
ENDBLK
  5
1A53F
  8
0
  0
BLOCK
  8
0
  2
*U235
 70
     1
 10
0.0
 20
0.0
 30
0.0
  3
*U235
  1

  0
TEXT
  5
1A541
  8
0
 10
1.430001145945198
 20
1.055442987142782
 30
0.0
 40
0.125
  1
Panel Moulding
  0
TEXT
  5
1A542
  8
0
 10
1.430001145945198
 20
0.8471096538094494
 30
0.0
 40
0.125
  1
TL-57
  0
TEXT
  5
1A543
  8
0
 10
1.430001145945198
 20
0.6387763204761163
 30
0.0
 40
0.125
  1
9/16" x 1-15/16"
  0
TEXT
  5
1A544
  8
0
 10
1.430001145945198
 20
0.4304429871427829
 30
0.0
 40
0.125
  1
800.66.TAGUE
  0
ENDBLK
  5
1A546
  8
0
  0
BLOCK
  8
0
  2
*U236
 70
     1
 10
0.0
 20
0.0
 30
0.0
  3
*U236
  1

  0
TEXT
  5
1A548
  8
0
 10
1.681303805809534
 20
1.2026941795735411
 30
0.0
 40
0.125
  1
Panel Moulding
  0
TEXT
  5
1A549
  8
0
 10
1.681303805809534
 20
0.9943608462402076
 30
0.0
 40
0.125
  1
TL-62
  0
TEXT
  5
1A54A
  8
0
 10
1.681303805809534
 20
0.7860275129068745
 30
0.0
 40
0.125
  1
1" x 1-3/4"
  0
TEXT
  5
1A54B
  8
0
 10
1.681303805809534
 20
0.5776941795735411
 30
0.0
 40
0.125
  1
800.66.TAGUE
  0
ENDBLK
  5
1A54D
  8
0
  0
BLOCK
  8
0
  2
*U237
 70
     1
 10
0.0
 20
0.0
 30
0.0
  3
*U237
  1

  0
TEXT
  5
1A54F
  8
0
 10
2.133056331073703
 20
1.437235578786044
 30
0.0
 40
0.125
  1
Panel Moulding
  0
TEXT
  5
1A550
  8
0
 10
2.133056331073703
 20
1.2289022454527101
 30
0.0
 40
0.125
  1
TL-64
  0
TEXT
  5
1A551
  8
0
 10
2.133056331073703
 20
1.0205689121193771
 30
0.0
 40
0.125
  1
1-1/4" x 1-15/16"
  0
TEXT
  5
1A552
  8
0
 10
2.133056331073703
 20
0.8122355787860442
 30
0.0
 40
0.125
  1
800.66.TAGUE
  0
ENDBLK
  5
1A554
  8
0
  0
BLOCK
  8
0
  2
*U238
 70
     1
 10
0.0
 20
0.0
 30
0.0
  3
*U238
  1

  0
TEXT
  5
1A556
  8
0
 10
1.6378445869512459
 20
1.1242484052883119
 30
0.0
 40
0.125
  1
Panel Moulding
  0
TEXT
  5
1A557
  8
0
 10
1.6378445869512459
 20
0.9159150719549795
 30
0.0
 40
0.125
  1
TL-314
  0
TEXT
  5
1A558
  8
0
 10
1.6378445869512459
 20
0.7075817386216463
 30
0.0
 40
0.125
  1
3/4" x 1-3/8"
  0
TEXT
  5
1A559
  8
0
 10
1.6378445869512459
 20
0.4992484052883129
 30
0.0
 40
0.125
  1
800.66.TAGUE
  0
ENDBLK
  5
1A55B
  8
0
  0
BLOCK
  8
0
  2
*U239
 70
     1
 10
0.0
 20
0.0
 30
0.0
  3
*U239
  1

  0
TEXT
  5
1A55D
  8
0
 10
1.793042575215281
 20
1.3157146661659449
 30
0.0
 40
0.125
  1
Panel Moulding
  0
TEXT
  5
1A55E
  8
0
 10
1.793042575215281
 20
1.107381332832611
 30
0.0
 40
0.125
  1
TL-2032
  0
TEXT
  5
1A55F
  8
0
 10
1.793042575215281
 20
0.8990479994992785
 30
0.0
 40
0.125
  1
3/4" x 2"
  0
TEXT
  5
1A560
  8
0
 10
1.793042575215281
 20
0.6907146661659454
 30
0.0
 40
0.125
  1
800.66.TAGUE
  0
ENDBLK
  5
1A562
  8
0
  0
BLOCK
  8
0
  2
*U240
 70
     1
 10
0.0
 20
0.0
 30
0.0
  3
*U240
  1

  0
TEXT
  5
1A564
  8
0
 10
1.8141185831191251
 20
0.8182814091084082
 30
0.0
 40
0.125
  1
Panel Moulding
  0
TEXT
  5
1A565
  8
0
 10
1.8141185831191251
 20
0.6099480757750749
 30
0.0
 40
0.125
  1
TL-2016
  0
TEXT
  5
1A566
  8
0
 10
1.8141185831191251
 20
0.4016147424417417
 30
0.0
 40
0.125
  1
15/16" x 1-11/16"
  0
TEXT
  5
1A567
  8
0
 10
1.8141185831191251
 20
0.1932814091084083
 30
0.0
 40
0.125
  1
800.66.TAGUE
  0
ENDBLK
  5
1A569
  8
0
  0
BLOCK
  8
0
  2
*U241
 70
     1
 10
0.0
 20
0.0
 30
0.0
  3
*U241
  1

  0
TEXT
  5
1A56B
  8
0
 10
1.6323248967152031
 20
0.9094451817165918
 30
0.0
 40
0.125
  1
Panel Moulding
  0
TEXT
  5
1A56C
  8
0
 10
1.6323248967152031
 20
0.7011118483832585
 30
0.0
 40
0.125
  1
TL-2136
  0
TEXT
  5
1A56D
  8
0
 10
1.6323248967152031
 20
0.4927785150499253
 30
0.0
 40
0.125
  1
21/32" x 1"
  0
TEXT
  5
1A56E
  8
0
 10
1.6323248967152031
 20
0.2844451817165918
 30
0.0
 40
0.125
  1
800.66.TAGUE
  0
ENDBLK
  5
1A570
  8
0
  0
BLOCK
  8
0
  2
*U242
 70
     1
 10
0.0
 20
0.0
 30
0.0
  3
*U242
  1

  0
TEXT
  5
1A572
  8
0
 10
1.417623633629318
 20
0.9199699342109398
 30
0.0
 40
0.125
  1
Panel Moulding
  0
TEXT
  5
1A573
  8
0
 10
1.417623633629318
 20
0.7116366008776064
 30
0.0
 40
0.125
  1
TL-2198
  0
TEXT
  5
1A574
  8
0
 10
1.417623633629318
 20
0.5033032675442732
 30
0.0
 40
0.125
  1
3/8" x 15/16"
  0
TEXT
  5
1A575
  8
0
 10
1.417623633629318
 20
0.2949699342109397
 30
0.0
 40
0.125
  1
800.66.TAGUE
  0
ENDBLK
  5
1A577
  8
0
  0
BLOCK
  8
0
  2
*U243
 70
     1
 10
0.0
 20
0.0
 30
0.0
  3
*U243
  1

  0
TEXT
  5
1A579
  8
0
 10
1.152367654636123
 20
0.6934204479599658
 30
0.0
 40
0.125
  1
Panel Moulding
  0
TEXT
  5
1A57A
  8
0
 10
1.152367654636123
 20
0.4850871146266324
 30
0.0
 40
0.125
  1
TL-2068
  0
TEXT
  5
1A57B
  8
0
 10
1.152367654636123
 20
0.276753781293299
 30
0.0
 40
0.125
  1
3/8" x 3/4"
  0
TEXT
  5
1A57C
  8
0
 10
1.152367654636123
 20
0.0684204479599657
 30
0.0
 40
0.125
  1
800.66.TAGUE
  0
ENDBLK
  5
1A57E
  8
0
  0
BLOCK
  8
0
  2
*U244
 70
     1
 10
0.0
 20
0.0
 30
0.0
  3
*U244
  1

  0
TEXT
  5
1A580
  8
0
 10
1.6525119768826919
 20
0.6772984067825975
 30
0.0
 40
0.125
  1
Panel Moulding
  0
TEXT
  5
1A581
  8
0
 10
1.6525119768826919
 20
0.468965073449264
 30
0.0
 40
0.125
  1
TL-2074
  0
TEXT
  5
1A582
  8
0
 10
1.6525119768826919
 20
0.2606317401159307
 30
0.0
 40
0.125
  1
1/2" x 17/32"
  0
TEXT
  5
1A583
  8
0
 10
1.6525119768826919
 20
0.0522984067825974
 30
0.0
 40
0.125
  1
800.66.TAGUE
  0
ENDBLK
  5
1A585
  8
0
  0
BLOCK
  8
0
  2
*U245
 70
     1
 10
0.0
 20
0.0
 30
0.0
  3
*U245
  1

  0
TEXT
  5
1A587
  8
0
 10
1.2174996695814571
 20
0.677298529590189
 30
0.0
 40
0.125
  1
Panel Moulding
  0
TEXT
  5
1A588
  8
0
 10
1.2174996695814571
 20
0.4689651962568556
 30
0.0
 40
0.125
  1
TL-2178
  0
TEXT
  5
1A589
  8
0
 10
1.2174996695814571
 20
0.2606318629235224
 30
0.0
 40
0.125
  1
5/16" x 11/16"
  0
TEXT
  5
1A58A
  8
0
 10
1.2174996695814571
 20
0.052298529590189
 30
0.0
 40
0.125
  1
800.66.TAGUE
  0
ENDBLK
  5
1A58C
  8
0
  0
BLOCK
  8
0
  2
*U246
 70
     1
 10
0.0
 20
0.0
 30
0.0
  3
*U246
  1

  0
TEXT
  5
1A58E
  8
0
 10
1.621705506624266
 20
1.0164844833981299
 30
0.0
 40
0.125
  1
Panel Moulding
  0
TEXT
  5
1A58F
  8
0
 10
1.621705506624266
 20
0.8081511500647971
 30
0.0
 40
0.125
  1
TL-2237
  0
TEXT
  5
1A590
  8
0
 10
1.621705506624266
 20
0.599817816731464
 30
0.0
 40
0.125
  1
3/4" x 1-1/2"
  0
TEXT
  5
1A591
  8
0
 10
1.621705506624266
 20
0.3914844833981306
 30
0.0
 40
0.125
  1
800.66.TAGUE
  0
ENDBLK
  5
1A593
  8
0
  0
BLOCK
  8
0
  2
*U247
 70
     1
 10
0.0
 20
0.0
 30
0.0
  3
*U247
  1

  0
TEXT
  5
1A595
  8
0
 10
2.0683925889327379
 20
1.262249770558469
 30
0.0
 40
0.125
  1
Panel Moulding
  0
TEXT
  5
1A596
  8
0
 10
2.0683925889327379
 20
1.0539164372251351
 30
0.0
 40
0.125
  1
TL-2239
  0
TEXT
  5
1A597
  8
0
 10
2.0683925889327379
 20
0.8455831038918026
 30
0.0
 40
0.125
  1
27/32" x 1-7/8"
  0
TEXT
  5
1A598
  8
0
 10
2.0683925889327379
 20
0.6372497705584692
 30
0.0
 40
0.125
  1
800.66.TAGUE
  0
ENDBLK
  5
1A59A
  8
0
  0
BLOCK
  8
0
  2
*U248
 70
     1
 10
0.0
 20
0.0
 30
0.0
  3
*U248
  1

  0
TEXT
  5
1A59C
  8
0
 10
2.746924783524491
 20
2.4371414641403808
 30
0.0
 40
0.125
  1
Panel Moulding
  0
TEXT
  5
1A59D
  8
0
 10
2.746924783524491
 20
2.2288081308070482
 30
0.0
 40
0.125
  1
TL-2241
  0
TEXT
  5
1A59E
  8
0
 10
2.746924783524491
 20
2.0204747974737152
 30
0.0
 40
0.125
  1
1-5/32" x 3-9/16"
  0
TEXT
  5
1A59F
  8
0
 10
2.746924783524491
 20
1.812141464140381
 30
0.0
 40
0.125
  1
800.66.TAGUE
  0
ENDBLK
  5
1A5A1
  8
0
  0
BLOCK
  8
0
  2
*U249
 70
     1
 10
0.0
 20
0.0
 30
0.0
  3
*U249
  1

  0
TEXT
  5
1A5A3
  8
0
 10
1.48967271797386
 20
1.0711974611003821
 30
0.0
 40
0.125
  1
Panel Moulding
  0
TEXT
  5
1A5A4
  8
0
 10
1.48967271797386
 20
0.8628641277670491
 30
0.0
 40
0.125
  1
TL-2248
  0
TEXT
  5
1A5A5
  8
0
 10
1.48967271797386
 20
0.6545307944337159
 30
0.0
 40
0.125
  1
7/8" x 1-7/8"
  0
TEXT
  5
1A5A6
  8
0
 10
1.48967271797386
 20
0.4461974611003825
 30
0.0
 40
0.125
  1
800.66.TAGUE
  0
ENDBLK
  5
1A5A8
  8
0
  0
BLOCK
  8
0
  2
*U250
 70
     1
 10
0.0
 20
0.0
 30
0.0
  3
*U250
  1

  0
TEXT
  5
1A5AA
  8
0
 10
1.3774554366254961
 20
1.0325907140347681
 30
0.0
 40
0.125
  1
Panel Moulding
  0
TEXT
  5
1A5AB
  8
0
 10
1.3774554366254961
 20
0.8242573807014347
 30
0.0
 40
0.125
  1
TL-2259
  0
TEXT
  5
1A5AC
  8
0
 10
1.3774554366254961
 20
0.6159240473681015
 30
0.0
 40
0.125
  1
1/2" x 1-3/16"
  0
TEXT
  5
1A5AD
  8
0
 10
1.3774554366254961
 20
0.4075907140347681
 30
0.0
 40
0.125
  1
800.66.TAGUE
  0
ENDBLK
  5
1A5AF
  8
0
  0
BLOCK
  8
0
  2
*U251
 70
     1
 10
0.0
 20
0.0
 30
0.0
  3
*U251
  1

  0
TEXT
  5
1A5B1
  8
0
 10
1.4427956644998969
 20
1.4622105465398361
 30
0.0
 40
0.125
  1
Panel Moulding
  0
TEXT
  5
1A5B2
  8
0
 10
1.4427956644998969
 20
1.2538772132065019
 30
0.0
 40
0.125
  1
TL-2260
  0
TEXT
  5
1A5B3
  8
0
 10
1.4427956644998969
 20
1.0455438798731691
 30
0.0
 40
0.125
  1
1/2" x 1-13/16"
  0
TEXT
  5
1A5B4
  8
0
 10
1.4427956644998969
 20
0.8372105465398362
 30
0.0
 40
0.125
  1
800.66.TAGUE
  0
ENDBLK
  5
1A5B6
  8
0
  0
BLOCK
  8
0
  2
*U252
 70
     1
 10
0.0
 20
0.0
 30
0.0
  3
*U252
  1

  0
TEXT
  5
1A5B8
  8
0
 10
2.4257777135581469
 20
1.4688991231314501
 30
0.0
 40
0.125
  1
Panel Moulding
  0
TEXT
  5
1A5B9
  8
0
 10
2.4257777135581469
 20
1.260565789798116
 30
0.0
 40
0.125
  1
TL-2261
  0
TEXT
  5
1A5BA
  8
0
 10
2.4257777135581469
 20
1.0522324564647829
 30
0.0
 40
0.125
  1
13/16" x 2"
  0
TEXT
  5
1A5BB
  8
0
 10
2.4257777135581469
 20
0.8438991231314503
 30
0.0
 40
0.125
  1
800.66.TAGUE
  0
ENDBLK
  5
1A5BD
  8
0
  0
BLOCK
  8
0
  2
*U253
 70
     1
 10
0.0
 20
0.0
 30
0.0
  3
*U253
  1

  0
TEXT
  5
1A5BF
  8
0
 10
2.5069500958813928
 20
0.7911043912140486
 30
0.0
 40
0.125
  1
Panel Moulding
  0
TEXT
  5
1A5C0
  8
0
 10
2.5069500958813928
 20
0.5827710578807152
 30
0.0
 40
0.125
  1
TL-2270
  0
TEXT
  5
1A5C1
  8
0
 10
2.5069500958813928
 20
0.3744377245473819
 30
0.0
 40
0.125
  1
11/16" x 15/16"
  0
TEXT
  5
1A5C2
  8
0
 10
2.5069500958813928
 20
0.1661043912140485
 30
0.0
 40
0.125
  1
800.66.TAGUE
  0
ENDBLK
  5
1A5C4
  8
0
  0
BLOCK
  8
0
  2
*U254
 70
     1
 10
0.0
 20
0.0
 30
0.0
  3
*U254
  1

  0
TEXT
  5
1A5C6
  8
0
 62
     0
 10
-266.30534787530831
 20
273.59262856062833
 30
0.0
 40
0.125
  1
1
 50
90.0
  0
TEXT
  5
1A5C7
  8
0
 62
     0
 10
-266.38868120864157
 20
273.71762856062833
 30
0.0
 40
0.125
  1
5
 50
90.0
  0
LINE
  5
1A5C8
  8
0
 62
     0
 10
-266.36784787530831
 20
273.6759618939617
 30
0.0
 11
-266.36784787530831
 21
273.84262856062833
 31
0.0
  0
TEXT
  5
1A5C9
  8
0
 62
     0
 10
-266.222014541975
 20
273.6759618939617
 30
0.0
 40
0.125
  1
16
 50
90.0
  0
TEXT
  5
1A5CA
  8
0
 62
     0
 10
-266.30534787530831
 20
273.88429522729501
 30
0.0
 40
0.125
  1
"
 50
90.0
  0
ENDBLK
  5
1A5CC
  8
0
  0
BLOCK
  8
0
  2
*U255
 70
     1
 10
0.0
 20
0.0
 30
0.0
  3
*U255
  1

  0
TEXT
  5
1A5CE
  8
0
 62
     0
 10
-265.70247366384262
 20
273.99008194853201
 30
0.0
 40
0.125
  1
11
  0
LINE
  5
1A5CF
  8
0
 62
     0
 10
-265.74414033050931
 20
273.96924861519869
 30
0.0
 11
-265.535806997176
 21
273.96924861519869
 31
0.0
  0
TEXT
  5
1A5D0
  8
0
 62
     0
 10
-265.74414033050931
 20
273.82341528186532
 30
0.0
 40
0.125
  1
32
  0
TEXT
  5
1A5D1
  8
0
 62
     0
 10
-265.49414033050931
 20
273.90674861519869
 30
0.0
 40
0.125
  1
"
  0
ENDBLK
  5
1A5D3
  8
0
  0
BLOCK
  8
0
  2
*U256
 70
     1
 10
0.0
 20
0.0
 30
0.0
  3
*U256
  1

  0
TEXT
  5
1A5D5
  8
0
 10
0.909015082031658
 20
0.6872605440269127
 30
0.0
 40
0.125
  1
Panel Mldg
  0
TEXT
  5
1A5D6
  8
0
 10
0.909015082031658
 20
0.4789272106935793
 30
0.0
 40
0.125
  1
TL-2283
  0
TEXT
  5
1A5D7
  8
0
 10
0.909015082031658
 20
0.3080938773602461
 30
0.0
 40
0.0875
  1
13
  0
LINE
  5
1A5D8
  8
0
 10
0.9900771438509416
 20
0.2364180734849593
 30
0.0
 11
1.0904530202123739
 21
0.3797696812355328
 31
0.0
  0
TEXT
  5
1A5D9
  8
0
 10
1.0548484153649911
 20
0.1914272106935794
 30
0.0
 40
0.0875
  1
16
  0
TEXT
  5
1A5DA
  8
0
 10
1.2006817486983239
 20
0.220593877360246
 30
0.0
 40
0.125
  1
" x 1-
  0
TEXT
  5
1A5DB
  8
0
 10
1.8673484153649911
 20
0.3080938773602461
 30
0.0
 40
0.0875
  1
3
  0
LINE
  5
1A5DC
  8
0
 10
1.8900771438509409
 20
0.2364180734849593
 30
0.0
 11
1.990453020212374
 21
0.3797696812355328
 31
0.0
  0
TEXT
  5
1A5DD
  8
0
 10
1.954848415364991
 20
0.1914272106935794
 30
0.0
 40
0.0875
  1
4
  0
TEXT
  5
1A5DE
  8
0
 10
2.0423484153649909
 20
0.220593877360246
 30
0.0
 40
0.125
  1
"
  0
TEXT
  5
1A5DF
  8
0
 10
0.909015082031658
 20
0.0539272106935793
 30
0.0
 40
0.125
  1
800.66.TAGUE
  0
ENDBLK
  5
1A5E1
  8
0
  0
BLOCK
  8
0
  2
*U257
 70
     1
 10
0.0
 20
0.0
 30
0.0
  3
*U257
  1

  0
TEXT
  5
1A5E3
  8
0
 62
     0
 10
-388.10095765539421
 20
838.47949397127331
 30
0.0
 40
0.125
  1
1
 50
90.0
  0
TEXT
  5
1A5E4
  8
0
 62
     0
 10
-388.18429098872758
 20
838.60449397127343
 30
0.0
 40
0.125
  1
5
 50
90.0
  0
LINE
  5
1A5E5
  8
0
 62
     0
 10
-388.16345765539432
 20
838.5628273046068
 30
0.0
 11
-388.16345765539432
 21
838.72949397127343
 31
0.0
  0
TEXT
  5
1A5E6
  8
0
 62
     0
 10
-388.0176243220609
 20
838.5628273046068
 30
0.0
 40
0.125
  1
16
 50
90.0
  0
TEXT
  5
1A5E7
  8
0
 62
     0
 10
-388.10095765539421
 20
838.77116063794006
 30
0.0
 40
0.125
  1
"
 50
90.0
  0
ENDBLK
  5
1A5E9
  8
0
  0
BLOCK
  8
0
  2
*U258
 70
     1
 10
0.0
 20
0.0
 30
0.0
  3
*U258
  1

  0
TEXT
  5
1A5EB
  8
0
 62
     0
 10
-387.49961823246872
 20
838.8753273046068
 30
0.0
 40
0.125
  1
11
  0
LINE
  5
1A5EC
  8
0
 62
     0
 10
-387.54128489913541
 20
838.85449397127331
 30
0.0
 11
-387.33295156580209
 21
838.85449397127331
 31
0.0
  0
TEXT
  5
1A5ED
  8
0
 62
     0
 10
-387.54128489913541
 20
838.70866063794006
 30
0.0
 40
0.125
  1
32
  0
TEXT
  5
1A5EE
  8
0
 62
     0
 10
-387.29128489913541
 20
838.79199397127366
 30
0.0
 40
0.125
  1
"
  0
ENDBLK
  5
1A5F0
  8
0
  0
BLOCK
  8
0
  2
*U259
 70
     1
 10
0.0
 20
0.0
 30
0.0
  3
*U259
  1

  0
TEXT
  5
1A5F2
  8
0
 10
2.6345862085493641
 20
1.498411677627927
 30
0.0
 40
0.125
  1
Panel Moulding
  0
TEXT
  5
1A5F3
  8
0
 10
2.6345862085493641
 20
1.290078344294594
 30
0.0
 40
0.125
  1
TL-2304
  0
TEXT
  5
1A5F4
  8
0
 10
2.6345862085493641
 20
1.081745010961261
 30
0.0
 40
0.125
  1
1-3/8" x 2"
  0
TEXT
  5
1A5F5
  8
0
 10
2.6345862085493641
 20
0.8734116776279279
 30
0.0
 40
0.125
  1
800.66.TAGUE
  0
ENDBLK
  5
1A5F7
  8
0
  0
BLOCK
  8
0
  2
*U260
 70
     1
 10
0.0
 20
0.0
 30
0.0
  3
*U260
  1

  0
TEXT
  5
1A5F9
  8
0
 10
2.0187131816974211
 20
1.20118096128408
 30
0.0
 40
0.125
  1
Picture Moulding
  0
TEXT
  5
1A5FA
  8
0
 10
2.0187131816974211
 20
0.9928476279507473
 30
0.0
 40
0.125
  1
TL-276
  0
TEXT
  5
1A5FB
  8
0
 10
2.0187131816974211
 20
0.7845142946174141
 30
0.0
 40
0.125
  1
3/4" x 1-3/4"
  0
TEXT
  5
1A5FC
  8
0
 10
2.0187131816974211
 20
0.5761809612840807
 30
0.0
 40
0.125
  1
800.66.TAGUE
  0
ENDBLK
  5
1A5FE
  8
0
  0
BLOCK
  8
0
  2
*U261
 70
     1
 10
0.0
 20
0.0
 30
0.0
  3
*U261
  1

  0
TEXT
  5
1A600
  8
0
 10
1.49770647708442
 20
1.222690512861845
 30
0.0
 40
0.125
  1
Picture Moulding
  0
TEXT
  5
1A601
  8
0
 10
1.49770647708442
 20
1.014357179528512
 30
0.0
 40
0.125
  1
TL-277
  0
TEXT
  5
1A602
  8
0
 10
1.49770647708442
 20
0.8060238461951788
 30
0.0
 40
0.125
  1
3/4" x 1-3/4"
  0
TEXT
  5
1A603
  8
0
 10
1.49770647708442
 20
0.5976905128618455
 30
0.0
 40
0.125
  1
800.66.TAGUE
  0
ENDBLK
  5
1A605
  8
0
  0
BLOCK
  8
0
  2
*U262
 70
     1
 10
0.0
 20
0.0
 30
0.0
  3
*U262
  1

  0
TEXT
  5
1A607
  8
0
 10
1.606155954235418
 20
0.8433418361508984
 30
0.0
 40
0.125
  1
Picture Moulding
  0
TEXT
  5
1A608
  8
0
 10
1.606155954235418
 20
0.6350085028175651
 30
0.0
 40
0.125
  1
TL-2173
  0
TEXT
  5
1A609
  8
0
 10
1.606155954235418
 20
0.4266751694842318
 30
0.0
 40
0.125
  1
13/16" x 1-1/2"
  0
TEXT
  5
1A60A
  8
0
 10
1.606155954235418
 20
0.2183418361508984
 30
0.0
 40
0.125
  1
800.66.TAGUE
  0
ENDBLK
  5
1A60C
  8
0
  0
BLOCK
  8
0
  2
*U263
 70
     1
 10
0.0
 20
0.0
 30
0.0
  3
*U263
  1

  0
TEXT
  5
1A60E
  8
0
 10
1.771900475170298
 20
1.126578925655167
 30
0.0
 40
0.125
  1
Plank Moulding
  0
TEXT
  5
1A60F
  8
0
 10
1.771900475170298
 20
0.9182455923218338
 30
0.0
 40
0.125
  1
TL-211
  0
TEXT
  5
1A610
  8
0
 10
1.771900475170298
 20
0.7099122589885005
 30
0.0
 40
0.125
  1
11/16" x 1-9/16"
  0
TEXT
  5
1A611
  8
0
 10
1.771900475170298
 20
0.5015789256551672
 30
0.0
 40
0.125
  1
800.66.TAGUE
  0
ENDBLK
  5
1A613
  8
0
  0
BLOCK
  8
0
  2
*U264
 70
     1
 10
0.0
 20
0.0
 30
0.0
  3
*U264
  1

  0
TEXT
  5
1A615
  8
0
 10
1.4505245364633761
 20
0.8622422781851356
 30
0.0
 40
0.125
  1
Plank Moulding
  0
TEXT
  5
1A616
  8
0
 10
1.4505245364633761
 20
0.6539089448518024
 30
0.0
 40
0.125
  1
TL-2286
  0
TEXT
  5
1A617
  8
0
 10
1.4505245364633761
 20
0.395575611518469
 30
0.0
 40
0.125
  1
1/2" x 1-
  0
TEXT
  5
1A618
  8
0
 10
2.4505245364633761
 20
0.483075611518469
 30
0.0
 40
0.0875
  1
1
  0
LINE
  5
1A619
  8
0
 10
2.4440865982826598
 20
0.4113998076431822
 30
0.0
 11
2.5444624746440931
 21
0.5547514153937558
 31
0.0
  0
TEXT
  5
1A61A
  8
0
 10
2.5088578697967092
 20
0.3664089448518023
 30
0.0
 40
0.0875
  1
8
  0
TEXT
  5
1A61B
  8
0
 10
2.5963578697967091
 20
0.395575611518469
 30
0.0
 40
0.125
  1
"
  0
TEXT
  5
1A61C
  8
0
 10
1.4505245364633761
 20
0.2289089448518022
 30
0.0
 40
0.125
  1
800.66.TAGUE
  0
ENDBLK
  5
1A61E
  8
0
  0
BLOCK
  8
0
  2
*U265
 70
     1
 10
0.0
 20
0.0
 30
0.0
  3
*U265
  1

  0
TEXT
  5
1A620
  8
0
 10
2.1711370769962168
 20
0.7594393410427074
 30
0.0
 40
0.125
  1
Plank Moulding
  0
TEXT
  5
1A621
  8
0
 10
2.1711370769962168
 20
0.5511060077093742
 30
0.0
 40
0.125
  1
TL-2291
  0
TEXT
  5
1A622
  8
0
 10
2.1711370769962168
 20
0.2927726743760408
 30
0.0
 40
0.125
  1
1" x 1-
  0
TEXT
  5
1A623
  8
0
 10
2.9211370769962168
 20
0.3802726743760409
 30
0.0
 40
0.0875
  1
1
  0
LINE
  5
1A624
  8
0
 10
2.914699138815501
 20
0.3085968705007541
 30
0.0
 11
3.015075015176933
 21
0.4519484782513276
 31
0.0
  0
TEXT
  5
1A625
  8
0
 10
2.97947041032955
 20
0.2636060077093742
 30
0.0
 40
0.0875
  1
4
  0
TEXT
  5
1A626
  8
0
 10
3.0669704103295499
 20
0.2927726743760408
 30
0.0
 40
0.125
  1
"
  0
TEXT
  5
1A627
  8
0
 10
2.1711370769962168
 20
0.1261060077093741
 30
0.0
 40
0.125
  1
800.66.TAGUE
  0
ENDBLK
  5
1A629
  8
0
  0
BLOCK
  8
0
  2
*U266
 70
     1
 10
0.0
 20
0.0
 30
0.0
  3
*U266
  1

  0
TEXT
  5
1A62B
  8
0
 10
4.8409202131259121
 20
5.087561484758111
 30
0.0
 40
0.125
  1
Plinth Block
  0
TEXT
  5
1A62C
  8
0
 10
4.8409202131259121
 20
4.8792281514247779
 30
0.0
 40
0.125
  1
TL-720
  0
TEXT
  5
1A62D
  8
0
 10
4.8409202131259121
 20
4.670894818091444
 30
0.0
 40
0.125
  1
1" x 4" x Any Height
  0
TEXT
  5
1A62E
  8
0
 10
4.8409202131259121
 20
4.462561484758111
 30
0.0
 40
0.125
  1
For use w/ TL-332 & TL-361 
  0
TEXT
  5
1A62F
  8
0
 10
4.8409202131259121
 20
4.2542281514247779
 30
0.0
 40
0.125
  1
Casing
  0
TEXT
  5
1A630
  8
0
 10
4.8409202131259121
 20
4.0458948180914449
 30
0.0
 40
0.125
  1
(1" x 3-3/4" x Any Height is 
  0
TEXT
  5
1A631
  8
0
 10
4.8409202131259121
 20
3.837561484758111
 30
0.0
 40
0.125
  1
also available for use w/ 
  0
TEXT
  5
1A632
  8
0
 10
4.8409202131259121
 20
3.6292281514247779
 30
0.0
 40
0.125
  1
TL-750 Casing)
  0
TEXT
  5
1A633
  8
0
 10
4.8409202131259121
 20
3.420894818091444
 30
0.0
 40
0.125
  1
800.66.TAGUE
  0
ENDBLK
  5
1A635
  8
0
  0
BLOCK
  8
0
  2
*U267
 70
     1
 10
0.0
 20
0.0
 30
0.0
  3
*U267
  1

  0
TEXT
  5
1A637
  8
0
 10
5.0851826815998598
 20
4.9480590124609298
 30
0.0
 40
0.125
  1
Plinth Block
  0
TEXT
  5
1A638
  8
0
 10
5.0851826815998598
 20
4.7397256791275968
 30
0.0
 40
0.125
  1
TL-722
  0
TEXT
  5
1A639
  8
0
 10
5.0851826815998598
 20
4.5313923457942629
 30
0.0
 40
0.125
  1
7/8" x 4" x Any Height
  0
TEXT
  5
1A63A
  8
0
 10
5.0851826815998598
 20
4.3230590124609298
 30
0.0
 40
0.125
  1
For use w/ TL-332 & TL-361 
  0
TEXT
  5
1A63B
  8
0
 10
5.0851826815998598
 20
4.1147256791275968
 30
0.0
 40
0.125
  1
Casing
  0
TEXT
  5
1A63C
  8
0
 10
5.0851826815998598
 20
3.9063923457942642
 30
0.0
 40
0.125
  1
(7/8" x 3-3/4" x Any Height 
  0
TEXT
  5
1A63D
  8
0
 10
5.0851826815998598
 20
3.6980590124609298
 30
0.0
 40
0.125
  1
is also available for use w/ 
  0
TEXT
  5
1A63E
  8
0
 10
5.0851826815998598
 20
3.4897256791275968
 30
0.0
 40
0.125
  1
TL-445 Casing)
  0
TEXT
  5
1A63F
  8
0
 10
5.0851826815998598
 20
3.2813923457942642
 30
0.0
 40
0.125
  1
800.66.TAGUE
  0
ENDBLK
  5
1A641
  8
0
  0
BLOCK
  8
0
  2
*U268
 70
     1
 10
0.0
 20
0.0
 30
0.0
  3
*U268
  1

  0
TEXT
  5
1A643
  8
0
 10
5.4276068026422868
 20
5.2765876151471502
 30
0.0
 40
0.125
  1
Plinth Block
  0
TEXT
  5
1A644
  8
0
 10
5.4276068026422868
 20
5.0682542818138172
 30
0.0
 40
0.125
  1
TL-724
  0
TEXT
  5
1A645
  8
0
 10
5.4276068026422868
 20
4.8599209484804833
 30
0.0
 40
0.125
  1
1-1/4" x 4" x Any Height
  0
TEXT
  5
1A646
  8
0
 10
5.4276068026422868
 20
4.6515876151471502
 30
0.0
 40
0.125
  1
For use w/ TL-310 & TL-311 
  0
TEXT
  5
1A647
  8
0
 10
5.4276068026422868
 20
4.4432542818138172
 30
0.0
 40
0.125
  1
Casing
  0
TEXT
  5
1A648
  8
0
 10
5.4276068026422868
 20
4.2349209484804842
 30
0.0
 40
0.125
  1
800.66.TAGUE
  0
ENDBLK
  5
1A64A
  8
0
  0
BLOCK
  8
0
  2
*U269
 70
     1
 10
0.0
 20
0.0
 30
0.0
  3
*U269
  1

  0
TEXT
  5
1A64C
  8
0
 10
1.9834761602972431
 20
3.9146888730343781
 30
0.0
 40
0.125
  1
Plinth Block
  0
TEXT
  5
1A64D
  8
0
 10
1.9834761602972431
 20
3.706355539701045
 30
0.0
 40
0.125
  1
TL-2269
  0
TEXT
  5
1A64E
  8
0
 10
1.9834761602972431
 20
3.498022206367712
 30
0.0
 40
0.125
  1
1-3/8" x 7-3/8" x Any 
  0
TEXT
  5
1A64F
  8
0
 10
1.9834761602972431
 20
3.2896888730343781
 30
0.0
 40
0.125
  1
Height
  0
TEXT
  5
1A650
  8
0
 10
1.9834761602972431
 20
3.081355539701045
 30
0.0
 40
0.125
  1
800.66.TAGUE
  0
ENDBLK
  5
1A652
  8
0
  0
BLOCK
  8
0
  2
*U270
 70
     1
 10
0.0
 20
0.0
 30
0.0
  3
*U270
  1

  0
TEXT
  5
1A654
  8
0
 10
2.5585888631325702
 20
2.655863615564499
 30
0.0
 40
0.125
  1
Plinth Blocks
  0
TEXT
  5
1A655
  8
0
 10
2.5585888631325702
 20
2.4475302822311651
 30
0.0
 40
0.125
  1
TL-2328
  0
TEXT
  5
1A656
  8
0
 10
2.5585888631325702
 20
2.2391969488978321
 30
0.0
 40
0.125
  1
2-3/32" x 4-1/2" x Any 
  0
TEXT
  5
1A657
  8
0
 10
2.5585888631325702
 20
2.030863615564499
 30
0.0
 40
0.125
  1
Height
  0
TEXT
  5
1A658
  8
0
 10
2.5585888631325702
 20
1.8225302822311651
 30
0.0
 40
0.125
  1
800.66.TAGUE
  0
ENDBLK
  5
1A65A
  8
0
  0
BLOCK
  8
0
  2
*U271
 70
     1
 10
0.0
 20
0.0
 30
0.0
  3
*U271
  1

  0
TEXT
  5
1A65F
  8
0
 10
3.673295288944245
 20
1.146820656308591
 30
0.0
 40
0.125
  1
Porch Rail
  0
TEXT
  5
1A660
  8
0
 10
3.673295288944245
 20
0.9384873229752581
 30
0.0
 40
0.125
  1
TL-533
  0
TEXT
  5
1A661
  8
0
 10
3.673295288944245
 20
0.7301539896419247
 30
0.0
 40
0.125
  1
1-5/8" x 2-5/8"
  0
TEXT
  5
1A662
  8
0
 10
3.673295288944245
 20
0.5218206563085915
 30
0.0
 40
0.125
  1
800.66.TAGUE
  0
ENDBLK
  5
1A664
  8
0
  0
BLOCK
  8
0
  2
*U272
 70
     1
 10
0.0
 20
0.0
 30
0.0
  3
*U272
  1

  0
TEXT
  5
1A666
  8
0
 10
3.647211252831652
 20
0.9654272552400016
 30
0.0
 40
0.125
  1
Porch Rail
  0
TEXT
  5
1A667
  8
0
 10
3.647211252831652
 20
0.7570939219066684
 30
0.0
 40
0.125
  1
TL-534
  0
TEXT
  5
1A668
  8
0
 10
3.647211252831652
 20
0.5487605885733349
 30
0.0
 40
0.125
  1
1-5/8" x 2-5/8"
  0
TEXT
  5
1A669
  8
0
 10
3.647211252831652
 20
0.3404272552400016
 30
0.0
 40
0.125
  1
800.66.TAGUE
  0
ENDBLK
  5
1A66B
  8
0
  0
BLOCK
  8
0
  2
*U273
 70
     1
 10
0.0
 20
0.0
 30
0.0
  3
*U273
  1

  0
TEXT
  5
1A66D
  8
0
 10
-383.52348896736203
 20
840.72666447102097
 30
0.0
 40
0.125
  1
Porch Rail
  0
TEXT
  5
1A66E
  8
0
 10
-383.52348896736203
 20
840.51833113768748
 30
0.0
 40
0.125
  1
TL-534
  0
TEXT
  5
1A66F
  8
0
 10
-383.52348896736203
 20
840.30999780435445
 30
0.0
 40
0.125
  1
1-5/8" x 2-5/8"
  0
TEXT
  5
1A670
  8
0
 10
-383.52348896736203
 20
840.10166447102085
 30
0.0
 40
0.125
  1
800.66.TAGUE
  0
ENDBLK
  5
1A672
  8
0
  0
ENDSEC
  0
SECTION
  2
ENTITIES
  0
INSERT
  5
1A2AD
  8
0
  2
*U273
 10
0.0
 20
0.0
 30
0.0
  0
LINE
  5
1A2AE
  8
0
 10
-384.54583819123928
 20
840.15210986373847
 30
0.0
 11
-384.54570116250773
 21
839.76123707107809
 31
0.0
  0
LINE
  5
1A2AF
  8
0
 10
-384.54617079942079
 20
841.10087066236235
 30
0.0
 11
-384.54607774762587
 21
840.73254566203536
 31
0.0
  0
LINE
  5
1A2B0
  8
0
 10
-387.17032457738958
 20
840.15210986373847
 30
0.0
 11
-387.17070116250773
 21
839.76123707107809
 31
0.0
  0
LINE
  5
1A2B1
  8
0
 10
-387.1702315255946
 20
841.10087066236235
 30
0.0
 11
-387.17023152559449
 21
840.7325313323214
 31
0.0
  0
LINE
  5
1A2B2
  8
0
 10
-384.89831496627738
 20
841.39486294908966
 30
0.0
 11
-384.54617079942079
 21
841.10087066236235
 31
0.0
  0
LINE
  5
1A2B3
  8
0
 10
-387.1702315255946
 20
841.10087066236235
 30
0.0
 11
-386.81808735873813
 21
841.39486294908966
 31
0.0
  0
LINE
  5
1A2B4
  8
0
 10
-384.89831496627738
 20
841.39486294908966
 30
0.0
 11
-386.81808735873813
 21
841.39486294908966
 31
0.0
  0
LINE
  5
1A2B5
  8
0
 10
-387.17070116250773
 20
839.76123707107809
 30
0.0
 11
-384.54570116250773
 21
839.76123707107809
 31
0.0
  0
LINE
  5
1A2B6
  8
0
 10
-384.54607774762587
 20
840.15210986373847
 30
0.0
 11
-384.54583819123928
 21
840.15210986373847
 31
0.0
  0
POLYLINE
  8
0
  5
1A673
  66
     1
 10
0.000000
 20
0.000000
 30
0.000000
  70
     8
  0
VERTEX
  8
0
  5
1A674
 10
-384.546
 20
840.152
 30
0.000000
  70
    32
  0
VERTEX
  8
0
  5
1A675
 10
-384.547
 20
840.152
 30
0.000000
  70
    32
  0
VERTEX
  8
0
  5
1A676
 10
-384.548
 20
840.153
 30
0.000000
  70
    32
  0
VERTEX
  8
0
  5
1A677
 10
-384.549
 20
840.153
 30
0.000000
  70
    32
  0
VERTEX
  8
0
  5
1A678
 10
-384.550
 20
840.153
 30
0.000000
  70
    32
  0
VERTEX
  8
0
  5
1A679
 10
-384.551
 20
840.153
 30
0.000000
  70
    32
  0
VERTEX
  8
0
  5
1A67A
 10
-384.552
 20
840.154
 30
0.000000
  70
    32
  0
VERTEX
  8
0
  5
1A67B
 10
-384.553
 20
840.154
 30
0.000000
  70
    32
  0
VERTEX
  8
0
  5
1A67C
 10
-384.553
 20
840.154
 30
0.000000
  70
    32
  0
VERTEX
  8
0
  5
1A67D
 10
-384.554
 20
840.154
 30
0.000000
  70
    32
  0
VERTEX
  8
0
  5
1A67E
 10
-384.555
 20
840.154
 30
0.000000
  70
    32
  0
VERTEX
  8
0
  5
1A67F
 10
-384.556
 20
840.155
 30
0.000000
  70
    32
  0
VERTEX
  8
0
  5
1A680
 10
-384.557
 20
840.155
 30
0.000000
  70
    32
  0
VERTEX
  8
0
  5
1A681
 10
-384.558
 20
840.155
 30
0.000000
  70
    32
  0
VERTEX
  8
0
  5
1A682
 10
-384.559
 20
840.155
 30
0.000000
  70
    32
  0
VERTEX
  8
0
  5
1A683
 10
-384.560
 20
840.155
 30
0.000000
  70
    32
  0
VERTEX
  8
0
  5
1A684
 10
-384.561
 20
840.155
 30
0.000000
  70
    32
  0
VERTEX
  8
0
  5
1A685
 10
-384.562
 20
840.156
 30
0.000000
  70
    32
  0
VERTEX
  8
0
  5
1A686
 10
-384.563
 20
840.156
 30
0.000000
  70
    32
  0
VERTEX
  8
0
  5
1A687
 10
-384.564
 20
840.156
 30
0.000000
  70
    32
  0
VERTEX
  8
0
  5
1A688
 10
-384.565
 20
840.156
 30
0.000000
  70
    32
  0
VERTEX
  8
0
  5
1A689
 10
-384.566
 20
840.156
 30
0.000000
  70
    32
  0
VERTEX
  8
0
  5
1A68A
 10
-384.566
 20
840.156
 30
0.000000
  70
    32
  0
VERTEX
  8
0
  5
1A68B
 10
-384.567
 20
840.156
 30
0.000000
  70
    32
  0
VERTEX
  8
0
  5
1A68C
 10
-384.568
 20
840.157
 30
0.000000
  70
    32
  0
VERTEX
  8
0
  5
1A68D
 10
-384.569
 20
840.157
 30
0.000000
  70
    32
  0
VERTEX
  8
0
  5
1A68E
 10
-384.570
 20
840.157
 30
0.000000
  70
    32
  0
VERTEX
  8
0
  5
1A68F
 10
-384.571
 20
840.157
 30
0.000000
  70
    32
  0
VERTEX
  8
0
  5
1A690
 10
-384.572
 20
840.157
 30
0.000000
  70
    32
  0
VERTEX
  8
0
  5
1A691
 10
-384.573
 20
840.157
 30
0.000000
  70
    32
  0
VERTEX
  8
0
  5
1A692
 10
-384.574
 20
840.158
 30
0.000000
  70
    32
  0
VERTEX
  8
0
  5
1A693
 10
-384.575
 20
840.158
 30
0.000000
  70
    32
  0
VERTEX
  8
0
  5
1A694
 10
-384.576
 20
840.158
 30
0.000000
  70
    32
  0
VERTEX
  8
0
  5
1A695
 10
-384.577
 20
840.158
 30
0.000000
  70
    32
  0
VERTEX
  8
0
  5
1A696
 10
-384.578
 20
840.158
 30
0.000000
  70
    32
  0
VERTEX
  8
0
  5
1A697
 10
-384.579
 20
840.158
 30
0.000000
  70
    32
  0
VERTEX
  8
0
  5
1A698
 10
-384.580
 20
840.159
 30
0.000000
  70
    32
  0
VERTEX
  8
0
  5
1A699
 10
-384.581
 20
840.159
 30
0.000000
  70
    32
  0
VERTEX
  8
0
  5
1A69A
 10
-384.581
 20
840.159
 30
0.000000
  70
    32
  0
VERTEX
  8
0
  5
1A69B
 10
-384.582
 20
840.159
 30
0.000000
  70
    32
  0
VERTEX
  8
0
  5
1A69C
 10
-384.583
 20
840.159
 30
0.000000
  70
    32
  0
VERTEX
  8
0
  5
1A69D
 10
-384.584
 20
840.159
 30
0.000000
  70
    32
  0
VERTEX
  8
0
  5
1A69E
 10
-384.585
 20
840.160
 30
0.000000
  70
    32
  0
VERTEX
  8
0
  5
1A69F
 10
-384.586
 20
840.160
 30
0.000000
  70
    32
  0
VERTEX
  8
0
  5
1A6A0
 10
-384.587
 20
840.160
 30
0.000000
  70
    32
  0
VERTEX
  8
0
  5
1A6A1
 10
-384.588
 20
840.160
 30
0.000000
  70
    32
  0
VERTEX
  8
0
  5
1A6A2
 10
-384.589
 20
840.160
 30
0.000000
  70
    32
  0
VERTEX
  8
0
  5
1A6A3
 10
-384.590
 20
840.161
 30
0.000000
  70
    32
  0
VERTEX
  8
0
  5
1A6A4
 10
-384.591
 20
840.161
 30
0.000000
  70
    32
  0
VERTEX
  8
0
  5
1A6A5
 10
-384.592
 20
840.161
 30
0.000000
  70
    32
  0
VERTEX
  8
0
  5
1A6A6
 10
-384.593
 20
840.161
 30
0.000000
  70
    32
  0
VERTEX
  8
0
  5
1A6A7
 10
-384.593
 20
840.162
 30
0.000000
  70
    32
  0
VERTEX
  8
0
  5
1A6A8
 10
-384.594
 20
840.162
 30
0.000000
  70
    32
  0
VERTEX
  8
0
  5
1A6A9
 10
-384.595
 20
840.162
 30
0.000000
  70
    32
  0
VERTEX
  8
0
  5
1A6AA
 10
-384.596
 20
840.162
 30
0.000000
  70
    32
  0
VERTEX
  8
0
  5
1A6AB
 10
-384.597
 20
840.163
 30
0.000000
  70
    32
  0
VERTEX
  8
0
  5
1A6AC
 10
-384.598
 20
840.163
 30
0.000000
  70
    32
  0
VERTEX
  8
0
  5
1A6AD
 10
-384.599
 20
840.163
 30
0.000000
  70
    32
  0
VERTEX
  8
0
  5
1A6AE
 10
-384.600
 20
840.163
 30
0.000000
  70
    32
  0
VERTEX
  8
0
  5
1A6AF
 10
-384.601
 20
840.164
 30
0.000000
  70
    32
  0
VERTEX
  8
0
  5
1A6B0
 10
-384.602
 20
840.164
 30
0.000000
  70
    32
  0
VERTEX
  8
0
  5
1A6B1
 10
-384.603
 20
840.164
 30
0.000000
  70
    32
  0
VERTEX
  8
0
  5
1A6B2
 10
-384.603
 20
840.164
 30
0.000000
  70
    32
  0
VERTEX
  8
0
  5
1A6B3
 10
-384.604
 20
840.165
 30
0.000000
  70
    32
  0
VERTEX
  8
0
  5
1A6B4
 10
-384.605
 20
840.165
 30
0.000000
  70
    32
  0
VERTEX
  8
0
  5
1A6B5
 10
-384.606
 20
840.165
 30
0.000000
  70
    32
  0
VERTEX
  8
0
  5
1A6B6
 10
-384.607
 20
840.166
 30
0.000000
  70
    32
  0
VERTEX
  8
0
  5
1A6B7
 10
-384.608
 20
840.166
 30
0.000000
  70
    32
  0
VERTEX
  8
0
  5
1A6B8
 10
-384.609
 20
840.166
 30
0.000000
  70
    32
  0
VERTEX
  8
0
  5
1A6B9
 10
-384.610
 20
840.166
 30
0.000000
  70
    32
  0
VERTEX
  8
0
  5
1A6BA
 10
-384.611
 20
840.167
 30
0.000000
  70
    32
  0
VERTEX
  8
0
  5
1A6BB
 10
-384.612
 20
840.167
 30
0.000000
  70
    32
  0
VERTEX
  8
0
  5
1A6BC
 10
-384.612
 20
840.167
 30
0.000000
  70
    32
  0
VERTEX
  8
0
  5
1A6BD
 10
-384.613
 20
840.168
 30
0.000000
  70
    32
  0
VERTEX
  8
0
  5
1A6BE
 10
-384.614
 20
840.168
 30
0.000000
  70
    32
  0
VERTEX
  8
0
  5
1A6BF
 10
-384.615
 20
840.168
 30
0.000000
  70
    32
  0
VERTEX
  8
0
  5
1A6C0
 10
-384.616
 20
840.169
 30
0.000000
  70
    32
  0
VERTEX
  8
0
  5
1A6C1
 10
-384.617
 20
840.169
 30
0.000000
  70
    32
  0
VERTEX
  8
0
  5
1A6C2
 10
-384.618
 20
840.169
 30
0.000000
  70
    32
  0
VERTEX
  8
0
  5
1A6C3
 10
-384.619
 20
840.170
 30
0.000000
  70
    32
  0
VERTEX
  8
0
  5
1A6C4
 10
-384.620
 20
840.170
 30
0.000000
  70
    32
  0
VERTEX
  8
0
  5
1A6C5
 10
-384.621
 20
840.170
 30
0.000000
  70
    32
  0
VERTEX
  8
0
  5
1A6C6
 10
-384.621
 20
840.171
 30
0.000000
  70
    32
  0
VERTEX
  8
0
  5
1A6C7
 10
-384.622
 20
840.171
 30
0.000000
  70
    32
  0
VERTEX
  8
0
  5
1A6C8
 10
-384.623
 20
840.171
 30
0.000000
  70
    32
  0
VERTEX
  8
0
  5
1A6C9
 10
-384.624
 20
840.172
 30
0.000000
  70
    32
  0
VERTEX
  8
0
  5
1A6CA
 10
-384.625
 20
840.172
 30
0.000000
  70
    32
  0
VERTEX
  8
0
  5
1A6CB
 10
-384.626
 20
840.172
 30
0.000000
  70
    32
  0
VERTEX
  8
0
  5
1A6CC
 10
-384.627
 20
840.173
 30
0.000000
  70
    32
  0
VERTEX
  8
0
  5
1A6CD
 10
-384.628
 20
840.173
 30
0.000000
  70
    32
  0
VERTEX
  8
0
  5
1A6CE
 10
-384.629
 20
840.173
 30
0.000000
  70
    32
  0
VERTEX
  8
0
  5
1A6CF
 10
-384.629
 20
840.174
 30
0.000000
  70
    32
  0
VERTEX
  8
0
  5
1A6D0
 10
-384.630
 20
840.174
 30
0.000000
  70
    32
  0
VERTEX
  8
0
  5
1A6D1
 10
-384.631
 20
840.174
 30
0.000000
  70
    32
  0
VERTEX
  8
0
  5
1A6D2
 10
-384.632
 20
840.175
 30
0.000000
  70
    32
  0
VERTEX
  8
0
  5
1A6D3
 10
-384.633
 20
840.175
 30
0.000000
  70
    32
  0
VERTEX
  8
0
  5
1A6D4
 10
-384.634
 20
840.175
 30
0.000000
  70
    32
  0
VERTEX
  8
0
  5
1A6D5
 10
-384.635
 20
840.176
 30
0.000000
  70
    32
  0
VERTEX
  8
0
  5
1A6D6
 10
-384.636
 20
840.176
 30
0.000000
  70
    32
  0
VERTEX
  8
0
  5
1A6D7
 10
-384.637
 20
840.177
 30
0.000000
  70
    32
  0
VERTEX
  8
0
  5
1A6D8
 10
-384.637
 20
840.177
 30
0.000000
  70
    32
  0
VERTEX
  8
0
  5
1A6D9
 10
-384.638
 20
840.177
 30
0.000000
  70
    32
  0
VERTEX
  8
0
  5
1A6DA
 10
-384.639
 20
840.178
 30
0.000000
  70
    32
  0
VERTEX
  8
0
  5
1A6DB
 10
-384.640
 20
840.178
 30
0.000000
  70
    32
  0
VERTEX
  8
0
  5
1A6DC
 10
-384.641
 20
840.178
 30
0.000000
  70
    32
  0
VERTEX
  8
0
  5
1A6DD
 10
-384.642
 20
840.179
 30
0.000000
  70
    32
  0
VERTEX
  8
0
  5
1A6DE
 10
-384.643
 20
840.179
 30
0.000000
  70
    32
  0
VERTEX
  8
0
  5
1A6DF
 10
-384.644
 20
840.180
 30
0.000000
  70
    32
  0
VERTEX
  8
0
  5
1A6E0
 10
-384.645
 20
840.180
 30
0.000000
  70
    32
  0
VERTEX
  8
0
  5
1A6E1
 10
-384.645
 20
840.180
 30
0.000000
  70
    32
  0
VERTEX
  8
0
  5
1A6E2
 10
-384.646
 20
840.181
 30
0.000000
  70
    32
  0
VERTEX
  8
0
  5
1A6E3
 10
-384.647
 20
840.181
 30
0.000000
  70
    32
  0
VERTEX
  8
0
  5
1A6E4
 10
-384.648
 20
840.182
 30
0.000000
  70
    32
  0
VERTEX
  8
0
  5
1A6E5
 10
-384.649
 20
840.182
 30
0.000000
  70
    32
  0
VERTEX
  8
0
  5
1A6E6
 10
-384.650
 20
840.182
 30
0.000000
  70
    32
  0
VERTEX
  8
0
  5
1A6E7
 10
-384.651
 20
840.183
 30
0.000000
  70
    32
  0
VERTEX
  8
0
  5
1A6E8
 10
-384.651
 20
840.183
 30
0.000000
  70
    32
  0
VERTEX
  8
0
  5
1A6E9
 10
-384.652
 20
840.184
 30
0.000000
  70
    32
  0
VERTEX
  8
0
  5
1A6EA
 10
-384.653
 20
840.184
 30
0.000000
  70
    32
  0
VERTEX
  8
0
  5
1A6EB
 10
-384.654
 20
840.185
 30
0.000000
  70
    32
  0
VERTEX
  8
0
  5
1A6EC
 10
-384.655
 20
840.185
 30
0.000000
  70
    32
  0
VERTEX
  8
0
  5
1A6ED
 10
-384.656
 20
840.185
 30
0.000000
  70
    32
  0
VERTEX
  8
0
  5
1A6EE
 10
-384.656
 20
840.186
 30
0.000000
  70
    32
  0
VERTEX
  8
0
  5
1A6EF
 10
-384.657
 20
840.186
 30
0.000000
  70
    32
  0
VERTEX
  8
0
  5
1A6F0
 10
-384.658
 20
840.187
 30
0.000000
  70
    32
  0
VERTEX
  8
0
  5
1A6F1
 10
-384.659
 20
840.187
 30
0.000000
  70
    32
  0
VERTEX
  8
0
  5
1A6F2
 10
-384.660
 20
840.188
 30
0.000000
  70
    32
  0
VERTEX
  8
0
  5
1A6F3
 10
-384.661
 20
840.188
 30
0.000000
  70
    32
  0
VERTEX
  8
0
  5
1A6F4
 10
-384.661
 20
840.189
 30
0.000000
  70
    32
  0
VERTEX
  8
0
  5
1A6F5
 10
-384.662
 20
840.189
 30
0.000000
  70
    32
  0
VERTEX
  8
0
  5
1A6F6
 10
-384.663
 20
840.190
 30
0.000000
  70
    32
  0
VERTEX
  8
0
  5
1A6F7
 10
-384.664
 20
840.190
 30
0.000000
  70
    32
  0
VERTEX
  8
0
  5
1A6F8
 10
-384.665
 20
840.191
 30
0.000000
  70
    32
  0
VERTEX
  8
0
  5
1A6F9
 10
-384.665
 20
840.191
 30
0.000000
  70
    32
  0
VERTEX
  8
0
  5
1A6FA
 10
-384.666
 20
840.192
 30
0.000000
  70
    32
  0
VERTEX
  8
0
  5
1A6FB
 10
-384.667
 20
840.193
 30
0.000000
  70
    32
  0
VERTEX
  8
0
  5
1A6FC
 10
-384.668
 20
840.193
 30
0.000000
  70
    32
  0
VERTEX
  8
0
  5
1A6FD
 10
-384.668
 20
840.194
 30
0.000000
  70
    32
  0
VERTEX
  8
0
  5
1A6FE
 10
-384.669
 20
840.194
 30
0.000000
  70
    32
  0
VERTEX
  8
0
  5
1A6FF
 10
-384.670
 20
840.195
 30
0.000000
  70
    32
  0
VERTEX
  8
0
  5
1A700
 10
-384.671
 20
840.195
 30
0.000000
  70
    32
  0
VERTEX
  8
0
  5
1A701
 10
-384.671
 20
840.196
 30
0.000000
  70
    32
  0
VERTEX
  8
0
  5
1A702
 10
-384.672
 20
840.197
 30
0.000000
  70
    32
  0
VERTEX
  8
0
  5
1A703
 10
-384.673
 20
840.197
 30
0.000000
  70
    32
  0
VERTEX
  8
0
  5
1A704
 10
-384.673
 20
840.198
 30
0.000000
  70
    32
  0
VERTEX
  8
0
  5
1A705
 10
-384.674
 20
840.199
 30
0.000000
  70
    32
  0
VERTEX
  8
0
  5
1A706
 10
-384.675
 20
840.199
 30
0.000000
  70
    32
  0
VERTEX
  8
0
  5
1A707
 10
-384.675
 20
840.200
 30
0.000000
  70
    32
  0
VERTEX
  8
0
  5
1A708
 10
-384.676
 20
840.201
 30
0.000000
  70
    32
  0
VERTEX
  8
0
  5
1A709
 10
-384.677
 20
840.201
 30
0.000000
  70
    32
  0
VERTEX
  8
0
  5
1A70A
 10
-384.677
 20
840.202
 30
0.000000
  70
    32
  0
VERTEX
  8
0
  5
1A70B
 10
-384.678
 20
840.203
 30
0.000000
  70
    32
  0
VERTEX
  8
0
  5
1A70C
 10
-384.679
 20
840.203
 30
0.000000
  70
    32
  0
VERTEX
  8
0
  5
1A70D
 10
-384.679
 20
840.204
 30
0.000000
  70
    32
  0
VERTEX
  8
0
  5
1A70E
 10
-384.680
 20
840.205
 30
0.000000
  70
    32
  0
VERTEX
  8
0
  5
1A70F
 10
-384.681
 20
840.206
 30
0.000000
  70
    32
  0
VERTEX
  8
0
  5
1A710
 10
-384.681
 20
840.206
 30
0.000000
  70
    32
  0
VERTEX
  8
0
  5
1A711
 10
-384.682
 20
840.207
 30
0.000000
  70
    32
  0
VERTEX
  8
0
  5
1A712
 10
-384.682
 20
840.208
 30
0.000000
  70
    32
  0
VERTEX
  8
0
  5
1A713
 10
-384.683
 20
840.209
 30
0.000000
  70
    32
  0
VERTEX
  8
0
  5
1A714
 10
-384.683
 20
840.209
 30
0.000000
  70
    32
  0
VERTEX
  8
0
  5
1A715
 10
-384.684
 20
840.210
 30
0.000000
  70
    32
  0
VERTEX
  8
0
  5
1A716
 10
-384.684
 20
840.211
 30
0.000000
  70
    32
  0
VERTEX
  8
0
  5
1A717
 10
-384.685
 20
840.212
 30
0.000000
  70
    32
  0
VERTEX
  8
0
  5
1A718
 10
-384.686
 20
840.213
 30
0.000000
  70
    32
  0
VERTEX
  8
0
  5
1A719
 10
-384.686
 20
840.213
 30
0.000000
  70
    32
  0
VERTEX
  8
0
  5
1A71A
 10
-384.687
 20
840.214
 30
0.000000
  70
    32
  0
VERTEX
  8
0
  5
1A71B
 10
-384.687
 20
840.215
 30
0.000000
  70
    32
  0
VERTEX
  8
0
  5
1A71C
 10
-384.688
 20
840.216
 30
0.000000
  70
    32
  0
VERTEX
  8
0
  5
1A71D
 10
-384.688
 20
840.217
 30
0.000000
  70
    32
  0
VERTEX
  8
0
  5
1A71E
 10
-384.688
 20
840.218
 30
0.000000
  70
    32
  0
VERTEX
  8
0
  5
1A71F
 10
-384.689
 20
840.218
 30
0.000000
  70
    32
  0
VERTEX
  8
0
  5
1A720
 10
-384.689
 20
840.219
 30
0.000000
  70
    32
  0
VERTEX
  8
0
  5
1A721
 10
-384.690
 20
840.220
 30
0.000000
  70
    32
  0
VERTEX
  8
0
  5
1A722
 10
-384.690
 20
840.221
 30
0.000000
  70
    32
  0
VERTEX
  8
0
  5
1A723
 10
-384.691
 20
840.222
 30
0.000000
  70
    32
  0
VERTEX
  8
0
  5
1A724
 10
-384.691
 20
840.223
 30
0.000000
  70
    32
  0
VERTEX
  8
0
  5
1A725
 10
-384.691
 20
840.224
 30
0.000000
  70
    32
  0
VERTEX
  8
0
  5
1A726
 10
-384.692
 20
840.225
 30
0.000000
  70
    32
  0
VERTEX
  8
0
  5
1A727
 10
-384.692
 20
840.226
 30
0.000000
  70
    32
  0
VERTEX
  8
0
  5
1A728
 10
-384.692
 20
840.226
 30
0.000000
  70
    32
  0
VERTEX
  8
0
  5
1A729
 10
-384.693
 20
840.227
 30
0.000000
  70
    32
  0
VERTEX
  8
0
  5
1A72A
 10
-384.693
 20
840.228
 30
0.000000
  70
    32
  0
VERTEX
  8
0
  5
1A72B
 10
-384.693
 20
840.229
 30
0.000000
  70
    32
  0
VERTEX
  8
0
  5
1A72C
 10
-384.694
 20
840.230
 30
0.000000
  70
    32
  0
VERTEX
  8
0
  5
1A72D
 10
-384.694
 20
840.231
 30
0.000000
  70
    32
  0
VERTEX
  8
0
  5
1A72E
 10
-384.694
 20
840.232
 30
0.000000
  70
    32
  0
VERTEX
  8
0
  5
1A72F
 10
-384.694
 20
840.233
 30
0.000000
  70
    32
  0
VERTEX
  8
0
  5
1A730
 10
-384.695
 20
840.234
 30
0.000000
  70
    32
  0
VERTEX
  8
0
  5
1A731
 10
-384.695
 20
840.235
 30
0.000000
  70
    32
  0
VERTEX
  8
0
  5
1A732
 10
-384.695
 20
840.236
 30
0.000000
  70
    32
  0
VERTEX
  8
0
  5
1A733
 10
-384.695
 20
840.237
 30
0.000000
  70
    32
  0
VERTEX
  8
0
  5
1A734
 10
-384.695
 20
840.238
 30
0.000000
  70
    32
  0
VERTEX
  8
0
  5
1A735
 10
-384.696
 20
840.239
 30
0.000000
  70
    32
  0
VERTEX
  8
0
  5
1A736
 10
-384.696
 20
840.240
 30
0.000000
  70
    32
  0
VERTEX
  8
0
  5
1A737
 10
-384.696
 20
840.241
 30
0.000000
  70
    32
  0
VERTEX
  8
0
  5
1A738
 10
-384.696
 20
840.242
 30
0.000000
  70
    32
  0
VERTEX
  8
0
  5
1A739
 10
-384.696
 20
840.243
 30
0.000000
  70
    32
  0
VERTEX
  8
0
  5
1A73A
 10
-384.696
 20
840.244
 30
0.000000
  70
    32
  0
VERTEX
  8
0
  5
1A73B
 10
-384.696
 20
840.245
 30
0.000000
  70
    32
  0
VERTEX
  8
0
  5
1A73C
 10
-384.696
 20
840.246
 30
0.000000
  70
    32
  0
VERTEX
  8
0
  5
1A73D
 10
-384.696
 20
840.247
 30
0.000000
  70
    32
  0
VERTEX
  8
0
  5
1A73E
 10
-384.696
 20
840.248
 30
0.000000
  70
    32
  0
VERTEX
  8
0
  5
1A73F
 10
-384.696
 20
840.249
 30
0.000000
  70
    32
  0
VERTEX
  8
0
  5
1A740
 10
-384.696
 20
840.250
 30
0.000000
  70
    32
  0
VERTEX
  8
0
  5
1A741
 10
-384.696
 20
840.251
 30
0.000000
  70
    32
  0
VERTEX
  8
0
  5
1A742
 10
-384.696
 20
840.252
 30
0.000000
  70
    32
  0
VERTEX
  8
0
  5
1A743
 10
-384.696
 20
840.253
 30
0.000000
  70
    32
  0
VERTEX
  8
0
  5
1A744
 10
-384.696
 20
840.254
 30
0.000000
  70
    32
  0
VERTEX
  8
0
  5
1A745
 10
-384.696
 20
840.254
 30
0.000000
  70
    32
  0
VERTEX
  8
0
  5
1A746
 10
-384.696
 20
840.255
 30
0.000000
  70
    32
  0
VERTEX
  8
0
  5
1A747
 10
-384.696
 20
840.256
 30
0.000000
  70
    32
  0
VERTEX
  8
0
  5
1A748
 10
-384.696
 20
840.257
 30
0.000000
  70
    32
  0
VERTEX
  8
0
  5
1A749
 10
-384.696
 20
840.258
 30
0.000000
  70
    32
  0
VERTEX
  8
0
  5
1A74A
 10
-384.695
 20
840.259
 30
0.000000
  70
    32
  0
VERTEX
  8
0
  5
1A74B
 10
-384.695
 20
840.260
 30
0.000000
  70
    32
  0
VERTEX
  8
0
  5
1A74C
 10
-384.695
 20
840.261
 30
0.000000
  70
    32
  0
VERTEX
  8
0
  5
1A74D
 10
-384.695
 20
840.262
 30
0.000000
  70
    32
  0
VERTEX
  8
0
  5
1A74E
 10
-384.694
 20
840.263
 30
0.000000
  70
    32
  0
VERTEX
  8
0
  5
1A74F
 10
-384.694
 20
840.264
 30
0.000000
  70
    32
  0
VERTEX
  8
0
  5
1A750
 10
-384.694
 20
840.265
 30
0.000000
  70
    32
  0
VERTEX
  8
0
  5
1A751
 10
-384.693
 20
840.265
 30
0.000000
  70
    32
  0
VERTEX
  8
0
  5
1A752
 10
-384.693
 20
840.266
 30
0.000000
  70
    32
  0
VERTEX
  8
0
  5
1A753
 10
-384.692
 20
840.267
 30
0.000000
  70
    32
  0
VERTEX
  8
0
  5
1A754
 10
-384.692
 20
840.268
 30
0.000000
  70
    32
  0
VERTEX
  8
0
  5
1A755
 10
-384.692
 20
840.269
 30
0.000000
  70
    32
  0
VERTEX
  8
0
  5
1A756
 10
-384.691
 20
840.269
 30
0.000000
  70
    32
  0
VERTEX
  8
0
  5
1A757
 10
-384.691
 20
840.270
 30
0.000000
  70
    32
  0
VERTEX
  8
0
  5
1A758
 10
-384.690
 20
840.271
 30
0.000000
  70
    32
  0
VERTEX
  8
0
  5
1A759
 10
-384.690
 20
840.272
 30
0.000000
  70
    32
  0
VERTEX
  8
0
  5
1A75A
 10
-384.689
 20
840.272
 30
0.000000
  70
    32
  0
VERTEX
  8
0
  5
1A75B
 10
-384.688
 20
840.273
 30
0.000000
  70
    32
  0
VERTEX
  8
0
  5
1A75C
 10
-384.688
 20
840.274
 30
0.000000
  70
    32
  0
VERTEX
  8
0
  5
1A75D
 10
-384.687
 20
840.275
 30
0.000000
  70
    32
  0
VERTEX
  8
0
  5
1A75E
 10
-384.686
 20
840.275
 30
0.000000
  70
    32
  0
VERTEX
  8
0
  5
1A75F
 10
-384.686
 20
840.276
 30
0.000000
  70
    32
  0
VERTEX
  8
0
  5
1A760
 10
-384.685
 20
840.277
 30
0.000000
  70
    32
  0
VERTEX
  8
0
  5
1A761
 10
-384.684
 20
840.277
 30
0.000000
  70
    32
  0
VERTEX
  8
0
  5
1A762
 10
-384.684
 20
840.278
 30
0.000000
  70
    32
  0
VERTEX
  8
0
  5
1A763
 10
-384.683
 20
840.279
 30
0.000000
  70
    32
  0
VERTEX
  8
0
  5
1A764
 10
-384.682
 20
840.279
 30
0.000000
  70
    32
  0
VERTEX
  8
0
  5
1A765
 10
-384.682
 20
840.280
 30
0.000000
  70
    32
  0
VERTEX
  8
0
  5
1A766
 10
-384.681
 20
840.280
 30
0.000000
  70
    32
  0
VERTEX
  8
0
  5
1A767
 10
-384.680
 20
840.281
 30
0.000000
  70
    32
  0
VERTEX
  8
0
  5
1A768
 10
-384.679
 20
840.282
 30
0.000000
  70
    32
  0
VERTEX
  8
0
  5
1A769
 10
-384.678
 20
840.282
 30
0.000000
  70
    32
  0
VERTEX
  8
0
  5
1A76A
 10
-384.678
 20
840.283
 30
0.000000
  70
    32
  0
VERTEX
  8
0
  5
1A76B
 10
-384.677
 20
840.283
 30
0.000000
  70
    32
  0
VERTEX
  8
0
  5
1A76C
 10
-384.676
 20
840.284
 30
0.000000
  70
    32
  0
VERTEX
  8
0
  5
1A76D
 10
-384.675
 20
840.284
 30
0.000000
  70
    32
  0
VERTEX
  8
0
  5
1A76E
 10
-384.674
 20
840.285
 30
0.000000
  70
    32
  0
VERTEX
  8
0
  5
1A76F
 10
-384.674
 20
840.286
 30
0.000000
  70
    32
  0
VERTEX
  8
0
  5
1A770
 10
-384.673
 20
840.286
 30
0.000000
  70
    32
  0
VERTEX
  8
0
  5
1A771
 10
-384.672
 20
840.287
 30
0.000000
  70
    32
  0
VERTEX
  8
0
  5
1A772
 10
-384.671
 20
840.287
 30
0.000000
  70
    32
  0
VERTEX
  8
0
  5
1A773
 10
-384.670
 20
840.288
 30
0.000000
  70
    32
  0
VERTEX
  8
0
  5
1A774
 10
-384.669
 20
840.288
 30
0.000000
  70
    32
  0
VERTEX
  8
0
  5
1A775
 10
-384.668
 20
840.289
 30
0.000000
  70
    32
  0
VERTEX
  8
0
  5
1A776
 10
-384.668
 20
840.289
 30
0.000000
  70
    32
  0
VERTEX
  8
0
  5
1A777
 10
-384.667
 20
840.289
 30
0.000000
  70
    32
  0
VERTEX
  8
0
  5
1A778
 10
-384.666
 20
840.290
 30
0.000000
  70
    32
  0
VERTEX
  8
0
  5
1A779
 10
-384.665
 20
840.290
 30
0.000000
  70
    32
  0
VERTEX
  8
0
  5
1A77A
 10
-384.664
 20
840.291
 30
0.000000
  70
    32
  0
VERTEX
  8
0
  5
1A77B
 10
-384.663
 20
840.291
 30
0.000000
  70
    32
  0
VERTEX
  8
0
  5
1A77C
 10
-384.662
 20
840.292
 30
0.000000
  70
    32
  0
VERTEX
  8
0
  5
1A77D
 10
-384.662
 20
840.292
 30
0.000000
  70
    32
  0
VERTEX
  8
0
  5
1A77E
 10
-384.661
 20
840.293
 30
0.000000
  70
    32
  0
VERTEX
  8
0
  5
1A77F
 10
-384.660
 20
840.293
 30
0.000000
  70
    32
  0
VERTEX
  8
0
  5
1A780
 10
-384.659
 20
840.293
 30
0.000000
  70
    32
  0
VERTEX
  8
0
  5
1A781
 10
-384.658
 20
840.294
 30
0.000000
  70
    32
  0
VERTEX
  8
0
  5
1A782
 10
-384.657
 20
840.294
 30
0.000000
  70
    32
  0
VERTEX
  8
0
  5
1A783
 10
-384.656
 20
840.295
 30
0.000000
  70
    32
  0
VERTEX
  8
0
  5
1A784
 10
-384.655
 20
840.295
 30
0.000000
  70
    32
  0
VERTEX
  8
0
  5
1A785
 10
-384.655
 20
840.296
 30
0.000000
  70
    32
  0
VERTEX
  8
0
  5
1A786
 10
-384.654
 20
840.296
 30
0.000000
  70
    32
  0
VERTEX
  8
0
  5
1A787
 10
-384.653
 20
840.296
 30
0.000000
  70
    32
  0
VERTEX
  8
0
  5
1A788
 10
-384.652
 20
840.297
 30
0.000000
  70
    32
  0
VERTEX
  8
0
  5
1A789
 10
-384.651
 20
840.297
 30
0.000000
  70
    32
  0
VERTEX
  8
0
  5
1A78A
 10
-384.650
 20
840.298
 30
0.000000
  70
    32
  0
VERTEX
  8
0
  5
1A78B
 10
-384.649
 20
840.298
 30
0.000000
  70
    32
  0
VERTEX
  8
0
  5
1A78C
 10
-384.649
 20
840.298
 30
0.000000
  70
    32
  0
VERTEX
  8
0
  5
1A78D
 10
-384.648
 20
840.299
 30
0.000000
  70
    32
  0
VERTEX
  8
0
  5
1A78E
 10
-384.647
 20
840.299
 30
0.000000
  70
    32
  0
VERTEX
  8
0
  5
1A78F
 10
-384.646
 20
840.300
 30
0.000000
  70
    32
  0
VERTEX
  8
0
  5
1A790
 10
-384.645
 20
840.300
 30
0.000000
  70
    32
  0
VERTEX
  8
0
  5
1A791
 10
-384.644
 20
840.300
 30
0.000000
  70
    32
  0
VERTEX
  8
0
  5
1A792
 10
-384.643
 20
840.301
 30
0.000000
  70
    32
  0
VERTEX
  8
0
  5
1A793
 10
-384.643
 20
840.301
 30
0.000000
  70
    32
  0
VERTEX
  8
0
  5
1A794
 10
-384.642
 20
840.302
 30
0.000000
  70
    32
  0
VERTEX
  8
0
  5
1A795
 10
-384.641
 20
840.302
 30
0.000000
  70
    32
  0
VERTEX
  8
0
  5
1A796
 10
-384.640
 20
840.302
 30
0.000000
  70
    32
  0
VERTEX
  8
0
  5
1A797
 10
-384.639
 20
840.303
 30
0.000000
  70
    32
  0
VERTEX
  8
0
  5
1A798
 10
-384.638
 20
840.303
 30
0.000000
  70
    32
  0
VERTEX
  8
0
  5
1A799
 10
-384.638
 20
840.304
 30
0.000000
  70
    32
  0
VERTEX
  8
0
  5
1A79A
 10
-384.637
 20
840.304
 30
0.000000
  70
    32
  0
VERTEX
  8
0
  5
1A79B
 10
-384.636
 20
840.304
 30
0.000000
  70
    32
  0
VERTEX
  8
0
  5
1A79C
 10
-384.635
 20
840.305
 30
0.000000
  70
    32
  0
VERTEX
  8
0
  5
1A79D
 10
-384.634
 20
840.305
 30
0.000000
  70
    32
  0
VERTEX
  8
0
  5
1A79E
 10
-384.633
 20
840.306
 30
0.000000
  70
    32
  0
VERTEX
  8
0
  5
1A79F
 10
-384.633
 20
840.306
 30
0.000000
  70
    32
  0
VERTEX
  8
0
  5
1A7A0
 10
-384.632
 20
840.307
 30
0.000000
  70
    32
  0
VERTEX
  8
0
  5
1A7A1
 10
-384.631
 20
840.307
 30
0.000000
  70
    32
  0
VERTEX
  8
0
  5
1A7A2
 10
-384.630
 20
840.308
 30
0.000000
  70
    32
  0
VERTEX
  8
0
  5
1A7A3
 10
-384.629
 20
840.308
 30
0.000000
  70
    32
  0
VERTEX
  8
0
  5
1A7A4
 10
-384.629
 20
840.309
 30
0.000000
  70
    32
  0
VERTEX
  8
0
  5
1A7A5
 10
-384.628
 20
840.309
 30
0.000000
  70
    32
  0
VERTEX
  8
0
  5
1A7A6
 10
-384.627
 20
840.310
 30
0.000000
  70
    32
  0
VERTEX
  8
0
  5
1A7A7
 10
-384.626
 20
840.310
 30
0.000000
  70
    32
  0
VERTEX
  8
0
  5
1A7A8
 10
-384.625
 20
840.311
 30
0.000000
  70
    32
  0
VERTEX
  8
0
  5
1A7A9
 10
-384.625
 20
840.311
 30
0.000000
  70
    32
  0
VERTEX
  8
0
  5
1A7AA
 10
-384.624
 20
840.312
 30
0.000000
  70
    32
  0
VERTEX
  8
0
  5
1A7AB
 10
-384.623
 20
840.312
 30
0.000000
  70
    32
  0
VERTEX
  8
0
  5
1A7AC
 10
-384.622
 20
840.313
 30
0.000000
  70
    32
  0
VERTEX
  8
0
  5
1A7AD
 10
-384.622
 20
840.313
 30
0.000000
  70
    32
  0
VERTEX
  8
0
  5
1A7AE
 10
-384.621
 20
840.314
 30
0.000000
  70
    32
  0
VERTEX
  8
0
  5
1A7AF
 10
-384.620
 20
840.314
 30
0.000000
  70
    32
  0
VERTEX
  8
0
  5
1A7B0
 10
-384.619
 20
840.315
 30
0.000000
  70
    32
  0
VERTEX
  8
0
  5
1A7B1
 10
-384.618
 20
840.315
 30
0.000000
  70
    32
  0
VERTEX
  8
0
  5
1A7B2
 10
-384.618
 20
840.316
 30
0.000000
  70
    32
  0
VERTEX
  8
0
  5
1A7B3
 10
-384.617
 20
840.317
 30
0.000000
  70
    32
  0
VERTEX
  8
0
  5
1A7B4
 10
-384.616
 20
840.317
 30
0.000000
  70
    32
  0
VERTEX
  8
0
  5
1A7B5
 10
-384.615
 20
840.318
 30
0.000000
  70
    32
  0
VERTEX
  8
0
  5
1A7B6
 10
-384.615
 20
840.318
 30
0.000000
  70
    32
  0
VERTEX
  8
0
  5
1A7B7
 10
-384.614
 20
840.319
 30
0.000000
  70
    32
  0
VERTEX
  8
0
  5
1A7B8
 10
-384.613
 20
840.319
 30
0.000000
  70
    32
  0
VERTEX
  8
0
  5
1A7B9
 10
-384.612
 20
840.320
 30
0.000000
  70
    32
  0
VERTEX
  8
0
  5
1A7BA
 10
-384.612
 20
840.321
 30
0.000000
  70
    32
  0
VERTEX
  8
0
  5
1A7BB
 10
-384.611
 20
840.321
 30
0.000000
  70
    32
  0
VERTEX
  8
0
  5
1A7BC
 10
-384.610
 20
840.322
 30
0.000000
  70
    32
  0
VERTEX
  8
0
  5
1A7BD
 10
-384.609
 20
840.322
 30
0.000000
  70
    32
  0
VERTEX
  8
0
  5
1A7BE
 10
-384.609
 20
840.323
 30
0.000000
  70
    32
  0
VERTEX
  8
0
  5
1A7BF
 10
-384.608
 20
840.323
 30
0.000000
  70
    32
  0
VERTEX
  8
0
  5
1A7C0
 10
-384.607
 20
840.324
 30
0.000000
  70
    32
  0
VERTEX
  8
0
  5
1A7C1
 10
-384.606
 20
840.325
 30
0.000000
  70
    32
  0
VERTEX
  8
0
  5
1A7C2
 10
-384.606
 20
840.325
 30
0.000000
  70
    32
  0
VERTEX
  8
0
  5
1A7C3
 10
-384.605
 20
840.326
 30
0.000000
  70
    32
  0
VERTEX
  8
0
  5
1A7C4
 10
-384.604
 20
840.326
 30
0.000000
  70
    32
  0
VERTEX
  8
0
  5
1A7C5
 10
-384.603
 20
840.327
 30
0.000000
  70
    32
  0
VERTEX
  8
0
  5
1A7C6
 10
-384.603
 20
840.328
 30
0.000000
  70
    32
  0
VERTEX
  8
0
  5
1A7C7
 10
-384.602
 20
840.328
 30
0.000000
  70
    32
  0
VERTEX
  8
0
  5
1A7C8
 10
-384.601
 20
840.329
 30
0.000000
  70
    32
  0
VERTEX
  8
0
  5
1A7C9
 10
-384.600
 20
840.329
 30
0.000000
  70
    32
  0
VERTEX
  8
0
  5
1A7CA
 10
-384.600
 20
840.330
 30
0.000000
  70
    32
  0
VERTEX
  8
0
  5
1A7CB
 10
-384.599
 20
840.331
 30
0.000000
  70
    32
  0
VERTEX
  8
0
  5
1A7CC
 10
-384.598
 20
840.331
 30
0.000000
  70
    32
  0
VERTEX
  8
0
  5
1A7CD
 10
-384.597
 20
840.332
 30
0.000000
  70
    32
  0
VERTEX
  8
0
  5
1A7CE
 10
-384.597
 20
840.332
 30
0.000000
  70
    32
  0
VERTEX
  8
0
  5
1A7CF
 10
-384.596
 20
840.333
 30
0.000000
  70
    32
  0
VERTEX
  8
0
  5
1A7D0
 10
-384.595
 20
840.334
 30
0.000000
  70
    32
  0
VERTEX
  8
0
  5
1A7D1
 10
-384.594
 20
840.334
 30
0.000000
  70
    32
  0
VERTEX
  8
0
  5
1A7D2
 10
-384.594
 20
840.335
 30
0.000000
  70
    32
  0
VERTEX
  8
0
  5
1A7D3
 10
-384.593
 20
840.335
 30
0.000000
  70
    32
  0
VERTEX
  8
0
  5
1A7D4
 10
-384.592
 20
840.336
 30
0.000000
  70
    32
  0
VERTEX
  8
0
  5
1A7D5
 10
-384.592
 20
840.337
 30
0.000000
  70
    32
  0
VERTEX
  8
0
  5
1A7D6
 10
-384.591
 20
840.337
 30
0.000000
  70
    32
  0
VERTEX
  8
0
  5
1A7D7
 10
-384.590
 20
840.338
 30
0.000000
  70
    32
  0
VERTEX
  8
0
  5
1A7D8
 10
-384.589
 20
840.339
 30
0.000000
  70
    32
  0
VERTEX
  8
0
  5
1A7D9
 10
-384.589
 20
840.339
 30
0.000000
  70
    32
  0
VERTEX
  8
0
  5
1A7DA
 10
-384.588
 20
840.340
 30
0.000000
  70
    32
  0
VERTEX
  8
0
  5
1A7DB
 10
-384.587
 20
840.340
 30
0.000000
  70
    32
  0
VERTEX
  8
0
  5
1A7DC
 10
-384.586
 20
840.341
 30
0.000000
  70
    32
  0
VERTEX
  8
0
  5
1A7DD
 10
-384.586
 20
840.342
 30
0.000000
  70
    32
  0
VERTEX
  8
0
  5
1A7DE
 10
-384.585
 20
840.342
 30
0.000000
  70
    32
  0
VERTEX
  8
0
  5
1A7DF
 10
-384.584
 20
840.343
 30
0.000000
  70
    32
  0
VERTEX
  8
0
  5
1A7E0
 10
-384.584
 20
840.343
 30
0.000000
  70
    32
  0
VERTEX
  8
0
  5
1A7E1
 10
-384.583
 20
840.344
 30
0.000000
  70
    32
  0
VERTEX
  8
0
  5
1A7E2
 10
-384.582
 20
840.345
 30
0.000000
  70
    32
  0
VERTEX
  8
0
  5
1A7E3
 10
-384.581
 20
840.345
 30
0.000000
  70
    32
  0
VERTEX
  8
0
  5
1A7E4
 10
-384.581
 20
840.346
 30
0.000000
  70
    32
  0
VERTEX
  8
0
  5
1A7E5
 10
-384.580
 20
840.347
 30
0.000000
  70
    32
  0
VERTEX
  8
0
  5
1A7E6
 10
-384.579
 20
840.347
 30
0.000000
  70
    32
  0
VERTEX
  8
0
  5
1A7E7
 10
-384.579
 20
840.348
 30
0.000000
  70
    32
  0
VERTEX
  8
0
  5
1A7E8
 10
-384.578
 20
840.349
 30
0.000000
  70
    32
  0
VERTEX
  8
0
  5
1A7E9
 10
-384.577
 20
840.349
 30
0.000000
  70
    32
  0
VERTEX
  8
0
  5
1A7EA
 10
-384.577
 20
840.350
 30
0.000000
  70
    32
  0
VERTEX
  8
0
  5
1A7EB
 10
-384.576
 20
840.351
 30
0.000000
  70
    32
  0
VERTEX
  8
0
  5
1A7EC
 10
-384.575
 20
840.351
 30
0.000000
  70
    32
  0
VERTEX
  8
0
  5
1A7ED
 10
-384.575
 20
840.352
 30
0.000000
  70
    32
  0
VERTEX
  8
0
  5
1A7EE
 10
-384.574
 20
840.353
 30
0.000000
  70
    32
  0
VERTEX
  8
0
  5
1A7EF
 10
-384.573
 20
840.353
 30
0.000000
  70
    32
  0
VERTEX
  8
0
  5
1A7F0
 10
-384.573
 20
840.354
 30
0.000000
  70
    32
  0
VERTEX
  8
0
  5
1A7F1
 10
-384.572
 20
840.355
 30
0.000000
  70
    32
  0
VERTEX
  8
0
  5
1A7F2
 10
-384.572
 20
840.356
 30
0.000000
  70
    32
  0
VERTEX
  8
0
  5
1A7F3
 10
-384.571
 20
840.356
 30
0.000000
  70
    32
  0
VERTEX
  8
0
  5
1A7F4
 10
-384.570
 20
840.357
 30
0.000000
  70
    32
  0
VERTEX
  8
0
  5
1A7F5
 10
-384.570
 20
840.358
 30
0.000000
  70
    32
  0
VERTEX
  8
0
  5
1A7F6
 10
-384.569
 20
840.358
 30
0.000000
  70
    32
  0
VERTEX
  8
0
  5
1A7F7
 10
-384.569
 20
840.359
 30
0.000000
  70
    32
  0
VERTEX
  8
0
  5
1A7F8
 10
-384.568
 20
840.360
 30
0.000000
  70
    32
  0
VERTEX
  8
0
  5
1A7F9
 10
-384.567
 20
840.361
 30
0.000000
  70
    32
  0
VERTEX
  8
0
  5
1A7FA
 10
-384.567
 20
840.361
 30
0.000000
  70
    32
  0
VERTEX
  8
0
  5
1A7FB
 10
-384.566
 20
840.362
 30
0.000000
  70
    32
  0
VERTEX
  8
0
  5
1A7FC
 10
-384.566
 20
840.363
 30
0.000000
  70
    32
  0
VERTEX
  8
0
  5
1A7FD
 10
-384.565
 20
840.364
 30
0.000000
  70
    32
  0
VERTEX
  8
0
  5
1A7FE
 10
-384.565
 20
840.365
 30
0.000000
  70
    32
  0
VERTEX
  8
0
  5
1A7FF
 10
-384.564
 20
840.365
 30
0.000000
  70
    32
  0
VERTEX
  8
0
  5
1A800
 10
-384.564
 20
840.366
 30
0.000000
  70
    32
  0
VERTEX
  8
0
  5
1A801
 10
-384.563
 20
840.367
 30
0.000000
  70
    32
  0
VERTEX
  8
0
  5
1A802
 10
-384.562
 20
840.368
 30
0.000000
  70
    32
  0
VERTEX
  8
0
  5
1A803
 10
-384.562
 20
840.369
 30
0.000000
  70
    32
  0
VERTEX
  8
0
  5
1A804
 10
-384.562
 20
840.369
 30
0.000000
  70
    32
  0
VERTEX
  8
0
  5
1A805
 10
-384.561
 20
840.370
 30
0.000000
  70
    32
  0
VERTEX
  8
0
  5
1A806
 10
-384.561
 20
840.371
 30
0.000000
  70
    32
  0
VERTEX
  8
0
  5
1A807
 10
-384.560
 20
840.372
 30
0.000000
  70
    32
  0
VERTEX
  8
0
  5
1A808
 10
-384.560
 20
840.373
 30
0.000000
  70
    32
  0
VERTEX
  8
0
  5
1A809
 10
-384.559
 20
840.374
 30
0.000000
  70
    32
  0
VERTEX
  8
0
  5
1A80A
 10
-384.559
 20
840.374
 30
0.000000
  70
    32
  0
VERTEX
  8
0
  5
1A80B
 10
-384.558
 20
840.375
 30
0.000000
  70
    32
  0
VERTEX
  8
0
  5
1A80C
 10
-384.558
 20
840.376
 30
0.000000
  70
    32
  0
VERTEX
  8
0
  5
1A80D
 10
-384.557
 20
840.377
 30
0.000000
  70
    32
  0
VERTEX
  8
0
  5
1A80E
 10
-384.557
 20
840.378
 30
0.000000
  70
    32
  0
VERTEX
  8
0
  5
1A80F
 10
-384.557
 20
840.379
 30
0.000000
  70
    32
  0
VERTEX
  8
0
  5
1A810
 10
-384.556
 20
840.380
 30
0.000000
  70
    32
  0
VERTEX
  8
0
  5
1A811
 10
-384.556
 20
840.380
 30
0.000000
  70
    32
  0
VERTEX
  8
0
  5
1A812
 10
-384.555
 20
840.381
 30
0.000000
  70
    32
  0
VERTEX
  8
0
  5
1A813
 10
-384.555
 20
840.382
 30
0.000000
  70
    32
  0
VERTEX
  8
0
  5
1A814
 10
-384.555
 20
840.383
 30
0.000000
  70
    32
  0
VERTEX
  8
0
  5
1A815
 10
-384.554
 20
840.384
 30
0.000000
  70
    32
  0
VERTEX
  8
0
  5
1A816
 10
-384.554
 20
840.385
 30
0.000000
  70
    32
  0
VERTEX
  8
0
  5
1A817
 10
-384.554
 20
840.386
 30
0.000000
  70
    32
  0
VERTEX
  8
0
  5
1A818
 10
-384.553
 20
840.387
 30
0.000000
  70
    32
  0
VERTEX
  8
0
  5
1A819
 10
-384.553
 20
840.388
 30
0.000000
  70
    32
  0
VERTEX
  8
0
  5
1A81A
 10
-384.553
 20
840.388
 30
0.000000
  70
    32
  0
VERTEX
  8
0
  5
1A81B
 10
-384.553
 20
840.389
 30
0.000000
  70
    32
  0
VERTEX
  8
0
  5
1A81C
 10
-384.552
 20
840.390
 30
0.000000
  70
    32
  0
VERTEX
  8
0
  5
1A81D
 10
-384.552
 20
840.391
 30
0.000000
  70
    32
  0
VERTEX
  8
0
  5
1A81E
 10
-384.552
 20
840.392
 30
0.000000
  70
    32
  0
VERTEX
  8
0
  5
1A81F
 10
-384.552
 20
840.393
 30
0.000000
  70
    32
  0
VERTEX
  8
0
  5
1A820
 10
-384.551
 20
840.394
 30
0.000000
  70
    32
  0
VERTEX
  8
0
  5
1A821
 10
-384.551
 20
840.395
 30
0.000000
  70
    32
  0
VERTEX
  8
0
  5
1A822
 10
-384.551
 20
840.396
 30
0.000000
  70
    32
  0
VERTEX
  8
0
  5
1A823
 10
-384.551
 20
840.397
 30
0.000000
  70
    32
  0
VERTEX
  8
0
  5
1A824
 10
-384.551
 20
840.398
 30
0.000000
  70
    32
  0
VERTEX
  8
0
  5
1A825
 10
-384.550
 20
840.399
 30
0.000000
  70
    32
  0
VERTEX
  8
0
  5
1A826
 10
-384.550
 20
840.399
 30
0.000000
  70
    32
  0
VERTEX
  8
0
  5
1A827
 10
-384.550
 20
840.400
 30
0.000000
  70
    32
  0
VERTEX
  8
0
  5
1A828
 10
-384.550
 20
840.401
 30
0.000000
  70
    32
  0
VERTEX
  8
0
  5
1A829
 10
-384.550
 20
840.402
 30
0.000000
  70
    32
  0
VERTEX
  8
0
  5
1A82A
 10
-384.550
 20
840.403
 30
0.000000
  70
    32
  0
VERTEX
  8
0
  5
1A82B
 10
-384.549
 20
840.404
 30
0.000000
  70
    32
  0
VERTEX
  8
0
  5
1A82C
 10
-384.549
 20
840.405
 30
0.000000
  70
    32
  0
VERTEX
  8
0
  5
1A82D
 10
-384.549
 20
840.406
 30
0.000000
  70
    32
  0
VERTEX
  8
0
  5
1A82E
 10
-384.549
 20
840.407
 30
0.000000
  70
    32
  0
VERTEX
  8
0
  5
1A82F
 10
-384.549
 20
840.408
 30
0.000000
  70
    32
  0
VERTEX
  8
0
  5
1A830
 10
-384.549
 20
840.409
 30
0.000000
  70
    32
  0
VERTEX
  8
0
  5
1A831
 10
-384.549
 20
840.410
 30
0.000000
  70
    32
  0
VERTEX
  8
0
  5
1A832
 10
-384.549
 20
840.411
 30
0.000000
  70
    32
  0
VERTEX
  8
0
  5
1A833
 10
-384.549
 20
840.412
 30
0.000000
  70
    32
  0
VERTEX
  8
0
  5
1A834
 10
-384.548
 20
840.413
 30
0.000000
  70
    32
  0
VERTEX
  8
0
  5
1A835
 10
-384.548
 20
840.414
 30
0.000000
  70
    32
  0
VERTEX
  8
0
  5
1A836
 10
-384.548
 20
840.414
 30
0.000000
  70
    32
  0
VERTEX
  8
0
  5
1A837
 10
-384.548
 20
840.415
 30
0.000000
  70
    32
  0
VERTEX
  8
0
  5
1A838
 10
-384.548
 20
840.416
 30
0.000000
  70
    32
  0
VERTEX
  8
0
  5
1A839
 10
-384.548
 20
840.417
 30
0.000000
  70
    32
  0
VERTEX
  8
0
  5
1A83A
 10
-384.548
 20
840.418
 30
0.000000
  70
    32
  0
VERTEX
  8
0
  5
1A83B
 10
-384.548
 20
840.419
 30
0.000000
  70
    32
  0
VERTEX
  8
0
  5
1A83C
 10
-384.548
 20
840.420
 30
0.000000
  70
    32
  0
VERTEX
  8
0
  5
1A83D
 10
-384.548
 20
840.421
 30
0.000000
  70
    32
  0
VERTEX
  8
0
  5
1A83E
 10
-384.548
 20
840.422
 30
0.000000
  70
    32
  0
VERTEX
  8
0
  5
1A83F
 10
-384.548
 20
840.423
 30
0.000000
  70
    32
  0
VERTEX
  8
0
  5
1A840
 10
-384.548
 20
840.424
 30
0.000000
  70
    32
  0
VERTEX
  8
0
  5
1A841
 10
-384.548
 20
840.425
 30
0.000000
  70
    32
  0
VERTEX
  8
0
  5
1A842
 10
-384.548
 20
840.426
 30
0.000000
  70
    32
  0
VERTEX
  8
0
  5
1A843
 10
-384.548
 20
840.427
 30
0.000000
  70
    32
  0
VERTEX
  8
0
  5
1A844
 10
-384.548
 20
840.428
 30
0.000000
  70
    32
  0
VERTEX
  8
0
  5
1A845
 10
-384.548
 20
840.429
 30
0.000000
  70
    32
  0
VERTEX
  8
0
  5
1A846
 10
-384.548
 20
840.430
 30
0.000000
  70
    32
  0
VERTEX
  8
0
  5
1A847
 10
-384.548
 20
840.431
 30
0.000000
  70
    32
  0
VERTEX
  8
0
  5
1A848
 10
-384.548
 20
840.432
 30
0.000000
  70
    32
  0
VERTEX
  8
0
  5
1A849
 10
-384.548
 20
840.433
 30
0.000000
  70
    32
  0
VERTEX
  8
0
  5
1A84A
 10
-384.548
 20
840.434
 30
0.000000
  70
    32
  0
VERTEX
  8
0
  5
1A84B
 10
-384.548
 20
840.435
 30
0.000000
  70
    32
  0
VERTEX
  8
0
  5
1A84C
 10
-384.548
 20
840.436
 30
0.000000
  70
    32
  0
VERTEX
  8
0
  5
1A84D
 10
-384.548
 20
840.437
 30
0.000000
  70
    32
  0
VERTEX
  8
0
  5
1A84E
 10
-384.548
 20
840.438
 30
0.000000
  70
    32
  0
VERTEX
  8
0
  5
1A84F
 10
-384.548
 20
840.438
 30
0.000000
  70
    32
  0
VERTEX
  8
0
  5
1A850
 10
-384.548
 20
840.439
 30
0.000000
  70
    32
  0
VERTEX
  8
0
  5
1A851
 10
-384.548
 20
840.440
 30
0.000000
  70
    32
  0
VERTEX
  8
0
  5
1A852
 10
-384.548
 20
840.441
 30
0.000000
  70
    32
  0
VERTEX
  8
0
  5
1A853
 10
-384.548
 20
840.442
 30
0.000000
  70
    32
  0
SEQEND
  8
0
  5
1A854
  0
LINE
  5
1A2B8
  8
0
 10
-384.54607774762587
 20
840.73254566203536
 30
0.0
 11
-384.54604167724261
 21
840.73255121677255
 31
0.0
  0
POLYLINE
  8
0
  5
1A855
  66
     1
 10
0.000000
 20
0.000000
 30
0.000000
  70
     8
  0
VERTEX
  8
0
  5
1A856
 10
-384.546
 20
840.733
 30
0.000000
  70
    32
  0
VERTEX
  8
0
  5
1A857
 10
-384.547
 20
840.732
 30
0.000000
  70
    32
  0
VERTEX
  8
0
  5
1A858
 10
-384.548
 20
840.732
 30
0.000000
  70
    32
  0
VERTEX
  8
0
  5
1A859
 10
-384.549
 20
840.732
 30
0.000000
  70
    32
  0
VERTEX
  8
0
  5
1A85A
 10
-384.550
 20
840.732
 30
0.000000
  70
    32
  0
VERTEX
  8
0
  5
1A85B
 10
-384.551
 20
840.731
 30
0.000000
  70
    32
  0
VERTEX
  8
0
  5
1A85C
 10
-384.552
 20
840.731
 30
0.000000
  70
    32
  0
VERTEX
  8
0
  5
1A85D
 10
-384.553
 20
840.731
 30
0.000000
  70
    32
  0
VERTEX
  8
0
  5
1A85E
 10
-384.553
 20
840.731
 30
0.000000
  70
    32
  0
VERTEX
  8
0
  5
1A85F
 10
-384.554
 20
840.731
 30
0.000000
  70
    32
  0
VERTEX
  8
0
  5
1A860
 10
-384.555
 20
840.730
 30
0.000000
  70
    32
  0
VERTEX
  8
0
  5
1A861
 10
-384.556
 20
840.730
 30
0.000000
  70
    32
  0
VERTEX
  8
0
  5
1A862
 10
-384.557
 20
840.730
 30
0.000000
  70
    32
  0
VERTEX
  8
0
  5
1A863
 10
-384.558
 20
840.730
 30
0.000000
  70
    32
  0
VERTEX
  8
0
  5
1A864
 10
-384.559
 20
840.730
 30
0.000000
  70
    32
  0
VERTEX
  8
0
  5
1A865
 10
-384.560
 20
840.729
 30
0.000000
  70
    32
  0
VERTEX
  8
0
  5
1A866
 10
-384.561
 20
840.729
 30
0.000000
  70
    32
  0
VERTEX
  8
0
  5
1A867
 10
-384.562
 20
840.729
 30
0.000000
  70
    32
  0
VERTEX
  8
0
  5
1A868
 10
-384.563
 20
840.729
 30
0.000000
  70
    32
  0
VERTEX
  8
0
  5
1A869
 10
-384.564
 20
840.729
 30
0.000000
  70
    32
  0
VERTEX
  8
0
  5
1A86A
 10
-384.565
 20
840.729
 30
0.000000
  70
    32
  0
VERTEX
  8
0
  5
1A86B
 10
-384.566
 20
840.728
 30
0.000000
  70
    32
  0
VERTEX
  8
0
  5
1A86C
 10
-384.566
 20
840.728
 30
0.000000
  70
    32
  0
VERTEX
  8
0
  5
1A86D
 10
-384.567
 20
840.728
 30
0.000000
  70
    32
  0
VERTEX
  8
0
  5
1A86E
 10
-384.568
 20
840.728
 30
0.000000
  70
    32
  0
VERTEX
  8
0
  5
1A86F
 10
-384.569
 20
840.728
 30
0.000000
  70
    32
  0
VERTEX
  8
0
  5
1A870
 10
-384.570
 20
840.728
 30
0.000000
  70
    32
  0
VERTEX
  8
0
  5
1A871
 10
-384.571
 20
840.728
 30
0.000000
  70
    32
  0
VERTEX
  8
0
  5
1A872
 10
-384.572
 20
840.727
 30
0.000000
  70
    32
  0
VERTEX
  8
0
  5
1A873
 10
-384.573
 20
840.727
 30
0.000000
  70
    32
  0
VERTEX
  8
0
  5
1A874
 10
-384.574
 20
840.727
 30
0.000000
  70
    32
  0
VERTEX
  8
0
  5
1A875
 10
-384.575
 20
840.727
 30
0.000000
  70
    32
  0
VERTEX
  8
0
  5
1A876
 10
-384.576
 20
840.727
 30
0.000000
  70
    32
  0
VERTEX
  8
0
  5
1A877
 10
-384.577
 20
840.727
 30
0.000000
  70
    32
  0
VERTEX
  8
0
  5
1A878
 10
-384.578
 20
840.726
 30
0.000000
  70
    32
  0
VERTEX
  8
0
  5
1A879
 10
-384.579
 20
840.726
 30
0.000000
  70
    32
  0
VERTEX
  8
0
  5
1A87A
 10
-384.580
 20
840.726
 30
0.000000
  70
    32
  0
VERTEX
  8
0
  5
1A87B
 10
-384.581
 20
840.726
 30
0.000000
  70
    32
  0
VERTEX
  8
0
  5
1A87C
 10
-384.581
 20
840.726
 30
0.000000
  70
    32
  0
VERTEX
  8
0
  5
1A87D
 10
-384.582
 20
840.726
 30
0.000000
  70
    32
  0
VERTEX
  8
0
  5
1A87E
 10
-384.583
 20
840.725
 30
0.000000
  70
    32
  0
VERTEX
  8
0
  5
1A87F
 10
-384.584
 20
840.725
 30
0.000000
  70
    32
  0
VERTEX
  8
0
  5
1A880
 10
-384.585
 20
840.725
 30
0.000000
  70
    32
  0
VERTEX
  8
0
  5
1A881
 10
-384.586
 20
840.725
 30
0.000000
  70
    32
  0
VERTEX
  8
0
  5
1A882
 10
-384.587
 20
840.725
 30
0.000000
  70
    32
  0
VERTEX
  8
0
  5
1A883
 10
-384.588
 20
840.724
 30
0.000000
  70
    32
  0
VERTEX
  8
0
  5
1A884
 10
-384.589
 20
840.724
 30
0.000000
  70
    32
  0
VERTEX
  8
0
  5
1A885
 10
-384.590
 20
840.724
 30
0.000000
  70
    32
  0
VERTEX
  8
0
  5
1A886
 10
-384.591
 20
840.724
 30
0.000000
  70
    32
  0
VERTEX
  8
0
  5
1A887
 10
-384.592
 20
840.724
 30
0.000000
  70
    32
  0
VERTEX
  8
0
  5
1A888
 10
-384.593
 20
840.723
 30
0.000000
  70
    32
  0
VERTEX
  8
0
  5
1A889
 10
-384.593
 20
840.723
 30
0.000000
  70
    32
  0
VERTEX
  8
0
  5
1A88A
 10
-384.594
 20
840.723
 30
0.000000
  70
    32
  0
VERTEX
  8
0
  5
1A88B
 10
-384.595
 20
840.723
 30
0.000000
  70
    32
  0
VERTEX
  8
0
  5
1A88C
 10
-384.596
 20
840.722
 30
0.000000
  70
    32
  0
VERTEX
  8
0
  5
1A88D
 10
-384.597
 20
840.722
 30
0.000000
  70
    32
  0
VERTEX
  8
0
  5
1A88E
 10
-384.598
 20
840.722
 30
0.000000
  70
    32
  0
VERTEX
  8
0
  5
1A88F
 10
-384.599
 20
840.722
 30
0.000000
  70
    32
  0
VERTEX
  8
0
  5
1A890
 10
-384.600
 20
840.721
 30
0.000000
  70
    32
  0
VERTEX
  8
0
  5
1A891
 10
-384.601
 20
840.721
 30
0.000000
  70
    32
  0
VERTEX
  8
0
  5
1A892
 10
-384.602
 20
840.721
 30
0.000000
  70
    32
  0
VERTEX
  8
0
  5
1A893
 10
-384.603
 20
840.720
 30
0.000000
  70
    32
  0
VERTEX
  8
0
  5
1A894
 10
-384.603
 20
840.720
 30
0.000000
  70
    32
  0
VERTEX
  8
0
  5
1A895
 10
-384.604
 20
840.720
 30
0.000000
  70
    32
  0
VERTEX
  8
0
  5
1A896
 10
-384.605
 20
840.720
 30
0.000000
  70
    32
  0
VERTEX
  8
0
  5
1A897
 10
-384.606
 20
840.719
 30
0.000000
  70
    32
  0
VERTEX
  8
0
  5
1A898
 10
-384.607
 20
840.719
 30
0.000000
  70
    32
  0
VERTEX
  8
0
  5
1A899
 10
-384.608
 20
840.719
 30
0.000000
  70
    32
  0
VERTEX
  8
0
  5
1A89A
 10
-384.609
 20
840.718
 30
0.000000
  70
    32
  0
VERTEX
  8
0
  5
1A89B
 10
-384.610
 20
840.718
 30
0.000000
  70
    32
  0
VERTEX
  8
0
  5
1A89C
 10
-384.611
 20
840.718
 30
0.000000
  70
    32
  0
VERTEX
  8
0
  5
1A89D
 10
-384.612
 20
840.718
 30
0.000000
  70
    32
  0
VERTEX
  8
0
  5
1A89E
 10
-384.612
 20
840.717
 30
0.000000
  70
    32
  0
VERTEX
  8
0
  5
1A89F
 10
-384.613
 20
840.717
 30
0.000000
  70
    32
  0
VERTEX
  8
0
  5
1A8A0
 10
-384.614
 20
840.717
 30
0.000000
  70
    32
  0
VERTEX
  8
0
  5
1A8A1
 10
-384.615
 20
840.716
 30
0.000000
  70
    32
  0
VERTEX
  8
0
  5
1A8A2
 10
-384.616
 20
840.716
 30
0.000000
  70
    32
  0
VERTEX
  8
0
  5
1A8A3
 10
-384.617
 20
840.716
 30
0.000000
  70
    32
  0
VERTEX
  8
0
  5
1A8A4
 10
-384.618
 20
840.715
 30
0.000000
  70
    32
  0
VERTEX
  8
0
  5
1A8A5
 10
-384.619
 20
840.715
 30
0.000000
  70
    32
  0
VERTEX
  8
0
  5
1A8A6
 10
-384.620
 20
840.715
 30
0.000000
  70
    32
  0
VERTEX
  8
0
  5
1A8A7
 10
-384.621
 20
840.714
 30
0.000000
  70
    32
  0
VERTEX
  8
0
  5
1A8A8
 10
-384.621
 20
840.714
 30
0.000000
  70
    32
  0
VERTEX
  8
0
  5
1A8A9
 10
-384.622
 20
840.714
 30
0.000000
  70
    32
  0
VERTEX
  8
0
  5
1A8AA
 10
-384.623
 20
840.713
 30
0.000000
  70
    32
  0
VERTEX
  8
0
  5
1A8AB
 10
-384.624
 20
840.713
 30
0.000000
  70
    32
  0
VERTEX
  8
0
  5
1A8AC
 10
-384.625
 20
840.713
 30
0.000000
  70
    32
  0
VERTEX
  8
0
  5
1A8AD
 10
-384.626
 20
840.712
 30
0.000000
  70
    32
  0
VERTEX
  8
0
  5
1A8AE
 10
-384.627
 20
840.712
 30
0.000000
  70
    32
  0
VERTEX
  8
0
  5
1A8AF
 10
-384.628
 20
840.712
 30
0.000000
  70
    32
  0
VERTEX
  8
0
  5
1A8B0
 10
-384.629
 20
840.711
 30
0.000000
  70
    32
  0
VERTEX
  8
0
  5
1A8B1
 10
-384.629
 20
840.711
 30
0.000000
  70
    32
  0
VERTEX
  8
0
  5
1A8B2
 10
-384.630
 20
840.711
 30
0.000000
  70
    32
  0
VERTEX
  8
0
  5
1A8B3
 10
-384.631
 20
840.710
 30
0.000000
  70
    32
  0
VERTEX
  8
0
  5
1A8B4
 10
-384.632
 20
840.710
 30
0.000000
  70
    32
  0
VERTEX
  8
0
  5
1A8B5
 10
-384.633
 20
840.710
 30
0.000000
  70
    32
  0
VERTEX
  8
0
  5
1A8B6
 10
-384.634
 20
840.709
 30
0.000000
  70
    32
  0
VERTEX
  8
0
  5
1A8B7
 10
-384.635
 20
840.709
 30
0.000000
  70
    32
  0
VERTEX
  8
0
  5
1A8B8
 10
-384.636
 20
840.709
 30
0.000000
  70
    32
  0
VERTEX
  8
0
  5
1A8B9
 10
-384.637
 20
840.708
 30
0.000000
  70
    32
  0
VERTEX
  8
0
  5
1A8BA
 10
-384.637
 20
840.708
 30
0.000000
  70
    32
  0
VERTEX
  8
0
  5
1A8BB
 10
-384.638
 20
840.707
 30
0.000000
  70
    32
  0
VERTEX
  8
0
  5
1A8BC
 10
-384.639
 20
840.707
 30
0.000000
  70
    32
  0
VERTEX
  8
0
  5
1A8BD
 10
-384.640
 20
840.707
 30
0.000000
  70
    32
  0
VERTEX
  8
0
  5
1A8BE
 10
-384.641
 20
840.706
 30
0.000000
  70
    32
  0
VERTEX
  8
0
  5
1A8BF
 10
-384.642
 20
840.706
 30
0.000000
  70
    32
  0
VERTEX
  8
0
  5
1A8C0
 10
-384.643
 20
840.706
 30
0.000000
  70
    32
  0
VERTEX
  8
0
  5
1A8C1
 10
-384.644
 20
840.705
 30
0.000000
  70
    32
  0
VERTEX
  8
0
  5
1A8C2
 10
-384.645
 20
840.705
 30
0.000000
  70
    32
  0
VERTEX
  8
0
  5
1A8C3
 10
-384.645
 20
840.704
 30
0.000000
  70
    32
  0
VERTEX
  8
0
  5
1A8C4
 10
-384.646
 20
840.704
 30
0.000000
  70
    32
  0
VERTEX
  8
0
  5
1A8C5
 10
-384.647
 20
840.704
 30
0.000000
  70
    32
  0
VERTEX
  8
0
  5
1A8C6
 10
-384.648
 20
840.703
 30
0.000000
  70
    32
  0
VERTEX
  8
0
  5
1A8C7
 10
-384.649
 20
840.703
 30
0.000000
  70
    32
  0
VERTEX
  8
0
  5
1A8C8
 10
-384.650
 20
840.702
 30
0.000000
  70
    32
  0
VERTEX
  8
0
  5
1A8C9
 10
-384.651
 20
840.702
 30
0.000000
  70
    32
  0
VERTEX
  8
0
  5
1A8CA
 10
-384.651
 20
840.701
 30
0.000000
  70
    32
  0
VERTEX
  8
0
  5
1A8CB
 10
-384.652
 20
840.701
 30
0.000000
  70
    32
  0
VERTEX
  8
0
  5
1A8CC
 10
-384.653
 20
840.701
 30
0.000000
  70
    32
  0
VERTEX
  8
0
  5
1A8CD
 10
-384.654
 20
840.700
 30
0.000000
  70
    32
  0
VERTEX
  8
0
  5
1A8CE
 10
-384.655
 20
840.700
 30
0.000000
  70
    32
  0
VERTEX
  8
0
  5
1A8CF
 10
-384.656
 20
840.699
 30
0.000000
  70
    32
  0
VERTEX
  8
0
  5
1A8D0
 10
-384.656
 20
840.699
 30
0.000000
  70
    32
  0
VERTEX
  8
0
  5
1A8D1
 10
-384.657
 20
840.698
 30
0.000000
  70
    32
  0
VERTEX
  8
0
  5
1A8D2
 10
-384.658
 20
840.698
 30
0.000000
  70
    32
  0
VERTEX
  8
0
  5
1A8D3
 10
-384.659
 20
840.697
 30
0.000000
  70
    32
  0
VERTEX
  8
0
  5
1A8D4
 10
-384.660
 20
840.697
 30
0.000000
  70
    32
  0
VERTEX
  8
0
  5
1A8D5
 10
-384.661
 20
840.696
 30
0.000000
  70
    32
  0
VERTEX
  8
0
  5
1A8D6
 10
-384.661
 20
840.696
 30
0.000000
  70
    32
  0
VERTEX
  8
0
  5
1A8D7
 10
-384.662
 20
840.695
 30
0.000000
  70
    32
  0
VERTEX
  8
0
  5
1A8D8
 10
-384.663
 20
840.695
 30
0.000000
  70
    32
  0
VERTEX
  8
0
  5
1A8D9
 10
-384.664
 20
840.694
 30
0.000000
  70
    32
  0
VERTEX
  8
0
  5
1A8DA
 10
-384.665
 20
840.694
 30
0.000000
  70
    32
  0
VERTEX
  8
0
  5
1A8DB
 10
-384.665
 20
840.693
 30
0.000000
  70
    32
  0
VERTEX
  8
0
  5
1A8DC
 10
-384.666
 20
840.693
 30
0.000000
  70
    32
  0
VERTEX
  8
0
  5
1A8DD
 10
-384.667
 20
840.692
 30
0.000000
  70
    32
  0
VERTEX
  8
0
  5
1A8DE
 10
-384.668
 20
840.692
 30
0.000000
  70
    32
  0
VERTEX
  8
0
  5
1A8DF
 10
-384.668
 20
840.691
 30
0.000000
  70
    32
  0
VERTEX
  8
0
  5
1A8E0
 10
-384.669
 20
840.690
 30
0.000000
  70
    32
  0
VERTEX
  8
0
  5
1A8E1
 10
-384.670
 20
840.690
 30
0.000000
  70
    32
  0
VERTEX
  8
0
  5
1A8E2
 10
-384.671
 20
840.689
 30
0.000000
  70
    32
  0
VERTEX
  8
0
  5
1A8E3
 10
-384.671
 20
840.689
 30
0.000000
  70
    32
  0
VERTEX
  8
0
  5
1A8E4
 10
-384.672
 20
840.688
 30
0.000000
  70
    32
  0
VERTEX
  8
0
  5
1A8E5
 10
-384.673
 20
840.687
 30
0.000000
  70
    32
  0
VERTEX
  8
0
  5
1A8E6
 10
-384.673
 20
840.687
 30
0.000000
  70
    32
  0
VERTEX
  8
0
  5
1A8E7
 10
-384.674
 20
840.686
 30
0.000000
  70
    32
  0
VERTEX
  8
0
  5
1A8E8
 10
-384.675
 20
840.685
 30
0.000000
  70
    32
  0
VERTEX
  8
0
  5
1A8E9
 10
-384.675
 20
840.685
 30
0.000000
  70
    32
  0
VERTEX
  8
0
  5
1A8EA
 10
-384.676
 20
840.684
 30
0.000000
  70
    32
  0
VERTEX
  8
0
  5
1A8EB
 10
-384.677
 20
840.683
 30
0.000000
  70
    32
  0
VERTEX
  8
0
  5
1A8EC
 10
-384.677
 20
840.683
 30
0.000000
  70
    32
  0
VERTEX
  8
0
  5
1A8ED
 10
-384.678
 20
840.682
 30
0.000000
  70
    32
  0
VERTEX
  8
0
  5
1A8EE
 10
-384.679
 20
840.681
 30
0.000000
  70
    32
  0
VERTEX
  8
0
  5
1A8EF
 10
-384.679
 20
840.681
 30
0.000000
  70
    32
  0
VERTEX
  8
0
  5
1A8F0
 10
-384.680
 20
840.680
 30
0.000000
  70
    32
  0
VERTEX
  8
0
  5
1A8F1
 10
-384.681
 20
840.679
 30
0.000000
  70
    32
  0
VERTEX
  8
0
  5
1A8F2
 10
-384.681
 20
840.678
 30
0.000000
  70
    32
  0
VERTEX
  8
0
  5
1A8F3
 10
-384.682
 20
840.678
 30
0.000000
  70
    32
  0
VERTEX
  8
0
  5
1A8F4
 10
-384.682
 20
840.677
 30
0.000000
  70
    32
  0
VERTEX
  8
0
  5
1A8F5
 10
-384.683
 20
840.676
 30
0.000000
  70
    32
  0
VERTEX
  8
0
  5
1A8F6
 10
-384.683
 20
840.675
 30
0.000000
  70
    32
  0
VERTEX
  8
0
  5
1A8F7
 10
-384.684
 20
840.674
 30
0.000000
  70
    32
  0
VERTEX
  8
0
  5
1A8F8
 10
-384.684
 20
840.674
 30
0.000000
  70
    32
  0
VERTEX
  8
0
  5
1A8F9
 10
-384.685
 20
840.673
 30
0.000000
  70
    32
  0
VERTEX
  8
0
  5
1A8FA
 10
-384.686
 20
840.672
 30
0.000000
  70
    32
  0
VERTEX
  8
0
  5
1A8FB
 10
-384.686
 20
840.671
 30
0.000000
  70
    32
  0
VERTEX
  8
0
  5
1A8FC
 10
-384.687
 20
840.670
 30
0.000000
  70
    32
  0
VERTEX
  8
0
  5
1A8FD
 10
-384.687
 20
840.670
 30
0.000000
  70
    32
  0
VERTEX
  8
0
  5
1A8FE
 10
-384.688
 20
840.669
 30
0.000000
  70
    32
  0
VERTEX
  8
0
  5
1A8FF
 10
-384.688
 20
840.668
 30
0.000000
  70
    32
  0
VERTEX
  8
0
  5
1A900
 10
-384.688
 20
840.667
 30
0.000000
  70
    32
  0
VERTEX
  8
0
  5
1A901
 10
-384.689
 20
840.666
 30
0.000000
  70
    32
  0
VERTEX
  8
0
  5
1A902
 10
-384.689
 20
840.665
 30
0.000000
  70
    32
  0
VERTEX
  8
0
  5
1A903
 10
-384.690
 20
840.665
 30
0.000000
  70
    32
  0
VERTEX
  8
0
  5
1A904
 10
-384.690
 20
840.664
 30
0.000000
  70
    32
  0
VERTEX
  8
0
  5
1A905
 10
-384.691
 20
840.663
 30
0.000000
  70
    32
  0
VERTEX
  8
0
  5
1A906
 10
-384.691
 20
840.662
 30
0.000000
  70
    32
  0
VERTEX
  8
0
  5
1A907
 10
-384.691
 20
840.661
 30
0.000000
  70
    32
  0
VERTEX
  8
0
  5
1A908
 10
-384.692
 20
840.660
 30
0.000000
  70
    32
  0
VERTEX
  8
0
  5
1A909
 10
-384.692
 20
840.659
 30
0.000000
  70
    32
  0
VERTEX
  8
0
  5
1A90A
 10
-384.692
 20
840.658
 30
0.000000
  70
    32
  0
VERTEX
  8
0
  5
1A90B
 10
-384.693
 20
840.657
 30
0.000000
  70
    32
  0
VERTEX
  8
0
  5
1A90C
 10
-384.693
 20
840.656
 30
0.000000
  70
    32
  0
VERTEX
  8
0
  5
1A90D
 10
-384.693
 20
840.655
 30
0.000000
  70
    32
  0
VERTEX
  8
0
  5
1A90E
 10
-384.694
 20
840.655
 30
0.000000
  70
    32
  0
VERTEX
  8
0
  5
1A90F
 10
-384.694
 20
840.654
 30
0.000000
  70
    32
  0
VERTEX
  8
0
  5
1A910
 10
-384.694
 20
840.653
 30
0.000000
  70
    32
  0
VERTEX
  8
0
  5
1A911
 10
-384.694
 20
840.652
 30
0.000000
  70
    32
  0
VERTEX
  8
0
  5
1A912
 10
-384.695
 20
840.651
 30
0.000000
  70
    32
  0
VERTEX
  8
0
  5
1A913
 10
-384.695
 20
840.650
 30
0.000000
  70
    32
  0
VERTEX
  8
0
  5
1A914
 10
-384.695
 20
840.649
 30
0.000000
  70
    32
  0
VERTEX
  8
0
  5
1A915
 10
-384.695
 20
840.648
 30
0.000000
  70
    32
  0
VERTEX
  8
0
  5
1A916
 10
-384.695
 20
840.647
 30
0.000000
  70
    32
  0
VERTEX
  8
0
  5
1A917
 10
-384.696
 20
840.646
 30
0.000000
  70
    32
  0
VERTEX
  8
0
  5
1A918
 10
-384.696
 20
840.645
 30
0.000000
  70
    32
  0
VERTEX
  8
0
  5
1A919
 10
-384.696
 20
840.644
 30
0.000000
  70
    32
  0
VERTEX
  8
0
  5
1A91A
 10
-384.696
 20
840.643
 30
0.000000
  70
    32
  0
VERTEX
  8
0
  5
1A91B
 10
-384.696
 20
840.642
 30
0.000000
  70
    32
  0
VERTEX
  8
0
  5
1A91C
 10
-384.696
 20
840.641
 30
0.000000
  70
    32
  0
VERTEX
  8
0
  5
1A91D
 10
-384.696
 20
840.640
 30
0.000000
  70
    32
  0
VERTEX
  8
0
  5
1A91E
 10
-384.696
 20
840.639
 30
0.000000
  70
    32
  0
VERTEX
  8
0
  5
1A91F
 10
-384.696
 20
840.638
 30
0.000000
  70
    32
  0
VERTEX
  8
0
  5
1A920
 10
-384.696
 20
840.637
 30
0.000000
  70
    32
  0
VERTEX
  8
0
  5
1A921
 10
-384.696
 20
840.636
 30
0.000000
  70
    32
  0
VERTEX
  8
0
  5
1A922
 10
-384.696
 20
840.635
 30
0.000000
  70
    32
  0
VERTEX
  8
0
  5
1A923
 10
-384.696
 20
840.634
 30
0.000000
  70
    32
  0
VERTEX
  8
0
  5
1A924
 10
-384.696
 20
840.633
 30
0.000000
  70
    32
  0
VERTEX
  8
0
  5
1A925
 10
-384.696
 20
840.632
 30
0.000000
  70
    32
  0
VERTEX
  8
0
  5
1A926
 10
-384.696
 20
840.631
 30
0.000000
  70
    32
  0
VERTEX
  8
0
  5
1A927
 10
-384.696
 20
840.630
 30
0.000000
  70
    32
  0
VERTEX
  8
0
  5
1A928
 10
-384.696
 20
840.629
 30
0.000000
  70
    32
  0
VERTEX
  8
0
  5
1A929
 10
-384.696
 20
840.628
 30
0.000000
  70
    32
  0
VERTEX
  8
0
  5
1A92A
 10
-384.696
 20
840.627
 30
0.000000
  70
    32
  0
VERTEX
  8
0
  5
1A92B
 10
-384.696
 20
840.626
 30
0.000000
  70
    32
  0
VERTEX
  8
0
  5
1A92C
 10
-384.695
 20
840.625
 30
0.000000
  70
    32
  0
VERTEX
  8
0
  5
1A92D
 10
-384.695
 20
840.625
 30
0.000000
  70
    32
  0
VERTEX
  8
0
  5
1A92E
 10
-384.695
 20
840.624
 30
0.000000
  70
    32
  0
VERTEX
  8
0
  5
1A92F
 10
-384.695
 20
840.623
 30
0.000000
  70
    32
  0
VERTEX
  8
0
  5
1A930
 10
-384.694
 20
840.622
 30
0.000000
  70
    32
  0
VERTEX
  8
0
  5
1A931
 10
-384.694
 20
840.621
 30
0.000000
  70
    32
  0
VERTEX
  8
0
  5
1A932
 10
-384.694
 20
840.620
 30
0.000000
  70
    32
  0
VERTEX
  8
0
  5
1A933
 10
-384.693
 20
840.619
 30
0.000000
  70
    32
  0
VERTEX
  8
0
  5
1A934
 10
-384.693
 20
840.618
 30
0.000000
  70
    32
  0
VERTEX
  8
0
  5
1A935
 10
-384.692
 20
840.618
 30
0.000000
  70
    32
  0
VERTEX
  8
0
  5
1A936
 10
-384.692
 20
840.617
 30
0.000000
  70
    32
  0
VERTEX
  8
0
  5
1A937
 10
-384.692
 20
840.616
 30
0.000000
  70
    32
  0
VERTEX
  8
0
  5
1A938
 10
-384.691
 20
840.615
 30
0.000000
  70
    32
  0
VERTEX
  8
0
  5
1A939
 10
-384.691
 20
840.614
 30
0.000000
  70
    32
  0
VERTEX
  8
0
  5
1A93A
 10
-384.690
 20
840.614
 30
0.000000
  70
    32
  0
VERTEX
  8
0
  5
1A93B
 10
-384.690
 20
840.613
 30
0.000000
  70
    32
  0
VERTEX
  8
0
  5
1A93C
 10
-384.689
 20
840.612
 30
0.000000
  70
    32
  0
VERTEX
  8
0
  5
1A93D
 10
-384.688
 20
840.611
 30
0.000000
  70
    32
  0
VERTEX
  8
0
  5
1A93E
 10
-384.688
 20
840.611
 30
0.000000
  70
    32
  0
VERTEX
  8
0
  5
1A93F
 10
-384.687
 20
840.610
 30
0.000000
  70
    32
  0
VERTEX
  8
0
  5
1A940
 10
-384.686
 20
840.609
 30
0.000000
  70
    32
  0
VERTEX
  8
0
  5
1A941
 10
-384.686
 20
840.609
 30
0.000000
  70
    32
  0
VERTEX
  8
0
  5
1A942
 10
-384.685
 20
840.608
 30
0.000000
  70
    32
  0
VERTEX
  8
0
  5
1A943
 10
-384.684
 20
840.607
 30
0.000000
  70
    32
  0
VERTEX
  8
0
  5
1A944
 10
-384.684
 20
840.607
 30
0.000000
  70
    32
  0
VERTEX
  8
0
  5
1A945
 10
-384.683
 20
840.606
 30
0.000000
  70
    32
  0
VERTEX
  8
0
  5
1A946
 10
-384.682
 20
840.605
 30
0.000000
  70
    32
  0
VERTEX
  8
0
  5
1A947
 10
-384.682
 20
840.605
 30
0.000000
  70
    32
  0
VERTEX
  8
0
  5
1A948
 10
-384.681
 20
840.604
 30
0.000000
  70
    32
  0
VERTEX
  8
0
  5
1A949
 10
-384.680
 20
840.604
 30
0.000000
  70
    32
  0
VERTEX
  8
0
  5
1A94A
 10
-384.679
 20
840.603
 30
0.000000
  70
    32
  0
VERTEX
  8
0
  5
1A94B
 10
-384.678
 20
840.602
 30
0.000000
  70
    32
  0
VERTEX
  8
0
  5
1A94C
 10
-384.678
 20
840.602
 30
0.000000
  70
    32
  0
VERTEX
  8
0
  5
1A94D
 10
-384.677
 20
840.601
 30
0.000000
  70
    32
  0
VERTEX
  8
0
  5
1A94E
 10
-384.676
 20
840.601
 30
0.000000
  70
    32
  0
VERTEX
  8
0
  5
1A94F
 10
-384.675
 20
840.600
 30
0.000000
  70
    32
  0
VERTEX
  8
0
  5
1A950
 10
-384.674
 20
840.600
 30
0.000000
  70
    32
  0
VERTEX
  8
0
  5
1A951
 10
-384.674
 20
840.599
 30
0.000000
  70
    32
  0
VERTEX
  8
0
  5
1A952
 10
-384.673
 20
840.599
 30
0.000000
  70
    32
  0
VERTEX
  8
0
  5
1A953
 10
-384.672
 20
840.598
 30
0.000000
  70
    32
  0
VERTEX
  8
0
  5
1A954
 10
-384.671
 20
840.598
 30
0.000000
  70
    32
  0
VERTEX
  8
0
  5
1A955
 10
-384.670
 20
840.597
 30
0.000000
  70
    32
  0
VERTEX
  8
0
  5
1A956
 10
-384.669
 20
840.597
 30
0.000000
  70
    32
  0
VERTEX
  8
0
  5
1A957
 10
-384.668
 20
840.596
 30
0.000000
  70
    32
  0
VERTEX
  8
0
  5
1A958
 10
-384.668
 20
840.596
 30
0.000000
  70
    32
  0
VERTEX
  8
0
  5
1A959
 10
-384.667
 20
840.595
 30
0.000000
  70
    32
  0
VERTEX
  8
0
  5
1A95A
 10
-384.666
 20
840.595
 30
0.000000
  70
    32
  0
VERTEX
  8
0
  5
1A95B
 10
-384.665
 20
840.594
 30
0.000000
  70
    32
  0
VERTEX
  8
0
  5
1A95C
 10
-384.664
 20
840.594
 30
0.000000
  70
    32
  0
VERTEX
  8
0
  5
1A95D
 10
-384.663
 20
840.593
 30
0.000000
  70
    32
  0
VERTEX
  8
0
  5
1A95E
 10
-384.662
 20
840.593
 30
0.000000
  70
    32
  0
VERTEX
  8
0
  5
1A95F
 10
-384.662
 20
840.592
 30
0.000000
  70
    32
  0
VERTEX
  8
0
  5
1A960
 10
-384.661
 20
840.592
 30
0.000000
  70
    32
  0
VERTEX
  8
0
  5
1A961
 10
-384.660
 20
840.592
 30
0.000000
  70
    32
  0
VERTEX
  8
0
  5
1A962
 10
-384.659
 20
840.591
 30
0.000000
  70
    32
  0
VERTEX
  8
0
  5
1A963
 10
-384.658
 20
840.591
 30
0.000000
  70
    32
  0
VERTEX
  8
0
  5
1A964
 10
-384.657
 20
840.590
 30
0.000000
  70
    32
  0
VERTEX
  8
0
  5
1A965
 10
-384.656
 20
840.590
 30
0.000000
  70
    32
  0
VERTEX
  8
0
  5
1A966
 10
-384.655
 20
840.590
 30
0.000000
  70
    32
  0
VERTEX
  8
0
  5
1A967
 10
-384.655
 20
840.589
 30
0.000000
  70
    32
  0
VERTEX
  8
0
  5
1A968
 10
-384.654
 20
840.589
 30
0.000000
  70
    32
  0
VERTEX
  8
0
  5
1A969
 10
-384.653
 20
840.588
 30
0.000000
  70
    32
  0
VERTEX
  8
0
  5
1A96A
 10
-384.652
 20
840.588
 30
0.000000
  70
    32
  0
VERTEX
  8
0
  5
1A96B
 10
-384.651
 20
840.588
 30
0.000000
  70
    32
  0
VERTEX
  8
0
  5
1A96C
 10
-384.650
 20
840.587
 30
0.000000
  70
    32
  0
VERTEX
  8
0
  5
1A96D
 10
-384.649
 20
840.587
 30
0.000000
  70
    32
  0
VERTEX
  8
0
  5
1A96E
 10
-384.649
 20
840.586
 30
0.000000
  70
    32
  0
VERTEX
  8
0
  5
1A96F
 10
-384.648
 20
840.586
 30
0.000000
  70
    32
  0
VERTEX
  8
0
  5
1A970
 10
-384.647
 20
840.586
 30
0.000000
  70
    32
  0
VERTEX
  8
0
  5
1A971
 10
-384.646
 20
840.585
 30
0.000000
  70
    32
  0
VERTEX
  8
0
  5
1A972
 10
-384.645
 20
840.585
 30
0.000000
  70
    32
  0
VERTEX
  8
0
  5
1A973
 10
-384.644
 20
840.584
 30
0.000000
  70
    32
  0
VERTEX
  8
0
  5
1A974
 10
-384.643
 20
840.584
 30
0.000000
  70
    32
  0
VERTEX
  8
0
  5
1A975
 10
-384.643
 20
840.584
 30
0.000000
  70
    32
  0
VERTEX
  8
0
  5
1A976
 10
-384.642
 20
840.583
 30
0.000000
  70
    32
  0
VERTEX
  8
0
  5
1A977
 10
-384.641
 20
840.583
 30
0.000000
  70
    32
  0
VERTEX
  8
0
  5
1A978
 10
-384.640
 20
840.582
 30
0.000000
  70
    32
  0
VERTEX
  8
0
  5
1A979
 10
-384.639
 20
840.582
 30
0.000000
  70
    32
  0
VERTEX
  8
0
  5
1A97A
 10
-384.638
 20
840.581
 30
0.000000
  70
    32
  0
VERTEX
  8
0
  5
1A97B
 10
-384.638
 20
840.581
 30
0.000000
  70
    32
  0
VERTEX
  8
0
  5
1A97C
 10
-384.637
 20
840.581
 30
0.000000
  70
    32
  0
VERTEX
  8
0
  5
1A97D
 10
-384.636
 20
840.580
 30
0.000000
  70
    32
  0
VERTEX
  8
0
  5
1A97E
 10
-384.635
 20
840.580
 30
0.000000
  70
    32
  0
VERTEX
  8
0
  5
1A97F
 10
-384.634
 20
840.579
 30
0.000000
  70
    32
  0
VERTEX
  8
0
  5
1A980
 10
-384.633
 20
840.579
 30
0.000000
  70
    32
  0
VERTEX
  8
0
  5
1A981
 10
-384.633
 20
840.578
 30
0.000000
  70
    32
  0
VERTEX
  8
0
  5
1A982
 10
-384.632
 20
840.578
 30
0.000000
  70
    32
  0
VERTEX
  8
0
  5
1A983
 10
-384.631
 20
840.577
 30
0.000000
  70
    32
  0
VERTEX
  8
0
  5
1A984
 10
-384.630
 20
840.577
 30
0.000000
  70
    32
  0
VERTEX
  8
0
  5
1A985
 10
-384.629
 20
840.577
 30
0.000000
  70
    32
  0
VERTEX
  8
0
  5
1A986
 10
-384.629
 20
840.576
 30
0.000000
  70
    32
  0
VERTEX
  8
0
  5
1A987
 10
-384.628
 20
840.576
 30
0.000000
  70
    32
  0
VERTEX
  8
0
  5
1A988
 10
-384.627
 20
840.575
 30
0.000000
  70
    32
  0
VERTEX
  8
0
  5
1A989
 10
-384.626
 20
840.575
 30
0.000000
  70
    32
  0
VERTEX
  8
0
  5
1A98A
 10
-384.625
 20
840.574
 30
0.000000
  70
    32
  0
VERTEX
  8
0
  5
1A98B
 10
-384.625
 20
840.574
 30
0.000000
  70
    32
  0
VERTEX
  8
0
  5
1A98C
 10
-384.624
 20
840.573
 30
0.000000
  70
    32
  0
VERTEX
  8
0
  5
1A98D
 10
-384.623
 20
840.573
 30
0.000000
  70
    32
  0
VERTEX
  8
0
  5
1A98E
 10
-384.622
 20
840.572
 30
0.000000
  70
    32
  0
VERTEX
  8
0
  5
1A98F
 10
-384.622
 20
840.571
 30
0.000000
  70
    32
  0
VERTEX
  8
0
  5
1A990
 10
-384.621
 20
840.571
 30
0.000000
  70
    32
  0
VERTEX
  8
0
  5
1A991
 10
-384.620
 20
840.570
 30
0.000000
  70
    32
  0
VERTEX
  8
0
  5
1A992
 10
-384.619
 20
840.570
 30
0.000000
  70
    32
  0
VERTEX
  8
0
  5
1A993
 10
-384.618
 20
840.569
 30
0.000000
  70
    32
  0
VERTEX
  8
0
  5
1A994
 10
-384.618
 20
840.569
 30
0.000000
  70
    32
  0
VERTEX
  8
0
  5
1A995
 10
-384.617
 20
840.568
 30
0.000000
  70
    32
  0
VERTEX
  8
0
  5
1A996
 10
-384.616
 20
840.568
 30
0.000000
  70
    32
  0
VERTEX
  8
0
  5
1A997
 10
-384.615
 20
840.567
 30
0.000000
  70
    32
  0
VERTEX
  8
0
  5
1A998
 10
-384.615
 20
840.566
 30
0.000000
  70
    32
  0
VERTEX
  8
0
  5
1A999
 10
-384.614
 20
840.566
 30
0.000000
  70
    32
  0
VERTEX
  8
0
  5
1A99A
 10
-384.613
 20
840.565
 30
0.000000
  70
    32
  0
VERTEX
  8
0
  5
1A99B
 10
-384.612
 20
840.565
 30
0.000000
  70
    32
  0
VERTEX
  8
0
  5
1A99C
 10
-384.612
 20
840.564
 30
0.000000
  70
    32
  0
VERTEX
  8
0
  5
1A99D
 10
-384.611
 20
840.564
 30
0.000000
  70
    32
  0
VERTEX
  8
0
  5
1A99E
 10
-384.610
 20
840.563
 30
0.000000
  70
    32
  0
VERTEX
  8
0
  5
1A99F
 10
-384.609
 20
840.562
 30
0.000000
  70
    32
  0
VERTEX
  8
0
  5
1A9A0
 10
-384.609
 20
840.562
 30
0.000000
  70
    32
  0
VERTEX
  8
0
  5
1A9A1
 10
-384.608
 20
840.561
 30
0.000000
  70
    32
  0
VERTEX
  8
0
  5
1A9A2
 10
-384.607
 20
840.561
 30
0.000000
  70
    32
  0
VERTEX
  8
0
  5
1A9A3
 10
-384.606
 20
840.560
 30
0.000000
  70
    32
  0
VERTEX
  8
0
  5
1A9A4
 10
-384.606
 20
840.559
 30
0.000000
  70
    32
  0
VERTEX
  8
0
  5
1A9A5
 10
-384.605
 20
840.559
 30
0.000000
  70
    32
  0
VERTEX
  8
0
  5
1A9A6
 10
-384.604
 20
840.558
 30
0.000000
  70
    32
  0
VERTEX
  8
0
  5
1A9A7
 10
-384.603
 20
840.558
 30
0.000000
  70
    32
  0
VERTEX
  8
0
  5
1A9A8
 10
-384.603
 20
840.557
 30
0.000000
  70
    32
  0
VERTEX
  8
0
  5
1A9A9
 10
-384.602
 20
840.556
 30
0.000000
  70
    32
  0
VERTEX
  8
0
  5
1A9AA
 10
-384.601
 20
840.556
 30
0.000000
  70
    32
  0
VERTEX
  8
0
  5
1A9AB
 10
-384.600
 20
840.555
 30
0.000000
  70
    32
  0
VERTEX
  8
0
  5
1A9AC
 10
-384.600
 20
840.555
 30
0.000000
  70
    32
  0
VERTEX
  8
0
  5
1A9AD
 10
-384.599
 20
840.554
 30
0.000000
  70
    32
  0
VERTEX
  8
0
  5
1A9AE
 10
-384.598
 20
840.553
 30
0.000000
  70
    32
  0
VERTEX
  8
0
  5
1A9AF
 10
-384.597
 20
840.553
 30
0.000000
  70
    32
  0
VERTEX
  8
0
  5
1A9B0
 10
-384.597
 20
840.552
 30
0.000000
  70
    32
  0
VERTEX
  8
0
  5
1A9B1
 10
-384.596
 20
840.552
 30
0.000000
  70
    32
  0
VERTEX
  8
0
  5
1A9B2
 10
-384.595
 20
840.551
 30
0.000000
  70
    32
  0
VERTEX
  8
0
  5
1A9B3
 10
-384.594
 20
840.550
 30
0.000000
  70
    32
  0
VERTEX
  8
0
  5
1A9B4
 10
-384.594
 20
840.550
 30
0.000000
  70
    32
  0
VERTEX
  8
0
  5
1A9B5
 10
-384.593
 20
840.549
 30
0.000000
  70
    32
  0
VERTEX
  8
0
  5
1A9B6
 10
-384.592
 20
840.549
 30
0.000000
  70
    32
  0
VERTEX
  8
0
  5
1A9B7
 10
-384.592
 20
840.548
 30
0.000000
  70
    32
  0
VERTEX
  8
0
  5
1A9B8
 10
-384.591
 20
840.547
 30
0.000000
  70
    32
  0
VERTEX
  8
0
  5
1A9B9
 10
-384.590
 20
840.547
 30
0.000000
  70
    32
  0
VERTEX
  8
0
  5
1A9BA
 10
-384.589
 20
840.546
 30
0.000000
  70
    32
  0
VERTEX
  8
0
  5
1A9BB
 10
-384.589
 20
840.546
 30
0.000000
  70
    32
  0
VERTEX
  8
0
  5
1A9BC
 10
-384.588
 20
840.545
 30
0.000000
  70
    32
  0
VERTEX
  8
0
  5
1A9BD
 10
-384.587
 20
840.544
 30
0.000000
  70
    32
  0
VERTEX
  8
0
  5
1A9BE
 10
-384.586
 20
840.544
 30
0.000000
  70
    32
  0
VERTEX
  8
0
  5
1A9BF
 10
-384.586
 20
840.543
 30
0.000000
  70
    32
  0
VERTEX
  8
0
  5
1A9C0
 10
-384.585
 20
840.542
 30
0.000000
  70
    32
  0
VERTEX
  8
0
  5
1A9C1
 10
-384.584
 20
840.542
 30
0.000000
  70
    32
  0
VERTEX
  8
0
  5
1A9C2
 10
-384.584
 20
840.541
 30
0.000000
  70
    32
  0
VERTEX
  8
0
  5
1A9C3
 10
-384.583
 20
840.541
 30
0.000000
  70
    32
  0
VERTEX
  8
0
  5
1A9C4
 10
-384.582
 20
840.540
 30
0.000000
  70
    32
  0
VERTEX
  8
0
  5
1A9C5
 10
-384.581
 20
840.539
 30
0.000000
  70
    32
  0
VERTEX
  8
0
  5
1A9C6
 10
-384.581
 20
840.539
 30
0.000000
  70
    32
  0
VERTEX
  8
0
  5
1A9C7
 10
-384.580
 20
840.538
 30
0.000000
  70
    32
  0
VERTEX
  8
0
  5
1A9C8
 10
-384.579
 20
840.537
 30
0.000000
  70
    32
  0
VERTEX
  8
0
  5
1A9C9
 10
-384.579
 20
840.537
 30
0.000000
  70
    32
  0
VERTEX
  8
0
  5
1A9CA
 10
-384.578
 20
840.536
 30
0.000000
  70
    32
  0
VERTEX
  8
0
  5
1A9CB
 10
-384.577
 20
840.535
 30
0.000000
  70
    32
  0
VERTEX
  8
0
  5
1A9CC
 10
-384.577
 20
840.535
 30
0.000000
  70
    32
  0
VERTEX
  8
0
  5
1A9CD
 10
-384.576
 20
840.534
 30
0.000000
  70
    32
  0
VERTEX
  8
0
  5
1A9CE
 10
-384.575
 20
840.533
 30
0.000000
  70
    32
  0
VERTEX
  8
0
  5
1A9CF
 10
-384.575
 20
840.533
 30
0.000000
  70
    32
  0
VERTEX
  8
0
  5
1A9D0
 10
-384.574
 20
840.532
 30
0.000000
  70
    32
  0
VERTEX
  8
0
  5
1A9D1
 10
-384.573
 20
840.531
 30
0.000000
  70
    32
  0
VERTEX
  8
0
  5
1A9D2
 10
-384.573
 20
840.531
 30
0.000000
  70
    32
  0
VERTEX
  8
0
  5
1A9D3
 10
-384.572
 20
840.530
 30
0.000000
  70
    32
  0
VERTEX
  8
0
  5
1A9D4
 10
-384.572
 20
840.529
 30
0.000000
  70
    32
  0
VERTEX
  8
0
  5
1A9D5
 10
-384.571
 20
840.528
 30
0.000000
  70
    32
  0
VERTEX
  8
0
  5
1A9D6
 10
-384.570
 20
840.528
 30
0.000000
  70
    32
  0
VERTEX
  8
0
  5
1A9D7
 10
-384.570
 20
840.527
 30
0.000000
  70
    32
  0
VERTEX
  8
0
  5
1A9D8
 10
-384.569
 20
840.526
 30
0.000000
  70
    32
  0
VERTEX
  8
0
  5
1A9D9
 10
-384.569
 20
840.525
 30
0.000000
  70
    32
  0
VERTEX
  8
0
  5
1A9DA
 10
-384.568
 20
840.525
 30
0.000000
  70
    32
  0
VERTEX
  8
0
  5
1A9DB
 10
-384.567
 20
840.524
 30
0.000000
  70
    32
  0
VERTEX
  8
0
  5
1A9DC
 10
-384.567
 20
840.523
 30
0.000000
  70
    32
  0
VERTEX
  8
0
  5
1A9DD
 10
-384.566
 20
840.522
 30
0.000000
  70
    32
  0
VERTEX
  8
0
  5
1A9DE
 10
-384.566
 20
840.522
 30
0.000000
  70
    32
  0
VERTEX
  8
0
  5
1A9DF
 10
-384.565
 20
840.521
 30
0.000000
  70
    32
  0
VERTEX
  8
0
  5
1A9E0
 10
-384.565
 20
840.520
 30
0.000000
  70
    32
  0
VERTEX
  8
0
  5
1A9E1
 10
-384.564
 20
840.519
 30
0.000000
  70
    32
  0
VERTEX
  8
0
  5
1A9E2
 10
-384.564
 20
840.518
 30
0.000000
  70
    32
  0
VERTEX
  8
0
  5
1A9E3
 10
-384.563
 20
840.518
 30
0.000000
  70
    32
  0
VERTEX
  8
0
  5
1A9E4
 10
-384.562
 20
840.517
 30
0.000000
  70
    32
  0
VERTEX
  8
0
  5
1A9E5
 10
-384.562
 20
840.516
 30
0.000000
  70
    32
  0
VERTEX
  8
0
  5
1A9E6
 10
-384.562
 20
840.515
 30
0.000000
  70
    32
  0
VERTEX
  8
0
  5
1A9E7
 10
-384.561
 20
840.514
 30
0.000000
  70
    32
  0
VERTEX
  8
0
  5
1A9E8
 10
-384.561
 20
840.514
 30
0.000000
  70
    32
  0
VERTEX
  8
0
  5
1A9E9
 10
-384.560
 20
840.513
 30
0.000000
  70
    32
  0
VERTEX
  8
0
  5
1A9EA
 10
-384.560
 20
840.512
 30
0.000000
  70
    32
  0
VERTEX
  8
0
  5
1A9EB
 10
-384.559
 20
840.511
 30
0.000000
  70
    32
  0
VERTEX
  8
0
  5
1A9EC
 10
-384.559
 20
840.510
 30
0.000000
  70
    32
  0
VERTEX
  8
0
  5
1A9ED
 10
-384.558
 20
840.509
 30
0.000000
  70
    32
  0
VERTEX
  8
0
  5
1A9EE
 10
-384.558
 20
840.509
 30
0.000000
  70
    32
  0
VERTEX
  8
0
  5
1A9EF
 10
-384.557
 20
840.508
 30
0.000000
  70
    32
  0
VERTEX
  8
0
  5
1A9F0
 10
-384.557
 20
840.507
 30
0.000000
  70
    32
  0
VERTEX
  8
0
  5
1A9F1
 10
-384.557
 20
840.506
 30
0.000000
  70
    32
  0
VERTEX
  8
0
  5
1A9F2
 10
-384.556
 20
840.505
 30
0.000000
  70
    32
  0
VERTEX
  8
0
  5
1A9F3
 10
-384.556
 20
840.504
 30
0.000000
  70
    32
  0
VERTEX
  8
0
  5
1A9F4
 10
-384.555
 20
840.503
 30
0.000000
  70
    32
  0
VERTEX
  8
0
  5
1A9F5
 10
-384.555
 20
840.502
 30
0.000000
  70
    32
  0
VERTEX
  8
0
  5
1A9F6
 10
-384.555
 20
840.502
 30
0.000000
  70
    32
  0
VERTEX
  8
0
  5
1A9F7
 10
-384.554
 20
840.501
 30
0.000000
  70
    32
  0
VERTEX
  8
0
  5
1A9F8
 10
-384.554
 20
840.500
 30
0.000000
  70
    32
  0
VERTEX
  8
0
  5
1A9F9
 10
-384.554
 20
840.499
 30
0.000000
  70
    32
  0
VERTEX
  8
0
  5
1A9FA
 10
-384.553
 20
840.498
 30
0.000000
  70
    32
  0
VERTEX
  8
0
  5
1A9FB
 10
-384.553
 20
840.497
 30
0.000000
  70
    32
  0
VERTEX
  8
0
  5
1A9FC
 10
-384.553
 20
840.496
 30
0.000000
  70
    32
  0
VERTEX
  8
0
  5
1A9FD
 10
-384.553
 20
840.495
 30
0.000000
  70
    32
  0
VERTEX
  8
0
  5
1A9FE
 10
-384.552
 20
840.494
 30
0.000000
  70
    32
  0
VERTEX
  8
0
  5
1A9FF
 10
-384.552
 20
840.493
 30
0.000000
  70
    32
  0
VERTEX
  8
0
  5
1AA00
 10
-384.552
 20
840.493
 30
0.000000
  70
    32
  0
VERTEX
  8
0
  5
1AA01
 10
-384.552
 20
840.492
 30
0.000000
  70
    32
  0
VERTEX
  8
0
  5
1AA02
 10
-384.551
 20
840.491
 30
0.000000
  70
    32
  0
VERTEX
  8
0
  5
1AA03
 10
-384.551
 20
840.490
 30
0.000000
  70
    32
  0
VERTEX
  8
0
  5
1AA04
 10
-384.551
 20
840.489
 30
0.000000
  70
    32
  0
VERTEX
  8
0
  5
1AA05
 10
-384.551
 20
840.488
 30
0.000000
  70
    32
  0
VERTEX
  8
0
  5
1AA06
 10
-384.551
 20
840.487
 30
0.000000
  70
    32
  0
VERTEX
  8
0
  5
1AA07
 10
-384.550
 20
840.486
 30
0.000000
  70
    32
  0
VERTEX
  8
0
  5
1AA08
 10
-384.550
 20
840.485
 30
0.000000
  70
    32
  0
VERTEX
  8
0
  5
1AA09
 10
-384.550
 20
840.484
 30
0.000000
  70
    32
  0
VERTEX
  8
0
  5
1AA0A
 10
-384.550
 20
840.483
 30
0.000000
  70
    32
  0
VERTEX
  8
0
  5
1AA0B
 10
-384.550
 20
840.482
 30
0.000000
  70
    32
  0
VERTEX
  8
0
  5
1AA0C
 10
-384.550
 20
840.481
 30
0.000000
  70
    32
  0
VERTEX
  8
0
  5
1AA0D
 10
-384.549
 20
840.481
 30
0.000000
  70
    32
  0
VERTEX
  8
0
  5
1AA0E
 10
-384.549
 20
840.480
 30
0.000000
  70
    32
  0
VERTEX
  8
0
  5
1AA0F
 10
-384.549
 20
840.479
 30
0.000000
  70
    32
  0
VERTEX
  8
0
  5
1AA10
 10
-384.549
 20
840.478
 30
0.000000
  70
    32
  0
VERTEX
  8
0
  5
1AA11
 10
-384.549
 20
840.477
 30
0.000000
  70
    32
  0
VERTEX
  8
0
  5
1AA12
 10
-384.549
 20
840.476
 30
0.000000
  70
    32
  0
VERTEX
  8
0
  5
1AA13
 10
-384.549
 20
840.475
 30
0.000000
  70
    32
  0
VERTEX
  8
0
  5
1AA14
 10
-384.549
 20
840.474
 30
0.000000
  70
    32
  0
VERTEX
  8
0
  5
1AA15
 10
-384.549
 20
840.473
 30
0.000000
  70
    32
  0
VERTEX
  8
0
  5
1AA16
 10
-384.548
 20
840.472
 30
0.000000
  70
    32
  0
VERTEX
  8
0
  5
1AA17
 10
-384.548
 20
840.471
 30
0.000000
  70
    32
  0
VERTEX
  8
0
  5
1AA18
 10
-384.548
 20
840.470
 30
0.000000
  70
    32
  0
VERTEX
  8
0
  5
1AA19
 10
-384.548
 20
840.469
 30
0.000000
  70
    32
  0
VERTEX
  8
0
  5
1AA1A
 10
-384.548
 20
840.468
 30
0.000000
  70
    32
  0
VERTEX
  8
0
  5
1AA1B
 10
-384.548
 20
840.467
 30
0.000000
  70
    32
  0
VERTEX
  8
0
  5
1AA1C
 10
-384.548
 20
840.466
 30
0.000000
  70
    32
  0
VERTEX
  8
0
  5
1AA1D
 10
-384.548
 20
840.465
 30
0.000000
  70
    32
  0
VERTEX
  8
0
  5
1AA1E
 10
-384.548
 20
840.464
 30
0.000000
  70
    32
  0
VERTEX
  8
0
  5
1AA1F
 10
-384.548
 20
840.463
 30
0.000000
  70
    32
  0
VERTEX
  8
0
  5
1AA20
 10
-384.548
 20
840.463
 30
0.000000
  70
    32
  0
VERTEX
  8
0
  5
1AA21
 10
-384.548
 20
840.462
 30
0.000000
  70
    32
  0
VERTEX
  8
0
  5
1AA22
 10
-384.548
 20
840.461
 30
0.000000
  70
    32
  0
VERTEX
  8
0
  5
1AA23
 10
-384.548
 20
840.460
 30
0.000000
  70
    32
  0
VERTEX
  8
0
  5
1AA24
 10
-384.548
 20
840.459
 30
0.000000
  70
    32
  0
VERTEX
  8
0
  5
1AA25
 10
-384.548
 20
840.458
 30
0.000000
  70
    32
  0
VERTEX
  8
0
  5
1AA26
 10
-384.548
 20
840.457
 30
0.000000
  70
    32
  0
VERTEX
  8
0
  5
1AA27
 10
-384.548
 20
840.456
 30
0.000000
  70
    32
  0
VERTEX
  8
0
  5
1AA28
 10
-384.548
 20
840.455
 30
0.000000
  70
    32
  0
VERTEX
  8
0
  5
1AA29
 10
-384.548
 20
840.454
 30
0.000000
  70
    32
  0
VERTEX
  8
0
  5
1AA2A
 10
-384.548
 20
840.453
 30
0.000000
  70
    32
  0
VERTEX
  8
0
  5
1AA2B
 10
-384.548
 20
840.452
 30
0.000000
  70
    32
  0
VERTEX
  8
0
  5
1AA2C
 10
-384.548
 20
840.451
 30
0.000000
  70
    32
  0
VERTEX
  8
0
  5
1AA2D
 10
-384.548
 20
840.450
 30
0.000000
  70
    32
  0
VERTEX
  8
0
  5
1AA2E
 10
-384.548
 20
840.449
 30
0.000000
  70
    32
  0
VERTEX
  8
0
  5
1AA2F
 10
-384.548
 20
840.448
 30
0.000000
  70
    32
  0
VERTEX
  8
0
  5
1AA30
 10
-384.548
 20
840.447
 30
0.000000
  70
    32
  0
VERTEX
  8
0
  5
1AA31
 10
-384.548
 20
840.446
 30
0.000000
  70
    32
  0
VERTEX
  8
0
  5
1AA32
 10
-384.548
 20
840.445
 30
0.000000
  70
    32
  0
VERTEX
  8
0
  5
1AA33
 10
-384.548
 20
840.444
 30
0.000000
  70
    32
  0
VERTEX
  8
0
  5
1AA34
 10
-384.548
 20
840.443
 30
0.000000
  70
    32
  0
VERTEX
  8
0
  5
1AA35
 10
-384.548
 20
840.442
 30
0.000000
  70
    32
  0
SEQEND
  8
0
  5
1AA36
  0
POLYLINE
  8
0
  5
1AA37
  66
     1
 10
0.000000
 20
0.000000
 30
0.000000
  70
     8
  0
VERTEX
  8
0
  5
1AA38
 10
-387.170
 20
840.733
 30
0.000000
  70
    32
  0
VERTEX
  8
0
  5
1AA39
 10
-387.169
 20
840.732
 30
0.000000
  70
    32
  0
VERTEX
  8
0
  5
1AA3A
 10
-387.168
 20
840.732
 30
0.000000
  70
    32
  0
VERTEX
  8
0
  5
1AA3B
 10
-387.168
 20
840.732
 30
0.000000
  70
    32
  0
VERTEX
  8
0
  5
1AA3C
 10
-387.167
 20
840.732
 30
0.000000
  70
    32
  0
VERTEX
  8
0
  5
1AA3D
 10
-387.166
 20
840.731
 30
0.000000
  70
    32
  0
VERTEX
  8
0
  5
1AA3E
 10
-387.165
 20
840.731
 30
0.000000
  70
    32
  0
VERTEX
  8
0
  5
1AA3F
 10
-387.164
 20
840.731
 30
0.000000
  70
    32
  0
VERTEX
  8
0
  5
1AA40
 10
-387.163
 20
840.731
 30
0.000000
  70
    32
  0
VERTEX
  8
0
  5
1AA41
 10
-387.162
 20
840.731
 30
0.000000
  70
    32
  0
VERTEX
  8
0
  5
1AA42
 10
-387.161
 20
840.730
 30
0.000000
  70
    32
  0
VERTEX
  8
0
  5
1AA43
 10
-387.160
 20
840.730
 30
0.000000
  70
    32
  0
VERTEX
  8
0
  5
1AA44
 10
-387.159
 20
840.730
 30
0.000000
  70
    32
  0
VERTEX
  8
0
  5
1AA45
 10
-387.158
 20
840.730
 30
0.000000
  70
    32
  0
VERTEX
  8
0
  5
1AA46
 10
-387.157
 20
840.730
 30
0.000000
  70
    32
  0
VERTEX
  8
0
  5
1AA47
 10
-387.156
 20
840.729
 30
0.000000
  70
    32
  0
VERTEX
  8
0
  5
1AA48
 10
-387.156
 20
840.729
 30
0.000000
  70
    32
  0
VERTEX
  8
0
  5
1AA49
 10
-387.155
 20
840.729
 30
0.000000
  70
    32
  0
VERTEX
  8
0
  5
1AA4A
 10
-387.154
 20
840.729
 30
0.000000
  70
    32
  0
VERTEX
  8
0
  5
1AA4B
 10
-387.153
 20
840.729
 30
0.000000
  70
    32
  0
VERTEX
  8
0
  5
1AA4C
 10
-387.152
 20
840.729
 30
0.000000
  70
    32
  0
VERTEX
  8
0
  5
1AA4D
 10
-387.151
 20
840.728
 30
0.000000
  70
    32
  0
VERTEX
  8
0
  5
1AA4E
 10
-387.150
 20
840.728
 30
0.000000
  70
    32
  0
VERTEX
  8
0
  5
1AA4F
 10
-387.149
 20
840.728
 30
0.000000
  70
    32
  0
VERTEX
  8
0
  5
1AA50
 10
-387.148
 20
840.728
 30
0.000000
  70
    32
  0
VERTEX
  8
0
  5
1AA51
 10
-387.147
 20
840.728
 30
0.000000
  70
    32
  0
VERTEX
  8
0
  5
1AA52
 10
-387.146
 20
840.728
 30
0.000000
  70
    32
  0
VERTEX
  8
0
  5
1AA53
 10
-387.145
 20
840.728
 30
0.000000
  70
    32
  0
VERTEX
  8
0
  5
1AA54
 10
-387.144
 20
840.727
 30
0.000000
  70
    32
  0
VERTEX
  8
0
  5
1AA55
 10
-387.143
 20
840.727
 30
0.000000
  70
    32
  0
VERTEX
  8
0
  5
1AA56
 10
-387.142
 20
840.727
 30
0.000000
  70
    32
  0
VERTEX
  8
0
  5
1AA57
 10
-387.141
 20
840.727
 30
0.000000
  70
    32
  0
VERTEX
  8
0
  5
1AA58
 10
-387.141
 20
840.727
 30
0.000000
  70
    32
  0
VERTEX
  8
0
  5
1AA59
 10
-387.140
 20
840.727
 30
0.000000
  70
    32
  0
VERTEX
  8
0
  5
1AA5A
 10
-387.139
 20
840.726
 30
0.000000
  70
    32
  0
VERTEX
  8
0
  5
1AA5B
 10
-387.138
 20
840.726
 30
0.000000
  70
    32
  0
VERTEX
  8
0
  5
1AA5C
 10
-387.137
 20
840.726
 30
0.000000
  70
    32
  0
VERTEX
  8
0
  5
1AA5D
 10
-387.136
 20
840.726
 30
0.000000
  70
    32
  0
VERTEX
  8
0
  5
1AA5E
 10
-387.135
 20
840.726
 30
0.000000
  70
    32
  0
VERTEX
  8
0
  5
1AA5F
 10
-387.134
 20
840.726
 30
0.000000
  70
    32
  0
VERTEX
  8
0
  5
1AA60
 10
-387.133
 20
840.725
 30
0.000000
  70
    32
  0
VERTEX
  8
0
  5
1AA61
 10
-387.132
 20
840.725
 30
0.000000
  70
    32
  0
VERTEX
  8
0
  5
1AA62
 10
-387.131
 20
840.725
 30
0.000000
  70
    32
  0
VERTEX
  8
0
  5
1AA63
 10
-387.130
 20
840.725
 30
0.000000
  70
    32
  0
VERTEX
  8
0
  5
1AA64
 10
-387.129
 20
840.725
 30
0.000000
  70
    32
  0
VERTEX
  8
0
  5
1AA65
 10
-387.128
 20
840.724
 30
0.000000
  70
    32
  0
VERTEX
  8
0
  5
1AA66
 10
-387.128
 20
840.724
 30
0.000000
  70
    32
  0
VERTEX
  8
0
  5
1AA67
 10
-387.127
 20
840.724
 30
0.000000
  70
    32
  0
VERTEX
  8
0
  5
1AA68
 10
-387.126
 20
840.724
 30
0.000000
  70
    32
  0
VERTEX
  8
0
  5
1AA69
 10
-387.125
 20
840.724
 30
0.000000
  70
    32
  0
VERTEX
  8
0
  5
1AA6A
 10
-387.124
 20
840.723
 30
0.000000
  70
    32
  0
VERTEX
  8
0
  5
1AA6B
 10
-387.123
 20
840.723
 30
0.000000
  70
    32
  0
VERTEX
  8
0
  5
1AA6C
 10
-387.122
 20
840.723
 30
0.000000
  70
    32
  0
VERTEX
  8
0
  5
1AA6D
 10
-387.121
 20
840.723
 30
0.000000
  70
    32
  0
VERTEX
  8
0
  5
1AA6E
 10
-387.120
 20
840.722
 30
0.000000
  70
    32
  0
VERTEX
  8
0
  5
1AA6F
 10
-387.119
 20
840.722
 30
0.000000
  70
    32
  0
VERTEX
  8
0
  5
1AA70
 10
-387.118
 20
840.722
 30
0.000000
  70
    32
  0
VERTEX
  8
0
  5
1AA71
 10
-387.117
 20
840.722
 30
0.000000
  70
    32
  0
VERTEX
  8
0
  5
1AA72
 10
-387.117
 20
840.721
 30
0.000000
  70
    32
  0
VERTEX
  8
0
  5
1AA73
 10
-387.116
 20
840.721
 30
0.000000
  70
    32
  0
VERTEX
  8
0
  5
1AA74
 10
-387.115
 20
840.721
 30
0.000000
  70
    32
  0
VERTEX
  8
0
  5
1AA75
 10
-387.114
 20
840.720
 30
0.000000
  70
    32
  0
VERTEX
  8
0
  5
1AA76
 10
-387.113
 20
840.720
 30
0.000000
  70
    32
  0
VERTEX
  8
0
  5
1AA77
 10
-387.112
 20
840.720
 30
0.000000
  70
    32
  0
VERTEX
  8
0
  5
1AA78
 10
-387.111
 20
840.720
 30
0.000000
  70
    32
  0
VERTEX
  8
0
  5
1AA79
 10
-387.110
 20
840.719
 30
0.000000
  70
    32
  0
VERTEX
  8
0
  5
1AA7A
 10
-387.109
 20
840.719
 30
0.000000
  70
    32
  0
VERTEX
  8
0
  5
1AA7B
 10
-387.108
 20
840.719
 30
0.000000
  70
    32
  0
VERTEX
  8
0
  5
1AA7C
 10
-387.108
 20
840.718
 30
0.000000
  70
    32
  0
VERTEX
  8
0
  5
1AA7D
 10
-387.107
 20
840.718
 30
0.000000
  70
    32
  0
VERTEX
  8
0
  5
1AA7E
 10
-387.106
 20
840.718
 30
0.000000
  70
    32
  0
VERTEX
  8
0
  5
1AA7F
 10
-387.105
 20
840.718
 30
0.000000
  70
    32
  0
VERTEX
  8
0
  5
1AA80
 10
-387.104
 20
840.717
 30
0.000000
  70
    32
  0
VERTEX
  8
0
  5
1AA81
 10
-387.103
 20
840.717
 30
0.000000
  70
    32
  0
VERTEX
  8
0
  5
1AA82
 10
-387.102
 20
840.717
 30
0.000000
  70
    32
  0
VERTEX
  8
0
  5
1AA83
 10
-387.101
 20
840.716
 30
0.000000
  70
    32
  0
VERTEX
  8
0
  5
1AA84
 10
-387.100
 20
840.716
 30
0.000000
  70
    32
  0
VERTEX
  8
0
  5
1AA85
 10
-387.099
 20
840.716
 30
0.000000
  70
    32
  0
VERTEX
  8
0
  5
1AA86
 10
-387.099
 20
840.715
 30
0.000000
  70
    32
  0
VERTEX
  8
0
  5
1AA87
 10
-387.098
 20
840.715
 30
0.000000
  70
    32
  0
VERTEX
  8
0
  5
1AA88
 10
-387.097
 20
840.715
 30
0.000000
  70
    32
  0
VERTEX
  8
0
  5
1AA89
 10
-387.096
 20
840.714
 30
0.000000
  70
    32
  0
VERTEX
  8
0
  5
1AA8A
 10
-387.095
 20
840.714
 30
0.000000
  70
    32
  0
VERTEX
  8
0
  5
1AA8B
 10
-387.094
 20
840.714
 30
0.000000
  70
    32
  0
VERTEX
  8
0
  5
1AA8C
 10
-387.093
 20
840.713
 30
0.000000
  70
    32
  0
VERTEX
  8
0
  5
1AA8D
 10
-387.092
 20
840.713
 30
0.000000
  70
    32
  0
VERTEX
  8
0
  5
1AA8E
 10
-387.091
 20
840.713
 30
0.000000
  70
    32
  0
VERTEX
  8
0
  5
1AA8F
 10
-387.091
 20
840.712
 30
0.000000
  70
    32
  0
VERTEX
  8
0
  5
1AA90
 10
-387.090
 20
840.712
 30
0.000000
  70
    32
  0
VERTEX
  8
0
  5
1AA91
 10
-387.089
 20
840.712
 30
0.000000
  70
    32
  0
VERTEX
  8
0
  5
1AA92
 10
-387.088
 20
840.711
 30
0.000000
  70
    32
  0
VERTEX
  8
0
  5
1AA93
 10
-387.087
 20
840.711
 30
0.000000
  70
    32
  0
VERTEX
  8
0
  5
1AA94
 10
-387.086
 20
840.711
 30
0.000000
  70
    32
  0
VERTEX
  8
0
  5
1AA95
 10
-387.085
 20
840.710
 30
0.000000
  70
    32
  0
VERTEX
  8
0
  5
1AA96
 10
-387.084
 20
840.710
 30
0.000000
  70
    32
  0
VERTEX
  8
0
  5
1AA97
 10
-387.083
 20
840.710
 30
0.000000
  70
    32
  0
VERTEX
  8
0
  5
1AA98
 10
-387.082
 20
840.709
 30
0.000000
  70
    32
  0
VERTEX
  8
0
  5
1AA99
 10
-387.082
 20
840.709
 30
0.000000
  70
    32
  0
VERTEX
  8
0
  5
1AA9A
 10
-387.081
 20
840.709
 30
0.000000
  70
    32
  0
VERTEX
  8
0
  5
1AA9B
 10
-387.080
 20
840.708
 30
0.000000
  70
    32
  0
VERTEX
  8
0
  5
1AA9C
 10
-387.079
 20
840.708
 30
0.000000
  70
    32
  0
VERTEX
  8
0
  5
1AA9D
 10
-387.078
 20
840.707
 30
0.000000
  70
    32
  0
VERTEX
  8
0
  5
1AA9E
 10
-387.077
 20
840.707
 30
0.000000
  70
    32
  0
VERTEX
  8
0
  5
1AA9F
 10
-387.076
 20
840.707
 30
0.000000
  70
    32
  0
VERTEX
  8
0
  5
1AAA0
 10
-387.075
 20
840.706
 30
0.000000
  70
    32
  0
VERTEX
  8
0
  5
1AAA1
 10
-387.075
 20
840.706
 30
0.000000
  70
    32
  0
VERTEX
  8
0
  5
1AAA2
 10
-387.074
 20
840.706
 30
0.000000
  70
    32
  0
VERTEX
  8
0
  5
1AAA3
 10
-387.073
 20
840.705
 30
0.000000
  70
    32
  0
VERTEX
  8
0
  5
1AAA4
 10
-387.072
 20
840.705
 30
0.000000
  70
    32
  0
VERTEX
  8
0
  5
1AAA5
 10
-387.071
 20
840.704
 30
0.000000
  70
    32
  0
VERTEX
  8
0
  5
1AAA6
 10
-387.070
 20
840.704
 30
0.000000
  70
    32
  0
VERTEX
  8
0
  5
1AAA7
 10
-387.069
 20
840.704
 30
0.000000
  70
    32
  0
VERTEX
  8
0
  5
1AAA8
 10
-387.068
 20
840.703
 30
0.000000
  70
    32
  0
VERTEX
  8
0
  5
1AAA9
 10
-387.068
 20
840.703
 30
0.000000
  70
    32
  0
VERTEX
  8
0
  5
1AAAA
 10
-387.067
 20
840.702
 30
0.000000
  70
    32
  0
VERTEX
  8
0
  5
1AAAB
 10
-387.066
 20
840.702
 30
0.000000
  70
    32
  0
VERTEX
  8
0
  5
1AAAC
 10
-387.065
 20
840.701
 30
0.000000
  70
    32
  0
VERTEX
  8
0
  5
1AAAD
 10
-387.064
 20
840.701
 30
0.000000
  70
    32
  0
VERTEX
  8
0
  5
1AAAE
 10
-387.063
 20
840.701
 30
0.000000
  70
    32
  0
VERTEX
  8
0
  5
1AAAF
 10
-387.062
 20
840.700
 30
0.000000
  70
    32
  0
VERTEX
  8
0
  5
1AAB0
 10
-387.062
 20
840.700
 30
0.000000
  70
    32
  0
VERTEX
  8
0
  5
1AAB1
 10
-387.061
 20
840.699
 30
0.000000
  70
    32
  0
VERTEX
  8
0
  5
1AAB2
 10
-387.060
 20
840.699
 30
0.000000
  70
    32
  0
VERTEX
  8
0
  5
1AAB3
 10
-387.059
 20
840.698
 30
0.000000
  70
    32
  0
VERTEX
  8
0
  5
1AAB4
 10
-387.058
 20
840.698
 30
0.000000
  70
    32
  0
VERTEX
  8
0
  5
1AAB5
 10
-387.057
 20
840.697
 30
0.000000
  70
    32
  0
VERTEX
  8
0
  5
1AAB6
 10
-387.057
 20
840.697
 30
0.000000
  70
    32
  0
VERTEX
  8
0
  5
1AAB7
 10
-387.056
 20
840.696
 30
0.000000
  70
    32
  0
VERTEX
  8
0
  5
1AAB8
 10
-387.055
 20
840.696
 30
0.000000
  70
    32
  0
VERTEX
  8
0
  5
1AAB9
 10
-387.054
 20
840.695
 30
0.000000
  70
    32
  0
VERTEX
  8
0
  5
1AABA
 10
-387.053
 20
840.695
 30
0.000000
  70
    32
  0
VERTEX
  8
0
  5
1AABB
 10
-387.053
 20
840.694
 30
0.000000
  70
    32
  0
VERTEX
  8
0
  5
1AABC
 10
-387.052
 20
840.694
 30
0.000000
  70
    32
  0
VERTEX
  8
0
  5
1AABD
 10
-387.051
 20
840.693
 30
0.000000
  70
    32
  0
VERTEX
  8
0
  5
1AABE
 10
-387.050
 20
840.693
 30
0.000000
  70
    32
  0
VERTEX
  8
0
  5
1AABF
 10
-387.050
 20
840.692
 30
0.000000
  70
    32
  0
VERTEX
  8
0
  5
1AAC0
 10
-387.049
 20
840.692
 30
0.000000
  70
    32
  0
VERTEX
  8
0
  5
1AAC1
 10
-387.048
 20
840.691
 30
0.000000
  70
    32
  0
VERTEX
  8
0
  5
1AAC2
 10
-387.047
 20
840.690
 30
0.000000
  70
    32
  0
VERTEX
  8
0
  5
1AAC3
 10
-387.047
 20
840.690
 30
0.000000
  70
    32
  0
VERTEX
  8
0
  5
1AAC4
 10
-387.046
 20
840.689
 30
0.000000
  70
    32
  0
VERTEX
  8
0
  5
1AAC5
 10
-387.045
 20
840.689
 30
0.000000
  70
    32
  0
VERTEX
  8
0
  5
1AAC6
 10
-387.044
 20
840.688
 30
0.000000
  70
    32
  0
VERTEX
  8
0
  5
1AAC7
 10
-387.044
 20
840.687
 30
0.000000
  70
    32
  0
VERTEX
  8
0
  5
1AAC8
 10
-387.043
 20
840.687
 30
0.000000
  70
    32
  0
VERTEX
  8
0
  5
1AAC9
 10
-387.042
 20
840.686
 30
0.000000
  70
    32
  0
VERTEX
  8
0
  5
1AACA
 10
-387.042
 20
840.685
 30
0.000000
  70
    32
  0
VERTEX
  8
0
  5
1AACB
 10
-387.041
 20
840.685
 30
0.000000
  70
    32
  0
VERTEX
  8
0
  5
1AACC
 10
-387.040
 20
840.684
 30
0.000000
  70
    32
  0
VERTEX
  8
0
  5
1AACD
 10
-387.040
 20
840.683
 30
0.000000
  70
    32
  0
VERTEX
  8
0
  5
1AACE
 10
-387.039
 20
840.683
 30
0.000000
  70
    32
  0
VERTEX
  8
0
  5
1AACF
 10
-387.038
 20
840.682
 30
0.000000
  70
    32
  0
VERTEX
  8
0
  5
1AAD0
 10
-387.038
 20
840.681
 30
0.000000
  70
    32
  0
VERTEX
  8
0
  5
1AAD1
 10
-387.037
 20
840.681
 30
0.000000
  70
    32
  0
VERTEX
  8
0
  5
1AAD2
 10
-387.036
 20
840.680
 30
0.000000
  70
    32
  0
VERTEX
  8
0
  5
1AAD3
 10
-387.036
 20
840.679
 30
0.000000
  70
    32
  0
VERTEX
  8
0
  5
1AAD4
 10
-387.035
 20
840.678
 30
0.000000
  70
    32
  0
VERTEX
  8
0
  5
1AAD5
 10
-387.035
 20
840.678
 30
0.000000
  70
    32
  0
VERTEX
  8
0
  5
1AAD6
 10
-387.034
 20
840.677
 30
0.000000
  70
    32
  0
VERTEX
  8
0
  5
1AAD7
 10
-387.034
 20
840.676
 30
0.000000
  70
    32
  0
VERTEX
  8
0
  5
1AAD8
 10
-387.033
 20
840.675
 30
0.000000
  70
    32
  0
VERTEX
  8
0
  5
1AAD9
 10
-387.032
 20
840.674
 30
0.000000
  70
    32
  0
VERTEX
  8
0
  5
1AADA
 10
-387.032
 20
840.674
 30
0.000000
  70
    32
  0
VERTEX
  8
0
  5
1AADB
 10
-387.031
 20
840.673
 30
0.000000
  70
    32
  0
VERTEX
  8
0
  5
1AADC
 10
-387.031
 20
840.672
 30
0.000000
  70
    32
  0
VERTEX
  8
0
  5
1AADD
 10
-387.030
 20
840.671
 30
0.000000
  70
    32
  0
VERTEX
  8
0
  5
1AADE
 10
-387.030
 20
840.670
 30
0.000000
  70
    32
  0
VERTEX
  8
0
  5
1AADF
 10
-387.029
 20
840.670
 30
0.000000
  70
    32
  0
VERTEX
  8
0
  5
1AAE0
 10
-387.029
 20
840.669
 30
0.000000
  70
    32
  0
VERTEX
  8
0
  5
1AAE1
 10
-387.028
 20
840.668
 30
0.000000
  70
    32
  0
VERTEX
  8
0
  5
1AAE2
 10
-387.028
 20
840.667
 30
0.000000
  70
    32
  0
VERTEX
  8
0
  5
1AAE3
 10
-387.028
 20
840.666
 30
0.000000
  70
    32
  0
VERTEX
  8
0
  5
1AAE4
 10
-387.027
 20
840.665
 30
0.000000
  70
    32
  0
VERTEX
  8
0
  5
1AAE5
 10
-387.027
 20
840.665
 30
0.000000
  70
    32
  0
VERTEX
  8
0
  5
1AAE6
 10
-387.026
 20
840.664
 30
0.000000
  70
    32
  0
VERTEX
  8
0
  5
1AAE7
 10
-387.026
 20
840.663
 30
0.000000
  70
    32
  0
VERTEX
  8
0
  5
1AAE8
 10
-387.025
 20
840.662
 30
0.000000
  70
    32
  0
VERTEX
  8
0
  5
1AAE9
 10
-387.025
 20
840.661
 30
0.000000
  70
    32
  0
VERTEX
  8
0
  5
1AAEA
 10
-387.025
 20
840.660
 30
0.000000
  70
    32
  0
VERTEX
  8
0
  5
1AAEB
 10
-387.024
 20
840.659
 30
0.000000
  70
    32
  0
VERTEX
  8
0
  5
1AAEC
 10
-387.024
 20
840.658
 30
0.000000
  70
    32
  0
VERTEX
  8
0
  5
1AAED
 10
-387.024
 20
840.657
 30
0.000000
  70
    32
  0
VERTEX
  8
0
  5
1AAEE
 10
-387.023
 20
840.656
 30
0.000000
  70
    32
  0
VERTEX
  8
0
  5
1AAEF
 10
-387.023
 20
840.655
 30
0.000000
  70
    32
  0
VERTEX
  8
0
  5
1AAF0
 10
-387.023
 20
840.655
 30
0.000000
  70
    32
  0
VERTEX
  8
0
  5
1AAF1
 10
-387.023
 20
840.654
 30
0.000000
  70
    32
  0
VERTEX
  8
0
  5
1AAF2
 10
-387.022
 20
840.653
 30
0.000000
  70
    32
  0
VERTEX
  8
0
  5
1AAF3
 10
-387.022
 20
840.652
 30
0.000000
  70
    32
  0
VERTEX
  8
0
  5
1AAF4
 10
-387.022
 20
840.651
 30
0.000000
  70
    32
  0
VERTEX
  8
0
  5
1AAF5
 10
-387.022
 20
840.650
 30
0.000000
  70
    32
  0
VERTEX
  8
0
  5
1AAF6
 10
-387.021
 20
840.649
 30
0.000000
  70
    32
  0
VERTEX
  8
0
  5
1AAF7
 10
-387.021
 20
840.648
 30
0.000000
  70
    32
  0
VERTEX
  8
0
  5
1AAF8
 10
-387.021
 20
840.647
 30
0.000000
  70
    32
  0
VERTEX
  8
0
  5
1AAF9
 10
-387.021
 20
840.646
 30
0.000000
  70
    32
  0
VERTEX
  8
0
  5
1AAFA
 10
-387.021
 20
840.645
 30
0.000000
  70
    32
  0
VERTEX
  8
0
  5
1AAFB
 10
-387.020
 20
840.644
 30
0.000000
  70
    32
  0
VERTEX
  8
0
  5
1AAFC
 10
-387.020
 20
840.643
 30
0.000000
  70
    32
  0
VERTEX
  8
0
  5
1AAFD
 10
-387.020
 20
840.642
 30
0.000000
  70
    32
  0
VERTEX
  8
0
  5
1AAFE
 10
-387.020
 20
840.641
 30
0.000000
  70
    32
  0
VERTEX
  8
0
  5
1AAFF
 10
-387.020
 20
840.640
 30
0.000000
  70
    32
  0
VERTEX
  8
0
  5
1AB00
 10
-387.020
 20
840.639
 30
0.000000
  70
    32
  0
VERTEX
  8
0
  5
1AB01
 10
-387.020
 20
840.638
 30
0.000000
  70
    32
  0
VERTEX
  8
0
  5
1AB02
 10
-387.020
 20
840.637
 30
0.000000
  70
    32
  0
VERTEX
  8
0
  5
1AB03
 10
-387.020
 20
840.636
 30
0.000000
  70
    32
  0
VERTEX
  8
0
  5
1AB04
 10
-387.020
 20
840.635
 30
0.000000
  70
    32
  0
VERTEX
  8
0
  5
1AB05
 10
-387.020
 20
840.634
 30
0.000000
  70
    32
  0
VERTEX
  8
0
  5
1AB06
 10
-387.020
 20
840.633
 30
0.000000
  70
    32
  0
VERTEX
  8
0
  5
1AB07
 10
-387.020
 20
840.632
 30
0.000000
  70
    32
  0
VERTEX
  8
0
  5
1AB08
 10
-387.020
 20
840.631
 30
0.000000
  70
    32
  0
VERTEX
  8
0
  5
1AB09
 10
-387.020
 20
840.630
 30
0.000000
  70
    32
  0
VERTEX
  8
0
  5
1AB0A
 10
-387.020
 20
840.629
 30
0.000000
  70
    32
  0
VERTEX
  8
0
  5
1AB0B
 10
-387.021
 20
840.628
 30
0.000000
  70
    32
  0
VERTEX
  8
0
  5
1AB0C
 10
-387.021
 20
840.627
 30
0.000000
  70
    32
  0
VERTEX
  8
0
  5
1AB0D
 10
-387.021
 20
840.626
 30
0.000000
  70
    32
  0
VERTEX
  8
0
  5
1AB0E
 10
-387.021
 20
840.625
 30
0.000000
  70
    32
  0
VERTEX
  8
0
  5
1AB0F
 10
-387.021
 20
840.625
 30
0.000000
  70
    32
  0
VERTEX
  8
0
  5
1AB10
 10
-387.022
 20
840.624
 30
0.000000
  70
    32
  0
VERTEX
  8
0
  5
1AB11
 10
-387.022
 20
840.623
 30
0.000000
  70
    32
  0
VERTEX
  8
0
  5
1AB12
 10
-387.022
 20
840.622
 30
0.000000
  70
    32
  0
VERTEX
  8
0
  5
1AB13
 10
-387.022
 20
840.621
 30
0.000000
  70
    32
  0
VERTEX
  8
0
  5
1AB14
 10
-387.023
 20
840.620
 30
0.000000
  70
    32
  0
VERTEX
  8
0
  5
1AB15
 10
-387.023
 20
840.619
 30
0.000000
  70
    32
  0
VERTEX
  8
0
  5
1AB16
 10
-387.024
 20
840.618
 30
0.000000
  70
    32
  0
VERTEX
  8
0
  5
1AB17
 10
-387.024
 20
840.618
 30
0.000000
  70
    32
  0
VERTEX
  8
0
  5
1AB18
 10
-387.024
 20
840.617
 30
0.000000
  70
    32
  0
VERTEX
  8
0
  5
1AB19
 10
-387.025
 20
840.616
 30
0.000000
  70
    32
  0
VERTEX
  8
0
  5
1AB1A
 10
-387.025
 20
840.615
 30
0.000000
  70
    32
  0
VERTEX
  8
0
  5
1AB1B
 10
-387.026
 20
840.614
 30
0.000000
  70
    32
  0
VERTEX
  8
0
  5
1AB1C
 10
-387.026
 20
840.614
 30
0.000000
  70
    32
  0
VERTEX
  8
0
  5
1AB1D
 10
-387.027
 20
840.613
 30
0.000000
  70
    32
  0
VERTEX
  8
0
  5
1AB1E
 10
-387.027
 20
840.612
 30
0.000000
  70
    32
  0
VERTEX
  8
0
  5
1AB1F
 10
-387.028
 20
840.611
 30
0.000000
  70
    32
  0
VERTEX
  8
0
  5
1AB20
 10
-387.029
 20
840.611
 30
0.000000
  70
    32
  0
VERTEX
  8
0
  5
1AB21
 10
-387.029
 20
840.610
 30
0.000000
  70
    32
  0
VERTEX
  8
0
  5
1AB22
 10
-387.030
 20
840.609
 30
0.000000
  70
    32
  0
VERTEX
  8
0
  5
1AB23
 10
-387.031
 20
840.609
 30
0.000000
  70
    32
  0
VERTEX
  8
0
  5
1AB24
 10
-387.031
 20
840.608
 30
0.000000
  70
    32
  0
VERTEX
  8
0
  5
1AB25
 10
-387.032
 20
840.607
 30
0.000000
  70
    32
  0
VERTEX
  8
0
  5
1AB26
 10
-387.033
 20
840.607
 30
0.000000
  70
    32
  0
VERTEX
  8
0
  5
1AB27
 10
-387.033
 20
840.606
 30
0.000000
  70
    32
  0
VERTEX
  8
0
  5
1AB28
 10
-387.034
 20
840.605
 30
0.000000
  70
    32
  0
VERTEX
  8
0
  5
1AB29
 10
-387.035
 20
840.605
 30
0.000000
  70
    32
  0
VERTEX
  8
0
  5
1AB2A
 10
-387.036
 20
840.604
 30
0.000000
  70
    32
  0
VERTEX
  8
0
  5
1AB2B
 10
-387.036
 20
840.604
 30
0.000000
  70
    32
  0
VERTEX
  8
0
  5
1AB2C
 10
-387.037
 20
840.603
 30
0.000000
  70
    32
  0
VERTEX
  8
0
  5
1AB2D
 10
-387.038
 20
840.602
 30
0.000000
  70
    32
  0
VERTEX
  8
0
  5
1AB2E
 10
-387.039
 20
840.602
 30
0.000000
  70
    32
  0
VERTEX
  8
0
  5
1AB2F
 10
-387.040
 20
840.601
 30
0.000000
  70
    32
  0
VERTEX
  8
0
  5
1AB30
 10
-387.040
 20
840.601
 30
0.000000
  70
    32
  0
VERTEX
  8
0
  5
1AB31
 10
-387.041
 20
840.600
 30
0.000000
  70
    32
  0
VERTEX
  8
0
  5
1AB32
 10
-387.042
 20
840.600
 30
0.000000
  70
    32
  0
VERTEX
  8
0
  5
1AB33
 10
-387.043
 20
840.599
 30
0.000000
  70
    32
  0
VERTEX
  8
0
  5
1AB34
 10
-387.044
 20
840.599
 30
0.000000
  70
    32
  0
VERTEX
  8
0
  5
1AB35
 10
-387.045
 20
840.598
 30
0.000000
  70
    32
  0
VERTEX
  8
0
  5
1AB36
 10
-387.045
 20
840.598
 30
0.000000
  70
    32
  0
VERTEX
  8
0
  5
1AB37
 10
-387.046
 20
840.597
 30
0.000000
  70
    32
  0
VERTEX
  8
0
  5
1AB38
 10
-387.047
 20
840.597
 30
0.000000
  70
    32
  0
VERTEX
  8
0
  5
1AB39
 10
-387.048
 20
840.596
 30
0.000000
  70
    32
  0
VERTEX
  8
0
  5
1AB3A
 10
-387.049
 20
840.596
 30
0.000000
  70
    32
  0
VERTEX
  8
0
  5
1AB3B
 10
-387.050
 20
840.595
 30
0.000000
  70
    32
  0
VERTEX
  8
0
  5
1AB3C
 10
-387.051
 20
840.595
 30
0.000000
  70
    32
  0
VERTEX
  8
0
  5
1AB3D
 10
-387.051
 20
840.594
 30
0.000000
  70
    32
  0
VERTEX
  8
0
  5
1AB3E
 10
-387.052
 20
840.594
 30
0.000000
  70
    32
  0
VERTEX
  8
0
  5
1AB3F
 10
-387.053
 20
840.593
 30
0.000000
  70
    32
  0
VERTEX
  8
0
  5
1AB40
 10
-387.054
 20
840.593
 30
0.000000
  70
    32
  0
VERTEX
  8
0
  5
1AB41
 10
-387.055
 20
840.592
 30
0.000000
  70
    32
  0
VERTEX
  8
0
  5
1AB42
 10
-387.056
 20
840.592
 30
0.000000
  70
    32
  0
VERTEX
  8
0
  5
1AB43
 10
-387.057
 20
840.592
 30
0.000000
  70
    32
  0
VERTEX
  8
0
  5
1AB44
 10
-387.057
 20
840.591
 30
0.000000
  70
    32
  0
VERTEX
  8
0
  5
1AB45
 10
-387.058
 20
840.591
 30
0.000000
  70
    32
  0
VERTEX
  8
0
  5
1AB46
 10
-387.059
 20
840.590
 30
0.000000
  70
    32
  0
VERTEX
  8
0
  5
1AB47
 10
-387.060
 20
840.590
 30
0.000000
  70
    32
  0
VERTEX
  8
0
  5
1AB48
 10
-387.061
 20
840.590
 30
0.000000
  70
    32
  0
VERTEX
  8
0
  5
1AB49
 10
-387.062
 20
840.589
 30
0.000000
  70
    32
  0
VERTEX
  8
0
  5
1AB4A
 10
-387.063
 20
840.589
 30
0.000000
  70
    32
  0
VERTEX
  8
0
  5
1AB4B
 10
-387.064
 20
840.588
 30
0.000000
  70
    32
  0
VERTEX
  8
0
  5
1AB4C
 10
-387.064
 20
840.588
 30
0.000000
  70
    32
  0
VERTEX
  8
0
  5
1AB4D
 10
-387.065
 20
840.588
 30
0.000000
  70
    32
  0
VERTEX
  8
0
  5
1AB4E
 10
-387.066
 20
840.587
 30
0.000000
  70
    32
  0
VERTEX
  8
0
  5
1AB4F
 10
-387.067
 20
840.587
 30
0.000000
  70
    32
  0
VERTEX
  8
0
  5
1AB50
 10
-387.068
 20
840.586
 30
0.000000
  70
    32
  0
VERTEX
  8
0
  5
1AB51
 10
-387.069
 20
840.586
 30
0.000000
  70
    32
  0
VERTEX
  8
0
  5
1AB52
 10
-387.070
 20
840.586
 30
0.000000
  70
    32
  0
VERTEX
  8
0
  5
1AB53
 10
-387.070
 20
840.585
 30
0.000000
  70
    32
  0
VERTEX
  8
0
  5
1AB54
 10
-387.071
 20
840.585
 30
0.000000
  70
    32
  0
VERTEX
  8
0
  5
1AB55
 10
-387.072
 20
840.584
 30
0.000000
  70
    32
  0
VERTEX
  8
0
  5
1AB56
 10
-387.073
 20
840.584
 30
0.000000
  70
    32
  0
VERTEX
  8
0
  5
1AB57
 10
-387.074
 20
840.584
 30
0.000000
  70
    32
  0
VERTEX
  8
0
  5
1AB58
 10
-387.075
 20
840.583
 30
0.000000
  70
    32
  0
VERTEX
  8
0
  5
1AB59
 10
-387.075
 20
840.583
 30
0.000000
  70
    32
  0
VERTEX
  8
0
  5
1AB5A
 10
-387.076
 20
840.582
 30
0.000000
  70
    32
  0
VERTEX
  8
0
  5
1AB5B
 10
-387.077
 20
840.582
 30
0.000000
  70
    32
  0
VERTEX
  8
0
  5
1AB5C
 10
-387.078
 20
840.581
 30
0.000000
  70
    32
  0
VERTEX
  8
0
  5
1AB5D
 10
-387.079
 20
840.581
 30
0.000000
  70
    32
  0
VERTEX
  8
0
  5
1AB5E
 10
-387.080
 20
840.581
 30
0.000000
  70
    32
  0
VERTEX
  8
0
  5
1AB5F
 10
-387.080
 20
840.580
 30
0.000000
  70
    32
  0
VERTEX
  8
0
  5
1AB60
 10
-387.081
 20
840.580
 30
0.000000
  70
    32
  0
VERTEX
  8
0
  5
1AB61
 10
-387.082
 20
840.579
 30
0.000000
  70
    32
  0
VERTEX
  8
0
  5
1AB62
 10
-387.083
 20
840.579
 30
0.000000
  70
    32
  0
VERTEX
  8
0
  5
1AB63
 10
-387.084
 20
840.578
 30
0.000000
  70
    32
  0
VERTEX
  8
0
  5
1AB64
 10
-387.085
 20
840.578
 30
0.000000
  70
    32
  0
VERTEX
  8
0
  5
1AB65
 10
-387.085
 20
840.577
 30
0.000000
  70
    32
  0
VERTEX
  8
0
  5
1AB66
 10
-387.086
 20
840.577
 30
0.000000
  70
    32
  0
VERTEX
  8
0
  5
1AB67
 10
-387.087
 20
840.577
 30
0.000000
  70
    32
  0
VERTEX
  8
0
  5
1AB68
 10
-387.088
 20
840.576
 30
0.000000
  70
    32
  0
VERTEX
  8
0
  5
1AB69
 10
-387.089
 20
840.576
 30
0.000000
  70
    32
  0
VERTEX
  8
0
  5
1AB6A
 10
-387.089
 20
840.575
 30
0.000000
  70
    32
  0
VERTEX
  8
0
  5
1AB6B
 10
-387.090
 20
840.575
 30
0.000000
  70
    32
  0
VERTEX
  8
0
  5
1AB6C
 10
-387.091
 20
840.574
 30
0.000000
  70
    32
  0
VERTEX
  8
0
  5
1AB6D
 10
-387.092
 20
840.574
 30
0.000000
  70
    32
  0
VERTEX
  8
0
  5
1AB6E
 10
-387.093
 20
840.573
 30
0.000000
  70
    32
  0
VERTEX
  8
0
  5
1AB6F
 10
-387.093
 20
840.573
 30
0.000000
  70
    32
  0
VERTEX
  8
0
  5
1AB70
 10
-387.094
 20
840.572
 30
0.000000
  70
    32
  0
VERTEX
  8
0
  5
1AB71
 10
-387.095
 20
840.571
 30
0.000000
  70
    32
  0
VERTEX
  8
0
  5
1AB72
 10
-387.096
 20
840.571
 30
0.000000
  70
    32
  0
VERTEX
  8
0
  5
1AB73
 10
-387.096
 20
840.570
 30
0.000000
  70
    32
  0
VERTEX
  8
0
  5
1AB74
 10
-387.097
 20
840.570
 30
0.000000
  70
    32
  0
VERTEX
  8
0
  5
1AB75
 10
-387.098
 20
840.569
 30
0.000000
  70
    32
  0
VERTEX
  8
0
  5
1AB76
 10
-387.099
 20
840.569
 30
0.000000
  70
    32
  0
VERTEX
  8
0
  5
1AB77
 10
-387.099
 20
840.568
 30
0.000000
  70
    32
  0
VERTEX
  8
0
  5
1AB78
 10
-387.100
 20
840.568
 30
0.000000
  70
    32
  0
VERTEX
  8
0
  5
1AB79
 10
-387.101
 20
840.567
 30
0.000000
  70
    32
  0
VERTEX
  8
0
  5
1AB7A
 10
-387.102
 20
840.566
 30
0.000000
  70
    32
  0
VERTEX
  8
0
  5
1AB7B
 10
-387.103
 20
840.566
 30
0.000000
  70
    32
  0
VERTEX
  8
0
  5
1AB7C
 10
-387.103
 20
840.565
 30
0.000000
  70
    32
  0
VERTEX
  8
0
  5
1AB7D
 10
-387.104
 20
840.565
 30
0.000000
  70
    32
  0
VERTEX
  8
0
  5
1AB7E
 10
-387.105
 20
840.564
 30
0.000000
  70
    32
  0
VERTEX
  8
0
  5
1AB7F
 10
-387.106
 20
840.564
 30
0.000000
  70
    32
  0
VERTEX
  8
0
  5
1AB80
 10
-387.106
 20
840.563
 30
0.000000
  70
    32
  0
VERTEX
  8
0
  5
1AB81
 10
-387.107
 20
840.562
 30
0.000000
  70
    32
  0
VERTEX
  8
0
  5
1AB82
 10
-387.108
 20
840.562
 30
0.000000
  70
    32
  0
VERTEX
  8
0
  5
1AB83
 10
-387.109
 20
840.561
 30
0.000000
  70
    32
  0
VERTEX
  8
0
  5
1AB84
 10
-387.109
 20
840.561
 30
0.000000
  70
    32
  0
VERTEX
  8
0
  5
1AB85
 10
-387.110
 20
840.560
 30
0.000000
  70
    32
  0
VERTEX
  8
0
  5
1AB86
 10
-387.111
 20
840.559
 30
0.000000
  70
    32
  0
VERTEX
  8
0
  5
1AB87
 10
-387.112
 20
840.559
 30
0.000000
  70
    32
  0
VERTEX
  8
0
  5
1AB88
 10
-387.112
 20
840.558
 30
0.000000
  70
    32
  0
VERTEX
  8
0
  5
1AB89
 10
-387.113
 20
840.558
 30
0.000000
  70
    32
  0
VERTEX
  8
0
  5
1AB8A
 10
-387.114
 20
840.557
 30
0.000000
  70
    32
  0
VERTEX
  8
0
  5
1AB8B
 10
-387.114
 20
840.556
 30
0.000000
  70
    32
  0
VERTEX
  8
0
  5
1AB8C
 10
-387.115
 20
840.556
 30
0.000000
  70
    32
  0
VERTEX
  8
0
  5
1AB8D
 10
-387.116
 20
840.555
 30
0.000000
  70
    32
  0
VERTEX
  8
0
  5
1AB8E
 10
-387.117
 20
840.555
 30
0.000000
  70
    32
  0
VERTEX
  8
0
  5
1AB8F
 10
-387.117
 20
840.554
 30
0.000000
  70
    32
  0
VERTEX
  8
0
  5
1AB90
 10
-387.118
 20
840.553
 30
0.000000
  70
    32
  0
VERTEX
  8
0
  5
1AB91
 10
-387.119
 20
840.553
 30
0.000000
  70
    32
  0
VERTEX
  8
0
  5
1AB92
 10
-387.120
 20
840.552
 30
0.000000
  70
    32
  0
VERTEX
  8
0
  5
1AB93
 10
-387.120
 20
840.552
 30
0.000000
  70
    32
  0
VERTEX
  8
0
  5
1AB94
 10
-387.121
 20
840.551
 30
0.000000
  70
    32
  0
VERTEX
  8
0
  5
1AB95
 10
-387.122
 20
840.550
 30
0.000000
  70
    32
  0
VERTEX
  8
0
  5
1AB96
 10
-387.123
 20
840.550
 30
0.000000
  70
    32
  0
VERTEX
  8
0
  5
1AB97
 10
-387.123
 20
840.549
 30
0.000000
  70
    32
  0
VERTEX
  8
0
  5
1AB98
 10
-387.124
 20
840.549
 30
0.000000
  70
    32
  0
VERTEX
  8
0
  5
1AB99
 10
-387.125
 20
840.548
 30
0.000000
  70
    32
  0
VERTEX
  8
0
  5
1AB9A
 10
-387.126
 20
840.547
 30
0.000000
  70
    32
  0
VERTEX
  8
0
  5
1AB9B
 10
-387.126
 20
840.547
 30
0.000000
  70
    32
  0
VERTEX
  8
0
  5
1AB9C
 10
-387.127
 20
840.546
 30
0.000000
  70
    32
  0
VERTEX
  8
0
  5
1AB9D
 10
-387.128
 20
840.546
 30
0.000000
  70
    32
  0
VERTEX
  8
0
  5
1AB9E
 10
-387.129
 20
840.545
 30
0.000000
  70
    32
  0
VERTEX
  8
0
  5
1AB9F
 10
-387.129
 20
840.544
 30
0.000000
  70
    32
  0
VERTEX
  8
0
  5
1ABA0
 10
-387.130
 20
840.544
 30
0.000000
  70
    32
  0
VERTEX
  8
0
  5
1ABA1
 10
-387.131
 20
840.543
 30
0.000000
  70
    32
  0
VERTEX
  8
0
  5
1ABA2
 10
-387.131
 20
840.542
 30
0.000000
  70
    32
  0
VERTEX
  8
0
  5
1ABA3
 10
-387.132
 20
840.542
 30
0.000000
  70
    32
  0
VERTEX
  8
0
  5
1ABA4
 10
-387.133
 20
840.541
 30
0.000000
  70
    32
  0
VERTEX
  8
0
  5
1ABA5
 10
-387.134
 20
840.541
 30
0.000000
  70
    32
  0
VERTEX
  8
0
  5
1ABA6
 10
-387.134
 20
840.540
 30
0.000000
  70
    32
  0
VERTEX
  8
0
  5
1ABA7
 10
-387.135
 20
840.539
 30
0.000000
  70
    32
  0
VERTEX
  8
0
  5
1ABA8
 10
-387.136
 20
840.539
 30
0.000000
  70
    32
  0
VERTEX
  8
0
  5
1ABA9
 10
-387.136
 20
840.538
 30
0.000000
  70
    32
  0
VERTEX
  8
0
  5
1ABAA
 10
-387.137
 20
840.537
 30
0.000000
  70
    32
  0
VERTEX
  8
0
  5
1ABAB
 10
-387.138
 20
840.537
 30
0.000000
  70
    32
  0
VERTEX
  8
0
  5
1ABAC
 10
-387.138
 20
840.536
 30
0.000000
  70
    32
  0
VERTEX
  8
0
  5
1ABAD
 10
-387.139
 20
840.535
 30
0.000000
  70
    32
  0
VERTEX
  8
0
  5
1ABAE
 10
-387.140
 20
840.535
 30
0.000000
  70
    32
  0
VERTEX
  8
0
  5
1ABAF
 10
-387.140
 20
840.534
 30
0.000000
  70
    32
  0
VERTEX
  8
0
  5
1ABB0
 10
-387.141
 20
840.533
 30
0.000000
  70
    32
  0
VERTEX
  8
0
  5
1ABB1
 10
-387.142
 20
840.533
 30
0.000000
  70
    32
  0
VERTEX
  8
0
  5
1ABB2
 10
-387.142
 20
840.532
 30
0.000000
  70
    32
  0
VERTEX
  8
0
  5
1ABB3
 10
-387.143
 20
840.531
 30
0.000000
  70
    32
  0
VERTEX
  8
0
  5
1ABB4
 10
-387.144
 20
840.531
 30
0.000000
  70
    32
  0
VERTEX
  8
0
  5
1ABB5
 10
-387.144
 20
840.530
 30
0.000000
  70
    32
  0
VERTEX
  8
0
  5
1ABB6
 10
-387.145
 20
840.529
 30
0.000000
  70
    32
  0
VERTEX
  8
0
  5
1ABB7
 10
-387.145
 20
840.528
 30
0.000000
  70
    32
  0
VERTEX
  8
0
  5
1ABB8
 10
-387.146
 20
840.528
 30
0.000000
  70
    32
  0
VERTEX
  8
0
  5
1ABB9
 10
-387.147
 20
840.527
 30
0.000000
  70
    32
  0
VERTEX
  8
0
  5
1ABBA
 10
-387.147
 20
840.526
 30
0.000000
  70
    32
  0
VERTEX
  8
0
  5
1ABBB
 10
-387.148
 20
840.525
 30
0.000000
  70
    32
  0
VERTEX
  8
0
  5
1ABBC
 10
-387.148
 20
840.525
 30
0.000000
  70
    32
  0
VERTEX
  8
0
  5
1ABBD
 10
-387.149
 20
840.524
 30
0.000000
  70
    32
  0
VERTEX
  8
0
  5
1ABBE
 10
-387.150
 20
840.523
 30
0.000000
  70
    32
  0
VERTEX
  8
0
  5
1ABBF
 10
-387.150
 20
840.522
 30
0.000000
  70
    32
  0
VERTEX
  8
0
  5
1ABC0
 10
-387.151
 20
840.522
 30
0.000000
  70
    32
  0
VERTEX
  8
0
  5
1ABC1
 10
-387.151
 20
840.521
 30
0.000000
  70
    32
  0
VERTEX
  8
0
  5
1ABC2
 10
-387.152
 20
840.520
 30
0.000000
  70
    32
  0
VERTEX
  8
0
  5
1ABC3
 10
-387.152
 20
840.519
 30
0.000000
  70
    32
  0
VERTEX
  8
0
  5
1ABC4
 10
-387.153
 20
840.518
 30
0.000000
  70
    32
  0
VERTEX
  8
0
  5
1ABC5
 10
-387.153
 20
840.518
 30
0.000000
  70
    32
  0
VERTEX
  8
0
  5
1ABC6
 10
-387.154
 20
840.517
 30
0.000000
  70
    32
  0
VERTEX
  8
0
  5
1ABC7
 10
-387.154
 20
840.516
 30
0.000000
  70
    32
  0
VERTEX
  8
0
  5
1ABC8
 10
-387.155
 20
840.515
 30
0.000000
  70
    32
  0
VERTEX
  8
0
  5
1ABC9
 10
-387.155
 20
840.514
 30
0.000000
  70
    32
  0
VERTEX
  8
0
  5
1ABCA
 10
-387.156
 20
840.514
 30
0.000000
  70
    32
  0
VERTEX
  8
0
  5
1ABCB
 10
-387.156
 20
840.513
 30
0.000000
  70
    32
  0
VERTEX
  8
0
  5
1ABCC
 10
-387.157
 20
840.512
 30
0.000000
  70
    32
  0
VERTEX
  8
0
  5
1ABCD
 10
-387.157
 20
840.511
 30
0.000000
  70
    32
  0
VERTEX
  8
0
  5
1ABCE
 10
-387.158
 20
840.510
 30
0.000000
  70
    32
  0
VERTEX
  8
0
  5
1ABCF
 10
-387.158
 20
840.509
 30
0.000000
  70
    32
  0
VERTEX
  8
0
  5
1ABD0
 10
-387.159
 20
840.509
 30
0.000000
  70
    32
  0
VERTEX
  8
0
  5
1ABD1
 10
-387.159
 20
840.508
 30
0.000000
  70
    32
  0
VERTEX
  8
0
  5
1ABD2
 10
-387.159
 20
840.507
 30
0.000000
  70
    32
  0
VERTEX
  8
0
  5
1ABD3
 10
-387.160
 20
840.506
 30
0.000000
  70
    32
  0
VERTEX
  8
0
  5
1ABD4
 10
-387.160
 20
840.505
 30
0.000000
  70
    32
  0
VERTEX
  8
0
  5
1ABD5
 10
-387.161
 20
840.504
 30
0.000000
  70
    32
  0
VERTEX
  8
0
  5
1ABD6
 10
-387.161
 20
840.503
 30
0.000000
  70
    32
  0
VERTEX
  8
0
  5
1ABD7
 10
-387.161
 20
840.502
 30
0.000000
  70
    32
  0
VERTEX
  8
0
  5
1ABD8
 10
-387.162
 20
840.502
 30
0.000000
  70
    32
  0
VERTEX
  8
0
  5
1ABD9
 10
-387.162
 20
840.501
 30
0.000000
  70
    32
  0
VERTEX
  8
0
  5
1ABDA
 10
-387.162
 20
840.500
 30
0.000000
  70
    32
  0
VERTEX
  8
0
  5
1ABDB
 10
-387.163
 20
840.499
 30
0.000000
  70
    32
  0
VERTEX
  8
0
  5
1ABDC
 10
-387.163
 20
840.498
 30
0.000000
  70
    32
  0
VERTEX
  8
0
  5
1ABDD
 10
-387.163
 20
840.497
 30
0.000000
  70
    32
  0
VERTEX
  8
0
  5
1ABDE
 10
-387.164
 20
840.496
 30
0.000000
  70
    32
  0
VERTEX
  8
0
  5
1ABDF
 10
-387.164
 20
840.495
 30
0.000000
  70
    32
  0
VERTEX
  8
0
  5
1ABE0
 10
-387.164
 20
840.494
 30
0.000000
  70
    32
  0
VERTEX
  8
0
  5
1ABE1
 10
-387.164
 20
840.493
 30
0.000000
  70
    32
  0
VERTEX
  8
0
  5
1ABE2
 10
-387.165
 20
840.493
 30
0.000000
  70
    32
  0
VERTEX
  8
0
  5
1ABE3
 10
-387.165
 20
840.492
 30
0.000000
  70
    32
  0
VERTEX
  8
0
  5
1ABE4
 10
-387.165
 20
840.491
 30
0.000000
  70
    32
  0
VERTEX
  8
0
  5
1ABE5
 10
-387.165
 20
840.490
 30
0.000000
  70
    32
  0
VERTEX
  8
0
  5
1ABE6
 10
-387.165
 20
840.489
 30
0.000000
  70
    32
  0
VERTEX
  8
0
  5
1ABE7
 10
-387.166
 20
840.488
 30
0.000000
  70
    32
  0
VERTEX
  8
0
  5
1ABE8
 10
-387.166
 20
840.487
 30
0.000000
  70
    32
  0
VERTEX
  8
0
  5
1ABE9
 10
-387.166
 20
840.486
 30
0.000000
  70
    32
  0
VERTEX
  8
0
  5
1ABEA
 10
-387.166
 20
840.485
 30
0.000000
  70
    32
  0
VERTEX
  8
0
  5
1ABEB
 10
-387.166
 20
840.484
 30
0.000000
  70
    32
  0
VERTEX
  8
0
  5
1ABEC
 10
-387.167
 20
840.483
 30
0.000000
  70
    32
  0
VERTEX
  8
0
  5
1ABED
 10
-387.167
 20
840.482
 30
0.000000
  70
    32
  0
VERTEX
  8
0
  5
1ABEE
 10
-387.167
 20
840.481
 30
0.000000
  70
    32
  0
VERTEX
  8
0
  5
1ABEF
 10
-387.167
 20
840.481
 30
0.000000
  70
    32
  0
VERTEX
  8
0
  5
1ABF0
 10
-387.167
 20
840.480
 30
0.000000
  70
    32
  0
VERTEX
  8
0
  5
1ABF1
 10
-387.167
 20
840.479
 30
0.000000
  70
    32
  0
VERTEX
  8
0
  5
1ABF2
 10
-387.167
 20
840.478
 30
0.000000
  70
    32
  0
VERTEX
  8
0
  5
1ABF3
 10
-387.167
 20
840.477
 30
0.000000
  70
    32
  0
VERTEX
  8
0
  5
1ABF4
 10
-387.168
 20
840.476
 30
0.000000
  70
    32
  0
VERTEX
  8
0
  5
1ABF5
 10
-387.168
 20
840.475
 30
0.000000
  70
    32
  0
VERTEX
  8
0
  5
1ABF6
 10
-387.168
 20
840.474
 30
0.000000
  70
    32
  0
VERTEX
  8
0
  5
1ABF7
 10
-387.168
 20
840.473
 30
0.000000
  70
    32
  0
VERTEX
  8
0
  5
1ABF8
 10
-387.168
 20
840.472
 30
0.000000
  70
    32
  0
VERTEX
  8
0
  5
1ABF9
 10
-387.168
 20
840.471
 30
0.000000
  70
    32
  0
VERTEX
  8
0
  5
1ABFA
 10
-387.168
 20
840.470
 30
0.000000
  70
    32
  0
VERTEX
  8
0
  5
1ABFB
 10
-387.168
 20
840.469
 30
0.000000
  70
    32
  0
VERTEX
  8
0
  5
1ABFC
 10
-387.168
 20
840.468
 30
0.000000
  70
    32
  0
VERTEX
  8
0
  5
1ABFD
 10
-387.168
 20
840.467
 30
0.000000
  70
    32
  0
VERTEX
  8
0
  5
1ABFE
 10
-387.168
 20
840.466
 30
0.000000
  70
    32
  0
VERTEX
  8
0
  5
1ABFF
 10
-387.168
 20
840.465
 30
0.000000
  70
    32
  0
VERTEX
  8
0
  5
1AC00
 10
-387.168
 20
840.464
 30
0.000000
  70
    32
  0
VERTEX
  8
0
  5
1AC01
 10
-387.168
 20
840.463
 30
0.000000
  70
    32
  0
VERTEX
  8
0
  5
1AC02
 10
-387.169
 20
840.463
 30
0.000000
  70
    32
  0
VERTEX
  8
0
  5
1AC03
 10
-387.169
 20
840.462
 30
0.000000
  70
    32
  0
VERTEX
  8
0
  5
1AC04
 10
-387.169
 20
840.461
 30
0.000000
  70
    32
  0
VERTEX
  8
0
  5
1AC05
 10
-387.169
 20
840.460
 30
0.000000
  70
    32
  0
VERTEX
  8
0
  5
1AC06
 10
-387.169
 20
840.459
 30
0.000000
  70
    32
  0
VERTEX
  8
0
  5
1AC07
 10
-387.169
 20
840.458
 30
0.000000
  70
    32
  0
VERTEX
  8
0
  5
1AC08
 10
-387.169
 20
840.457
 30
0.000000
  70
    32
  0
VERTEX
  8
0
  5
1AC09
 10
-387.169
 20
840.456
 30
0.000000
  70
    32
  0
VERTEX
  8
0
  5
1AC0A
 10
-387.169
 20
840.455
 30
0.000000
  70
    32
  0
VERTEX
  8
0
  5
1AC0B
 10
-387.169
 20
840.454
 30
0.000000
  70
    32
  0
VERTEX
  8
0
  5
1AC0C
 10
-387.169
 20
840.453
 30
0.000000
  70
    32
  0
VERTEX
  8
0
  5
1AC0D
 10
-387.169
 20
840.452
 30
0.000000
  70
    32
  0
VERTEX
  8
0
  5
1AC0E
 10
-387.169
 20
840.451
 30
0.000000
  70
    32
  0
VERTEX
  8
0
  5
1AC0F
 10
-387.169
 20
840.450
 30
0.000000
  70
    32
  0
VERTEX
  8
0
  5
1AC10
 10
-387.169
 20
840.449
 30
0.000000
  70
    32
  0
VERTEX
  8
0
  5
1AC11
 10
-387.169
 20
840.448
 30
0.000000
  70
    32
  0
VERTEX
  8
0
  5
1AC12
 10
-387.169
 20
840.447
 30
0.000000
  70
    32
  0
VERTEX
  8
0
  5
1AC13
 10
-387.169
 20
840.446
 30
0.000000
  70
    32
  0
VERTEX
  8
0
  5
1AC14
 10
-387.169
 20
840.445
 30
0.000000
  70
    32
  0
VERTEX
  8
0
  5
1AC15
 10
-387.169
 20
840.444
 30
0.000000
  70
    32
  0
VERTEX
  8
0
  5
1AC16
 10
-387.169
 20
840.443
 30
0.000000
  70
    32
  0
VERTEX
  8
0
  5
1AC17
 10
-387.169
 20
840.442
 30
0.000000
  70
    32
  0
SEQEND
  8
0
  5
1AC18
  0
LINE
  5
1A2BB
  8
0
 10
-387.17032457738958
 20
840.73254566203536
 30
0.0
 11
-387.17036064777278
 21
840.73255121677255
 31
0.0
  0
POLYLINE
  8
0
  5
1AC19
  66
     1
 10
0.000000
 20
0.000000
 30
0.000000
  70
     8
  0
VERTEX
  8
0
  5
1AC1A
 10
-387.170
 20
840.152
 30
0.000000
  70
    32
  0
VERTEX
  8
0
  5
1AC1B
 10
-387.169
 20
840.152
 30
0.000000
  70
    32
  0
VERTEX
  8
0
  5
1AC1C
 10
-387.168
 20
840.153
 30
0.000000
  70
    32
  0
VERTEX
  8
0
  5
1AC1D
 10
-387.168
 20
840.153
 30
0.000000
  70
    32
  0
VERTEX
  8
0
  5
1AC1E
 10
-387.167
 20
840.153
 30
0.000000
  70
    32
  0
VERTEX
  8
0
  5
1AC1F
 10
-387.166
 20
840.153
 30
0.000000
  70
    32
  0
VERTEX
  8
0
  5
1AC20
 10
-387.165
 20
840.154
 30
0.000000
  70
    32
  0
VERTEX
  8
0
  5
1AC21
 10
-387.164
 20
840.154
 30
0.000000
  70
    32
  0
VERTEX
  8
0
  5
1AC22
 10
-387.163
 20
840.154
 30
0.000000
  70
    32
  0
VERTEX
  8
0
  5
1AC23
 10
-387.162
 20
840.154
 30
0.000000
  70
    32
  0
VERTEX
  8
0
  5
1AC24
 10
-387.161
 20
840.154
 30
0.000000
  70
    32
  0
VERTEX
  8
0
  5
1AC25
 10
-387.160
 20
840.155
 30
0.000000
  70
    32
  0
VERTEX
  8
0
  5
1AC26
 10
-387.159
 20
840.155
 30
0.000000
  70
    32
  0
VERTEX
  8
0
  5
1AC27
 10
-387.158
 20
840.155
 30
0.000000
  70
    32
  0
VERTEX
  8
0
  5
1AC28
 10
-387.157
 20
840.155
 30
0.000000
  70
    32
  0
VERTEX
  8
0
  5
1AC29
 10
-387.156
 20
840.155
 30
0.000000
  70
    32
  0
VERTEX
  8
0
  5
1AC2A
 10
-387.156
 20
840.155
 30
0.000000
  70
    32
  0
VERTEX
  8
0
  5
1AC2B
 10
-387.155
 20
840.156
 30
0.000000
  70
    32
  0
VERTEX
  8
0
  5
1AC2C
 10
-387.154
 20
840.156
 30
0.000000
  70
    32
  0
VERTEX
  8
0
  5
1AC2D
 10
-387.153
 20
840.156
 30
0.000000
  70
    32
  0
VERTEX
  8
0
  5
1AC2E
 10
-387.152
 20
840.156
 30
0.000000
  70
    32
  0
VERTEX
  8
0
  5
1AC2F
 10
-387.151
 20
840.156
 30
0.000000
  70
    32
  0
VERTEX
  8
0
  5
1AC30
 10
-387.150
 20
840.156
 30
0.000000
  70
    32
  0
VERTEX
  8
0
  5
1AC31
 10
-387.149
 20
840.156
 30
0.000000
  70
    32
  0
VERTEX
  8
0
  5
1AC32
 10
-387.148
 20
840.157
 30
0.000000
  70
    32
  0
VERTEX
  8
0
  5
1AC33
 10
-387.147
 20
840.157
 30
0.000000
  70
    32
  0
VERTEX
  8
0
  5
1AC34
 10
-387.146
 20
840.157
 30
0.000000
  70
    32
  0
VERTEX
  8
0
  5
1AC35
 10
-387.145
 20
840.157
 30
0.000000
  70
    32
  0
VERTEX
  8
0
  5
1AC36
 10
-387.144
 20
840.157
 30
0.000000
  70
    32
  0
VERTEX
  8
0
  5
1AC37
 10
-387.143
 20
840.157
 30
0.000000
  70
    32
  0
VERTEX
  8
0
  5
1AC38
 10
-387.142
 20
840.158
 30
0.000000
  70
    32
  0
VERTEX
  8
0
  5
1AC39
 10
-387.141
 20
840.158
 30
0.000000
  70
    32
  0
VERTEX
  8
0
  5
1AC3A
 10
-387.141
 20
840.158
 30
0.000000
  70
    32
  0
VERTEX
  8
0
  5
1AC3B
 10
-387.140
 20
840.158
 30
0.000000
  70
    32
  0
VERTEX
  8
0
  5
1AC3C
 10
-387.139
 20
840.158
 30
0.000000
  70
    32
  0
VERTEX
  8
0
  5
1AC3D
 10
-387.138
 20
840.158
 30
0.000000
  70
    32
  0
VERTEX
  8
0
  5
1AC3E
 10
-387.137
 20
840.159
 30
0.000000
  70
    32
  0
VERTEX
  8
0
  5
1AC3F
 10
-387.136
 20
840.159
 30
0.000000
  70
    32
  0
VERTEX
  8
0
  5
1AC40
 10
-387.135
 20
840.159
 30
0.000000
  70
    32
  0
VERTEX
  8
0
  5
1AC41
 10
-387.134
 20
840.159
 30
0.000000
  70
    32
  0
VERTEX
  8
0
  5
1AC42
 10
-387.133
 20
840.159
 30
0.000000
  70
    32
  0
VERTEX
  8
0
  5
1AC43
 10
-387.132
 20
840.159
 30
0.000000
  70
    32
  0
VERTEX
  8
0
  5
1AC44
 10
-387.131
 20
840.160
 30
0.000000
  70
    32
  0
VERTEX
  8
0
  5
1AC45
 10
-387.130
 20
840.160
 30
0.000000
  70
    32
  0
VERTEX
  8
0
  5
1AC46
 10
-387.129
 20
840.160
 30
0.000000
  70
    32
  0
VERTEX
  8
0
  5
1AC47
 10
-387.128
 20
840.160
 30
0.000000
  70
    32
  0
VERTEX
  8
0
  5
1AC48
 10
-387.128
 20
840.160
 30
0.000000
  70
    32
  0
VERTEX
  8
0
  5
1AC49
 10
-387.127
 20
840.161
 30
0.000000
  70
    32
  0
VERTEX
  8
0
  5
1AC4A
 10
-387.126
 20
840.161
 30
0.000000
  70
    32
  0
VERTEX
  8
0
  5
1AC4B
 10
-387.125
 20
840.161
 30
0.000000
  70
    32
  0
VERTEX
  8
0
  5
1AC4C
 10
-387.124
 20
840.161
 30
0.000000
  70
    32
  0
VERTEX
  8
0
  5
1AC4D
 10
-387.123
 20
840.162
 30
0.000000
  70
    32
  0
VERTEX
  8
0
  5
1AC4E
 10
-387.122
 20
840.162
 30
0.000000
  70
    32
  0
VERTEX
  8
0
  5
1AC4F
 10
-387.121
 20
840.162
 30
0.000000
  70
    32
  0
VERTEX
  8
0
  5
1AC50
 10
-387.120
 20
840.162
 30
0.000000
  70
    32
  0
VERTEX
  8
0
  5
1AC51
 10
-387.119
 20
840.163
 30
0.000000
  70
    32
  0
VERTEX
  8
0
  5
1AC52
 10
-387.118
 20
840.163
 30
0.000000
  70
    32
  0
VERTEX
  8
0
  5
1AC53
 10
-387.117
 20
840.163
 30
0.000000
  70
    32
  0
VERTEX
  8
0
  5
1AC54
 10
-387.117
 20
840.163
 30
0.000000
  70
    32
  0
VERTEX
  8
0
  5
1AC55
 10
-387.116
 20
840.164
 30
0.000000
  70
    32
  0
VERTEX
  8
0
  5
1AC56
 10
-387.115
 20
840.164
 30
0.000000
  70
    32
  0
VERTEX
  8
0
  5
1AC57
 10
-387.114
 20
840.164
 30
0.000000
  70
    32
  0
VERTEX
  8
0
  5
1AC58
 10
-387.113
 20
840.164
 30
0.000000
  70
    32
  0
VERTEX
  8
0
  5
1AC59
 10
-387.112
 20
840.165
 30
0.000000
  70
    32
  0
VERTEX
  8
0
  5
1AC5A
 10
-387.111
 20
840.165
 30
0.000000
  70
    32
  0
VERTEX
  8
0
  5
1AC5B
 10
-387.110
 20
840.165
 30
0.000000
  70
    32
  0
VERTEX
  8
0
  5
1AC5C
 10
-387.109
 20
840.166
 30
0.000000
  70
    32
  0
VERTEX
  8
0
  5
1AC5D
 10
-387.108
 20
840.166
 30
0.000000
  70
    32
  0
VERTEX
  8
0
  5
1AC5E
 10
-387.108
 20
840.166
 30
0.000000
  70
    32
  0
VERTEX
  8
0
  5
1AC5F
 10
-387.107
 20
840.166
 30
0.000000
  70
    32
  0
VERTEX
  8
0
  5
1AC60
 10
-387.106
 20
840.167
 30
0.000000
  70
    32
  0
VERTEX
  8
0
  5
1AC61
 10
-387.105
 20
840.167
 30
0.000000
  70
    32
  0
VERTEX
  8
0
  5
1AC62
 10
-387.104
 20
840.167
 30
0.000000
  70
    32
  0
VERTEX
  8
0
  5
1AC63
 10
-387.103
 20
840.168
 30
0.000000
  70
    32
  0
VERTEX
  8
0
  5
1AC64
 10
-387.102
 20
840.168
 30
0.000000
  70
    32
  0
VERTEX
  8
0
  5
1AC65
 10
-387.101
 20
840.168
 30
0.000000
  70
    32
  0
VERTEX
  8
0
  5
1AC66
 10
-387.100
 20
840.169
 30
0.000000
  70
    32
  0
VERTEX
  8
0
  5
1AC67
 10
-387.099
 20
840.169
 30
0.000000
  70
    32
  0
VERTEX
  8
0
  5
1AC68
 10
-387.099
 20
840.169
 30
0.000000
  70
    32
  0
VERTEX
  8
0
  5
1AC69
 10
-387.098
 20
840.170
 30
0.000000
  70
    32
  0
VERTEX
  8
0
  5
1AC6A
 10
-387.097
 20
840.170
 30
0.000000
  70
    32
  0
VERTEX
  8
0
  5
1AC6B
 10
-387.096
 20
840.170
 30
0.000000
  70
    32
  0
VERTEX
  8
0
  5
1AC6C
 10
-387.095
 20
840.171
 30
0.000000
  70
    32
  0
VERTEX
  8
0
  5
1AC6D
 10
-387.094
 20
840.171
 30
0.000000
  70
    32
  0
VERTEX
  8
0
  5
1AC6E
 10
-387.093
 20
840.171
 30
0.000000
  70
    32
  0
VERTEX
  8
0
  5
1AC6F
 10
-387.092
 20
840.172
 30
0.000000
  70
    32
  0
VERTEX
  8
0
  5
1AC70
 10
-387.091
 20
840.172
 30
0.000000
  70
    32
  0
VERTEX
  8
0
  5
1AC71
 10
-387.091
 20
840.172
 30
0.000000
  70
    32
  0
VERTEX
  8
0
  5
1AC72
 10
-387.090
 20
840.173
 30
0.000000
  70
    32
  0
VERTEX
  8
0
  5
1AC73
 10
-387.089
 20
840.173
 30
0.000000
  70
    32
  0
VERTEX
  8
0
  5
1AC74
 10
-387.088
 20
840.173
 30
0.000000
  70
    32
  0
VERTEX
  8
0
  5
1AC75
 10
-387.087
 20
840.174
 30
0.000000
  70
    32
  0
VERTEX
  8
0
  5
1AC76
 10
-387.086
 20
840.174
 30
0.000000
  70
    32
  0
VERTEX
  8
0
  5
1AC77
 10
-387.085
 20
840.174
 30
0.000000
  70
    32
  0
VERTEX
  8
0
  5
1AC78
 10
-387.084
 20
840.175
 30
0.000000
  70
    32
  0
VERTEX
  8
0
  5
1AC79
 10
-387.083
 20
840.175
 30
0.000000
  70
    32
  0
VERTEX
  8
0
  5
1AC7A
 10
-387.082
 20
840.175
 30
0.000000
  70
    32
  0
VERTEX
  8
0
  5
1AC7B
 10
-387.082
 20
840.176
 30
0.000000
  70
    32
  0
VERTEX
  8
0
  5
1AC7C
 10
-387.081
 20
840.176
 30
0.000000
  70
    32
  0
VERTEX
  8
0
  5
1AC7D
 10
-387.080
 20
840.177
 30
0.000000
  70
    32
  0
VERTEX
  8
0
  5
1AC7E
 10
-387.079
 20
840.177
 30
0.000000
  70
    32
  0
VERTEX
  8
0
  5
1AC7F
 10
-387.078
 20
840.177
 30
0.000000
  70
    32
  0
VERTEX
  8
0
  5
1AC80
 10
-387.077
 20
840.178
 30
0.000000
  70
    32
  0
VERTEX
  8
0
  5
1AC81
 10
-387.076
 20
840.178
 30
0.000000
  70
    32
  0
VERTEX
  8
0
  5
1AC82
 10
-387.075
 20
840.178
 30
0.000000
  70
    32
  0
VERTEX
  8
0
  5
1AC83
 10
-387.075
 20
840.179
 30
0.000000
  70
    32
  0
VERTEX
  8
0
  5
1AC84
 10
-387.074
 20
840.179
 30
0.000000
  70
    32
  0
VERTEX
  8
0
  5
1AC85
 10
-387.073
 20
840.180
 30
0.000000
  70
    32
  0
VERTEX
  8
0
  5
1AC86
 10
-387.072
 20
840.180
 30
0.000000
  70
    32
  0
VERTEX
  8
0
  5
1AC87
 10
-387.071
 20
840.180
 30
0.000000
  70
    32
  0
VERTEX
  8
0
  5
1AC88
 10
-387.070
 20
840.181
 30
0.000000
  70
    32
  0
VERTEX
  8
0
  5
1AC89
 10
-387.069
 20
840.181
 30
0.000000
  70
    32
  0
VERTEX
  8
0
  5
1AC8A
 10
-387.068
 20
840.182
 30
0.000000
  70
    32
  0
VERTEX
  8
0
  5
1AC8B
 10
-387.068
 20
840.182
 30
0.000000
  70
    32
  0
VERTEX
  8
0
  5
1AC8C
 10
-387.067
 20
840.182
 30
0.000000
  70
    32
  0
VERTEX
  8
0
  5
1AC8D
 10
-387.066
 20
840.183
 30
0.000000
  70
    32
  0
VERTEX
  8
0
  5
1AC8E
 10
-387.065
 20
840.183
 30
0.000000
  70
    32
  0
VERTEX
  8
0
  5
1AC8F
 10
-387.064
 20
840.184
 30
0.000000
  70
    32
  0
VERTEX
  8
0
  5
1AC90
 10
-387.063
 20
840.184
 30
0.000000
  70
    32
  0
VERTEX
  8
0
  5
1AC91
 10
-387.062
 20
840.185
 30
0.000000
  70
    32
  0
VERTEX
  8
0
  5
1AC92
 10
-387.062
 20
840.185
 30
0.000000
  70
    32
  0
VERTEX
  8
0
  5
1AC93
 10
-387.061
 20
840.185
 30
0.000000
  70
    32
  0
VERTEX
  8
0
  5
1AC94
 10
-387.060
 20
840.186
 30
0.000000
  70
    32
  0
VERTEX
  8
0
  5
1AC95
 10
-387.059
 20
840.186
 30
0.000000
  70
    32
  0
VERTEX
  8
0
  5
1AC96
 10
-387.058
 20
840.187
 30
0.000000
  70
    32
  0
VERTEX
  8
0
  5
1AC97
 10
-387.057
 20
840.187
 30
0.000000
  70
    32
  0
VERTEX
  8
0
  5
1AC98
 10
-387.057
 20
840.188
 30
0.000000
  70
    32
  0
VERTEX
  8
0
  5
1AC99
 10
-387.056
 20
840.188
 30
0.000000
  70
    32
  0
VERTEX
  8
0
  5
1AC9A
 10
-387.055
 20
840.189
 30
0.000000
  70
    32
  0
VERTEX
  8
0
  5
1AC9B
 10
-387.054
 20
840.189
 30
0.000000
  70
    32
  0
VERTEX
  8
0
  5
1AC9C
 10
-387.053
 20
840.190
 30
0.000000
  70
    32
  0
VERTEX
  8
0
  5
1AC9D
 10
-387.053
 20
840.190
 30
0.000000
  70
    32
  0
VERTEX
  8
0
  5
1AC9E
 10
-387.052
 20
840.191
 30
0.000000
  70
    32
  0
VERTEX
  8
0
  5
1AC9F
 10
-387.051
 20
840.191
 30
0.000000
  70
    32
  0
VERTEX
  8
0
  5
1ACA0
 10
-387.050
 20
840.192
 30
0.000000
  70
    32
  0
VERTEX
  8
0
  5
1ACA1
 10
-387.050
 20
840.193
 30
0.000000
  70
    32
  0
VERTEX
  8
0
  5
1ACA2
 10
-387.049
 20
840.193
 30
0.000000
  70
    32
  0
VERTEX
  8
0
  5
1ACA3
 10
-387.048
 20
840.194
 30
0.000000
  70
    32
  0
VERTEX
  8
0
  5
1ACA4
 10
-387.047
 20
840.194
 30
0.000000
  70
    32
  0
VERTEX
  8
0
  5
1ACA5
 10
-387.047
 20
840.195
 30
0.000000
  70
    32
  0
VERTEX
  8
0
  5
1ACA6
 10
-387.046
 20
840.195
 30
0.000000
  70
    32
  0
VERTEX
  8
0
  5
1ACA7
 10
-387.045
 20
840.196
 30
0.000000
  70
    32
  0
VERTEX
  8
0
  5
1ACA8
 10
-387.044
 20
840.197
 30
0.000000
  70
    32
  0
VERTEX
  8
0
  5
1ACA9
 10
-387.044
 20
840.197
 30
0.000000
  70
    32
  0
VERTEX
  8
0
  5
1ACAA
 10
-387.043
 20
840.198
 30
0.000000
  70
    32
  0
VERTEX
  8
0
  5
1ACAB
 10
-387.042
 20
840.199
 30
0.000000
  70
    32
  0
VERTEX
  8
0
  5
1ACAC
 10
-387.042
 20
840.199
 30
0.000000
  70
    32
  0
VERTEX
  8
0
  5
1ACAD
 10
-387.041
 20
840.200
 30
0.000000
  70
    32
  0
VERTEX
  8
0
  5
1ACAE
 10
-387.040
 20
840.201
 30
0.000000
  70
    32
  0
VERTEX
  8
0
  5
1ACAF
 10
-387.040
 20
840.201
 30
0.000000
  70
    32
  0
VERTEX
  8
0
  5
1ACB0
 10
-387.039
 20
840.202
 30
0.000000
  70
    32
  0
VERTEX
  8
0
  5
1ACB1
 10
-387.038
 20
840.203
 30
0.000000
  70
    32
  0
VERTEX
  8
0
  5
1ACB2
 10
-387.038
 20
840.203
 30
0.000000
  70
    32
  0
VERTEX
  8
0
  5
1ACB3
 10
-387.037
 20
840.204
 30
0.000000
  70
    32
  0
VERTEX
  8
0
  5
1ACB4
 10
-387.036
 20
840.205
 30
0.000000
  70
    32
  0
VERTEX
  8
0
  5
1ACB5
 10
-387.036
 20
840.206
 30
0.000000
  70
    32
  0
VERTEX
  8
0
  5
1ACB6
 10
-387.035
 20
840.206
 30
0.000000
  70
    32
  0
VERTEX
  8
0
  5
1ACB7
 10
-387.035
 20
840.207
 30
0.000000
  70
    32
  0
VERTEX
  8
0
  5
1ACB8
 10
-387.034
 20
840.208
 30
0.000000
  70
    32
  0
VERTEX
  8
0
  5
1ACB9
 10
-387.034
 20
840.209
 30
0.000000
  70
    32
  0
VERTEX
  8
0
  5
1ACBA
 10
-387.033
 20
840.209
 30
0.000000
  70
    32
  0
VERTEX
  8
0
  5
1ACBB
 10
-387.032
 20
840.210
 30
0.000000
  70
    32
  0
VERTEX
  8
0
  5
1ACBC
 10
-387.032
 20
840.211
 30
0.000000
  70
    32
  0
VERTEX
  8
0
  5
1ACBD
 10
-387.031
 20
840.212
 30
0.000000
  70
    32
  0
VERTEX
  8
0
  5
1ACBE
 10
-387.031
 20
840.213
 30
0.000000
  70
    32
  0
VERTEX
  8
0
  5
1ACBF
 10
-387.030
 20
840.213
 30
0.000000
  70
    32
  0
VERTEX
  8
0
  5
1ACC0
 10
-387.030
 20
840.214
 30
0.000000
  70
    32
  0
VERTEX
  8
0
  5
1ACC1
 10
-387.029
 20
840.215
 30
0.000000
  70
    32
  0
VERTEX
  8
0
  5
1ACC2
 10
-387.029
 20
840.216
 30
0.000000
  70
    32
  0
VERTEX
  8
0
  5
1ACC3
 10
-387.028
 20
840.217
 30
0.000000
  70
    32
  0
VERTEX
  8
0
  5
1ACC4
 10
-387.028
 20
840.218
 30
0.000000
  70
    32
  0
VERTEX
  8
0
  5
1ACC5
 10
-387.028
 20
840.218
 30
0.000000
  70
    32
  0
VERTEX
  8
0
  5
1ACC6
 10
-387.027
 20
840.219
 30
0.000000
  70
    32
  0
VERTEX
  8
0
  5
1ACC7
 10
-387.027
 20
840.220
 30
0.000000
  70
    32
  0
VERTEX
  8
0
  5
1ACC8
 10
-387.026
 20
840.221
 30
0.000000
  70
    32
  0
VERTEX
  8
0
  5
1ACC9
 10
-387.026
 20
840.222
 30
0.000000
  70
    32
  0
VERTEX
  8
0
  5
1ACCA
 10
-387.025
 20
840.223
 30
0.000000
  70
    32
  0
VERTEX
  8
0
  5
1ACCB
 10
-387.025
 20
840.224
 30
0.000000
  70
    32
  0
VERTEX
  8
0
  5
1ACCC
 10
-387.025
 20
840.225
 30
0.000000
  70
    32
  0
VERTEX
  8
0
  5
1ACCD
 10
-387.024
 20
840.226
 30
0.000000
  70
    32
  0
VERTEX
  8
0
  5
1ACCE
 10
-387.024
 20
840.226
 30
0.000000
  70
    32
  0
VERTEX
  8
0
  5
1ACCF
 10
-387.024
 20
840.227
 30
0.000000
  70
    32
  0
VERTEX
  8
0
  5
1ACD0
 10
-387.023
 20
840.228
 30
0.000000
  70
    32
  0
VERTEX
  8
0
  5
1ACD1
 10
-387.023
 20
840.229
 30
0.000000
  70
    32
  0
VERTEX
  8
0
  5
1ACD2
 10
-387.023
 20
840.230
 30
0.000000
  70
    32
  0
VERTEX
  8
0
  5
1ACD3
 10
-387.023
 20
840.231
 30
0.000000
  70
    32
  0
VERTEX
  8
0
  5
1ACD4
 10
-387.022
 20
840.232
 30
0.000000
  70
    32
  0
VERTEX
  8
0
  5
1ACD5
 10
-387.022
 20
840.233
 30
0.000000
  70
    32
  0
VERTEX
  8
0
  5
1ACD6
 10
-387.022
 20
840.234
 30
0.000000
  70
    32
  0
VERTEX
  8
0
  5
1ACD7
 10
-387.022
 20
840.235
 30
0.000000
  70
    32
  0
VERTEX
  8
0
  5
1ACD8
 10
-387.021
 20
840.236
 30
0.000000
  70
    32
  0
VERTEX
  8
0
  5
1ACD9
 10
-387.021
 20
840.237
 30
0.000000
  70
    32
  0
VERTEX
  8
0
  5
1ACDA
 10
-387.021
 20
840.238
 30
0.000000
  70
    32
  0
VERTEX
  8
0
  5
1ACDB
 10
-387.021
 20
840.239
 30
0.000000
  70
    32
  0
VERTEX
  8
0
  5
1ACDC
 10
-387.021
 20
840.240
 30
0.000000
  70
    32
  0
VERTEX
  8
0
  5
1ACDD
 10
-387.020
 20
840.241
 30
0.000000
  70
    32
  0
VERTEX
  8
0
  5
1ACDE
 10
-387.020
 20
840.242
 30
0.000000
  70
    32
  0
VERTEX
  8
0
  5
1ACDF
 10
-387.020
 20
840.243
 30
0.000000
  70
    32
  0
VERTEX
  8
0
  5
1ACE0
 10
-387.020
 20
840.244
 30
0.000000
  70
    32
  0
VERTEX
  8
0
  5
1ACE1
 10
-387.020
 20
840.245
 30
0.000000
  70
    32
  0
VERTEX
  8
0
  5
1ACE2
 10
-387.020
 20
840.246
 30
0.000000
  70
    32
  0
VERTEX
  8
0
  5
1ACE3
 10
-387.020
 20
840.247
 30
0.000000
  70
    32
  0
VERTEX
  8
0
  5
1ACE4
 10
-387.020
 20
840.248
 30
0.000000
  70
    32
  0
VERTEX
  8
0
  5
1ACE5
 10
-387.020
 20
840.249
 30
0.000000
  70
    32
  0
VERTEX
  8
0
  5
1ACE6
 10
-387.020
 20
840.250
 30
0.000000
  70
    32
  0
VERTEX
  8
0
  5
1ACE7
 10
-387.020
 20
840.251
 30
0.000000
  70
    32
  0
VERTEX
  8
0
  5
1ACE8
 10
-387.020
 20
840.252
 30
0.000000
  70
    32
  0
VERTEX
  8
0
  5
1ACE9
 10
-387.020
 20
840.253
 30
0.000000
  70
    32
  0
VERTEX
  8
0
  5
1ACEA
 10
-387.020
 20
840.254
 30
0.000000
  70
    32
  0
VERTEX
  8
0
  5
1ACEB
 10
-387.020
 20
840.254
 30
0.000000
  70
    32
  0
VERTEX
  8
0
  5
1ACEC
 10
-387.020
 20
840.255
 30
0.000000
  70
    32
  0
VERTEX
  8
0
  5
1ACED
 10
-387.021
 20
840.256
 30
0.000000
  70
    32
  0
VERTEX
  8
0
  5
1ACEE
 10
-387.021
 20
840.257
 30
0.000000
  70
    32
  0
VERTEX
  8
0
  5
1ACEF
 10
-387.021
 20
840.258
 30
0.000000
  70
    32
  0
VERTEX
  8
0
  5
1ACF0
 10
-387.021
 20
840.259
 30
0.000000
  70
    32
  0
VERTEX
  8
0
  5
1ACF1
 10
-387.021
 20
840.260
 30
0.000000
  70
    32
  0
VERTEX
  8
0
  5
1ACF2
 10
-387.022
 20
840.261
 30
0.000000
  70
    32
  0
VERTEX
  8
0
  5
1ACF3
 10
-387.022
 20
840.262
 30
0.000000
  70
    32
  0
VERTEX
  8
0
  5
1ACF4
 10
-387.022
 20
840.263
 30
0.000000
  70
    32
  0
VERTEX
  8
0
  5
1ACF5
 10
-387.022
 20
840.264
 30
0.000000
  70
    32
  0
VERTEX
  8
0
  5
1ACF6
 10
-387.023
 20
840.265
 30
0.000000
  70
    32
  0
VERTEX
  8
0
  5
1ACF7
 10
-387.023
 20
840.265
 30
0.000000
  70
    32
  0
VERTEX
  8
0
  5
1ACF8
 10
-387.024
 20
840.266
 30
0.000000
  70
    32
  0
VERTEX
  8
0
  5
1ACF9
 10
-387.024
 20
840.267
 30
0.000000
  70
    32
  0
VERTEX
  8
0
  5
1ACFA
 10
-387.024
 20
840.268
 30
0.000000
  70
    32
  0
VERTEX
  8
0
  5
1ACFB
 10
-387.025
 20
840.269
 30
0.000000
  70
    32
  0
VERTEX
  8
0
  5
1ACFC
 10
-387.025
 20
840.269
 30
0.000000
  70
    32
  0
VERTEX
  8
0
  5
1ACFD
 10
-387.026
 20
840.270
 30
0.000000
  70
    32
  0
VERTEX
  8
0
  5
1ACFE
 10
-387.026
 20
840.271
 30
0.000000
  70
    32
  0
VERTEX
  8
0
  5
1ACFF
 10
-387.027
 20
840.272
 30
0.000000
  70
    32
  0
VERTEX
  8
0
  5
1AD00
 10
-387.027
 20
840.272
 30
0.000000
  70
    32
  0
VERTEX
  8
0
  5
1AD01
 10
-387.028
 20
840.273
 30
0.000000
  70
    32
  0
VERTEX
  8
0
  5
1AD02
 10
-387.029
 20
840.274
 30
0.000000
  70
    32
  0
VERTEX
  8
0
  5
1AD03
 10
-387.029
 20
840.275
 30
0.000000
  70
    32
  0
VERTEX
  8
0
  5
1AD04
 10
-387.030
 20
840.275
 30
0.000000
  70
    32
  0
VERTEX
  8
0
  5
1AD05
 10
-387.031
 20
840.276
 30
0.000000
  70
    32
  0
VERTEX
  8
0
  5
1AD06
 10
-387.031
 20
840.277
 30
0.000000
  70
    32
  0
VERTEX
  8
0
  5
1AD07
 10
-387.032
 20
840.277
 30
0.000000
  70
    32
  0
VERTEX
  8
0
  5
1AD08
 10
-387.033
 20
840.278
 30
0.000000
  70
    32
  0
VERTEX
  8
0
  5
1AD09
 10
-387.033
 20
840.279
 30
0.000000
  70
    32
  0
VERTEX
  8
0
  5
1AD0A
 10
-387.034
 20
840.279
 30
0.000000
  70
    32
  0
VERTEX
  8
0
  5
1AD0B
 10
-387.035
 20
840.280
 30
0.000000
  70
    32
  0
VERTEX
  8
0
  5
1AD0C
 10
-387.036
 20
840.280
 30
0.000000
  70
    32
  0
VERTEX
  8
0
  5
1AD0D
 10
-387.036
 20
840.281
 30
0.000000
  70
    32
  0
VERTEX
  8
0
  5
1AD0E
 10
-387.037
 20
840.282
 30
0.000000
  70
    32
  0
VERTEX
  8
0
  5
1AD0F
 10
-387.038
 20
840.282
 30
0.000000
  70
    32
  0
VERTEX
  8
0
  5
1AD10
 10
-387.039
 20
840.283
 30
0.000000
  70
    32
  0
VERTEX
  8
0
  5
1AD11
 10
-387.040
 20
840.283
 30
0.000000
  70
    32
  0
VERTEX
  8
0
  5
1AD12
 10
-387.040
 20
840.284
 30
0.000000
  70
    32
  0
VERTEX
  8
0
  5
1AD13
 10
-387.041
 20
840.284
 30
0.000000
  70
    32
  0
VERTEX
  8
0
  5
1AD14
 10
-387.042
 20
840.285
 30
0.000000
  70
    32
  0
VERTEX
  8
0
  5
1AD15
 10
-387.043
 20
840.286
 30
0.000000
  70
    32
  0
VERTEX
  8
0
  5
1AD16
 10
-387.044
 20
840.286
 30
0.000000
  70
    32
  0
VERTEX
  8
0
  5
1AD17
 10
-387.045
 20
840.287
 30
0.000000
  70
    32
  0
VERTEX
  8
0
  5
1AD18
 10
-387.045
 20
840.287
 30
0.000000
  70
    32
  0
VERTEX
  8
0
  5
1AD19
 10
-387.046
 20
840.288
 30
0.000000
  70
    32
  0
VERTEX
  8
0
  5
1AD1A
 10
-387.047
 20
840.288
 30
0.000000
  70
    32
  0
VERTEX
  8
0
  5
1AD1B
 10
-387.048
 20
840.289
 30
0.000000
  70
    32
  0
VERTEX
  8
0
  5
1AD1C
 10
-387.049
 20
840.289
 30
0.000000
  70
    32
  0
VERTEX
  8
0
  5
1AD1D
 10
-387.050
 20
840.289
 30
0.000000
  70
    32
  0
VERTEX
  8
0
  5
1AD1E
 10
-387.051
 20
840.290
 30
0.000000
  70
    32
  0
VERTEX
  8
0
  5
1AD1F
 10
-387.051
 20
840.290
 30
0.000000
  70
    32
  0
VERTEX
  8
0
  5
1AD20
 10
-387.052
 20
840.291
 30
0.000000
  70
    32
  0
VERTEX
  8
0
  5
1AD21
 10
-387.053
 20
840.291
 30
0.000000
  70
    32
  0
VERTEX
  8
0
  5
1AD22
 10
-387.054
 20
840.292
 30
0.000000
  70
    32
  0
VERTEX
  8
0
  5
1AD23
 10
-387.055
 20
840.292
 30
0.000000
  70
    32
  0
VERTEX
  8
0
  5
1AD24
 10
-387.056
 20
840.293
 30
0.000000
  70
    32
  0
VERTEX
  8
0
  5
1AD25
 10
-387.057
 20
840.293
 30
0.000000
  70
    32
  0
VERTEX
  8
0
  5
1AD26
 10
-387.057
 20
840.293
 30
0.000000
  70
    32
  0
VERTEX
  8
0
  5
1AD27
 10
-387.058
 20
840.294
 30
0.000000
  70
    32
  0
VERTEX
  8
0
  5
1AD28
 10
-387.059
 20
840.294
 30
0.000000
  70
    32
  0
VERTEX
  8
0
  5
1AD29
 10
-387.060
 20
840.295
 30
0.000000
  70
    32
  0
VERTEX
  8
0
  5
1AD2A
 10
-387.061
 20
840.295
 30
0.000000
  70
    32
  0
VERTEX
  8
0
  5
1AD2B
 10
-387.062
 20
840.296
 30
0.000000
  70
    32
  0
VERTEX
  8
0
  5
1AD2C
 10
-387.063
 20
840.296
 30
0.000000
  70
    32
  0
VERTEX
  8
0
  5
1AD2D
 10
-387.064
 20
840.296
 30
0.000000
  70
    32
  0
VERTEX
  8
0
  5
1AD2E
 10
-387.064
 20
840.297
 30
0.000000
  70
    32
  0
VERTEX
  8
0
  5
1AD2F
 10
-387.065
 20
840.297
 30
0.000000
  70
    32
  0
VERTEX
  8
0
  5
1AD30
 10
-387.066
 20
840.298
 30
0.000000
  70
    32
  0
VERTEX
  8
0
  5
1AD31
 10
-387.067
 20
840.298
 30
0.000000
  70
    32
  0
VERTEX
  8
0
  5
1AD32
 10
-387.068
 20
840.298
 30
0.000000
  70
    32
  0
VERTEX
  8
0
  5
1AD33
 10
-387.069
 20
840.299
 30
0.000000
  70
    32
  0
VERTEX
  8
0
  5
1AD34
 10
-387.070
 20
840.299
 30
0.000000
  70
    32
  0
VERTEX
  8
0
  5
1AD35
 10
-387.070
 20
840.300
 30
0.000000
  70
    32
  0
VERTEX
  8
0
  5
1AD36
 10
-387.071
 20
840.300
 30
0.000000
  70
    32
  0
VERTEX
  8
0
  5
1AD37
 10
-387.072
 20
840.300
 30
0.000000
  70
    32
  0
VERTEX
  8
0
  5
1AD38
 10
-387.073
 20
840.301
 30
0.000000
  70
    32
  0
VERTEX
  8
0
  5
1AD39
 10
-387.074
 20
840.301
 30
0.000000
  70
    32
  0
VERTEX
  8
0
  5
1AD3A
 10
-387.075
 20
840.302
 30
0.000000
  70
    32
  0
VERTEX
  8
0
  5
1AD3B
 10
-387.075
 20
840.302
 30
0.000000
  70
    32
  0
VERTEX
  8
0
  5
1AD3C
 10
-387.076
 20
840.302
 30
0.000000
  70
    32
  0
VERTEX
  8
0
  5
1AD3D
 10
-387.077
 20
840.303
 30
0.000000
  70
    32
  0
VERTEX
  8
0
  5
1AD3E
 10
-387.078
 20
840.303
 30
0.000000
  70
    32
  0
VERTEX
  8
0
  5
1AD3F
 10
-387.079
 20
840.304
 30
0.000000
  70
    32
  0
VERTEX
  8
0
  5
1AD40
 10
-387.080
 20
840.304
 30
0.000000
  70
    32
  0
VERTEX
  8
0
  5
1AD41
 10
-387.080
 20
840.304
 30
0.000000
  70
    32
  0
VERTEX
  8
0
  5
1AD42
 10
-387.081
 20
840.305
 30
0.000000
  70
    32
  0
VERTEX
  8
0
  5
1AD43
 10
-387.082
 20
840.305
 30
0.000000
  70
    32
  0
VERTEX
  8
0
  5
1AD44
 10
-387.083
 20
840.306
 30
0.000000
  70
    32
  0
VERTEX
  8
0
  5
1AD45
 10
-387.084
 20
840.306
 30
0.000000
  70
    32
  0
VERTEX
  8
0
  5
1AD46
 10
-387.085
 20
840.307
 30
0.000000
  70
    32
  0
VERTEX
  8
0
  5
1AD47
 10
-387.085
 20
840.307
 30
0.000000
  70
    32
  0
VERTEX
  8
0
  5
1AD48
 10
-387.086
 20
840.308
 30
0.000000
  70
    32
  0
VERTEX
  8
0
  5
1AD49
 10
-387.087
 20
840.308
 30
0.000000
  70
    32
  0
VERTEX
  8
0
  5
1AD4A
 10
-387.088
 20
840.309
 30
0.000000
  70
    32
  0
VERTEX
  8
0
  5
1AD4B
 10
-387.089
 20
840.309
 30
0.000000
  70
    32
  0
VERTEX
  8
0
  5
1AD4C
 10
-387.089
 20
840.310
 30
0.000000
  70
    32
  0
VERTEX
  8
0
  5
1AD4D
 10
-387.090
 20
840.310
 30
0.000000
  70
    32
  0
VERTEX
  8
0
  5
1AD4E
 10
-387.091
 20
840.311
 30
0.000000
  70
    32
  0
VERTEX
  8
0
  5
1AD4F
 10
-387.092
 20
840.311
 30
0.000000
  70
    32
  0
VERTEX
  8
0
  5
1AD50
 10
-387.093
 20
840.312
 30
0.000000
  70
    32
  0
VERTEX
  8
0
  5
1AD51
 10
-387.093
 20
840.312
 30
0.000000
  70
    32
  0
VERTEX
  8
0
  5
1AD52
 10
-387.094
 20
840.313
 30
0.000000
  70
    32
  0
VERTEX
  8
0
  5
1AD53
 10
-387.095
 20
840.313
 30
0.000000
  70
    32
  0
VERTEX
  8
0
  5
1AD54
 10
-387.096
 20
840.314
 30
0.000000
  70
    32
  0
VERTEX
  8
0
  5
1AD55
 10
-387.096
 20
840.314
 30
0.000000
  70
    32
  0
VERTEX
  8
0
  5
1AD56
 10
-387.097
 20
840.315
 30
0.000000
  70
    32
  0
VERTEX
  8
0
  5
1AD57
 10
-387.098
 20
840.315
 30
0.000000
  70
    32
  0
VERTEX
  8
0
  5
1AD58
 10
-387.099
 20
840.316
 30
0.000000
  70
    32
  0
VERTEX
  8
0
  5
1AD59
 10
-387.099
 20
840.317
 30
0.000000
  70
    32
  0
VERTEX
  8
0
  5
1AD5A
 10
-387.100
 20
840.317
 30
0.000000
  70
    32
  0
VERTEX
  8
0
  5
1AD5B
 10
-387.101
 20
840.318
 30
0.000000
  70
    32
  0
VERTEX
  8
0
  5
1AD5C
 10
-387.102
 20
840.318
 30
0.000000
  70
    32
  0
VERTEX
  8
0
  5
1AD5D
 10
-387.103
 20
840.319
 30
0.000000
  70
    32
  0
VERTEX
  8
0
  5
1AD5E
 10
-387.103
 20
840.319
 30
0.000000
  70
    32
  0
VERTEX
  8
0
  5
1AD5F
 10
-387.104
 20
840.320
 30
0.000000
  70
    32
  0
VERTEX
  8
0
  5
1AD60
 10
-387.105
 20
840.321
 30
0.000000
  70
    32
  0
VERTEX
  8
0
  5
1AD61
 10
-387.106
 20
840.321
 30
0.000000
  70
    32
  0
VERTEX
  8
0
  5
1AD62
 10
-387.106
 20
840.322
 30
0.000000
  70
    32
  0
VERTEX
  8
0
  5
1AD63
 10
-387.107
 20
840.322
 30
0.000000
  70
    32
  0
VERTEX
  8
0
  5
1AD64
 10
-387.108
 20
840.323
 30
0.000000
  70
    32
  0
VERTEX
  8
0
  5
1AD65
 10
-387.109
 20
840.323
 30
0.000000
  70
    32
  0
VERTEX
  8
0
  5
1AD66
 10
-387.109
 20
840.324
 30
0.000000
  70
    32
  0
VERTEX
  8
0
  5
1AD67
 10
-387.110
 20
840.325
 30
0.000000
  70
    32
  0
VERTEX
  8
0
  5
1AD68
 10
-387.111
 20
840.325
 30
0.000000
  70
    32
  0
VERTEX
  8
0
  5
1AD69
 10
-387.112
 20
840.326
 30
0.000000
  70
    32
  0
VERTEX
  8
0
  5
1AD6A
 10
-387.112
 20
840.326
 30
0.000000
  70
    32
  0
VERTEX
  8
0
  5
1AD6B
 10
-387.113
 20
840.327
 30
0.000000
  70
    32
  0
VERTEX
  8
0
  5
1AD6C
 10
-387.114
 20
840.328
 30
0.000000
  70
    32
  0
VERTEX
  8
0
  5
1AD6D
 10
-387.114
 20
840.328
 30
0.000000
  70
    32
  0
VERTEX
  8
0
  5
1AD6E
 10
-387.115
 20
840.329
 30
0.000000
  70
    32
  0
VERTEX
  8
0
  5
1AD6F
 10
-387.116
 20
840.329
 30
0.000000
  70
    32
  0
VERTEX
  8
0
  5
1AD70
 10
-387.117
 20
840.330
 30
0.000000
  70
    32
  0
VERTEX
  8
0
  5
1AD71
 10
-387.117
 20
840.331
 30
0.000000
  70
    32
  0
VERTEX
  8
0
  5
1AD72
 10
-387.118
 20
840.331
 30
0.000000
  70
    32
  0
VERTEX
  8
0
  5
1AD73
 10
-387.119
 20
840.332
 30
0.000000
  70
    32
  0
VERTEX
  8
0
  5
1AD74
 10
-387.120
 20
840.332
 30
0.000000
  70
    32
  0
VERTEX
  8
0
  5
1AD75
 10
-387.120
 20
840.333
 30
0.000000
  70
    32
  0
VERTEX
  8
0
  5
1AD76
 10
-387.121
 20
840.334
 30
0.000000
  70
    32
  0
VERTEX
  8
0
  5
1AD77
 10
-387.122
 20
840.334
 30
0.000000
  70
    32
  0
VERTEX
  8
0
  5
1AD78
 10
-387.123
 20
840.335
 30
0.000000
  70
    32
  0
VERTEX
  8
0
  5
1AD79
 10
-387.123
 20
840.335
 30
0.000000
  70
    32
  0
VERTEX
  8
0
  5
1AD7A
 10
-387.124
 20
840.336
 30
0.000000
  70
    32
  0
VERTEX
  8
0
  5
1AD7B
 10
-387.125
 20
840.337
 30
0.000000
  70
    32
  0
VERTEX
  8
0
  5
1AD7C
 10
-387.126
 20
840.337
 30
0.000000
  70
    32
  0
VERTEX
  8
0
  5
1AD7D
 10
-387.126
 20
840.338
 30
0.000000
  70
    32
  0
VERTEX
  8
0
  5
1AD7E
 10
-387.127
 20
840.339
 30
0.000000
  70
    32
  0
VERTEX
  8
0
  5
1AD7F
 10
-387.128
 20
840.339
 30
0.000000
  70
    32
  0
VERTEX
  8
0
  5
1AD80
 10
-387.129
 20
840.340
 30
0.000000
  70
    32
  0
VERTEX
  8
0
  5
1AD81
 10
-387.129
 20
840.340
 30
0.000000
  70
    32
  0
VERTEX
  8
0
  5
1AD82
 10
-387.130
 20
840.341
 30
0.000000
  70
    32
  0
VERTEX
  8
0
  5
1AD83
 10
-387.131
 20
840.342
 30
0.000000
  70
    32
  0
VERTEX
  8
0
  5
1AD84
 10
-387.131
 20
840.342
 30
0.000000
  70
    32
  0
VERTEX
  8
0
  5
1AD85
 10
-387.132
 20
840.343
 30
0.000000
  70
    32
  0
VERTEX
  8
0
  5
1AD86
 10
-387.133
 20
840.343
 30
0.000000
  70
    32
  0
VERTEX
  8
0
  5
1AD87
 10
-387.134
 20
840.344
 30
0.000000
  70
    32
  0
VERTEX
  8
0
  5
1AD88
 10
-387.134
 20
840.345
 30
0.000000
  70
    32
  0
VERTEX
  8
0
  5
1AD89
 10
-387.135
 20
840.345
 30
0.000000
  70
    32
  0
VERTEX
  8
0
  5
1AD8A
 10
-387.136
 20
840.346
 30
0.000000
  70
    32
  0
VERTEX
  8
0
  5
1AD8B
 10
-387.136
 20
840.347
 30
0.000000
  70
    32
  0
VERTEX
  8
0
  5
1AD8C
 10
-387.137
 20
840.347
 30
0.000000
  70
    32
  0
VERTEX
  8
0
  5
1AD8D
 10
-387.138
 20
840.348
 30
0.000000
  70
    32
  0
VERTEX
  8
0
  5
1AD8E
 10
-387.138
 20
840.349
 30
0.000000
  70
    32
  0
VERTEX
  8
0
  5
1AD8F
 10
-387.139
 20
840.349
 30
0.000000
  70
    32
  0
VERTEX
  8
0
  5
1AD90
 10
-387.140
 20
840.350
 30
0.000000
  70
    32
  0
VERTEX
  8
0
  5
1AD91
 10
-387.140
 20
840.351
 30
0.000000
  70
    32
  0
VERTEX
  8
0
  5
1AD92
 10
-387.141
 20
840.351
 30
0.000000
  70
    32
  0
VERTEX
  8
0
  5
1AD93
 10
-387.142
 20
840.352
 30
0.000000
  70
    32
  0
VERTEX
  8
0
  5
1AD94
 10
-387.142
 20
840.353
 30
0.000000
  70
    32
  0
VERTEX
  8
0
  5
1AD95
 10
-387.143
 20
840.353
 30
0.000000
  70
    32
  0
VERTEX
  8
0
  5
1AD96
 10
-387.144
 20
840.354
 30
0.000000
  70
    32
  0
VERTEX
  8
0
  5
1AD97
 10
-387.144
 20
840.355
 30
0.000000
  70
    32
  0
VERTEX
  8
0
  5
1AD98
 10
-387.145
 20
840.356
 30
0.000000
  70
    32
  0
VERTEX
  8
0
  5
1AD99
 10
-387.145
 20
840.356
 30
0.000000
  70
    32
  0
VERTEX
  8
0
  5
1AD9A
 10
-387.146
 20
840.357
 30
0.000000
  70
    32
  0
VERTEX
  8
0
  5
1AD9B
 10
-387.147
 20
840.358
 30
0.000000
  70
    32
  0
VERTEX
  8
0
  5
1AD9C
 10
-387.147
 20
840.358
 30
0.000000
  70
    32
  0
VERTEX
  8
0
  5
1AD9D
 10
-387.148
 20
840.359
 30
0.000000
  70
    32
  0
VERTEX
  8
0
  5
1AD9E
 10
-387.148
 20
840.360
 30
0.000000
  70
    32
  0
VERTEX
  8
0
  5
1AD9F
 10
-387.149
 20
840.361
 30
0.000000
  70
    32
  0
VERTEX
  8
0
  5
1ADA0
 10
-387.150
 20
840.361
 30
0.000000
  70
    32
  0
VERTEX
  8
0
  5
1ADA1
 10
-387.150
 20
840.362
 30
0.000000
  70
    32
  0
VERTEX
  8
0
  5
1ADA2
 10
-387.151
 20
840.363
 30
0.000000
  70
    32
  0
VERTEX
  8
0
  5
1ADA3
 10
-387.151
 20
840.364
 30
0.000000
  70
    32
  0
VERTEX
  8
0
  5
1ADA4
 10
-387.152
 20
840.365
 30
0.000000
  70
    32
  0
VERTEX
  8
0
  5
1ADA5
 10
-387.152
 20
840.365
 30
0.000000
  70
    32
  0
VERTEX
  8
0
  5
1ADA6
 10
-387.153
 20
840.366
 30
0.000000
  70
    32
  0
VERTEX
  8
0
  5
1ADA7
 10
-387.153
 20
840.367
 30
0.000000
  70
    32
  0
VERTEX
  8
0
  5
1ADA8
 10
-387.154
 20
840.368
 30
0.000000
  70
    32
  0
VERTEX
  8
0
  5
1ADA9
 10
-387.154
 20
840.369
 30
0.000000
  70
    32
  0
VERTEX
  8
0
  5
1ADAA
 10
-387.155
 20
840.369
 30
0.000000
  70
    32
  0
VERTEX
  8
0
  5
1ADAB
 10
-387.155
 20
840.370
 30
0.000000
  70
    32
  0
VERTEX
  8
0
  5
1ADAC
 10
-387.156
 20
840.371
 30
0.000000
  70
    32
  0
VERTEX
  8
0
  5
1ADAD
 10
-387.156
 20
840.372
 30
0.000000
  70
    32
  0
VERTEX
  8
0
  5
1ADAE
 10
-387.157
 20
840.373
 30
0.000000
  70
    32
  0
VERTEX
  8
0
  5
1ADAF
 10
-387.157
 20
840.374
 30
0.000000
  70
    32
  0
VERTEX
  8
0
  5
1ADB0
 10
-387.158
 20
840.374
 30
0.000000
  70
    32
  0
VERTEX
  8
0
  5
1ADB1
 10
-387.158
 20
840.375
 30
0.000000
  70
    32
  0
VERTEX
  8
0
  5
1ADB2
 10
-387.159
 20
840.376
 30
0.000000
  70
    32
  0
VERTEX
  8
0
  5
1ADB3
 10
-387.159
 20
840.377
 30
0.000000
  70
    32
  0
VERTEX
  8
0
  5
1ADB4
 10
-387.159
 20
840.378
 30
0.000000
  70
    32
  0
VERTEX
  8
0
  5
1ADB5
 10
-387.160
 20
840.379
 30
0.000000
  70
    32
  0
VERTEX
  8
0
  5
1ADB6
 10
-387.160
 20
840.380
 30
0.000000
  70
    32
  0
VERTEX
  8
0
  5
1ADB7
 10
-387.161
 20
840.380
 30
0.000000
  70
    32
  0
VERTEX
  8
0
  5
1ADB8
 10
-387.161
 20
840.381
 30
0.000000
  70
    32
  0
VERTEX
  8
0
  5
1ADB9
 10
-387.161
 20
840.382
 30
0.000000
  70
    32
  0
VERTEX
  8
0
  5
1ADBA
 10
-387.162
 20
840.383
 30
0.000000
  70
    32
  0
VERTEX
  8
0
  5
1ADBB
 10
-387.162
 20
840.384
 30
0.000000
  70
    32
  0
VERTEX
  8
0
  5
1ADBC
 10
-387.162
 20
840.385
 30
0.000000
  70
    32
  0
VERTEX
  8
0
  5
1ADBD
 10
-387.163
 20
840.386
 30
0.000000
  70
    32
  0
VERTEX
  8
0
  5
1ADBE
 10
-387.163
 20
840.387
 30
0.000000
  70
    32
  0
VERTEX
  8
0
  5
1ADBF
 10
-387.163
 20
840.388
 30
0.000000
  70
    32
  0
VERTEX
  8
0
  5
1ADC0
 10
-387.164
 20
840.388
 30
0.000000
  70
    32
  0
VERTEX
  8
0
  5
1ADC1
 10
-387.164
 20
840.389
 30
0.000000
  70
    32
  0
VERTEX
  8
0
  5
1ADC2
 10
-387.164
 20
840.390
 30
0.000000
  70
    32
  0
VERTEX
  8
0
  5
1ADC3
 10
-387.164
 20
840.391
 30
0.000000
  70
    32
  0
VERTEX
  8
0
  5
1ADC4
 10
-387.165
 20
840.392
 30
0.000000
  70
    32
  0
VERTEX
  8
0
  5
1ADC5
 10
-387.165
 20
840.393
 30
0.000000
  70
    32
  0
VERTEX
  8
0
  5
1ADC6
 10
-387.165
 20
840.394
 30
0.000000
  70
    32
  0
VERTEX
  8
0
  5
1ADC7
 10
-387.165
 20
840.395
 30
0.000000
  70
    32
  0
VERTEX
  8
0
  5
1ADC8
 10
-387.165
 20
840.396
 30
0.000000
  70
    32
  0
VERTEX
  8
0
  5
1ADC9
 10
-387.166
 20
840.397
 30
0.000000
  70
    32
  0
VERTEX
  8
0
  5
1ADCA
 10
-387.166
 20
840.398
 30
0.000000
  70
    32
  0
VERTEX
  8
0
  5
1ADCB
 10
-387.166
 20
840.399
 30
0.000000
  70
    32
  0
VERTEX
  8
0
  5
1ADCC
 10
-387.166
 20
840.399
 30
0.000000
  70
    32
  0
VERTEX
  8
0
  5
1ADCD
 10
-387.166
 20
840.400
 30
0.000000
  70
    32
  0
VERTEX
  8
0
  5
1ADCE
 10
-387.167
 20
840.401
 30
0.000000
  70
    32
  0
VERTEX
  8
0
  5
1ADCF
 10
-387.167
 20
840.402
 30
0.000000
  70
    32
  0
VERTEX
  8
0
  5
1ADD0
 10
-387.167
 20
840.403
 30
0.000000
  70
    32
  0
VERTEX
  8
0
  5
1ADD1
 10
-387.167
 20
840.404
 30
0.000000
  70
    32
  0
VERTEX
  8
0
  5
1ADD2
 10
-387.167
 20
840.405
 30
0.000000
  70
    32
  0
VERTEX
  8
0
  5
1ADD3
 10
-387.167
 20
840.406
 30
0.000000
  70
    32
  0
VERTEX
  8
0
  5
1ADD4
 10
-387.167
 20
840.407
 30
0.000000
  70
    32
  0
VERTEX
  8
0
  5
1ADD5
 10
-387.167
 20
840.408
 30
0.000000
  70
    32
  0
VERTEX
  8
0
  5
1ADD6
 10
-387.168
 20
840.409
 30
0.000000
  70
    32
  0
VERTEX
  8
0
  5
1ADD7
 10
-387.168
 20
840.410
 30
0.000000
  70
    32
  0
VERTEX
  8
0
  5
1ADD8
 10
-387.168
 20
840.411
 30
0.000000
  70
    32
  0
VERTEX
  8
0
  5
1ADD9
 10
-387.168
 20
840.412
 30
0.000000
  70
    32
  0
VERTEX
  8
0
  5
1ADDA
 10
-387.168
 20
840.413
 30
0.000000
  70
    32
  0
VERTEX
  8
0
  5
1ADDB
 10
-387.168
 20
840.414
 30
0.000000
  70
    32
  0
VERTEX
  8
0
  5
1ADDC
 10
-387.168
 20
840.414
 30
0.000000
  70
    32
  0
VERTEX
  8
0
  5
1ADDD
 10
-387.168
 20
840.415
 30
0.000000
  70
    32
  0
VERTEX
  8
0
  5
1ADDE
 10
-387.168
 20
840.416
 30
0.000000
  70
    32
  0
VERTEX
  8
0
  5
1ADDF
 10
-387.168
 20
840.417
 30
0.000000
  70
    32
  0
VERTEX
  8
0
  5
1ADE0
 10
-387.168
 20
840.418
 30
0.000000
  70
    32
  0
VERTEX
  8
0
  5
1ADE1
 10
-387.168
 20
840.419
 30
0.000000
  70
    32
  0
VERTEX
  8
0
  5
1ADE2
 10
-387.168
 20
840.420
 30
0.000000
  70
    32
  0
VERTEX
  8
0
  5
1ADE3
 10
-387.168
 20
840.421
 30
0.000000
  70
    32
  0
VERTEX
  8
0
  5
1ADE4
 10
-387.169
 20
840.422
 30
0.000000
  70
    32
  0
VERTEX
  8
0
  5
1ADE5
 10
-387.169
 20
840.423
 30
0.000000
  70
    32
  0
VERTEX
  8
0
  5
1ADE6
 10
-387.169
 20
840.424
 30
0.000000
  70
    32
  0
VERTEX
  8
0
  5
1ADE7
 10
-387.169
 20
840.425
 30
0.000000
  70
    32
  0
VERTEX
  8
0
  5
1ADE8
 10
-387.169
 20
840.426
 30
0.000000
  70
    32
  0
VERTEX
  8
0
  5
1ADE9
 10
-387.169
 20
840.427
 30
0.000000
  70
    32
  0
VERTEX
  8
0
  5
1ADEA
 10
-387.169
 20
840.428
 30
0.000000
  70
    32
  0
VERTEX
  8
0
  5
1ADEB
 10
-387.169
 20
840.429
 30
0.000000
  70
    32
  0
VERTEX
  8
0
  5
1ADEC
 10
-387.169
 20
840.430
 30
0.000000
  70
    32
  0
VERTEX
  8
0
  5
1ADED
 10
-387.169
 20
840.431
 30
0.000000
  70
    32
  0
VERTEX
  8
0
  5
1ADEE
 10
-387.169
 20
840.432
 30
0.000000
  70
    32
  0
VERTEX
  8
0
  5
1ADEF
 10
-387.169
 20
840.433
 30
0.000000
  70
    32
  0
VERTEX
  8
0
  5
1ADF0
 10
-387.169
 20
840.434
 30
0.000000
  70
    32
  0
VERTEX
  8
0
  5
1ADF1
 10
-387.169
 20
840.435
 30
0.000000
  70
    32
  0
VERTEX
  8
0
  5
1ADF2
 10
-387.169
 20
840.436
 30
0.000000
  70
    32
  0
VERTEX
  8
0
  5
1ADF3
 10
-387.169
 20
840.437
 30
0.000000
  70
    32
  0
VERTEX
  8
0
  5
1ADF4
 10
-387.169
 20
840.438
 30
0.000000
  70
    32
  0
VERTEX
  8
0
  5
1ADF5
 10
-387.169
 20
840.438
 30
0.000000
  70
    32
  0
VERTEX
  8
0
  5
1ADF6
 10
-387.169
 20
840.439
 30
0.000000
  70
    32
  0
VERTEX
  8
0
  5
1ADF7
 10
-387.169
 20
840.440
 30
0.000000
  70
    32
  0
VERTEX
  8
0
  5
1ADF8
 10
-387.169
 20
840.441
 30
0.000000
  70
    32
  0
VERTEX
  8
0
  5
1ADF9
 10
-387.169
 20
840.442
 30
0.000000
  70
    32
  0
SEQEND
  8
0
  5
1ADFA
  0
LINE
  5
1A2BD
  8
0
 10
-387.17032457738958
 20
840.15210986373847
 30
0.0
 11
-387.17056413377622
 21
840.15210986373847
 31
0.0
  0
VIEWPORT
  5
BADA
 67
     1
  8
0
 10
5.2498666443542197
 20
4.0168606514874199
 30
0.0
 40
16.259611459837419
 41
8.0159429045697088
 68
     2
 69
     1
1001
ACAD
1000
MVIEW
1002
{
1070
    16
1010
0.0
1020
0.0
1030
0.0
1010
0.0
1020
0.0
1030
1.0
1040
0.0
1040
8.0159429045697088
1040
5.2498666443542197
1040
4.0168606514874199
1040
50.0
1040
0.0
1040
0.0
1070
     0
1070
   100
1070
     1
1070
     1
1070
     0
1070
     0
1070
     0
1070
     0
1040
0.0
1040
0.0
1040
0.0
1040
0.5
1040
0.5
1040
0.5
1040
0.5
1070
     0
1002
{
1002
}
1002
}
  0
VIEWPORT
  5
BADD
 67
     1
  8
0
 10
5.249999629487192
 20
4.0166741807634683
 30
0.0
 40
10.44245679893058
 41
7.8813805131999892
 68
     1
 69
     2
1001
ACAD
1000
MVIEW
1002
{
1070
    16
1010
0.0
1020
0.0
1030
0.0
1010
0.0
1020
0.0
1030
1.0
1040
0.0
1040
7.8813805116149052
1040
-385.07765484644949
1040
840.53347721117211
1040
50.0
1040
0.0
1040
0.0
1070
     0
1070
   100
1070
     1
1070
     2
1070
     0
1070
     0
1070
     0
1070
     0
1040
0.0
1040
0.0
1040
0.0
1040
0.5
1040
0.5
1040
0.5
1040
0.5
1070
     0
1002
{
1002
}
1002
}
  0
ENDSEC
  0
EOF
