  0
SECTION
  2
HEADER
  9
$ACADVER
  1
AC1009
  9
$INSBASE
 10
0.0
 20
0.0
 30
0.0
  9
$EXTMIN
 10
-390.21280206415412
 20
834.65667183693085
 30
0.0
  9
$EXTMAX
 10
-380.21353317307199
 20
845.38586254496488
 30
0.0
  9
$LIMMIN
 10
0.0
 20
0.0
  9
$LIMMAX
 10
1500.0
 20
1500.0
  9
$ORTHOMODE
 70
     0
  9
$REGENMODE
 70
     1
  9
$FILLMODE
 70
     1
  9
$QTEXTMODE
 70
     0
  9
$MIRRTEXT
 70
     1
  9
$DRAGMODE
 70
     2
  9
$LTSCALE
 40
1.0
  9
$OSMODE
 70
    37
  9
$ATTMODE
 70
     1
  9
$TEXTSIZE
 40
1.5
  9
$TRACEWID
 40
0.05
  9
$TEXTSTYLE
  7
STANDARD
  9
$CLAYER
  8
0
  9
$CELTYPE
  6
BYLAYER
  9
$CECOLOR
 62
   256
  9
$DIMSCALE
 40
1.0
  9
$DIMASZ
 40
0.75
  9
$DIMEXO
 40
1.5
  9
$DIMDLI
 40
2.0
  9
$DIMRND
 40
0.0
  9
$DIMDLE
 40
0.0
  9
$DIMEXE
 40
1.0
  9
$DIMTP
 40
0.0
  9
$DIMTM
 40
0.0
  9
$DIMTXT
 40
1.5
  9
$DIMCEN
 40
2.0
  9
$DIMTSZ
 40
0.0
  9
$DIMTOL
 70
     0
  9
$DIMLIM
 70
     0
  9
$DIMTIH
 70
     0
  9
$DIMTOH
 70
     0
  9
$DIMSE1
 70
     0
  9
$DIMSE2
 70
     0
  9
$DIMTAD
 70
     1
  9
$DIMZIN
 70
     0
  9
$DIMBLK
  1
ARCHTICK
  9
$DIMASO
 70
     1
  9
$DIMSHO
 70
     1
  9
$DIMPOST
  1
"
  9
$DIMAPOST
  1

  9
$DIMALT
 70
     0
  9
$DIMALTD
 70
     2
  9
$DIMALTF
 40
25.399999999999999
  9
$DIMLFAC
 40
1.0
  9
$DIMTOFL
 70
     0
  9
$DIMTVP
 40
0.0
  9
$DIMTIX
 70
     1
  9
$DIMSOXD
 70
     0
  9
$DIMSAH
 70
     0
  9
$DIMBLK1
  1

  9
$DIMBLK2
  1

  9
$DIMSTYLE
  2
THREE_QUARTER_INCH_SCALE
  9
$DIMCLRD
 70
     0
  9
$DIMCLRE
 70
     0
  9
$DIMCLRT
 70
     0
  9
$DIMTFAC
 40
1.0
  9
$DIMGAP
 40
1.0
  9
$LUNITS
 70
     2
  9
$LUPREC
 70
     4
  9
$SKETCHINC
 40
0.1
  9
$FILLETRAD
 40
0.0
  9
$AUNITS
 70
     0
  9
$AUPREC
 70
     0
  9
$MENU
  1
.
  9
$ELEVATION
 40
0.0
  9
$PELEVATION
 40
0.0
  9
$THICKNESS
 40
0.0
  9
$LIMCHECK
 70
     0
  9
$BLIPMODE
 70
     0
  9
$CHAMFERA
 40
0.5
  9
$CHAMFERB
 40
0.5
  9
$SKPOLY
 70
     0
  9
$TDCREATE
 40
2452089.395738773
  9
$TDUPDATE
 40
2453612.4325321871
  9
$TDINDWG
 40
1.1139043286999999
  9
$TDUSRTIMER
 40
1.1139039699
  9
$USRTIMER
 70
     1
  9
$ANGBASE
 50
0.0
  9
$ANGDIR
 70
     0
  9
$PDMODE
 70
     0
  9
$PDSIZE
 40
10.0
  9
$PLINEWID
 40
0.0
  9
$COORDS
 70
     1
  9
$SPLFRAME
 70
     0
  9
$SPLINETYPE
 70
     6
  9
$SPLINESEGS
 70
     8
  9
$ATTDIA
 70
     0
  9
$ATTREQ
 70
     1
  9
$HANDLING
 70
     1
  9
$HANDSEED
  5
1AB20
  9
$SURFTAB1
 70
     6
  9
$SURFTAB2
 70
     6
  9
$SURFTYPE
 70
     6
  9
$SURFU
 70
     6
  9
$SURFV
 70
     6
  9
$UCSNAME
  2

  9
$UCSORG
 10
0.0
 20
0.0
 30
0.0
  9
$UCSXDIR
 10
1.0
 20
0.0
 30
0.0
  9
$UCSYDIR
 10
0.0
 20
1.0
 30
0.0
  9
$PUCSNAME
  2

  9
$PUCSORG
 10
0.0
 20
0.0
 30
0.0
  9
$PUCSXDIR
 10
1.0
 20
0.0
 30
0.0
  9
$PUCSYDIR
 10
0.0
 20
1.0
 30
0.0
  9
$USERI1
 70
     0
  9
$USERI2
 70
     0
  9
$USERI3
 70
     0
  9
$USERI4
 70
     0
  9
$USERI5
 70
     0
  9
$USERR1
 40
0.0
  9
$USERR2
 40
0.0
  9
$USERR3
 40
0.0
  9
$USERR4
 40
0.0
  9
$USERR5
 40
0.0
  9
$WORLDVIEW
 70
     1
  9
$SHADEDGE
 70
     3
  9
$SHADEDIF
 70
    70
  9
$TILEMODE
 70
     0
  9
$MAXACTVP
 70
    64
  9
$PLIMCHECK
 70
     0
  9
$PEXTMIN
 10
0.0280982296770773
 20
0.0758747945053777
 30
-0.0000000000112498
  9
$PEXTMAX
 10
10.47163505903136
 20
7.9578465084694647
 30
0.0000000000002956
  9
$PLIMMIN
 10
-0.1682389550263349
 20
-0.2033427855578579
  9
$PLIMMAX
 10
10.754640548407011
 20
8.2370640492290015
  9
$UNITMODE
 70
     0
  9
$VISRETAIN
 70
     1
  9
$PLINEGEN
 70
     0
  9
$PSLTSCALE
 70
     1
  0
ENDSEC
  0
SECTION
  2
TABLES
  0
TABLE
  2
VPORT
 70
     1
  0
VPORT
  2
*ACTIVE
 70
     0
 10
0.0
 20
0.0
 11
1.0
 21
1.0
 12
-386.52380251144001
 22
838.09204166179234
 13
0.0
 23
0.0
 14
0.5
 24
0.5
 15
0.5
 25
0.5
 16
0.0
 26
0.0
 36
1.0
 17
0.0
 27
0.0
 37
0.0
 40
3.930952126162941
 41
2.0226628895184122
 42
50.0
 43
0.0
 44
0.0
 50
0.0
 51
0.0
 71
     0
 72
   100
 73
     1
 74
     2
 75
     0
 76
     0
 77
     0
 78
     0
  0
ENDTAB
  0
TABLE
  2
LTYPE
 70
     2
  0
LTYPE
  2
CONTINUOUS
 70
     0
  3
Solid line
 72
    65
 73
     0
 40
0.0
  0
ENDTAB
  0
TABLE
  2
LAYER
 70
    10
  0
LAYER
  2
0
 70
     0
 62
     7
  6
CONTINUOUS
  0
LAYER
  2
DEFPOINTS
 70
     0
 62
     7
  6
CONTINUOUS
  0
LAYER
  2
FRAME_200
 70
     0
 62
     8
  6
CONTINUOUS
  0
LAYER
  2
FRAME_070
 70
     0
 62
     5
  6
CONTINUOUS
  0
LAYER
  2
FRAME_050
 70
     0
 62
     6
  6
CONTINUOUS
  0
LAYER
  2
TITLE_BLOCK
 70
     0
 62
     7
  6
CONTINUOUS
  0
LAYER
  2
FRAME_025
 70
     0
 62
     7
  6
CONTINUOUS
  0
LAYER
  2
VIEWPORT
 70
     0
 62
     7
  6
CONTINUOUS
  0
LAYER
  2
PROF
 70
     0
 62
     7
  6
CONTINUOUS
  0
LAYER
  2
PROFILE
 70
     0
 62
     7
  6
CONTINUOUS
  0
ENDTAB
  0
TABLE
  2
STYLE
 70
     2
  0
STYLE
  2
STANDARD
 70
     0
 40
0.0
 41
1.0
 50
0.0
 71
     0
 42
1.5
  3
txt
  4

  0
STYLE
  2
ISO_PROPORTIONAL
 70
     0
 40
0.0
 41
1.0
 50
0.0
 71
     0
 42
2.5
  3
isocp.shx
  4

  0
ENDTAB
  0
TABLE
  2
VIEW
 70
     2
  0
ENDTAB
  0
TABLE
  2
UCS
 70
     0
  0
ENDTAB
  0
TABLE
  2
APPID
 70
     6
  0
APPID
  2
ACAD
 70
     0
  0
APPID
  2
DCO15
 70
     0
  0
APPID
  2
ACAD_EXEMPT_FROM_CAD_STANDARDS
 70
     0
  0
APPID
  2
ACAD_PSEXT
 70
     0
  0
APPID
  2
CONTENTBLOCKDESCRIPTION
 70
     0
  0
APPID
  2
CONTENTBLOCKICON
 70
     0
  0
ENDTAB
  0
TABLE
  2
DIMSTYLE
 70
    11
  0
DIMSTYLE
  2
FULL_SCALE
 70
     0
  3
"
  4

  5

  6

  7

 40
1.0
 41
0.046875
 42
0.09375
 43
0.125
 44
0.0625
 45
0.0
 46
0.0
 47
0.0
 48
0.0
140
0.125
141
0.125
142
0.0
143
25.399999999999999
144
1.0
145
0.0
146
1.0
147
0.0625
 71
     0
 72
     0
 73
     0
 74
     0
 75
     0
 76
     0
 77
     1
 78
     0
170
     0
171
     2
172
     0
173
     0
174
     1
175
     0
176
     0
177
     0
178
     0
  0
DIMSTYLE
  2
HALF_SCALE
 70
     0
  3
"
  4

  5

  6

  7

 40
1.0
 41
0.09375
 42
0.1875
 43
0.25
 44
0.125
 45
0.0
 46
0.0
 47
0.0
 48
0.0
140
0.25
141
0.25
142
0.0
143
25.399999999999999
144
1.0
145
0.0
146
1.0
147
0.125
 71
     0
 72
     0
 73
     0
 74
     0
 75
     0
 76
     0
 77
     1
 78
     0
170
     0
171
     2
172
     0
173
     0
174
     1
175
     0
176
     0
177
     0
178
     0
  0
DIMSTYLE
  2
INCH_SCALE
 70
     0
  3
"
  4

  5

  6

  7

 40
1.0
 41
0.5625
 42
1.125
 43
1.5
 44
0.75
 45
0.0
 46
0.0
 47
0.0
 48
0.0
140
1.125
141
1.5
142
0.0
143
25.399999999999999
144
1.0
145
0.0
146
1.0
147
0.75
 71
     0
 72
     0
 73
     0
 74
     0
 75
     0
 76
     0
 77
     1
 78
     0
170
     0
171
     2
172
     0
173
     0
174
     1
175
     0
176
     0
177
     0
178
     0
  0
DIMSTYLE
  2
THREE_QUARTER_INCH_SCALE
 70
     0
  3
"
  4

  5

  6

  7

 40
1.0
 41
0.75
 42
1.5
 43
2.0
 44
1.0
 45
0.0
 46
0.0
 47
0.0
 48
0.0
140
1.5
141
2.0
142
0.0
143
25.399999999999999
144
1.0
145
0.0
146
1.0
147
1.0
 71
     0
 72
     0
 73
     0
 74
     0
 75
     0
 76
     0
 77
     1
 78
     0
170
     0
171
     2
172
     0
173
     0
174
     1
175
     0
176
     0
177
     0
178
     0
  0
DIMSTYLE
  2
ZHALF_INCH_SCALE
 70
     0
  3
"
  4

  5

  6

  7

 40
1.0
 41
1.125
 42
2.25
 43
3.0
 44
1.5
 45
0.0
 46
0.0
 47
0.0
 48
0.0
140
2.25
141
3.0
142
0.0
143
25.399999999999999
144
1.0
145
0.0
146
1.0
147
1.5
 71
     0
 72
     0
 73
     0
 74
     0
 75
     0
 76
     0
 77
     1
 78
     0
170
     0
171
     2
172
     0
173
     0
174
     1
175
     0
176
     0
177
     0
178
     0
  0
DIMSTYLE
  2
FULL_SCALE0
 70
     0
  3
"
  4

  5
ARCHTICK
  6

  7

 40
1.0
 41
0.046875
 42
0.09375
 43
0.125
 44
0.0625
 45
0.0
 46
0.0
 47
0.0
 48
0.0
140
0.125
141
0.125
142
0.0
143
25.399999999999999
144
1.0
145
0.0
146
1.0
147
0.0625
 71
     0
 72
     0
 73
     0
 74
     0
 75
     0
 76
     0
 77
     1
 78
     0
170
     0
171
     2
172
     0
173
     0
174
     1
175
     0
176
     0
177
     0
178
     0
  0
DIMSTYLE
  2
HALF_SCALE0
 70
     0
  3
"
  4

  5
ARCHTICK
  6

  7

 40
1.0
 41
0.09375
 42
0.1875
 43
0.25
 44
0.125
 45
0.0
 46
0.0
 47
0.0
 48
0.0
140
0.25
141
0.25
142
0.0
143
25.399999999999999
144
1.0
145
0.0
146
1.0
147
0.125
 71
     0
 72
     0
 73
     0
 74
     0
 75
     0
 76
     0
 77
     1
 78
     0
170
     0
171
     2
172
     0
173
     0
174
     1
175
     0
176
     0
177
     0
178
     0
  0
DIMSTYLE
  2
INCH_SCALE0
 70
     0
  3
"
  4

  5
ARCHTICK
  6

  7

 40
1.0
 41
0.5625
 42
1.125
 43
1.5
 44
0.75
 45
0.0
 46
0.0
 47
0.0
 48
0.0
140
1.125
141
1.5
142
0.0
143
25.399999999999999
144
1.0
145
0.0
146
1.0
147
0.75
 71
     0
 72
     0
 73
     0
 74
     0
 75
     0
 76
     0
 77
     1
 78
     0
170
     0
171
     2
172
     0
173
     0
174
     1
175
     0
176
     0
177
     0
178
     0
  0
DIMSTYLE
  2
THREE_QUARTER_INCH_SCALE0
 70
     0
  3
"
  4

  5
ARCHTICK
  6

  7

 40
1.0
 41
0.75
 42
1.5
 43
2.0
 44
1.0
 45
0.0
 46
0.0
 47
0.0
 48
0.0
140
1.5
141
2.0
142
0.0
143
25.399999999999999
144
1.0
145
0.0
146
1.0
147
1.0
 71
     0
 72
     0
 73
     0
 74
     0
 75
     0
 76
     0
 77
     1
 78
     0
170
     0
171
     2
172
     0
173
     0
174
     1
175
     0
176
     0
177
     0
178
     0
  0
DIMSTYLE
  2
ZHALF_INCH_SCALE0
 70
     0
  3
"
  4

  5
ARCHTICK
  6

  7

 40
1.0
 41
1.125
 42
2.25
 43
3.0
 44
1.5
 45
0.0
 46
0.0
 47
0.0
 48
0.0
140
2.25
141
3.0
142
0.0
143
25.399999999999999
144
1.0
145
0.0
146
1.0
147
1.5
 71
     0
 72
     0
 73
     0
 74
     0
 75
     0
 76
     0
 77
     1
 78
     0
170
     0
171
     2
172
     0
173
     0
174
     1
175
     0
176
     0
177
     0
178
     0
  0
ENDTAB
  0
ENDSEC
  0
SECTION
  2
BLOCKS
  0
BLOCK
  8
0
  2
$MODEL_SPACE
 70
     0
 10
0.0
 20
0.0
 30
0.0
  3
$MODEL_SPACE
  1

  0
ENDBLK
  5
C9DC
  8
0
  0
BLOCK
 67
     1
  8
0
  2
$PAPER_SPACE
 70
     0
 10
0.0
 20
0.0
 30
0.0
  3
$PAPER_SPACE
  1

  0
ENDBLK
  5
C9D8
 67
     1
  8
0
  0
BLOCK
  8
0
  2
_ARCHTICK
 70
     0
 10
0.0
 20
0.0
 30
0.0
  3
_ARCHTICK
  1

  0
POLYLINE
  5
158
  8
0
  6
BYBLOCK
 62
     0
 66
     1
 10
0.0
 20
0.0
 30
0.0
 40
0.15
 41
0.15
  0
VERTEX
  5
19EEA
  8
0
  6
BYBLOCK
 62
     0
 10
-0.5
 20
-0.5
 30
0.0
  0
VERTEX
  5
19EEB
  8
0
  6
BYBLOCK
 62
     0
 10
0.5
 20
0.5
 30
0.0
  0
SEQEND
  5
19EEC
  8
0
  6
BYBLOCK
 62
     0
  0
ENDBLK
  5
15A
  8
0
  0
BLOCK
  8
0
  2
_OPEN30
 70
     0
 10
0.0
 20
0.0
 30
0.0
  3
_OPEN30
  1

  0
LINE
  5
15C
  8
0
  6
BYBLOCK
 62
     0
 10
-1.0
 20
0.26794919
 30
0.0
 11
0.0
 21
0.0
 31
0.0
  0
LINE
  5
15D
  8
0
  6
BYBLOCK
 62
     0
 10
0.0
 20
0.0
 30
0.0
 11
-1.0
 21
-0.26794919
 31
0.0
  0
LINE
  5
15E
  8
0
  6
BYBLOCK
 62
     0
 10
0.0
 20
0.0
 30
0.0
 11
-1.0
 21
0.0
 31
0.0
  0
ENDBLK
  5
160
  8
0
  0
BLOCK
  8
0
  2
ISO_A2_TITLE_BLOCK
 70
     2
 10
0.0
 20
0.0
 30
0.0
  3
ISO_A2_TITLE_BLOCK
  1

  0
LINE
  5
BDD
  8
FRAME_050
 10
299.5
 20
12.5
 30
0.0
 11
297.0
 21
7.5
 31
0.0
  0
LINE
  5
BDE
  8
FRAME_050
 10
294.5
 20
12.5
 30
0.0
 11
299.5
 21
12.5
 31
0.0
  0
LINE
  5
BDF
  8
FRAME_050
 10
247.0
 20
5.0
 30
0.0
 11
347.0
 21
5.0
 31
0.0
  0
LINE
  5
BE0
  8
FRAME_070
 10
584.0
 20
410.0
 30
0.0
 11
10.0
 21
410.0
 31
0.0
  0
LINE
  5
BE1
  8
FRAME_070
 10
10.0
 20
10.0
 30
0.0
 11
584.0
 21
10.0
 31
0.0
  0
LINE
  5
BE2
  8
FRAME_050
 10
12.5
 20
207.5
 30
0.0
 11
7.5
 21
210.0
 31
0.0
  0
LINE
  5
BE3
  8
FRAME_050
 10
12.5
 20
212.5
 30
0.0
 11
12.5
 21
207.5
 31
0.0
  0
LINE
  5
BE4
  8
FRAME_070
 10
10.0
 20
410.0
 30
0.0
 11
10.0
 21
10.0
 31
0.0
  0
LINE
  5
BE5
  8
FRAME_200
 10
0.0
 20
0.0
 30
0.0
 11
0.0
 21
10.0
 31
0.0
  0
LINE
  5
BE6
  8
FRAME_200
 10
0.0
 20
0.0
 30
0.0
 11
10.0
 21
0.0
 31
0.0
  0
TEXT
  5
BE7
  8
FRAME_050
 10
5.9000000000000004
 20
35.0
 30
0.0
 40
4.0
  1
H
  7
ISO_PROPORTIONAL
 72
     4
 11
7.5
 21
37.0
 31
0.0
  0
LINE
  5
BE8
  8
FRAME_050
 10
10.0
 20
60.0
 30
0.0
 11
5.0
 21
60.0
 31
0.0
  0
LINE
  5
BE9
  8
FRAME_050
 10
81.75
 20
5.0
 30
0.0
 11
81.75
 21
10.0
 31
0.0
  0
TEXT
  5
BEA
  8
FRAME_050
 10
44.874999999999993
 20
5.5
 30
0.0
 40
4.0
  1
1
  7
ISO_PROPORTIONAL
 72
     4
 11
45.875
 21
7.5
 31
0.0
  0
TEXT
  5
BEB
  8
FRAME_050
 10
6.0035533905932743
 20
85.0
 30
0.0
 40
4.0
  1
G
  7
ISO_PROPORTIONAL
 72
     4
 11
7.5
 21
87.0
 31
0.0
  0
LINE
  5
BEC
  8
FRAME_050
 10
10.0
 20
110.0
 30
0.0
 11
5.0
 21
110.0
 31
0.0
  0
TEXT
  5
BED
  8
FRAME_050
 10
6.0999999999999988
 20
135.0
 30
0.0
 40
4.0
  1
F
  7
ISO_PROPORTIONAL
 72
     4
 11
7.5
 21
137.0
 31
0.0
  0
LINE
  5
BEE
  8
FRAME_050
 10
10.0
 20
160.0
 30
0.0
 11
5.0
 21
160.0
 31
0.0
  0
TEXT
  5
BEF
  8
FRAME_050
 10
6.0999999999999988
 20
185.0
 30
0.0
 40
4.0
  1
E
  7
ISO_PROPORTIONAL
 72
     4
 11
7.5
 21
187.0
 31
0.0
  0
LINE
  5
BF0
  8
FRAME_050
 10
153.5
 20
5.0
 30
0.0
 11
153.5
 21
10.0
 31
0.0
  0
TEXT
  5
BF1
  8
FRAME_050
 10
116.1556692913386
 20
5.3996062992125982
 30
0.0
 40
4.0
  1
2
  7
ISO_PROPORTIONAL
 72
     4
 11
117.625
 21
7.5
 31
0.0
  0
TEXT
  5
BF2
  8
FRAME_050
 10
187.89215728752529
 20
5.5828427124746138
 30
0.0
 40
4.0
  1
3
  7
ISO_PROPORTIONAL
 72
     4
 11
189.375
 21
7.5
 31
0.0
  0
LINE
  5
BF3
  8
FRAME_050
 10
225.25
 20
5.0
 30
0.0
 11
225.25
 21
10.0
 31
0.0
  0
LINE
  5
BF4
  8
FRAME_050
 10
297.0
 20
7.5
 30
0.0
 11
294.5
 21
12.5
 31
0.0
  0
LINE
  5
BF5
  8
FRAME_050
 10
287.0
 20
5.0
 30
0.0
 11
287.0
 21
10.0
 31
0.0
  0
LINE
  5
BF6
  8
FRAME_050
 10
277.0
 20
5.0
 30
0.0
 11
277.0
 21
10.0
 31
0.0
  0
LINE
  5
BF7
  8
FRAME_050
 10
267.0
 20
5.0
 30
0.0
 11
267.0
 21
10.0
 31
0.0
  0
LINE
  5
BF8
  8
FRAME_050
 10
257.0
 20
5.0
 30
0.0
 11
257.0
 21
10.0
 31
0.0
  0
LINE
  5
BF9
  8
FRAME_050
 10
247.0
 20
5.0
 30
0.0
 11
247.0
 21
10.0
 31
0.0
  0
LINE
  5
BFA
  8
FRAME_050
 10
297.0
 20
10.0
 30
0.0
 11
297.0
 21
5.0
 31
0.0
  0
LINE
  5
BFB
  8
FRAME_050
 10
297.0
 20
10.0
 30
0.0
 11
297.0
 21
15.0
 31
0.0
  0
LINE
  5
BFC
  8
FRAME_050
 10
5.0
 20
210.0
 30
0.0
 11
15.0
 21
210.0
 31
0.0
  0
LINE
  5
BFD
  8
FRAME_050
 10
7.5
 20
210.0
 30
0.0
 11
12.5
 21
212.5
 31
0.0
  0
TEXT
  5
BFE
  8
FRAME_050
 10
5.7860912703473977
 20
235.0
 30
0.0
 40
4.0
  1
D
  7
ISO_PROPORTIONAL
 72
     4
 11
7.5
 21
237.0
 31
0.0
  0
LINE
  5
BFF
  8
FRAME_050
 10
10.0
 20
260.0
 30
0.0
 11
5.0
 21
260.0
 31
0.0
  0
TEXT
  5
C00
  8
FRAME_050
 10
6.1931980515339466
 20
285.0
 30
0.0
 40
4.0
  1
C
  7
ISO_PROPORTIONAL
 72
     4
 11
7.5
 21
287.0
 31
0.0
  0
LINE
  5
C01
  8
FRAME_050
 10
10.0
 20
310.0
 30
0.0
 11
5.0
 21
310.0
 31
0.0
  0
TEXT
  5
C02
  8
FRAME_050
 10
5.8999999999999959
 20
335.0
 30
0.0
 40
4.0
  1
B
  7
ISO_PROPORTIONAL
 72
     4
 11
7.5
 21
337.0
 31
0.0
  0
LINE
  5
C03
  8
FRAME_050
 10
10.0
 20
360.0
 30
0.0
 11
5.0
 21
360.0
 31
0.0
  0
TEXT
  5
C04
  8
FRAME_050
 10
5.6999999999999993
 20
385.0
 30
0.0
 40
4.0
  1
A
  7
ISO_PROPORTIONAL
 72
     4
 11
7.5
 21
387.0
 31
0.0
  0
LINE
  5
C05
  8
FRAME_200
 10
10.0
 20
420.0
 30
0.0
 11
0.0
 21
420.0
 31
0.0
  0
LINE
  5
C06
  8
FRAME_200
 10
0.0
 20
420.0
 30
0.0
 11
0.0
 21
410.0
 31
0.0
  0
TEXT
  5
C07
  8
FRAME_050
 10
44.874999999999993
 20
410.5
 30
0.0
 40
4.0
  1
1
  7
ISO_PROPORTIONAL
 72
     4
 11
45.875
 21
412.5
 31
0.0
  0
LINE
  5
C08
  8
FRAME_050
 10
81.75
 20
410.0
 30
0.0
 11
81.75
 21
415.0
 31
0.0
  0
TEXT
  5
C09
  8
FRAME_050
 10
116.1556692913386
 20
410.39960629921262
 30
0.0
 40
4.0
  1
2
  7
ISO_PROPORTIONAL
 72
     4
 11
117.625
 21
412.5
 31
0.0
  0
LINE
  5
C0A
  8
FRAME_050
 10
153.5
 20
410.0
 30
0.0
 11
153.5
 21
415.0
 31
0.0
  0
TEXT
  5
C0B
  8
FRAME_050
 10
187.89215728752529
 20
410.58284271247459
 30
0.0
 40
4.0
  1
3
  7
ISO_PROPORTIONAL
 72
     4
 11
189.375
 21
412.5
 31
0.0
  0
LINE
  5
C0C
  8
FRAME_050
 10
297.0
 20
405.0
 30
0.0
 11
297.0
 21
415.0
 31
0.0
  0
LINE
  5
C0D
  8
FRAME_050
 10
225.25
 20
410.0
 30
0.0
 11
225.25
 21
415.0
 31
0.0
  0
TEXT
  5
C0E
  8
FRAME_050
 10
259.52499999999998
 20
410.5
 30
0.0
 40
4.0
  1
4
  7
ISO_PROPORTIONAL
 72
     4
 11
261.125
 21
412.5
 31
0.0
  0
LINE
  5
C0F
  8
FRAME_070
 10
584.0
 20
10.0
 30
0.0
 11
584.0
 21
410.0
 31
0.0
  0
ATTDEF
  5
C10
  8
FRAME_025
 10
473.0
 20
31.75
 30
0.0
 40
2.5
  1
XXX - 00/00/00
  7
ISO_PROPORTIONAL
 11
473.0
 21
33.0
 31
0.0
  3
Approved by - Date
  2
APPROVED_BY_DATE
 70
     8
 74
     2
  0
TEXT
  5
C11
  8
FRAME_025
 10
448.0
 20
41.749999999999993
 30
0.0
 40
2.5
  1
Title/Name, designation, material, dimension etc
  7
ISO_PROPORTIONAL
 11
448.0
 21
43.0
 31
0.0
 73
     2
  0
TEXT
  5
C12
  8
FRAME_025
 10
473.0
 20
35.75
 30
0.0
 40
2.5
  1
Approved by - date
  7
ISO_PROPORTIONAL
 11
473.0
 21
37.0
 31
0.0
 73
     2
  0
LINE
  5
C13
  8
FRAME_070
 10
414.0
 20
46.0
 30
0.0
 11
584.0
 21
46.0
 31
0.0
  0
LINE
  5
C14
  8
FRAME_070
 10
414.0
 20
40.0
 30
0.0
 11
584.0
 21
40.0
 31
0.0
  0
LINE
  5
C15
  8
FRAME_070
 10
414.0
 20
30.0
 30
0.0
 11
584.0
 21
30.0
 31
0.0
  0
LINE
  5
C16
  8
FRAME_050
 10
368.75
 20
5.0
 30
0.0
 11
368.75
 21
10.0
 31
0.0
  0
LINE
  5
C17
  8
FRAME_050
 10
337.0
 20
5.0
 30
0.0
 11
337.0
 21
10.0
 31
0.0
  0
LINE
  5
C18
  8
FRAME_050
 10
327.0
 20
5.0
 30
0.0
 11
327.0
 21
10.0
 31
0.0
  0
LINE
  5
C19
  8
FRAME_050
 10
317.0
 20
5.0
 30
0.0
 11
317.0
 21
10.0
 31
0.0
  0
LINE
  5
C1A
  8
FRAME_050
 10
307.0
 20
5.0
 30
0.0
 11
307.0
 21
10.0
 31
0.0
  0
LINE
  5
C1B
  8
FRAME_050
 10
347.0
 20
5.0
 30
0.0
 11
347.0
 21
10.0
 31
0.0
  0
LINE
  5
C1C
  8
FRAME_050
 10
440.5
 20
5.0
 30
0.0
 11
440.5
 21
10.0
 31
0.0
  0
TEXT
  5
C1D
  8
FRAME_050
 10
403.24547244094481
 20
5.4102362204724406
 30
0.0
 40
4.0
  1
6
  7
ISO_PROPORTIONAL
 72
     4
 11
404.62499999999989
 21
7.5
 31
0.0
  0
TEXT
  5
C1E
  8
FRAME_050
 10
474.97499999999991
 20
5.5
 30
0.0
 40
4.0
  1
7
  7
ISO_PROPORTIONAL
 72
     4
 11
476.37499999999989
 21
7.5
 31
0.0
  0
TEXT
  5
C1F
  8
FRAME_025
 10
431.0
 20
41.749999999999993
 30
0.0
 40
2.5
  1
Quantity
  7
ISO_PROPORTIONAL
 11
431.0
 21
43.0
 31
0.0
 73
     2
  0
TEXT
  5
C20
  8
FRAME_025
 10
416.0
 20
41.749999999999993
 30
0.0
 40
2.5
  1
Itemref
  7
ISO_PROPORTIONAL
 11
416.0
 21
43.0
 31
0.0
 73
     2
  0
LINE
  5
C21
  8
FRAME_070
 10
414.0
 20
40.0
 30
0.0
 11
414.0
 21
46.0
 31
0.0
  0
LINE
  5
C22
  8
FRAME_070
 10
429.0
 20
40.0
 30
0.0
 11
429.0
 21
46.0
 31
0.0
  0
LINE
  5
C23
  8
FRAME_070
 10
414.0
 20
10.0
 30
0.0
 11
414.0
 21
40.0
 31
0.0
  0
ATTDEF
  5
C24
  8
FRAME_025
 10
416.0
 20
31.75
 30
0.0
 40
2.5
  1
XXX
  7
ISO_PROPORTIONAL
 11
416.0
 21
33.0
 31
0.0
  3
Designed by
  2
DESIGNED_BY
 70
     8
 74
     2
  0
TEXT
  5
C25
  8
FRAME_025
 10
416.0
 20
35.75
 30
0.0
 40
2.5
  1
Designed by
  7
ISO_PROPORTIONAL
 11
416.0
 21
37.0
 31
0.0
 73
     2
  0
LINE
  5
C26
  8
FRAME_070
 10
446.0
 20
40.0
 30
0.0
 11
446.0
 21
46.0
 31
0.0
  0
ATTDEF
  5
C27
  8
FRAME_025
 10
448.0
 20
31.75
 30
0.0
 40
2.5
  1
XXX
  7
ISO_PROPORTIONAL
 11
448.0
 21
33.0
 31
0.0
  3
Checked by
  2
CHECKED_BY
 70
     8
 74
     2
  0
TEXT
  5
C28
  8
FRAME_025
 10
448.0
 20
35.75
 30
0.0
 40
2.5
  1
Checked by
  7
ISO_PROPORTIONAL
 11
448.0
 21
37.0
 31
0.0
 73
     2
  0
ATTDEF
  5
C29
  8
FRAME_050
 10
444.74999999999989
 20
17.5
 30
0.0
 40
5.0
  1
XXX
  7
ISO_PROPORTIONAL
 72
     4
 11
451.49999999999989
 21
20.0
 31
0.0
  3
Owner
  2
OWNER
 70
     8
  0
LINE
  5
C2A
  8
FRAME_070
 10
446.0
 20
30.0
 30
0.0
 11
446.0
 21
40.0
 31
0.0
  0
LINE
  5
C2B
  8
FRAME_070
 10
471.0
 20
30.0
 30
0.0
 11
471.0
 21
40.0
 31
0.0
  0
LINE
  5
C2C
  8
FRAME_070
 10
489.0
 20
20.0
 30
0.0
 11
584.0
 21
20.0
 31
0.0
  0
LINE
  5
C2D
  8
FRAME_050
 10
512.25
 20
5.0
 30
0.0
 11
512.25
 21
10.0
 31
0.0
  0
TEXT
  5
C2E
  8
FRAME_050
 10
546.72499999999991
 20
5.5
 30
0.0
 40
4.0
  1
8
  7
ISO_PROPORTIONAL
 72
     4
 11
548.125
 21
7.5
 31
0.0
  0
ATTDEF
  5
C2F
  8
FRAME_050
 10
517.64999999999986
 20
13.5
 30
0.0
 40
3.0
  1
X
  7
ISO_PROPORTIONAL
 72
     4
 11
519.0
 21
15.0
 31
0.0
  3
Drawing number
  2
DRAWING_NUMBER
 70
     8
  0
ATTDEF
  5
C30
  8
FRAME_050
 10
529.75
 20
22.5
 30
0.0
 40
5.0
  1
XXX
  7
ISO_PROPORTIONAL
 72
     4
 11
536.5
 21
25.0
 31
0.0
  3
Title / Name
  2
TITLE
 70
     8
  0
LINE
  5
C31
  8
FRAME_070
 10
489.0
 20
10.0
 30
0.0
 11
489.0
 21
30.0
 31
0.0
  0
ATTDEF
  5
C32
  8
FRAME_025
 10
511.0
 20
31.75
 30
0.0
 40
2.5
  1
XXX
  7
ISO_PROPORTIONAL
 11
511.0
 21
33.0
 31
0.0
  3
Filename
  2
FILENAME
 70
     8
 74
     2
  0
TEXT
  5
C33
  8
FRAME_025
 10
511.0
 20
35.75
 30
0.0
 40
2.5
  1
Filename
  7
ISO_PROPORTIONAL
 11
511.0
 21
37.0
 31
0.0
 73
     2
  0
LINE
  5
C34
  8
FRAME_070
 10
509.0
 20
30.0
 30
0.0
 11
509.0
 21
40.0
 31
0.0
  0
TEXT
  5
C35
  8
FRAME_025
 10
536.0
 20
41.749999999999993
 30
0.0
 40
2.5
  1
Article No./Reference
  7
ISO_PROPORTIONAL
 11
536.0
 21
43.0
 31
0.0
 73
     2
  0
LINE
  5
C36
  8
FRAME_070
 10
534.0
 20
40.0
 30
0.0
 11
534.0
 21
46.0
 31
0.0
  0
ATTDEF
  5
C37
  8
FRAME_025
 10
551.0
 20
11.75
 30
0.0
 40
2.5
  1
0
  7
ISO_PROPORTIONAL
 11
551.0
 21
13.0
 31
0.0
  3
Edition
  2
EDITION
 70
     8
 74
     2
  0
TEXT
  5
C38
  8
FRAME_025
 10
551.0
 20
15.75
 30
0.0
 40
2.5
  1
Edition
  7
ISO_PROPORTIONAL
 11
551.0
 21
17.0
 31
0.0
 73
     2
  0
LINE
  5
C39
  8
FRAME_070
 10
549.0
 20
10.0
 30
0.0
 11
549.0
 21
20.0
 31
0.0
  0
ATTDEF
  5
C3A
  8
FRAME_025
 10
536.0
 20
31.75
 30
0.0
 40
2.5
  1
00/00/00
  7
ISO_PROPORTIONAL
 11
536.0
 21
33.0
 31
0.0
  3
Date
  2
DATE
 70
     8
 74
     2
  0
TEXT
  5
C3B
  8
FRAME_025
 10
536.0
 20
35.75
 30
0.0
 40
2.5
  1
Date
  7
ISO_PROPORTIONAL
 11
536.0
 21
37.0
 31
0.0
 73
     2
  0
LINE
  5
C3C
  8
FRAME_070
 10
534.0
 20
30.0
 30
0.0
 11
534.0
 21
40.0
 31
0.0
  0
ATTDEF
  5
C3D
  8
FRAME_025
 10
566.0
 20
11.75
 30
0.0
 40
2.5
  1
1/1
  7
ISO_PROPORTIONAL
 11
566.0
 21
13.0
 31
0.0
  3
Sheet
  2
SHEET
 70
     8
 74
     2
  0
TEXT
  5
C3E
  8
FRAME_025
 10
566.0
 20
15.75
 30
0.0
 40
2.5
  1
Sheet
  7
ISO_PROPORTIONAL
 11
566.0
 21
17.0
 31
0.0
 73
     2
  0
LINE
  5
C3F
  8
FRAME_070
 10
564.0
 20
10.0
 30
0.0
 11
564.0
 21
20.0
 31
0.0
  0
ATTDEF
  5
C40
  8
FRAME_025
 10
566.0
 20
31.75
 30
0.0
 40
2.5
  1
1:1
  7
ISO_PROPORTIONAL
 11
566.0
 21
33.0
 31
0.0
  3
Scale
  2
SCALE
 70
     8
 74
     2
  0
TEXT
  5
C41
  8
FRAME_025
 10
566.0
 20
35.75
 30
0.0
 40
2.5
  1
Scale
  7
ISO_PROPORTIONAL
 11
566.0
 21
37.0
 31
0.0
 73
     2
  0
LINE
  5
C42
  8
FRAME_070
 10
564.0
 20
30.0
 30
0.0
 11
564.0
 21
40.0
 31
0.0
  0
LINE
  5
C43
  8
FRAME_200
 10
594.0
 20
0.0
 30
0.0
 11
594.0
 21
10.0
 31
0.0
  0
LINE
  5
C44
  8
FRAME_200
 10
594.0
 20
0.0
 30
0.0
 11
584.0
 21
0.0
 31
0.0
  0
TEXT
  5
C45
  8
FRAME_050
 10
584.89999999999998
 20
35.0
 30
0.0
 40
4.0
  1
H
  7
ISO_PROPORTIONAL
 72
     4
 11
586.5
 21
37.0
 31
0.0
  0
LINE
  5
C46
  8
FRAME_050
 10
589.0
 20
60.0
 30
0.0
 11
584.0
 21
60.0
 31
0.0
  0
TEXT
  5
C47
  8
FRAME_050
 10
585.0035533905932
 20
85.0
 30
0.0
 40
4.0
  1
G
  7
ISO_PROPORTIONAL
 72
     4
 11
586.5
 21
87.0
 31
0.0
  0
LINE
  5
C48
  8
FRAME_050
 10
589.0
 20
110.0
 30
0.0
 11
584.0
 21
110.0
 31
0.0
  0
TEXT
  5
C49
  8
FRAME_050
 10
585.09999999999991
 20
135.0
 30
0.0
 40
4.0
  1
F
  7
ISO_PROPORTIONAL
 72
     4
 11
586.5
 21
137.0
 31
0.0
  0
LINE
  5
C4A
  8
FRAME_050
 10
589.0
 20
160.0
 30
0.0
 11
584.0
 21
160.0
 31
0.0
  0
TEXT
  5
C4B
  8
FRAME_050
 10
585.09999999999991
 20
185.0
 30
0.0
 40
4.0
  1
E
  7
ISO_PROPORTIONAL
 72
     4
 11
586.5
 21
187.0
 31
0.0
  0
LINE
  5
C4C
  8
FRAME_070
 10
414.0
 20
404.0
 30
0.0
 11
584.0
 21
404.0
 31
0.0
  0
TEXT
  5
C4D
  8
FRAME_050
 10
331.39215728752538
 20
410.58284271247459
 30
0.0
 40
4.0
  1
5
  7
ISO_PROPORTIONAL
 72
     4
 11
332.875
 21
412.5
 31
0.0
  0
LINE
  5
C4E
  8
FRAME_050
 10
368.75
 20
410.0
 30
0.0
 11
368.75
 21
415.0
 31
0.0
  0
TEXT
  5
C4F
  8
FRAME_025
 10
428.0
 20
405.75
 30
0.0
 40
2.5
  1
Revision note
  7
ISO_PROPORTIONAL
 11
428.0
 21
407.0
 31
0.0
 73
     2
  0
TEXT
  5
C50
  8
FRAME_025
 10
416.0
 20
405.75
 30
0.0
 40
2.5
  1
RevNo
  7
ISO_PROPORTIONAL
 11
416.0
 21
407.0
 31
0.0
 73
     2
  0
LINE
  5
C51
  8
FRAME_070
 10
426.0
 20
404.0
 30
0.0
 11
426.0
 21
410.0
 31
0.0
  0
LINE
  5
C52
  8
FRAME_070
 10
414.0
 20
404.0
 30
0.0
 11
414.0
 21
410.0
 31
0.0
  0
TEXT
  5
C53
  8
FRAME_050
 10
403.24547244094481
 20
410.41023622047243
 30
0.0
 40
4.0
  1
6
  7
ISO_PROPORTIONAL
 72
     4
 11
404.62499999999989
 21
412.5
 31
0.0
  0
LINE
  5
C54
  8
FRAME_050
 10
440.5
 20
410.0
 30
0.0
 11
440.5
 21
415.0
 31
0.0
  0
TEXT
  5
C55
  8
FRAME_050
 10
474.97499999999991
 20
410.5
 30
0.0
 40
4.0
  1
7
  7
ISO_PROPORTIONAL
 72
     4
 11
476.37499999999989
 21
412.5
 31
0.0
  0
LINE
  5
C56
  8
FRAME_050
 10
579.0
 20
210.0
 30
0.0
 11
589.0
 21
210.0
 31
0.0
  0
TEXT
  5
C57
  8
FRAME_050
 10
584.78609127034736
 20
235.0
 30
0.0
 40
4.0
  1
D
  7
ISO_PROPORTIONAL
 72
     4
 11
586.5
 21
237.0
 31
0.0
  0
LINE
  5
C58
  8
FRAME_050
 10
589.0
 20
260.0
 30
0.0
 11
584.0
 21
260.0
 31
0.0
  0
TEXT
  5
C59
  8
FRAME_050
 10
585.19319805153395
 20
285.0
 30
0.0
 40
4.0
  1
C
  7
ISO_PROPORTIONAL
 72
     4
 11
586.5
 21
287.0
 31
0.0
  0
LINE
  5
C5A
  8
FRAME_050
 10
589.0
 20
310.0
 30
0.0
 11
584.0
 21
310.0
 31
0.0
  0
TEXT
  5
C5B
  8
FRAME_050
 10
584.89999999999998
 20
335.0
 30
0.0
 40
4.0
  1
B
  7
ISO_PROPORTIONAL
 72
     4
 11
586.5
 21
337.0
 31
0.0
  0
TEXT
  5
C5C
  8
FRAME_025
 10
571.08299391850551
 20
405.75
 30
0.0
 40
2.5
  1
Checked
  7
ISO_PROPORTIONAL
 11
571.08299391850551
 21
407.0
 31
0.0
 73
     2
  0
TEXT
  5
C5D
  8
FRAME_025
 10
555.36099797283521
 20
405.75
 30
0.0
 40
2.5
  1
Signature
  7
ISO_PROPORTIONAL
 11
555.36099797283521
 21
407.0
 31
0.0
 73
     2
  0
TEXT
  5
C5E
  8
FRAME_025
 10
537.0
 20
405.75
 30
0.0
 40
2.5
  1
Date
  7
ISO_PROPORTIONAL
 11
537.0
 21
407.0
 31
0.0
 73
     2
  0
LINE
  5
C5F
  8
FRAME_070
 10
570.0
 20
404.0
 30
0.0
 11
570.0
 21
410.0
 31
0.0
  0
LINE
  5
C60
  8
FRAME_070
 10
555.0
 20
404.0
 30
0.0
 11
555.0
 21
410.0
 31
0.0
  0
LINE
  5
C61
  8
FRAME_070
 10
535.0
 20
404.0
 30
0.0
 11
535.0
 21
410.0
 31
0.0
  0
LINE
  5
C62
  8
FRAME_050
 10
512.25
 20
410.0
 30
0.0
 11
512.25
 21
415.0
 31
0.0
  0
TEXT
  5
C63
  8
FRAME_050
 10
546.72499999999991
 20
410.5
 30
0.0
 40
4.0
  1
8
  7
ISO_PROPORTIONAL
 72
     4
 11
548.125
 21
412.5
 31
0.0
  0
LINE
  5
C64
  8
FRAME_050
 10
589.0
 20
360.0
 30
0.0
 11
584.0
 21
360.0
 31
0.0
  0
TEXT
  5
C65
  8
FRAME_050
 10
584.70000000000005
 20
385.0
 30
0.0
 40
4.0
  1
A
  7
ISO_PROPORTIONAL
 72
     4
 11
586.5
 21
387.0
 31
0.0
  0
LINE
  5
C66
  8
FRAME_200
 10
594.0
 20
420.0
 30
0.0
 11
584.0
 21
420.0
 31
0.0
  0
LINE
  5
C67
  8
FRAME_200
 10
594.0
 20
410.0
 30
0.0
 11
594.0
 21
420.0
 31
0.0
  0
ENDBLK
  5
C69
  8
0
  0
BLOCK
  8
0
  2
WOBB001END
 70
     0
 10
0.0
 20
0.0
 30
0.0
  3
WOBB001END
  1

  0
LINE
  5
4D66
  8
0
  6
CONTINUOUS
 10
0.0
 20
0.0
 30
0.0
 11
0.8749999999999998
 21
0.0
 31
0.0
  0
ARC
  5
4D67
  8
0
  6
CONTINUOUS
 10
0.0331648379439287
 20
-0.5087238935900234
 30
0.0
 40
0.8790130605592325
 50
284.06490243660443
 51
312.19222981924361
  0
ARC
  5
4D68
  8
0
  6
CONTINUOUS
 10
0.2841534338796767
 20
-1.510548310625538
 30
0.0
 40
0.1537731892806598
 50
104.0649024366044
 51
179.4721730735024
  0
LINE
  5
4D69
  8
0
  6
CONTINUOUS
 10
0.0
 20
0.0
 30
0.0
 11
-0.0000000000000003
 21
-1.7501564476661911
 31
0.0
  0
ARC
  5
4D6A
  8
0
  6
CONTINUOUS
 10
0.1404622019506122
 20
-1.630313718354619
 30
0.0
 40
0.1198427293115722
 50
275.0
 51
85.000000000000057
  0
LINE
  5
4D6B
  8
0
  6
CONTINUOUS
 10
-0.0000000000000003
 20
-1.7501564476661911
 30
0.0
 11
0.1456946485130855
 21
-1.7501564476661911
 31
0.0
  0
LINE
  5
4D6C
  8
0
  6
CONTINUOUS
 10
0.1377603739254348
 20
-1.7508506067459131
 30
0.0
 11
0.150907184036669
 21
-1.7497004098996509
 31
0.0
  0
LINE
  5
4D6D
  8
0
  6
CONTINUOUS
 10
0.1303867696719884
 20
-1.5091317231818231
 30
0.0
 11
0.1509071840366689
 21
-1.510927026809586
 31
0.0
  0
LINE
  5
4D6E
  8
0
  6
CONTINUOUS
 10
0.8749999999999998
 20
0.0
 30
0.0
 11
0.8749999999999996
 21
-0.8649327026588228
 31
0.0
  0
LINE
  5
4D6F
  8
0
  6
CONTINUOUS
 10
0.727014513830997
 20
-0.872688293355061
 30
0.0
 11
0.727014513830997
 21
-0.9264923397184784
 31
0.0
  0
ARC
  5
4D70
  8
0
  6
CONTINUOUS
 10
0.41187090827646
 20
-0.9264923397184784
 30
0.0
 40
0.3151436055545369
 50
312.19222981924361
 51
0.0
  0
LINE
  5
4D71
  8
0
  6
CONTINUOUS
 10
0.727014513830997
 20
-0.872688293355061
 30
0.0
 11
0.8749999999999996
 21
-0.8649327026588228
 31
0.0
  0
ENDBLK
  5
4D72
  8
0
  0
BLOCK
  8
0
  2
A$C0A61123B
 70
     0
 10
0.0
 20
0.0
 30
0.0
  3
A$C0A61123B
  1

  0
LINE
  5
C0AD
  8
PROF
  6
CONTINUOUS
 10
4.9012016798694162
 20
13.325025853350891
 30
0.0000000000000002
 11
4.9012016798694162
 21
12.88585218805485
 31
0.0000000000000003
  0
INSERT
  5
C0AE
  8
0
  2
*U7
 10
0.0
 20
0.0
 30
0.0
  0
LINE
  5
C0AF
  8
PROF
 10
4.519857503186925
 20
12.72227734589444
 30
0.0000000000000001
 11
4.519857503186925
 21
12.88585218805485
 31
0.0000000000000001
  0
LINE
  5
C0B0
  8
PROF
  6
CONTINUOUS
 10
3.6306271195888362
 20
13.325025853350891
 30
0.0000000000000002
 11
4.9012016798694162
 21
13.325025853350891
 31
0.0000000000000002
  0
LINE
  5
C0B1
  8
PROF
 10
1.9750295148747341
 20
10.37671325491794
 30
0.0000000000000002
 11
1.9750295148747341
 21
10.11391186758919
 31
0.0000000000000002
  0
LINE
  5
C0B2
  8
PROF
 10
1.6079673357556299
 20
10.11391186758919
 30
0.0000000000000001
 11
1.9750295148747341
 21
10.11391186758919
 31
0.0000000000000001
  0
LINE
  5
C0B3
  8
PROF
 10
1.9750295148747341
 20
10.11391186758919
 30
0.0000000000000001
 11
1.944958486898144
 21
10.11391186758919
 31
0.0000000000000001
  0
LINE
  5
C0B4
  8
PROF
 10
1.9750295148747341
 20
10.11391186758919
 30
0.0000000000000001
 11
1.944958486898144
 21
10.11391186758919
 31
0.0000000000000001
  0
LINE
  5
C0B5
  8
PROF
 10
0.3222605517169654
 20
7.5247473351056451
 30
-0.0000000000000002
 11
-0.0000008570117416
 21
7.5247473351056451
 31
0.0
  0
LINE
  5
C0B6
  8
PROF
 10
-0.0000008570117416
 20
7.5247473351056451
 30
0.0
 11
-0.0000008570117416
 21
9.1943336957369848
 31
0.0
  0
POLYLINE
  5
C0B7
  8
PROF
 66
     1
 10
0.0
 20
0.0
 30
0.0000000000000001
 70
     4
 75
     6
  0
VERTEX
  5
C0B8
  8
PROF
 10
1.6079673357556299
 20
10.11391186758919
 30
0.0000000000000001
 70
    16
  0
VERTEX
  5
C0B9
  8
PROF
 10
1.6079673357556299
 20
10.11391186758919
 30
0.0000000000000001
 70
     8
  0
VERTEX
  5
C0BA
  8
PROF
 10
1.6468132326485809
 20
10.02198069336111
 30
0.0000000000000001
 70
     8
  0
VERTEX
  5
C0BB
  8
PROF
 10
1.67335966680929
 20
9.9344134163010231
 30
0.0000000000000001
 70
     8
  0
VERTEX
  5
C0BC
  8
PROF
 10
1.6890086400463229
 20
9.8512576644480951
 30
0.0000000000000001
 70
     8
  0
VERTEX
  5
C0BD
  8
PROF
 10
1.6951621541682571
 20
9.7725610658417281
 30
0.0000000000000001
 70
     8
  0
VERTEX
  5
C0BE
  8
PROF
 10
1.693222210983605
 20
9.6983712485214237
 30
0.0000000000000001
 70
     8
  0
VERTEX
  5
C0BF
  8
PROF
 10
1.6845908123009961
 20
9.6287358405263603
 30
0.0000000000000001
 70
     8
  0
VERTEX
  5
C0C0
  8
PROF
 10
1.670669959928885
 20
9.5637024698960431
 30
0.0000000000000001
 70
     8
  0
VERTEX
  5
C0C1
  8
PROF
 10
1.6528616556759621
 20
9.5033187646697552
 30
0.0000000000000001
 70
     8
  0
VERTEX
  5
C0C2
  8
PROF
 10
1.632356299273054
 20
9.4475843259650691
 30
0.0000000000000001
 70
     8
  0
VERTEX
  5
C0C3
  8
PROF
 10
1.609497882140658
 20
9.3963066472123273
 30
0.0000000000000001
 70
     8
  0
VERTEX
  5
C0C4
  8
PROF
 10
1.584418793621637
 20
9.3492451949202842
 30
0.0000000000000001
 70
     8
  0
VERTEX
  5
C0C5
  8
PROF
 10
1.5572514230587431
 20
9.3061594355972357
 30
0.0000000000000001
 70
     8
  0
VERTEX
  5
C0C6
  8
PROF
 10
1.5281281597949601
 20
9.2668088357519274
 30
0.0000000000000001
 70
     8
  0
VERTEX
  5
C0C7
  8
PROF
 10
1.497181393172978
 20
9.2309528618929981
 30
0.0000000000000001
 70
     8
  0
VERTEX
  5
C0C8
  8
PROF
 10
1.4645435125357249
 20
9.1983509805288541
 30
0.0000000000000001
 70
     8
  0
VERTEX
  5
C0C9
  8
PROF
 10
1.4303469072260091
 20
9.1687626581682462
 30
0.0000000000000001
 70
     8
  0
VERTEX
  5
C0CA
  8
PROF
 10
1.394736033257401
 20
9.1419547918675335
 30
0.0000000000000001
 70
     8
  0
VERTEX
  5
C0CB
  8
PROF
 10
1.3579036133264131
 20
9.1177240008747713
 30
0.0000000000000001
 70
     8
  0
VERTEX
  5
C0CC
  8
PROF
 10
1.3200544368004321
 20
9.0958743349860924
 30
0.0000000000000001
 70
     8
  0
VERTEX
  5
C0CD
  8
PROF
 10
1.281393293046676
 20
9.0762098439975034
 30
0.0000000000000001
 70
     8
  0
VERTEX
  5
C0CE
  8
PROF
 10
1.2421249714324161
 20
9.0585345777049042
 30
0.0000000000000001
 70
     8
  0
VERTEX
  5
C0CF
  8
PROF
 10
1.202454261324986
 20
9.0426525859044187
 30
0.0000000000000001
 70
     8
  0
VERTEX
  5
C0D0
  8
PROF
 10
1.162585952091659
 20
9.0283679183919503
 30
0.0000000000000001
 70
     8
  0
VERTEX
  5
C0D1
  8
PROF
 10
1.1227248330997091
 20
9.0154846249635021
 30
0.0000000000000001
 70
     8
  0
VERTEX
  5
C0D2
  8
PROF
 10
1.0829726247361
 20
9.0034643862466055
 30
0.0000000000000001
 70
     8
  0
VERTEX
  5
C0D3
  8
PROF
 10
1.043018771466222
 20
8.9903994061946833
 30
0.0000000000000001
 70
     8
  0
VERTEX
  5
C0D4
  8
PROF
 10
1.002449648775211
 20
8.9740395195925622
 30
0.0000000000000001
 70
     8
  0
VERTEX
  5
C0D5
  8
PROF
 10
0.9608516321480919
 20
8.9521345612251935
 30
0.0000000000000001
 70
     8
  0
VERTEX
  5
C0D6
  8
PROF
 10
0.9178110970699435
 20
8.9224343658775052
 30
0.0000000000000001
 70
     8
  0
VERTEX
  5
C0D7
  8
PROF
 10
0.8729144190259033
 20
8.8826887683343312
 30
0.0000000000000001
 70
     8
  0
VERTEX
  5
C0D8
  8
PROF
 10
0.8257479735009949
 20
8.8306476033806121
 30
0.0000000000000001
 70
     8
  0
VERTEX
  5
C0D9
  8
PROF
 10
0.7758981359802988
 20
8.764060705801171
 30
0.0000000000000001
 70
     8
  0
VERTEX
  5
C0DA
  8
PROF
 10
1.7292019016096549
 20
9.8629858761255491
 30
0.0000000000000001
 70
    16
  0
VERTEX
  5
C0DB
  8
PROF
 10
1.679373123114088
 20
9.4532143012734213
 30
0.0000000000000001
 70
    16
  0
VERTEX
  5
C0DC
  8
PROF
 10
1.4455611507419801
 20
9.1391837193732481
 30
0.0000000000000001
 70
    16
  0
VERTEX
  5
C0DD
  8
PROF
 10
1.1204637172738201
 20
9.0026267702428413
 30
0.0000000000000001
 70
    16
  0
VERTEX
  5
C0DE
  8
PROF
 10
0.9127765582653638
 20
8.9630202230383702
 30
0.0000000000000001
 70
    16
  0
VERTEX
  5
C0DF
  8
PROF
 10
0.7758981359802988
 20
8.764060705801171
 30
0.0000000000000001
 70
    16
  0
SEQEND
  5
C0E0
  8
PROF
  0
ARC
  5
C0E1
  8
PROF
 10
0.733429816733235
 20
8.4849506952165257
 30
0.0000000000000001
 40
0.2823224329524727
 50
269.73652020831901
 51
81.348449993176914
  0
LINE
  5
C0E2
  8
PROF
  6
CONTINUOUS
 10
-0.0000008570117416
 20
9.1943336957369848
 30
-0.0000000000000001
 11
3.6306271195888362
 21
13.325025853350891
 31
0.0000000000000002
  0
POLYLINE
  5
C0E3
  8
PROF
 66
     1
 10
0.0
 20
0.0
 30
0.0000000000000001
 70
     4
 75
     6
  0
VERTEX
  5
C0E4
  8
PROF
 10
4.519857503186925
 20
12.72227734589444
 30
0.0000000000000001
 70
    16
  0
VERTEX
  5
C0E5
  8
PROF
 10
4.519857503186925
 20
12.72227734589444
 30
0.0000000000000001
 70
     8
  0
VERTEX
  5
C0E6
  8
PROF
 10
4.4467035366886289
 20
12.741128108778071
 30
0.0000000000000001
 70
     8
  0
VERTEX
  5
C0E7
  8
PROF
 10
4.3786645761268801
 20
12.754675269913941
 30
0.0000000000000001
 70
     8
  0
VERTEX
  5
C0E8
  8
PROF
 10
4.3154364111440469
 20
12.76334314092332
 30
0.0000000000000001
 70
     8
  0
VERTEX
  5
C0E9
  8
PROF
 10
4.256714831382566
 20
12.76755603342724
 30
0.0000000000000001
 70
     8
  0
VERTEX
  5
C0EA
  8
PROF
 10
4.2021956264849791
 20
12.76773825904672
 30
0.0000000000000001
 70
     8
  0
VERTEX
  5
C0EB
  8
PROF
 10
4.1515745860935436
 20
12.764314129403139
 30
0.0000000000000001
 70
     8
  0
VERTEX
  5
C0EC
  8
PROF
 10
4.1045474998508649
 20
12.75770795611743
 30
0.0000000000000001
 70
     8
  0
VERTEX
  5
C0ED
  8
PROF
 10
4.0608101573993149
 20
12.748344050810831
 30
0.0000000000000001
 70
     8
  0
VERTEX
  5
C0EE
  8
PROF
 10
4.0200583483813261
 20
12.736646725104491
 30
0.0000000000000001
 70
     8
  0
VERTEX
  5
C0EF
  8
PROF
 10
3.981987862439381
 20
12.72304029061945
 30
0.0000000000000001
 70
     8
  0
VERTEX
  5
C0F0
  8
PROF
 10
3.946294489215858
 20
12.707949058976959
 30
0.0000000000000001
 70
     8
  0
VERTEX
  5
C0F1
  8
PROF
 10
3.912674018353242
 20
12.691797341798059
 30
0.0000000000000001
 70
     8
  0
VERTEX
  5
C0F2
  8
PROF
 10
3.8808638350742499
 20
12.67494295718654
 30
0.0000000000000001
 70
     8
  0
VERTEX
  5
C0F3
  8
PROF
 10
3.850767706922738
 20
12.65747774917668
 30
0.0000000000000001
 70
     8
  0
VERTEX
  5
C0F4
  8
PROF
 10
3.8223309970228438
 20
12.639427068285499
 30
0.0000000000000001
 70
     8
  0
VERTEX
  5
C0F5
  8
PROF
 10
3.795499068498712
 20
12.62081626503004
 30
0.0000000000000001
 70
     8
  0
VERTEX
  5
C0F6
  8
PROF
 10
3.7702172844744819
 20
12.601670689926999
 30
0.0000000000000001
 70
     8
  0
VERTEX
  5
C0F7
  8
PROF
 10
3.7464310080743521
 20
12.58201569349364
 30
0.0000000000000001
 70
     8
  0
VERTEX
  5
C0F8
  8
PROF
 10
3.7240856024224609
 20
12.56187662624666
 30
0.0000000000000001
 70
     8
  0
VERTEX
  5
C0F9
  8
PROF
 10
3.7031264306428961
 20
12.541278838703191
 30
0.0000000000000001
 70
     8
  0
VERTEX
  5
C0FA
  8
PROF
 10
3.683498855859908
 20
12.520247681380051
 30
0.0000000000000001
 70
     8
  0
VERTEX
  5
C0FB
  8
PROF
 10
3.665148241197528
 20
12.49880850479428
 30
0.0000000000000001
 70
     8
  0
VERTEX
  5
C0FC
  8
PROF
 10
3.648019949779949
 20
12.47698665946279
 30
0.0000000000000001
 70
     8
  0
VERTEX
  5
C0FD
  8
PROF
 10
3.6320593447313159
 20
12.45480749590263
 30
0.0000000000000001
 70
     8
  0
VERTEX
  5
C0FE
  8
PROF
 10
3.617189584886658
 20
12.43223790353807
 30
0.0000000000000001
 70
     8
  0
VERTEX
  5
C0FF
  8
PROF
 10
3.6032450119242849
 20
12.40901092742285
 30
0.0000000000000001
 70
     8
  0
VERTEX
  5
C100
  8
PROF
 10
3.590037763233453
 20
12.38480115151844
 30
0.0000000000000001
 70
     8
  0
VERTEX
  5
C101
  8
PROF
 10
3.5773799762033032
 20
12.35928315978594
 30
0.0000000000000001
 70
     8
  0
VERTEX
  5
C102
  8
PROF
 10
3.5650837882230899
 20
12.33213153618658
 30
0.0000000000000001
 70
     8
  0
VERTEX
  5
C103
  8
PROF
 10
3.552961336681959
 20
12.303020864681571
 30
0.0000000000000001
 70
     8
  0
VERTEX
  5
C104
  8
PROF
 10
3.540824758969165
 20
12.271625729232371
 30
0.0000000000000001
 70
     8
  0
VERTEX
  5
C105
  8
PROF
 10
3.528486192473848
 20
12.23762071379997
 30
0.0000000000000001
 70
     8
  0
VERTEX
  5
C106
  8
PROF
 10
3.5157577745852659
 20
12.200680402345711
 30
0.0000000000000001
 70
     8
  0
VERTEX
  5
C107
  8
PROF
 10
3.502451642692618
 20
12.16047937883093
 30
0.0000000000000001
 70
     8
  0
VERTEX
  5
C108
  8
PROF
 10
3.4883799341851041
 20
12.116692227216619
 30
0.0000000000000001
 70
     8
  0
VERTEX
  5
C109
  8
PROF
 10
3.4733547864519201
 20
12.06899353146423
 30
0.0000000000000001
 70
     8
  0
VERTEX
  5
C10A
  8
PROF
 10
3.45723654619428
 20
12.0172095445447
 30
0.0000000000000001
 70
     8
  0
VERTEX
  5
C10B
  8
PROF
 10
3.440078397361388
 20
11.961773195467799
 30
0.0000000000000001
 70
     8
  0
VERTEX
  5
C10C
  8
PROF
 10
3.4219817332145781
 20
11.90326908225302
 30
0.0000000000000001
 70
     8
  0
VERTEX
  5
C10D
  8
PROF
 10
3.4030479470150099
 20
11.842281802919951
 30
0.0000000000000001
 70
     8
  0
VERTEX
  5
C10E
  8
PROF
 10
3.383378432024017
 20
11.779395955487979
 30
0.0000000000000001
 70
     8
  0
VERTEX
  5
C10F
  8
PROF
 10
3.36307458150287
 20
11.7151961379768
 30
0.0000000000000001
 70
     8
  0
VERTEX
  5
C110
  8
PROF
 10
3.342237788712735
 20
11.650266948405831
 30
0.0000000000000001
 70
     8
  0
VERTEX
  5
C111
  8
PROF
 10
3.3209694469149991
 20
11.58519298479461
 30
0.0000000000000001
 70
     8
  0
VERTEX
  5
C112
  8
PROF
 10
3.299370949370767
 20
11.52055884516254
 30
0.0000000000000001
 70
     8
  0
VERTEX
  5
C113
  8
PROF
 10
3.277543689341428
 20
11.456949127529461
 30
0.0000000000000001
 70
     8
  0
VERTEX
  5
C114
  8
PROF
 10
3.2555890600881399
 20
11.3949484299145
 30
0.0000000000000001
 70
     8
  0
VERTEX
  5
C115
  8
PROF
 10
3.2336084548721811
 20
11.335141350337491
 30
0.0000000000000001
 70
     8
  0
VERTEX
  5
C116
  8
PROF
 10
3.2116715641212181
 20
11.277995447977769
 30
0.0000000000000001
 70
     8
  0
VERTEX
  5
C117
  8
PROF
 10
3.1897212669278461
 20
11.22351012665467
 30
0.0000000000000001
 70
     8
  0
VERTEX
  5
C118
  8
PROF
 10
3.1676687395512881
 20
11.17156775134765
 30
0.0000000000000001
 70
     8
  0
VERTEX
  5
C119
  8
PROF
 10
3.1454251582505321
 20
11.12205068703588
 30
0.0000000000000001
 70
     8
  0
VERTEX
  5
C11A
  8
PROF
 10
3.122901699284625
 20
11.07484129869874
 30
0.0000000000000001
 70
     8
  0
VERTEX
  5
C11B
  8
PROF
 10
3.1000095389127278
 20
11.02982195131551
 30
0.0000000000000001
 70
     8
  0
VERTEX
  5
C11C
  8
PROF
 10
3.07665985339389
 20
10.986875009865679
 30
0.0000000000000001
 70
     8
  0
VERTEX
  5
C11D
  8
PROF
 10
3.0527638189871591
 20
10.9458828393283
 30
0.0000000000000001
 70
     8
  0
VERTEX
  5
C11E
  8
PROF
 10
3.0282326119516361
 20
10.90672780468298
 30
0.0000000000000001
 70
     8
  0
VERTEX
  5
C11F
  8
PROF
 10
3.0029774085463701
 20
10.869292270908771
 30
0.0000000000000001
 70
     8
  0
VERTEX
  5
C120
  8
PROF
 10
2.9769093850304089
 20
10.833458602985161
 30
0.0000000000000001
 70
     8
  0
VERTEX
  5
C121
  8
PROF
 10
2.9499397176628559
 20
10.799109165891419
 30
0.0000000000000001
 70
     8
  0
VERTEX
  5
C122
  8
PROF
 10
2.922000609840437
 20
10.76614363969508
 30
0.0000000000000001
 70
     8
  0
VERTEX
  5
C123
  8
PROF
 10
2.8931083735102998
 20
10.7345309648158
 30
0.0000000000000001
 70
     8
  0
VERTEX
  5
C124
  8
PROF
 10
2.8633003477572729
 20
10.70425739676193
 30
0.0000000000000001
 70
     8
  0
VERTEX
  5
C125
  8
PROF
 10
2.8326138716660689
 20
10.67530919104115
 30
0.0000000000000001
 70
     8
  0
VERTEX
  5
C126
  8
PROF
 10
2.801086284321626
 20
10.647672603161711
 30
0.0000000000000001
 70
     8
  0
VERTEX
  5
C127
  8
PROF
 10
2.7687549248087162
 20
10.62133388863162
 30
0.0000000000000001
 70
     8
  0
VERTEX
  5
C128
  8
PROF
 10
2.7356571322120531
 20
10.5962793029588
 30
0.0000000000000001
 70
     8
  0
VERTEX
  5
C129
  8
PROF
 10
2.7018302456165202
 20
10.572495101651381
 30
0.0000000000000001
 70
     8
  0
VERTEX
  5
C12A
  8
PROF
 10
2.6673116041068838
 20
10.54996754021726
 30
0.0000000000000001
 70
     8
  0
VERTEX
  5
C12B
  8
PROF
 10
2.6321385467680321
 20
10.528682874164581
 30
0.0000000000000001
 70
     8
  0
VERTEX
  5
C12C
  8
PROF
 10
2.5963484126846179
 20
10.508627359001251
 30
0.0000000000000001
 70
     8
  0
VERTEX
  5
C12D
  8
PROF
 10
2.5599785409415841
 20
10.489787250235279
 30
0.0000000000000001
 70
     8
  0
VERTEX
  5
C12E
  8
PROF
 10
2.522998630314361
 20
10.472162234281081
 30
0.0000000000000001
 70
     8
  0
VERTEX
  5
C12F
  8
PROF
 10
2.4851078183409072
 20
10.455805721177621
 30
0.0000000000000001
 70
     8
  0
VERTEX
  5
C130
  8
PROF
 10
2.4459376022498982
 20
10.44078455187036
 30
0.0000000000000001
 70
     8
  0
VERTEX
  5
C131
  8
PROF
 10
2.4051194792701249
 20
10.42716556730465
 30
0.0000000000000001
 70
     8
  0
VERTEX
  5
C132
  8
PROF
 10
2.3622849466301541
 20
10.415015608425851
 30
0.0000000000000001
 70
     8
  0
VERTEX
  5
C133
  8
PROF
 10
2.317065501558714
 20
10.40440151617929
 30
0.0000000000000001
 70
     8
  0
VERTEX
  5
C134
  8
PROF
 10
2.2690926412844301
 20
10.395390131510339
 30
0.0000000000000001
 70
     8
  0
VERTEX
  5
C135
  8
PROF
 10
2.2179978630360879
 20
10.388048295364451
 30
0.0000000000000001
 70
     8
  0
VERTEX
  5
C136
  8
PROF
 10
2.1634126640422551
 20
10.38244284868688
 30
0.0000000000000001
 70
     8
  0
VERTEX
  5
C137
  8
PROF
 10
2.1049685415316031
 20
10.37864063242295
 30
0.0000000000000001
 70
     8
  0
VERTEX
  5
C138
  8
PROF
 10
2.0422969927328709
 20
10.37670848751816
 30
0.0000000000000001
 70
     8
  0
VERTEX
  5
C139
  8
PROF
 10
1.9750295148747341
 20
10.37671325491794
 30
0.0000000000000001
 70
     8
  0
VERTEX
  5
C13A
  8
PROF
 10
4.2166060115107484
 20
12.80885334975255
 30
0.0000000000000001
 70
    16
  0
VERTEX
  5
C13B
  8
PROF
 10
3.8702254102732909
 20
12.707065515763929
 30
0.0000000000000001
 70
    16
  0
VERTEX
  5
C13C
  8
PROF
 10
3.605346156896871
 20
12.46277472098552
 30
0.0000000000000001
 70
    16
  0
VERTEX
  5
C13D
  8
PROF
 10
3.500746030527238
 20
12.170680575709749
 30
0.0000000000000001
 70
    16
  0
VERTEX
  5
C13E
  8
PROF
 10
3.231798439705698
 20
11.26846416496107
 30
0.0000000000000001
 70
    16
  0
VERTEX
  5
C13F
  8
PROF
 10
2.9737109398832882
 20
10.76631086647069
 30
0.0000000000000001
 70
    16
  0
VERTEX
  5
C140
  8
PROF
 10
2.5729961067384002
 20
10.460947364504699
 30
0.0000000000000001
 70
    16
  0
VERTEX
  5
C141
  8
PROF
 10
2.2537826214546031
 20
10.372731239449759
 30
0.0000000000000001
 70
    16
  0
VERTEX
  5
C142
  8
PROF
 10
1.9750295148747341
 20
10.37671325491794
 30
0.0000000000000001
 70
    16
  0
SEQEND
  5
C143
  8
PROF
  0
LINE
  5
C144
  8
PROF
 10
4.9012016798694162
 20
12.88585218805485
 30
0.0000000000000003
 11
4.519857503186925
 21
12.88585218805485
 31
0.0000000000000003
  0
LINE
  5
C145
  8
PROF
 10
0.7321315362267457
 20
8.2026312473991556
 30
0.0000000000000006
 11
0.7321315362267457
 21
8.0511853963434952
 31
0.0000000000000006
  0
ARC
  5
C146
  8
PROF
 10
0.7977322214551919
 20
7.577333933202679
 30
0.0000000000000006
 40
0.4783708383912013
 50
97.882010168942557
 51
186.31119505698641
  0
LINE
  5
C147
  8
FRAME_050
 10
7.8016377197432121
 20
17.99371054969447
 30
0.0
 11
7.8016377197432121
 21
0.0000000000002274
 31
0.0
  0
ENDBLK
  5
C149
  8
0
  0
BLOCK
  8
0
  2
*U7
 70
     1
 10
0.0
 20
0.0
 30
0.0
  3
*U7
  1

  0
TEXT
  5
C8C3
  8
0
 10
3.5177832928899071
 20
10.38601584255777
 30
0.0
 40
0.125
  1
Crown Moulding
  0
TEXT
  5
C8C4
  8
0
 10
3.5223876585106431
 20
10.17717091304435
 30
0.0
 40
0.125
  1
TL-AB509
  0
TEXT
  5
C8C5
  8
0
 10
3.5074661032582561
 20
9.9667059289606801
 30
0.0
 40
0.125
  1
1-5/16" x 7-9/16"
  0
TEXT
  5
C8C6
  8
0
 10
3.519403347460166
 20
9.7562409448770051
 30
0.0
 40
0.125
  1
800.66.TAGUE
  0
ENDBLK
  5
C8C8
  8
0
  0
BLOCK
  8
0
  2
*U8
 70
     1
 10
0.0
 20
0.0
 30
0.0
  3
*U8
  1

  0
TEXT
  5
C8CA
  8
0
 10
5.3066868277875692
 20
1.767659498411035
 30
0.0
 40
0.125
  1
Back Band
  0
TEXT
  5
C8CB
  8
0
 10
5.3153839628489603
 20
1.55881456889762
 30
0.0
 40
0.125
  1
TL-1
  0
TEXT
  5
C8CC
  8
0
 10
5.3004624075965721
 20
1.3483495848139451
 30
0.0
 40
0.125
  1
1-3/8" x 1-9/16"
  0
TEXT
  5
C8CD
  8
0
 10
5.3123996517984811
 20
1.1378846007302701
 30
0.0
 40
0.125
  1
800.66.TAGUE
  0
ENDBLK
  5
C8CF
  8
0
  0
BLOCK
  8
0
  2
*U9
 70
     1
 10
0.0
 20
0.0
 30
0.0
  3
*U9
  1

  0
TEXT
  5
C8D1
  8
0
 10
-385.7580743253551
 20
838.2627455404056
 30
0.0
 40
0.125
  1
Back Band
  0
TEXT
  5
C8D2
  8
0
 10
-385.74937719029373
 20
838.05390061089247
 30
0.0
 40
0.125
  1
TL-1
  0
TEXT
  5
C8D3
  8
0
 10
-385.76429874554611
 20
837.84343562680851
 30
0.0
 40
0.125
  1
1-3/8" x 1-9/16"
  0
TEXT
  5
C8D4
  8
0
 10
-385.75236150134418
 20
837.63297064272513
 30
0.0
 40
0.125
  1
800.66.TAGUE
  0
ENDBLK
  5
C8D6
  8
0
  0
BLOCK
  8
0
  2
*D21
 70
     1
 10
0.0
 20
0.0
 30
0.0
  3
*D21
  1

  0
LINE
  5
CDAB
  8
0
 62
     0
 10
-346.64573732984462
 20
509.42191863586828
 30
0.0
 11
-346.03266106471222
 21
509.42191863586828
 31
0.0
  0
LINE
  5
CDAC
  8
0
 62
     0
 10
-347.59461414974379
 20
507.61166709199199
 30
0.0
 11
-346.03266106471222
 21
507.61166709199199
 31
0.0
  0
LINE
  5
CDAD
  8
0
 62
     0
 10
-346.09516106471222
 20
509.42191863586828
 30
0.0
 11
-346.09516106471222
 21
507.61166709199199
 31
0.0
  0
INSERT
  5
CDAE
  8
0
 62
     0
  2
_ARCHTICK
 10
-346.09516106471222
 20
509.42191863586828
 30
0.0
 41
0.046875
 42
0.046875
 43
0.046875
 50
90.0
  0
INSERT
  5
CDAF
  8
0
 62
     0
  2
_ARCHTICK
 10
-346.09516106471222
 20
507.61166709199199
 30
0.0
 41
0.046875
 42
0.046875
 43
0.046875
 50
270.0
  0
INSERT
  5
CDB0
  8
0
  2
*U158
 10
0.0
 20
0.0
 30
0.0
  0
POINT
  5
CDB1
  8
DEFPOINTS
 62
     0
 10
-346.73948732984462
 20
509.42191863586828
 30
0.0
  0
POINT
  5
CDB2
  8
DEFPOINTS
 62
     0
 10
-347.68836414974379
 20
507.61166709199199
 30
0.0
  0
POINT
  5
CDB3
  8
DEFPOINTS
 62
     0
 10
-346.09516106471222
 20
507.61166709199199
 30
0.0
  0
ENDBLK
  5
CDB4
  8
0
  0
BLOCK
  8
0
  2
*D23
 70
     1
 10
0.0
 20
0.0
 30
0.0
  3
*D23
  1

  0
LINE
  5
CDEB
  8
0
 62
     0
 10
-387.02714157709249
 20
839.57969957928674
 30
0.0
 11
-386.41406531196009
 21
839.57969957928674
 31
0.0
  0
LINE
  5
CDEC
  8
0
 62
     0
 10
-387.97601839699172
 20
837.76944803541039
 30
0.0
 11
-386.41406531196009
 21
837.76944803541039
 31
0.0
  0
LINE
  5
CDED
  8
0
 62
     0
 10
-386.47656531196009
 20
839.57969957928674
 30
0.0
 11
-386.47656531196009
 21
837.76944803541039
 31
0.0
  0
INSERT
  5
CDEE
  8
0
 62
     0
  2
_ARCHTICK
 10
-386.47656531196009
 20
839.57969957928674
 30
0.0
 41
0.046875
 42
0.046875
 43
0.046875
 50
90.0
  0
INSERT
  5
CDEF
  8
0
 62
     0
  2
_ARCHTICK
 10
-386.47656531196009
 20
837.76944803541039
 30
0.0
 41
0.046875
 42
0.046875
 43
0.046875
 50
270.0
  0
INSERT
  5
CDF0
  8
0
  2
*U160
 10
0.0
 20
0.0
 30
0.0
  0
POINT
  5
CDF1
  8
DEFPOINTS
 62
     0
 10
-387.12089157709249
 20
839.57969957928674
 30
0.0
  0
POINT
  5
CDF2
  8
DEFPOINTS
 62
     0
 10
-388.06976839699172
 20
837.76944803541039
 30
0.0
  0
POINT
  5
CDF3
  8
DEFPOINTS
 62
     0
 10
-386.47656531196009
 20
837.76944803541039
 30
0.0
  0
ENDBLK
  5
CDEA
  8
0
  0
BLOCK
  8
0
  2
*D79
 70
     1
 10
0.0
 20
0.0
 30
0.0
  3
*D79
  1

  0
LINE
  5
11681
  8
0
 62
     0
 10
-365.81818307486373
 20
427.35429858331162
 30
0.0
 11
-366.93955544547038
 21
427.35429858331162
 31
0.0
  0
LINE
  5
11682
  8
0
 62
     0
 10
-365.81818307486373
 20
425.60429858331167
 30
0.0
 11
-366.93955544547038
 21
425.60429858331167
 31
0.0
  0
LINE
  5
11683
  8
0
 62
     0
 10
-366.87705544547038
 20
427.35429858331162
 30
0.0
 11
-366.87705544547038
 21
425.60429858331167
 31
0.0
  0
INSERT
  5
11684
  8
0
 62
     0
  2
_ARCHTICK
 10
-366.87705544547038
 20
427.35429858331162
 30
0.0
 41
0.046875
 42
0.046875
 43
0.046875
 50
90.0
  0
INSERT
  5
11685
  8
0
 62
     0
  2
_ARCHTICK
 10
-366.87705544547038
 20
425.60429858331167
 30
0.0
 41
0.046875
 42
0.046875
 43
0.046875
 50
270.0
  0
INSERT
  5
11686
  8
0
  2
*U209
 10
0.0
 20
0.0
 30
0.0
  0
POINT
  5
11687
  8
DEFPOINTS
 62
     0
 10
-365.72443307486373
 20
427.35429858331162
 30
0.0
  0
POINT
  5
11688
  8
DEFPOINTS
 62
     0
 10
-365.72443307486373
 20
425.60429858331167
 30
0.0
  0
POINT
  5
11689
  8
DEFPOINTS
 62
     0
 10
-366.87705544547038
 20
425.60429858331167
 30
0.0
  0
ENDBLK
  5
1168A
  8
0
  0
BLOCK
  8
0
  2
*D80
 70
     1
 10
0.0
 20
0.0
 30
0.0
  3
*D80
  1

  0
LINE
  5
1168D
  8
0
 62
     0
 10
-364.54417472031452
 20
426.21180552517308
 30
0.0
 11
-364.54417472031452
 21
424.99659347863422
 31
0.0
  0
LINE
  5
1168E
  8
0
 62
     0
 10
-363.66917472031452
 20
426.21180552517308
 30
0.0
 11
-363.66917472031452
 21
424.99659347863422
 31
0.0
  0
LINE
  5
1168F
  8
0
 62
     0
 10
-364.54417472031452
 20
425.05909347863428
 30
0.0
 11
-363.66917472031452
 21
425.05909347863428
 31
0.0
  0
INSERT
  5
11690
  8
0
 62
     0
  2
_ARCHTICK
 10
-364.54417472031452
 20
425.05909347863428
 30
0.0
 41
0.046875
 42
0.046875
 43
0.046875
 50
180.0
  0
INSERT
  5
11691
  8
0
 62
     0
  2
_ARCHTICK
 10
-363.66917472031452
 20
425.05909347863428
 30
0.0
 41
0.046875
 42
0.046875
 43
0.046875
  0
INSERT
  5
11692
  8
0
  2
*U210
 10
0.0
 20
0.0
 30
0.0
  0
POINT
  5
11693
  8
DEFPOINTS
 62
     0
 10
-364.54417472031452
 20
426.30555552517302
 30
0.0
  0
POINT
  5
11694
  8
DEFPOINTS
 62
     0
 10
-363.66917472031452
 20
426.30555552517302
 30
0.0
  0
POINT
  5
11695
  8
DEFPOINTS
 62
     0
 10
-363.66917472031452
 20
425.05909347863428
 30
0.0
  0
ENDBLK
  5
11696
  8
0
  0
BLOCK
  8
0
  2
*D81
 70
     1
 10
0.0
 20
0.0
 30
0.0
  3
*D81
  1

  0
LINE
  5
11699
  8
0
 62
     0
 10
-363.88792472031452
 20
427.24305552517302
 30
0.0
 11
-362.93745003010213
 21
427.24305552517302
 31
0.0
  0
LINE
  5
1169A
  8
0
 62
     0
 10
-364.0129247203148
 20
425.72929858331162
 30
0.0
 11
-362.93745003010213
 21
425.72929858331162
 31
0.0
  0
LINE
  5
1169B
  8
0
 62
     0
 10
-362.99995003010213
 20
427.24305552517302
 30
0.0
 11
-362.99995003010213
 21
425.72929858331162
 31
0.0
  0
INSERT
  5
1169C
  8
0
 62
     0
  2
_ARCHTICK
 10
-362.99995003010213
 20
427.24305552517302
 30
0.0
 41
0.046875
 42
0.046875
 43
0.046875
 50
90.0
  0
INSERT
  5
1169D
  8
0
 62
     0
  2
_ARCHTICK
 10
-362.99995003010213
 20
425.72929858331162
 30
0.0
 41
0.046875
 42
0.046875
 43
0.046875
 50
270.0
  0
INSERT
  5
1169E
  8
0
  2
*U211
 10
0.0
 20
0.0
 30
0.0
  0
POINT
  5
1169F
  8
DEFPOINTS
 62
     0
 10
-363.98167472031452
 20
427.24305552517302
 30
0.0
  0
POINT
  5
116A0
  8
DEFPOINTS
 62
     0
 10
-364.1066747203148
 20
425.72929858331162
 30
0.0
  0
POINT
  5
116A1
  8
DEFPOINTS
 62
     0
 10
-362.99995003010213
 20
425.72929858331162
 30
0.0
  0
ENDBLK
  5
116A2
  8
0
  0
BLOCK
  8
0
  2
*D83
 70
     1
 10
0.0
 20
0.0
 30
0.0
  3
*D83
  1

  0
LINE
  5
11701
  8
0
 62
     0
 10
-386.76054169220339
 20
839.74518098663441
 30
0.0
 11
-387.88191406281021
 21
839.74518098663441
 31
0.0
  0
LINE
  5
11702
  8
0
 62
     0
 10
-386.76054169220339
 20
837.99518098663441
 30
0.0
 11
-387.88191406281021
 21
837.99518098663441
 31
0.0
  0
LINE
  5
11703
  8
0
 62
     0
 10
-387.81941406281021
 20
839.74518098663441
 30
0.0
 11
-387.81941406281021
 21
837.99518098663441
 31
0.0
  0
INSERT
  5
11704
  8
0
 62
     0
  2
_ARCHTICK
 10
-387.81941406281021
 20
839.74518098663441
 30
0.0
 41
0.046875
 42
0.046875
 43
0.046875
 50
90.0
  0
INSERT
  5
11705
  8
0
 62
     0
  2
_ARCHTICK
 10
-387.81941406281021
 20
837.99518098663441
 30
0.0
 41
0.046875
 42
0.046875
 43
0.046875
 50
270.0
  0
INSERT
  5
11706
  8
0
  2
*U212
 10
0.0
 20
0.0
 30
0.0
  0
POINT
  5
11707
  8
DEFPOINTS
 62
     0
 10
-386.66679169220339
 20
839.74518098663441
 30
0.0
  0
POINT
  5
11708
  8
DEFPOINTS
 62
     0
 10
-386.66679169220339
 20
837.99518098663441
 30
0.0
  0
POINT
  5
11709
  8
DEFPOINTS
 62
     0
 10
-387.81941406281021
 20
837.99518098663441
 30
0.0
  0
ENDBLK
  5
116E8
  8
0
  0
BLOCK
  8
0
  2
*D84
 70
     1
 10
0.0
 20
0.0
 30
0.0
  3
*D84
  1

  0
LINE
  5
1170A
  8
0
 62
     0
 10
-385.48653333765429
 20
838.60268792849581
 30
0.0
 11
-385.48653333765429
 21
837.3874758819569
 31
0.0
  0
LINE
  5
1170B
  8
0
 62
     0
 10
-384.61153333765429
 20
838.60268792849581
 30
0.0
 11
-384.61153333765429
 21
837.3874758819569
 31
0.0
  0
LINE
  5
1170C
  8
0
 62
     0
 10
-385.48653333765429
 20
837.44997588195702
 30
0.0
 11
-384.61153333765429
 21
837.44997588195702
 31
0.0
  0
INSERT
  5
1170D
  8
0
 62
     0
  2
_ARCHTICK
 10
-385.48653333765429
 20
837.44997588195702
 30
0.0
 41
0.046875
 42
0.046875
 43
0.046875
 50
180.0
  0
INSERT
  5
1170E
  8
0
 62
     0
  2
_ARCHTICK
 10
-384.61153333765429
 20
837.44997588195702
 30
0.0
 41
0.046875
 42
0.046875
 43
0.046875
  0
INSERT
  5
1170F
  8
0
  2
*U213
 10
0.0
 20
0.0
 30
0.0
  0
POINT
  5
11710
  8
DEFPOINTS
 62
     0
 10
-385.48653333765429
 20
838.6964379284957
 30
0.0
  0
POINT
  5
11711
  8
DEFPOINTS
 62
     0
 10
-384.61153333765429
 20
838.6964379284957
 30
0.0
  0
POINT
  5
11712
  8
DEFPOINTS
 62
     0
 10
-384.61153333765429
 20
837.44997588195702
 30
0.0
  0
ENDBLK
  5
116F4
  8
0
  0
BLOCK
  8
0
  2
*D85
 70
     1
 10
0.0
 20
0.0
 30
0.0
  3
*D85
  1

  0
LINE
  5
11713
  8
0
 62
     0
 10
-384.83028333765429
 20
839.63393792849581
 30
0.0
 11
-383.87980864744191
 21
839.63393792849581
 31
0.0
  0
LINE
  5
11714
  8
0
 62
     0
 10
-384.95528333765452
 20
838.1201809866343
 30
0.0
 11
-383.87980864744191
 21
838.1201809866343
 31
0.0
  0
LINE
  5
11715
  8
0
 62
     0
 10
-383.94230864744191
 20
839.63393792849581
 30
0.0
 11
-383.94230864744191
 21
838.1201809866343
 31
0.0
  0
INSERT
  5
11716
  8
0
 62
     0
  2
_ARCHTICK
 10
-383.94230864744191
 20
839.63393792849581
 30
0.0
 41
0.046875
 42
0.046875
 43
0.046875
 50
90.0
  0
INSERT
  5
11717
  8
0
 62
     0
  2
_ARCHTICK
 10
-383.94230864744191
 20
838.1201809866343
 30
0.0
 41
0.046875
 42
0.046875
 43
0.046875
 50
270.0
  0
INSERT
  5
11718
  8
0
  2
*U214
 10
0.0
 20
0.0
 30
0.0
  0
POINT
  5
11719
  8
DEFPOINTS
 62
     0
 10
-384.92403333765429
 20
839.63393792849581
 30
0.0
  0
POINT
  5
1171A
  8
DEFPOINTS
 62
     0
 10
-385.04903333765452
 20
838.1201809866343
 30
0.0
  0
POINT
  5
1171B
  8
DEFPOINTS
 62
     0
 10
-383.94230864744191
 20
838.1201809866343
 30
0.0
  0
ENDBLK
  5
11700
  8
0
  0
BLOCK
  8
0
  2
*D87
 70
     1
 10
0.0
 20
0.0
 30
0.0
  3
*D87
  1

  0
LINE
  5
11B0C
  8
0
 62
     0
 10
-321.4967715029747
 20
426.11559169813472
 30
0.0
 11
-323.04650060770268
 21
426.11559169813472
 31
0.0
  0
LINE
  5
11B0D
  8
0
 62
     0
 10
-321.4967715029747
 20
424.36559169813472
 30
0.0
 11
-323.04650060770268
 21
424.36559169813472
 31
0.0
  0
LINE
  5
11B0E
  8
0
 62
     0
 10
-322.98400060770268
 20
426.11559169813472
 30
0.0
 11
-322.98400060770268
 21
424.36559169813472
 31
0.0
  0
INSERT
  5
11B0F
  8
0
 62
     0
  2
_ARCHTICK
 10
-322.98400060770268
 20
426.11559169813472
 30
0.0
 41
0.046875
 42
0.046875
 43
0.046875
 50
90.0
  0
INSERT
  5
11B10
  8
0
 62
     0
  2
_ARCHTICK
 10
-322.98400060770268
 20
424.36559169813472
 30
0.0
 41
0.046875
 42
0.046875
 43
0.046875
 50
270.0
  0
INSERT
  5
11B11
  8
0
  2
*U215
 10
0.0
 20
0.0
 30
0.0
  0
POINT
  5
11B12
  8
DEFPOINTS
 62
     0
 10
-321.4030215029747
 20
426.11559169813472
 30
0.0
  0
POINT
  5
11B13
  8
DEFPOINTS
 62
     0
 10
-321.4030215029747
 20
424.36559169813472
 30
0.0
  0
POINT
  5
11B14
  8
DEFPOINTS
 62
     0
 10
-322.98400060770268
 20
424.36559169813472
 30
0.0
  0
ENDBLK
  5
11B15
  8
0
  0
BLOCK
  8
0
  2
*D88
 70
     1
 10
0.0
 20
0.0
 30
0.0
  3
*D88
  1

  0
LINE
  5
11B18
  8
0
 62
     0
 10
-319.28256169396042
 20
425.92809169813472
 30
0.0
 11
-318.41048055355549
 21
425.92809169813472
 31
0.0
  0
LINE
  5
11B19
  8
0
 62
     0
 10
-319.28256169396042
 20
424.55309169813472
 30
0.0
 11
-318.41048055355549
 21
424.55309169813472
 31
0.0
  0
LINE
  5
11B1A
  8
0
 62
     0
 10
-318.47298055355549
 20
425.92809169813472
 30
0.0
 11
-318.47298055355549
 21
424.55309169813472
 31
0.0
  0
INSERT
  5
11B1B
  8
0
 62
     0
  2
_ARCHTICK
 10
-318.47298055355549
 20
425.92809169813472
 30
0.0
 41
0.046875
 42
0.046875
 43
0.046875
 50
90.0
  0
INSERT
  5
11B1C
  8
0
 62
     0
  2
_ARCHTICK
 10
-318.47298055355549
 20
424.55309169813472
 30
0.0
 41
0.046875
 42
0.046875
 43
0.046875
 50
270.0
  0
INSERT
  5
11B1D
  8
0
  2
*U216
 10
0.0
 20
0.0
 30
0.0
  0
POINT
  5
11B1E
  8
DEFPOINTS
 62
     0
 10
-319.37631169396042
 20
425.92809169813472
 30
0.0
  0
POINT
  5
11B1F
  8
DEFPOINTS
 62
     0
 10
-319.37631169396042
 20
424.55309169813472
 30
0.0
  0
POINT
  5
11B20
  8
DEFPOINTS
 62
     0
 10
-318.47298055355549
 20
424.55309169813472
 30
0.0
  0
ENDBLK
  5
11B21
  8
0
  0
BLOCK
  8
0
  2
*D90
 70
     1
 10
0.0
 20
0.0
 30
0.0
  3
*D90
  1

  0
LINE
  5
11B82
  8
0
 62
     0
 10
-385.93155206415412
 20
839.89288512488679
 30
0.0
 11
-387.48128116888211
 21
839.89288512488679
 31
0.0
  0
LINE
  5
11B83
  8
0
 62
     0
 10
-385.93155206415412
 20
838.14288512488679
 30
0.0
 11
-387.48128116888211
 21
838.14288512488679
 31
0.0
  0
LINE
  5
11B84
  8
0
 62
     0
 10
-387.41878116888211
 20
839.89288512488679
 30
0.0
 11
-387.41878116888211
 21
838.14288512488679
 31
0.0
  0
INSERT
  5
11B85
  8
0
 62
     0
  2
_ARCHTICK
 10
-387.41878116888211
 20
839.89288512488679
 30
0.0
 41
0.046875
 42
0.046875
 43
0.046875
 50
90.0
  0
INSERT
  5
11B86
  8
0
 62
     0
  2
_ARCHTICK
 10
-387.41878116888211
 20
838.14288512488679
 30
0.0
 41
0.046875
 42
0.046875
 43
0.046875
 50
270.0
  0
INSERT
  5
11B87
  8
0
  2
*U217
 10
0.0
 20
0.0
 30
0.0
  0
POINT
  5
11B88
  8
DEFPOINTS
 62
     0
 10
-385.83780206415412
 20
839.89288512488679
 30
0.0
  0
POINT
  5
11B89
  8
DEFPOINTS
 62
     0
 10
-385.83780206415412
 20
838.14288512488679
 30
0.0
  0
POINT
  5
11B8A
  8
DEFPOINTS
 62
     0
 10
-387.41878116888211
 20
838.14288512488679
 30
0.0
  0
ENDBLK
  5
11B75
  8
0
  0
BLOCK
  8
0
  2
*D91
 70
     1
 10
0.0
 20
0.0
 30
0.0
  3
*D91
  1

  0
LINE
  5
11B8B
  8
0
 62
     0
 10
-383.71734225513978
 20
839.70538512488679
 30
0.0
 11
-382.84526111473491
 21
839.70538512488679
 31
0.0
  0
LINE
  5
11B8C
  8
0
 62
     0
 10
-383.71734225513978
 20
838.33038512488679
 30
0.0
 11
-382.84526111473491
 21
838.33038512488679
 31
0.0
  0
LINE
  5
11B8D
  8
0
 62
     0
 10
-382.90776111473491
 20
839.70538512488679
 30
0.0
 11
-382.90776111473491
 21
838.33038512488679
 31
0.0
  0
INSERT
  5
11B8E
  8
0
 62
     0
  2
_ARCHTICK
 10
-382.90776111473491
 20
839.70538512488679
 30
0.0
 41
0.046875
 42
0.046875
 43
0.046875
 50
90.0
  0
INSERT
  5
11B8F
  8
0
 62
     0
  2
_ARCHTICK
 10
-382.90776111473491
 20
838.33038512488679
 30
0.0
 41
0.046875
 42
0.046875
 43
0.046875
 50
270.0
  0
INSERT
  5
11B90
  8
0
  2
*U218
 10
0.0
 20
0.0
 30
0.0
  0
POINT
  5
11B91
  8
DEFPOINTS
 62
     0
 10
-383.81109225513978
 20
839.70538512488679
 30
0.0
  0
POINT
  5
11B92
  8
DEFPOINTS
 62
     0
 10
-383.81109225513978
 20
838.33038512488679
 30
0.0
  0
POINT
  5
11B93
  8
DEFPOINTS
 62
     0
 10
-382.90776111473491
 20
838.33038512488679
 30
0.0
  0
ENDBLK
  5
11B81
  8
0
  0
BLOCK
  8
0
  2
*D128
 70
     1
 10
0.0
 20
0.0
 30
0.0
  3
*D128
  1

  0
LINE
  5
17AED
  8
0
 62
     0
 10
-265.85715049456587
 20
274.42038345687388
 30
0.0
 11
-266.22047975343469
 21
274.42038345687388
 31
0.0
  0
LINE
  5
17AEE
  8
0
 62
     0
 10
-265.52696349978612
 20
273.09820699771632
 30
0.0
 11
-266.22047975343469
 21
273.09820699771632
 31
0.0
  0
LINE
  5
17AEF
  8
0
 62
     0
 10
-266.15797975343457
 20
274.42038345687388
 30
0.0
 11
-266.15797975343457
 21
273.09820699771632
 31
0.0
  0
INSERT
  5
17AF0
  8
0
 62
     0
  2
_ARCHTICK
 10
-266.15797975343457
 20
274.42038345687388
 30
0.0
 41
0.046875
 42
0.046875
 43
0.046875
 50
90.0
  0
INSERT
  5
17AF1
  8
0
 62
     0
  2
_ARCHTICK
 10
-266.15797975343457
 20
273.09820699771632
 30
0.0
 41
0.046875
 42
0.046875
 43
0.046875
 50
270.0
  0
INSERT
  5
17AF2
  8
0
  2
*U253
 10
0.0
 20
0.0
 30
0.0
  0
POINT
  5
17AF3
  8
DEFPOINTS
 62
     0
 10
-265.76340049456587
 20
274.42038345687388
 30
0.0
  0
POINT
  5
17AF4
  8
DEFPOINTS
 62
     0
 10
-265.43321349978612
 20
273.09820699771632
 30
0.0
  0
POINT
  5
17AF5
  8
DEFPOINTS
 62
     0
 10
-266.15797975343457
 20
273.09820699771632
 30
0.0
  0
ENDBLK
  5
17AF6
  8
0
  0
BLOCK
  8
0
  2
*D129
 70
     1
 10
0.0
 20
0.0
 30
0.0
  3
*D129
  1

  0
LINE
  5
17AF9
  8
0
 62
     0
 10
-265.76340049456587
 20
274.32663345687388
 30
0.0
 11
-265.76340049456587
 21
273.69679522729513
 31
0.0
  0
LINE
  5
17AFA
  8
0
 62
     0
 10
-265.43321349978612
 20
274.32663345687388
 30
0.0
 11
-265.43321349978612
 21
273.69679522729513
 31
0.0
  0
LINE
  5
17AFB
  8
0
 62
     0
 10
-265.76340049456587
 20
273.75929522729513
 30
0.0
 11
-265.81027549456587
 21
273.75929522729513
 31
0.0
  0
LINE
  5
17AFC
  8
0
 62
     0
 10
-265.43321349978612
 20
273.75929522729513
 30
0.0
 11
-265.38633849978612
 21
273.75929522729513
 31
0.0
  0
INSERT
  5
17AFD
  8
0
 62
     0
  2
_ARCHTICK
 10
-265.76340049456587
 20
273.75929522729513
 30
0.0
 41
0.046875
 42
0.046875
 43
0.046875
  0
INSERT
  5
17AFE
  8
0
 62
     0
  2
_ARCHTICK
 10
-265.43321349978612
 20
273.75929522729513
 30
0.0
 41
0.046875
 42
0.046875
 43
0.046875
 50
180.0
  0
INSERT
  5
17AFF
  8
0
  2
*U254
 10
0.0
 20
0.0
 30
0.0
  0
POINT
  5
17B00
  8
DEFPOINTS
 62
     0
 10
-265.76340049456587
 20
274.42038345687388
 30
0.0
  0
POINT
  5
17B01
  8
DEFPOINTS
 62
     0
 10
-265.43321349978612
 20
274.42038345687388
 30
0.0
  0
POINT
  5
17B02
  8
DEFPOINTS
 62
     0
 10
-265.43321349978612
 20
273.75929522729513
 30
0.0
  0
ENDBLK
  5
17B03
  8
0
  0
BLOCK
  8
0
  2
*D131
 70
     1
 10
0.0
 20
0.0
 30
0.0
  3
*D131
  1

  0
LINE
  5
17B39
  8
0
 62
     0
 10
-387.65429506319202
 20
839.30724886751887
 30
0.0
 11
-388.01762432206078
 21
839.30724886751887
 31
0.0
  0
LINE
  5
17B3A
  8
0
 62
     0
 10
-387.32410806841222
 20
837.98507240836125
 30
0.0
 11
-388.01762432206078
 21
837.98507240836125
 31
0.0
  0
LINE
  5
17B3B
  8
0
 62
     0
 10
-387.95512432206078
 20
839.30724886751887
 30
0.0
 11
-387.95512432206078
 21
837.98507240836125
 31
0.0
  0
INSERT
  5
17B3C
  8
0
 62
     0
  2
_ARCHTICK
 10
-387.95512432206078
 20
839.30724886751887
 30
0.0
 41
0.046875
 42
0.046875
 43
0.046875
 50
90.0
  0
INSERT
  5
17B3D
  8
0
 62
     0
  2
_ARCHTICK
 10
-387.95512432206078
 20
837.98507240836125
 30
0.0
 41
0.046875
 42
0.046875
 43
0.046875
 50
270.0
  0
INSERT
  5
17B3E
  8
0
  2
*U256
 10
0.0
 20
0.0
 30
0.0
  0
POINT
  5
17B3F
  8
DEFPOINTS
 62
     0
 10
-387.56054506319202
 20
839.30724886751887
 30
0.0
  0
POINT
  5
17B40
  8
DEFPOINTS
 62
     0
 10
-387.23035806841222
 20
837.98507240836125
 30
0.0
  0
POINT
  5
17B41
  8
DEFPOINTS
 62
     0
 10
-387.95512432206078
 20
837.98507240836125
 30
0.0
  0
ENDBLK
  5
17B2B
  8
0
  0
BLOCK
  8
0
  2
*D132
 70
     1
 10
0.0
 20
0.0
 30
0.0
  3
*D132
  1

  0
LINE
  5
17B42
  8
0
 62
     0
 10
-387.56054506319202
 20
839.21349886751898
 30
0.0
 11
-387.56054506319202
 21
838.58366063794006
 31
0.0
  0
LINE
  5
17B43
  8
0
 62
     0
 10
-387.23035806841222
 20
839.21349886751898
 30
0.0
 11
-387.23035806841222
 21
838.58366063794006
 31
0.0
  0
LINE
  5
17B44
  8
0
 62
     0
 10
-387.56054506319202
 20
838.64616063794017
 30
0.0
 11
-387.60742006319202
 21
838.64616063794017
 31
0.0
  0
LINE
  5
17B45
  8
0
 62
     0
 10
-387.23035806841222
 20
838.64616063794017
 30
0.0
 11
-387.18348306841222
 21
838.64616063794017
 31
0.0
  0
INSERT
  5
17B46
  8
0
 62
     0
  2
_ARCHTICK
 10
-387.56054506319202
 20
838.64616063794017
 30
0.0
 41
0.046875
 42
0.046875
 43
0.046875
  0
INSERT
  5
17B47
  8
0
 62
     0
  2
_ARCHTICK
 10
-387.23035806841222
 20
838.64616063794017
 30
0.0
 41
0.046875
 42
0.046875
 43
0.046875
 50
180.0
  0
INSERT
  5
17B48
  8
0
  2
*U257
 10
0.0
 20
0.0
 30
0.0
  0
POINT
  5
17B49
  8
DEFPOINTS
 62
     0
 10
-387.56054506319202
 20
839.30724886751887
 30
0.0
  0
POINT
  5
17B4A
  8
DEFPOINTS
 62
     0
 10
-387.23035806841222
 20
839.30724886751887
 30
0.0
  0
POINT
  5
17B4B
  8
DEFPOINTS
 62
     0
 10
-387.23035806841222
 20
838.64616063794017
 30
0.0
  0
ENDBLK
  5
17B38
  8
0
  0
BLOCK
  8
0
  2
*U147
 70
     1
 10
0.0
 20
0.0
 30
0.0
  3
*U147
  1

  0
TEXT
  5
19EF9
  8
0
 10
2.0520856342580478
 20
1.4053520973297959
 30
0.0
 40
0.125
  1
Exterior Casing
  0
TEXT
  5
19EFA
  8
0
 10
2.0520856342580478
 20
1.1970187639964629
 30
0.0
 40
0.125
  1
TL-180
  0
TEXT
  5
19EFB
  8
0
 10
2.0520856342580478
 20
0.9886854306631298
 30
0.0
 40
0.125
  1
1-1/4" x 2"
  0
TEXT
  5
19EFC
  8
0
 10
2.0520856342580478
 20
0.7803520973297964
 30
0.0
 40
0.125
  1
800.66.TAGUE
  0
ENDBLK
  5
19EFE
  8
0
  0
BLOCK
  8
0
  2
*U148
 70
     1
 10
0.0
 20
0.0
 30
0.0
  3
*U148
  1

  0
TEXT
  5
19F00
  8
0
 10
1.875832532300876
 20
1.1538771312937111
 30
0.0
 40
0.125
  1
Exterior Casing
  0
TEXT
  5
19F01
  8
0
 10
1.875832532300876
 20
0.9455437979603782
 30
0.0
 40
0.125
  1
TL-544
  0
TEXT
  5
19F02
  8
0
 10
1.875832532300876
 20
0.7372104646270449
 30
0.0
 40
0.125
  1
1-1/8" x 1-9/16"
  0
TEXT
  5
19F03
  8
0
 10
1.875832532300876
 20
0.5288771312937115
 30
0.0
 40
0.125
  1
800.66.TAGUE
  0
ENDBLK
  5
19F05
  8
0
  0
BLOCK
  8
0
  2
*U149
 70
     1
 10
0.0
 20
0.0
 30
0.0
  3
*U149
  1

  0
TEXT
  5
19F07
  8
0
 10
2.2653468102219558
 20
1.612015904330746
 30
0.0
 40
0.125
  1
Exterior Casing
  0
TEXT
  5
19F08
  8
0
 10
2.2653468102219558
 20
1.403682570997413
 30
0.0
 40
0.125
  1
TL-2023
  0
TEXT
  5
19F09
  8
0
 10
2.2653468102219558
 20
1.19534923766408
 30
0.0
 40
0.125
  1
1-13/16" x 3" 
  0
TEXT
  5
19F0A
  8
0
 10
2.2653468102219558
 20
0.9870159043307467
 30
0.0
 40
0.125
  1
800.66.TAGUE
  0
ENDBLK
  5
19F0C
  8
0
  0
BLOCK
  8
0
  2
*U150
 70
     1
 10
0.0
 20
0.0
 30
0.0
  3
*U150
  1

  0
TEXT
  5
19F0E
  8
0
 10
2.0898675486657221
 20
0.9145072342178082
 30
0.0
 40
0.125
  1
Exterior Casing
  0
TEXT
  5
19F0F
  8
0
 10
2.0898675486657221
 20
0.706173900884475
 30
0.0
 40
0.125
  1
TL-2087
  0
TEXT
  5
19F10
  8
0
 10
2.0898675486657221
 20
0.4978405675511416
 30
0.0
 40
0.125
  1
7/8" x 1-7/16"
  0
TEXT
  5
19F11
  8
0
 10
2.0898675486657221
 20
0.2895072342178082
 30
0.0
 40
0.125
  1
800.66.TAGUE
  0
ENDBLK
  5
19F13
  8
0
  0
BLOCK
  8
0
  2
*U151
 70
     1
 10
0.0
 20
0.0
 30
0.0
  3
*U151
  1

  0
TEXT
  5
19F15
  8
0
 10
2.1806631076311191
 20
0.8419101546792263
 30
0.0
 40
0.125
  1
Exterior Casing
  0
TEXT
  5
19F16
  8
0
 10
2.1806631076311191
 20
0.6335768213458931
 30
0.0
 40
0.125
  1
TL-2158
  0
TEXT
  5
19F17
  8
0
 10
2.1806631076311191
 20
0.4252434880125597
 30
0.0
 40
0.125
  1
1-1/16" x 1-5/16"
  0
TEXT
  5
19F18
  8
0
 10
2.1806631076311191
 20
0.2169101546792262
 30
0.0
 40
0.125
  1
800.66.TAGUE
  0
ENDBLK
  5
19F1A
  8
0
  0
BLOCK
  8
0
  2
*U152
 70
     1
 10
0.0
 20
0.0
 30
0.0
  3
*U152
  1

  0
TEXT
  5
19F1C
  8
0
 10
2.2408536425556909
 20
1.2992247915469759
 30
0.0
 40
0.125
  1
Exterior Casing
  0
TEXT
  5
19F1D
  8
0
 10
2.2408536425556909
 20
1.090891458213642
 30
0.0
 40
0.125
  1
TL-2174
  0
TEXT
  5
19F1E
  8
0
 10
2.2408536425556909
 20
0.8825581248803095
 30
0.0
 40
0.125
  1
1-3/8" x 1-7/16"
  0
TEXT
  5
19F1F
  8
0
 10
2.2408536425556909
 20
0.6742247915469762
 30
0.0
 40
0.125
  1
800.66.TAGUE
  0
ENDBLK
  5
19F21
  8
0
  0
BLOCK
  8
0
  2
*U153
 70
     1
 10
0.0
 20
0.0
 30
0.0
  3
*U153
  1

  0
TEXT
  5
19F23
  8
0
 10
2.8048346441314029
 20
1.129982283289336
 30
0.0
 40
0.125
  1
Exterior Casing
  0
TEXT
  5
19F24
  8
0
 10
2.8048346441314029
 20
0.9216489499560037
 30
0.0
 40
0.125
  1
TL-2175
  0
TEXT
  5
19F25
  8
0
 10
2.8048346441314029
 20
0.7133156166226704
 30
0.0
 40
0.125
  1
1-9/32" x 1-29/32"
  0
TEXT
  5
19F26
  8
0
 10
2.8048346441314029
 20
0.504982283289337
 30
0.0
 40
0.125
  1
800.66.TAGUE
  0
ENDBLK
  5
19F28
  8
0
  0
BLOCK
  8
0
  2
*U154
 70
     1
 10
0.0
 20
0.0
 30
0.0
  3
*U154
  1

  0
TEXT
  5
19F2A
  8
0
 10
2.5484960182450891
 20
0.679430053902138
 30
0.0
 40
0.125
  1
Exterior Casing
  0
TEXT
  5
19F2B
  8
0
 10
2.5484960182450891
 20
0.4710967205688046
 30
0.0
 40
0.125
  1
TL-2176
  0
TEXT
  5
19F2C
  8
0
 10
2.5484960182450891
 20
0.2627633872354712
 30
0.0
 40
0.125
  1
19/32" x 1-5/8"
  0
TEXT
  5
19F2D
  8
0
 10
2.5484960182450891
 20
0.0544300539021379
 30
0.0
 40
0.125
  1
800.66.TAGUE
  0
ENDBLK
  5
19F2F
  8
0
  0
BLOCK
  8
0
  2
*U155
 70
     1
 10
0.0
 20
0.0
 30
0.0
  3
*U155
  1

  0
TEXT
  5
19F31
  8
0
 10
2.105732231568993
 20
0.7255830389262883
 30
0.0
 40
0.125
  1
Exterior Casing
  0
TEXT
  5
19F32
  8
0
 10
2.105732231568993
 20
0.5172497055929551
 30
0.0
 40
0.125
  1
TL-2108
  0
TEXT
  5
19F33
  8
0
 10
2.105732231568993
 20
0.3089163722596217
 30
0.0
 40
0.125
  1
15/16" x 1-1/16"
  0
TEXT
  5
19F34
  8
0
 10
2.105732231568993
 20
0.1005830389262883
 30
0.0
 40
0.125
  1
800.66.TAGUE
  0
ENDBLK
  5
19F36
  8
0
  0
BLOCK
  8
0
  2
*U156
 70
     1
 10
0.0
 20
0.0
 30
0.0
  3
*U156
  1

  0
TEXT
  5
19F38
  8
0
 10
0.0469294570366401
 20
0.67943073463357
 30
0.0
 40
0.125
  1
Exterior Casing
  0
TEXT
  5
19F39
  8
0
 10
0.0469294570366401
 20
0.4710974013002366
 30
0.0
 40
0.125
  1
TL-2206
  0
TEXT
  5
19F3A
  8
0
 10
0.0469294570366401
 20
0.2627640679669033
 30
0.0
 40
0.125
  1
1-3/32" x 1-23/32"
  0
TEXT
  5
19F3B
  8
0
 10
0.0469294570366401
 20
0.05443073463357
 30
0.0
 40
0.125
  1
800.66.TAGUE
  0
ENDBLK
  5
19F3D
  8
0
  0
BLOCK
  8
0
  2
*U157
 70
     1
 10
0.0
 20
0.0
 30
0.0
  3
*U157
  1

  0
TEXT
  5
19F3F
  8
0
 10
0.0449853036485593
 20
0.6794309447934666
 30
0.0
 40
0.125
  1
Exterior Casing
  0
TEXT
  5
19F40
  8
0
 10
0.0449853036485593
 20
0.4710976114601333
 30
0.0
 40
0.125
  1
TL-2207
  0
TEXT
  5
19F41
  8
0
 10
0.0449853036485593
 20
0.2627642781267999
 30
0.0
 40
0.125
  1
1-1/8" x 2-15/16"
  0
TEXT
  5
19F42
  8
0
 10
0.0449853036485593
 20
0.0544309447934666
 30
0.0
 40
0.125
  1
800.66.TAGUE
  0
ENDBLK
  5
19F44
  8
0
  0
BLOCK
  8
0
  2
*U158
 70
     1
 10
0.0
 20
0.0
 30
0.0
  3
*U158
  1

  0
TEXT
  5
19F46
  8
0
 62
     0
 10
-346.15979271546257
 20
508.16262619726342
 30
0.0
 40
0.125
  1
Cutter
 50
90.0
  0
ENDBLK
  5
19F48
  8
0
  0
BLOCK
  8
0
  2
*U159
 70
     1
 10
0.0
 20
0.0
 30
0.0
  3
*U159
  1

  0
TEXT
  5
19F4A
  8
0
 10
3.5112004937425918
 20
2.3236705000861089
 30
0.0
 40
0.125
  1
Exterior Casing
  0
TEXT
  5
19F4B
  8
0
 10
3.5112004937425918
 20
2.1153371667527749
 30
0.0
 40
0.125
  1
TL-2242
  0
TEXT
  5
19F4C
  8
0
 10
3.5112004937425918
 20
1.9070038334194419
 30
0.0
 40
0.125
  1
2" x 4-1/2"
  0
TEXT
  5
19F4D
  8
0
 10
3.5112004937425918
 20
1.6986705000861091
 30
0.0
 40
0.125
  1
800.66.TAGUE
  0
ENDBLK
  5
19F4F
  8
0
  0
BLOCK
  8
0
  2
*U160
 70
     1
 10
0.0
 20
0.0
 30
0.0
  3
*U160
  1

  0
TEXT
  5
19F51
  8
0
 62
     0
 10
-386.5390653119602
 20
838.32040714068194
 30
0.0
 40
0.125
  1
Cutter
 50
90.0
  0
ENDBLK
  5
19F53
  8
0
  0
BLOCK
  8
0
  2
*U161
 70
     1
 10
0.0
 20
0.0
 30
0.0
  3
*U161
  1

  0
TEXT
  5
19F55
  8
0
 10
1.983241637717696
 20
1.2297917133489591
 30
0.0
 40
0.125
  1
Exterior Casing
  0
TEXT
  5
19F56
  8
0
 10
1.983241637717696
 20
1.0214583800156249
 30
0.0
 40
0.125
  1
TL-2254
  0
TEXT
  5
19F57
  8
0
 10
1.983241637717696
 20
0.8131250466822924
 30
0.0
 40
0.125
  1
1-1/4" x 1-3/4"
  0
TEXT
  5
19F58
  8
0
 10
1.983241637717696
 20
0.6047917133489591
 30
0.0
 40
0.125
  1
800.66.TAGUE
  0
ENDBLK
  5
19F5A
  8
0
  0
BLOCK
  8
0
  2
*U162
 70
     1
 10
0.0
 20
0.0
 30
0.0
  3
*U162
  1

  0
TEXT
  5
19F5C
  8
0
 10
2.2285402119240412
 20
3.7215677387475798
 30
0.0
 40
0.125
  1
Exterior Jamb
  0
TEXT
  5
19F5D
  8
0
 10
2.2285402119240412
 20
3.5132344054142468
 30
0.0
 40
0.125
  1
TL-2126
  0
TEXT
  5
19F5E
  8
0
 10
2.2285402119240412
 20
3.3049010720809142
 30
0.0
 40
0.125
  1
1-1/4" x 6-5/8"
  0
TEXT
  5
19F5F
  8
0
 10
2.2285402119240412
 20
3.0965677387475798
 30
0.0
 40
0.125
  1
800.66.TAGUE
  0
ENDBLK
  5
19F61
  8
0
  0
BLOCK
  8
0
  2
*U163
 70
     1
 10
0.0
 20
0.0
 30
0.0
  3
*U163
  1

  0
TEXT
  5
19F63
  8
0
 10
2.025590122046196
 20
3.8877018206065941
 30
0.0
 40
0.125
  1
Exterior Jamb
  0
TEXT
  5
19F64
  8
0
 10
2.025590122046196
 20
3.6793684872732602
 30
0.0
 40
0.125
  1
TL-2127
  0
TEXT
  5
19F65
  8
0
 10
2.025590122046196
 20
3.4710351539399271
 30
0.0
 40
0.125
  1
1-1/4" x 6-5/8"
  0
TEXT
  5
19F66
  8
0
 10
2.025590122046196
 20
3.2627018206065941
 30
0.0
 40
0.125
  1
800.66.TAGUE
  0
ENDBLK
  5
19F68
  8
0
  0
BLOCK
  8
0
  2
*U164
 70
     1
 10
0.0
 20
0.0
 30
0.0
  3
*U164
  1

  0
TEXT
  5
19F6A
  8
0
 10
1.8279899277385421
 20
2.0085009357213721
 30
0.0
 40
0.125
  1
Fluting
  0
TEXT
  5
19F6B
  8
0
 10
1.8279899277385421
 20
1.800167602388038
 30
0.0
 40
0.125
  1
TL-123
  0
TEXT
  5
19F6C
  8
0
 10
1.8279899277385421
 20
1.5918342690547049
 30
0.0
 40
0.125
  1
3/4" x 3-1/2"
  0
TEXT
  5
19F6D
  8
0
 10
1.8279899277385421
 20
1.3835009357213719
 30
0.0
 40
0.125
  1
800.66.TAGUE
  0
ENDBLK
  5
19F6F
  8
0
  0
BLOCK
  8
0
  2
*U165
 70
     1
 10
0.0
 20
0.0
 30
0.0
  3
*U165
  1

  0
TEXT
  5
19F71
  8
0
 10
1.9710461263608181
 20
3.9608870512416838
 30
0.0
 40
0.125
  1
Fluting
  0
TEXT
  5
19F72
  8
0
 10
1.9710461263608181
 20
3.7525537179083499
 30
0.0
 40
0.125
  1
TL-343
  0
TEXT
  5
19F73
  8
0
 10
1.9710461263608181
 20
3.5442203845750169
 30
0.0
 40
0.125
  1
7/8" x 7-3/16"
  0
TEXT
  5
19F74
  8
0
 10
1.9710461263608181
 20
3.3358870512416838
 30
0.0
 40
0.125
  1
800.66.TAGUE
  0
ENDBLK
  5
19F76
  8
0
  0
BLOCK
  8
0
  2
*U166
 70
     1
 10
0.0
 20
0.0
 30
0.0
  3
*U166
  1

  0
TEXT
  5
19F78
  8
0
 10
1.4662897697170929
 20
3.8395028676267202
 30
0.0
 40
0.125
  1
Fluting
  0
TEXT
  5
19F79
  8
0
 10
1.4662897697170929
 20
3.6311695342933858
 30
0.0
 40
0.125
  1
TL-2183
  0
TEXT
  5
19F7A
  8
0
 10
1.4662897697170929
 20
3.4228362009600528
 30
0.0
 40
0.125
  1
3/4" x 7-1/4"
  0
TEXT
  5
19F7B
  8
0
 10
1.4662897697170929
 20
3.2145028676267202
 30
0.0
 40
0.125
  1
800.66.TAGUE
  0
ENDBLK
  5
19F7D
  8
0
  0
BLOCK
  8
0
  2
*U167
 70
     1
 10
0.0
 20
0.0
 30
0.0
  3
*U167
  1

  0
TEXT
  5
19F7F
  8
0
 10
2.0951853732560148
 20
2.6676693683394879
 30
0.0
 40
0.125
  1
Fluting
  0
TEXT
  5
19F80
  8
0
 10
2.0951853732560148
 20
2.4593360350061548
 30
0.0
 40
0.125
  1
TL-2276
  0
TEXT
  5
19F81
  8
0
 10
2.0951853732560148
 20
2.2510027016728218
 30
0.0
 40
0.125
  1
11/16" x 3"
  0
TEXT
  5
19F82
  8
0
 10
2.0951853732560148
 20
2.0426693683394879
 30
0.0
 40
0.125
  1
800.66.TAGUE
  0
ENDBLK
  5
19F84
  8
0
  0
BLOCK
  8
0
  2
*U168
 70
     1
 10
0.0
 20
0.0
 30
0.0
  3
*U168
  1

  0
TEXT
  5
19F86
  8
0
 10
2.4586482925877808
 20
1.0775582798773931
 30
0.0
 40
0.125
  1
Full Round
  0
TEXT
  5
19F87
  8
0
 10
2.4586482925877808
 20
0.8692249465440607
 30
0.0
 40
0.125
  1
TL-232
  0
TEXT
  5
19F88
  8
0
 10
2.4586482925877808
 20
0.6608916132107274
 30
0.0
 40
0.125
  1
1-7/16" x 1-7/16"
  0
TEXT
  5
19F89
  8
0
 10
2.4586482925877808
 20
0.452558279877394
 30
0.0
 40
0.125
  1
800.66.TAGUE
  0
ENDBLK
  5
19F8B
  8
0
  0
BLOCK
  8
0
  2
*U169
 70
     1
 10
0.0
 20
0.0
 30
0.0
  3
*U169
  1

  0
TEXT
  5
19F8D
  8
0
 10
2.339763263951113
 20
0.912090443150646
 30
0.0
 40
0.125
  1
Full Round
  0
TEXT
  5
19F8E
  8
0
 10
2.339763263951113
 20
0.7037571098173128
 30
0.0
 40
0.125
  1
TL-233
  0
TEXT
  5
19F8F
  8
0
 10
2.339763263951113
 20
0.4954237764839795
 30
0.0
 40
0.125
  1
1-3/16" x 1-3/16"
  0
TEXT
  5
19F90
  8
0
 10
2.339763263951113
 20
0.287090443150646
 30
0.0
 40
0.125
  1
800.66.TAGUE
  0
ENDBLK
  5
19F92
  8
0
  0
BLOCK
  8
0
  2
*U170
 70
     1
 10
0.0
 20
0.0
 30
0.0
  3
*U170
  1

  0
TEXT
  5
19F94
  8
0
 10
2.2927598682417729
 20
0.8643692839127652
 30
0.0
 40
0.125
  1
Full Round
  0
TEXT
  5
19F95
  8
0
 10
2.2927598682417729
 20
0.6560359505794321
 30
0.0
 40
0.125
  1
TL-234
  0
TEXT
  5
19F96
  8
0
 10
2.2927598682417729
 20
0.4477026172460987
 30
0.0
 40
0.125
  1
1-1/16" x 1-1/16"
  0
TEXT
  5
19F97
  8
0
 10
2.2927598682417729
 20
0.2393692839127652
 30
0.0
 40
0.125
  1
800.66.TAGUE
  0
ENDBLK
  5
19F99
  8
0
  0
BLOCK
  8
0
  2
*U171
 70
     1
 10
0.0
 20
0.0
 30
0.0
  3
*U171
  1

  0
TEXT
  5
19F9B
  8
0
 10
2.0765905058337921
 20
1.0252762384561711
 30
0.0
 40
0.125
  1
Glass Bead
  0
TEXT
  5
19F9C
  8
0
 10
2.0765905058337921
 20
0.8169429051228387
 30
0.0
 40
0.125
  1
TL-145
  0
TEXT
  5
19F9D
  8
0
 10
2.0765905058337921
 20
0.6086095717895054
 30
0.0
 40
0.125
  1
11/16" x 3/4"
  0
TEXT
  5
19F9E
  8
0
 10
2.0765905058337921
 20
0.400276238456172
 30
0.0
 40
0.125
  1
800.66.TAGUE
  0
ENDBLK
  5
19FA0
  8
0
  0
BLOCK
  8
0
  2
*U172
 70
     1
 10
0.0
 20
0.0
 30
0.0
  3
*U172
  1

  0
TEXT
  5
19FA2
  8
0
 10
1.468683703905185
 20
0.7455079879047162
 30
0.0
 40
0.125
  1
Glass Bead
  0
TEXT
  5
19FA3
  8
0
 10
1.468683703905185
 20
0.537174654571383
 30
0.0
 40
0.125
  1
TL-147
  0
TEXT
  5
19FA4
  8
0
 10
1.468683703905185
 20
0.3288413212380496
 30
0.0
 40
0.125
  1
1/2" x 9/16"
  0
TEXT
  5
19FA5
  8
0
 10
1.468683703905185
 20
0.1205079879047162
 30
0.0
 40
0.125
  1
800.66.TAGUE
  0
ENDBLK
  5
19FA7
  8
0
  0
BLOCK
  8
0
  2
*U173
 70
     1
 10
0.0
 20
0.0
 30
0.0
  3
*U173
  1

  0
TEXT
  5
19FA9
  8
0
 10
1.584020839760341
 20
0.6794303041602916
 30
0.0
 40
0.125
  1
Glass Bead
  0
TEXT
  5
19FAA
  8
0
 10
1.584020839760341
 20
0.4710969708269583
 30
0.0
 40
0.125
  1
TL-152
  0
TEXT
  5
19FAB
  8
0
 10
1.584020839760341
 20
0.262763637493625
 30
0.0
 40
0.125
  1
3/8" x 11/16"
  0
TEXT
  5
19FAC
  8
0
 10
1.584020839760341
 20
0.0544303041602916
 30
0.0
 40
0.125
  1
800.66.TAGUE
  0
ENDBLK
  5
19FAE
  8
0
  0
BLOCK
  8
0
  2
*U174
 70
     1
 10
0.0
 20
0.0
 30
0.0
  3
*U174
  1

  0
TEXT
  5
19FB0
  8
0
 10
1.3526095965341931
 20
0.7381811042487243
 30
0.0
 40
0.125
  1
Glass Bead
  0
TEXT
  5
19FB1
  8
0
 10
1.3526095965341931
 20
0.5298477709153912
 30
0.0
 40
0.125
  1
TL-2142
  0
TEXT
  5
19FB2
  8
0
 10
1.3526095965341931
 20
0.3215144375820577
 30
0.0
 40
0.125
  1
11/32" x 29/32"
  0
TEXT
  5
19FB3
  8
0
 10
1.3526095965341931
 20
0.1131811042487243
 30
0.0
 40
0.125
  1
800.66.TAGUE
  0
ENDBLK
  5
19FB5
  8
0
  0
BLOCK
  8
0
  2
*U175
 70
     1
 10
0.0
 20
0.0
 30
0.0
  3
*U175
  1

  0
TEXT
  5
19FB7
  8
0
 10
1.3435544091540801
 20
0.6794309539541246
 30
0.0
 40
0.125
  1
Glass Bead
  0
TEXT
  5
19FB8
  8
0
 10
1.3435544091540801
 20
0.4710976206207913
 30
0.0
 40
0.125
  1
TL-2149
  0
TEXT
  5
19FB9
  8
0
 10
1.3435544091540801
 20
0.2627642872874579
 30
0.0
 40
0.125
  1
3/8" x 1/2"
  0
TEXT
  5
19FBA
  8
0
 10
1.3435544091540801
 20
0.0544309539541246
 30
0.0
 40
0.125
  1
800.66.TAGUE
  0
ENDBLK
  5
19FBC
  8
0
  0
BLOCK
  8
0
  2
*U176
 70
     1
 10
0.0
 20
0.0
 30
0.0
  3
*U176
  1

  0
TEXT
  5
19FBE
  8
0
 10
1.488844305553698
 20
0.6807937379744545
 30
0.0
 40
0.125
  1
Glass Bead
  0
TEXT
  5
19FBF
  8
0
 10
1.488844305553698
 20
0.4724604046411212
 30
0.0
 40
0.125
  1
TL-2155
  0
TEXT
  5
19FC0
  8
0
 10
1.488844305553698
 20
0.2641270713077878
 30
0.0
 40
0.125
  1
1/2" x 13/16"
  0
TEXT
  5
19FC1
  8
0
 10
1.488844305553698
 20
0.0557937379744544
 30
0.0
 40
0.125
  1
800.66.TAGUE
  0
ENDBLK
  5
19FC3
  8
0
  0
BLOCK
  8
0
  2
*U177
 70
     1
 10
0.0
 20
0.0
 30
0.0
  3
*U177
  1

  0
TEXT
  5
19FC5
  8
0
 10
1.52304343587059
 20
0.6794307504626432
 30
0.0
 40
0.125
  1
Glass Bead
  0
TEXT
  5
19FC6
  8
0
 10
1.52304343587059
 20
0.4710974171293099
 30
0.0
 40
0.125
  1
TL-2218
  0
TEXT
  5
19FC7
  8
0
 10
1.52304343587059
 20
0.2627640837959765
 30
0.0
 40
0.125
  1
1/4" x 5/8"
  0
TEXT
  5
19FC8
  8
0
 10
1.52304343587059
 20
0.0544307504626431
 30
0.0
 40
0.125
  1
800.66.TAGUE
  0
ENDBLK
  5
19FCA
  8
0
  0
BLOCK
  8
0
  2
*U178
 70
     1
 10
0.0
 20
0.0
 30
0.0
  3
*U178
  1

  0
TEXT
  5
19FCC
  8
0
 10
2.8235364504146778
 20
0.7161662597191026
 30
0.0
 40
0.125
  1
Half Round
  0
TEXT
  5
19FCD
  8
0
 10
2.8235364504146778
 20
0.5078329263857692
 30
0.0
 40
0.125
  1
TL-6
  0
TEXT
  5
19FCE
  8
0
 10
2.8235364504146778
 20
0.2994995930524358
 30
0.0
 40
0.125
  1
7/8" x 1-3/4"
  0
TEXT
  5
19FCF
  8
0
 10
2.8235364504146778
 20
0.0911662597191025
 30
0.0
 40
0.125
  1
800.66.TAGUE
  0
ENDBLK
  5
19FD1
  8
0
  0
BLOCK
  8
0
  2
*U179
 70
     1
 10
0.0
 20
0.0
 30
0.0
  3
*U179
  1

  0
TEXT
  5
19FD3
  8
0
 10
2.8316039409763221
 20
0.7222806133900122
 30
0.0
 40
0.125
  1
Half Round
  0
TEXT
  5
19FD4
  8
0
 10
2.8316039409763221
 20
0.5139472800566788
 30
0.0
 40
0.125
  1
TL-7
  0
TEXT
  5
19FD5
  8
0
 10
2.8316039409763221
 20
0.3056139467233454
 30
0.0
 40
0.125
  1
1" x 2"
  0
TEXT
  5
19FD6
  8
0
 10
2.8316039409763221
 20
0.0972806133900122
 30
0.0
 40
0.125
  1
800.66.TAGUE
  0
ENDBLK
  5
19FD8
  8
0
  0
BLOCK
  8
0
  2
*U180
 70
     1
 10
0.0
 20
0.0
 30
0.0
  3
*U180
  1

  0
TEXT
  5
19FDA
  8
0
 10
4.3092556456276148
 20
0.8292621657587915
 30
0.0
 40
0.125
  1
Half Round
  0
TEXT
  5
19FDB
  8
0
 10
4.3092556456276148
 20
0.6209288324254582
 30
0.0
 40
0.125
  1
TL-8
  0
TEXT
  5
19FDC
  8
0
 10
4.3092556456276148
 20
0.4125954990921248
 30
0.0
 40
0.125
  1
1-1/2" x 3"
  0
TEXT
  5
19FDD
  8
0
 10
4.3092556456276148
 20
0.2042621657587915
 30
0.0
 40
0.125
  1
800.66.TAGUE
  0
ENDBLK
  5
19FDF
  8
0
  0
BLOCK
  8
0
  2
*U181
 70
     1
 10
0.0
 20
0.0
 30
0.0
  3
*U181
  1

  0
TEXT
  5
19FE1
  8
0
 10
2.524104426630799
 20
0.6794299200373644
 30
0.0
 40
0.125
  1
Half Round
  0
TEXT
  5
19FE2
  8
0
 10
2.524104426630799
 20
0.471096586704031
 30
0.0
 40
0.125
  1
TL-116
  0
TEXT
  5
19FE3
  8
0
 10
2.524104426630799
 20
0.2627632533706976
 30
0.0
 40
0.125
  1
3/4" x 1-1/2"
  0
TEXT
  5
19FE4
  8
0
 10
2.524104426630799
 20
0.0544299200373644
 30
0.0
 40
0.125
  1
800.66.TAGUE
  0
ENDBLK
  5
19FE6
  8
0
  0
BLOCK
  8
0
  2
*U182
 70
     1
 10
0.0
 20
0.0
 30
0.0
  3
*U182
  1

  0
TEXT
  5
19FE8
  8
0
 10
2.4691699319003528
 20
0.6794301275302815
 30
0.0
 40
0.125
  1
Half Round
  0
TEXT
  5
19FE9
  8
0
 10
2.4691699319003528
 20
0.4710967941969481
 30
0.0
 40
0.125
  1
TL-119
  0
TEXT
  5
19FEA
  8
0
 10
2.4691699319003528
 20
0.2627634608636147
 30
0.0
 40
0.125
  1
5/8" x 1-1/4"
  0
TEXT
  5
19FEB
  8
0
 10
2.4691699319003528
 20
0.0544301275302814
 30
0.0
 40
0.125
  1
800.66.TAGUE
  0
ENDBLK
  5
19FED
  8
0
  0
BLOCK
  8
0
  2
*U183
 70
     1
 10
0.0
 20
0.0
 30
0.0
  3
*U183
  1

  0
TEXT
  5
19FEF
  8
0
 10
1.96218194837894
 20
0.679429735423696
 30
0.0
 40
0.125
  1
Half Round
  0
TEXT
  5
19FF0
  8
0
 10
1.96218194837894
 20
0.4710964020903626
 30
0.0
 40
0.125
  1
TL-120
  0
TEXT
  5
19FF1
  8
0
 10
1.96218194837894
 20
0.2627630687570293
 30
0.0
 40
0.125
  1
1/2" x 1"
  0
TEXT
  5
19FF2
  8
0
 10
1.96218194837894
 20
0.054429735423696
 30
0.0
 40
0.125
  1
800.66.TAGUE
  0
ENDBLK
  5
19FF4
  8
0
  0
BLOCK
  8
0
  2
*U184
 70
     1
 10
0.0
 20
0.0
 30
0.0
  3
*U184
  1

  0
TEXT
  5
19FF6
  8
0
 10
1.51989036816559
 20
0.679429754589819
 30
0.0
 40
0.125
  1
Half Round
  0
TEXT
  5
19FF7
  8
0
 10
1.51989036816559
 20
0.4710964212564856
 30
0.0
 40
0.125
  1
TL-122
  0
TEXT
  5
19FF8
  8
0
 10
1.51989036816559
 20
0.2627630879231522
 30
0.0
 40
0.125
  1
11/32" x 11/16"
  0
TEXT
  5
19FF9
  8
0
 10
1.51989036816559
 20
0.0544297545898189
 30
0.0
 40
0.125
  1
800.66.TAGUE
  0
ENDBLK
  5
19FFB
  8
0
  0
BLOCK
  8
0
  2
*U185
 70
     1
 10
0.0
 20
0.0
 30
0.0
  3
*U185
  1

  0
TEXT
  5
19FFD
  8
0
 10
1.332760358760481
 20
0.6794306489528026
 30
0.0
 40
0.125
  1
Half Round
  0
TEXT
  5
19FFE
  8
0
 10
1.332760358760481
 20
0.4710973156194692
 30
0.0
 40
0.125
  1
TL-124
  0
TEXT
  5
19FFF
  8
0
 10
1.332760358760481
 20
0.2627639822861358
 30
0.0
 40
0.125
  1
1/4" x 1/2"
  0
TEXT
  5
1A000
  8
0
 10
1.332760358760481
 20
0.0544306489528026
 30
0.0
 40
0.125
  1
800.66.TAGUE
  0
ENDBLK
  5
1A002
  8
0
  0
BLOCK
  8
0
  2
*U186
 70
     1
 10
0.0
 20
0.0
 30
0.0
  3
*U186
  1

  0
TEXT
  5
1A004
  8
0
 10
2.6263646070054838
 20
2.827461056571678
 30
0.0
 40
0.125
  1
Hand Rail
  0
TEXT
  5
1A005
  8
0
 10
2.6263646070054838
 20
2.6191277232383441
 30
0.0
 40
0.125
  1
TL-14
  0
TEXT
  5
1A006
  8
0
 10
2.6263646070054838
 20
2.410794389905011
 30
0.0
 40
0.125
  1
1-5/8" x 5-1/4"
  0
TEXT
  5
1A007
  8
0
 10
2.6263646070054838
 20
2.202461056571678
 30
0.0
 40
0.125
  1
800.66.TAGUE
  0
ENDBLK
  5
1A009
  8
0
  0
BLOCK
  8
0
  2
*U187
 70
     1
 10
0.0
 20
0.0
 30
0.0
  3
*U187
  1

  0
TEXT
  5
1A00B
  8
0
 10
2.2830209502855041
 20
2.755934710444194
 30
0.0
 40
0.125
  1
Hand Rail
  0
TEXT
  5
1A00C
  8
0
 10
2.2830209502855041
 20
2.5476013771108601
 30
0.0
 40
0.125
  1
TL-15
  0
TEXT
  5
1A00D
  8
0
 10
2.2830209502855041
 20
2.3392680437775271
 30
0.0
 40
0.125
  1
1-3/8" x 5-1/2"
  0
TEXT
  5
1A00E
  8
0
 10
2.2830209502855041
 20
2.130934710444194
 30
0.0
 40
0.125
  1
800.66.TAGUE
  0
ENDBLK
  5
1A010
  8
0
  0
BLOCK
  8
0
  2
*U188
 70
     1
 10
0.0
 20
0.0
 30
0.0
  3
*U188
  1

  0
TEXT
  5
1A012
  8
0
 10
3.5100871080940119
 20
1.046126857764647
 30
0.0
 40
0.125
  1
Hand Rail
  0
TEXT
  5
1A013
  8
0
 10
3.5100871080940119
 20
0.8377935244313146
 30
0.0
 40
0.125
  1
TL-96
  0
TEXT
  5
1A014
  8
0
 10
3.5100871080940119
 20
0.6294601910979814
 30
0.0
 40
0.125
  1
1-1/4" x 2-1/4"
  0
TEXT
  5
1A015
  8
0
 10
3.5100871080940119
 20
0.4211268577646479
 30
0.0
 40
0.125
  1
800.66.TAGUE
  0
ENDBLK
  5
1A017
  8
0
  0
BLOCK
  8
0
  2
*U189
 70
     1
 10
0.0
 20
0.0
 30
0.0
  3
*U189
  1

  0
TEXT
  5
1A019
  8
0
 10
2.3417636350062589
 20
4.2171919217870482
 30
0.0
 40
0.125
  1
Hand Rail
  0
TEXT
  5
1A01A
  8
0
 10
2.3417636350062589
 20
4.0088585884537151
 30
0.0
 40
0.125
  1
TL-117
  0
TEXT
  5
1A01B
  8
0
 10
2.3417636350062589
 20
3.8005252551203812
 30
0.0
 40
0.125
  1
1-1/4" x 8-1/8"
  0
TEXT
  5
1A01C
  8
0
 10
2.3417636350062589
 20
3.5921919217870482
 30
0.0
 40
0.125
  1
800.66.TAGUE
  0
ENDBLK
  5
1A01E
  8
0
  0
BLOCK
  8
0
  2
*U190
 70
     1
 10
0.0
 20
0.0
 30
0.0
  3
*U190
  1

  0
TEXT
  5
1A020
  8
0
 10
2.7125232555794119
 20
1.098442957172892
 30
0.0
 40
0.125
  1
Hand Rail
  0
TEXT
  5
1A021
  8
0
 10
2.7125232555794119
 20
0.8901096238395592
 30
0.0
 40
0.125
  1
TL-231
  0
TEXT
  5
1A022
  8
0
 10
2.7125232555794119
 20
0.6817762905062259
 30
0.0
 40
0.125
  1
1-1/2" x 1-11/16"
  0
TEXT
  5
1A023
  8
0
 10
2.7125232555794119
 20
0.4734429571728925
 30
0.0
 40
0.125
  1
800.66.TAGUE
  0
ENDBLK
  5
1A025
  8
0
  0
BLOCK
  8
0
  2
*U191
 70
     1
 10
0.0
 20
0.0
 30
0.0
  3
*U191
  1

  0
TEXT
  5
1A027
  8
0
 10
2.960252587020249
 20
0.6772989443436474
 30
0.0
 40
0.125
  1
Lattice
  0
TEXT
  5
1A028
  8
0
 10
2.960252587020249
 20
0.468965611010314
 30
0.0
 40
0.125
  1
TL-266
  0
TEXT
  5
1A029
  8
0
 10
2.960252587020249
 20
0.2606322776769806
 30
0.0
 40
0.125
  1
1/4" x 1-5/8"
  0
TEXT
  5
1A02A
  8
0
 10
2.960252587020249
 20
0.0522989443436472
 30
0.0
 40
0.125
  1
800.66.TAGUE
  0
ENDBLK
  5
1A02C
  8
0
  0
BLOCK
  8
0
  2
*U192
 70
     1
 10
0.0
 20
0.0
 30
0.0
  3
*U192
  1

  0
TEXT
  5
1A02E
  8
0
 10
2.5177643903332401
 20
0.6772985360157691
 30
0.0
 40
0.125
  1
Lattice
  0
TEXT
  5
1A02F
  8
0
 10
2.5177643903332401
 20
0.4689652026824358
 30
0.0
 40
0.125
  1
TL-267
  0
TEXT
  5
1A030
  8
0
 10
2.5177643903332401
 20
0.2606318693491024
 30
0.0
 40
0.125
  1
1/4" x 1-3/8"
  0
TEXT
  5
1A031
  8
0
 10
2.5177643903332401
 20
0.0522985360157691
 30
0.0
 40
0.125
  1
800.66.TAGUE
  0
ENDBLK
  5
1A033
  8
0
  0
BLOCK
  8
0
  2
*U193
 70
     1
 10
0.0
 20
0.0
 30
0.0
  3
*U193
  1

  0
TEXT
  5
1A035
  8
0
 10
2.3872073702682419
 20
0.6772987437404936
 30
0.0
 40
0.125
  1
Lattice
  0
TEXT
  5
1A036
  8
0
 10
2.3872073702682419
 20
0.4689654104071603
 30
0.0
 40
0.125
  1
TL-268
  0
TEXT
  5
1A037
  8
0
 10
2.3872073702682419
 20
0.260632077073827
 30
0.0
 40
0.125
  1
1/4" x 1-1/8"
  0
TEXT
  5
1A038
  8
0
 10
2.3872073702682419
 20
0.0522987437404936
 30
0.0
 40
0.125
  1
800.66.TAGUE
  0
ENDBLK
  5
1A03A
  8
0
  0
BLOCK
  8
0
  2
*U194
 70
     1
 10
0.0
 20
0.0
 30
0.0
  3
*U194
  1

  0
TEXT
  5
1A03C
  8
0
 10
1.7198452767448771
 20
0.6772982915522335
 30
0.0
 40
0.125
  1
Lattice
  0
TEXT
  5
1A03D
  8
0
 10
1.7198452767448771
 20
0.4689649582189002
 30
0.0
 40
0.125
  1
TL-269
  0
TEXT
  5
1A03E
  8
0
 10
1.7198452767448771
 20
0.2606316248855668
 30
0.0
 40
0.125
  1
1/4" x 3/4"
  0
TEXT
  5
1A03F
  8
0
 10
1.7198452767448771
 20
0.0522982915522334
 30
0.0
 40
0.125
  1
800.66.TAGUE
  0
ENDBLK
  5
1A041
  8
0
  0
BLOCK
  8
0
  2
*U195
 70
     1
 10
0.0
 20
0.0
 30
0.0
  3
*U195
  1

  0
TEXT
  5
1A043
  8
0
 10
2.0085733028087129
 20
0.6772989387914095
 30
0.0
 40
0.125
  1
Lattice
  0
TEXT
  5
1A044
  8
0
 10
2.0085733028087129
 20
0.4689656054580762
 30
0.0
 40
0.125
  1
TL-270
  0
TEXT
  5
1A045
  8
0
 10
2.0085733028087129
 20
0.2606322721247428
 30
0.0
 40
0.125
  1
1/4" x 7/8"
  0
TEXT
  5
1A046
  8
0
 10
2.0085733028087129
 20
0.0522989387914095
 30
0.0
 40
0.125
  1
800.66.TAGUE
  0
ENDBLK
  5
1A048
  8
0
  0
BLOCK
  8
0
  2
*U196
 70
     1
 10
0.0
 20
0.0
 30
0.0
  3
*U196
  1

  0
TEXT
  5
1A04A
  8
0
 10
2.940701223973178
 20
0.6772980715210224
 30
0.0
 40
0.125
  1
Lattice
  0
TEXT
  5
1A04B
  8
0
 10
2.940701223973178
 20
0.4689647381876891
 30
0.0
 40
0.125
  1
TL-962
  0
TEXT
  5
1A04C
  8
0
 10
2.940701223973178
 20
0.2606314048543558
 30
0.0
 40
0.125
  1
1/4" x 2"
  0
TEXT
  5
1A04D
  8
0
 10
2.940701223973178
 20
0.0522980715210224
 30
0.0
 40
0.125
  1
800.66.TAGUE
  0
ENDBLK
  5
1A04F
  8
0
  0
BLOCK
  8
0
  2
*U197
 70
     1
 10
0.0
 20
0.0
 30
0.0
  3
*U197
  1

  0
TEXT
  5
1A051
  8
0
 10
1.983768624240724
 20
1.1498699559202801
 30
0.0
 40
0.125
  1
Lip Moulding
  0
TEXT
  5
1A052
  8
0
 10
1.983768624240724
 20
0.9415366225869473
 30
0.0
 40
0.125
  1
TL-18
  0
TEXT
  5
1A053
  8
0
 10
1.983768624240724
 20
0.7332032892536139
 30
0.0
 40
0.125
  1
3/4" x 1-15/16"
  0
TEXT
  5
1A054
  8
0
 10
1.983768624240724
 20
0.5248699559202806
 30
0.0
 40
0.125
  1
800.66.TAGUE
  0
ENDBLK
  5
1A056
  8
0
  0
BLOCK
  8
0
  2
*U198
 70
     1
 10
0.0
 20
0.0
 30
0.0
  3
*U198
  1

  0
TEXT
  5
1A058
  8
0
 10
2.2853728967398861
 20
1.2855052394233999
 30
0.0
 40
0.125
  1
Lip Moulding
  0
TEXT
  5
1A059
  8
0
 10
2.2853728967398861
 20
1.0771719060900671
 30
0.0
 40
0.125
  1
TL-530
  0
TEXT
  5
1A05A
  8
0
 10
2.2853728967398861
 20
0.8688385727567342
 30
0.0
 40
0.125
  1
5/8" x 1-5/8"
  0
TEXT
  5
1A05B
  8
0
 10
2.2853728967398861
 20
0.6605052394234008
 30
0.0
 40
0.125
  1
800.66.TAGUE
  0
ENDBLK
  5
1A05D
  8
0
  0
BLOCK
  8
0
  2
*U199
 70
     1
 10
0.0
 20
0.0
 30
0.0
  3
*U199
  1

  0
TEXT
  5
1A05F
  8
0
 10
2.269200201813987
 20
1.1997502285778401
 30
0.0
 40
0.125
  1
Lip Moulding
  0
TEXT
  5
1A060
  8
0
 10
2.269200201813987
 20
0.9914168952445077
 30
0.0
 40
0.125
  1
TL-532
  0
TEXT
  5
1A061
  8
0
 10
2.269200201813987
 20
0.7830835619111745
 30
0.0
 40
0.125
  1
3/4" x 1-3/4"
  0
TEXT
  5
1A062
  8
0
 10
2.269200201813987
 20
0.574750228577841
 30
0.0
 40
0.125
  1
800.66.TAGUE
  0
ENDBLK
  5
1A064
  8
0
  0
BLOCK
  8
0
  2
*U200
 70
     1
 10
0.0
 20
0.0
 30
0.0
  3
*U200
  1

  0
TEXT
  5
1A066
  8
0
 10
1.8892783014391621
 20
1.241449235052527
 30
0.0
 40
0.125
  1
Lip Moulding
  0
TEXT
  5
1A067
  8
0
 10
1.8892783014391621
 20
1.033115901719194
 30
0.0
 40
0.125
  1
TL-2169
  0
TEXT
  5
1A068
  8
0
 10
1.8892783014391621
 20
0.8247825683858613
 30
0.0
 40
0.125
  1
11/16" x 1-7/8"
  0
TEXT
  5
1A069
  8
0
 10
1.8892783014391621
 20
0.6164492350525279
 30
0.0
 40
0.125
  1
800.66.TAGUE
  0
ENDBLK
  5
1A06B
  8
0
  0
BLOCK
  8
0
  2
*U201
 70
     1
 10
0.0
 20
0.0
 30
0.0
  3
*U201
  1

  0
TEXT
  5
1A06D
  8
0
 10
1.620143794977025
 20
1.0038028284741349
 30
0.0
 40
0.125
  1
Lip Moulding
  0
TEXT
  5
1A06E
  8
0
 10
1.620143794977025
 20
0.7954694951408026
 30
0.0
 40
0.125
  1
TL-2179
  0
TEXT
  5
1A06F
  8
0
 10
1.620143794977025
 20
0.5871361618074693
 30
0.0
 40
0.125
  1
3/4" x 1-1/4"
  0
TEXT
  5
1A070
  8
0
 10
1.620143794977025
 20
0.3788028284741358
 30
0.0
 40
0.125
  1
800.66.TAGUE
  0
ENDBLK
  5
1A072
  8
0
  0
BLOCK
  8
0
  2
*U202
 70
     1
 10
0.0
 20
0.0
 30
0.0
  3
*U202
  1

  0
TEXT
  5
1A074
  8
0
 10
1.9163743563030939
 20
1.019442403193352
 30
0.0
 40
0.125
  1
Lip Moulding
  0
TEXT
  5
1A075
  8
0
 10
1.9163743563030939
 20
0.811109069860019
 30
0.0
 40
0.125
  1
TL-2181
  0
TEXT
  5
1A076
  8
0
 10
1.9163743563030939
 20
0.6027757365266857
 30
0.0
 40
0.125
  1
3/4" x 1-11/16"
  0
TEXT
  5
1A077
  8
0
 10
1.9163743563030939
 20
0.3944424031933522
 30
0.0
 40
0.125
  1
800.66.TAGUE
  0
ENDBLK
  5
1A079
  8
0
  0
BLOCK
  8
0
  2
*U203
 70
     1
 10
0.0
 20
0.0
 30
0.0
  3
*U203
  1

  0
TEXT
  5
1A07B
  8
0
 10
2.0010341316657332
 20
0.9876257387668374
 30
0.0
 40
0.125
  1
Lip Moulding
  0
TEXT
  5
1A07C
  8
0
 10
2.0010341316657332
 20
0.7792924054335043
 30
0.0
 40
0.125
  1
TL-2211
  0
TEXT
  5
1A07D
  8
0
 10
2.0010341316657332
 20
0.5709590721001709
 30
0.0
 40
0.125
  1
1" x 1-15/32"
  0
TEXT
  5
1A07E
  8
0
 10
2.0010341316657332
 20
0.3626257387668375
 30
0.0
 40
0.125
  1
800.66.TAGUE
  0
ENDBLK
  5
1A080
  8
0
  0
BLOCK
  8
0
  2
*U204
 70
     1
 10
0.0
 20
0.0
 30
0.0
  3
*U204
  1

  0
TEXT
  5
1A082
  8
0
 10
1.9547841412725111
 20
1.2443911534714971
 30
0.0
 40
0.125
  1
Lip Mldg
  0
TEXT
  5
1A083
  8
0
 10
1.9547841412725111
 20
1.0360578201381629
 30
0.0
 40
0.125
  1
TL-2302
  0
TEXT
  5
1A084
  8
0
 10
1.9547841412725111
 20
0.8277244868048304
 30
0.0
 40
0.125
  1
13/16" x 1-3/4"
  0
TEXT
  5
1A085
  8
0
 10
1.9547841412725111
 20
0.6193911534714971
 30
0.0
 40
0.125
  1
800.66.TAGUE
  0
ENDBLK
  5
1A087
  8
0
  0
BLOCK
  8
0
  2
*U205
 70
     1
 10
0.0
 20
0.0
 30
0.0
  3
*U205
  1

  0
TEXT
  5
1A089
  8
0
 10
1.971391504344296
 20
2.3593485866246051
 30
0.0
 40
0.125
  1
Mantle Moulding
  0
TEXT
  5
1A08A
  8
0
 10
1.971391504344296
 20
2.1510152532912721
 30
0.0
 40
0.125
  1
TL-9
  0
TEXT
  5
1A08B
  8
0
 10
1.971391504344296
 20
1.942681919957939
 30
0.0
 40
0.125
  1
1-5/8" x 5-1/8"
  0
TEXT
  5
1A08C
  8
0
 10
1.971391504344296
 20
1.7343485866246049
 30
0.0
 40
0.125
  1
800.66.TAGUE
  0
ENDBLK
  5
1A08E
  8
0
  0
BLOCK
  8
0
  2
*U206
 70
     1
 10
0.0
 20
0.0
 30
0.0
  3
*U206
  1

  0
TEXT
  5
1A090
  8
0
 10
1.824484143033146
 20
2.7467482000251939
 30
0.0
 40
0.125
  1
Mantle Moulding
  0
TEXT
  5
1A091
  8
0
 10
1.824484143033146
 20
2.5384148666918609
 30
0.0
 40
0.125
  1
TL-10
  0
TEXT
  5
1A092
  8
0
 10
1.824484143033146
 20
2.3300815333585279
 30
0.0
 40
0.125
  1
1-3/8" x 5"
  0
TEXT
  5
1A093
  8
0
 10
1.824484143033146
 20
2.1217482000251939
 30
0.0
 40
0.125
  1
800.66.TAGUE
  0
ENDBLK
  5
1A095
  8
0
  0
BLOCK
  8
0
  2
*U207
 70
     1
 10
0.0
 20
0.0
 30
0.0
  3
*U207
  1

  0
TEXT
  5
1A097
  8
0
 10
1.778440342841463
 20
0.6794305349126262
 30
0.0
 40
0.125
  1
Mantle Shelf
  0
TEXT
  5
1A098
  8
0
 10
1.778440342841463
 20
0.4710972015792928
 30
0.0
 40
0.125
  1
TL-2184
  0
TEXT
  5
1A099
  8
0
 10
1.778440342841463
 20
0.2627638682459594
 30
0.0
 40
0.125
  1
1-1/4" x 5-1/2"
  0
TEXT
  5
1A09A
  8
0
 10
1.778440342841463
 20
0.0544305349126262
 30
0.0
 40
0.125
  1
800.66.TAGUE
  0
ENDBLK
  5
1A09C
  8
0
  0
BLOCK
  8
0
  2
*U208
 70
     1
 10
0.0
 20
0.0
 30
0.0
  3
*U208
  1

  0
TEXT
  5
1A09E
  8
0
 10
2.009611089016857
 20
0.679430549910876
 30
0.0
 40
0.125
  1
Mantle Shelf
  0
TEXT
  5
1A09F
  8
0
 10
2.009611089016857
 20
0.4710972165775426
 30
0.0
 40
0.125
  1
TL-2185
  0
TEXT
  5
1A0A0
  8
0
 10
2.009611089016857
 20
0.2627638832442092
 30
0.0
 40
0.125
  1
1-1/2" x 5-1/2"
  0
TEXT
  5
1A0A1
  8
0
 10
2.009611089016857
 20
0.0544305499108759
 30
0.0
 40
0.125
  1
800.66.TAGUE
  0
ENDBLK
  5
1A0A3
  8
0
  0
BLOCK
  8
0
  2
*U209
 70
     1
 10
0.0
 20
0.0
 30
0.0
  3
*U209
  1

  0
TEXT
  5
1A0A5
  8
0
 62
     0
 10
-367.02425303528412
 20
426.35429858331162
 30
0.0
 40
0.125
  1
1
 50
90.0
  0
TEXT
  5
1A0A6
  8
0
 62
     0
 10
-367.10758636861738
 20
426.43763191664488
 30
0.0
 40
0.125
  1
3
 50
90.0
  0
LINE
  5
1A0A7
  8
0
 62
     0
 10
-367.08675303528412
 20
426.43763191664488
 30
0.0
 11
-367.08675303528412
 21
426.52096524997819
 31
0.0
  0
TEXT
  5
1A0A8
  8
0
 62
     0
 10
-366.9409197019508
 20
426.43763191664488
 30
0.0
 40
0.125
  1
4
 50
90.0
  0
TEXT
  5
1A0A9
  8
0
 62
     0
 10
-367.02425303528412
 20
426.56263191664482
 30
0.0
 40
0.125
  1
"
 50
90.0
  0
ENDBLK
  5
1A0AB
  8
0
  0
BLOCK
  8
0
  2
*U210
 70
     1
 10
0.0
 20
0.0
 30
0.0
  3
*U210
  1

  0
TEXT
  5
1A0AD
  8
0
 62
     0
 10
-364.19000805364777
 20
425.28877174148101
 30
0.0
 40
0.125
  1
7
  0
LINE
  5
1A0AE
  8
0
 62
     0
 10
-364.19000805364777
 20
425.2679384081477
 30
0.0
 11
-364.10667472031452
 21
425.2679384081477
 31
0.0
  0
TEXT
  5
1A0AF
  8
0
 62
     0
 10
-364.19000805364777
 20
425.12210507481433
 30
0.0
 40
0.125
  1
8
  0
TEXT
  5
1A0B0
  8
0
 62
     0
 10
-364.06500805364777
 20
425.2054384081477
 30
0.0
 40
0.125
  1
"
  0
ENDBLK
  5
1A0B2
  8
0
  0
BLOCK
  8
0
  2
*U211
 70
     1
 10
0.0
 20
0.0
 30
0.0
  3
*U211
  1

  0
TEXT
  5
1A0B4
  8
0
 62
     0
 10
-363.14629495961572
 20
426.36117705424232
 30
0.0
 40
0.125
  1
1
 50
90.0
  0
TEXT
  5
1A0B5
  8
0
 62
     0
 10
-363.22962829294897
 20
426.46534372090889
 30
0.0
 40
0.125
  1
1
 50
90.0
  0
LINE
  5
1A0B6
  8
0
 62
     0
 10
-363.20879495961572
 20
426.44451038757558
 30
0.0
 11
-363.20879495961572
 21
426.52784372090889
 31
0.0
  0
TEXT
  5
1A0B7
  8
0
 62
     0
 10
-363.06296162628229
 20
426.44451038757558
 30
0.0
 40
0.125
  1
2
 50
90.0
  0
TEXT
  5
1A0B8
  8
0
 62
     0
 10
-363.14629495961572
 20
426.56951038757558
 30
0.0
 40
0.125
  1
"
 50
90.0
  0
ENDBLK
  5
1A0BA
  8
0
  0
BLOCK
  8
0
  2
*U212
 70
     1
 10
0.0
 20
0.0
 30
0.0
  3
*U212
  1

  0
TEXT
  5
1A0BC
  8
0
 62
     0
 10
-387.96524739614358
 20
838.7451809866343
 30
0.0
 40
0.125
  1
1
 50
90.0
  0
TEXT
  5
1A0BD
  8
0
 62
     0
 10
-388.0485807294769
 20
838.82851431996767
 30
0.0
 40
0.125
  1
3
 50
90.0
  0
LINE
  5
1A0BE
  8
0
 62
     0
 10
-388.02774739614358
 20
838.82851431996767
 30
0.0
 11
-388.02774739614358
 21
838.91184765330104
 31
0.0
  0
TEXT
  5
1A0BF
  8
0
 62
     0
 10
-387.88191406281032
 20
838.82851431996767
 30
0.0
 40
0.125
  1
4
 50
90.0
  0
TEXT
  5
1A0C0
  8
0
 62
     0
 10
-387.96524739614358
 20
838.95351431996755
 30
0.0
 40
0.125
  1
"
 50
90.0
  0
ENDBLK
  5
1A0C2
  8
0
  0
BLOCK
  8
0
  2
*U213
 70
     1
 10
0.0
 20
0.0
 30
0.0
  3
*U213
  1

  0
TEXT
  5
1A0C4
  8
0
 62
     0
 10
-385.13236667098761
 20
837.67914254862364
 30
0.0
 40
0.125
  1
7
  0
LINE
  5
1A0C5
  8
0
 62
     0
 10
-385.13236667098761
 20
837.65830921529016
 30
0.0
 11
-385.04903333765429
 21
837.65830921529016
 31
0.0
  0
TEXT
  5
1A0C6
  8
0
 62
     0
 10
-385.13236667098761
 20
837.51247588195702
 30
0.0
 40
0.125
  1
8
  0
TEXT
  5
1A0C7
  8
0
 62
     0
 10
-385.00736667098761
 20
837.59580921529039
 30
0.0
 40
0.125
  1
"
  0
ENDBLK
  5
1A0C9
  8
0
  0
BLOCK
  8
0
  2
*U214
 70
     1
 10
0.0
 20
0.0
 30
0.0
  3
*U214
  1

  0
TEXT
  5
1A0CB
  8
0
 62
     0
 10
-384.08814198077528
 20
838.75205945756488
 30
0.0
 40
0.125
  1
1
 50
90.0
  0
TEXT
  5
1A0CC
  8
0
 62
     0
 10
-384.1714753141087
 20
838.85622612423163
 30
0.0
 40
0.125
  1
1
 50
90.0
  0
LINE
  5
1A0CD
  8
0
 62
     0
 10
-384.15064198077539
 20
838.83539279089825
 30
0.0
 11
-384.15064198077539
 21
838.91872612423185
 31
0.0
  0
TEXT
  5
1A0CE
  8
0
 62
     0
 10
-384.00480864744202
 20
838.83539279089825
 30
0.0
 40
0.125
  1
2
 50
90.0
  0
TEXT
  5
1A0CF
  8
0
 62
     0
 10
-384.08814198077528
 20
838.96039279089837
 30
0.0
 40
0.125
  1
"
 50
90.0
  0
ENDBLK
  5
1A0D1
  8
0
  0
BLOCK
  8
0
  2
*U215
 70
     1
 10
0.0
 20
0.0
 30
0.0
  3
*U215
  1

  0
TEXT
  5
1A0D3
  8
0
 62
     0
 10
-323.13119819751643
 20
425.11559169813461
 30
0.0
 40
0.125
  1
1
 50
90.0
  0
TEXT
  5
1A0D4
  8
0
 62
     0
 10
-323.2145315308498
 20
425.19892503146798
 30
0.0
 40
0.125
  1
3
 50
90.0
  0
LINE
  5
1A0D5
  8
0
 62
     0
 10
-323.19369819751643
 20
425.19892503146798
 30
0.0
 11
-323.19369819751643
 21
425.28225836480118
 31
0.0
  0
TEXT
  5
1A0D6
  8
0
 62
     0
 10
-323.04786486418311
 20
425.19892503146798
 30
0.0
 40
0.125
  1
4
 50
90.0
  0
TEXT
  5
1A0D7
  8
0
 62
     0
 10
-323.13119819751643
 20
425.32392503146792
 30
0.0
 40
0.125
  1
"
 50
90.0
  0
ENDBLK
  5
1A0D9
  8
0
  0
BLOCK
  8
0
  2
*U216
 70
     1
 10
0.0
 20
0.0
 30
0.0
  3
*U216
  1

  0
TEXT
  5
1A0DB
  8
0
 62
     0
 10
-318.6214997668344
 20
425.11559169813461
 30
0.0
 40
0.125
  1
1
 50
90.0
  0
TEXT
  5
1A0DC
  8
0
 62
     0
 10
-318.70483310016772
 20
425.19892503146798
 30
0.0
 40
0.125
  1
3
 50
90.0
  0
LINE
  5
1A0DD
  8
0
 62
     0
 10
-318.6839997668344
 20
425.19892503146798
 30
0.0
 11
-318.6839997668344
 21
425.28225836480118
 31
0.0
  0
TEXT
  5
1A0DE
  8
0
 62
     0
 10
-318.53816643350109
 20
425.19892503146798
 30
0.0
 40
0.125
  1
8
 50
90.0
  0
TEXT
  5
1A0DF
  8
0
 62
     0
 10
-318.6214997668344
 20
425.32392503146792
 30
0.0
 40
0.125
  1
"
 50
90.0
  0
ENDBLK
  5
1A0E1
  8
0
  0
BLOCK
  8
0
  2
*U217
 70
     1
 10
0.0
 20
0.0
 30
0.0
  3
*U217
  1

  0
TEXT
  5
1A0E3
  8
0
 62
     0
 10
-387.56461450221548
 20
838.89288512488679
 30
0.0
 40
0.125
  1
1
 50
90.0
  0
TEXT
  5
1A0E4
  8
0
 62
     0
 10
-387.64794783554891
 20
838.97621845822005
 30
0.0
 40
0.125
  1
3
 50
90.0
  0
LINE
  5
1A0E5
  8
0
 62
     0
 10
-387.62711450221559
 20
838.97621845822005
 30
0.0
 11
-387.62711450221559
 21
839.05955179155353
 31
0.0
  0
TEXT
  5
1A0E6
  8
0
 62
     0
 10
-387.48128116888222
 20
838.97621845822005
 30
0.0
 40
0.125
  1
4
 50
90.0
  0
TEXT
  5
1A0E7
  8
0
 62
     0
 10
-387.56461450221548
 20
839.10121845822005
 30
0.0
 40
0.125
  1
"
 50
90.0
  0
ENDBLK
  5
1A0E9
  8
0
  0
BLOCK
  8
0
  2
*U218
 70
     1
 10
0.0
 20
0.0
 30
0.0
  3
*U218
  1

  0
TEXT
  5
1A0EB
  8
0
 62
     0
 10
-383.05359444806828
 20
838.89288512488679
 30
0.0
 40
0.125
  1
1
 50
90.0
  0
TEXT
  5
1A0EC
  8
0
 62
     0
 10
-383.13692778140171
 20
838.97621845822005
 30
0.0
 40
0.125
  1
3
 50
90.0
  0
LINE
  5
1A0ED
  8
0
 62
     0
 10
-383.1160944480684
 20
838.97621845822005
 30
0.0
 11
-383.1160944480684
 21
839.05955179155353
 31
0.0
  0
TEXT
  5
1A0EE
  8
0
 62
     0
 10
-382.97026111473502
 20
838.97621845822005
 30
0.0
 40
0.125
  1
8
 50
90.0
  0
TEXT
  5
1A0EF
  8
0
 62
     0
 10
-383.05359444806828
 20
839.10121845822005
 30
0.0
 40
0.125
  1
"
 50
90.0
  0
ENDBLK
  5
1A0F1
  8
0
  0
BLOCK
  8
0
  2
*U219
 70
     1
 10
0.0
 20
0.0
 30
0.0
  3
*U219
  1

  0
TEXT
  5
1A0F3
  8
0
 10
1.872123119890716
 20
0.7588046473348414
 30
0.0
 40
0.125
  1
Nosing & Cove
  0
TEXT
  5
1A0F4
  8
0
 10
1.872123119890716
 20
0.5504713140015081
 30
0.0
 40
0.125
  1
TL-20
  0
TEXT
  5
1A0F5
  8
0
 10
1.872123119890716
 20
0.3421379806681747
 30
0.0
 40
0.125
  1
3/4" x 1-5/16"
  0
TEXT
  5
1A0F6
  8
0
 10
1.872123119890716
 20
0.1338046473348413
 30
0.0
 40
0.125
  1
800.66.TAGUE
  0
ENDBLK
  5
1A0F8
  8
0
  0
BLOCK
  8
0
  2
*U220
 70
     1
 10
0.0
 20
0.0
 30
0.0
  3
*U220
  1

  0
TEXT
  5
1A0FA
  8
0
 10
1.914126813415123
 20
0.8585704022782466
 30
0.0
 40
0.125
  1
Nosing & Cove
  0
TEXT
  5
1A0FB
  8
0
 10
1.914126813415123
 20
0.6502370689449134
 30
0.0
 40
0.125
  1
TL-21
  0
TEXT
  5
1A0FC
  8
0
 10
1.914126813415123
 20
0.44190373561158
 30
0.0
 40
0.125
  1
1-1/8" x 1-3/4"
  0
TEXT
  5
1A0FD
  8
0
 10
1.914126813415123
 20
0.2335704022782465
 30
0.0
 40
0.125
  1
800.66.TAGUE
  0
ENDBLK
  5
1A0FF
  8
0
  0
BLOCK
  8
0
  2
*U221
 70
     1
 10
0.0
 20
0.0
 30
0.0
  3
*U221
  1

  0
TEXT
  5
1A101
  8
0
 10
2.1633643582791811
 20
1.2559710060997979
 30
0.0
 40
0.125
  1
Nosing & Cove
  0
TEXT
  5
1A102
  8
0
 10
2.1633643582791811
 20
1.0476376727664649
 30
0.0
 40
0.125
  1
TL-22
  0
TEXT
  5
1A103
  8
0
 10
2.1633643582791811
 20
0.839304339433132
 30
0.0
 40
0.125
  1
1-5/16" x 2-1/4"
  0
TEXT
  5
1A104
  8
0
 10
2.1633643582791811
 20
0.6309710060997987
 30
0.0
 40
0.125
  1
800.66.TAGUE
  0
ENDBLK
  5
1A106
  8
0
  0
BLOCK
  8
0
  2
*U222
 70
     1
 10
0.0
 20
0.0
 30
0.0
  3
*U222
  1

  0
TEXT
  5
1A108
  8
0
 10
1.1386258441601731
 20
1.192489029325315
 30
0.0
 40
0.125
  1
Nosing & Cove
  0
TEXT
  5
1A109
  8
0
 10
1.1386258441601731
 20
0.9841556959919824
 30
0.0
 40
0.125
  1
TL-2256
  0
TEXT
  5
1A10A
  8
0
 10
1.1386258441601731
 20
0.7758223626586491
 30
0.0
 40
0.125
  1
5/8" x 1-1/2"
  0
TEXT
  5
1A10B
  8
0
 10
1.1386258441601731
 20
0.5674890293253158
 30
0.0
 40
0.125
  1
800.66.TAGUE
  0
ENDBLK
  5
1A10D
  8
0
  0
BLOCK
  8
0
  2
*U223
 70
     1
 10
0.0
 20
0.0
 30
0.0
  3
*U223
  1

  0
TEXT
  5
1A10F
  8
0
 10
0.8465252202594228
 20
0.679429976342135
 30
0.0
 40
0.125
  1
Nosing & Cove
  0
TEXT
  5
1A110
  8
0
 10
0.8465252202594228
 20
0.4710966430088017
 30
0.0
 40
0.125
  1
TL-2257
  0
TEXT
  5
1A111
  8
0
 10
0.8465252202594228
 20
0.2627633096754684
 30
0.0
 40
0.125
  1
5/16" x 1/2"
  0
TEXT
  5
1A112
  8
0
 10
0.8465252202594228
 20
0.054429976342135
 30
0.0
 40
0.125
  1
800.66.TAGUE
  0
ENDBLK
  5
1A114
  8
0
  0
BLOCK
  8
0
  2
*U224
 70
     1
 10
0.0
 20
0.0
 30
0.0
  3
*U224
  1

  0
TEXT
  5
1A116
  8
0
 10
2.3806405474079488
 20
1.3133539302667709
 30
0.0
 40
0.125
  1
Ogee
  0
TEXT
  5
1A117
  8
0
 10
2.3806405474079488
 20
1.1050205969334379
 30
0.0
 40
0.125
  1
TL-16
  0
TEXT
  5
1A118
  8
0
 10
2.3806405474079488
 20
0.8966872636001046
 30
0.0
 40
0.125
  1
1-3/8" x 2"
  0
TEXT
  5
1A119
  8
0
 10
2.3806405474079488
 20
0.6883539302667714
 30
0.0
 40
0.125
  1
800.66.TAGUE
  0
ENDBLK
  5
1A11B
  8
0
  0
BLOCK
  8
0
  2
*U225
 70
     1
 10
0.0
 20
0.0
 30
0.0
  3
*U225
  1

  0
TEXT
  5
1A12E
  8
0
 10
2.7261344289668719
 20
1.6601320963039821
 30
0.0
 40
0.125
  1
Ogee
  0
TEXT
  5
1A12F
  8
0
 10
2.7261344289668719
 20
1.451798762970649
 30
0.0
 40
0.125
  1
TL-17
  0
TEXT
  5
1A130
  8
0
 10
2.7261344289668719
 20
1.2434654296373151
 30
0.0
 40
0.125
  1
2-5/16" x 1-7/8"
  0
TEXT
  5
1A131
  8
0
 10
2.7261344289668719
 20
1.0351320963039821
 30
0.0
 40
0.125
  1
800.66.TAGUE
  0
ENDBLK
  5
1A133
  8
0
  0
BLOCK
  8
0
  2
*U226
 70
     1
 10
0.0
 20
0.0
 30
0.0
  3
*U226
  1

  0
TEXT
  5
1A135
  8
0
 10
1.8303727118446309
 20
0.9120296408366357
 30
0.0
 40
0.125
  1
Ogee
  0
TEXT
  5
1A136
  8
0
 10
1.8303727118446309
 20
0.7036963075033026
 30
0.0
 40
0.125
  1
TL-166
  0
TEXT
  5
1A137
  8
0
 10
1.8303727118446309
 20
0.4953629741699692
 30
0.0
 40
0.125
  1
11/16" x 1-1/4"
  0
TEXT
  5
1A138
  8
0
 10
1.8303727118446309
 20
0.2870296408366357
 30
0.0
 40
0.125
  1
800.66.TAGUE
  0
ENDBLK
  5
1A13A
  8
0
  0
BLOCK
  8
0
  2
*U227
 70
     1
 10
0.0
 20
0.0
 30
0.0
  3
*U227
  1

  0
TEXT
  5
1A13C
  8
0
 10
1.573032674973148
 20
0.835411988577448
 30
0.0
 40
0.125
  1
Ogee
  0
TEXT
  5
1A13D
  8
0
 10
1.573032674973148
 20
0.6270786552441149
 30
0.0
 40
0.125
  1
TL-167
  0
TEXT
  5
1A13E
  8
0
 10
1.573032674973148
 20
0.4187453219107815
 30
0.0
 40
0.125
  1
11/16" x 7/8"
  0
TEXT
  5
1A13F
  8
0
 10
1.573032674973148
 20
0.210411988577448
 30
0.0
 40
0.125
  1
800.66.TAGUE
  0
ENDBLK
  5
1A141
  8
0
  0
BLOCK
  8
0
  2
*U228
 70
     1
 10
0.0
 20
0.0
 30
0.0
  3
*U228
  1

  0
TEXT
  5
1A143
  8
0
 10
1.814825501310565
 20
1.0878383681827011
 30
0.0
 40
0.125
  1
Ogee Moulding
  0
TEXT
  5
1A144
  8
0
 10
1.814825501310565
 20
0.8795050348493685
 30
0.0
 40
0.125
  1
TL-2240
  0
TEXT
  5
1A145
  8
0
 10
1.814825501310565
 20
0.6711717015160352
 30
0.0
 40
0.125
  1
25/32" x 13/16"
  0
TEXT
  5
1A146
  8
0
 10
1.814825501310565
 20
0.4628383681827018
 30
0.0
 40
0.125
  1
800.66.TAGUE
  0
ENDBLK
  5
1A148
  8
0
  0
BLOCK
  8
0
  2
*U229
 70
     1
 10
0.0
 20
0.0
 30
0.0
  3
*U229
  1

  0
TEXT
  5
1A14A
  8
0
 10
2.966704883543116
 20
1.2733224952305591
 30
0.0
 40
0.125
  1
Ogee Moulding
  0
TEXT
  5
1A14B
  8
0
 10
2.966704883543116
 20
1.0649891618972249
 30
0.0
 40
0.125
  1
TL-2255
  0
TEXT
  5
1A14C
  8
0
 10
2.966704883543116
 20
0.8566558285638924
 30
0.0
 40
0.125
  1
1-1/2" x 2-1/8"
  0
TEXT
  5
1A14D
  8
0
 10
2.966704883543116
 20
0.6483224952305591
 30
0.0
 40
0.125
  1
800.66.TAGUE
  0
ENDBLK
  5
1A14F
  8
0
  0
BLOCK
  8
0
  2
*U230
 70
     1
 10
0.0
 20
0.0
 30
0.0
  3
*U230
  1

  0
TEXT
  5
1A151
  8
0
 10
1.767740232165522
 20
0.6795164786933583
 30
0.0
 40
0.125
  1
Ogee
  0
TEXT
  5
1A152
  8
0
 10
1.767740232165522
 20
0.471183145360025
 30
0.0
 40
0.125
  1
TL-2280
  0
TEXT
  5
1A153
  8
0
 10
1.767740232165522
 20
0.2628498120266917
 30
0.0
 40
0.125
  1
1/2"  x 5/8"
  0
TEXT
  5
1A154
  8
0
 10
1.767740232165522
 20
0.0545164786933583
 30
0.0
 40
0.125
  1
800.66.TAGUE
  0
ENDBLK
  5
1A156
  8
0
  0
BLOCK
  8
0
  2
*U231
 70
     1
 10
0.0
 20
0.0
 30
0.0
  3
*U231
  1

  0
TEXT
  5
1A158
  8
0
 10
2.5765420776576198
 20
0.9513347006069352
 30
0.0
 40
0.125
  1
Ogee
  0
TEXT
  5
1A159
  8
0
 10
2.5765420776576198
 20
0.7430013672736021
 30
0.0
 40
0.125
  1
TL-2326
  0
TEXT
  5
1A15A
  8
0
 10
2.5765420776576198
 20
0.5346680339402687
 30
0.0
 40
0.125
  1
1-3/4" x 1-13/32"
  0
TEXT
  5
1A15B
  8
0
 10
2.5765420776576198
 20
0.3263347006069353
 30
0.0
 40
0.125
  1
800.66.TAGUE
  0
ENDBLK
  5
1A15D
  8
0
  0
BLOCK
  8
0
  2
*U232
 70
     1
 10
0.0
 20
0.0
 30
0.0
  3
*U232
  1

  0
TEXT
  5
1A15F
  8
0
 10
1.8232672208571321
 20
1.0097170300313101
 30
0.0
 40
0.125
  1
Panel Moulding
  0
TEXT
  5
1A160
  8
0
 10
1.8232672208571321
 20
0.8013836966979775
 30
0.0
 40
0.125
  1
TL-54
  0
TEXT
  5
1A161
  8
0
 10
1.8232672208571321
 20
0.5930503633646445
 30
0.0
 40
0.125
  1
5/8" x 1-3/8"
  0
TEXT
  5
1A162
  8
0
 10
1.8232672208571321
 20
0.384717030031311
 30
0.0
 40
0.125
  1
800.66.TAGUE
  0
ENDBLK
  5
1A164
  8
0
  0
BLOCK
  8
0
  2
*U233
 70
     1
 10
0.0
 20
0.0
 30
0.0
  3
*U233
  1

  0
TEXT
  5
1A166
  8
0
 10
1.6082414945508381
 20
0.8848429445537249
 30
0.0
 40
0.125
  1
Panel Moulding
  0
TEXT
  5
1A167
  8
0
 10
1.6082414945508381
 20
0.6765096112203916
 30
0.0
 40
0.125
  1
TL-56
  0
TEXT
  5
1A168
  8
0
 10
1.6082414945508381
 20
0.4681762778870584
 30
0.0
 40
0.125
  1
3/4" x 1-1/2"
  0
TEXT
  5
1A169
  8
0
 10
1.6082414945508381
 20
0.2598429445537249
 30
0.0
 40
0.125
  1
800.66.TAGUE
  0
ENDBLK
  5
1A16B
  8
0
  0
BLOCK
  8
0
  2
*U234
 70
     1
 10
0.0
 20
0.0
 30
0.0
  3
*U234
  1

  0
TEXT
  5
1A16D
  8
0
 10
1.430001145945198
 20
1.055442987142782
 30
0.0
 40
0.125
  1
Panel Moulding
  0
TEXT
  5
1A16E
  8
0
 10
1.430001145945198
 20
0.8471096538094494
 30
0.0
 40
0.125
  1
TL-57
  0
TEXT
  5
1A16F
  8
0
 10
1.430001145945198
 20
0.6387763204761163
 30
0.0
 40
0.125
  1
9/16" x 1-15/16"
  0
TEXT
  5
1A170
  8
0
 10
1.430001145945198
 20
0.4304429871427829
 30
0.0
 40
0.125
  1
800.66.TAGUE
  0
ENDBLK
  5
1A172
  8
0
  0
BLOCK
  8
0
  2
*U235
 70
     1
 10
0.0
 20
0.0
 30
0.0
  3
*U235
  1

  0
TEXT
  5
1A174
  8
0
 10
1.681303805809534
 20
1.2026941795735411
 30
0.0
 40
0.125
  1
Panel Moulding
  0
TEXT
  5
1A175
  8
0
 10
1.681303805809534
 20
0.9943608462402076
 30
0.0
 40
0.125
  1
TL-62
  0
TEXT
  5
1A176
  8
0
 10
1.681303805809534
 20
0.7860275129068745
 30
0.0
 40
0.125
  1
1" x 1-3/4"
  0
TEXT
  5
1A177
  8
0
 10
1.681303805809534
 20
0.5776941795735411
 30
0.0
 40
0.125
  1
800.66.TAGUE
  0
ENDBLK
  5
1A179
  8
0
  0
BLOCK
  8
0
  2
*U236
 70
     1
 10
0.0
 20
0.0
 30
0.0
  3
*U236
  1

  0
TEXT
  5
1A17B
  8
0
 10
2.133056331073703
 20
1.437235578786044
 30
0.0
 40
0.125
  1
Panel Moulding
  0
TEXT
  5
1A17C
  8
0
 10
2.133056331073703
 20
1.2289022454527101
 30
0.0
 40
0.125
  1
TL-64
  0
TEXT
  5
1A17D
  8
0
 10
2.133056331073703
 20
1.0205689121193771
 30
0.0
 40
0.125
  1
1-1/4" x 1-15/16"
  0
TEXT
  5
1A17E
  8
0
 10
2.133056331073703
 20
0.8122355787860442
 30
0.0
 40
0.125
  1
800.66.TAGUE
  0
ENDBLK
  5
1A180
  8
0
  0
BLOCK
  8
0
  2
*U237
 70
     1
 10
0.0
 20
0.0
 30
0.0
  3
*U237
  1

  0
TEXT
  5
1A182
  8
0
 10
1.6378445869512459
 20
1.1242484052883119
 30
0.0
 40
0.125
  1
Panel Moulding
  0
TEXT
  5
1A183
  8
0
 10
1.6378445869512459
 20
0.9159150719549795
 30
0.0
 40
0.125
  1
TL-314
  0
TEXT
  5
1A184
  8
0
 10
1.6378445869512459
 20
0.7075817386216463
 30
0.0
 40
0.125
  1
3/4" x 1-3/8"
  0
TEXT
  5
1A185
  8
0
 10
1.6378445869512459
 20
0.4992484052883129
 30
0.0
 40
0.125
  1
800.66.TAGUE
  0
ENDBLK
  5
1A187
  8
0
  0
BLOCK
  8
0
  2
*U238
 70
     1
 10
0.0
 20
0.0
 30
0.0
  3
*U238
  1

  0
TEXT
  5
1A189
  8
0
 10
1.793042575215281
 20
1.3157146661659449
 30
0.0
 40
0.125
  1
Panel Moulding
  0
TEXT
  5
1A18A
  8
0
 10
1.793042575215281
 20
1.107381332832611
 30
0.0
 40
0.125
  1
TL-2032
  0
TEXT
  5
1A18B
  8
0
 10
1.793042575215281
 20
0.8990479994992785
 30
0.0
 40
0.125
  1
3/4" x 2"
  0
TEXT
  5
1A18C
  8
0
 10
1.793042575215281
 20
0.6907146661659454
 30
0.0
 40
0.125
  1
800.66.TAGUE
  0
ENDBLK
  5
1A18E
  8
0
  0
BLOCK
  8
0
  2
*U239
 70
     1
 10
0.0
 20
0.0
 30
0.0
  3
*U239
  1

  0
TEXT
  5
1A190
  8
0
 10
1.8141185831191251
 20
0.8182814091084082
 30
0.0
 40
0.125
  1
Panel Moulding
  0
TEXT
  5
1A191
  8
0
 10
1.8141185831191251
 20
0.6099480757750749
 30
0.0
 40
0.125
  1
TL-2016
  0
TEXT
  5
1A192
  8
0
 10
1.8141185831191251
 20
0.4016147424417417
 30
0.0
 40
0.125
  1
15/16" x 1-11/16"
  0
TEXT
  5
1A193
  8
0
 10
1.8141185831191251
 20
0.1932814091084083
 30
0.0
 40
0.125
  1
800.66.TAGUE
  0
ENDBLK
  5
1A195
  8
0
  0
BLOCK
  8
0
  2
*U240
 70
     1
 10
0.0
 20
0.0
 30
0.0
  3
*U240
  1

  0
TEXT
  5
1A197
  8
0
 10
1.6323248967152031
 20
0.9094451817165918
 30
0.0
 40
0.125
  1
Panel Moulding
  0
TEXT
  5
1A198
  8
0
 10
1.6323248967152031
 20
0.7011118483832585
 30
0.0
 40
0.125
  1
TL-2136
  0
TEXT
  5
1A199
  8
0
 10
1.6323248967152031
 20
0.4927785150499253
 30
0.0
 40
0.125
  1
21/32" x 1"
  0
TEXT
  5
1A19A
  8
0
 10
1.6323248967152031
 20
0.2844451817165918
 30
0.0
 40
0.125
  1
800.66.TAGUE
  0
ENDBLK
  5
1A19C
  8
0
  0
BLOCK
  8
0
  2
*U241
 70
     1
 10
0.0
 20
0.0
 30
0.0
  3
*U241
  1

  0
TEXT
  5
1A19E
  8
0
 10
1.417623633629318
 20
0.9199699342109398
 30
0.0
 40
0.125
  1
Panel Moulding
  0
TEXT
  5
1A19F
  8
0
 10
1.417623633629318
 20
0.7116366008776064
 30
0.0
 40
0.125
  1
TL-2198
  0
TEXT
  5
1A1A0
  8
0
 10
1.417623633629318
 20
0.5033032675442732
 30
0.0
 40
0.125
  1
3/8" x 15/16"
  0
TEXT
  5
1A1A1
  8
0
 10
1.417623633629318
 20
0.2949699342109397
 30
0.0
 40
0.125
  1
800.66.TAGUE
  0
ENDBLK
  5
1A1A3
  8
0
  0
BLOCK
  8
0
  2
*U242
 70
     1
 10
0.0
 20
0.0
 30
0.0
  3
*U242
  1

  0
TEXT
  5
1A1A5
  8
0
 10
1.152367654636123
 20
0.6934204479599658
 30
0.0
 40
0.125
  1
Panel Moulding
  0
TEXT
  5
1A1A6
  8
0
 10
1.152367654636123
 20
0.4850871146266324
 30
0.0
 40
0.125
  1
TL-2068
  0
TEXT
  5
1A1A7
  8
0
 10
1.152367654636123
 20
0.276753781293299
 30
0.0
 40
0.125
  1
3/8" x 3/4"
  0
TEXT
  5
1A1A8
  8
0
 10
1.152367654636123
 20
0.0684204479599657
 30
0.0
 40
0.125
  1
800.66.TAGUE
  0
ENDBLK
  5
1A1AA
  8
0
  0
BLOCK
  8
0
  2
*U243
 70
     1
 10
0.0
 20
0.0
 30
0.0
  3
*U243
  1

  0
TEXT
  5
1A1AC
  8
0
 10
1.6525119768826919
 20
0.6772984067825975
 30
0.0
 40
0.125
  1
Panel Moulding
  0
TEXT
  5
1A1AD
  8
0
 10
1.6525119768826919
 20
0.468965073449264
 30
0.0
 40
0.125
  1
TL-2074
  0
TEXT
  5
1A1AE
  8
0
 10
1.6525119768826919
 20
0.2606317401159307
 30
0.0
 40
0.125
  1
1/2" x 17/32"
  0
TEXT
  5
1A1AF
  8
0
 10
1.6525119768826919
 20
0.0522984067825974
 30
0.0
 40
0.125
  1
800.66.TAGUE
  0
ENDBLK
  5
1A1B1
  8
0
  0
BLOCK
  8
0
  2
*U244
 70
     1
 10
0.0
 20
0.0
 30
0.0
  3
*U244
  1

  0
TEXT
  5
1A1B3
  8
0
 10
1.2174996695814571
 20
0.677298529590189
 30
0.0
 40
0.125
  1
Panel Moulding
  0
TEXT
  5
1A1B4
  8
0
 10
1.2174996695814571
 20
0.4689651962568556
 30
0.0
 40
0.125
  1
TL-2178
  0
TEXT
  5
1A1B5
  8
0
 10
1.2174996695814571
 20
0.2606318629235224
 30
0.0
 40
0.125
  1
5/16" x 11/16"
  0
TEXT
  5
1A1B6
  8
0
 10
1.2174996695814571
 20
0.052298529590189
 30
0.0
 40
0.125
  1
800.66.TAGUE
  0
ENDBLK
  5
1A1B8
  8
0
  0
BLOCK
  8
0
  2
*U245
 70
     1
 10
0.0
 20
0.0
 30
0.0
  3
*U245
  1

  0
TEXT
  5
1A1BA
  8
0
 10
1.621705506624266
 20
1.0164844833981299
 30
0.0
 40
0.125
  1
Panel Moulding
  0
TEXT
  5
1A1BB
  8
0
 10
1.621705506624266
 20
0.8081511500647971
 30
0.0
 40
0.125
  1
TL-2237
  0
TEXT
  5
1A1BC
  8
0
 10
1.621705506624266
 20
0.599817816731464
 30
0.0
 40
0.125
  1
3/4" x 1-1/2"
  0
TEXT
  5
1A1BD
  8
0
 10
1.621705506624266
 20
0.3914844833981306
 30
0.0
 40
0.125
  1
800.66.TAGUE
  0
ENDBLK
  5
1A1BF
  8
0
  0
BLOCK
  8
0
  2
*U246
 70
     1
 10
0.0
 20
0.0
 30
0.0
  3
*U246
  1

  0
TEXT
  5
1A1C1
  8
0
 10
2.0683925889327379
 20
1.262249770558469
 30
0.0
 40
0.125
  1
Panel Moulding
  0
TEXT
  5
1A1C2
  8
0
 10
2.0683925889327379
 20
1.0539164372251351
 30
0.0
 40
0.125
  1
TL-2239
  0
TEXT
  5
1A1C3
  8
0
 10
2.0683925889327379
 20
0.8455831038918026
 30
0.0
 40
0.125
  1
27/32" x 1-7/8"
  0
TEXT
  5
1A1C4
  8
0
 10
2.0683925889327379
 20
0.6372497705584692
 30
0.0
 40
0.125
  1
800.66.TAGUE
  0
ENDBLK
  5
1A1C6
  8
0
  0
BLOCK
  8
0
  2
*U247
 70
     1
 10
0.0
 20
0.0
 30
0.0
  3
*U247
  1

  0
TEXT
  5
1A1C8
  8
0
 10
2.746924783524491
 20
2.4371414641403808
 30
0.0
 40
0.125
  1
Panel Moulding
  0
TEXT
  5
1A1C9
  8
0
 10
2.746924783524491
 20
2.2288081308070482
 30
0.0
 40
0.125
  1
TL-2241
  0
TEXT
  5
1A1CA
  8
0
 10
2.746924783524491
 20
2.0204747974737152
 30
0.0
 40
0.125
  1
1-5/32" x 3-9/16"
  0
TEXT
  5
1A1CB
  8
0
 10
2.746924783524491
 20
1.812141464140381
 30
0.0
 40
0.125
  1
800.66.TAGUE
  0
ENDBLK
  5
1A1CD
  8
0
  0
BLOCK
  8
0
  2
*U248
 70
     1
 10
0.0
 20
0.0
 30
0.0
  3
*U248
  1

  0
TEXT
  5
1A1CF
  8
0
 10
1.48967271797386
 20
1.0711974611003821
 30
0.0
 40
0.125
  1
Panel Moulding
  0
TEXT
  5
1A1D0
  8
0
 10
1.48967271797386
 20
0.8628641277670491
 30
0.0
 40
0.125
  1
TL-2248
  0
TEXT
  5
1A1D1
  8
0
 10
1.48967271797386
 20
0.6545307944337159
 30
0.0
 40
0.125
  1
7/8" x 1-7/8"
  0
TEXT
  5
1A1D2
  8
0
 10
1.48967271797386
 20
0.4461974611003825
 30
0.0
 40
0.125
  1
800.66.TAGUE
  0
ENDBLK
  5
1A1D4
  8
0
  0
BLOCK
  8
0
  2
*U249
 70
     1
 10
0.0
 20
0.0
 30
0.0
  3
*U249
  1

  0
TEXT
  5
1A1D6
  8
0
 10
1.3774554366254961
 20
1.0325907140347681
 30
0.0
 40
0.125
  1
Panel Moulding
  0
TEXT
  5
1A1D7
  8
0
 10
1.3774554366254961
 20
0.8242573807014347
 30
0.0
 40
0.125
  1
TL-2259
  0
TEXT
  5
1A1D8
  8
0
 10
1.3774554366254961
 20
0.6159240473681015
 30
0.0
 40
0.125
  1
1/2" x 1-3/16"
  0
TEXT
  5
1A1D9
  8
0
 10
1.3774554366254961
 20
0.4075907140347681
 30
0.0
 40
0.125
  1
800.66.TAGUE
  0
ENDBLK
  5
1A1DB
  8
0
  0
BLOCK
  8
0
  2
*U250
 70
     1
 10
0.0
 20
0.0
 30
0.0
  3
*U250
  1

  0
TEXT
  5
1A1DD
  8
0
 10
1.4427956644998969
 20
1.4622105465398361
 30
0.0
 40
0.125
  1
Panel Moulding
  0
TEXT
  5
1A1DE
  8
0
 10
1.4427956644998969
 20
1.2538772132065019
 30
0.0
 40
0.125
  1
TL-2260
  0
TEXT
  5
1A1DF
  8
0
 10
1.4427956644998969
 20
1.0455438798731691
 30
0.0
 40
0.125
  1
1/2" x 1-13/16"
  0
TEXT
  5
1A1E0
  8
0
 10
1.4427956644998969
 20
0.8372105465398362
 30
0.0
 40
0.125
  1
800.66.TAGUE
  0
ENDBLK
  5
1A1E2
  8
0
  0
BLOCK
  8
0
  2
*U251
 70
     1
 10
0.0
 20
0.0
 30
0.0
  3
*U251
  1

  0
TEXT
  5
1A1E4
  8
0
 10
2.4257777135581469
 20
1.4688991231314501
 30
0.0
 40
0.125
  1
Panel Moulding
  0
TEXT
  5
1A1E5
  8
0
 10
2.4257777135581469
 20
1.260565789798116
 30
0.0
 40
0.125
  1
TL-2261
  0
TEXT
  5
1A1E6
  8
0
 10
2.4257777135581469
 20
1.0522324564647829
 30
0.0
 40
0.125
  1
13/16" x 2"
  0
TEXT
  5
1A1E7
  8
0
 10
2.4257777135581469
 20
0.8438991231314503
 30
0.0
 40
0.125
  1
800.66.TAGUE
  0
ENDBLK
  5
1A1E9
  8
0
  0
BLOCK
  8
0
  2
*U252
 70
     1
 10
0.0
 20
0.0
 30
0.0
  3
*U252
  1

  0
TEXT
  5
1A1EB
  8
0
 10
2.5069500958813928
 20
0.7911043912140486
 30
0.0
 40
0.125
  1
Panel Moulding
  0
TEXT
  5
1A1EC
  8
0
 10
2.5069500958813928
 20
0.5827710578807152
 30
0.0
 40
0.125
  1
TL-2270
  0
TEXT
  5
1A1ED
  8
0
 10
2.5069500958813928
 20
0.3744377245473819
 30
0.0
 40
0.125
  1
11/16" x 15/16"
  0
TEXT
  5
1A1EE
  8
0
 10
2.5069500958813928
 20
0.1661043912140485
 30
0.0
 40
0.125
  1
800.66.TAGUE
  0
ENDBLK
  5
1A1F0
  8
0
  0
BLOCK
  8
0
  2
*U253
 70
     1
 10
0.0
 20
0.0
 30
0.0
  3
*U253
  1

  0
TEXT
  5
1A1F2
  8
0
 62
     0
 10
-266.30534787530831
 20
273.59262856062833
 30
0.0
 40
0.125
  1
1
 50
90.0
  0
TEXT
  5
1A1F3
  8
0
 62
     0
 10
-266.38868120864157
 20
273.71762856062833
 30
0.0
 40
0.125
  1
5
 50
90.0
  0
LINE
  5
1A1F4
  8
0
 62
     0
 10
-266.36784787530831
 20
273.6759618939617
 30
0.0
 11
-266.36784787530831
 21
273.84262856062833
 31
0.0
  0
TEXT
  5
1A1F5
  8
0
 62
     0
 10
-266.222014541975
 20
273.6759618939617
 30
0.0
 40
0.125
  1
16
 50
90.0
  0
TEXT
  5
1A1F6
  8
0
 62
     0
 10
-266.30534787530831
 20
273.88429522729501
 30
0.0
 40
0.125
  1
"
 50
90.0
  0
ENDBLK
  5
1A1F8
  8
0
  0
BLOCK
  8
0
  2
*U254
 70
     1
 10
0.0
 20
0.0
 30
0.0
  3
*U254
  1

  0
TEXT
  5
1A1FA
  8
0
 62
     0
 10
-265.70247366384262
 20
273.99008194853201
 30
0.0
 40
0.125
  1
11
  0
LINE
  5
1A1FB
  8
0
 62
     0
 10
-265.74414033050931
 20
273.96924861519869
 30
0.0
 11
-265.535806997176
 21
273.96924861519869
 31
0.0
  0
TEXT
  5
1A1FC
  8
0
 62
     0
 10
-265.74414033050931
 20
273.82341528186532
 30
0.0
 40
0.125
  1
32
  0
TEXT
  5
1A1FD
  8
0
 62
     0
 10
-265.49414033050931
 20
273.90674861519869
 30
0.0
 40
0.125
  1
"
  0
ENDBLK
  5
1A1FF
  8
0
  0
BLOCK
  8
0
  2
*U255
 70
     1
 10
0.0
 20
0.0
 30
0.0
  3
*U255
  1

  0
TEXT
  5
1A201
  8
0
 10
0.909015082031658
 20
0.6872605440269127
 30
0.0
 40
0.125
  1
Panel Mldg
  0
TEXT
  5
1A202
  8
0
 10
0.909015082031658
 20
0.4789272106935793
 30
0.0
 40
0.125
  1
TL-2283
  0
TEXT
  5
1A203
  8
0
 10
0.909015082031658
 20
0.3080938773602461
 30
0.0
 40
0.0875
  1
13
  0
LINE
  5
1A204
  8
0
 10
0.9900771438509416
 20
0.2364180734849593
 30
0.0
 11
1.0904530202123739
 21
0.3797696812355328
 31
0.0
  0
TEXT
  5
1A205
  8
0
 10
1.0548484153649911
 20
0.1914272106935794
 30
0.0
 40
0.0875
  1
16
  0
TEXT
  5
1A206
  8
0
 10
1.2006817486983239
 20
0.220593877360246
 30
0.0
 40
0.125
  1
" x 1-
  0
TEXT
  5
1A207
  8
0
 10
1.8673484153649911
 20
0.3080938773602461
 30
0.0
 40
0.0875
  1
3
  0
LINE
  5
1A208
  8
0
 10
1.8900771438509409
 20
0.2364180734849593
 30
0.0
 11
1.990453020212374
 21
0.3797696812355328
 31
0.0
  0
TEXT
  5
1A209
  8
0
 10
1.954848415364991
 20
0.1914272106935794
 30
0.0
 40
0.0875
  1
4
  0
TEXT
  5
1A20A
  8
0
 10
2.0423484153649909
 20
0.220593877360246
 30
0.0
 40
0.125
  1
"
  0
TEXT
  5
1A20B
  8
0
 10
0.909015082031658
 20
0.0539272106935793
 30
0.0
 40
0.125
  1
800.66.TAGUE
  0
ENDBLK
  5
1A20D
  8
0
  0
BLOCK
  8
0
  2
*U256
 70
     1
 10
0.0
 20
0.0
 30
0.0
  3
*U256
  1

  0
TEXT
  5
1A20F
  8
0
 62
     0
 10
-388.10095765539421
 20
838.47949397127331
 30
0.0
 40
0.125
  1
1
 50
90.0
  0
TEXT
  5
1A210
  8
0
 62
     0
 10
-388.18429098872758
 20
838.60449397127343
 30
0.0
 40
0.125
  1
5
 50
90.0
  0
LINE
  5
1A211
  8
0
 62
     0
 10
-388.16345765539432
 20
838.5628273046068
 30
0.0
 11
-388.16345765539432
 21
838.72949397127343
 31
0.0
  0
TEXT
  5
1A212
  8
0
 62
     0
 10
-388.0176243220609
 20
838.5628273046068
 30
0.0
 40
0.125
  1
16
 50
90.0
  0
TEXT
  5
1A213
  8
0
 62
     0
 10
-388.10095765539421
 20
838.77116063794006
 30
0.0
 40
0.125
  1
"
 50
90.0
  0
ENDBLK
  5
1A215
  8
0
  0
BLOCK
  8
0
  2
*U257
 70
     1
 10
0.0
 20
0.0
 30
0.0
  3
*U257
  1

  0
TEXT
  5
1A217
  8
0
 62
     0
 10
-387.49961823246872
 20
838.8753273046068
 30
0.0
 40
0.125
  1
11
  0
LINE
  5
1A218
  8
0
 62
     0
 10
-387.54128489913541
 20
838.85449397127331
 30
0.0
 11
-387.33295156580209
 21
838.85449397127331
 31
0.0
  0
TEXT
  5
1A219
  8
0
 62
     0
 10
-387.54128489913541
 20
838.70866063794006
 30
0.0
 40
0.125
  1
32
  0
TEXT
  5
1A21A
  8
0
 62
     0
 10
-387.29128489913541
 20
838.79199397127366
 30
0.0
 40
0.125
  1
"
  0
ENDBLK
  5
1A21C
  8
0
  0
BLOCK
  8
0
  2
*U258
 70
     1
 10
0.0
 20
0.0
 30
0.0
  3
*U258
  1

  0
TEXT
  5
1A21E
  8
0
 10
2.6345862085493641
 20
1.498411677627927
 30
0.0
 40
0.125
  1
Panel Moulding
  0
TEXT
  5
1A21F
  8
0
 10
2.6345862085493641
 20
1.290078344294594
 30
0.0
 40
0.125
  1
TL-2304
  0
TEXT
  5
1A220
  8
0
 10
2.6345862085493641
 20
1.081745010961261
 30
0.0
 40
0.125
  1
1-3/8" x 2"
  0
TEXT
  5
1A221
  8
0
 10
2.6345862085493641
 20
0.8734116776279279
 30
0.0
 40
0.125
  1
800.66.TAGUE
  0
ENDBLK
  5
1A223
  8
0
  0
BLOCK
  8
0
  2
*U259
 70
     1
 10
0.0
 20
0.0
 30
0.0
  3
*U259
  1

  0
TEXT
  5
1A225
  8
0
 10
2.0187131816974211
 20
1.20118096128408
 30
0.0
 40
0.125
  1
Picture Moulding
  0
TEXT
  5
1A226
  8
0
 10
2.0187131816974211
 20
0.9928476279507473
 30
0.0
 40
0.125
  1
TL-276
  0
TEXT
  5
1A227
  8
0
 10
2.0187131816974211
 20
0.7845142946174141
 30
0.0
 40
0.125
  1
3/4" x 1-3/4"
  0
TEXT
  5
1A228
  8
0
 10
2.0187131816974211
 20
0.5761809612840807
 30
0.0
 40
0.125
  1
800.66.TAGUE
  0
ENDBLK
  5
1A22A
  8
0
  0
BLOCK
  8
0
  2
*U260
 70
     1
 10
0.0
 20
0.0
 30
0.0
  3
*U260
  1

  0
TEXT
  5
1A22C
  8
0
 10
1.49770647708442
 20
1.222690512861845
 30
0.0
 40
0.125
  1
Picture Moulding
  0
TEXT
  5
1A22D
  8
0
 10
1.49770647708442
 20
1.014357179528512
 30
0.0
 40
0.125
  1
TL-277
  0
TEXT
  5
1A22E
  8
0
 10
1.49770647708442
 20
0.8060238461951788
 30
0.0
 40
0.125
  1
3/4" x 1-3/4"
  0
TEXT
  5
1A22F
  8
0
 10
1.49770647708442
 20
0.5976905128618455
 30
0.0
 40
0.125
  1
800.66.TAGUE
  0
ENDBLK
  5
1A231
  8
0
  0
BLOCK
  8
0
  2
*U261
 70
     1
 10
0.0
 20
0.0
 30
0.0
  3
*U261
  1

  0
TEXT
  5
1A233
  8
0
 10
1.606155954235418
 20
0.8433418361508984
 30
0.0
 40
0.125
  1
Picture Moulding
  0
TEXT
  5
1A234
  8
0
 10
1.606155954235418
 20
0.6350085028175651
 30
0.0
 40
0.125
  1
TL-2173
  0
TEXT
  5
1A235
  8
0
 10
1.606155954235418
 20
0.4266751694842318
 30
0.0
 40
0.125
  1
13/16" x 1-1/2"
  0
TEXT
  5
1A236
  8
0
 10
1.606155954235418
 20
0.2183418361508984
 30
0.0
 40
0.125
  1
800.66.TAGUE
  0
ENDBLK
  5
1A238
  8
0
  0
BLOCK
  8
0
  2
*U262
 70
     1
 10
0.0
 20
0.0
 30
0.0
  3
*U262
  1

  0
TEXT
  5
1A23A
  8
0
 10
1.771900475170298
 20
1.126578925655167
 30
0.0
 40
0.125
  1
Plank Moulding
  0
TEXT
  5
1A23B
  8
0
 10
1.771900475170298
 20
0.9182455923218338
 30
0.0
 40
0.125
  1
TL-211
  0
TEXT
  5
1A23C
  8
0
 10
1.771900475170298
 20
0.7099122589885005
 30
0.0
 40
0.125
  1
11/16" x 1-9/16"
  0
TEXT
  5
1A23D
  8
0
 10
1.771900475170298
 20
0.5015789256551672
 30
0.0
 40
0.125
  1
800.66.TAGUE
  0
ENDBLK
  5
1A23F
  8
0
  0
BLOCK
  8
0
  2
*U263
 70
     1
 10
0.0
 20
0.0
 30
0.0
  3
*U263
  1

  0
TEXT
  5
1A241
  8
0
 10
1.4505245364633761
 20
0.8622422781851356
 30
0.0
 40
0.125
  1
Plank Moulding
  0
TEXT
  5
1A242
  8
0
 10
1.4505245364633761
 20
0.6539089448518024
 30
0.0
 40
0.125
  1
TL-2286
  0
TEXT
  5
1A243
  8
0
 10
1.4505245364633761
 20
0.395575611518469
 30
0.0
 40
0.125
  1
1/2" x 1-
  0
TEXT
  5
1A244
  8
0
 10
2.4505245364633761
 20
0.483075611518469
 30
0.0
 40
0.0875
  1
1
  0
LINE
  5
1A245
  8
0
 10
2.4440865982826598
 20
0.4113998076431822
 30
0.0
 11
2.5444624746440931
 21
0.5547514153937558
 31
0.0
  0
TEXT
  5
1A246
  8
0
 10
2.5088578697967092
 20
0.3664089448518023
 30
0.0
 40
0.0875
  1
8
  0
TEXT
  5
1A247
  8
0
 10
2.5963578697967091
 20
0.395575611518469
 30
0.0
 40
0.125
  1
"
  0
TEXT
  5
1A248
  8
0
 10
1.4505245364633761
 20
0.2289089448518022
 30
0.0
 40
0.125
  1
800.66.TAGUE
  0
ENDBLK
  5
1A24A
  8
0
  0
BLOCK
  8
0
  2
*U264
 70
     1
 10
0.0
 20
0.0
 30
0.0
  3
*U264
  1

  0
TEXT
  5
1A24C
  8
0
 10
2.1711370769962168
 20
0.7594393410427074
 30
0.0
 40
0.125
  1
Plank Moulding
  0
TEXT
  5
1A24D
  8
0
 10
2.1711370769962168
 20
0.5511060077093742
 30
0.0
 40
0.125
  1
TL-2291
  0
TEXT
  5
1A24E
  8
0
 10
2.1711370769962168
 20
0.2927726743760408
 30
0.0
 40
0.125
  1
1" x 1-
  0
TEXT
  5
1A24F
  8
0
 10
2.9211370769962168
 20
0.3802726743760409
 30
0.0
 40
0.0875
  1
1
  0
LINE
  5
1A250
  8
0
 10
2.914699138815501
 20
0.3085968705007541
 30
0.0
 11
3.015075015176933
 21
0.4519484782513276
 31
0.0
  0
TEXT
  5
1A251
  8
0
 10
2.97947041032955
 20
0.2636060077093742
 30
0.0
 40
0.0875
  1
4
  0
TEXT
  5
1A252
  8
0
 10
3.0669704103295499
 20
0.2927726743760408
 30
0.0
 40
0.125
  1
"
  0
TEXT
  5
1A253
  8
0
 10
2.1711370769962168
 20
0.1261060077093741
 30
0.0
 40
0.125
  1
800.66.TAGUE
  0
ENDBLK
  5
1A255
  8
0
  0
BLOCK
  8
0
  2
*U265
 70
     1
 10
0.0
 20
0.0
 30
0.0
  3
*U265
  1

  0
TEXT
  5
1A257
  8
0
 10
4.8409202131259121
 20
5.087561484758111
 30
0.0
 40
0.125
  1
Plinth Block
  0
TEXT
  5
1A258
  8
0
 10
4.8409202131259121
 20
4.8792281514247779
 30
0.0
 40
0.125
  1
TL-720
  0
TEXT
  5
1A259
  8
0
 10
4.8409202131259121
 20
4.670894818091444
 30
0.0
 40
0.125
  1
1" x 4" x Any Height
  0
TEXT
  5
1A25A
  8
0
 10
4.8409202131259121
 20
4.462561484758111
 30
0.0
 40
0.125
  1
For use w/ TL-332 & TL-361 
  0
TEXT
  5
1A25B
  8
0
 10
4.8409202131259121
 20
4.2542281514247779
 30
0.0
 40
0.125
  1
Casing
  0
TEXT
  5
1A25C
  8
0
 10
4.8409202131259121
 20
4.0458948180914449
 30
0.0
 40
0.125
  1
(1" x 3-3/4" x Any Height is 
  0
TEXT
  5
1A25D
  8
0
 10
4.8409202131259121
 20
3.837561484758111
 30
0.0
 40
0.125
  1
also available for use w/ 
  0
TEXT
  5
1A25E
  8
0
 10
4.8409202131259121
 20
3.6292281514247779
 30
0.0
 40
0.125
  1
TL-750 Casing)
  0
TEXT
  5
1A25F
  8
0
 10
4.8409202131259121
 20
3.420894818091444
 30
0.0
 40
0.125
  1
800.66.TAGUE
  0
ENDBLK
  5
1A261
  8
0
  0
BLOCK
  8
0
  2
*U266
 70
     1
 10
0.0
 20
0.0
 30
0.0
  3
*U266
  1

  0
TEXT
  5
1A263
  8
0
 10
5.0851826815998598
 20
4.9480590124609298
 30
0.0
 40
0.125
  1
Plinth Block
  0
TEXT
  5
1A264
  8
0
 10
5.0851826815998598
 20
4.7397256791275968
 30
0.0
 40
0.125
  1
TL-722
  0
TEXT
  5
1A265
  8
0
 10
5.0851826815998598
 20
4.5313923457942629
 30
0.0
 40
0.125
  1
7/8" x 4" x Any Height
  0
TEXT
  5
1A266
  8
0
 10
5.0851826815998598
 20
4.3230590124609298
 30
0.0
 40
0.125
  1
For use w/ TL-332 & TL-361 
  0
TEXT
  5
1A267
  8
0
 10
5.0851826815998598
 20
4.1147256791275968
 30
0.0
 40
0.125
  1
Casing
  0
TEXT
  5
1A268
  8
0
 10
5.0851826815998598
 20
3.9063923457942642
 30
0.0
 40
0.125
  1
(7/8" x 3-3/4" x Any Height 
  0
TEXT
  5
1A269
  8
0
 10
5.0851826815998598
 20
3.6980590124609298
 30
0.0
 40
0.125
  1
is also available for use w/ 
  0
TEXT
  5
1A26A
  8
0
 10
5.0851826815998598
 20
3.4897256791275968
 30
0.0
 40
0.125
  1
TL-445 Casing)
  0
TEXT
  5
1A26B
  8
0
 10
5.0851826815998598
 20
3.2813923457942642
 30
0.0
 40
0.125
  1
800.66.TAGUE
  0
ENDBLK
  5
1A26D
  8
0
  0
BLOCK
  8
0
  2
*U267
 70
     1
 10
0.0
 20
0.0
 30
0.0
  3
*U267
  1

  0
TEXT
  5
1A26F
  8
0
 10
5.4276068026422868
 20
5.2765876151471502
 30
0.0
 40
0.125
  1
Plinth Block
  0
TEXT
  5
1A270
  8
0
 10
5.4276068026422868
 20
5.0682542818138172
 30
0.0
 40
0.125
  1
TL-724
  0
TEXT
  5
1A271
  8
0
 10
5.4276068026422868
 20
4.8599209484804833
 30
0.0
 40
0.125
  1
1-1/4" x 4" x Any Height
  0
TEXT
  5
1A272
  8
0
 10
5.4276068026422868
 20
4.6515876151471502
 30
0.0
 40
0.125
  1
For use w/ TL-310 & TL-311 
  0
TEXT
  5
1A273
  8
0
 10
5.4276068026422868
 20
4.4432542818138172
 30
0.0
 40
0.125
  1
Casing
  0
TEXT
  5
1A274
  8
0
 10
5.4276068026422868
 20
4.2349209484804842
 30
0.0
 40
0.125
  1
800.66.TAGUE
  0
ENDBLK
  5
1A276
  8
0
  0
BLOCK
  8
0
  2
*U268
 70
     1
 10
0.0
 20
0.0
 30
0.0
  3
*U268
  1

  0
TEXT
  5
1A278
  8
0
 10
1.9834761602972431
 20
3.9146888730343781
 30
0.0
 40
0.125
  1
Plinth Block
  0
TEXT
  5
1A279
  8
0
 10
1.9834761602972431
 20
3.706355539701045
 30
0.0
 40
0.125
  1
TL-2269
  0
TEXT
  5
1A27A
  8
0
 10
1.9834761602972431
 20
3.498022206367712
 30
0.0
 40
0.125
  1
1-3/8" x 7-3/8" x Any 
  0
TEXT
  5
1A27B
  8
0
 10
1.9834761602972431
 20
3.2896888730343781
 30
0.0
 40
0.125
  1
Height
  0
TEXT
  5
1A27C
  8
0
 10
1.9834761602972431
 20
3.081355539701045
 30
0.0
 40
0.125
  1
800.66.TAGUE
  0
ENDBLK
  5
1A27E
  8
0
  0
BLOCK
  8
0
  2
*U269
 70
     1
 10
0.0
 20
0.0
 30
0.0
  3
*U269
  1

  0
TEXT
  5
1A280
  8
0
 10
2.5585888631325702
 20
2.655863615564499
 30
0.0
 40
0.125
  1
Plinth Blocks
  0
TEXT
  5
1A281
  8
0
 10
2.5585888631325702
 20
2.4475302822311651
 30
0.0
 40
0.125
  1
TL-2328
  0
TEXT
  5
1A282
  8
0
 10
2.5585888631325702
 20
2.2391969488978321
 30
0.0
 40
0.125
  1
2-3/32" x 4-1/2" x Any 
  0
TEXT
  5
1A283
  8
0
 10
2.5585888631325702
 20
2.030863615564499
 30
0.0
 40
0.125
  1
Height
  0
TEXT
  5
1A284
  8
0
 10
2.5585888631325702
 20
1.8225302822311651
 30
0.0
 40
0.125
  1
800.66.TAGUE
  0
ENDBLK
  5
1A286
  8
0
  0
BLOCK
  8
0
  2
*U270
 70
     1
 10
0.0
 20
0.0
 30
0.0
  3
*U270
  1

  0
TEXT
  5
1A28B
  8
0
 10
3.673295288944245
 20
1.146820656308591
 30
0.0
 40
0.125
  1
Porch Rail
  0
TEXT
  5
1A28C
  8
0
 10
3.673295288944245
 20
0.9384873229752581
 30
0.0
 40
0.125
  1
TL-533
  0
TEXT
  5
1A28D
  8
0
 10
3.673295288944245
 20
0.7301539896419247
 30
0.0
 40
0.125
  1
1-5/8" x 2-5/8"
  0
TEXT
  5
1A28E
  8
0
 10
3.673295288944245
 20
0.5218206563085915
 30
0.0
 40
0.125
  1
800.66.TAGUE
  0
ENDBLK
  5
1A290
  8
0
  0
BLOCK
  8
0
  2
*U271
 70
     1
 10
0.0
 20
0.0
 30
0.0
  3
*U271
  1

  0
TEXT
  5
1A292
  8
0
 10
-383.9069138353064
 20
840.81720611871094
 30
0.0
 40
0.125
  1
Porch Rail
  0
TEXT
  5
1A293
  8
0
 10
-383.9069138353064
 20
840.60887278537746
 30
0.0
 40
0.125
  1
TL-533
  0
TEXT
  5
1A294
  8
0
 10
-383.9069138353064
 20
840.4005394520442
 30
0.0
 40
0.125
  1
1-5/8" x 2-5/8"
  0
TEXT
  5
1A295
  8
0
 10
-383.9069138353064
 20
840.19220611871094
 30
0.0
 40
0.125
  1
800.66.TAGUE
  0
ENDBLK
  5
1A297
  8
0
  0
ENDSEC
  0
SECTION
  2
ENTITIES
  0
INSERT
  5
19EDC
  8
0
  2
*U271
 10
0.0
 20
0.0
 30
0.0
  0
LINE
  5
19EDD
  8
0
 10
-384.9919146479582
 20
840.07703758095204
 30
0.0
 11
-384.9919146479582
 21
839.91672723213787
 31
0.0
  0
LINE
  5
19EDE
  8
0
 10
-384.9919146479582
 20
841.05254295449572
 30
0.0
 11
-384.9919146479582
 21
840.74778122324665
 31
0.0
  0
LINE
  5
19EDF
  8
0
 10
-387.58020977634101
 20
840.07703758095204
 30
0.0
 11
-387.58020977634101
 21
839.91672723213787
 31
0.0
  0
LINE
  5
19EE0
  8
0
 10
-387.58020977634101
 20
841.05254295449572
 30
0.0
 11
-387.58020977634101
 21
840.74778122324665
 31
0.0
  0
LINE
  5
19EE1
  8
0
 10
-385.24272784260359
 20
839.67038495918632
 30
0.0
 11
-387.32939658169562
 21
839.67038495918632
 31
0.0
  0
LINE
  5
19EE2
  8
0
 10
-386.2860622121496
 20
841.30447935013808
 30
0.0
 11
-384.9919146479582
 21
841.05254295449572
 31
0.0
  0
LINE
  5
19EE3
  8
0
 10
-387.58020977634101
 20
841.05254295449572
 30
0.0
 11
-386.2860622121496
 21
841.30447935013808
 31
0.0
  0
POLYLINE
  8
0
  5
1A298
  66
     1
 10
0.000000
 20
0.000000
 30
0.000000
  70
     8
  0
VERTEX
  8
0
  5
1A299
 10
-384.992
 20
840.077
 30
0.000000
  70
    32
  0
VERTEX
  8
0
  5
1A29A
 10
-384.993
 20
840.077
 30
0.000000
  70
    32
  0
VERTEX
  8
0
  5
1A29B
 10
-384.994
 20
840.077
 30
0.000000
  70
    32
  0
VERTEX
  8
0
  5
1A29C
 10
-384.995
 20
840.077
 30
0.000000
  70
    32
  0
VERTEX
  8
0
  5
1A29D
 10
-384.996
 20
840.078
 30
0.000000
  70
    32
  0
VERTEX
  8
0
  5
1A29E
 10
-384.996
 20
840.078
 30
0.000000
  70
    32
  0
VERTEX
  8
0
  5
1A29F
 10
-384.997
 20
840.078
 30
0.000000
  70
    32
  0
VERTEX
  8
0
  5
1A2A0
 10
-384.998
 20
840.078
 30
0.000000
  70
    32
  0
VERTEX
  8
0
  5
1A2A1
 10
-384.999
 20
840.078
 30
0.000000
  70
    32
  0
VERTEX
  8
0
  5
1A2A2
 10
-385.000
 20
840.078
 30
0.000000
  70
    32
  0
VERTEX
  8
0
  5
1A2A3
 10
-385.001
 20
840.079
 30
0.000000
  70
    32
  0
VERTEX
  8
0
  5
1A2A4
 10
-385.002
 20
840.079
 30
0.000000
  70
    32
  0
VERTEX
  8
0
  5
1A2A5
 10
-385.003
 20
840.079
 30
0.000000
  70
    32
  0
VERTEX
  8
0
  5
1A2A6
 10
-385.004
 20
840.079
 30
0.000000
  70
    32
  0
VERTEX
  8
0
  5
1A2A7
 10
-385.004
 20
840.079
 30
0.000000
  70
    32
  0
VERTEX
  8
0
  5
1A2A8
 10
-385.005
 20
840.080
 30
0.000000
  70
    32
  0
VERTEX
  8
0
  5
1A2A9
 10
-385.006
 20
840.080
 30
0.000000
  70
    32
  0
VERTEX
  8
0
  5
1A2AA
 10
-385.007
 20
840.080
 30
0.000000
  70
    32
  0
VERTEX
  8
0
  5
1A2AB
 10
-385.008
 20
840.080
 30
0.000000
  70
    32
  0
VERTEX
  8
0
  5
1A2AC
 10
-385.009
 20
840.081
 30
0.000000
  70
    32
  0
VERTEX
  8
0
  5
1A2AD
 10
-385.010
 20
840.081
 30
0.000000
  70
    32
  0
VERTEX
  8
0
  5
1A2AE
 10
-385.011
 20
840.081
 30
0.000000
  70
    32
  0
VERTEX
  8
0
  5
1A2AF
 10
-385.012
 20
840.081
 30
0.000000
  70
    32
  0
VERTEX
  8
0
  5
1A2B0
 10
-385.012
 20
840.082
 30
0.000000
  70
    32
  0
VERTEX
  8
0
  5
1A2B1
 10
-385.013
 20
840.082
 30
0.000000
  70
    32
  0
VERTEX
  8
0
  5
1A2B2
 10
-385.014
 20
840.082
 30
0.000000
  70
    32
  0
VERTEX
  8
0
  5
1A2B3
 10
-385.015
 20
840.082
 30
0.000000
  70
    32
  0
VERTEX
  8
0
  5
1A2B4
 10
-385.016
 20
840.082
 30
0.000000
  70
    32
  0
VERTEX
  8
0
  5
1A2B5
 10
-385.017
 20
840.083
 30
0.000000
  70
    32
  0
VERTEX
  8
0
  5
1A2B6
 10
-385.018
 20
840.083
 30
0.000000
  70
    32
  0
VERTEX
  8
0
  5
1A2B7
 10
-385.019
 20
840.083
 30
0.000000
  70
    32
  0
VERTEX
  8
0
  5
1A2B8
 10
-385.019
 20
840.083
 30
0.000000
  70
    32
  0
VERTEX
  8
0
  5
1A2B9
 10
-385.020
 20
840.084
 30
0.000000
  70
    32
  0
VERTEX
  8
0
  5
1A2BA
 10
-385.021
 20
840.084
 30
0.000000
  70
    32
  0
VERTEX
  8
0
  5
1A2BB
 10
-385.022
 20
840.084
 30
0.000000
  70
    32
  0
VERTEX
  8
0
  5
1A2BC
 10
-385.023
 20
840.084
 30
0.000000
  70
    32
  0
VERTEX
  8
0
  5
1A2BD
 10
-385.024
 20
840.085
 30
0.000000
  70
    32
  0
VERTEX
  8
0
  5
1A2BE
 10
-385.025
 20
840.085
 30
0.000000
  70
    32
  0
VERTEX
  8
0
  5
1A2BF
 10
-385.026
 20
840.085
 30
0.000000
  70
    32
  0
VERTEX
  8
0
  5
1A2C0
 10
-385.026
 20
840.085
 30
0.000000
  70
    32
  0
VERTEX
  8
0
  5
1A2C1
 10
-385.027
 20
840.085
 30
0.000000
  70
    32
  0
VERTEX
  8
0
  5
1A2C2
 10
-385.028
 20
840.086
 30
0.000000
  70
    32
  0
VERTEX
  8
0
  5
1A2C3
 10
-385.029
 20
840.086
 30
0.000000
  70
    32
  0
VERTEX
  8
0
  5
1A2C4
 10
-385.030
 20
840.086
 30
0.000000
  70
    32
  0
VERTEX
  8
0
  5
1A2C5
 10
-385.031
 20
840.086
 30
0.000000
  70
    32
  0
VERTEX
  8
0
  5
1A2C6
 10
-385.032
 20
840.087
 30
0.000000
  70
    32
  0
VERTEX
  8
0
  5
1A2C7
 10
-385.033
 20
840.087
 30
0.000000
  70
    32
  0
VERTEX
  8
0
  5
1A2C8
 10
-385.033
 20
840.087
 30
0.000000
  70
    32
  0
VERTEX
  8
0
  5
1A2C9
 10
-385.034
 20
840.087
 30
0.000000
  70
    32
  0
VERTEX
  8
0
  5
1A2CA
 10
-385.035
 20
840.087
 30
0.000000
  70
    32
  0
VERTEX
  8
0
  5
1A2CB
 10
-385.036
 20
840.088
 30
0.000000
  70
    32
  0
VERTEX
  8
0
  5
1A2CC
 10
-385.037
 20
840.088
 30
0.000000
  70
    32
  0
VERTEX
  8
0
  5
1A2CD
 10
-385.038
 20
840.088
 30
0.000000
  70
    32
  0
VERTEX
  8
0
  5
1A2CE
 10
-385.039
 20
840.088
 30
0.000000
  70
    32
  0
VERTEX
  8
0
  5
1A2CF
 10
-385.040
 20
840.088
 30
0.000000
  70
    32
  0
VERTEX
  8
0
  5
1A2D0
 10
-385.040
 20
840.089
 30
0.000000
  70
    32
  0
VERTEX
  8
0
  5
1A2D1
 10
-385.041
 20
840.089
 30
0.000000
  70
    32
  0
VERTEX
  8
0
  5
1A2D2
 10
-385.042
 20
840.089
 30
0.000000
  70
    32
  0
VERTEX
  8
0
  5
1A2D3
 10
-385.043
 20
840.089
 30
0.000000
  70
    32
  0
VERTEX
  8
0
  5
1A2D4
 10
-385.044
 20
840.090
 30
0.000000
  70
    32
  0
VERTEX
  8
0
  5
1A2D5
 10
-385.045
 20
840.090
 30
0.000000
  70
    32
  0
VERTEX
  8
0
  5
1A2D6
 10
-385.046
 20
840.090
 30
0.000000
  70
    32
  0
VERTEX
  8
0
  5
1A2D7
 10
-385.047
 20
840.090
 30
0.000000
  70
    32
  0
VERTEX
  8
0
  5
1A2D8
 10
-385.048
 20
840.090
 30
0.000000
  70
    32
  0
VERTEX
  8
0
  5
1A2D9
 10
-385.048
 20
840.091
 30
0.000000
  70
    32
  0
VERTEX
  8
0
  5
1A2DA
 10
-385.049
 20
840.091
 30
0.000000
  70
    32
  0
VERTEX
  8
0
  5
1A2DB
 10
-385.050
 20
840.091
 30
0.000000
  70
    32
  0
VERTEX
  8
0
  5
1A2DC
 10
-385.051
 20
840.091
 30
0.000000
  70
    32
  0
VERTEX
  8
0
  5
1A2DD
 10
-385.052
 20
840.091
 30
0.000000
  70
    32
  0
VERTEX
  8
0
  5
1A2DE
 10
-385.053
 20
840.092
 30
0.000000
  70
    32
  0
VERTEX
  8
0
  5
1A2DF
 10
-385.054
 20
840.092
 30
0.000000
  70
    32
  0
VERTEX
  8
0
  5
1A2E0
 10
-385.055
 20
840.092
 30
0.000000
  70
    32
  0
VERTEX
  8
0
  5
1A2E1
 10
-385.056
 20
840.092
 30
0.000000
  70
    32
  0
VERTEX
  8
0
  5
1A2E2
 10
-385.056
 20
840.093
 30
0.000000
  70
    32
  0
VERTEX
  8
0
  5
1A2E3
 10
-385.057
 20
840.093
 30
0.000000
  70
    32
  0
VERTEX
  8
0
  5
1A2E4
 10
-385.058
 20
840.093
 30
0.000000
  70
    32
  0
VERTEX
  8
0
  5
1A2E5
 10
-385.059
 20
840.093
 30
0.000000
  70
    32
  0
VERTEX
  8
0
  5
1A2E6
 10
-385.060
 20
840.094
 30
0.000000
  70
    32
  0
VERTEX
  8
0
  5
1A2E7
 10
-385.061
 20
840.094
 30
0.000000
  70
    32
  0
VERTEX
  8
0
  5
1A2E8
 10
-385.062
 20
840.094
 30
0.000000
  70
    32
  0
VERTEX
  8
0
  5
1A2E9
 10
-385.063
 20
840.094
 30
0.000000
  70
    32
  0
VERTEX
  8
0
  5
1A2EA
 10
-385.064
 20
840.094
 30
0.000000
  70
    32
  0
VERTEX
  8
0
  5
1A2EB
 10
-385.065
 20
840.095
 30
0.000000
  70
    32
  0
VERTEX
  8
0
  5
1A2EC
 10
-385.066
 20
840.095
 30
0.000000
  70
    32
  0
VERTEX
  8
0
  5
1A2ED
 10
-385.067
 20
840.095
 30
0.000000
  70
    32
  0
VERTEX
  8
0
  5
1A2EE
 10
-385.067
 20
840.096
 30
0.000000
  70
    32
  0
VERTEX
  8
0
  5
1A2EF
 10
-385.068
 20
840.096
 30
0.000000
  70
    32
  0
VERTEX
  8
0
  5
1A2F0
 10
-385.069
 20
840.096
 30
0.000000
  70
    32
  0
VERTEX
  8
0
  5
1A2F1
 10
-385.070
 20
840.096
 30
0.000000
  70
    32
  0
VERTEX
  8
0
  5
1A2F2
 10
-385.071
 20
840.097
 30
0.000000
  70
    32
  0
VERTEX
  8
0
  5
1A2F3
 10
-385.072
 20
840.097
 30
0.000000
  70
    32
  0
VERTEX
  8
0
  5
1A2F4
 10
-385.073
 20
840.097
 30
0.000000
  70
    32
  0
VERTEX
  8
0
  5
1A2F5
 10
-385.074
 20
840.097
 30
0.000000
  70
    32
  0
VERTEX
  8
0
  5
1A2F6
 10
-385.075
 20
840.098
 30
0.000000
  70
    32
  0
VERTEX
  8
0
  5
1A2F7
 10
-385.076
 20
840.098
 30
0.000000
  70
    32
  0
VERTEX
  8
0
  5
1A2F8
 10
-385.077
 20
840.098
 30
0.000000
  70
    32
  0
VERTEX
  8
0
  5
1A2F9
 10
-385.078
 20
840.099
 30
0.000000
  70
    32
  0
VERTEX
  8
0
  5
1A2FA
 10
-385.078
 20
840.099
 30
0.000000
  70
    32
  0
VERTEX
  8
0
  5
1A2FB
 10
-385.079
 20
840.099
 30
0.000000
  70
    32
  0
VERTEX
  8
0
  5
1A2FC
 10
-385.080
 20
840.100
 30
0.000000
  70
    32
  0
VERTEX
  8
0
  5
1A2FD
 10
-385.081
 20
840.100
 30
0.000000
  70
    32
  0
VERTEX
  8
0
  5
1A2FE
 10
-385.082
 20
840.100
 30
0.000000
  70
    32
  0
VERTEX
  8
0
  5
1A2FF
 10
-385.083
 20
840.101
 30
0.000000
  70
    32
  0
VERTEX
  8
0
  5
1A300
 10
-385.084
 20
840.101
 30
0.000000
  70
    32
  0
VERTEX
  8
0
  5
1A301
 10
-385.085
 20
840.102
 30
0.000000
  70
    32
  0
VERTEX
  8
0
  5
1A302
 10
-385.085
 20
840.102
 30
0.000000
  70
    32
  0
VERTEX
  8
0
  5
1A303
 10
-385.086
 20
840.102
 30
0.000000
  70
    32
  0
VERTEX
  8
0
  5
1A304
 10
-385.087
 20
840.103
 30
0.000000
  70
    32
  0
VERTEX
  8
0
  5
1A305
 10
-385.088
 20
840.103
 30
0.000000
  70
    32
  0
VERTEX
  8
0
  5
1A306
 10
-385.089
 20
840.104
 30
0.000000
  70
    32
  0
VERTEX
  8
0
  5
1A307
 10
-385.089
 20
840.104
 30
0.000000
  70
    32
  0
VERTEX
  8
0
  5
1A308
 10
-385.090
 20
840.105
 30
0.000000
  70
    32
  0
VERTEX
  8
0
  5
1A309
 10
-385.091
 20
840.105
 30
0.000000
  70
    32
  0
VERTEX
  8
0
  5
1A30A
 10
-385.092
 20
840.106
 30
0.000000
  70
    32
  0
VERTEX
  8
0
  5
1A30B
 10
-385.092
 20
840.106
 30
0.000000
  70
    32
  0
VERTEX
  8
0
  5
1A30C
 10
-385.093
 20
840.107
 30
0.000000
  70
    32
  0
VERTEX
  8
0
  5
1A30D
 10
-385.094
 20
840.107
 30
0.000000
  70
    32
  0
VERTEX
  8
0
  5
1A30E
 10
-385.094
 20
840.108
 30
0.000000
  70
    32
  0
VERTEX
  8
0
  5
1A30F
 10
-385.095
 20
840.108
 30
0.000000
  70
    32
  0
VERTEX
  8
0
  5
1A310
 10
-385.096
 20
840.109
 30
0.000000
  70
    32
  0
VERTEX
  8
0
  5
1A311
 10
-385.096
 20
840.110
 30
0.000000
  70
    32
  0
VERTEX
  8
0
  5
1A312
 10
-385.097
 20
840.110
 30
0.000000
  70
    32
  0
VERTEX
  8
0
  5
1A313
 10
-385.098
 20
840.111
 30
0.000000
  70
    32
  0
VERTEX
  8
0
  5
1A314
 10
-385.098
 20
840.112
 30
0.000000
  70
    32
  0
VERTEX
  8
0
  5
1A315
 10
-385.099
 20
840.112
 30
0.000000
  70
    32
  0
VERTEX
  8
0
  5
1A316
 10
-385.099
 20
840.113
 30
0.000000
  70
    32
  0
VERTEX
  8
0
  5
1A317
 10
-385.100
 20
840.114
 30
0.000000
  70
    32
  0
VERTEX
  8
0
  5
1A318
 10
-385.100
 20
840.114
 30
0.000000
  70
    32
  0
VERTEX
  8
0
  5
1A319
 10
-385.101
 20
840.115
 30
0.000000
  70
    32
  0
VERTEX
  8
0
  5
1A31A
 10
-385.101
 20
840.116
 30
0.000000
  70
    32
  0
VERTEX
  8
0
  5
1A31B
 10
-385.102
 20
840.117
 30
0.000000
  70
    32
  0
VERTEX
  8
0
  5
1A31C
 10
-385.102
 20
840.118
 30
0.000000
  70
    32
  0
VERTEX
  8
0
  5
1A31D
 10
-385.102
 20
840.118
 30
0.000000
  70
    32
  0
VERTEX
  8
0
  5
1A31E
 10
-385.103
 20
840.119
 30
0.000000
  70
    32
  0
VERTEX
  8
0
  5
1A31F
 10
-385.103
 20
840.120
 30
0.000000
  70
    32
  0
VERTEX
  8
0
  5
1A320
 10
-385.104
 20
840.121
 30
0.000000
  70
    32
  0
VERTEX
  8
0
  5
1A321
 10
-385.104
 20
840.122
 30
0.000000
  70
    32
  0
VERTEX
  8
0
  5
1A322
 10
-385.104
 20
840.122
 30
0.000000
  70
    32
  0
VERTEX
  8
0
  5
1A323
 10
-385.105
 20
840.123
 30
0.000000
  70
    32
  0
VERTEX
  8
0
  5
1A324
 10
-385.105
 20
840.124
 30
0.000000
  70
    32
  0
VERTEX
  8
0
  5
1A325
 10
-385.105
 20
840.125
 30
0.000000
  70
    32
  0
VERTEX
  8
0
  5
1A326
 10
-385.105
 20
840.126
 30
0.000000
  70
    32
  0
VERTEX
  8
0
  5
1A327
 10
-385.106
 20
840.127
 30
0.000000
  70
    32
  0
VERTEX
  8
0
  5
1A328
 10
-385.106
 20
840.128
 30
0.000000
  70
    32
  0
VERTEX
  8
0
  5
1A329
 10
-385.106
 20
840.129
 30
0.000000
  70
    32
  0
VERTEX
  8
0
  5
1A32A
 10
-385.106
 20
840.130
 30
0.000000
  70
    32
  0
VERTEX
  8
0
  5
1A32B
 10
-385.106
 20
840.131
 30
0.000000
  70
    32
  0
VERTEX
  8
0
  5
1A32C
 10
-385.107
 20
840.132
 30
0.000000
  70
    32
  0
VERTEX
  8
0
  5
1A32D
 10
-385.107
 20
840.132
 30
0.000000
  70
    32
  0
VERTEX
  8
0
  5
1A32E
 10
-385.107
 20
840.133
 30
0.000000
  70
    32
  0
VERTEX
  8
0
  5
1A32F
 10
-385.107
 20
840.134
 30
0.000000
  70
    32
  0
VERTEX
  8
0
  5
1A330
 10
-385.107
 20
840.135
 30
0.000000
  70
    32
  0
VERTEX
  8
0
  5
1A331
 10
-385.107
 20
840.136
 30
0.000000
  70
    32
  0
VERTEX
  8
0
  5
1A332
 10
-385.108
 20
840.137
 30
0.000000
  70
    32
  0
VERTEX
  8
0
  5
1A333
 10
-385.108
 20
840.138
 30
0.000000
  70
    32
  0
VERTEX
  8
0
  5
1A334
 10
-385.108
 20
840.139
 30
0.000000
  70
    32
  0
VERTEX
  8
0
  5
1A335
 10
-385.108
 20
840.140
 30
0.000000
  70
    32
  0
VERTEX
  8
0
  5
1A336
 10
-385.108
 20
840.141
 30
0.000000
  70
    32
  0
VERTEX
  8
0
  5
1A337
 10
-385.108
 20
840.142
 30
0.000000
  70
    32
  0
VERTEX
  8
0
  5
1A338
 10
-385.108
 20
840.143
 30
0.000000
  70
    32
  0
VERTEX
  8
0
  5
1A339
 10
-385.108
 20
840.144
 30
0.000000
  70
    32
  0
VERTEX
  8
0
  5
1A33A
 10
-385.108
 20
840.145
 30
0.000000
  70
    32
  0
VERTEX
  8
0
  5
1A33B
 10
-385.108
 20
840.146
 30
0.000000
  70
    32
  0
VERTEX
  8
0
  5
1A33C
 10
-385.108
 20
840.147
 30
0.000000
  70
    32
  0
VERTEX
  8
0
  5
1A33D
 10
-385.108
 20
840.148
 30
0.000000
  70
    32
  0
VERTEX
  8
0
  5
1A33E
 10
-385.108
 20
840.149
 30
0.000000
  70
    32
  0
VERTEX
  8
0
  5
1A33F
 10
-385.108
 20
840.149
 30
0.000000
  70
    32
  0
VERTEX
  8
0
  5
1A340
 10
-385.108
 20
840.150
 30
0.000000
  70
    32
  0
VERTEX
  8
0
  5
1A341
 10
-385.108
 20
840.151
 30
0.000000
  70
    32
  0
VERTEX
  8
0
  5
1A342
 10
-385.108
 20
840.152
 30
0.000000
  70
    32
  0
VERTEX
  8
0
  5
1A343
 10
-385.108
 20
840.153
 30
0.000000
  70
    32
  0
VERTEX
  8
0
  5
1A344
 10
-385.108
 20
840.154
 30
0.000000
  70
    32
  0
VERTEX
  8
0
  5
1A345
 10
-385.108
 20
840.155
 30
0.000000
  70
    32
  0
VERTEX
  8
0
  5
1A346
 10
-385.108
 20
840.156
 30
0.000000
  70
    32
  0
VERTEX
  8
0
  5
1A347
 10
-385.108
 20
840.157
 30
0.000000
  70
    32
  0
VERTEX
  8
0
  5
1A348
 10
-385.108
 20
840.158
 30
0.000000
  70
    32
  0
VERTEX
  8
0
  5
1A349
 10
-385.108
 20
840.159
 30
0.000000
  70
    32
  0
VERTEX
  8
0
  5
1A34A
 10
-385.107
 20
840.159
 30
0.000000
  70
    32
  0
VERTEX
  8
0
  5
1A34B
 10
-385.107
 20
840.160
 30
0.000000
  70
    32
  0
VERTEX
  8
0
  5
1A34C
 10
-385.107
 20
840.161
 30
0.000000
  70
    32
  0
VERTEX
  8
0
  5
1A34D
 10
-385.107
 20
840.162
 30
0.000000
  70
    32
  0
VERTEX
  8
0
  5
1A34E
 10
-385.107
 20
840.163
 30
0.000000
  70
    32
  0
VERTEX
  8
0
  5
1A34F
 10
-385.107
 20
840.164
 30
0.000000
  70
    32
  0
VERTEX
  8
0
  5
1A350
 10
-385.107
 20
840.165
 30
0.000000
  70
    32
  0
VERTEX
  8
0
  5
1A351
 10
-385.106
 20
840.166
 30
0.000000
  70
    32
  0
VERTEX
  8
0
  5
1A352
 10
-385.106
 20
840.167
 30
0.000000
  70
    32
  0
VERTEX
  8
0
  5
1A353
 10
-385.106
 20
840.168
 30
0.000000
  70
    32
  0
VERTEX
  8
0
  5
1A354
 10
-385.106
 20
840.168
 30
0.000000
  70
    32
  0
VERTEX
  8
0
  5
1A355
 10
-385.105
 20
840.169
 30
0.000000
  70
    32
  0
VERTEX
  8
0
  5
1A356
 10
-385.105
 20
840.170
 30
0.000000
  70
    32
  0
VERTEX
  8
0
  5
1A357
 10
-385.105
 20
840.171
 30
0.000000
  70
    32
  0
VERTEX
  8
0
  5
1A358
 10
-385.105
 20
840.172
 30
0.000000
  70
    32
  0
VERTEX
  8
0
  5
1A359
 10
-385.104
 20
840.173
 30
0.000000
  70
    32
  0
VERTEX
  8
0
  5
1A35A
 10
-385.104
 20
840.174
 30
0.000000
  70
    32
  0
VERTEX
  8
0
  5
1A35B
 10
-385.104
 20
840.175
 30
0.000000
  70
    32
  0
VERTEX
  8
0
  5
1A35C
 10
-385.103
 20
840.175
 30
0.000000
  70
    32
  0
VERTEX
  8
0
  5
1A35D
 10
-385.103
 20
840.176
 30
0.000000
  70
    32
  0
VERTEX
  8
0
  5
1A35E
 10
-385.103
 20
840.177
 30
0.000000
  70
    32
  0
VERTEX
  8
0
  5
1A35F
 10
-385.102
 20
840.178
 30
0.000000
  70
    32
  0
VERTEX
  8
0
  5
1A360
 10
-385.102
 20
840.179
 30
0.000000
  70
    32
  0
VERTEX
  8
0
  5
1A361
 10
-385.101
 20
840.180
 30
0.000000
  70
    32
  0
VERTEX
  8
0
  5
1A362
 10
-385.101
 20
840.181
 30
0.000000
  70
    32
  0
VERTEX
  8
0
  5
1A363
 10
-385.101
 20
840.181
 30
0.000000
  70
    32
  0
VERTEX
  8
0
  5
1A364
 10
-385.100
 20
840.182
 30
0.000000
  70
    32
  0
VERTEX
  8
0
  5
1A365
 10
-385.100
 20
840.183
 30
0.000000
  70
    32
  0
VERTEX
  8
0
  5
1A366
 10
-385.099
 20
840.184
 30
0.000000
  70
    32
  0
VERTEX
  8
0
  5
1A367
 10
-385.099
 20
840.185
 30
0.000000
  70
    32
  0
VERTEX
  8
0
  5
1A368
 10
-385.098
 20
840.185
 30
0.000000
  70
    32
  0
VERTEX
  8
0
  5
1A369
 10
-385.098
 20
840.186
 30
0.000000
  70
    32
  0
VERTEX
  8
0
  5
1A36A
 10
-385.097
 20
840.187
 30
0.000000
  70
    32
  0
VERTEX
  8
0
  5
1A36B
 10
-385.097
 20
840.188
 30
0.000000
  70
    32
  0
VERTEX
  8
0
  5
1A36C
 10
-385.096
 20
840.188
 30
0.000000
  70
    32
  0
VERTEX
  8
0
  5
1A36D
 10
-385.095
 20
840.189
 30
0.000000
  70
    32
  0
VERTEX
  8
0
  5
1A36E
 10
-385.095
 20
840.190
 30
0.000000
  70
    32
  0
VERTEX
  8
0
  5
1A36F
 10
-385.094
 20
840.190
 30
0.000000
  70
    32
  0
VERTEX
  8
0
  5
1A370
 10
-385.094
 20
840.191
 30
0.000000
  70
    32
  0
VERTEX
  8
0
  5
1A371
 10
-385.093
 20
840.192
 30
0.000000
  70
    32
  0
VERTEX
  8
0
  5
1A372
 10
-385.092
 20
840.192
 30
0.000000
  70
    32
  0
VERTEX
  8
0
  5
1A373
 10
-385.092
 20
840.193
 30
0.000000
  70
    32
  0
VERTEX
  8
0
  5
1A374
 10
-385.091
 20
840.194
 30
0.000000
  70
    32
  0
VERTEX
  8
0
  5
1A375
 10
-385.090
 20
840.194
 30
0.000000
  70
    32
  0
VERTEX
  8
0
  5
1A376
 10
-385.090
 20
840.195
 30
0.000000
  70
    32
  0
VERTEX
  8
0
  5
1A377
 10
-385.089
 20
840.195
 30
0.000000
  70
    32
  0
VERTEX
  8
0
  5
1A378
 10
-385.088
 20
840.196
 30
0.000000
  70
    32
  0
VERTEX
  8
0
  5
1A379
 10
-385.087
 20
840.196
 30
0.000000
  70
    32
  0
VERTEX
  8
0
  5
1A37A
 10
-385.087
 20
840.197
 30
0.000000
  70
    32
  0
VERTEX
  8
0
  5
1A37B
 10
-385.086
 20
840.197
 30
0.000000
  70
    32
  0
VERTEX
  8
0
  5
1A37C
 10
-385.085
 20
840.198
 30
0.000000
  70
    32
  0
VERTEX
  8
0
  5
1A37D
 10
-385.084
 20
840.198
 30
0.000000
  70
    32
  0
VERTEX
  8
0
  5
1A37E
 10
-385.083
 20
840.198
 30
0.000000
  70
    32
  0
VERTEX
  8
0
  5
1A37F
 10
-385.083
 20
840.199
 30
0.000000
  70
    32
  0
VERTEX
  8
0
  5
1A380
 10
-385.082
 20
840.199
 30
0.000000
  70
    32
  0
VERTEX
  8
0
  5
1A381
 10
-385.081
 20
840.200
 30
0.000000
  70
    32
  0
VERTEX
  8
0
  5
1A382
 10
-385.080
 20
840.200
 30
0.000000
  70
    32
  0
VERTEX
  8
0
  5
1A383
 10
-385.079
 20
840.200
 30
0.000000
  70
    32
  0
VERTEX
  8
0
  5
1A384
 10
-385.079
 20
840.201
 30
0.000000
  70
    32
  0
VERTEX
  8
0
  5
1A385
 10
-385.078
 20
840.201
 30
0.000000
  70
    32
  0
VERTEX
  8
0
  5
1A386
 10
-385.077
 20
840.201
 30
0.000000
  70
    32
  0
VERTEX
  8
0
  5
1A387
 10
-385.076
 20
840.202
 30
0.000000
  70
    32
  0
VERTEX
  8
0
  5
1A388
 10
-385.075
 20
840.202
 30
0.000000
  70
    32
  0
VERTEX
  8
0
  5
1A389
 10
-385.074
 20
840.203
 30
0.000000
  70
    32
  0
VERTEX
  8
0
  5
1A38A
 10
-385.073
 20
840.203
 30
0.000000
  70
    32
  0
VERTEX
  8
0
  5
1A38B
 10
-385.073
 20
840.203
 30
0.000000
  70
    32
  0
VERTEX
  8
0
  5
1A38C
 10
-385.072
 20
840.204
 30
0.000000
  70
    32
  0
VERTEX
  8
0
  5
1A38D
 10
-385.071
 20
840.204
 30
0.000000
  70
    32
  0
VERTEX
  8
0
  5
1A38E
 10
-385.070
 20
840.204
 30
0.000000
  70
    32
  0
VERTEX
  8
0
  5
1A38F
 10
-385.069
 20
840.205
 30
0.000000
  70
    32
  0
VERTEX
  8
0
  5
1A390
 10
-385.068
 20
840.205
 30
0.000000
  70
    32
  0
VERTEX
  8
0
  5
1A391
 10
-385.067
 20
840.205
 30
0.000000
  70
    32
  0
VERTEX
  8
0
  5
1A392
 10
-385.066
 20
840.206
 30
0.000000
  70
    32
  0
VERTEX
  8
0
  5
1A393
 10
-385.066
 20
840.206
 30
0.000000
  70
    32
  0
VERTEX
  8
0
  5
1A394
 10
-385.065
 20
840.206
 30
0.000000
  70
    32
  0
VERTEX
  8
0
  5
1A395
 10
-385.064
 20
840.207
 30
0.000000
  70
    32
  0
VERTEX
  8
0
  5
1A396
 10
-385.063
 20
840.207
 30
0.000000
  70
    32
  0
VERTEX
  8
0
  5
1A397
 10
-385.062
 20
840.208
 30
0.000000
  70
    32
  0
VERTEX
  8
0
  5
1A398
 10
-385.061
 20
840.208
 30
0.000000
  70
    32
  0
VERTEX
  8
0
  5
1A399
 10
-385.061
 20
840.208
 30
0.000000
  70
    32
  0
VERTEX
  8
0
  5
1A39A
 10
-385.060
 20
840.209
 30
0.000000
  70
    32
  0
VERTEX
  8
0
  5
1A39B
 10
-385.059
 20
840.209
 30
0.000000
  70
    32
  0
VERTEX
  8
0
  5
1A39C
 10
-385.058
 20
840.210
 30
0.000000
  70
    32
  0
VERTEX
  8
0
  5
1A39D
 10
-385.057
 20
840.210
 30
0.000000
  70
    32
  0
VERTEX
  8
0
  5
1A39E
 10
-385.056
 20
840.211
 30
0.000000
  70
    32
  0
VERTEX
  8
0
  5
1A39F
 10
-385.056
 20
840.211
 30
0.000000
  70
    32
  0
VERTEX
  8
0
  5
1A3A0
 10
-385.055
 20
840.212
 30
0.000000
  70
    32
  0
VERTEX
  8
0
  5
1A3A1
 10
-385.054
 20
840.212
 30
0.000000
  70
    32
  0
VERTEX
  8
0
  5
1A3A2
 10
-385.053
 20
840.213
 30
0.000000
  70
    32
  0
VERTEX
  8
0
  5
1A3A3
 10
-385.052
 20
840.213
 30
0.000000
  70
    32
  0
VERTEX
  8
0
  5
1A3A4
 10
-385.052
 20
840.214
 30
0.000000
  70
    32
  0
VERTEX
  8
0
  5
1A3A5
 10
-385.051
 20
840.214
 30
0.000000
  70
    32
  0
VERTEX
  8
0
  5
1A3A6
 10
-385.050
 20
840.215
 30
0.000000
  70
    32
  0
VERTEX
  8
0
  5
1A3A7
 10
-385.049
 20
840.215
 30
0.000000
  70
    32
  0
VERTEX
  8
0
  5
1A3A8
 10
-385.049
 20
840.216
 30
0.000000
  70
    32
  0
VERTEX
  8
0
  5
1A3A9
 10
-385.048
 20
840.216
 30
0.000000
  70
    32
  0
VERTEX
  8
0
  5
1A3AA
 10
-385.047
 20
840.217
 30
0.000000
  70
    32
  0
VERTEX
  8
0
  5
1A3AB
 10
-385.046
 20
840.217
 30
0.000000
  70
    32
  0
VERTEX
  8
0
  5
1A3AC
 10
-385.046
 20
840.218
 30
0.000000
  70
    32
  0
VERTEX
  8
0
  5
1A3AD
 10
-385.045
 20
840.218
 30
0.000000
  70
    32
  0
VERTEX
  8
0
  5
1A3AE
 10
-385.044
 20
840.219
 30
0.000000
  70
    32
  0
VERTEX
  8
0
  5
1A3AF
 10
-385.044
 20
840.220
 30
0.000000
  70
    32
  0
VERTEX
  8
0
  5
1A3B0
 10
-385.043
 20
840.220
 30
0.000000
  70
    32
  0
VERTEX
  8
0
  5
1A3B1
 10
-385.042
 20
840.221
 30
0.000000
  70
    32
  0
VERTEX
  8
0
  5
1A3B2
 10
-385.041
 20
840.221
 30
0.000000
  70
    32
  0
VERTEX
  8
0
  5
1A3B3
 10
-385.041
 20
840.222
 30
0.000000
  70
    32
  0
VERTEX
  8
0
  5
1A3B4
 10
-385.040
 20
840.223
 30
0.000000
  70
    32
  0
VERTEX
  8
0
  5
1A3B5
 10
-385.039
 20
840.223
 30
0.000000
  70
    32
  0
VERTEX
  8
0
  5
1A3B6
 10
-385.039
 20
840.224
 30
0.000000
  70
    32
  0
VERTEX
  8
0
  5
1A3B7
 10
-385.038
 20
840.224
 30
0.000000
  70
    32
  0
VERTEX
  8
0
  5
1A3B8
 10
-385.037
 20
840.225
 30
0.000000
  70
    32
  0
VERTEX
  8
0
  5
1A3B9
 10
-385.037
 20
840.226
 30
0.000000
  70
    32
  0
VERTEX
  8
0
  5
1A3BA
 10
-385.036
 20
840.226
 30
0.000000
  70
    32
  0
VERTEX
  8
0
  5
1A3BB
 10
-385.036
 20
840.227
 30
0.000000
  70
    32
  0
VERTEX
  8
0
  5
1A3BC
 10
-385.035
 20
840.228
 30
0.000000
  70
    32
  0
VERTEX
  8
0
  5
1A3BD
 10
-385.034
 20
840.228
 30
0.000000
  70
    32
  0
VERTEX
  8
0
  5
1A3BE
 10
-385.034
 20
840.229
 30
0.000000
  70
    32
  0
VERTEX
  8
0
  5
1A3BF
 10
-385.033
 20
840.230
 30
0.000000
  70
    32
  0
VERTEX
  8
0
  5
1A3C0
 10
-385.033
 20
840.231
 30
0.000000
  70
    32
  0
VERTEX
  8
0
  5
1A3C1
 10
-385.032
 20
840.231
 30
0.000000
  70
    32
  0
VERTEX
  8
0
  5
1A3C2
 10
-385.031
 20
840.232
 30
0.000000
  70
    32
  0
VERTEX
  8
0
  5
1A3C3
 10
-385.031
 20
840.233
 30
0.000000
  70
    32
  0
VERTEX
  8
0
  5
1A3C4
 10
-385.030
 20
840.233
 30
0.000000
  70
    32
  0
VERTEX
  8
0
  5
1A3C5
 10
-385.030
 20
840.234
 30
0.000000
  70
    32
  0
VERTEX
  8
0
  5
1A3C6
 10
-385.029
 20
840.235
 30
0.000000
  70
    32
  0
VERTEX
  8
0
  5
1A3C7
 10
-385.029
 20
840.236
 30
0.000000
  70
    32
  0
VERTEX
  8
0
  5
1A3C8
 10
-385.028
 20
840.236
 30
0.000000
  70
    32
  0
VERTEX
  8
0
  5
1A3C9
 10
-385.028
 20
840.237
 30
0.000000
  70
    32
  0
VERTEX
  8
0
  5
1A3CA
 10
-385.027
 20
840.238
 30
0.000000
  70
    32
  0
VERTEX
  8
0
  5
1A3CB
 10
-385.027
 20
840.239
 30
0.000000
  70
    32
  0
VERTEX
  8
0
  5
1A3CC
 10
-385.026
 20
840.240
 30
0.000000
  70
    32
  0
VERTEX
  8
0
  5
1A3CD
 10
-385.026
 20
840.240
 30
0.000000
  70
    32
  0
VERTEX
  8
0
  5
1A3CE
 10
-385.025
 20
840.241
 30
0.000000
  70
    32
  0
VERTEX
  8
0
  5
1A3CF
 10
-385.025
 20
840.242
 30
0.000000
  70
    32
  0
VERTEX
  8
0
  5
1A3D0
 10
-385.024
 20
840.243
 30
0.000000
  70
    32
  0
VERTEX
  8
0
  5
1A3D1
 10
-385.024
 20
840.244
 30
0.000000
  70
    32
  0
VERTEX
  8
0
  5
1A3D2
 10
-385.023
 20
840.244
 30
0.000000
  70
    32
  0
VERTEX
  8
0
  5
1A3D3
 10
-385.023
 20
840.245
 30
0.000000
  70
    32
  0
VERTEX
  8
0
  5
1A3D4
 10
-385.023
 20
840.246
 30
0.000000
  70
    32
  0
VERTEX
  8
0
  5
1A3D5
 10
-385.022
 20
840.247
 30
0.000000
  70
    32
  0
VERTEX
  8
0
  5
1A3D6
 10
-385.022
 20
840.248
 30
0.000000
  70
    32
  0
VERTEX
  8
0
  5
1A3D7
 10
-385.022
 20
840.249
 30
0.000000
  70
    32
  0
VERTEX
  8
0
  5
1A3D8
 10
-385.021
 20
840.249
 30
0.000000
  70
    32
  0
VERTEX
  8
0
  5
1A3D9
 10
-385.021
 20
840.250
 30
0.000000
  70
    32
  0
VERTEX
  8
0
  5
1A3DA
 10
-385.020
 20
840.251
 30
0.000000
  70
    32
  0
VERTEX
  8
0
  5
1A3DB
 10
-385.020
 20
840.252
 30
0.000000
  70
    32
  0
VERTEX
  8
0
  5
1A3DC
 10
-385.020
 20
840.253
 30
0.000000
  70
    32
  0
VERTEX
  8
0
  5
1A3DD
 10
-385.019
 20
840.254
 30
0.000000
  70
    32
  0
VERTEX
  8
0
  5
1A3DE
 10
-385.019
 20
840.255
 30
0.000000
  70
    32
  0
VERTEX
  8
0
  5
1A3DF
 10
-385.019
 20
840.255
 30
0.000000
  70
    32
  0
VERTEX
  8
0
  5
1A3E0
 10
-385.019
 20
840.256
 30
0.000000
  70
    32
  0
VERTEX
  8
0
  5
1A3E1
 10
-385.018
 20
840.257
 30
0.000000
  70
    32
  0
VERTEX
  8
0
  5
1A3E2
 10
-385.018
 20
840.258
 30
0.000000
  70
    32
  0
VERTEX
  8
0
  5
1A3E3
 10
-385.018
 20
840.259
 30
0.000000
  70
    32
  0
VERTEX
  8
0
  5
1A3E4
 10
-385.017
 20
840.260
 30
0.000000
  70
    32
  0
VERTEX
  8
0
  5
1A3E5
 10
-385.017
 20
840.261
 30
0.000000
  70
    32
  0
VERTEX
  8
0
  5
1A3E6
 10
-385.017
 20
840.262
 30
0.000000
  70
    32
  0
VERTEX
  8
0
  5
1A3E7
 10
-385.017
 20
840.262
 30
0.000000
  70
    32
  0
VERTEX
  8
0
  5
1A3E8
 10
-385.017
 20
840.263
 30
0.000000
  70
    32
  0
VERTEX
  8
0
  5
1A3E9
 10
-385.016
 20
840.264
 30
0.000000
  70
    32
  0
VERTEX
  8
0
  5
1A3EA
 10
-385.016
 20
840.265
 30
0.000000
  70
    32
  0
VERTEX
  8
0
  5
1A3EB
 10
-385.016
 20
840.266
 30
0.000000
  70
    32
  0
VERTEX
  8
0
  5
1A3EC
 10
-385.016
 20
840.267
 30
0.000000
  70
    32
  0
VERTEX
  8
0
  5
1A3ED
 10
-385.016
 20
840.268
 30
0.000000
  70
    32
  0
VERTEX
  8
0
  5
1A3EE
 10
-385.015
 20
840.269
 30
0.000000
  70
    32
  0
VERTEX
  8
0
  5
1A3EF
 10
-385.015
 20
840.270
 30
0.000000
  70
    32
  0
VERTEX
  8
0
  5
1A3F0
 10
-385.015
 20
840.270
 30
0.000000
  70
    32
  0
VERTEX
  8
0
  5
1A3F1
 10
-385.015
 20
840.271
 30
0.000000
  70
    32
  0
VERTEX
  8
0
  5
1A3F2
 10
-385.015
 20
840.272
 30
0.000000
  70
    32
  0
VERTEX
  8
0
  5
1A3F3
 10
-385.015
 20
840.273
 30
0.000000
  70
    32
  0
VERTEX
  8
0
  5
1A3F4
 10
-385.015
 20
840.274
 30
0.000000
  70
    32
  0
VERTEX
  8
0
  5
1A3F5
 10
-385.015
 20
840.275
 30
0.000000
  70
    32
  0
VERTEX
  8
0
  5
1A3F6
 10
-385.015
 20
840.276
 30
0.000000
  70
    32
  0
VERTEX
  8
0
  5
1A3F7
 10
-385.014
 20
840.277
 30
0.000000
  70
    32
  0
VERTEX
  8
0
  5
1A3F8
 10
-385.014
 20
840.278
 30
0.000000
  70
    32
  0
VERTEX
  8
0
  5
1A3F9
 10
-385.014
 20
840.279
 30
0.000000
  70
    32
  0
VERTEX
  8
0
  5
1A3FA
 10
-385.014
 20
840.280
 30
0.000000
  70
    32
  0
VERTEX
  8
0
  5
1A3FB
 10
-385.014
 20
840.280
 30
0.000000
  70
    32
  0
VERTEX
  8
0
  5
1A3FC
 10
-385.014
 20
840.281
 30
0.000000
  70
    32
  0
VERTEX
  8
0
  5
1A3FD
 10
-385.014
 20
840.282
 30
0.000000
  70
    32
  0
VERTEX
  8
0
  5
1A3FE
 10
-385.014
 20
840.283
 30
0.000000
  70
    32
  0
VERTEX
  8
0
  5
1A3FF
 10
-385.014
 20
840.284
 30
0.000000
  70
    32
  0
VERTEX
  8
0
  5
1A400
 10
-385.014
 20
840.285
 30
0.000000
  70
    32
  0
VERTEX
  8
0
  5
1A401
 10
-385.014
 20
840.286
 30
0.000000
  70
    32
  0
VERTEX
  8
0
  5
1A402
 10
-385.014
 20
840.287
 30
0.000000
  70
    32
  0
VERTEX
  8
0
  5
1A403
 10
-385.014
 20
840.288
 30
0.000000
  70
    32
  0
VERTEX
  8
0
  5
1A404
 10
-385.014
 20
840.289
 30
0.000000
  70
    32
  0
VERTEX
  8
0
  5
1A405
 10
-385.014
 20
840.290
 30
0.000000
  70
    32
  0
VERTEX
  8
0
  5
1A406
 10
-385.014
 20
840.291
 30
0.000000
  70
    32
  0
VERTEX
  8
0
  5
1A407
 10
-385.014
 20
840.291
 30
0.000000
  70
    32
  0
VERTEX
  8
0
  5
1A408
 10
-385.015
 20
840.292
 30
0.000000
  70
    32
  0
VERTEX
  8
0
  5
1A409
 10
-385.015
 20
840.293
 30
0.000000
  70
    32
  0
VERTEX
  8
0
  5
1A40A
 10
-385.015
 20
840.294
 30
0.000000
  70
    32
  0
VERTEX
  8
0
  5
1A40B
 10
-385.015
 20
840.295
 30
0.000000
  70
    32
  0
VERTEX
  8
0
  5
1A40C
 10
-385.015
 20
840.296
 30
0.000000
  70
    32
  0
VERTEX
  8
0
  5
1A40D
 10
-385.015
 20
840.297
 30
0.000000
  70
    32
  0
VERTEX
  8
0
  5
1A40E
 10
-385.015
 20
840.298
 30
0.000000
  70
    32
  0
VERTEX
  8
0
  5
1A40F
 10
-385.015
 20
840.299
 30
0.000000
  70
    32
  0
VERTEX
  8
0
  5
1A410
 10
-385.015
 20
840.300
 30
0.000000
  70
    32
  0
VERTEX
  8
0
  5
1A411
 10
-385.016
 20
840.301
 30
0.000000
  70
    32
  0
VERTEX
  8
0
  5
1A412
 10
-385.016
 20
840.302
 30
0.000000
  70
    32
  0
VERTEX
  8
0
  5
1A413
 10
-385.016
 20
840.303
 30
0.000000
  70
    32
  0
VERTEX
  8
0
  5
1A414
 10
-385.016
 20
840.304
 30
0.000000
  70
    32
  0
VERTEX
  8
0
  5
1A415
 10
-385.016
 20
840.305
 30
0.000000
  70
    32
  0
VERTEX
  8
0
  5
1A416
 10
-385.016
 20
840.305
 30
0.000000
  70
    32
  0
VERTEX
  8
0
  5
1A417
 10
-385.017
 20
840.306
 30
0.000000
  70
    32
  0
VERTEX
  8
0
  5
1A418
 10
-385.017
 20
840.307
 30
0.000000
  70
    32
  0
VERTEX
  8
0
  5
1A419
 10
-385.017
 20
840.308
 30
0.000000
  70
    32
  0
VERTEX
  8
0
  5
1A41A
 10
-385.017
 20
840.309
 30
0.000000
  70
    32
  0
VERTEX
  8
0
  5
1A41B
 10
-385.018
 20
840.310
 30
0.000000
  70
    32
  0
VERTEX
  8
0
  5
1A41C
 10
-385.018
 20
840.311
 30
0.000000
  70
    32
  0
VERTEX
  8
0
  5
1A41D
 10
-385.018
 20
840.312
 30
0.000000
  70
    32
  0
VERTEX
  8
0
  5
1A41E
 10
-385.018
 20
840.313
 30
0.000000
  70
    32
  0
VERTEX
  8
0
  5
1A41F
 10
-385.019
 20
840.314
 30
0.000000
  70
    32
  0
VERTEX
  8
0
  5
1A420
 10
-385.019
 20
840.315
 30
0.000000
  70
    32
  0
VERTEX
  8
0
  5
1A421
 10
-385.019
 20
840.315
 30
0.000000
  70
    32
  0
VERTEX
  8
0
  5
1A422
 10
-385.020
 20
840.316
 30
0.000000
  70
    32
  0
VERTEX
  8
0
  5
1A423
 10
-385.020
 20
840.317
 30
0.000000
  70
    32
  0
VERTEX
  8
0
  5
1A424
 10
-385.020
 20
840.318
 30
0.000000
  70
    32
  0
VERTEX
  8
0
  5
1A425
 10
-385.021
 20
840.319
 30
0.000000
  70
    32
  0
VERTEX
  8
0
  5
1A426
 10
-385.021
 20
840.320
 30
0.000000
  70
    32
  0
VERTEX
  8
0
  5
1A427
 10
-385.021
 20
840.321
 30
0.000000
  70
    32
  0
VERTEX
  8
0
  5
1A428
 10
-385.022
 20
840.322
 30
0.000000
  70
    32
  0
VERTEX
  8
0
  5
1A429
 10
-385.022
 20
840.322
 30
0.000000
  70
    32
  0
VERTEX
  8
0
  5
1A42A
 10
-385.022
 20
840.323
 30
0.000000
  70
    32
  0
VERTEX
  8
0
  5
1A42B
 10
-385.023
 20
840.324
 30
0.000000
  70
    32
  0
VERTEX
  8
0
  5
1A42C
 10
-385.023
 20
840.325
 30
0.000000
  70
    32
  0
VERTEX
  8
0
  5
1A42D
 10
-385.024
 20
840.326
 30
0.000000
  70
    32
  0
VERTEX
  8
0
  5
1A42E
 10
-385.024
 20
840.326
 30
0.000000
  70
    32
  0
VERTEX
  8
0
  5
1A42F
 10
-385.025
 20
840.327
 30
0.000000
  70
    32
  0
VERTEX
  8
0
  5
1A430
 10
-385.025
 20
840.328
 30
0.000000
  70
    32
  0
VERTEX
  8
0
  5
1A431
 10
-385.026
 20
840.329
 30
0.000000
  70
    32
  0
VERTEX
  8
0
  5
1A432
 10
-385.026
 20
840.329
 30
0.000000
  70
    32
  0
VERTEX
  8
0
  5
1A433
 10
-385.027
 20
840.330
 30
0.000000
  70
    32
  0
VERTEX
  8
0
  5
1A434
 10
-385.027
 20
840.331
 30
0.000000
  70
    32
  0
VERTEX
  8
0
  5
1A435
 10
-385.028
 20
840.332
 30
0.000000
  70
    32
  0
VERTEX
  8
0
  5
1A436
 10
-385.028
 20
840.332
 30
0.000000
  70
    32
  0
VERTEX
  8
0
  5
1A437
 10
-385.029
 20
840.333
 30
0.000000
  70
    32
  0
VERTEX
  8
0
  5
1A438
 10
-385.029
 20
840.334
 30
0.000000
  70
    32
  0
VERTEX
  8
0
  5
1A439
 10
-385.030
 20
840.334
 30
0.000000
  70
    32
  0
VERTEX
  8
0
  5
1A43A
 10
-385.030
 20
840.335
 30
0.000000
  70
    32
  0
VERTEX
  8
0
  5
1A43B
 10
-385.031
 20
840.336
 30
0.000000
  70
    32
  0
VERTEX
  8
0
  5
1A43C
 10
-385.032
 20
840.336
 30
0.000000
  70
    32
  0
VERTEX
  8
0
  5
1A43D
 10
-385.032
 20
840.337
 30
0.000000
  70
    32
  0
VERTEX
  8
0
  5
1A43E
 10
-385.033
 20
840.338
 30
0.000000
  70
    32
  0
VERTEX
  8
0
  5
1A43F
 10
-385.034
 20
840.338
 30
0.000000
  70
    32
  0
VERTEX
  8
0
  5
1A440
 10
-385.034
 20
840.339
 30
0.000000
  70
    32
  0
VERTEX
  8
0
  5
1A441
 10
-385.035
 20
840.339
 30
0.000000
  70
    32
  0
VERTEX
  8
0
  5
1A442
 10
-385.036
 20
840.340
 30
0.000000
  70
    32
  0
VERTEX
  8
0
  5
1A443
 10
-385.036
 20
840.341
 30
0.000000
  70
    32
  0
VERTEX
  8
0
  5
1A444
 10
-385.037
 20
840.341
 30
0.000000
  70
    32
  0
VERTEX
  8
0
  5
1A445
 10
-385.038
 20
840.342
 30
0.000000
  70
    32
  0
VERTEX
  8
0
  5
1A446
 10
-385.038
 20
840.342
 30
0.000000
  70
    32
  0
VERTEX
  8
0
  5
1A447
 10
-385.039
 20
840.343
 30
0.000000
  70
    32
  0
VERTEX
  8
0
  5
1A448
 10
-385.040
 20
840.343
 30
0.000000
  70
    32
  0
VERTEX
  8
0
  5
1A449
 10
-385.041
 20
840.344
 30
0.000000
  70
    32
  0
VERTEX
  8
0
  5
1A44A
 10
-385.041
 20
840.344
 30
0.000000
  70
    32
  0
VERTEX
  8
0
  5
1A44B
 10
-385.042
 20
840.345
 30
0.000000
  70
    32
  0
VERTEX
  8
0
  5
1A44C
 10
-385.043
 20
840.345
 30
0.000000
  70
    32
  0
VERTEX
  8
0
  5
1A44D
 10
-385.044
 20
840.346
 30
0.000000
  70
    32
  0
VERTEX
  8
0
  5
1A44E
 10
-385.044
 20
840.346
 30
0.000000
  70
    32
  0
VERTEX
  8
0
  5
1A44F
 10
-385.045
 20
840.347
 30
0.000000
  70
    32
  0
VERTEX
  8
0
  5
1A450
 10
-385.046
 20
840.347
 30
0.000000
  70
    32
  0
VERTEX
  8
0
  5
1A451
 10
-385.047
 20
840.348
 30
0.000000
  70
    32
  0
VERTEX
  8
0
  5
1A452
 10
-385.048
 20
840.348
 30
0.000000
  70
    32
  0
VERTEX
  8
0
  5
1A453
 10
-385.048
 20
840.349
 30
0.000000
  70
    32
  0
VERTEX
  8
0
  5
1A454
 10
-385.049
 20
840.349
 30
0.000000
  70
    32
  0
VERTEX
  8
0
  5
1A455
 10
-385.050
 20
840.349
 30
0.000000
  70
    32
  0
VERTEX
  8
0
  5
1A456
 10
-385.051
 20
840.350
 30
0.000000
  70
    32
  0
VERTEX
  8
0
  5
1A457
 10
-385.052
 20
840.350
 30
0.000000
  70
    32
  0
VERTEX
  8
0
  5
1A458
 10
-385.052
 20
840.351
 30
0.000000
  70
    32
  0
VERTEX
  8
0
  5
1A459
 10
-385.053
 20
840.351
 30
0.000000
  70
    32
  0
VERTEX
  8
0
  5
1A45A
 10
-385.054
 20
840.352
 30
0.000000
  70
    32
  0
VERTEX
  8
0
  5
1A45B
 10
-385.055
 20
840.352
 30
0.000000
  70
    32
  0
VERTEX
  8
0
  5
1A45C
 10
-385.056
 20
840.352
 30
0.000000
  70
    32
  0
VERTEX
  8
0
  5
1A45D
 10
-385.057
 20
840.353
 30
0.000000
  70
    32
  0
VERTEX
  8
0
  5
1A45E
 10
-385.058
 20
840.353
 30
0.000000
  70
    32
  0
VERTEX
  8
0
  5
1A45F
 10
-385.058
 20
840.354
 30
0.000000
  70
    32
  0
VERTEX
  8
0
  5
1A460
 10
-385.059
 20
840.354
 30
0.000000
  70
    32
  0
VERTEX
  8
0
  5
1A461
 10
-385.060
 20
840.354
 30
0.000000
  70
    32
  0
VERTEX
  8
0
  5
1A462
 10
-385.061
 20
840.355
 30
0.000000
  70
    32
  0
VERTEX
  8
0
  5
1A463
 10
-385.062
 20
840.355
 30
0.000000
  70
    32
  0
VERTEX
  8
0
  5
1A464
 10
-385.063
 20
840.356
 30
0.000000
  70
    32
  0
VERTEX
  8
0
  5
1A465
 10
-385.063
 20
840.356
 30
0.000000
  70
    32
  0
VERTEX
  8
0
  5
1A466
 10
-385.064
 20
840.356
 30
0.000000
  70
    32
  0
VERTEX
  8
0
  5
1A467
 10
-385.065
 20
840.357
 30
0.000000
  70
    32
  0
VERTEX
  8
0
  5
1A468
 10
-385.066
 20
840.357
 30
0.000000
  70
    32
  0
VERTEX
  8
0
  5
1A469
 10
-385.067
 20
840.358
 30
0.000000
  70
    32
  0
VERTEX
  8
0
  5
1A46A
 10
-385.068
 20
840.358
 30
0.000000
  70
    32
  0
VERTEX
  8
0
  5
1A46B
 10
-385.069
 20
840.359
 30
0.000000
  70
    32
  0
VERTEX
  8
0
  5
1A46C
 10
-385.069
 20
840.359
 30
0.000000
  70
    32
  0
VERTEX
  8
0
  5
1A46D
 10
-385.070
 20
840.359
 30
0.000000
  70
    32
  0
VERTEX
  8
0
  5
1A46E
 10
-385.071
 20
840.360
 30
0.000000
  70
    32
  0
VERTEX
  8
0
  5
1A46F
 10
-385.072
 20
840.360
 30
0.000000
  70
    32
  0
VERTEX
  8
0
  5
1A470
 10
-385.073
 20
840.361
 30
0.000000
  70
    32
  0
VERTEX
  8
0
  5
1A471
 10
-385.074
 20
840.361
 30
0.000000
  70
    32
  0
VERTEX
  8
0
  5
1A472
 10
-385.074
 20
840.362
 30
0.000000
  70
    32
  0
VERTEX
  8
0
  5
1A473
 10
-385.075
 20
840.362
 30
0.000000
  70
    32
  0
VERTEX
  8
0
  5
1A474
 10
-385.076
 20
840.362
 30
0.000000
  70
    32
  0
VERTEX
  8
0
  5
1A475
 10
-385.077
 20
840.363
 30
0.000000
  70
    32
  0
VERTEX
  8
0
  5
1A476
 10
-385.078
 20
840.363
 30
0.000000
  70
    32
  0
VERTEX
  8
0
  5
1A477
 10
-385.078
 20
840.364
 30
0.000000
  70
    32
  0
VERTEX
  8
0
  5
1A478
 10
-385.079
 20
840.364
 30
0.000000
  70
    32
  0
VERTEX
  8
0
  5
1A479
 10
-385.080
 20
840.365
 30
0.000000
  70
    32
  0
VERTEX
  8
0
  5
1A47A
 10
-385.081
 20
840.365
 30
0.000000
  70
    32
  0
VERTEX
  8
0
  5
1A47B
 10
-385.082
 20
840.366
 30
0.000000
  70
    32
  0
VERTEX
  8
0
  5
1A47C
 10
-385.082
 20
840.366
 30
0.000000
  70
    32
  0
VERTEX
  8
0
  5
1A47D
 10
-385.083
 20
840.367
 30
0.000000
  70
    32
  0
VERTEX
  8
0
  5
1A47E
 10
-385.084
 20
840.367
 30
0.000000
  70
    32
  0
VERTEX
  8
0
  5
1A47F
 10
-385.085
 20
840.368
 30
0.000000
  70
    32
  0
VERTEX
  8
0
  5
1A480
 10
-385.085
 20
840.368
 30
0.000000
  70
    32
  0
VERTEX
  8
0
  5
1A481
 10
-385.086
 20
840.369
 30
0.000000
  70
    32
  0
VERTEX
  8
0
  5
1A482
 10
-385.087
 20
840.369
 30
0.000000
  70
    32
  0
VERTEX
  8
0
  5
1A483
 10
-385.088
 20
840.370
 30
0.000000
  70
    32
  0
VERTEX
  8
0
  5
1A484
 10
-385.088
 20
840.370
 30
0.000000
  70
    32
  0
VERTEX
  8
0
  5
1A485
 10
-385.089
 20
840.371
 30
0.000000
  70
    32
  0
VERTEX
  8
0
  5
1A486
 10
-385.090
 20
840.371
 30
0.000000
  70
    32
  0
VERTEX
  8
0
  5
1A487
 10
-385.090
 20
840.372
 30
0.000000
  70
    32
  0
VERTEX
  8
0
  5
1A488
 10
-385.091
 20
840.373
 30
0.000000
  70
    32
  0
VERTEX
  8
0
  5
1A489
 10
-385.092
 20
840.373
 30
0.000000
  70
    32
  0
VERTEX
  8
0
  5
1A48A
 10
-385.093
 20
840.374
 30
0.000000
  70
    32
  0
VERTEX
  8
0
  5
1A48B
 10
-385.093
 20
840.375
 30
0.000000
  70
    32
  0
VERTEX
  8
0
  5
1A48C
 10
-385.094
 20
840.375
 30
0.000000
  70
    32
  0
VERTEX
  8
0
  5
1A48D
 10
-385.094
 20
840.376
 30
0.000000
  70
    32
  0
VERTEX
  8
0
  5
1A48E
 10
-385.095
 20
840.376
 30
0.000000
  70
    32
  0
VERTEX
  8
0
  5
1A48F
 10
-385.096
 20
840.377
 30
0.000000
  70
    32
  0
VERTEX
  8
0
  5
1A490
 10
-385.096
 20
840.378
 30
0.000000
  70
    32
  0
VERTEX
  8
0
  5
1A491
 10
-385.097
 20
840.379
 30
0.000000
  70
    32
  0
VERTEX
  8
0
  5
1A492
 10
-385.097
 20
840.379
 30
0.000000
  70
    32
  0
VERTEX
  8
0
  5
1A493
 10
-385.098
 20
840.380
 30
0.000000
  70
    32
  0
VERTEX
  8
0
  5
1A494
 10
-385.099
 20
840.381
 30
0.000000
  70
    32
  0
VERTEX
  8
0
  5
1A495
 10
-385.099
 20
840.381
 30
0.000000
  70
    32
  0
VERTEX
  8
0
  5
1A496
 10
-385.100
 20
840.382
 30
0.000000
  70
    32
  0
VERTEX
  8
0
  5
1A497
 10
-385.100
 20
840.383
 30
0.000000
  70
    32
  0
VERTEX
  8
0
  5
1A498
 10
-385.101
 20
840.384
 30
0.000000
  70
    32
  0
VERTEX
  8
0
  5
1A499
 10
-385.101
 20
840.385
 30
0.000000
  70
    32
  0
VERTEX
  8
0
  5
1A49A
 10
-385.102
 20
840.385
 30
0.000000
  70
    32
  0
VERTEX
  8
0
  5
1A49B
 10
-385.102
 20
840.386
 30
0.000000
  70
    32
  0
VERTEX
  8
0
  5
1A49C
 10
-385.103
 20
840.387
 30
0.000000
  70
    32
  0
VERTEX
  8
0
  5
1A49D
 10
-385.103
 20
840.388
 30
0.000000
  70
    32
  0
VERTEX
  8
0
  5
1A49E
 10
-385.103
 20
840.389
 30
0.000000
  70
    32
  0
VERTEX
  8
0
  5
1A49F
 10
-385.104
 20
840.390
 30
0.000000
  70
    32
  0
VERTEX
  8
0
  5
1A4A0
 10
-385.104
 20
840.390
 30
0.000000
  70
    32
  0
VERTEX
  8
0
  5
1A4A1
 10
-385.105
 20
840.391
 30
0.000000
  70
    32
  0
VERTEX
  8
0
  5
1A4A2
 10
-385.105
 20
840.392
 30
0.000000
  70
    32
  0
VERTEX
  8
0
  5
1A4A3
 10
-385.105
 20
840.393
 30
0.000000
  70
    32
  0
VERTEX
  8
0
  5
1A4A4
 10
-385.106
 20
840.394
 30
0.000000
  70
    32
  0
VERTEX
  8
0
  5
1A4A5
 10
-385.106
 20
840.395
 30
0.000000
  70
    32
  0
VERTEX
  8
0
  5
1A4A6
 10
-385.106
 20
840.396
 30
0.000000
  70
    32
  0
VERTEX
  8
0
  5
1A4A7
 10
-385.107
 20
840.397
 30
0.000000
  70
    32
  0
VERTEX
  8
0
  5
1A4A8
 10
-385.107
 20
840.398
 30
0.000000
  70
    32
  0
VERTEX
  8
0
  5
1A4A9
 10
-385.107
 20
840.398
 30
0.000000
  70
    32
  0
VERTEX
  8
0
  5
1A4AA
 10
-385.107
 20
840.399
 30
0.000000
  70
    32
  0
VERTEX
  8
0
  5
1A4AB
 10
-385.108
 20
840.400
 30
0.000000
  70
    32
  0
VERTEX
  8
0
  5
1A4AC
 10
-385.108
 20
840.401
 30
0.000000
  70
    32
  0
VERTEX
  8
0
  5
1A4AD
 10
-385.108
 20
840.402
 30
0.000000
  70
    32
  0
VERTEX
  8
0
  5
1A4AE
 10
-385.108
 20
840.403
 30
0.000000
  70
    32
  0
VERTEX
  8
0
  5
1A4AF
 10
-385.108
 20
840.404
 30
0.000000
  70
    32
  0
VERTEX
  8
0
  5
1A4B0
 10
-385.108
 20
840.405
 30
0.000000
  70
    32
  0
VERTEX
  8
0
  5
1A4B1
 10
-385.108
 20
840.406
 30
0.000000
  70
    32
  0
VERTEX
  8
0
  5
1A4B2
 10
-385.108
 20
840.407
 30
0.000000
  70
    32
  0
VERTEX
  8
0
  5
1A4B3
 10
-385.109
 20
840.408
 30
0.000000
  70
    32
  0
VERTEX
  8
0
  5
1A4B4
 10
-385.109
 20
840.409
 30
0.000000
  70
    32
  0
VERTEX
  8
0
  5
1A4B5
 10
-385.109
 20
840.410
 30
0.000000
  70
    32
  0
VERTEX
  8
0
  5
1A4B6
 10
-385.109
 20
840.411
 30
0.000000
  70
    32
  0
VERTEX
  8
0
  5
1A4B7
 10
-385.109
 20
840.411
 30
0.000000
  70
    32
  0
VERTEX
  8
0
  5
1A4B8
 10
-385.109
 20
840.412
 30
0.000000
  70
    32
  0
SEQEND
  8
0
  5
1A4B9
  0
POLYLINE
  8
0
  5
1A4BA
  66
     1
 10
0.000000
 20
0.000000
 30
0.000000
  70
     8
  0
VERTEX
  8
0
  5
1A4BB
 10
-384.992
 20
840.748
 30
0.000000
  70
    32
  0
VERTEX
  8
0
  5
1A4BC
 10
-384.993
 20
840.748
 30
0.000000
  70
    32
  0
VERTEX
  8
0
  5
1A4BD
 10
-384.994
 20
840.748
 30
0.000000
  70
    32
  0
VERTEX
  8
0
  5
1A4BE
 10
-384.995
 20
840.747
 30
0.000000
  70
    32
  0
VERTEX
  8
0
  5
1A4BF
 10
-384.996
 20
840.747
 30
0.000000
  70
    32
  0
VERTEX
  8
0
  5
1A4C0
 10
-384.996
 20
840.747
 30
0.000000
  70
    32
  0
VERTEX
  8
0
  5
1A4C1
 10
-384.997
 20
840.747
 30
0.000000
  70
    32
  0
VERTEX
  8
0
  5
1A4C2
 10
-384.998
 20
840.747
 30
0.000000
  70
    32
  0
VERTEX
  8
0
  5
1A4C3
 10
-384.999
 20
840.747
 30
0.000000
  70
    32
  0
VERTEX
  8
0
  5
1A4C4
 10
-385.000
 20
840.746
 30
0.000000
  70
    32
  0
VERTEX
  8
0
  5
1A4C5
 10
-385.001
 20
840.746
 30
0.000000
  70
    32
  0
VERTEX
  8
0
  5
1A4C6
 10
-385.002
 20
840.746
 30
0.000000
  70
    32
  0
VERTEX
  8
0
  5
1A4C7
 10
-385.003
 20
840.746
 30
0.000000
  70
    32
  0
VERTEX
  8
0
  5
1A4C8
 10
-385.004
 20
840.746
 30
0.000000
  70
    32
  0
VERTEX
  8
0
  5
1A4C9
 10
-385.004
 20
840.745
 30
0.000000
  70
    32
  0
VERTEX
  8
0
  5
1A4CA
 10
-385.005
 20
840.745
 30
0.000000
  70
    32
  0
VERTEX
  8
0
  5
1A4CB
 10
-385.006
 20
840.745
 30
0.000000
  70
    32
  0
VERTEX
  8
0
  5
1A4CC
 10
-385.007
 20
840.745
 30
0.000000
  70
    32
  0
VERTEX
  8
0
  5
1A4CD
 10
-385.008
 20
840.745
 30
0.000000
  70
    32
  0
VERTEX
  8
0
  5
1A4CE
 10
-385.009
 20
840.744
 30
0.000000
  70
    32
  0
VERTEX
  8
0
  5
1A4CF
 10
-385.010
 20
840.744
 30
0.000000
  70
    32
  0
VERTEX
  8
0
  5
1A4D0
 10
-385.011
 20
840.744
 30
0.000000
  70
    32
  0
VERTEX
  8
0
  5
1A4D1
 10
-385.012
 20
840.744
 30
0.000000
  70
    32
  0
VERTEX
  8
0
  5
1A4D2
 10
-385.012
 20
840.743
 30
0.000000
  70
    32
  0
VERTEX
  8
0
  5
1A4D3
 10
-385.013
 20
840.743
 30
0.000000
  70
    32
  0
VERTEX
  8
0
  5
1A4D4
 10
-385.014
 20
840.743
 30
0.000000
  70
    32
  0
VERTEX
  8
0
  5
1A4D5
 10
-385.015
 20
840.743
 30
0.000000
  70
    32
  0
VERTEX
  8
0
  5
1A4D6
 10
-385.016
 20
840.742
 30
0.000000
  70
    32
  0
VERTEX
  8
0
  5
1A4D7
 10
-385.017
 20
840.742
 30
0.000000
  70
    32
  0
VERTEX
  8
0
  5
1A4D8
 10
-385.018
 20
840.742
 30
0.000000
  70
    32
  0
VERTEX
  8
0
  5
1A4D9
 10
-385.019
 20
840.742
 30
0.000000
  70
    32
  0
VERTEX
  8
0
  5
1A4DA
 10
-385.019
 20
840.741
 30
0.000000
  70
    32
  0
VERTEX
  8
0
  5
1A4DB
 10
-385.020
 20
840.741
 30
0.000000
  70
    32
  0
VERTEX
  8
0
  5
1A4DC
 10
-385.021
 20
840.741
 30
0.000000
  70
    32
  0
VERTEX
  8
0
  5
1A4DD
 10
-385.022
 20
840.741
 30
0.000000
  70
    32
  0
VERTEX
  8
0
  5
1A4DE
 10
-385.023
 20
840.740
 30
0.000000
  70
    32
  0
VERTEX
  8
0
  5
1A4DF
 10
-385.024
 20
840.740
 30
0.000000
  70
    32
  0
VERTEX
  8
0
  5
1A4E0
 10
-385.025
 20
840.740
 30
0.000000
  70
    32
  0
VERTEX
  8
0
  5
1A4E1
 10
-385.026
 20
840.740
 30
0.000000
  70
    32
  0
VERTEX
  8
0
  5
1A4E2
 10
-385.026
 20
840.740
 30
0.000000
  70
    32
  0
VERTEX
  8
0
  5
1A4E3
 10
-385.027
 20
840.739
 30
0.000000
  70
    32
  0
VERTEX
  8
0
  5
1A4E4
 10
-385.028
 20
840.739
 30
0.000000
  70
    32
  0
VERTEX
  8
0
  5
1A4E5
 10
-385.029
 20
840.739
 30
0.000000
  70
    32
  0
VERTEX
  8
0
  5
1A4E6
 10
-385.030
 20
840.739
 30
0.000000
  70
    32
  0
VERTEX
  8
0
  5
1A4E7
 10
-385.031
 20
840.738
 30
0.000000
  70
    32
  0
VERTEX
  8
0
  5
1A4E8
 10
-385.032
 20
840.738
 30
0.000000
  70
    32
  0
VERTEX
  8
0
  5
1A4E9
 10
-385.033
 20
840.738
 30
0.000000
  70
    32
  0
VERTEX
  8
0
  5
1A4EA
 10
-385.033
 20
840.738
 30
0.000000
  70
    32
  0
VERTEX
  8
0
  5
1A4EB
 10
-385.034
 20
840.738
 30
0.000000
  70
    32
  0
VERTEX
  8
0
  5
1A4EC
 10
-385.035
 20
840.737
 30
0.000000
  70
    32
  0
VERTEX
  8
0
  5
1A4ED
 10
-385.036
 20
840.737
 30
0.000000
  70
    32
  0
VERTEX
  8
0
  5
1A4EE
 10
-385.037
 20
840.737
 30
0.000000
  70
    32
  0
VERTEX
  8
0
  5
1A4EF
 10
-385.038
 20
840.737
 30
0.000000
  70
    32
  0
VERTEX
  8
0
  5
1A4F0
 10
-385.039
 20
840.737
 30
0.000000
  70
    32
  0
VERTEX
  8
0
  5
1A4F1
 10
-385.040
 20
840.736
 30
0.000000
  70
    32
  0
VERTEX
  8
0
  5
1A4F2
 10
-385.040
 20
840.736
 30
0.000000
  70
    32
  0
VERTEX
  8
0
  5
1A4F3
 10
-385.041
 20
840.736
 30
0.000000
  70
    32
  0
VERTEX
  8
0
  5
1A4F4
 10
-385.042
 20
840.736
 30
0.000000
  70
    32
  0
VERTEX
  8
0
  5
1A4F5
 10
-385.043
 20
840.736
 30
0.000000
  70
    32
  0
VERTEX
  8
0
  5
1A4F6
 10
-385.044
 20
840.735
 30
0.000000
  70
    32
  0
VERTEX
  8
0
  5
1A4F7
 10
-385.045
 20
840.735
 30
0.000000
  70
    32
  0
VERTEX
  8
0
  5
1A4F8
 10
-385.046
 20
840.735
 30
0.000000
  70
    32
  0
VERTEX
  8
0
  5
1A4F9
 10
-385.047
 20
840.735
 30
0.000000
  70
    32
  0
VERTEX
  8
0
  5
1A4FA
 10
-385.048
 20
840.734
 30
0.000000
  70
    32
  0
VERTEX
  8
0
  5
1A4FB
 10
-385.048
 20
840.734
 30
0.000000
  70
    32
  0
VERTEX
  8
0
  5
1A4FC
 10
-385.049
 20
840.734
 30
0.000000
  70
    32
  0
VERTEX
  8
0
  5
1A4FD
 10
-385.050
 20
840.734
 30
0.000000
  70
    32
  0
VERTEX
  8
0
  5
1A4FE
 10
-385.051
 20
840.734
 30
0.000000
  70
    32
  0
VERTEX
  8
0
  5
1A4FF
 10
-385.052
 20
840.733
 30
0.000000
  70
    32
  0
VERTEX
  8
0
  5
1A500
 10
-385.053
 20
840.733
 30
0.000000
  70
    32
  0
VERTEX
  8
0
  5
1A501
 10
-385.054
 20
840.733
 30
0.000000
  70
    32
  0
VERTEX
  8
0
  5
1A502
 10
-385.055
 20
840.733
 30
0.000000
  70
    32
  0
VERTEX
  8
0
  5
1A503
 10
-385.056
 20
840.732
 30
0.000000
  70
    32
  0
VERTEX
  8
0
  5
1A504
 10
-385.056
 20
840.732
 30
0.000000
  70
    32
  0
VERTEX
  8
0
  5
1A505
 10
-385.057
 20
840.732
 30
0.000000
  70
    32
  0
VERTEX
  8
0
  5
1A506
 10
-385.058
 20
840.732
 30
0.000000
  70
    32
  0
VERTEX
  8
0
  5
1A507
 10
-385.059
 20
840.732
 30
0.000000
  70
    32
  0
VERTEX
  8
0
  5
1A508
 10
-385.060
 20
840.731
 30
0.000000
  70
    32
  0
VERTEX
  8
0
  5
1A509
 10
-385.061
 20
840.731
 30
0.000000
  70
    32
  0
VERTEX
  8
0
  5
1A50A
 10
-385.062
 20
840.731
 30
0.000000
  70
    32
  0
VERTEX
  8
0
  5
1A50B
 10
-385.063
 20
840.731
 30
0.000000
  70
    32
  0
VERTEX
  8
0
  5
1A50C
 10
-385.064
 20
840.730
 30
0.000000
  70
    32
  0
VERTEX
  8
0
  5
1A50D
 10
-385.065
 20
840.730
 30
0.000000
  70
    32
  0
VERTEX
  8
0
  5
1A50E
 10
-385.066
 20
840.730
 30
0.000000
  70
    32
  0
VERTEX
  8
0
  5
1A50F
 10
-385.067
 20
840.730
 30
0.000000
  70
    32
  0
VERTEX
  8
0
  5
1A510
 10
-385.067
 20
840.729
 30
0.000000
  70
    32
  0
VERTEX
  8
0
  5
1A511
 10
-385.068
 20
840.729
 30
0.000000
  70
    32
  0
VERTEX
  8
0
  5
1A512
 10
-385.069
 20
840.729
 30
0.000000
  70
    32
  0
VERTEX
  8
0
  5
1A513
 10
-385.070
 20
840.729
 30
0.000000
  70
    32
  0
VERTEX
  8
0
  5
1A514
 10
-385.071
 20
840.728
 30
0.000000
  70
    32
  0
VERTEX
  8
0
  5
1A515
 10
-385.072
 20
840.728
 30
0.000000
  70
    32
  0
VERTEX
  8
0
  5
1A516
 10
-385.073
 20
840.728
 30
0.000000
  70
    32
  0
VERTEX
  8
0
  5
1A517
 10
-385.074
 20
840.727
 30
0.000000
  70
    32
  0
VERTEX
  8
0
  5
1A518
 10
-385.075
 20
840.727
 30
0.000000
  70
    32
  0
VERTEX
  8
0
  5
1A519
 10
-385.076
 20
840.727
 30
0.000000
  70
    32
  0
VERTEX
  8
0
  5
1A51A
 10
-385.077
 20
840.726
 30
0.000000
  70
    32
  0
VERTEX
  8
0
  5
1A51B
 10
-385.078
 20
840.726
 30
0.000000
  70
    32
  0
VERTEX
  8
0
  5
1A51C
 10
-385.078
 20
840.726
 30
0.000000
  70
    32
  0
VERTEX
  8
0
  5
1A51D
 10
-385.079
 20
840.725
 30
0.000000
  70
    32
  0
VERTEX
  8
0
  5
1A51E
 10
-385.080
 20
840.725
 30
0.000000
  70
    32
  0
VERTEX
  8
0
  5
1A51F
 10
-385.081
 20
840.725
 30
0.000000
  70
    32
  0
VERTEX
  8
0
  5
1A520
 10
-385.082
 20
840.724
 30
0.000000
  70
    32
  0
VERTEX
  8
0
  5
1A521
 10
-385.083
 20
840.724
 30
0.000000
  70
    32
  0
VERTEX
  8
0
  5
1A522
 10
-385.084
 20
840.724
 30
0.000000
  70
    32
  0
VERTEX
  8
0
  5
1A523
 10
-385.085
 20
840.723
 30
0.000000
  70
    32
  0
VERTEX
  8
0
  5
1A524
 10
-385.085
 20
840.723
 30
0.000000
  70
    32
  0
VERTEX
  8
0
  5
1A525
 10
-385.086
 20
840.722
 30
0.000000
  70
    32
  0
VERTEX
  8
0
  5
1A526
 10
-385.087
 20
840.722
 30
0.000000
  70
    32
  0
VERTEX
  8
0
  5
1A527
 10
-385.088
 20
840.721
 30
0.000000
  70
    32
  0
VERTEX
  8
0
  5
1A528
 10
-385.089
 20
840.721
 30
0.000000
  70
    32
  0
VERTEX
  8
0
  5
1A529
 10
-385.089
 20
840.721
 30
0.000000
  70
    32
  0
VERTEX
  8
0
  5
1A52A
 10
-385.090
 20
840.720
 30
0.000000
  70
    32
  0
VERTEX
  8
0
  5
1A52B
 10
-385.091
 20
840.720
 30
0.000000
  70
    32
  0
VERTEX
  8
0
  5
1A52C
 10
-385.092
 20
840.719
 30
0.000000
  70
    32
  0
VERTEX
  8
0
  5
1A52D
 10
-385.092
 20
840.719
 30
0.000000
  70
    32
  0
VERTEX
  8
0
  5
1A52E
 10
-385.093
 20
840.718
 30
0.000000
  70
    32
  0
VERTEX
  8
0
  5
1A52F
 10
-385.094
 20
840.717
 30
0.000000
  70
    32
  0
VERTEX
  8
0
  5
1A530
 10
-385.094
 20
840.717
 30
0.000000
  70
    32
  0
VERTEX
  8
0
  5
1A531
 10
-385.095
 20
840.716
 30
0.000000
  70
    32
  0
VERTEX
  8
0
  5
1A532
 10
-385.096
 20
840.716
 30
0.000000
  70
    32
  0
VERTEX
  8
0
  5
1A533
 10
-385.096
 20
840.715
 30
0.000000
  70
    32
  0
VERTEX
  8
0
  5
1A534
 10
-385.097
 20
840.714
 30
0.000000
  70
    32
  0
VERTEX
  8
0
  5
1A535
 10
-385.098
 20
840.714
 30
0.000000
  70
    32
  0
VERTEX
  8
0
  5
1A536
 10
-385.098
 20
840.713
 30
0.000000
  70
    32
  0
VERTEX
  8
0
  5
1A537
 10
-385.099
 20
840.713
 30
0.000000
  70
    32
  0
VERTEX
  8
0
  5
1A538
 10
-385.099
 20
840.712
 30
0.000000
  70
    32
  0
VERTEX
  8
0
  5
1A539
 10
-385.100
 20
840.711
 30
0.000000
  70
    32
  0
VERTEX
  8
0
  5
1A53A
 10
-385.100
 20
840.710
 30
0.000000
  70
    32
  0
VERTEX
  8
0
  5
1A53B
 10
-385.101
 20
840.710
 30
0.000000
  70
    32
  0
VERTEX
  8
0
  5
1A53C
 10
-385.101
 20
840.709
 30
0.000000
  70
    32
  0
VERTEX
  8
0
  5
1A53D
 10
-385.102
 20
840.708
 30
0.000000
  70
    32
  0
VERTEX
  8
0
  5
1A53E
 10
-385.102
 20
840.707
 30
0.000000
  70
    32
  0
VERTEX
  8
0
  5
1A53F
 10
-385.102
 20
840.707
 30
0.000000
  70
    32
  0
VERTEX
  8
0
  5
1A540
 10
-385.103
 20
840.706
 30
0.000000
  70
    32
  0
VERTEX
  8
0
  5
1A541
 10
-385.103
 20
840.705
 30
0.000000
  70
    32
  0
VERTEX
  8
0
  5
1A542
 10
-385.104
 20
840.704
 30
0.000000
  70
    32
  0
VERTEX
  8
0
  5
1A543
 10
-385.104
 20
840.703
 30
0.000000
  70
    32
  0
VERTEX
  8
0
  5
1A544
 10
-385.104
 20
840.702
 30
0.000000
  70
    32
  0
VERTEX
  8
0
  5
1A545
 10
-385.105
 20
840.701
 30
0.000000
  70
    32
  0
VERTEX
  8
0
  5
1A546
 10
-385.105
 20
840.701
 30
0.000000
  70
    32
  0
VERTEX
  8
0
  5
1A547
 10
-385.105
 20
840.700
 30
0.000000
  70
    32
  0
VERTEX
  8
0
  5
1A548
 10
-385.105
 20
840.699
 30
0.000000
  70
    32
  0
VERTEX
  8
0
  5
1A549
 10
-385.106
 20
840.698
 30
0.000000
  70
    32
  0
VERTEX
  8
0
  5
1A54A
 10
-385.106
 20
840.697
 30
0.000000
  70
    32
  0
VERTEX
  8
0
  5
1A54B
 10
-385.106
 20
840.696
 30
0.000000
  70
    32
  0
VERTEX
  8
0
  5
1A54C
 10
-385.106
 20
840.695
 30
0.000000
  70
    32
  0
VERTEX
  8
0
  5
1A54D
 10
-385.106
 20
840.694
 30
0.000000
  70
    32
  0
VERTEX
  8
0
  5
1A54E
 10
-385.107
 20
840.693
 30
0.000000
  70
    32
  0
VERTEX
  8
0
  5
1A54F
 10
-385.107
 20
840.692
 30
0.000000
  70
    32
  0
VERTEX
  8
0
  5
1A550
 10
-385.107
 20
840.691
 30
0.000000
  70
    32
  0
VERTEX
  8
0
  5
1A551
 10
-385.107
 20
840.690
 30
0.000000
  70
    32
  0
VERTEX
  8
0
  5
1A552
 10
-385.107
 20
840.690
 30
0.000000
  70
    32
  0
VERTEX
  8
0
  5
1A553
 10
-385.107
 20
840.689
 30
0.000000
  70
    32
  0
VERTEX
  8
0
  5
1A554
 10
-385.108
 20
840.688
 30
0.000000
  70
    32
  0
VERTEX
  8
0
  5
1A555
 10
-385.108
 20
840.687
 30
0.000000
  70
    32
  0
VERTEX
  8
0
  5
1A556
 10
-385.108
 20
840.686
 30
0.000000
  70
    32
  0
VERTEX
  8
0
  5
1A557
 10
-385.108
 20
840.685
 30
0.000000
  70
    32
  0
VERTEX
  8
0
  5
1A558
 10
-385.108
 20
840.684
 30
0.000000
  70
    32
  0
VERTEX
  8
0
  5
1A559
 10
-385.108
 20
840.683
 30
0.000000
  70
    32
  0
VERTEX
  8
0
  5
1A55A
 10
-385.108
 20
840.682
 30
0.000000
  70
    32
  0
VERTEX
  8
0
  5
1A55B
 10
-385.108
 20
840.681
 30
0.000000
  70
    32
  0
VERTEX
  8
0
  5
1A55C
 10
-385.108
 20
840.680
 30
0.000000
  70
    32
  0
VERTEX
  8
0
  5
1A55D
 10
-385.108
 20
840.679
 30
0.000000
  70
    32
  0
VERTEX
  8
0
  5
1A55E
 10
-385.108
 20
840.678
 30
0.000000
  70
    32
  0
VERTEX
  8
0
  5
1A55F
 10
-385.108
 20
840.677
 30
0.000000
  70
    32
  0
VERTEX
  8
0
  5
1A560
 10
-385.108
 20
840.676
 30
0.000000
  70
    32
  0
VERTEX
  8
0
  5
1A561
 10
-385.108
 20
840.675
 30
0.000000
  70
    32
  0
VERTEX
  8
0
  5
1A562
 10
-385.108
 20
840.674
 30
0.000000
  70
    32
  0
VERTEX
  8
0
  5
1A563
 10
-385.108
 20
840.674
 30
0.000000
  70
    32
  0
VERTEX
  8
0
  5
1A564
 10
-385.108
 20
840.673
 30
0.000000
  70
    32
  0
VERTEX
  8
0
  5
1A565
 10
-385.108
 20
840.672
 30
0.000000
  70
    32
  0
VERTEX
  8
0
  5
1A566
 10
-385.108
 20
840.671
 30
0.000000
  70
    32
  0
VERTEX
  8
0
  5
1A567
 10
-385.108
 20
840.670
 30
0.000000
  70
    32
  0
VERTEX
  8
0
  5
1A568
 10
-385.108
 20
840.669
 30
0.000000
  70
    32
  0
VERTEX
  8
0
  5
1A569
 10
-385.108
 20
840.668
 30
0.000000
  70
    32
  0
VERTEX
  8
0
  5
1A56A
 10
-385.108
 20
840.667
 30
0.000000
  70
    32
  0
VERTEX
  8
0
  5
1A56B
 10
-385.108
 20
840.666
 30
0.000000
  70
    32
  0
VERTEX
  8
0
  5
1A56C
 10
-385.107
 20
840.665
 30
0.000000
  70
    32
  0
VERTEX
  8
0
  5
1A56D
 10
-385.107
 20
840.664
 30
0.000000
  70
    32
  0
VERTEX
  8
0
  5
1A56E
 10
-385.107
 20
840.664
 30
0.000000
  70
    32
  0
VERTEX
  8
0
  5
1A56F
 10
-385.107
 20
840.663
 30
0.000000
  70
    32
  0
VERTEX
  8
0
  5
1A570
 10
-385.107
 20
840.662
 30
0.000000
  70
    32
  0
VERTEX
  8
0
  5
1A571
 10
-385.107
 20
840.661
 30
0.000000
  70
    32
  0
VERTEX
  8
0
  5
1A572
 10
-385.107
 20
840.660
 30
0.000000
  70
    32
  0
VERTEX
  8
0
  5
1A573
 10
-385.106
 20
840.659
 30
0.000000
  70
    32
  0
VERTEX
  8
0
  5
1A574
 10
-385.106
 20
840.658
 30
0.000000
  70
    32
  0
VERTEX
  8
0
  5
1A575
 10
-385.106
 20
840.657
 30
0.000000
  70
    32
  0
VERTEX
  8
0
  5
1A576
 10
-385.106
 20
840.656
 30
0.000000
  70
    32
  0
VERTEX
  8
0
  5
1A577
 10
-385.105
 20
840.656
 30
0.000000
  70
    32
  0
VERTEX
  8
0
  5
1A578
 10
-385.105
 20
840.655
 30
0.000000
  70
    32
  0
VERTEX
  8
0
  5
1A579
 10
-385.105
 20
840.654
 30
0.000000
  70
    32
  0
VERTEX
  8
0
  5
1A57A
 10
-385.105
 20
840.653
 30
0.000000
  70
    32
  0
VERTEX
  8
0
  5
1A57B
 10
-385.104
 20
840.652
 30
0.000000
  70
    32
  0
VERTEX
  8
0
  5
1A57C
 10
-385.104
 20
840.651
 30
0.000000
  70
    32
  0
VERTEX
  8
0
  5
1A57D
 10
-385.104
 20
840.650
 30
0.000000
  70
    32
  0
VERTEX
  8
0
  5
1A57E
 10
-385.103
 20
840.649
 30
0.000000
  70
    32
  0
VERTEX
  8
0
  5
1A57F
 10
-385.103
 20
840.648
 30
0.000000
  70
    32
  0
VERTEX
  8
0
  5
1A580
 10
-385.103
 20
840.648
 30
0.000000
  70
    32
  0
VERTEX
  8
0
  5
1A581
 10
-385.102
 20
840.647
 30
0.000000
  70
    32
  0
VERTEX
  8
0
  5
1A582
 10
-385.102
 20
840.646
 30
0.000000
  70
    32
  0
VERTEX
  8
0
  5
1A583
 10
-385.101
 20
840.645
 30
0.000000
  70
    32
  0
VERTEX
  8
0
  5
1A584
 10
-385.101
 20
840.644
 30
0.000000
  70
    32
  0
VERTEX
  8
0
  5
1A585
 10
-385.101
 20
840.643
 30
0.000000
  70
    32
  0
VERTEX
  8
0
  5
1A586
 10
-385.100
 20
840.643
 30
0.000000
  70
    32
  0
VERTEX
  8
0
  5
1A587
 10
-385.100
 20
840.642
 30
0.000000
  70
    32
  0
VERTEX
  8
0
  5
1A588
 10
-385.099
 20
840.641
 30
0.000000
  70
    32
  0
VERTEX
  8
0
  5
1A589
 10
-385.099
 20
840.640
 30
0.000000
  70
    32
  0
VERTEX
  8
0
  5
1A58A
 10
-385.098
 20
840.639
 30
0.000000
  70
    32
  0
VERTEX
  8
0
  5
1A58B
 10
-385.098
 20
840.639
 30
0.000000
  70
    32
  0
VERTEX
  8
0
  5
1A58C
 10
-385.097
 20
840.638
 30
0.000000
  70
    32
  0
VERTEX
  8
0
  5
1A58D
 10
-385.097
 20
840.637
 30
0.000000
  70
    32
  0
VERTEX
  8
0
  5
1A58E
 10
-385.096
 20
840.636
 30
0.000000
  70
    32
  0
VERTEX
  8
0
  5
1A58F
 10
-385.095
 20
840.636
 30
0.000000
  70
    32
  0
VERTEX
  8
0
  5
1A590
 10
-385.095
 20
840.635
 30
0.000000
  70
    32
  0
VERTEX
  8
0
  5
1A591
 10
-385.094
 20
840.634
 30
0.000000
  70
    32
  0
VERTEX
  8
0
  5
1A592
 10
-385.094
 20
840.634
 30
0.000000
  70
    32
  0
VERTEX
  8
0
  5
1A593
 10
-385.093
 20
840.633
 30
0.000000
  70
    32
  0
VERTEX
  8
0
  5
1A594
 10
-385.092
 20
840.632
 30
0.000000
  70
    32
  0
VERTEX
  8
0
  5
1A595
 10
-385.092
 20
840.632
 30
0.000000
  70
    32
  0
VERTEX
  8
0
  5
1A596
 10
-385.091
 20
840.631
 30
0.000000
  70
    32
  0
VERTEX
  8
0
  5
1A597
 10
-385.090
 20
840.631
 30
0.000000
  70
    32
  0
VERTEX
  8
0
  5
1A598
 10
-385.090
 20
840.630
 30
0.000000
  70
    32
  0
VERTEX
  8
0
  5
1A599
 10
-385.089
 20
840.630
 30
0.000000
  70
    32
  0
VERTEX
  8
0
  5
1A59A
 10
-385.088
 20
840.629
 30
0.000000
  70
    32
  0
VERTEX
  8
0
  5
1A59B
 10
-385.087
 20
840.629
 30
0.000000
  70
    32
  0
VERTEX
  8
0
  5
1A59C
 10
-385.087
 20
840.628
 30
0.000000
  70
    32
  0
VERTEX
  8
0
  5
1A59D
 10
-385.086
 20
840.628
 30
0.000000
  70
    32
  0
VERTEX
  8
0
  5
1A59E
 10
-385.085
 20
840.627
 30
0.000000
  70
    32
  0
VERTEX
  8
0
  5
1A59F
 10
-385.084
 20
840.627
 30
0.000000
  70
    32
  0
VERTEX
  8
0
  5
1A5A0
 10
-385.083
 20
840.626
 30
0.000000
  70
    32
  0
VERTEX
  8
0
  5
1A5A1
 10
-385.083
 20
840.626
 30
0.000000
  70
    32
  0
VERTEX
  8
0
  5
1A5A2
 10
-385.082
 20
840.626
 30
0.000000
  70
    32
  0
VERTEX
  8
0
  5
1A5A3
 10
-385.081
 20
840.625
 30
0.000000
  70
    32
  0
VERTEX
  8
0
  5
1A5A4
 10
-385.080
 20
840.625
 30
0.000000
  70
    32
  0
VERTEX
  8
0
  5
1A5A5
 10
-385.079
 20
840.624
 30
0.000000
  70
    32
  0
VERTEX
  8
0
  5
1A5A6
 10
-385.079
 20
840.624
 30
0.000000
  70
    32
  0
VERTEX
  8
0
  5
1A5A7
 10
-385.078
 20
840.624
 30
0.000000
  70
    32
  0
VERTEX
  8
0
  5
1A5A8
 10
-385.077
 20
840.623
 30
0.000000
  70
    32
  0
VERTEX
  8
0
  5
1A5A9
 10
-385.076
 20
840.623
 30
0.000000
  70
    32
  0
VERTEX
  8
0
  5
1A5AA
 10
-385.075
 20
840.623
 30
0.000000
  70
    32
  0
VERTEX
  8
0
  5
1A5AB
 10
-385.074
 20
840.622
 30
0.000000
  70
    32
  0
VERTEX
  8
0
  5
1A5AC
 10
-385.073
 20
840.622
 30
0.000000
  70
    32
  0
VERTEX
  8
0
  5
1A5AD
 10
-385.073
 20
840.622
 30
0.000000
  70
    32
  0
VERTEX
  8
0
  5
1A5AE
 10
-385.072
 20
840.621
 30
0.000000
  70
    32
  0
VERTEX
  8
0
  5
1A5AF
 10
-385.071
 20
840.621
 30
0.000000
  70
    32
  0
VERTEX
  8
0
  5
1A5B0
 10
-385.070
 20
840.621
 30
0.000000
  70
    32
  0
VERTEX
  8
0
  5
1A5B1
 10
-385.069
 20
840.620
 30
0.000000
  70
    32
  0
VERTEX
  8
0
  5
1A5B2
 10
-385.068
 20
840.620
 30
0.000000
  70
    32
  0
VERTEX
  8
0
  5
1A5B3
 10
-385.067
 20
840.619
 30
0.000000
  70
    32
  0
VERTEX
  8
0
  5
1A5B4
 10
-385.066
 20
840.619
 30
0.000000
  70
    32
  0
VERTEX
  8
0
  5
1A5B5
 10
-385.066
 20
840.619
 30
0.000000
  70
    32
  0
VERTEX
  8
0
  5
1A5B6
 10
-385.065
 20
840.618
 30
0.000000
  70
    32
  0
VERTEX
  8
0
  5
1A5B7
 10
-385.064
 20
840.618
 30
0.000000
  70
    32
  0
VERTEX
  8
0
  5
1A5B8
 10
-385.063
 20
840.618
 30
0.000000
  70
    32
  0
VERTEX
  8
0
  5
1A5B9
 10
-385.062
 20
840.617
 30
0.000000
  70
    32
  0
VERTEX
  8
0
  5
1A5BA
 10
-385.061
 20
840.617
 30
0.000000
  70
    32
  0
VERTEX
  8
0
  5
1A5BB
 10
-385.061
 20
840.616
 30
0.000000
  70
    32
  0
VERTEX
  8
0
  5
1A5BC
 10
-385.060
 20
840.616
 30
0.000000
  70
    32
  0
VERTEX
  8
0
  5
1A5BD
 10
-385.059
 20
840.616
 30
0.000000
  70
    32
  0
VERTEX
  8
0
  5
1A5BE
 10
-385.058
 20
840.615
 30
0.000000
  70
    32
  0
VERTEX
  8
0
  5
1A5BF
 10
-385.057
 20
840.615
 30
0.000000
  70
    32
  0
VERTEX
  8
0
  5
1A5C0
 10
-385.056
 20
840.614
 30
0.000000
  70
    32
  0
VERTEX
  8
0
  5
1A5C1
 10
-385.056
 20
840.614
 30
0.000000
  70
    32
  0
VERTEX
  8
0
  5
1A5C2
 10
-385.055
 20
840.613
 30
0.000000
  70
    32
  0
VERTEX
  8
0
  5
1A5C3
 10
-385.054
 20
840.613
 30
0.000000
  70
    32
  0
VERTEX
  8
0
  5
1A5C4
 10
-385.053
 20
840.612
 30
0.000000
  70
    32
  0
VERTEX
  8
0
  5
1A5C5
 10
-385.052
 20
840.612
 30
0.000000
  70
    32
  0
VERTEX
  8
0
  5
1A5C6
 10
-385.052
 20
840.611
 30
0.000000
  70
    32
  0
VERTEX
  8
0
  5
1A5C7
 10
-385.051
 20
840.611
 30
0.000000
  70
    32
  0
VERTEX
  8
0
  5
1A5C8
 10
-385.050
 20
840.610
 30
0.000000
  70
    32
  0
VERTEX
  8
0
  5
1A5C9
 10
-385.049
 20
840.610
 30
0.000000
  70
    32
  0
VERTEX
  8
0
  5
1A5CA
 10
-385.049
 20
840.609
 30
0.000000
  70
    32
  0
VERTEX
  8
0
  5
1A5CB
 10
-385.048
 20
840.609
 30
0.000000
  70
    32
  0
VERTEX
  8
0
  5
1A5CC
 10
-385.047
 20
840.608
 30
0.000000
  70
    32
  0
VERTEX
  8
0
  5
1A5CD
 10
-385.046
 20
840.608
 30
0.000000
  70
    32
  0
VERTEX
  8
0
  5
1A5CE
 10
-385.046
 20
840.607
 30
0.000000
  70
    32
  0
VERTEX
  8
0
  5
1A5CF
 10
-385.045
 20
840.606
 30
0.000000
  70
    32
  0
VERTEX
  8
0
  5
1A5D0
 10
-385.044
 20
840.606
 30
0.000000
  70
    32
  0
VERTEX
  8
0
  5
1A5D1
 10
-385.044
 20
840.605
 30
0.000000
  70
    32
  0
VERTEX
  8
0
  5
1A5D2
 10
-385.043
 20
840.605
 30
0.000000
  70
    32
  0
VERTEX
  8
0
  5
1A5D3
 10
-385.042
 20
840.604
 30
0.000000
  70
    32
  0
VERTEX
  8
0
  5
1A5D4
 10
-385.041
 20
840.603
 30
0.000000
  70
    32
  0
VERTEX
  8
0
  5
1A5D5
 10
-385.041
 20
840.603
 30
0.000000
  70
    32
  0
VERTEX
  8
0
  5
1A5D6
 10
-385.040
 20
840.602
 30
0.000000
  70
    32
  0
VERTEX
  8
0
  5
1A5D7
 10
-385.039
 20
840.602
 30
0.000000
  70
    32
  0
VERTEX
  8
0
  5
1A5D8
 10
-385.039
 20
840.601
 30
0.000000
  70
    32
  0
VERTEX
  8
0
  5
1A5D9
 10
-385.038
 20
840.600
 30
0.000000
  70
    32
  0
VERTEX
  8
0
  5
1A5DA
 10
-385.037
 20
840.600
 30
0.000000
  70
    32
  0
VERTEX
  8
0
  5
1A5DB
 10
-385.037
 20
840.599
 30
0.000000
  70
    32
  0
VERTEX
  8
0
  5
1A5DC
 10
-385.036
 20
840.598
 30
0.000000
  70
    32
  0
VERTEX
  8
0
  5
1A5DD
 10
-385.036
 20
840.598
 30
0.000000
  70
    32
  0
VERTEX
  8
0
  5
1A5DE
 10
-385.035
 20
840.597
 30
0.000000
  70
    32
  0
VERTEX
  8
0
  5
1A5DF
 10
-385.034
 20
840.596
 30
0.000000
  70
    32
  0
VERTEX
  8
0
  5
1A5E0
 10
-385.034
 20
840.596
 30
0.000000
  70
    32
  0
VERTEX
  8
0
  5
1A5E1
 10
-385.033
 20
840.595
 30
0.000000
  70
    32
  0
VERTEX
  8
0
  5
1A5E2
 10
-385.033
 20
840.594
 30
0.000000
  70
    32
  0
VERTEX
  8
0
  5
1A5E3
 10
-385.032
 20
840.594
 30
0.000000
  70
    32
  0
VERTEX
  8
0
  5
1A5E4
 10
-385.031
 20
840.593
 30
0.000000
  70
    32
  0
VERTEX
  8
0
  5
1A5E5
 10
-385.031
 20
840.592
 30
0.000000
  70
    32
  0
VERTEX
  8
0
  5
1A5E6
 10
-385.030
 20
840.591
 30
0.000000
  70
    32
  0
VERTEX
  8
0
  5
1A5E7
 10
-385.030
 20
840.591
 30
0.000000
  70
    32
  0
VERTEX
  8
0
  5
1A5E8
 10
-385.029
 20
840.590
 30
0.000000
  70
    32
  0
VERTEX
  8
0
  5
1A5E9
 10
-385.029
 20
840.589
 30
0.000000
  70
    32
  0
VERTEX
  8
0
  5
1A5EA
 10
-385.028
 20
840.588
 30
0.000000
  70
    32
  0
VERTEX
  8
0
  5
1A5EB
 10
-385.028
 20
840.588
 30
0.000000
  70
    32
  0
VERTEX
  8
0
  5
1A5EC
 10
-385.027
 20
840.587
 30
0.000000
  70
    32
  0
VERTEX
  8
0
  5
1A5ED
 10
-385.027
 20
840.586
 30
0.000000
  70
    32
  0
VERTEX
  8
0
  5
1A5EE
 10
-385.026
 20
840.585
 30
0.000000
  70
    32
  0
VERTEX
  8
0
  5
1A5EF
 10
-385.026
 20
840.584
 30
0.000000
  70
    32
  0
VERTEX
  8
0
  5
1A5F0
 10
-385.025
 20
840.584
 30
0.000000
  70
    32
  0
VERTEX
  8
0
  5
1A5F1
 10
-385.025
 20
840.583
 30
0.000000
  70
    32
  0
VERTEX
  8
0
  5
1A5F2
 10
-385.024
 20
840.582
 30
0.000000
  70
    32
  0
VERTEX
  8
0
  5
1A5F3
 10
-385.024
 20
840.581
 30
0.000000
  70
    32
  0
VERTEX
  8
0
  5
1A5F4
 10
-385.023
 20
840.580
 30
0.000000
  70
    32
  0
VERTEX
  8
0
  5
1A5F5
 10
-385.023
 20
840.580
 30
0.000000
  70
    32
  0
VERTEX
  8
0
  5
1A5F6
 10
-385.023
 20
840.579
 30
0.000000
  70
    32
  0
VERTEX
  8
0
  5
1A5F7
 10
-385.022
 20
840.578
 30
0.000000
  70
    32
  0
VERTEX
  8
0
  5
1A5F8
 10
-385.022
 20
840.577
 30
0.000000
  70
    32
  0
VERTEX
  8
0
  5
1A5F9
 10
-385.022
 20
840.576
 30
0.000000
  70
    32
  0
VERTEX
  8
0
  5
1A5FA
 10
-385.021
 20
840.575
 30
0.000000
  70
    32
  0
VERTEX
  8
0
  5
1A5FB
 10
-385.021
 20
840.575
 30
0.000000
  70
    32
  0
VERTEX
  8
0
  5
1A5FC
 10
-385.020
 20
840.574
 30
0.000000
  70
    32
  0
VERTEX
  8
0
  5
1A5FD
 10
-385.020
 20
840.573
 30
0.000000
  70
    32
  0
VERTEX
  8
0
  5
1A5FE
 10
-385.020
 20
840.572
 30
0.000000
  70
    32
  0
VERTEX
  8
0
  5
1A5FF
 10
-385.019
 20
840.571
 30
0.000000
  70
    32
  0
VERTEX
  8
0
  5
1A600
 10
-385.019
 20
840.570
 30
0.000000
  70
    32
  0
VERTEX
  8
0
  5
1A601
 10
-385.019
 20
840.569
 30
0.000000
  70
    32
  0
VERTEX
  8
0
  5
1A602
 10
-385.019
 20
840.569
 30
0.000000
  70
    32
  0
VERTEX
  8
0
  5
1A603
 10
-385.018
 20
840.568
 30
0.000000
  70
    32
  0
VERTEX
  8
0
  5
1A604
 10
-385.018
 20
840.567
 30
0.000000
  70
    32
  0
VERTEX
  8
0
  5
1A605
 10
-385.018
 20
840.566
 30
0.000000
  70
    32
  0
VERTEX
  8
0
  5
1A606
 10
-385.017
 20
840.565
 30
0.000000
  70
    32
  0
VERTEX
  8
0
  5
1A607
 10
-385.017
 20
840.564
 30
0.000000
  70
    32
  0
VERTEX
  8
0
  5
1A608
 10
-385.017
 20
840.563
 30
0.000000
  70
    32
  0
VERTEX
  8
0
  5
1A609
 10
-385.017
 20
840.562
 30
0.000000
  70
    32
  0
VERTEX
  8
0
  5
1A60A
 10
-385.017
 20
840.561
 30
0.000000
  70
    32
  0
VERTEX
  8
0
  5
1A60B
 10
-385.016
 20
840.561
 30
0.000000
  70
    32
  0
VERTEX
  8
0
  5
1A60C
 10
-385.016
 20
840.560
 30
0.000000
  70
    32
  0
VERTEX
  8
0
  5
1A60D
 10
-385.016
 20
840.559
 30
0.000000
  70
    32
  0
VERTEX
  8
0
  5
1A60E
 10
-385.016
 20
840.558
 30
0.000000
  70
    32
  0
VERTEX
  8
0
  5
1A60F
 10
-385.016
 20
840.557
 30
0.000000
  70
    32
  0
VERTEX
  8
0
  5
1A610
 10
-385.015
 20
840.556
 30
0.000000
  70
    32
  0
VERTEX
  8
0
  5
1A611
 10
-385.015
 20
840.555
 30
0.000000
  70
    32
  0
VERTEX
  8
0
  5
1A612
 10
-385.015
 20
840.554
 30
0.000000
  70
    32
  0
VERTEX
  8
0
  5
1A613
 10
-385.015
 20
840.553
 30
0.000000
  70
    32
  0
VERTEX
  8
0
  5
1A614
 10
-385.015
 20
840.553
 30
0.000000
  70
    32
  0
VERTEX
  8
0
  5
1A615
 10
-385.015
 20
840.552
 30
0.000000
  70
    32
  0
VERTEX
  8
0
  5
1A616
 10
-385.015
 20
840.551
 30
0.000000
  70
    32
  0
VERTEX
  8
0
  5
1A617
 10
-385.015
 20
840.550
 30
0.000000
  70
    32
  0
VERTEX
  8
0
  5
1A618
 10
-385.015
 20
840.549
 30
0.000000
  70
    32
  0
VERTEX
  8
0
  5
1A619
 10
-385.014
 20
840.548
 30
0.000000
  70
    32
  0
VERTEX
  8
0
  5
1A61A
 10
-385.014
 20
840.547
 30
0.000000
  70
    32
  0
VERTEX
  8
0
  5
1A61B
 10
-385.014
 20
840.546
 30
0.000000
  70
    32
  0
VERTEX
  8
0
  5
1A61C
 10
-385.014
 20
840.545
 30
0.000000
  70
    32
  0
VERTEX
  8
0
  5
1A61D
 10
-385.014
 20
840.544
 30
0.000000
  70
    32
  0
VERTEX
  8
0
  5
1A61E
 10
-385.014
 20
840.543
 30
0.000000
  70
    32
  0
VERTEX
  8
0
  5
1A61F
 10
-385.014
 20
840.543
 30
0.000000
  70
    32
  0
VERTEX
  8
0
  5
1A620
 10
-385.014
 20
840.542
 30
0.000000
  70
    32
  0
VERTEX
  8
0
  5
1A621
 10
-385.014
 20
840.541
 30
0.000000
  70
    32
  0
VERTEX
  8
0
  5
1A622
 10
-385.014
 20
840.540
 30
0.000000
  70
    32
  0
VERTEX
  8
0
  5
1A623
 10
-385.014
 20
840.539
 30
0.000000
  70
    32
  0
VERTEX
  8
0
  5
1A624
 10
-385.014
 20
840.538
 30
0.000000
  70
    32
  0
VERTEX
  8
0
  5
1A625
 10
-385.014
 20
840.537
 30
0.000000
  70
    32
  0
VERTEX
  8
0
  5
1A626
 10
-385.014
 20
840.536
 30
0.000000
  70
    32
  0
VERTEX
  8
0
  5
1A627
 10
-385.014
 20
840.535
 30
0.000000
  70
    32
  0
VERTEX
  8
0
  5
1A628
 10
-385.014
 20
840.534
 30
0.000000
  70
    32
  0
VERTEX
  8
0
  5
1A629
 10
-385.014
 20
840.533
 30
0.000000
  70
    32
  0
VERTEX
  8
0
  5
1A62A
 10
-385.015
 20
840.532
 30
0.000000
  70
    32
  0
VERTEX
  8
0
  5
1A62B
 10
-385.015
 20
840.531
 30
0.000000
  70
    32
  0
VERTEX
  8
0
  5
1A62C
 10
-385.015
 20
840.531
 30
0.000000
  70
    32
  0
VERTEX
  8
0
  5
1A62D
 10
-385.015
 20
840.530
 30
0.000000
  70
    32
  0
VERTEX
  8
0
  5
1A62E
 10
-385.015
 20
840.529
 30
0.000000
  70
    32
  0
VERTEX
  8
0
  5
1A62F
 10
-385.015
 20
840.528
 30
0.000000
  70
    32
  0
VERTEX
  8
0
  5
1A630
 10
-385.015
 20
840.527
 30
0.000000
  70
    32
  0
VERTEX
  8
0
  5
1A631
 10
-385.015
 20
840.526
 30
0.000000
  70
    32
  0
VERTEX
  8
0
  5
1A632
 10
-385.015
 20
840.525
 30
0.000000
  70
    32
  0
VERTEX
  8
0
  5
1A633
 10
-385.016
 20
840.524
 30
0.000000
  70
    32
  0
VERTEX
  8
0
  5
1A634
 10
-385.016
 20
840.523
 30
0.000000
  70
    32
  0
VERTEX
  8
0
  5
1A635
 10
-385.016
 20
840.522
 30
0.000000
  70
    32
  0
VERTEX
  8
0
  5
1A636
 10
-385.016
 20
840.521
 30
0.000000
  70
    32
  0
VERTEX
  8
0
  5
1A637
 10
-385.016
 20
840.520
 30
0.000000
  70
    32
  0
VERTEX
  8
0
  5
1A638
 10
-385.016
 20
840.519
 30
0.000000
  70
    32
  0
VERTEX
  8
0
  5
1A639
 10
-385.017
 20
840.518
 30
0.000000
  70
    32
  0
VERTEX
  8
0
  5
1A63A
 10
-385.017
 20
840.517
 30
0.000000
  70
    32
  0
VERTEX
  8
0
  5
1A63B
 10
-385.017
 20
840.517
 30
0.000000
  70
    32
  0
VERTEX
  8
0
  5
1A63C
 10
-385.017
 20
840.516
 30
0.000000
  70
    32
  0
VERTEX
  8
0
  5
1A63D
 10
-385.018
 20
840.515
 30
0.000000
  70
    32
  0
VERTEX
  8
0
  5
1A63E
 10
-385.018
 20
840.514
 30
0.000000
  70
    32
  0
VERTEX
  8
0
  5
1A63F
 10
-385.018
 20
840.513
 30
0.000000
  70
    32
  0
VERTEX
  8
0
  5
1A640
 10
-385.018
 20
840.512
 30
0.000000
  70
    32
  0
VERTEX
  8
0
  5
1A641
 10
-385.019
 20
840.511
 30
0.000000
  70
    32
  0
VERTEX
  8
0
  5
1A642
 10
-385.019
 20
840.510
 30
0.000000
  70
    32
  0
VERTEX
  8
0
  5
1A643
 10
-385.019
 20
840.509
 30
0.000000
  70
    32
  0
VERTEX
  8
0
  5
1A644
 10
-385.020
 20
840.508
 30
0.000000
  70
    32
  0
VERTEX
  8
0
  5
1A645
 10
-385.020
 20
840.508
 30
0.000000
  70
    32
  0
VERTEX
  8
0
  5
1A646
 10
-385.020
 20
840.507
 30
0.000000
  70
    32
  0
VERTEX
  8
0
  5
1A647
 10
-385.021
 20
840.506
 30
0.000000
  70
    32
  0
VERTEX
  8
0
  5
1A648
 10
-385.021
 20
840.505
 30
0.000000
  70
    32
  0
VERTEX
  8
0
  5
1A649
 10
-385.021
 20
840.504
 30
0.000000
  70
    32
  0
VERTEX
  8
0
  5
1A64A
 10
-385.022
 20
840.503
 30
0.000000
  70
    32
  0
VERTEX
  8
0
  5
1A64B
 10
-385.022
 20
840.502
 30
0.000000
  70
    32
  0
VERTEX
  8
0
  5
1A64C
 10
-385.022
 20
840.502
 30
0.000000
  70
    32
  0
VERTEX
  8
0
  5
1A64D
 10
-385.023
 20
840.501
 30
0.000000
  70
    32
  0
VERTEX
  8
0
  5
1A64E
 10
-385.023
 20
840.500
 30
0.000000
  70
    32
  0
VERTEX
  8
0
  5
1A64F
 10
-385.024
 20
840.499
 30
0.000000
  70
    32
  0
VERTEX
  8
0
  5
1A650
 10
-385.024
 20
840.498
 30
0.000000
  70
    32
  0
VERTEX
  8
0
  5
1A651
 10
-385.025
 20
840.498
 30
0.000000
  70
    32
  0
VERTEX
  8
0
  5
1A652
 10
-385.025
 20
840.497
 30
0.000000
  70
    32
  0
VERTEX
  8
0
  5
1A653
 10
-385.026
 20
840.496
 30
0.000000
  70
    32
  0
VERTEX
  8
0
  5
1A654
 10
-385.026
 20
840.495
 30
0.000000
  70
    32
  0
VERTEX
  8
0
  5
1A655
 10
-385.027
 20
840.495
 30
0.000000
  70
    32
  0
VERTEX
  8
0
  5
1A656
 10
-385.027
 20
840.494
 30
0.000000
  70
    32
  0
VERTEX
  8
0
  5
1A657
 10
-385.028
 20
840.493
 30
0.000000
  70
    32
  0
VERTEX
  8
0
  5
1A658
 10
-385.028
 20
840.492
 30
0.000000
  70
    32
  0
VERTEX
  8
0
  5
1A659
 10
-385.029
 20
840.492
 30
0.000000
  70
    32
  0
VERTEX
  8
0
  5
1A65A
 10
-385.029
 20
840.491
 30
0.000000
  70
    32
  0
VERTEX
  8
0
  5
1A65B
 10
-385.030
 20
840.490
 30
0.000000
  70
    32
  0
VERTEX
  8
0
  5
1A65C
 10
-385.030
 20
840.490
 30
0.000000
  70
    32
  0
VERTEX
  8
0
  5
1A65D
 10
-385.031
 20
840.489
 30
0.000000
  70
    32
  0
VERTEX
  8
0
  5
1A65E
 10
-385.032
 20
840.488
 30
0.000000
  70
    32
  0
VERTEX
  8
0
  5
1A65F
 10
-385.032
 20
840.488
 30
0.000000
  70
    32
  0
VERTEX
  8
0
  5
1A660
 10
-385.033
 20
840.487
 30
0.000000
  70
    32
  0
VERTEX
  8
0
  5
1A661
 10
-385.034
 20
840.487
 30
0.000000
  70
    32
  0
VERTEX
  8
0
  5
1A662
 10
-385.034
 20
840.486
 30
0.000000
  70
    32
  0
VERTEX
  8
0
  5
1A663
 10
-385.035
 20
840.485
 30
0.000000
  70
    32
  0
VERTEX
  8
0
  5
1A664
 10
-385.036
 20
840.485
 30
0.000000
  70
    32
  0
VERTEX
  8
0
  5
1A665
 10
-385.036
 20
840.484
 30
0.000000
  70
    32
  0
VERTEX
  8
0
  5
1A666
 10
-385.037
 20
840.484
 30
0.000000
  70
    32
  0
VERTEX
  8
0
  5
1A667
 10
-385.038
 20
840.483
 30
0.000000
  70
    32
  0
VERTEX
  8
0
  5
1A668
 10
-385.038
 20
840.483
 30
0.000000
  70
    32
  0
VERTEX
  8
0
  5
1A669
 10
-385.039
 20
840.482
 30
0.000000
  70
    32
  0
VERTEX
  8
0
  5
1A66A
 10
-385.040
 20
840.482
 30
0.000000
  70
    32
  0
VERTEX
  8
0
  5
1A66B
 10
-385.041
 20
840.481
 30
0.000000
  70
    32
  0
VERTEX
  8
0
  5
1A66C
 10
-385.041
 20
840.481
 30
0.000000
  70
    32
  0
VERTEX
  8
0
  5
1A66D
 10
-385.042
 20
840.480
 30
0.000000
  70
    32
  0
VERTEX
  8
0
  5
1A66E
 10
-385.043
 20
840.480
 30
0.000000
  70
    32
  0
VERTEX
  8
0
  5
1A66F
 10
-385.044
 20
840.479
 30
0.000000
  70
    32
  0
VERTEX
  8
0
  5
1A670
 10
-385.044
 20
840.479
 30
0.000000
  70
    32
  0
VERTEX
  8
0
  5
1A671
 10
-385.045
 20
840.478
 30
0.000000
  70
    32
  0
VERTEX
  8
0
  5
1A672
 10
-385.046
 20
840.478
 30
0.000000
  70
    32
  0
VERTEX
  8
0
  5
1A673
 10
-385.047
 20
840.477
 30
0.000000
  70
    32
  0
VERTEX
  8
0
  5
1A674
 10
-385.048
 20
840.477
 30
0.000000
  70
    32
  0
VERTEX
  8
0
  5
1A675
 10
-385.048
 20
840.476
 30
0.000000
  70
    32
  0
VERTEX
  8
0
  5
1A676
 10
-385.049
 20
840.476
 30
0.000000
  70
    32
  0
VERTEX
  8
0
  5
1A677
 10
-385.050
 20
840.475
 30
0.000000
  70
    32
  0
VERTEX
  8
0
  5
1A678
 10
-385.051
 20
840.475
 30
0.000000
  70
    32
  0
VERTEX
  8
0
  5
1A679
 10
-385.052
 20
840.475
 30
0.000000
  70
    32
  0
VERTEX
  8
0
  5
1A67A
 10
-385.052
 20
840.474
 30
0.000000
  70
    32
  0
VERTEX
  8
0
  5
1A67B
 10
-385.053
 20
840.474
 30
0.000000
  70
    32
  0
VERTEX
  8
0
  5
1A67C
 10
-385.054
 20
840.473
 30
0.000000
  70
    32
  0
VERTEX
  8
0
  5
1A67D
 10
-385.055
 20
840.473
 30
0.000000
  70
    32
  0
VERTEX
  8
0
  5
1A67E
 10
-385.056
 20
840.472
 30
0.000000
  70
    32
  0
VERTEX
  8
0
  5
1A67F
 10
-385.057
 20
840.472
 30
0.000000
  70
    32
  0
VERTEX
  8
0
  5
1A680
 10
-385.058
 20
840.472
 30
0.000000
  70
    32
  0
VERTEX
  8
0
  5
1A681
 10
-385.058
 20
840.471
 30
0.000000
  70
    32
  0
VERTEX
  8
0
  5
1A682
 10
-385.059
 20
840.471
 30
0.000000
  70
    32
  0
VERTEX
  8
0
  5
1A683
 10
-385.060
 20
840.470
 30
0.000000
  70
    32
  0
VERTEX
  8
0
  5
1A684
 10
-385.061
 20
840.470
 30
0.000000
  70
    32
  0
VERTEX
  8
0
  5
1A685
 10
-385.062
 20
840.470
 30
0.000000
  70
    32
  0
VERTEX
  8
0
  5
1A686
 10
-385.063
 20
840.469
 30
0.000000
  70
    32
  0
VERTEX
  8
0
  5
1A687
 10
-385.063
 20
840.469
 30
0.000000
  70
    32
  0
VERTEX
  8
0
  5
1A688
 10
-385.064
 20
840.468
 30
0.000000
  70
    32
  0
VERTEX
  8
0
  5
1A689
 10
-385.065
 20
840.468
 30
0.000000
  70
    32
  0
VERTEX
  8
0
  5
1A68A
 10
-385.066
 20
840.468
 30
0.000000
  70
    32
  0
VERTEX
  8
0
  5
1A68B
 10
-385.067
 20
840.467
 30
0.000000
  70
    32
  0
VERTEX
  8
0
  5
1A68C
 10
-385.068
 20
840.467
 30
0.000000
  70
    32
  0
VERTEX
  8
0
  5
1A68D
 10
-385.069
 20
840.466
 30
0.000000
  70
    32
  0
VERTEX
  8
0
  5
1A68E
 10
-385.069
 20
840.466
 30
0.000000
  70
    32
  0
VERTEX
  8
0
  5
1A68F
 10
-385.070
 20
840.465
 30
0.000000
  70
    32
  0
VERTEX
  8
0
  5
1A690
 10
-385.071
 20
840.465
 30
0.000000
  70
    32
  0
VERTEX
  8
0
  5
1A691
 10
-385.072
 20
840.465
 30
0.000000
  70
    32
  0
VERTEX
  8
0
  5
1A692
 10
-385.073
 20
840.464
 30
0.000000
  70
    32
  0
VERTEX
  8
0
  5
1A693
 10
-385.074
 20
840.464
 30
0.000000
  70
    32
  0
VERTEX
  8
0
  5
1A694
 10
-385.074
 20
840.463
 30
0.000000
  70
    32
  0
VERTEX
  8
0
  5
1A695
 10
-385.075
 20
840.463
 30
0.000000
  70
    32
  0
VERTEX
  8
0
  5
1A696
 10
-385.076
 20
840.462
 30
0.000000
  70
    32
  0
VERTEX
  8
0
  5
1A697
 10
-385.077
 20
840.462
 30
0.000000
  70
    32
  0
VERTEX
  8
0
  5
1A698
 10
-385.078
 20
840.462
 30
0.000000
  70
    32
  0
VERTEX
  8
0
  5
1A699
 10
-385.078
 20
840.461
 30
0.000000
  70
    32
  0
VERTEX
  8
0
  5
1A69A
 10
-385.079
 20
840.461
 30
0.000000
  70
    32
  0
VERTEX
  8
0
  5
1A69B
 10
-385.080
 20
840.460
 30
0.000000
  70
    32
  0
VERTEX
  8
0
  5
1A69C
 10
-385.081
 20
840.460
 30
0.000000
  70
    32
  0
VERTEX
  8
0
  5
1A69D
 10
-385.082
 20
840.459
 30
0.000000
  70
    32
  0
VERTEX
  8
0
  5
1A69E
 10
-385.082
 20
840.459
 30
0.000000
  70
    32
  0
VERTEX
  8
0
  5
1A69F
 10
-385.083
 20
840.458
 30
0.000000
  70
    32
  0
VERTEX
  8
0
  5
1A6A0
 10
-385.084
 20
840.458
 30
0.000000
  70
    32
  0
VERTEX
  8
0
  5
1A6A1
 10
-385.085
 20
840.457
 30
0.000000
  70
    32
  0
VERTEX
  8
0
  5
1A6A2
 10
-385.085
 20
840.457
 30
0.000000
  70
    32
  0
VERTEX
  8
0
  5
1A6A3
 10
-385.086
 20
840.456
 30
0.000000
  70
    32
  0
VERTEX
  8
0
  5
1A6A4
 10
-385.087
 20
840.456
 30
0.000000
  70
    32
  0
VERTEX
  8
0
  5
1A6A5
 10
-385.088
 20
840.455
 30
0.000000
  70
    32
  0
VERTEX
  8
0
  5
1A6A6
 10
-385.088
 20
840.454
 30
0.000000
  70
    32
  0
VERTEX
  8
0
  5
1A6A7
 10
-385.089
 20
840.454
 30
0.000000
  70
    32
  0
VERTEX
  8
0
  5
1A6A8
 10
-385.090
 20
840.453
 30
0.000000
  70
    32
  0
VERTEX
  8
0
  5
1A6A9
 10
-385.090
 20
840.453
 30
0.000000
  70
    32
  0
VERTEX
  8
0
  5
1A6AA
 10
-385.091
 20
840.452
 30
0.000000
  70
    32
  0
VERTEX
  8
0
  5
1A6AB
 10
-385.092
 20
840.452
 30
0.000000
  70
    32
  0
VERTEX
  8
0
  5
1A6AC
 10
-385.093
 20
840.451
 30
0.000000
  70
    32
  0
VERTEX
  8
0
  5
1A6AD
 10
-385.093
 20
840.450
 30
0.000000
  70
    32
  0
VERTEX
  8
0
  5
1A6AE
 10
-385.094
 20
840.450
 30
0.000000
  70
    32
  0
VERTEX
  8
0
  5
1A6AF
 10
-385.094
 20
840.449
 30
0.000000
  70
    32
  0
VERTEX
  8
0
  5
1A6B0
 10
-385.095
 20
840.448
 30
0.000000
  70
    32
  0
VERTEX
  8
0
  5
1A6B1
 10
-385.096
 20
840.448
 30
0.000000
  70
    32
  0
VERTEX
  8
0
  5
1A6B2
 10
-385.096
 20
840.447
 30
0.000000
  70
    32
  0
VERTEX
  8
0
  5
1A6B3
 10
-385.097
 20
840.446
 30
0.000000
  70
    32
  0
VERTEX
  8
0
  5
1A6B4
 10
-385.097
 20
840.446
 30
0.000000
  70
    32
  0
VERTEX
  8
0
  5
1A6B5
 10
-385.098
 20
840.445
 30
0.000000
  70
    32
  0
VERTEX
  8
0
  5
1A6B6
 10
-385.099
 20
840.444
 30
0.000000
  70
    32
  0
VERTEX
  8
0
  5
1A6B7
 10
-385.099
 20
840.443
 30
0.000000
  70
    32
  0
VERTEX
  8
0
  5
1A6B8
 10
-385.100
 20
840.443
 30
0.000000
  70
    32
  0
VERTEX
  8
0
  5
1A6B9
 10
-385.100
 20
840.442
 30
0.000000
  70
    32
  0
VERTEX
  8
0
  5
1A6BA
 10
-385.101
 20
840.441
 30
0.000000
  70
    32
  0
VERTEX
  8
0
  5
1A6BB
 10
-385.101
 20
840.440
 30
0.000000
  70
    32
  0
VERTEX
  8
0
  5
1A6BC
 10
-385.102
 20
840.439
 30
0.000000
  70
    32
  0
VERTEX
  8
0
  5
1A6BD
 10
-385.102
 20
840.439
 30
0.000000
  70
    32
  0
VERTEX
  8
0
  5
1A6BE
 10
-385.103
 20
840.438
 30
0.000000
  70
    32
  0
VERTEX
  8
0
  5
1A6BF
 10
-385.103
 20
840.437
 30
0.000000
  70
    32
  0
VERTEX
  8
0
  5
1A6C0
 10
-385.103
 20
840.436
 30
0.000000
  70
    32
  0
VERTEX
  8
0
  5
1A6C1
 10
-385.104
 20
840.435
 30
0.000000
  70
    32
  0
VERTEX
  8
0
  5
1A6C2
 10
-385.104
 20
840.434
 30
0.000000
  70
    32
  0
VERTEX
  8
0
  5
1A6C3
 10
-385.105
 20
840.434
 30
0.000000
  70
    32
  0
VERTEX
  8
0
  5
1A6C4
 10
-385.105
 20
840.433
 30
0.000000
  70
    32
  0
VERTEX
  8
0
  5
1A6C5
 10
-385.105
 20
840.432
 30
0.000000
  70
    32
  0
VERTEX
  8
0
  5
1A6C6
 10
-385.106
 20
840.431
 30
0.000000
  70
    32
  0
VERTEX
  8
0
  5
1A6C7
 10
-385.106
 20
840.430
 30
0.000000
  70
    32
  0
VERTEX
  8
0
  5
1A6C8
 10
-385.106
 20
840.429
 30
0.000000
  70
    32
  0
VERTEX
  8
0
  5
1A6C9
 10
-385.107
 20
840.428
 30
0.000000
  70
    32
  0
VERTEX
  8
0
  5
1A6CA
 10
-385.107
 20
840.427
 30
0.000000
  70
    32
  0
VERTEX
  8
0
  5
1A6CB
 10
-385.107
 20
840.426
 30
0.000000
  70
    32
  0
VERTEX
  8
0
  5
1A6CC
 10
-385.107
 20
840.425
 30
0.000000
  70
    32
  0
VERTEX
  8
0
  5
1A6CD
 10
-385.108
 20
840.425
 30
0.000000
  70
    32
  0
VERTEX
  8
0
  5
1A6CE
 10
-385.108
 20
840.424
 30
0.000000
  70
    32
  0
VERTEX
  8
0
  5
1A6CF
 10
-385.108
 20
840.423
 30
0.000000
  70
    32
  0
VERTEX
  8
0
  5
1A6D0
 10
-385.108
 20
840.422
 30
0.000000
  70
    32
  0
VERTEX
  8
0
  5
1A6D1
 10
-385.108
 20
840.421
 30
0.000000
  70
    32
  0
VERTEX
  8
0
  5
1A6D2
 10
-385.108
 20
840.420
 30
0.000000
  70
    32
  0
VERTEX
  8
0
  5
1A6D3
 10
-385.108
 20
840.419
 30
0.000000
  70
    32
  0
VERTEX
  8
0
  5
1A6D4
 10
-385.108
 20
840.418
 30
0.000000
  70
    32
  0
VERTEX
  8
0
  5
1A6D5
 10
-385.109
 20
840.417
 30
0.000000
  70
    32
  0
VERTEX
  8
0
  5
1A6D6
 10
-385.109
 20
840.416
 30
0.000000
  70
    32
  0
VERTEX
  8
0
  5
1A6D7
 10
-385.109
 20
840.415
 30
0.000000
  70
    32
  0
VERTEX
  8
0
  5
1A6D8
 10
-385.109
 20
840.414
 30
0.000000
  70
    32
  0
VERTEX
  8
0
  5
1A6D9
 10
-385.109
 20
840.413
 30
0.000000
  70
    32
  0
VERTEX
  8
0
  5
1A6DA
 10
-385.109
 20
840.412
 30
0.000000
  70
    32
  0
SEQEND
  8
0
  5
1A6DB
  0
ARC
  5
19EE6
  8
0
 10
-384.95619879675712
 20
839.62950939933535
 30
0.0
 40
0.2894299664976946
 50
97.088405745370636
 51
171.8810995506193
  0
ARC
  5
19EE7
  8
0
 10
-387.6159256275422
 20
839.62950939933535
 30
0.0
 40
0.2894299664976946
 50
8.1189004493807087
 51
82.911594254629335
  0
POLYLINE
  8
0
  5
1A6DC
  66
     1
 10
0.000000
 20
0.000000
 30
0.000000
  70
     8
  0
VERTEX
  8
0
  5
1A6DD
 10
-387.580
 20
840.748
 30
0.000000
  70
    32
  0
VERTEX
  8
0
  5
1A6DE
 10
-387.579
 20
840.748
 30
0.000000
  70
    32
  0
VERTEX
  8
0
  5
1A6DF
 10
-387.578
 20
840.748
 30
0.000000
  70
    32
  0
VERTEX
  8
0
  5
1A6E0
 10
-387.577
 20
840.747
 30
0.000000
  70
    32
  0
VERTEX
  8
0
  5
1A6E1
 10
-387.577
 20
840.747
 30
0.000000
  70
    32
  0
VERTEX
  8
0
  5
1A6E2
 10
-387.576
 20
840.747
 30
0.000000
  70
    32
  0
VERTEX
  8
0
  5
1A6E3
 10
-387.575
 20
840.747
 30
0.000000
  70
    32
  0
VERTEX
  8
0
  5
1A6E4
 10
-387.574
 20
840.747
 30
0.000000
  70
    32
  0
VERTEX
  8
0
  5
1A6E5
 10
-387.573
 20
840.747
 30
0.000000
  70
    32
  0
VERTEX
  8
0
  5
1A6E6
 10
-387.572
 20
840.746
 30
0.000000
  70
    32
  0
VERTEX
  8
0
  5
1A6E7
 10
-387.571
 20
840.746
 30
0.000000
  70
    32
  0
VERTEX
  8
0
  5
1A6E8
 10
-387.570
 20
840.746
 30
0.000000
  70
    32
  0
VERTEX
  8
0
  5
1A6E9
 10
-387.569
 20
840.746
 30
0.000000
  70
    32
  0
VERTEX
  8
0
  5
1A6EA
 10
-387.569
 20
840.746
 30
0.000000
  70
    32
  0
VERTEX
  8
0
  5
1A6EB
 10
-387.568
 20
840.745
 30
0.000000
  70
    32
  0
VERTEX
  8
0
  5
1A6EC
 10
-387.567
 20
840.745
 30
0.000000
  70
    32
  0
VERTEX
  8
0
  5
1A6ED
 10
-387.566
 20
840.745
 30
0.000000
  70
    32
  0
VERTEX
  8
0
  5
1A6EE
 10
-387.565
 20
840.745
 30
0.000000
  70
    32
  0
VERTEX
  8
0
  5
1A6EF
 10
-387.564
 20
840.745
 30
0.000000
  70
    32
  0
VERTEX
  8
0
  5
1A6F0
 10
-387.563
 20
840.744
 30
0.000000
  70
    32
  0
VERTEX
  8
0
  5
1A6F1
 10
-387.562
 20
840.744
 30
0.000000
  70
    32
  0
VERTEX
  8
0
  5
1A6F2
 10
-387.561
 20
840.744
 30
0.000000
  70
    32
  0
VERTEX
  8
0
  5
1A6F3
 10
-387.561
 20
840.744
 30
0.000000
  70
    32
  0
VERTEX
  8
0
  5
1A6F4
 10
-387.560
 20
840.743
 30
0.000000
  70
    32
  0
VERTEX
  8
0
  5
1A6F5
 10
-387.559
 20
840.743
 30
0.000000
  70
    32
  0
VERTEX
  8
0
  5
1A6F6
 10
-387.558
 20
840.743
 30
0.000000
  70
    32
  0
VERTEX
  8
0
  5
1A6F7
 10
-387.557
 20
840.743
 30
0.000000
  70
    32
  0
VERTEX
  8
0
  5
1A6F8
 10
-387.556
 20
840.742
 30
0.000000
  70
    32
  0
VERTEX
  8
0
  5
1A6F9
 10
-387.555
 20
840.742
 30
0.000000
  70
    32
  0
VERTEX
  8
0
  5
1A6FA
 10
-387.554
 20
840.742
 30
0.000000
  70
    32
  0
VERTEX
  8
0
  5
1A6FB
 10
-387.554
 20
840.742
 30
0.000000
  70
    32
  0
VERTEX
  8
0
  5
1A6FC
 10
-387.553
 20
840.741
 30
0.000000
  70
    32
  0
VERTEX
  8
0
  5
1A6FD
 10
-387.552
 20
840.741
 30
0.000000
  70
    32
  0
VERTEX
  8
0
  5
1A6FE
 10
-387.551
 20
840.741
 30
0.000000
  70
    32
  0
VERTEX
  8
0
  5
1A6FF
 10
-387.550
 20
840.741
 30
0.000000
  70
    32
  0
VERTEX
  8
0
  5
1A700
 10
-387.549
 20
840.740
 30
0.000000
  70
    32
  0
VERTEX
  8
0
  5
1A701
 10
-387.548
 20
840.740
 30
0.000000
  70
    32
  0
VERTEX
  8
0
  5
1A702
 10
-387.547
 20
840.740
 30
0.000000
  70
    32
  0
VERTEX
  8
0
  5
1A703
 10
-387.547
 20
840.740
 30
0.000000
  70
    32
  0
VERTEX
  8
0
  5
1A704
 10
-387.546
 20
840.740
 30
0.000000
  70
    32
  0
VERTEX
  8
0
  5
1A705
 10
-387.545
 20
840.739
 30
0.000000
  70
    32
  0
VERTEX
  8
0
  5
1A706
 10
-387.544
 20
840.739
 30
0.000000
  70
    32
  0
VERTEX
  8
0
  5
1A707
 10
-387.543
 20
840.739
 30
0.000000
  70
    32
  0
VERTEX
  8
0
  5
1A708
 10
-387.542
 20
840.739
 30
0.000000
  70
    32
  0
VERTEX
  8
0
  5
1A709
 10
-387.541
 20
840.738
 30
0.000000
  70
    32
  0
VERTEX
  8
0
  5
1A70A
 10
-387.540
 20
840.738
 30
0.000000
  70
    32
  0
VERTEX
  8
0
  5
1A70B
 10
-387.540
 20
840.738
 30
0.000000
  70
    32
  0
VERTEX
  8
0
  5
1A70C
 10
-387.539
 20
840.738
 30
0.000000
  70
    32
  0
VERTEX
  8
0
  5
1A70D
 10
-387.538
 20
840.738
 30
0.000000
  70
    32
  0
VERTEX
  8
0
  5
1A70E
 10
-387.537
 20
840.737
 30
0.000000
  70
    32
  0
VERTEX
  8
0
  5
1A70F
 10
-387.536
 20
840.737
 30
0.000000
  70
    32
  0
VERTEX
  8
0
  5
1A710
 10
-387.535
 20
840.737
 30
0.000000
  70
    32
  0
VERTEX
  8
0
  5
1A711
 10
-387.534
 20
840.737
 30
0.000000
  70
    32
  0
VERTEX
  8
0
  5
1A712
 10
-387.533
 20
840.737
 30
0.000000
  70
    32
  0
VERTEX
  8
0
  5
1A713
 10
-387.533
 20
840.736
 30
0.000000
  70
    32
  0
VERTEX
  8
0
  5
1A714
 10
-387.532
 20
840.736
 30
0.000000
  70
    32
  0
VERTEX
  8
0
  5
1A715
 10
-387.531
 20
840.736
 30
0.000000
  70
    32
  0
VERTEX
  8
0
  5
1A716
 10
-387.530
 20
840.736
 30
0.000000
  70
    32
  0
VERTEX
  8
0
  5
1A717
 10
-387.529
 20
840.736
 30
0.000000
  70
    32
  0
VERTEX
  8
0
  5
1A718
 10
-387.528
 20
840.735
 30
0.000000
  70
    32
  0
VERTEX
  8
0
  5
1A719
 10
-387.527
 20
840.735
 30
0.000000
  70
    32
  0
VERTEX
  8
0
  5
1A71A
 10
-387.526
 20
840.735
 30
0.000000
  70
    32
  0
VERTEX
  8
0
  5
1A71B
 10
-387.526
 20
840.735
 30
0.000000
  70
    32
  0
VERTEX
  8
0
  5
1A71C
 10
-387.525
 20
840.734
 30
0.000000
  70
    32
  0
VERTEX
  8
0
  5
1A71D
 10
-387.524
 20
840.734
 30
0.000000
  70
    32
  0
VERTEX
  8
0
  5
1A71E
 10
-387.523
 20
840.734
 30
0.000000
  70
    32
  0
VERTEX
  8
0
  5
1A71F
 10
-387.522
 20
840.734
 30
0.000000
  70
    32
  0
VERTEX
  8
0
  5
1A720
 10
-387.521
 20
840.734
 30
0.000000
  70
    32
  0
VERTEX
  8
0
  5
1A721
 10
-387.520
 20
840.733
 30
0.000000
  70
    32
  0
VERTEX
  8
0
  5
1A722
 10
-387.519
 20
840.733
 30
0.000000
  70
    32
  0
VERTEX
  8
0
  5
1A723
 10
-387.518
 20
840.733
 30
0.000000
  70
    32
  0
VERTEX
  8
0
  5
1A724
 10
-387.517
 20
840.733
 30
0.000000
  70
    32
  0
VERTEX
  8
0
  5
1A725
 10
-387.517
 20
840.732
 30
0.000000
  70
    32
  0
VERTEX
  8
0
  5
1A726
 10
-387.516
 20
840.732
 30
0.000000
  70
    32
  0
VERTEX
  8
0
  5
1A727
 10
-387.515
 20
840.732
 30
0.000000
  70
    32
  0
VERTEX
  8
0
  5
1A728
 10
-387.514
 20
840.732
 30
0.000000
  70
    32
  0
VERTEX
  8
0
  5
1A729
 10
-387.513
 20
840.732
 30
0.000000
  70
    32
  0
VERTEX
  8
0
  5
1A72A
 10
-387.512
 20
840.731
 30
0.000000
  70
    32
  0
VERTEX
  8
0
  5
1A72B
 10
-387.511
 20
840.731
 30
0.000000
  70
    32
  0
VERTEX
  8
0
  5
1A72C
 10
-387.510
 20
840.731
 30
0.000000
  70
    32
  0
VERTEX
  8
0
  5
1A72D
 10
-387.509
 20
840.731
 30
0.000000
  70
    32
  0
VERTEX
  8
0
  5
1A72E
 10
-387.508
 20
840.730
 30
0.000000
  70
    32
  0
VERTEX
  8
0
  5
1A72F
 10
-387.507
 20
840.730
 30
0.000000
  70
    32
  0
VERTEX
  8
0
  5
1A730
 10
-387.506
 20
840.730
 30
0.000000
  70
    32
  0
VERTEX
  8
0
  5
1A731
 10
-387.506
 20
840.730
 30
0.000000
  70
    32
  0
VERTEX
  8
0
  5
1A732
 10
-387.505
 20
840.729
 30
0.000000
  70
    32
  0
VERTEX
  8
0
  5
1A733
 10
-387.504
 20
840.729
 30
0.000000
  70
    32
  0
VERTEX
  8
0
  5
1A734
 10
-387.503
 20
840.729
 30
0.000000
  70
    32
  0
VERTEX
  8
0
  5
1A735
 10
-387.502
 20
840.729
 30
0.000000
  70
    32
  0
VERTEX
  8
0
  5
1A736
 10
-387.501
 20
840.728
 30
0.000000
  70
    32
  0
VERTEX
  8
0
  5
1A737
 10
-387.500
 20
840.728
 30
0.000000
  70
    32
  0
VERTEX
  8
0
  5
1A738
 10
-387.499
 20
840.728
 30
0.000000
  70
    32
  0
VERTEX
  8
0
  5
1A739
 10
-387.498
 20
840.727
 30
0.000000
  70
    32
  0
VERTEX
  8
0
  5
1A73A
 10
-387.497
 20
840.727
 30
0.000000
  70
    32
  0
VERTEX
  8
0
  5
1A73B
 10
-387.496
 20
840.727
 30
0.000000
  70
    32
  0
VERTEX
  8
0
  5
1A73C
 10
-387.495
 20
840.726
 30
0.000000
  70
    32
  0
VERTEX
  8
0
  5
1A73D
 10
-387.495
 20
840.726
 30
0.000000
  70
    32
  0
VERTEX
  8
0
  5
1A73E
 10
-387.494
 20
840.726
 30
0.000000
  70
    32
  0
VERTEX
  8
0
  5
1A73F
 10
-387.493
 20
840.725
 30
0.000000
  70
    32
  0
VERTEX
  8
0
  5
1A740
 10
-387.492
 20
840.725
 30
0.000000
  70
    32
  0
VERTEX
  8
0
  5
1A741
 10
-387.491
 20
840.725
 30
0.000000
  70
    32
  0
VERTEX
  8
0
  5
1A742
 10
-387.490
 20
840.724
 30
0.000000
  70
    32
  0
VERTEX
  8
0
  5
1A743
 10
-387.489
 20
840.724
 30
0.000000
  70
    32
  0
VERTEX
  8
0
  5
1A744
 10
-387.488
 20
840.724
 30
0.000000
  70
    32
  0
VERTEX
  8
0
  5
1A745
 10
-387.488
 20
840.723
 30
0.000000
  70
    32
  0
VERTEX
  8
0
  5
1A746
 10
-387.487
 20
840.723
 30
0.000000
  70
    32
  0
VERTEX
  8
0
  5
1A747
 10
-387.486
 20
840.722
 30
0.000000
  70
    32
  0
VERTEX
  8
0
  5
1A748
 10
-387.485
 20
840.722
 30
0.000000
  70
    32
  0
VERTEX
  8
0
  5
1A749
 10
-387.484
 20
840.721
 30
0.000000
  70
    32
  0
VERTEX
  8
0
  5
1A74A
 10
-387.484
 20
840.721
 30
0.000000
  70
    32
  0
VERTEX
  8
0
  5
1A74B
 10
-387.483
 20
840.721
 30
0.000000
  70
    32
  0
VERTEX
  8
0
  5
1A74C
 10
-387.482
 20
840.720
 30
0.000000
  70
    32
  0
VERTEX
  8
0
  5
1A74D
 10
-387.481
 20
840.720
 30
0.000000
  70
    32
  0
VERTEX
  8
0
  5
1A74E
 10
-387.481
 20
840.719
 30
0.000000
  70
    32
  0
VERTEX
  8
0
  5
1A74F
 10
-387.480
 20
840.719
 30
0.000000
  70
    32
  0
VERTEX
  8
0
  5
1A750
 10
-387.479
 20
840.718
 30
0.000000
  70
    32
  0
VERTEX
  8
0
  5
1A751
 10
-387.478
 20
840.717
 30
0.000000
  70
    32
  0
VERTEX
  8
0
  5
1A752
 10
-387.478
 20
840.717
 30
0.000000
  70
    32
  0
VERTEX
  8
0
  5
1A753
 10
-387.477
 20
840.716
 30
0.000000
  70
    32
  0
VERTEX
  8
0
  5
1A754
 10
-387.476
 20
840.716
 30
0.000000
  70
    32
  0
VERTEX
  8
0
  5
1A755
 10
-387.476
 20
840.715
 30
0.000000
  70
    32
  0
VERTEX
  8
0
  5
1A756
 10
-387.475
 20
840.714
 30
0.000000
  70
    32
  0
VERTEX
  8
0
  5
1A757
 10
-387.475
 20
840.714
 30
0.000000
  70
    32
  0
VERTEX
  8
0
  5
1A758
 10
-387.474
 20
840.713
 30
0.000000
  70
    32
  0
VERTEX
  8
0
  5
1A759
 10
-387.473
 20
840.713
 30
0.000000
  70
    32
  0
VERTEX
  8
0
  5
1A75A
 10
-387.473
 20
840.712
 30
0.000000
  70
    32
  0
VERTEX
  8
0
  5
1A75B
 10
-387.472
 20
840.711
 30
0.000000
  70
    32
  0
VERTEX
  8
0
  5
1A75C
 10
-387.472
 20
840.710
 30
0.000000
  70
    32
  0
VERTEX
  8
0
  5
1A75D
 10
-387.471
 20
840.710
 30
0.000000
  70
    32
  0
VERTEX
  8
0
  5
1A75E
 10
-387.471
 20
840.709
 30
0.000000
  70
    32
  0
VERTEX
  8
0
  5
1A75F
 10
-387.471
 20
840.708
 30
0.000000
  70
    32
  0
VERTEX
  8
0
  5
1A760
 10
-387.470
 20
840.707
 30
0.000000
  70
    32
  0
VERTEX
  8
0
  5
1A761
 10
-387.470
 20
840.707
 30
0.000000
  70
    32
  0
VERTEX
  8
0
  5
1A762
 10
-387.469
 20
840.706
 30
0.000000
  70
    32
  0
VERTEX
  8
0
  5
1A763
 10
-387.469
 20
840.705
 30
0.000000
  70
    32
  0
VERTEX
  8
0
  5
1A764
 10
-387.469
 20
840.704
 30
0.000000
  70
    32
  0
VERTEX
  8
0
  5
1A765
 10
-387.468
 20
840.703
 30
0.000000
  70
    32
  0
VERTEX
  8
0
  5
1A766
 10
-387.468
 20
840.702
 30
0.000000
  70
    32
  0
VERTEX
  8
0
  5
1A767
 10
-387.468
 20
840.701
 30
0.000000
  70
    32
  0
VERTEX
  8
0
  5
1A768
 10
-387.467
 20
840.701
 30
0.000000
  70
    32
  0
VERTEX
  8
0
  5
1A769
 10
-387.467
 20
840.700
 30
0.000000
  70
    32
  0
VERTEX
  8
0
  5
1A76A
 10
-387.467
 20
840.699
 30
0.000000
  70
    32
  0
VERTEX
  8
0
  5
1A76B
 10
-387.467
 20
840.698
 30
0.000000
  70
    32
  0
VERTEX
  8
0
  5
1A76C
 10
-387.466
 20
840.697
 30
0.000000
  70
    32
  0
VERTEX
  8
0
  5
1A76D
 10
-387.466
 20
840.696
 30
0.000000
  70
    32
  0
VERTEX
  8
0
  5
1A76E
 10
-387.466
 20
840.695
 30
0.000000
  70
    32
  0
VERTEX
  8
0
  5
1A76F
 10
-387.466
 20
840.694
 30
0.000000
  70
    32
  0
VERTEX
  8
0
  5
1A770
 10
-387.465
 20
840.693
 30
0.000000
  70
    32
  0
VERTEX
  8
0
  5
1A771
 10
-387.465
 20
840.692
 30
0.000000
  70
    32
  0
VERTEX
  8
0
  5
1A772
 10
-387.465
 20
840.691
 30
0.000000
  70
    32
  0
VERTEX
  8
0
  5
1A773
 10
-387.465
 20
840.690
 30
0.000000
  70
    32
  0
VERTEX
  8
0
  5
1A774
 10
-387.465
 20
840.690
 30
0.000000
  70
    32
  0
VERTEX
  8
0
  5
1A775
 10
-387.465
 20
840.689
 30
0.000000
  70
    32
  0
VERTEX
  8
0
  5
1A776
 10
-387.465
 20
840.688
 30
0.000000
  70
    32
  0
VERTEX
  8
0
  5
1A777
 10
-387.465
 20
840.687
 30
0.000000
  70
    32
  0
VERTEX
  8
0
  5
1A778
 10
-387.464
 20
840.686
 30
0.000000
  70
    32
  0
VERTEX
  8
0
  5
1A779
 10
-387.464
 20
840.685
 30
0.000000
  70
    32
  0
VERTEX
  8
0
  5
1A77A
 10
-387.464
 20
840.684
 30
0.000000
  70
    32
  0
VERTEX
  8
0
  5
1A77B
 10
-387.464
 20
840.683
 30
0.000000
  70
    32
  0
VERTEX
  8
0
  5
1A77C
 10
-387.464
 20
840.682
 30
0.000000
  70
    32
  0
VERTEX
  8
0
  5
1A77D
 10
-387.464
 20
840.681
 30
0.000000
  70
    32
  0
VERTEX
  8
0
  5
1A77E
 10
-387.464
 20
840.680
 30
0.000000
  70
    32
  0
VERTEX
  8
0
  5
1A77F
 10
-387.464
 20
840.679
 30
0.000000
  70
    32
  0
VERTEX
  8
0
  5
1A780
 10
-387.464
 20
840.678
 30
0.000000
  70
    32
  0
VERTEX
  8
0
  5
1A781
 10
-387.464
 20
840.677
 30
0.000000
  70
    32
  0
VERTEX
  8
0
  5
1A782
 10
-387.464
 20
840.676
 30
0.000000
  70
    32
  0
VERTEX
  8
0
  5
1A783
 10
-387.464
 20
840.675
 30
0.000000
  70
    32
  0
VERTEX
  8
0
  5
1A784
 10
-387.464
 20
840.674
 30
0.000000
  70
    32
  0
VERTEX
  8
0
  5
1A785
 10
-387.464
 20
840.674
 30
0.000000
  70
    32
  0
VERTEX
  8
0
  5
1A786
 10
-387.464
 20
840.673
 30
0.000000
  70
    32
  0
VERTEX
  8
0
  5
1A787
 10
-387.464
 20
840.672
 30
0.000000
  70
    32
  0
VERTEX
  8
0
  5
1A788
 10
-387.464
 20
840.671
 30
0.000000
  70
    32
  0
VERTEX
  8
0
  5
1A789
 10
-387.464
 20
840.670
 30
0.000000
  70
    32
  0
VERTEX
  8
0
  5
1A78A
 10
-387.464
 20
840.669
 30
0.000000
  70
    32
  0
VERTEX
  8
0
  5
1A78B
 10
-387.464
 20
840.668
 30
0.000000
  70
    32
  0
VERTEX
  8
0
  5
1A78C
 10
-387.464
 20
840.667
 30
0.000000
  70
    32
  0
VERTEX
  8
0
  5
1A78D
 10
-387.465
 20
840.666
 30
0.000000
  70
    32
  0
VERTEX
  8
0
  5
1A78E
 10
-387.465
 20
840.665
 30
0.000000
  70
    32
  0
VERTEX
  8
0
  5
1A78F
 10
-387.465
 20
840.664
 30
0.000000
  70
    32
  0
VERTEX
  8
0
  5
1A790
 10
-387.465
 20
840.664
 30
0.000000
  70
    32
  0
VERTEX
  8
0
  5
1A791
 10
-387.465
 20
840.663
 30
0.000000
  70
    32
  0
VERTEX
  8
0
  5
1A792
 10
-387.465
 20
840.662
 30
0.000000
  70
    32
  0
VERTEX
  8
0
  5
1A793
 10
-387.465
 20
840.661
 30
0.000000
  70
    32
  0
VERTEX
  8
0
  5
1A794
 10
-387.466
 20
840.660
 30
0.000000
  70
    32
  0
VERTEX
  8
0
  5
1A795
 10
-387.466
 20
840.659
 30
0.000000
  70
    32
  0
VERTEX
  8
0
  5
1A796
 10
-387.466
 20
840.658
 30
0.000000
  70
    32
  0
VERTEX
  8
0
  5
1A797
 10
-387.466
 20
840.657
 30
0.000000
  70
    32
  0
VERTEX
  8
0
  5
1A798
 10
-387.466
 20
840.656
 30
0.000000
  70
    32
  0
VERTEX
  8
0
  5
1A799
 10
-387.467
 20
840.656
 30
0.000000
  70
    32
  0
VERTEX
  8
0
  5
1A79A
 10
-387.467
 20
840.655
 30
0.000000
  70
    32
  0
VERTEX
  8
0
  5
1A79B
 10
-387.467
 20
840.654
 30
0.000000
  70
    32
  0
VERTEX
  8
0
  5
1A79C
 10
-387.467
 20
840.653
 30
0.000000
  70
    32
  0
VERTEX
  8
0
  5
1A79D
 10
-387.468
 20
840.652
 30
0.000000
  70
    32
  0
VERTEX
  8
0
  5
1A79E
 10
-387.468
 20
840.651
 30
0.000000
  70
    32
  0
VERTEX
  8
0
  5
1A79F
 10
-387.468
 20
840.650
 30
0.000000
  70
    32
  0
VERTEX
  8
0
  5
1A7A0
 10
-387.469
 20
840.649
 30
0.000000
  70
    32
  0
VERTEX
  8
0
  5
1A7A1
 10
-387.469
 20
840.648
 30
0.000000
  70
    32
  0
VERTEX
  8
0
  5
1A7A2
 10
-387.469
 20
840.648
 30
0.000000
  70
    32
  0
VERTEX
  8
0
  5
1A7A3
 10
-387.470
 20
840.647
 30
0.000000
  70
    32
  0
VERTEX
  8
0
  5
1A7A4
 10
-387.470
 20
840.646
 30
0.000000
  70
    32
  0
VERTEX
  8
0
  5
1A7A5
 10
-387.471
 20
840.645
 30
0.000000
  70
    32
  0
VERTEX
  8
0
  5
1A7A6
 10
-387.471
 20
840.644
 30
0.000000
  70
    32
  0
VERTEX
  8
0
  5
1A7A7
 10
-387.472
 20
840.643
 30
0.000000
  70
    32
  0
VERTEX
  8
0
  5
1A7A8
 10
-387.472
 20
840.643
 30
0.000000
  70
    32
  0
VERTEX
  8
0
  5
1A7A9
 10
-387.472
 20
840.642
 30
0.000000
  70
    32
  0
VERTEX
  8
0
  5
1A7AA
 10
-387.473
 20
840.641
 30
0.000000
  70
    32
  0
VERTEX
  8
0
  5
1A7AB
 10
-387.473
 20
840.640
 30
0.000000
  70
    32
  0
VERTEX
  8
0
  5
1A7AC
 10
-387.474
 20
840.639
 30
0.000000
  70
    32
  0
VERTEX
  8
0
  5
1A7AD
 10
-387.474
 20
840.639
 30
0.000000
  70
    32
  0
VERTEX
  8
0
  5
1A7AE
 10
-387.475
 20
840.638
 30
0.000000
  70
    32
  0
VERTEX
  8
0
  5
1A7AF
 10
-387.476
 20
840.637
 30
0.000000
  70
    32
  0
VERTEX
  8
0
  5
1A7B0
 10
-387.476
 20
840.636
 30
0.000000
  70
    32
  0
VERTEX
  8
0
  5
1A7B1
 10
-387.477
 20
840.636
 30
0.000000
  70
    32
  0
VERTEX
  8
0
  5
1A7B2
 10
-387.477
 20
840.635
 30
0.000000
  70
    32
  0
VERTEX
  8
0
  5
1A7B3
 10
-387.478
 20
840.634
 30
0.000000
  70
    32
  0
VERTEX
  8
0
  5
1A7B4
 10
-387.479
 20
840.634
 30
0.000000
  70
    32
  0
VERTEX
  8
0
  5
1A7B5
 10
-387.479
 20
840.633
 30
0.000000
  70
    32
  0
VERTEX
  8
0
  5
1A7B6
 10
-387.480
 20
840.632
 30
0.000000
  70
    32
  0
VERTEX
  8
0
  5
1A7B7
 10
-387.480
 20
840.632
 30
0.000000
  70
    32
  0
VERTEX
  8
0
  5
1A7B8
 10
-387.481
 20
840.631
 30
0.000000
  70
    32
  0
VERTEX
  8
0
  5
1A7B9
 10
-387.482
 20
840.631
 30
0.000000
  70
    32
  0
VERTEX
  8
0
  5
1A7BA
 10
-387.483
 20
840.630
 30
0.000000
  70
    32
  0
VERTEX
  8
0
  5
1A7BB
 10
-387.483
 20
840.630
 30
0.000000
  70
    32
  0
VERTEX
  8
0
  5
1A7BC
 10
-387.484
 20
840.629
 30
0.000000
  70
    32
  0
VERTEX
  8
0
  5
1A7BD
 10
-387.485
 20
840.629
 30
0.000000
  70
    32
  0
VERTEX
  8
0
  5
1A7BE
 10
-387.485
 20
840.628
 30
0.000000
  70
    32
  0
VERTEX
  8
0
  5
1A7BF
 10
-387.486
 20
840.628
 30
0.000000
  70
    32
  0
VERTEX
  8
0
  5
1A7C0
 10
-387.487
 20
840.627
 30
0.000000
  70
    32
  0
VERTEX
  8
0
  5
1A7C1
 10
-387.488
 20
840.627
 30
0.000000
  70
    32
  0
VERTEX
  8
0
  5
1A7C2
 10
-387.489
 20
840.626
 30
0.000000
  70
    32
  0
VERTEX
  8
0
  5
1A7C3
 10
-387.489
 20
840.626
 30
0.000000
  70
    32
  0
VERTEX
  8
0
  5
1A7C4
 10
-387.490
 20
840.626
 30
0.000000
  70
    32
  0
VERTEX
  8
0
  5
1A7C5
 10
-387.491
 20
840.625
 30
0.000000
  70
    32
  0
VERTEX
  8
0
  5
1A7C6
 10
-387.492
 20
840.625
 30
0.000000
  70
    32
  0
VERTEX
  8
0
  5
1A7C7
 10
-387.493
 20
840.624
 30
0.000000
  70
    32
  0
VERTEX
  8
0
  5
1A7C8
 10
-387.494
 20
840.624
 30
0.000000
  70
    32
  0
VERTEX
  8
0
  5
1A7C9
 10
-387.494
 20
840.624
 30
0.000000
  70
    32
  0
VERTEX
  8
0
  5
1A7CA
 10
-387.495
 20
840.623
 30
0.000000
  70
    32
  0
VERTEX
  8
0
  5
1A7CB
 10
-387.496
 20
840.623
 30
0.000000
  70
    32
  0
VERTEX
  8
0
  5
1A7CC
 10
-387.497
 20
840.623
 30
0.000000
  70
    32
  0
VERTEX
  8
0
  5
1A7CD
 10
-387.498
 20
840.622
 30
0.000000
  70
    32
  0
VERTEX
  8
0
  5
1A7CE
 10
-387.499
 20
840.622
 30
0.000000
  70
    32
  0
VERTEX
  8
0
  5
1A7CF
 10
-387.500
 20
840.622
 30
0.000000
  70
    32
  0
VERTEX
  8
0
  5
1A7D0
 10
-387.500
 20
840.621
 30
0.000000
  70
    32
  0
VERTEX
  8
0
  5
1A7D1
 10
-387.501
 20
840.621
 30
0.000000
  70
    32
  0
VERTEX
  8
0
  5
1A7D2
 10
-387.502
 20
840.621
 30
0.000000
  70
    32
  0
VERTEX
  8
0
  5
1A7D3
 10
-387.503
 20
840.620
 30
0.000000
  70
    32
  0
VERTEX
  8
0
  5
1A7D4
 10
-387.504
 20
840.620
 30
0.000000
  70
    32
  0
VERTEX
  8
0
  5
1A7D5
 10
-387.505
 20
840.619
 30
0.000000
  70
    32
  0
VERTEX
  8
0
  5
1A7D6
 10
-387.506
 20
840.619
 30
0.000000
  70
    32
  0
VERTEX
  8
0
  5
1A7D7
 10
-387.506
 20
840.619
 30
0.000000
  70
    32
  0
VERTEX
  8
0
  5
1A7D8
 10
-387.507
 20
840.618
 30
0.000000
  70
    32
  0
VERTEX
  8
0
  5
1A7D9
 10
-387.508
 20
840.618
 30
0.000000
  70
    32
  0
VERTEX
  8
0
  5
1A7DA
 10
-387.509
 20
840.618
 30
0.000000
  70
    32
  0
VERTEX
  8
0
  5
1A7DB
 10
-387.510
 20
840.617
 30
0.000000
  70
    32
  0
VERTEX
  8
0
  5
1A7DC
 10
-387.511
 20
840.617
 30
0.000000
  70
    32
  0
VERTEX
  8
0
  5
1A7DD
 10
-387.512
 20
840.616
 30
0.000000
  70
    32
  0
VERTEX
  8
0
  5
1A7DE
 10
-387.512
 20
840.616
 30
0.000000
  70
    32
  0
VERTEX
  8
0
  5
1A7DF
 10
-387.513
 20
840.616
 30
0.000000
  70
    32
  0
VERTEX
  8
0
  5
1A7E0
 10
-387.514
 20
840.615
 30
0.000000
  70
    32
  0
VERTEX
  8
0
  5
1A7E1
 10
-387.515
 20
840.615
 30
0.000000
  70
    32
  0
VERTEX
  8
0
  5
1A7E2
 10
-387.516
 20
840.614
 30
0.000000
  70
    32
  0
VERTEX
  8
0
  5
1A7E3
 10
-387.516
 20
840.614
 30
0.000000
  70
    32
  0
VERTEX
  8
0
  5
1A7E4
 10
-387.517
 20
840.613
 30
0.000000
  70
    32
  0
VERTEX
  8
0
  5
1A7E5
 10
-387.518
 20
840.613
 30
0.000000
  70
    32
  0
VERTEX
  8
0
  5
1A7E6
 10
-387.519
 20
840.612
 30
0.000000
  70
    32
  0
VERTEX
  8
0
  5
1A7E7
 10
-387.520
 20
840.612
 30
0.000000
  70
    32
  0
VERTEX
  8
0
  5
1A7E8
 10
-387.520
 20
840.611
 30
0.000000
  70
    32
  0
VERTEX
  8
0
  5
1A7E9
 10
-387.521
 20
840.611
 30
0.000000
  70
    32
  0
VERTEX
  8
0
  5
1A7EA
 10
-387.522
 20
840.610
 30
0.000000
  70
    32
  0
VERTEX
  8
0
  5
1A7EB
 10
-387.523
 20
840.610
 30
0.000000
  70
    32
  0
VERTEX
  8
0
  5
1A7EC
 10
-387.523
 20
840.609
 30
0.000000
  70
    32
  0
VERTEX
  8
0
  5
1A7ED
 10
-387.524
 20
840.609
 30
0.000000
  70
    32
  0
VERTEX
  8
0
  5
1A7EE
 10
-387.525
 20
840.608
 30
0.000000
  70
    32
  0
VERTEX
  8
0
  5
1A7EF
 10
-387.526
 20
840.608
 30
0.000000
  70
    32
  0
VERTEX
  8
0
  5
1A7F0
 10
-387.526
 20
840.607
 30
0.000000
  70
    32
  0
VERTEX
  8
0
  5
1A7F1
 10
-387.527
 20
840.606
 30
0.000000
  70
    32
  0
VERTEX
  8
0
  5
1A7F2
 10
-387.528
 20
840.606
 30
0.000000
  70
    32
  0
VERTEX
  8
0
  5
1A7F3
 10
-387.529
 20
840.605
 30
0.000000
  70
    32
  0
VERTEX
  8
0
  5
1A7F4
 10
-387.529
 20
840.605
 30
0.000000
  70
    32
  0
VERTEX
  8
0
  5
1A7F5
 10
-387.530
 20
840.604
 30
0.000000
  70
    32
  0
VERTEX
  8
0
  5
1A7F6
 10
-387.531
 20
840.603
 30
0.000000
  70
    32
  0
VERTEX
  8
0
  5
1A7F7
 10
-387.531
 20
840.603
 30
0.000000
  70
    32
  0
VERTEX
  8
0
  5
1A7F8
 10
-387.532
 20
840.602
 30
0.000000
  70
    32
  0
VERTEX
  8
0
  5
1A7F9
 10
-387.533
 20
840.602
 30
0.000000
  70
    32
  0
VERTEX
  8
0
  5
1A7FA
 10
-387.533
 20
840.601
 30
0.000000
  70
    32
  0
VERTEX
  8
0
  5
1A7FB
 10
-387.534
 20
840.600
 30
0.000000
  70
    32
  0
VERTEX
  8
0
  5
1A7FC
 10
-387.535
 20
840.600
 30
0.000000
  70
    32
  0
VERTEX
  8
0
  5
1A7FD
 10
-387.535
 20
840.599
 30
0.000000
  70
    32
  0
VERTEX
  8
0
  5
1A7FE
 10
-387.536
 20
840.598
 30
0.000000
  70
    32
  0
VERTEX
  8
0
  5
1A7FF
 10
-387.537
 20
840.598
 30
0.000000
  70
    32
  0
VERTEX
  8
0
  5
1A800
 10
-387.537
 20
840.597
 30
0.000000
  70
    32
  0
VERTEX
  8
0
  5
1A801
 10
-387.538
 20
840.596
 30
0.000000
  70
    32
  0
VERTEX
  8
0
  5
1A802
 10
-387.538
 20
840.596
 30
0.000000
  70
    32
  0
VERTEX
  8
0
  5
1A803
 10
-387.539
 20
840.595
 30
0.000000
  70
    32
  0
VERTEX
  8
0
  5
1A804
 10
-387.540
 20
840.594
 30
0.000000
  70
    32
  0
VERTEX
  8
0
  5
1A805
 10
-387.540
 20
840.594
 30
0.000000
  70
    32
  0
VERTEX
  8
0
  5
1A806
 10
-387.541
 20
840.593
 30
0.000000
  70
    32
  0
VERTEX
  8
0
  5
1A807
 10
-387.541
 20
840.592
 30
0.000000
  70
    32
  0
VERTEX
  8
0
  5
1A808
 10
-387.542
 20
840.591
 30
0.000000
  70
    32
  0
VERTEX
  8
0
  5
1A809
 10
-387.542
 20
840.591
 30
0.000000
  70
    32
  0
VERTEX
  8
0
  5
1A80A
 10
-387.543
 20
840.590
 30
0.000000
  70
    32
  0
VERTEX
  8
0
  5
1A80B
 10
-387.543
 20
840.589
 30
0.000000
  70
    32
  0
VERTEX
  8
0
  5
1A80C
 10
-387.544
 20
840.588
 30
0.000000
  70
    32
  0
VERTEX
  8
0
  5
1A80D
 10
-387.544
 20
840.588
 30
0.000000
  70
    32
  0
VERTEX
  8
0
  5
1A80E
 10
-387.545
 20
840.587
 30
0.000000
  70
    32
  0
VERTEX
  8
0
  5
1A80F
 10
-387.545
 20
840.586
 30
0.000000
  70
    32
  0
VERTEX
  8
0
  5
1A810
 10
-387.546
 20
840.585
 30
0.000000
  70
    32
  0
VERTEX
  8
0
  5
1A811
 10
-387.546
 20
840.584
 30
0.000000
  70
    32
  0
VERTEX
  8
0
  5
1A812
 10
-387.547
 20
840.584
 30
0.000000
  70
    32
  0
VERTEX
  8
0
  5
1A813
 10
-387.547
 20
840.583
 30
0.000000
  70
    32
  0
VERTEX
  8
0
  5
1A814
 10
-387.548
 20
840.582
 30
0.000000
  70
    32
  0
VERTEX
  8
0
  5
1A815
 10
-387.548
 20
840.581
 30
0.000000
  70
    32
  0
VERTEX
  8
0
  5
1A816
 10
-387.549
 20
840.580
 30
0.000000
  70
    32
  0
VERTEX
  8
0
  5
1A817
 10
-387.549
 20
840.580
 30
0.000000
  70
    32
  0
VERTEX
  8
0
  5
1A818
 10
-387.549
 20
840.579
 30
0.000000
  70
    32
  0
VERTEX
  8
0
  5
1A819
 10
-387.550
 20
840.578
 30
0.000000
  70
    32
  0
VERTEX
  8
0
  5
1A81A
 10
-387.550
 20
840.577
 30
0.000000
  70
    32
  0
VERTEX
  8
0
  5
1A81B
 10
-387.551
 20
840.576
 30
0.000000
  70
    32
  0
VERTEX
  8
0
  5
1A81C
 10
-387.551
 20
840.575
 30
0.000000
  70
    32
  0
VERTEX
  8
0
  5
1A81D
 10
-387.551
 20
840.575
 30
0.000000
  70
    32
  0
VERTEX
  8
0
  5
1A81E
 10
-387.552
 20
840.574
 30
0.000000
  70
    32
  0
VERTEX
  8
0
  5
1A81F
 10
-387.552
 20
840.573
 30
0.000000
  70
    32
  0
VERTEX
  8
0
  5
1A820
 10
-387.552
 20
840.572
 30
0.000000
  70
    32
  0
VERTEX
  8
0
  5
1A821
 10
-387.553
 20
840.571
 30
0.000000
  70
    32
  0
VERTEX
  8
0
  5
1A822
 10
-387.553
 20
840.570
 30
0.000000
  70
    32
  0
VERTEX
  8
0
  5
1A823
 10
-387.553
 20
840.569
 30
0.000000
  70
    32
  0
VERTEX
  8
0
  5
1A824
 10
-387.554
 20
840.569
 30
0.000000
  70
    32
  0
VERTEX
  8
0
  5
1A825
 10
-387.554
 20
840.568
 30
0.000000
  70
    32
  0
VERTEX
  8
0
  5
1A826
 10
-387.554
 20
840.567
 30
0.000000
  70
    32
  0
VERTEX
  8
0
  5
1A827
 10
-387.554
 20
840.566
 30
0.000000
  70
    32
  0
VERTEX
  8
0
  5
1A828
 10
-387.555
 20
840.565
 30
0.000000
  70
    32
  0
VERTEX
  8
0
  5
1A829
 10
-387.555
 20
840.564
 30
0.000000
  70
    32
  0
VERTEX
  8
0
  5
1A82A
 10
-387.555
 20
840.563
 30
0.000000
  70
    32
  0
VERTEX
  8
0
  5
1A82B
 10
-387.555
 20
840.562
 30
0.000000
  70
    32
  0
VERTEX
  8
0
  5
1A82C
 10
-387.556
 20
840.561
 30
0.000000
  70
    32
  0
VERTEX
  8
0
  5
1A82D
 10
-387.556
 20
840.561
 30
0.000000
  70
    32
  0
VERTEX
  8
0
  5
1A82E
 10
-387.556
 20
840.560
 30
0.000000
  70
    32
  0
VERTEX
  8
0
  5
1A82F
 10
-387.556
 20
840.559
 30
0.000000
  70
    32
  0
VERTEX
  8
0
  5
1A830
 10
-387.556
 20
840.558
 30
0.000000
  70
    32
  0
VERTEX
  8
0
  5
1A831
 10
-387.557
 20
840.557
 30
0.000000
  70
    32
  0
VERTEX
  8
0
  5
1A832
 10
-387.557
 20
840.556
 30
0.000000
  70
    32
  0
VERTEX
  8
0
  5
1A833
 10
-387.557
 20
840.555
 30
0.000000
  70
    32
  0
VERTEX
  8
0
  5
1A834
 10
-387.557
 20
840.554
 30
0.000000
  70
    32
  0
VERTEX
  8
0
  5
1A835
 10
-387.557
 20
840.553
 30
0.000000
  70
    32
  0
VERTEX
  8
0
  5
1A836
 10
-387.557
 20
840.553
 30
0.000000
  70
    32
  0
VERTEX
  8
0
  5
1A837
 10
-387.557
 20
840.552
 30
0.000000
  70
    32
  0
VERTEX
  8
0
  5
1A838
 10
-387.557
 20
840.551
 30
0.000000
  70
    32
  0
VERTEX
  8
0
  5
1A839
 10
-387.558
 20
840.550
 30
0.000000
  70
    32
  0
VERTEX
  8
0
  5
1A83A
 10
-387.558
 20
840.549
 30
0.000000
  70
    32
  0
VERTEX
  8
0
  5
1A83B
 10
-387.558
 20
840.548
 30
0.000000
  70
    32
  0
VERTEX
  8
0
  5
1A83C
 10
-387.558
 20
840.547
 30
0.000000
  70
    32
  0
VERTEX
  8
0
  5
1A83D
 10
-387.558
 20
840.546
 30
0.000000
  70
    32
  0
VERTEX
  8
0
  5
1A83E
 10
-387.558
 20
840.545
 30
0.000000
  70
    32
  0
VERTEX
  8
0
  5
1A83F
 10
-387.558
 20
840.544
 30
0.000000
  70
    32
  0
VERTEX
  8
0
  5
1A840
 10
-387.558
 20
840.543
 30
0.000000
  70
    32
  0
VERTEX
  8
0
  5
1A841
 10
-387.558
 20
840.543
 30
0.000000
  70
    32
  0
VERTEX
  8
0
  5
1A842
 10
-387.558
 20
840.542
 30
0.000000
  70
    32
  0
VERTEX
  8
0
  5
1A843
 10
-387.558
 20
840.541
 30
0.000000
  70
    32
  0
VERTEX
  8
0
  5
1A844
 10
-387.558
 20
840.540
 30
0.000000
  70
    32
  0
VERTEX
  8
0
  5
1A845
 10
-387.558
 20
840.539
 30
0.000000
  70
    32
  0
VERTEX
  8
0
  5
1A846
 10
-387.558
 20
840.538
 30
0.000000
  70
    32
  0
VERTEX
  8
0
  5
1A847
 10
-387.558
 20
840.537
 30
0.000000
  70
    32
  0
VERTEX
  8
0
  5
1A848
 10
-387.558
 20
840.536
 30
0.000000
  70
    32
  0
VERTEX
  8
0
  5
1A849
 10
-387.558
 20
840.535
 30
0.000000
  70
    32
  0
VERTEX
  8
0
  5
1A84A
 10
-387.558
 20
840.534
 30
0.000000
  70
    32
  0
VERTEX
  8
0
  5
1A84B
 10
-387.558
 20
840.533
 30
0.000000
  70
    32
  0
VERTEX
  8
0
  5
1A84C
 10
-387.558
 20
840.532
 30
0.000000
  70
    32
  0
VERTEX
  8
0
  5
1A84D
 10
-387.557
 20
840.531
 30
0.000000
  70
    32
  0
VERTEX
  8
0
  5
1A84E
 10
-387.557
 20
840.531
 30
0.000000
  70
    32
  0
VERTEX
  8
0
  5
1A84F
 10
-387.557
 20
840.530
 30
0.000000
  70
    32
  0
VERTEX
  8
0
  5
1A850
 10
-387.557
 20
840.529
 30
0.000000
  70
    32
  0
VERTEX
  8
0
  5
1A851
 10
-387.557
 20
840.528
 30
0.000000
  70
    32
  0
VERTEX
  8
0
  5
1A852
 10
-387.557
 20
840.527
 30
0.000000
  70
    32
  0
VERTEX
  8
0
  5
1A853
 10
-387.557
 20
840.526
 30
0.000000
  70
    32
  0
VERTEX
  8
0
  5
1A854
 10
-387.557
 20
840.525
 30
0.000000
  70
    32
  0
VERTEX
  8
0
  5
1A855
 10
-387.557
 20
840.524
 30
0.000000
  70
    32
  0
VERTEX
  8
0
  5
1A856
 10
-387.556
 20
840.523
 30
0.000000
  70
    32
  0
VERTEX
  8
0
  5
1A857
 10
-387.556
 20
840.522
 30
0.000000
  70
    32
  0
VERTEX
  8
0
  5
1A858
 10
-387.556
 20
840.521
 30
0.000000
  70
    32
  0
VERTEX
  8
0
  5
1A859
 10
-387.556
 20
840.520
 30
0.000000
  70
    32
  0
VERTEX
  8
0
  5
1A85A
 10
-387.556
 20
840.519
 30
0.000000
  70
    32
  0
VERTEX
  8
0
  5
1A85B
 10
-387.555
 20
840.518
 30
0.000000
  70
    32
  0
VERTEX
  8
0
  5
1A85C
 10
-387.555
 20
840.517
 30
0.000000
  70
    32
  0
VERTEX
  8
0
  5
1A85D
 10
-387.555
 20
840.517
 30
0.000000
  70
    32
  0
VERTEX
  8
0
  5
1A85E
 10
-387.555
 20
840.516
 30
0.000000
  70
    32
  0
VERTEX
  8
0
  5
1A85F
 10
-387.555
 20
840.515
 30
0.000000
  70
    32
  0
VERTEX
  8
0
  5
1A860
 10
-387.554
 20
840.514
 30
0.000000
  70
    32
  0
VERTEX
  8
0
  5
1A861
 10
-387.554
 20
840.513
 30
0.000000
  70
    32
  0
VERTEX
  8
0
  5
1A862
 10
-387.554
 20
840.512
 30
0.000000
  70
    32
  0
VERTEX
  8
0
  5
1A863
 10
-387.553
 20
840.511
 30
0.000000
  70
    32
  0
VERTEX
  8
0
  5
1A864
 10
-387.553
 20
840.510
 30
0.000000
  70
    32
  0
VERTEX
  8
0
  5
1A865
 10
-387.553
 20
840.509
 30
0.000000
  70
    32
  0
VERTEX
  8
0
  5
1A866
 10
-387.553
 20
840.508
 30
0.000000
  70
    32
  0
VERTEX
  8
0
  5
1A867
 10
-387.552
 20
840.508
 30
0.000000
  70
    32
  0
VERTEX
  8
0
  5
1A868
 10
-387.552
 20
840.507
 30
0.000000
  70
    32
  0
VERTEX
  8
0
  5
1A869
 10
-387.552
 20
840.506
 30
0.000000
  70
    32
  0
VERTEX
  8
0
  5
1A86A
 10
-387.551
 20
840.505
 30
0.000000
  70
    32
  0
VERTEX
  8
0
  5
1A86B
 10
-387.551
 20
840.504
 30
0.000000
  70
    32
  0
VERTEX
  8
0
  5
1A86C
 10
-387.550
 20
840.503
 30
0.000000
  70
    32
  0
VERTEX
  8
0
  5
1A86D
 10
-387.550
 20
840.502
 30
0.000000
  70
    32
  0
VERTEX
  8
0
  5
1A86E
 10
-387.550
 20
840.502
 30
0.000000
  70
    32
  0
VERTEX
  8
0
  5
1A86F
 10
-387.549
 20
840.501
 30
0.000000
  70
    32
  0
VERTEX
  8
0
  5
1A870
 10
-387.549
 20
840.500
 30
0.000000
  70
    32
  0
VERTEX
  8
0
  5
1A871
 10
-387.548
 20
840.499
 30
0.000000
  70
    32
  0
VERTEX
  8
0
  5
1A872
 10
-387.548
 20
840.498
 30
0.000000
  70
    32
  0
VERTEX
  8
0
  5
1A873
 10
-387.548
 20
840.498
 30
0.000000
  70
    32
  0
VERTEX
  8
0
  5
1A874
 10
-387.547
 20
840.497
 30
0.000000
  70
    32
  0
VERTEX
  8
0
  5
1A875
 10
-387.547
 20
840.496
 30
0.000000
  70
    32
  0
VERTEX
  8
0
  5
1A876
 10
-387.546
 20
840.495
 30
0.000000
  70
    32
  0
VERTEX
  8
0
  5
1A877
 10
-387.546
 20
840.495
 30
0.000000
  70
    32
  0
VERTEX
  8
0
  5
1A878
 10
-387.545
 20
840.494
 30
0.000000
  70
    32
  0
VERTEX
  8
0
  5
1A879
 10
-387.545
 20
840.493
 30
0.000000
  70
    32
  0
VERTEX
  8
0
  5
1A87A
 10
-387.544
 20
840.492
 30
0.000000
  70
    32
  0
VERTEX
  8
0
  5
1A87B
 10
-387.543
 20
840.492
 30
0.000000
  70
    32
  0
VERTEX
  8
0
  5
1A87C
 10
-387.543
 20
840.491
 30
0.000000
  70
    32
  0
VERTEX
  8
0
  5
1A87D
 10
-387.542
 20
840.490
 30
0.000000
  70
    32
  0
VERTEX
  8
0
  5
1A87E
 10
-387.542
 20
840.490
 30
0.000000
  70
    32
  0
VERTEX
  8
0
  5
1A87F
 10
-387.541
 20
840.489
 30
0.000000
  70
    32
  0
VERTEX
  8
0
  5
1A880
 10
-387.541
 20
840.488
 30
0.000000
  70
    32
  0
VERTEX
  8
0
  5
1A881
 10
-387.540
 20
840.488
 30
0.000000
  70
    32
  0
VERTEX
  8
0
  5
1A882
 10
-387.539
 20
840.487
 30
0.000000
  70
    32
  0
VERTEX
  8
0
  5
1A883
 10
-387.539
 20
840.487
 30
0.000000
  70
    32
  0
VERTEX
  8
0
  5
1A884
 10
-387.538
 20
840.486
 30
0.000000
  70
    32
  0
VERTEX
  8
0
  5
1A885
 10
-387.537
 20
840.485
 30
0.000000
  70
    32
  0
VERTEX
  8
0
  5
1A886
 10
-387.537
 20
840.485
 30
0.000000
  70
    32
  0
VERTEX
  8
0
  5
1A887
 10
-387.536
 20
840.484
 30
0.000000
  70
    32
  0
VERTEX
  8
0
  5
1A888
 10
-387.535
 20
840.484
 30
0.000000
  70
    32
  0
VERTEX
  8
0
  5
1A889
 10
-387.535
 20
840.483
 30
0.000000
  70
    32
  0
VERTEX
  8
0
  5
1A88A
 10
-387.534
 20
840.483
 30
0.000000
  70
    32
  0
VERTEX
  8
0
  5
1A88B
 10
-387.533
 20
840.482
 30
0.000000
  70
    32
  0
VERTEX
  8
0
  5
1A88C
 10
-387.532
 20
840.482
 30
0.000000
  70
    32
  0
VERTEX
  8
0
  5
1A88D
 10
-387.532
 20
840.481
 30
0.000000
  70
    32
  0
VERTEX
  8
0
  5
1A88E
 10
-387.531
 20
840.481
 30
0.000000
  70
    32
  0
VERTEX
  8
0
  5
1A88F
 10
-387.530
 20
840.480
 30
0.000000
  70
    32
  0
VERTEX
  8
0
  5
1A890
 10
-387.529
 20
840.480
 30
0.000000
  70
    32
  0
VERTEX
  8
0
  5
1A891
 10
-387.529
 20
840.479
 30
0.000000
  70
    32
  0
VERTEX
  8
0
  5
1A892
 10
-387.528
 20
840.479
 30
0.000000
  70
    32
  0
VERTEX
  8
0
  5
1A893
 10
-387.527
 20
840.478
 30
0.000000
  70
    32
  0
VERTEX
  8
0
  5
1A894
 10
-387.526
 20
840.478
 30
0.000000
  70
    32
  0
VERTEX
  8
0
  5
1A895
 10
-387.525
 20
840.477
 30
0.000000
  70
    32
  0
VERTEX
  8
0
  5
1A896
 10
-387.525
 20
840.477
 30
0.000000
  70
    32
  0
VERTEX
  8
0
  5
1A897
 10
-387.524
 20
840.476
 30
0.000000
  70
    32
  0
VERTEX
  8
0
  5
1A898
 10
-387.523
 20
840.476
 30
0.000000
  70
    32
  0
VERTEX
  8
0
  5
1A899
 10
-387.522
 20
840.475
 30
0.000000
  70
    32
  0
VERTEX
  8
0
  5
1A89A
 10
-387.521
 20
840.475
 30
0.000000
  70
    32
  0
VERTEX
  8
0
  5
1A89B
 10
-387.520
 20
840.475
 30
0.000000
  70
    32
  0
VERTEX
  8
0
  5
1A89C
 10
-387.520
 20
840.474
 30
0.000000
  70
    32
  0
VERTEX
  8
0
  5
1A89D
 10
-387.519
 20
840.474
 30
0.000000
  70
    32
  0
VERTEX
  8
0
  5
1A89E
 10
-387.518
 20
840.473
 30
0.000000
  70
    32
  0
VERTEX
  8
0
  5
1A89F
 10
-387.517
 20
840.473
 30
0.000000
  70
    32
  0
VERTEX
  8
0
  5
1A8A0
 10
-387.516
 20
840.472
 30
0.000000
  70
    32
  0
VERTEX
  8
0
  5
1A8A1
 10
-387.515
 20
840.472
 30
0.000000
  70
    32
  0
VERTEX
  8
0
  5
1A8A2
 10
-387.515
 20
840.472
 30
0.000000
  70
    32
  0
VERTEX
  8
0
  5
1A8A3
 10
-387.514
 20
840.471
 30
0.000000
  70
    32
  0
VERTEX
  8
0
  5
1A8A4
 10
-387.513
 20
840.471
 30
0.000000
  70
    32
  0
VERTEX
  8
0
  5
1A8A5
 10
-387.512
 20
840.470
 30
0.000000
  70
    32
  0
VERTEX
  8
0
  5
1A8A6
 10
-387.511
 20
840.470
 30
0.000000
  70
    32
  0
VERTEX
  8
0
  5
1A8A7
 10
-387.510
 20
840.470
 30
0.000000
  70
    32
  0
VERTEX
  8
0
  5
1A8A8
 10
-387.509
 20
840.469
 30
0.000000
  70
    32
  0
VERTEX
  8
0
  5
1A8A9
 10
-387.509
 20
840.469
 30
0.000000
  70
    32
  0
VERTEX
  8
0
  5
1A8AA
 10
-387.508
 20
840.468
 30
0.000000
  70
    32
  0
VERTEX
  8
0
  5
1A8AB
 10
-387.507
 20
840.468
 30
0.000000
  70
    32
  0
VERTEX
  8
0
  5
1A8AC
 10
-387.506
 20
840.468
 30
0.000000
  70
    32
  0
VERTEX
  8
0
  5
1A8AD
 10
-387.505
 20
840.467
 30
0.000000
  70
    32
  0
VERTEX
  8
0
  5
1A8AE
 10
-387.504
 20
840.467
 30
0.000000
  70
    32
  0
VERTEX
  8
0
  5
1A8AF
 10
-387.504
 20
840.466
 30
0.000000
  70
    32
  0
VERTEX
  8
0
  5
1A8B0
 10
-387.503
 20
840.466
 30
0.000000
  70
    32
  0
VERTEX
  8
0
  5
1A8B1
 10
-387.502
 20
840.465
 30
0.000000
  70
    32
  0
VERTEX
  8
0
  5
1A8B2
 10
-387.501
 20
840.465
 30
0.000000
  70
    32
  0
VERTEX
  8
0
  5
1A8B3
 10
-387.500
 20
840.465
 30
0.000000
  70
    32
  0
VERTEX
  8
0
  5
1A8B4
 10
-387.499
 20
840.464
 30
0.000000
  70
    32
  0
VERTEX
  8
0
  5
1A8B5
 10
-387.499
 20
840.464
 30
0.000000
  70
    32
  0
VERTEX
  8
0
  5
1A8B6
 10
-387.498
 20
840.463
 30
0.000000
  70
    32
  0
VERTEX
  8
0
  5
1A8B7
 10
-387.497
 20
840.463
 30
0.000000
  70
    32
  0
VERTEX
  8
0
  5
1A8B8
 10
-387.496
 20
840.462
 30
0.000000
  70
    32
  0
VERTEX
  8
0
  5
1A8B9
 10
-387.495
 20
840.462
 30
0.000000
  70
    32
  0
VERTEX
  8
0
  5
1A8BA
 10
-387.494
 20
840.462
 30
0.000000
  70
    32
  0
VERTEX
  8
0
  5
1A8BB
 10
-387.494
 20
840.461
 30
0.000000
  70
    32
  0
VERTEX
  8
0
  5
1A8BC
 10
-387.493
 20
840.461
 30
0.000000
  70
    32
  0
VERTEX
  8
0
  5
1A8BD
 10
-387.492
 20
840.460
 30
0.000000
  70
    32
  0
VERTEX
  8
0
  5
1A8BE
 10
-387.491
 20
840.460
 30
0.000000
  70
    32
  0
VERTEX
  8
0
  5
1A8BF
 10
-387.490
 20
840.459
 30
0.000000
  70
    32
  0
VERTEX
  8
0
  5
1A8C0
 10
-387.490
 20
840.459
 30
0.000000
  70
    32
  0
VERTEX
  8
0
  5
1A8C1
 10
-387.489
 20
840.458
 30
0.000000
  70
    32
  0
VERTEX
  8
0
  5
1A8C2
 10
-387.488
 20
840.458
 30
0.000000
  70
    32
  0
VERTEX
  8
0
  5
1A8C3
 10
-387.487
 20
840.457
 30
0.000000
  70
    32
  0
VERTEX
  8
0
  5
1A8C4
 10
-387.487
 20
840.457
 30
0.000000
  70
    32
  0
VERTEX
  8
0
  5
1A8C5
 10
-387.486
 20
840.456
 30
0.000000
  70
    32
  0
VERTEX
  8
0
  5
1A8C6
 10
-387.485
 20
840.456
 30
0.000000
  70
    32
  0
VERTEX
  8
0
  5
1A8C7
 10
-387.484
 20
840.455
 30
0.000000
  70
    32
  0
VERTEX
  8
0
  5
1A8C8
 10
-387.484
 20
840.454
 30
0.000000
  70
    32
  0
VERTEX
  8
0
  5
1A8C9
 10
-387.483
 20
840.454
 30
0.000000
  70
    32
  0
VERTEX
  8
0
  5
1A8CA
 10
-387.482
 20
840.453
 30
0.000000
  70
    32
  0
VERTEX
  8
0
  5
1A8CB
 10
-387.482
 20
840.453
 30
0.000000
  70
    32
  0
VERTEX
  8
0
  5
1A8CC
 10
-387.481
 20
840.452
 30
0.000000
  70
    32
  0
VERTEX
  8
0
  5
1A8CD
 10
-387.480
 20
840.452
 30
0.000000
  70
    32
  0
VERTEX
  8
0
  5
1A8CE
 10
-387.480
 20
840.451
 30
0.000000
  70
    32
  0
VERTEX
  8
0
  5
1A8CF
 10
-387.479
 20
840.450
 30
0.000000
  70
    32
  0
VERTEX
  8
0
  5
1A8D0
 10
-387.478
 20
840.450
 30
0.000000
  70
    32
  0
VERTEX
  8
0
  5
1A8D1
 10
-387.478
 20
840.449
 30
0.000000
  70
    32
  0
VERTEX
  8
0
  5
1A8D2
 10
-387.477
 20
840.448
 30
0.000000
  70
    32
  0
VERTEX
  8
0
  5
1A8D3
 10
-387.476
 20
840.448
 30
0.000000
  70
    32
  0
VERTEX
  8
0
  5
1A8D4
 10
-387.476
 20
840.447
 30
0.000000
  70
    32
  0
VERTEX
  8
0
  5
1A8D5
 10
-387.475
 20
840.446
 30
0.000000
  70
    32
  0
VERTEX
  8
0
  5
1A8D6
 10
-387.475
 20
840.446
 30
0.000000
  70
    32
  0
VERTEX
  8
0
  5
1A8D7
 10
-387.474
 20
840.445
 30
0.000000
  70
    32
  0
VERTEX
  8
0
  5
1A8D8
 10
-387.474
 20
840.444
 30
0.000000
  70
    32
  0
VERTEX
  8
0
  5
1A8D9
 10
-387.473
 20
840.443
 30
0.000000
  70
    32
  0
VERTEX
  8
0
  5
1A8DA
 10
-387.472
 20
840.443
 30
0.000000
  70
    32
  0
VERTEX
  8
0
  5
1A8DB
 10
-387.472
 20
840.442
 30
0.000000
  70
    32
  0
VERTEX
  8
0
  5
1A8DC
 10
-387.471
 20
840.441
 30
0.000000
  70
    32
  0
VERTEX
  8
0
  5
1A8DD
 10
-387.471
 20
840.440
 30
0.000000
  70
    32
  0
VERTEX
  8
0
  5
1A8DE
 10
-387.470
 20
840.439
 30
0.000000
  70
    32
  0
VERTEX
  8
0
  5
1A8DF
 10
-387.470
 20
840.439
 30
0.000000
  70
    32
  0
VERTEX
  8
0
  5
1A8E0
 10
-387.470
 20
840.438
 30
0.000000
  70
    32
  0
VERTEX
  8
0
  5
1A8E1
 10
-387.469
 20
840.437
 30
0.000000
  70
    32
  0
VERTEX
  8
0
  5
1A8E2
 10
-387.469
 20
840.436
 30
0.000000
  70
    32
  0
VERTEX
  8
0
  5
1A8E3
 10
-387.468
 20
840.435
 30
0.000000
  70
    32
  0
VERTEX
  8
0
  5
1A8E4
 10
-387.468
 20
840.434
 30
0.000000
  70
    32
  0
VERTEX
  8
0
  5
1A8E5
 10
-387.467
 20
840.434
 30
0.000000
  70
    32
  0
VERTEX
  8
0
  5
1A8E6
 10
-387.467
 20
840.433
 30
0.000000
  70
    32
  0
VERTEX
  8
0
  5
1A8E7
 10
-387.467
 20
840.432
 30
0.000000
  70
    32
  0
VERTEX
  8
0
  5
1A8E8
 10
-387.466
 20
840.431
 30
0.000000
  70
    32
  0
VERTEX
  8
0
  5
1A8E9
 10
-387.466
 20
840.430
 30
0.000000
  70
    32
  0
VERTEX
  8
0
  5
1A8EA
 10
-387.466
 20
840.429
 30
0.000000
  70
    32
  0
VERTEX
  8
0
  5
1A8EB
 10
-387.466
 20
840.428
 30
0.000000
  70
    32
  0
VERTEX
  8
0
  5
1A8EC
 10
-387.465
 20
840.427
 30
0.000000
  70
    32
  0
VERTEX
  8
0
  5
1A8ED
 10
-387.465
 20
840.426
 30
0.000000
  70
    32
  0
VERTEX
  8
0
  5
1A8EE
 10
-387.465
 20
840.425
 30
0.000000
  70
    32
  0
VERTEX
  8
0
  5
1A8EF
 10
-387.465
 20
840.425
 30
0.000000
  70
    32
  0
VERTEX
  8
0
  5
1A8F0
 10
-387.464
 20
840.424
 30
0.000000
  70
    32
  0
VERTEX
  8
0
  5
1A8F1
 10
-387.464
 20
840.423
 30
0.000000
  70
    32
  0
VERTEX
  8
0
  5
1A8F2
 10
-387.464
 20
840.422
 30
0.000000
  70
    32
  0
VERTEX
  8
0
  5
1A8F3
 10
-387.464
 20
840.421
 30
0.000000
  70
    32
  0
VERTEX
  8
0
  5
1A8F4
 10
-387.464
 20
840.420
 30
0.000000
  70
    32
  0
VERTEX
  8
0
  5
1A8F5
 10
-387.464
 20
840.419
 30
0.000000
  70
    32
  0
VERTEX
  8
0
  5
1A8F6
 10
-387.464
 20
840.418
 30
0.000000
  70
    32
  0
VERTEX
  8
0
  5
1A8F7
 10
-387.464
 20
840.417
 30
0.000000
  70
    32
  0
VERTEX
  8
0
  5
1A8F8
 10
-387.464
 20
840.416
 30
0.000000
  70
    32
  0
VERTEX
  8
0
  5
1A8F9
 10
-387.464
 20
840.415
 30
0.000000
  70
    32
  0
VERTEX
  8
0
  5
1A8FA
 10
-387.464
 20
840.414
 30
0.000000
  70
    32
  0
VERTEX
  8
0
  5
1A8FB
 10
-387.464
 20
840.413
 30
0.000000
  70
    32
  0
VERTEX
  8
0
  5
1A8FC
 10
-387.464
 20
840.412
 30
0.000000
  70
    32
  0
SEQEND
  8
0
  5
1A8FD
  0
POLYLINE
  8
0
  5
1A8FE
  66
     1
 10
0.000000
 20
0.000000
 30
0.000000
  70
     8
  0
VERTEX
  8
0
  5
1A8FF
 10
-387.580
 20
840.077
 30
0.000000
  70
    32
  0
VERTEX
  8
0
  5
1A900
 10
-387.579
 20
840.077
 30
0.000000
  70
    32
  0
VERTEX
  8
0
  5
1A901
 10
-387.578
 20
840.077
 30
0.000000
  70
    32
  0
VERTEX
  8
0
  5
1A902
 10
-387.577
 20
840.077
 30
0.000000
  70
    32
  0
VERTEX
  8
0
  5
1A903
 10
-387.577
 20
840.078
 30
0.000000
  70
    32
  0
VERTEX
  8
0
  5
1A904
 10
-387.576
 20
840.078
 30
0.000000
  70
    32
  0
VERTEX
  8
0
  5
1A905
 10
-387.575
 20
840.078
 30
0.000000
  70
    32
  0
VERTEX
  8
0
  5
1A906
 10
-387.574
 20
840.078
 30
0.000000
  70
    32
  0
VERTEX
  8
0
  5
1A907
 10
-387.573
 20
840.078
 30
0.000000
  70
    32
  0
VERTEX
  8
0
  5
1A908
 10
-387.572
 20
840.078
 30
0.000000
  70
    32
  0
VERTEX
  8
0
  5
1A909
 10
-387.571
 20
840.079
 30
0.000000
  70
    32
  0
VERTEX
  8
0
  5
1A90A
 10
-387.570
 20
840.079
 30
0.000000
  70
    32
  0
VERTEX
  8
0
  5
1A90B
 10
-387.569
 20
840.079
 30
0.000000
  70
    32
  0
VERTEX
  8
0
  5
1A90C
 10
-387.569
 20
840.079
 30
0.000000
  70
    32
  0
VERTEX
  8
0
  5
1A90D
 10
-387.568
 20
840.079
 30
0.000000
  70
    32
  0
VERTEX
  8
0
  5
1A90E
 10
-387.567
 20
840.080
 30
0.000000
  70
    32
  0
VERTEX
  8
0
  5
1A90F
 10
-387.566
 20
840.080
 30
0.000000
  70
    32
  0
VERTEX
  8
0
  5
1A910
 10
-387.565
 20
840.080
 30
0.000000
  70
    32
  0
VERTEX
  8
0
  5
1A911
 10
-387.564
 20
840.080
 30
0.000000
  70
    32
  0
VERTEX
  8
0
  5
1A912
 10
-387.563
 20
840.081
 30
0.000000
  70
    32
  0
VERTEX
  8
0
  5
1A913
 10
-387.562
 20
840.081
 30
0.000000
  70
    32
  0
VERTEX
  8
0
  5
1A914
 10
-387.561
 20
840.081
 30
0.000000
  70
    32
  0
VERTEX
  8
0
  5
1A915
 10
-387.561
 20
840.081
 30
0.000000
  70
    32
  0
VERTEX
  8
0
  5
1A916
 10
-387.560
 20
840.082
 30
0.000000
  70
    32
  0
VERTEX
  8
0
  5
1A917
 10
-387.559
 20
840.082
 30
0.000000
  70
    32
  0
VERTEX
  8
0
  5
1A918
 10
-387.558
 20
840.082
 30
0.000000
  70
    32
  0
VERTEX
  8
0
  5
1A919
 10
-387.557
 20
840.082
 30
0.000000
  70
    32
  0
VERTEX
  8
0
  5
1A91A
 10
-387.556
 20
840.082
 30
0.000000
  70
    32
  0
VERTEX
  8
0
  5
1A91B
 10
-387.555
 20
840.083
 30
0.000000
  70
    32
  0
VERTEX
  8
0
  5
1A91C
 10
-387.554
 20
840.083
 30
0.000000
  70
    32
  0
VERTEX
  8
0
  5
1A91D
 10
-387.554
 20
840.083
 30
0.000000
  70
    32
  0
VERTEX
  8
0
  5
1A91E
 10
-387.553
 20
840.083
 30
0.000000
  70
    32
  0
VERTEX
  8
0
  5
1A91F
 10
-387.552
 20
840.084
 30
0.000000
  70
    32
  0
VERTEX
  8
0
  5
1A920
 10
-387.551
 20
840.084
 30
0.000000
  70
    32
  0
VERTEX
  8
0
  5
1A921
 10
-387.550
 20
840.084
 30
0.000000
  70
    32
  0
VERTEX
  8
0
  5
1A922
 10
-387.549
 20
840.084
 30
0.000000
  70
    32
  0
VERTEX
  8
0
  5
1A923
 10
-387.548
 20
840.085
 30
0.000000
  70
    32
  0
VERTEX
  8
0
  5
1A924
 10
-387.547
 20
840.085
 30
0.000000
  70
    32
  0
VERTEX
  8
0
  5
1A925
 10
-387.547
 20
840.085
 30
0.000000
  70
    32
  0
VERTEX
  8
0
  5
1A926
 10
-387.546
 20
840.085
 30
0.000000
  70
    32
  0
VERTEX
  8
0
  5
1A927
 10
-387.545
 20
840.085
 30
0.000000
  70
    32
  0
VERTEX
  8
0
  5
1A928
 10
-387.544
 20
840.086
 30
0.000000
  70
    32
  0
VERTEX
  8
0
  5
1A929
 10
-387.543
 20
840.086
 30
0.000000
  70
    32
  0
VERTEX
  8
0
  5
1A92A
 10
-387.542
 20
840.086
 30
0.000000
  70
    32
  0
VERTEX
  8
0
  5
1A92B
 10
-387.541
 20
840.086
 30
0.000000
  70
    32
  0
VERTEX
  8
0
  5
1A92C
 10
-387.540
 20
840.087
 30
0.000000
  70
    32
  0
VERTEX
  8
0
  5
1A92D
 10
-387.540
 20
840.087
 30
0.000000
  70
    32
  0
VERTEX
  8
0
  5
1A92E
 10
-387.539
 20
840.087
 30
0.000000
  70
    32
  0
VERTEX
  8
0
  5
1A92F
 10
-387.538
 20
840.087
 30
0.000000
  70
    32
  0
VERTEX
  8
0
  5
1A930
 10
-387.537
 20
840.087
 30
0.000000
  70
    32
  0
VERTEX
  8
0
  5
1A931
 10
-387.536
 20
840.088
 30
0.000000
  70
    32
  0
VERTEX
  8
0
  5
1A932
 10
-387.535
 20
840.088
 30
0.000000
  70
    32
  0
VERTEX
  8
0
  5
1A933
 10
-387.534
 20
840.088
 30
0.000000
  70
    32
  0
VERTEX
  8
0
  5
1A934
 10
-387.533
 20
840.088
 30
0.000000
  70
    32
  0
VERTEX
  8
0
  5
1A935
 10
-387.533
 20
840.088
 30
0.000000
  70
    32
  0
VERTEX
  8
0
  5
1A936
 10
-387.532
 20
840.089
 30
0.000000
  70
    32
  0
VERTEX
  8
0
  5
1A937
 10
-387.531
 20
840.089
 30
0.000000
  70
    32
  0
VERTEX
  8
0
  5
1A938
 10
-387.530
 20
840.089
 30
0.000000
  70
    32
  0
VERTEX
  8
0
  5
1A939
 10
-387.529
 20
840.089
 30
0.000000
  70
    32
  0
VERTEX
  8
0
  5
1A93A
 10
-387.528
 20
840.090
 30
0.000000
  70
    32
  0
VERTEX
  8
0
  5
1A93B
 10
-387.527
 20
840.090
 30
0.000000
  70
    32
  0
VERTEX
  8
0
  5
1A93C
 10
-387.526
 20
840.090
 30
0.000000
  70
    32
  0
VERTEX
  8
0
  5
1A93D
 10
-387.526
 20
840.090
 30
0.000000
  70
    32
  0
VERTEX
  8
0
  5
1A93E
 10
-387.525
 20
840.090
 30
0.000000
  70
    32
  0
VERTEX
  8
0
  5
1A93F
 10
-387.524
 20
840.091
 30
0.000000
  70
    32
  0
VERTEX
  8
0
  5
1A940
 10
-387.523
 20
840.091
 30
0.000000
  70
    32
  0
VERTEX
  8
0
  5
1A941
 10
-387.522
 20
840.091
 30
0.000000
  70
    32
  0
VERTEX
  8
0
  5
1A942
 10
-387.521
 20
840.091
 30
0.000000
  70
    32
  0
VERTEX
  8
0
  5
1A943
 10
-387.520
 20
840.091
 30
0.000000
  70
    32
  0
VERTEX
  8
0
  5
1A944
 10
-387.519
 20
840.092
 30
0.000000
  70
    32
  0
VERTEX
  8
0
  5
1A945
 10
-387.518
 20
840.092
 30
0.000000
  70
    32
  0
VERTEX
  8
0
  5
1A946
 10
-387.517
 20
840.092
 30
0.000000
  70
    32
  0
VERTEX
  8
0
  5
1A947
 10
-387.517
 20
840.092
 30
0.000000
  70
    32
  0
VERTEX
  8
0
  5
1A948
 10
-387.516
 20
840.093
 30
0.000000
  70
    32
  0
VERTEX
  8
0
  5
1A949
 10
-387.515
 20
840.093
 30
0.000000
  70
    32
  0
VERTEX
  8
0
  5
1A94A
 10
-387.514
 20
840.093
 30
0.000000
  70
    32
  0
VERTEX
  8
0
  5
1A94B
 10
-387.513
 20
840.093
 30
0.000000
  70
    32
  0
VERTEX
  8
0
  5
1A94C
 10
-387.512
 20
840.094
 30
0.000000
  70
    32
  0
VERTEX
  8
0
  5
1A94D
 10
-387.511
 20
840.094
 30
0.000000
  70
    32
  0
VERTEX
  8
0
  5
1A94E
 10
-387.510
 20
840.094
 30
0.000000
  70
    32
  0
VERTEX
  8
0
  5
1A94F
 10
-387.509
 20
840.094
 30
0.000000
  70
    32
  0
VERTEX
  8
0
  5
1A950
 10
-387.508
 20
840.094
 30
0.000000
  70
    32
  0
VERTEX
  8
0
  5
1A951
 10
-387.507
 20
840.095
 30
0.000000
  70
    32
  0
VERTEX
  8
0
  5
1A952
 10
-387.506
 20
840.095
 30
0.000000
  70
    32
  0
VERTEX
  8
0
  5
1A953
 10
-387.506
 20
840.095
 30
0.000000
  70
    32
  0
VERTEX
  8
0
  5
1A954
 10
-387.505
 20
840.096
 30
0.000000
  70
    32
  0
VERTEX
  8
0
  5
1A955
 10
-387.504
 20
840.096
 30
0.000000
  70
    32
  0
VERTEX
  8
0
  5
1A956
 10
-387.503
 20
840.096
 30
0.000000
  70
    32
  0
VERTEX
  8
0
  5
1A957
 10
-387.502
 20
840.096
 30
0.000000
  70
    32
  0
VERTEX
  8
0
  5
1A958
 10
-387.501
 20
840.097
 30
0.000000
  70
    32
  0
VERTEX
  8
0
  5
1A959
 10
-387.500
 20
840.097
 30
0.000000
  70
    32
  0
VERTEX
  8
0
  5
1A95A
 10
-387.499
 20
840.097
 30
0.000000
  70
    32
  0
VERTEX
  8
0
  5
1A95B
 10
-387.498
 20
840.097
 30
0.000000
  70
    32
  0
VERTEX
  8
0
  5
1A95C
 10
-387.497
 20
840.098
 30
0.000000
  70
    32
  0
VERTEX
  8
0
  5
1A95D
 10
-387.496
 20
840.098
 30
0.000000
  70
    32
  0
VERTEX
  8
0
  5
1A95E
 10
-387.495
 20
840.098
 30
0.000000
  70
    32
  0
VERTEX
  8
0
  5
1A95F
 10
-387.495
 20
840.099
 30
0.000000
  70
    32
  0
VERTEX
  8
0
  5
1A960
 10
-387.494
 20
840.099
 30
0.000000
  70
    32
  0
VERTEX
  8
0
  5
1A961
 10
-387.493
 20
840.099
 30
0.000000
  70
    32
  0
VERTEX
  8
0
  5
1A962
 10
-387.492
 20
840.100
 30
0.000000
  70
    32
  0
VERTEX
  8
0
  5
1A963
 10
-387.491
 20
840.100
 30
0.000000
  70
    32
  0
VERTEX
  8
0
  5
1A964
 10
-387.490
 20
840.100
 30
0.000000
  70
    32
  0
VERTEX
  8
0
  5
1A965
 10
-387.489
 20
840.101
 30
0.000000
  70
    32
  0
VERTEX
  8
0
  5
1A966
 10
-387.488
 20
840.101
 30
0.000000
  70
    32
  0
VERTEX
  8
0
  5
1A967
 10
-387.488
 20
840.102
 30
0.000000
  70
    32
  0
VERTEX
  8
0
  5
1A968
 10
-387.487
 20
840.102
 30
0.000000
  70
    32
  0
VERTEX
  8
0
  5
1A969
 10
-387.486
 20
840.102
 30
0.000000
  70
    32
  0
VERTEX
  8
0
  5
1A96A
 10
-387.485
 20
840.103
 30
0.000000
  70
    32
  0
VERTEX
  8
0
  5
1A96B
 10
-387.484
 20
840.103
 30
0.000000
  70
    32
  0
VERTEX
  8
0
  5
1A96C
 10
-387.484
 20
840.104
 30
0.000000
  70
    32
  0
VERTEX
  8
0
  5
1A96D
 10
-387.483
 20
840.104
 30
0.000000
  70
    32
  0
VERTEX
  8
0
  5
1A96E
 10
-387.482
 20
840.105
 30
0.000000
  70
    32
  0
VERTEX
  8
0
  5
1A96F
 10
-387.481
 20
840.105
 30
0.000000
  70
    32
  0
VERTEX
  8
0
  5
1A970
 10
-387.481
 20
840.106
 30
0.000000
  70
    32
  0
VERTEX
  8
0
  5
1A971
 10
-387.480
 20
840.106
 30
0.000000
  70
    32
  0
VERTEX
  8
0
  5
1A972
 10
-387.479
 20
840.107
 30
0.000000
  70
    32
  0
VERTEX
  8
0
  5
1A973
 10
-387.478
 20
840.107
 30
0.000000
  70
    32
  0
VERTEX
  8
0
  5
1A974
 10
-387.478
 20
840.108
 30
0.000000
  70
    32
  0
VERTEX
  8
0
  5
1A975
 10
-387.477
 20
840.108
 30
0.000000
  70
    32
  0
VERTEX
  8
0
  5
1A976
 10
-387.476
 20
840.109
 30
0.000000
  70
    32
  0
VERTEX
  8
0
  5
1A977
 10
-387.476
 20
840.110
 30
0.000000
  70
    32
  0
VERTEX
  8
0
  5
1A978
 10
-387.475
 20
840.110
 30
0.000000
  70
    32
  0
VERTEX
  8
0
  5
1A979
 10
-387.475
 20
840.111
 30
0.000000
  70
    32
  0
VERTEX
  8
0
  5
1A97A
 10
-387.474
 20
840.112
 30
0.000000
  70
    32
  0
VERTEX
  8
0
  5
1A97B
 10
-387.473
 20
840.112
 30
0.000000
  70
    32
  0
VERTEX
  8
0
  5
1A97C
 10
-387.473
 20
840.113
 30
0.000000
  70
    32
  0
VERTEX
  8
0
  5
1A97D
 10
-387.472
 20
840.114
 30
0.000000
  70
    32
  0
VERTEX
  8
0
  5
1A97E
 10
-387.472
 20
840.114
 30
0.000000
  70
    32
  0
VERTEX
  8
0
  5
1A97F
 10
-387.471
 20
840.115
 30
0.000000
  70
    32
  0
VERTEX
  8
0
  5
1A980
 10
-387.471
 20
840.116
 30
0.000000
  70
    32
  0
VERTEX
  8
0
  5
1A981
 10
-387.471
 20
840.117
 30
0.000000
  70
    32
  0
VERTEX
  8
0
  5
1A982
 10
-387.470
 20
840.118
 30
0.000000
  70
    32
  0
VERTEX
  8
0
  5
1A983
 10
-387.470
 20
840.118
 30
0.000000
  70
    32
  0
VERTEX
  8
0
  5
1A984
 10
-387.469
 20
840.119
 30
0.000000
  70
    32
  0
VERTEX
  8
0
  5
1A985
 10
-387.469
 20
840.120
 30
0.000000
  70
    32
  0
VERTEX
  8
0
  5
1A986
 10
-387.469
 20
840.121
 30
0.000000
  70
    32
  0
VERTEX
  8
0
  5
1A987
 10
-387.468
 20
840.122
 30
0.000000
  70
    32
  0
VERTEX
  8
0
  5
1A988
 10
-387.468
 20
840.122
 30
0.000000
  70
    32
  0
VERTEX
  8
0
  5
1A989
 10
-387.468
 20
840.123
 30
0.000000
  70
    32
  0
VERTEX
  8
0
  5
1A98A
 10
-387.467
 20
840.124
 30
0.000000
  70
    32
  0
VERTEX
  8
0
  5
1A98B
 10
-387.467
 20
840.125
 30
0.000000
  70
    32
  0
VERTEX
  8
0
  5
1A98C
 10
-387.467
 20
840.126
 30
0.000000
  70
    32
  0
VERTEX
  8
0
  5
1A98D
 10
-387.467
 20
840.127
 30
0.000000
  70
    32
  0
VERTEX
  8
0
  5
1A98E
 10
-387.466
 20
840.128
 30
0.000000
  70
    32
  0
VERTEX
  8
0
  5
1A98F
 10
-387.466
 20
840.129
 30
0.000000
  70
    32
  0
VERTEX
  8
0
  5
1A990
 10
-387.466
 20
840.130
 30
0.000000
  70
    32
  0
VERTEX
  8
0
  5
1A991
 10
-387.466
 20
840.131
 30
0.000000
  70
    32
  0
VERTEX
  8
0
  5
1A992
 10
-387.465
 20
840.132
 30
0.000000
  70
    32
  0
VERTEX
  8
0
  5
1A993
 10
-387.465
 20
840.132
 30
0.000000
  70
    32
  0
VERTEX
  8
0
  5
1A994
 10
-387.465
 20
840.133
 30
0.000000
  70
    32
  0
VERTEX
  8
0
  5
1A995
 10
-387.465
 20
840.134
 30
0.000000
  70
    32
  0
VERTEX
  8
0
  5
1A996
 10
-387.465
 20
840.135
 30
0.000000
  70
    32
  0
VERTEX
  8
0
  5
1A997
 10
-387.465
 20
840.136
 30
0.000000
  70
    32
  0
VERTEX
  8
0
  5
1A998
 10
-387.465
 20
840.137
 30
0.000000
  70
    32
  0
VERTEX
  8
0
  5
1A999
 10
-387.465
 20
840.138
 30
0.000000
  70
    32
  0
VERTEX
  8
0
  5
1A99A
 10
-387.464
 20
840.139
 30
0.000000
  70
    32
  0
VERTEX
  8
0
  5
1A99B
 10
-387.464
 20
840.140
 30
0.000000
  70
    32
  0
VERTEX
  8
0
  5
1A99C
 10
-387.464
 20
840.141
 30
0.000000
  70
    32
  0
VERTEX
  8
0
  5
1A99D
 10
-387.464
 20
840.142
 30
0.000000
  70
    32
  0
VERTEX
  8
0
  5
1A99E
 10
-387.464
 20
840.143
 30
0.000000
  70
    32
  0
VERTEX
  8
0
  5
1A99F
 10
-387.464
 20
840.144
 30
0.000000
  70
    32
  0
VERTEX
  8
0
  5
1A9A0
 10
-387.464
 20
840.145
 30
0.000000
  70
    32
  0
VERTEX
  8
0
  5
1A9A1
 10
-387.464
 20
840.146
 30
0.000000
  70
    32
  0
VERTEX
  8
0
  5
1A9A2
 10
-387.464
 20
840.147
 30
0.000000
  70
    32
  0
VERTEX
  8
0
  5
1A9A3
 10
-387.464
 20
840.148
 30
0.000000
  70
    32
  0
VERTEX
  8
0
  5
1A9A4
 10
-387.464
 20
840.149
 30
0.000000
  70
    32
  0
VERTEX
  8
0
  5
1A9A5
 10
-387.464
 20
840.149
 30
0.000000
  70
    32
  0
VERTEX
  8
0
  5
1A9A6
 10
-387.464
 20
840.150
 30
0.000000
  70
    32
  0
VERTEX
  8
0
  5
1A9A7
 10
-387.464
 20
840.151
 30
0.000000
  70
    32
  0
VERTEX
  8
0
  5
1A9A8
 10
-387.464
 20
840.152
 30
0.000000
  70
    32
  0
VERTEX
  8
0
  5
1A9A9
 10
-387.464
 20
840.153
 30
0.000000
  70
    32
  0
VERTEX
  8
0
  5
1A9AA
 10
-387.464
 20
840.154
 30
0.000000
  70
    32
  0
VERTEX
  8
0
  5
1A9AB
 10
-387.464
 20
840.155
 30
0.000000
  70
    32
  0
VERTEX
  8
0
  5
1A9AC
 10
-387.464
 20
840.156
 30
0.000000
  70
    32
  0
VERTEX
  8
0
  5
1A9AD
 10
-387.464
 20
840.157
 30
0.000000
  70
    32
  0
VERTEX
  8
0
  5
1A9AE
 10
-387.464
 20
840.158
 30
0.000000
  70
    32
  0
VERTEX
  8
0
  5
1A9AF
 10
-387.465
 20
840.159
 30
0.000000
  70
    32
  0
VERTEX
  8
0
  5
1A9B0
 10
-387.465
 20
840.159
 30
0.000000
  70
    32
  0
VERTEX
  8
0
  5
1A9B1
 10
-387.465
 20
840.160
 30
0.000000
  70
    32
  0
VERTEX
  8
0
  5
1A9B2
 10
-387.465
 20
840.161
 30
0.000000
  70
    32
  0
VERTEX
  8
0
  5
1A9B3
 10
-387.465
 20
840.162
 30
0.000000
  70
    32
  0
VERTEX
  8
0
  5
1A9B4
 10
-387.465
 20
840.163
 30
0.000000
  70
    32
  0
VERTEX
  8
0
  5
1A9B5
 10
-387.465
 20
840.164
 30
0.000000
  70
    32
  0
VERTEX
  8
0
  5
1A9B6
 10
-387.466
 20
840.165
 30
0.000000
  70
    32
  0
VERTEX
  8
0
  5
1A9B7
 10
-387.466
 20
840.166
 30
0.000000
  70
    32
  0
VERTEX
  8
0
  5
1A9B8
 10
-387.466
 20
840.167
 30
0.000000
  70
    32
  0
VERTEX
  8
0
  5
1A9B9
 10
-387.466
 20
840.168
 30
0.000000
  70
    32
  0
VERTEX
  8
0
  5
1A9BA
 10
-387.466
 20
840.168
 30
0.000000
  70
    32
  0
VERTEX
  8
0
  5
1A9BB
 10
-387.467
 20
840.169
 30
0.000000
  70
    32
  0
VERTEX
  8
0
  5
1A9BC
 10
-387.467
 20
840.170
 30
0.000000
  70
    32
  0
VERTEX
  8
0
  5
1A9BD
 10
-387.467
 20
840.171
 30
0.000000
  70
    32
  0
VERTEX
  8
0
  5
1A9BE
 10
-387.467
 20
840.172
 30
0.000000
  70
    32
  0
VERTEX
  8
0
  5
1A9BF
 10
-387.468
 20
840.173
 30
0.000000
  70
    32
  0
VERTEX
  8
0
  5
1A9C0
 10
-387.468
 20
840.174
 30
0.000000
  70
    32
  0
VERTEX
  8
0
  5
1A9C1
 10
-387.468
 20
840.175
 30
0.000000
  70
    32
  0
VERTEX
  8
0
  5
1A9C2
 10
-387.469
 20
840.175
 30
0.000000
  70
    32
  0
VERTEX
  8
0
  5
1A9C3
 10
-387.469
 20
840.176
 30
0.000000
  70
    32
  0
VERTEX
  8
0
  5
1A9C4
 10
-387.469
 20
840.177
 30
0.000000
  70
    32
  0
VERTEX
  8
0
  5
1A9C5
 10
-387.470
 20
840.178
 30
0.000000
  70
    32
  0
VERTEX
  8
0
  5
1A9C6
 10
-387.470
 20
840.179
 30
0.000000
  70
    32
  0
VERTEX
  8
0
  5
1A9C7
 10
-387.471
 20
840.180
 30
0.000000
  70
    32
  0
VERTEX
  8
0
  5
1A9C8
 10
-387.471
 20
840.181
 30
0.000000
  70
    32
  0
VERTEX
  8
0
  5
1A9C9
 10
-387.472
 20
840.181
 30
0.000000
  70
    32
  0
VERTEX
  8
0
  5
1A9CA
 10
-387.472
 20
840.182
 30
0.000000
  70
    32
  0
VERTEX
  8
0
  5
1A9CB
 10
-387.472
 20
840.183
 30
0.000000
  70
    32
  0
VERTEX
  8
0
  5
1A9CC
 10
-387.473
 20
840.184
 30
0.000000
  70
    32
  0
VERTEX
  8
0
  5
1A9CD
 10
-387.473
 20
840.185
 30
0.000000
  70
    32
  0
VERTEX
  8
0
  5
1A9CE
 10
-387.474
 20
840.185
 30
0.000000
  70
    32
  0
VERTEX
  8
0
  5
1A9CF
 10
-387.474
 20
840.186
 30
0.000000
  70
    32
  0
VERTEX
  8
0
  5
1A9D0
 10
-387.475
 20
840.187
 30
0.000000
  70
    32
  0
VERTEX
  8
0
  5
1A9D1
 10
-387.476
 20
840.188
 30
0.000000
  70
    32
  0
VERTEX
  8
0
  5
1A9D2
 10
-387.476
 20
840.188
 30
0.000000
  70
    32
  0
VERTEX
  8
0
  5
1A9D3
 10
-387.477
 20
840.189
 30
0.000000
  70
    32
  0
VERTEX
  8
0
  5
1A9D4
 10
-387.477
 20
840.190
 30
0.000000
  70
    32
  0
VERTEX
  8
0
  5
1A9D5
 10
-387.478
 20
840.190
 30
0.000000
  70
    32
  0
VERTEX
  8
0
  5
1A9D6
 10
-387.479
 20
840.191
 30
0.000000
  70
    32
  0
VERTEX
  8
0
  5
1A9D7
 10
-387.479
 20
840.192
 30
0.000000
  70
    32
  0
VERTEX
  8
0
  5
1A9D8
 10
-387.480
 20
840.192
 30
0.000000
  70
    32
  0
VERTEX
  8
0
  5
1A9D9
 10
-387.480
 20
840.193
 30
0.000000
  70
    32
  0
VERTEX
  8
0
  5
1A9DA
 10
-387.481
 20
840.194
 30
0.000000
  70
    32
  0
VERTEX
  8
0
  5
1A9DB
 10
-387.482
 20
840.194
 30
0.000000
  70
    32
  0
VERTEX
  8
0
  5
1A9DC
 10
-387.483
 20
840.195
 30
0.000000
  70
    32
  0
VERTEX
  8
0
  5
1A9DD
 10
-387.483
 20
840.195
 30
0.000000
  70
    32
  0
VERTEX
  8
0
  5
1A9DE
 10
-387.484
 20
840.196
 30
0.000000
  70
    32
  0
VERTEX
  8
0
  5
1A9DF
 10
-387.485
 20
840.196
 30
0.000000
  70
    32
  0
VERTEX
  8
0
  5
1A9E0
 10
-387.485
 20
840.197
 30
0.000000
  70
    32
  0
VERTEX
  8
0
  5
1A9E1
 10
-387.486
 20
840.197
 30
0.000000
  70
    32
  0
VERTEX
  8
0
  5
1A9E2
 10
-387.487
 20
840.198
 30
0.000000
  70
    32
  0
VERTEX
  8
0
  5
1A9E3
 10
-387.488
 20
840.198
 30
0.000000
  70
    32
  0
VERTEX
  8
0
  5
1A9E4
 10
-387.489
 20
840.198
 30
0.000000
  70
    32
  0
VERTEX
  8
0
  5
1A9E5
 10
-387.489
 20
840.199
 30
0.000000
  70
    32
  0
VERTEX
  8
0
  5
1A9E6
 10
-387.490
 20
840.199
 30
0.000000
  70
    32
  0
VERTEX
  8
0
  5
1A9E7
 10
-387.491
 20
840.200
 30
0.000000
  70
    32
  0
VERTEX
  8
0
  5
1A9E8
 10
-387.492
 20
840.200
 30
0.000000
  70
    32
  0
VERTEX
  8
0
  5
1A9E9
 10
-387.493
 20
840.200
 30
0.000000
  70
    32
  0
VERTEX
  8
0
  5
1A9EA
 10
-387.494
 20
840.201
 30
0.000000
  70
    32
  0
VERTEX
  8
0
  5
1A9EB
 10
-387.494
 20
840.201
 30
0.000000
  70
    32
  0
VERTEX
  8
0
  5
1A9EC
 10
-387.495
 20
840.201
 30
0.000000
  70
    32
  0
VERTEX
  8
0
  5
1A9ED
 10
-387.496
 20
840.202
 30
0.000000
  70
    32
  0
VERTEX
  8
0
  5
1A9EE
 10
-387.497
 20
840.202
 30
0.000000
  70
    32
  0
VERTEX
  8
0
  5
1A9EF
 10
-387.498
 20
840.203
 30
0.000000
  70
    32
  0
VERTEX
  8
0
  5
1A9F0
 10
-387.499
 20
840.203
 30
0.000000
  70
    32
  0
VERTEX
  8
0
  5
1A9F1
 10
-387.500
 20
840.203
 30
0.000000
  70
    32
  0
VERTEX
  8
0
  5
1A9F2
 10
-387.500
 20
840.204
 30
0.000000
  70
    32
  0
VERTEX
  8
0
  5
1A9F3
 10
-387.501
 20
840.204
 30
0.000000
  70
    32
  0
VERTEX
  8
0
  5
1A9F4
 10
-387.502
 20
840.204
 30
0.000000
  70
    32
  0
VERTEX
  8
0
  5
1A9F5
 10
-387.503
 20
840.205
 30
0.000000
  70
    32
  0
VERTEX
  8
0
  5
1A9F6
 10
-387.504
 20
840.205
 30
0.000000
  70
    32
  0
VERTEX
  8
0
  5
1A9F7
 10
-387.505
 20
840.205
 30
0.000000
  70
    32
  0
VERTEX
  8
0
  5
1A9F8
 10
-387.506
 20
840.206
 30
0.000000
  70
    32
  0
VERTEX
  8
0
  5
1A9F9
 10
-387.506
 20
840.206
 30
0.000000
  70
    32
  0
VERTEX
  8
0
  5
1A9FA
 10
-387.507
 20
840.206
 30
0.000000
  70
    32
  0
VERTEX
  8
0
  5
1A9FB
 10
-387.508
 20
840.207
 30
0.000000
  70
    32
  0
VERTEX
  8
0
  5
1A9FC
 10
-387.509
 20
840.207
 30
0.000000
  70
    32
  0
VERTEX
  8
0
  5
1A9FD
 10
-387.510
 20
840.208
 30
0.000000
  70
    32
  0
VERTEX
  8
0
  5
1A9FE
 10
-387.511
 20
840.208
 30
0.000000
  70
    32
  0
VERTEX
  8
0
  5
1A9FF
 10
-387.512
 20
840.208
 30
0.000000
  70
    32
  0
VERTEX
  8
0
  5
1AA00
 10
-387.512
 20
840.209
 30
0.000000
  70
    32
  0
VERTEX
  8
0
  5
1AA01
 10
-387.513
 20
840.209
 30
0.000000
  70
    32
  0
VERTEX
  8
0
  5
1AA02
 10
-387.514
 20
840.210
 30
0.000000
  70
    32
  0
VERTEX
  8
0
  5
1AA03
 10
-387.515
 20
840.210
 30
0.000000
  70
    32
  0
VERTEX
  8
0
  5
1AA04
 10
-387.516
 20
840.211
 30
0.000000
  70
    32
  0
VERTEX
  8
0
  5
1AA05
 10
-387.516
 20
840.211
 30
0.000000
  70
    32
  0
VERTEX
  8
0
  5
1AA06
 10
-387.517
 20
840.212
 30
0.000000
  70
    32
  0
VERTEX
  8
0
  5
1AA07
 10
-387.518
 20
840.212
 30
0.000000
  70
    32
  0
VERTEX
  8
0
  5
1AA08
 10
-387.519
 20
840.213
 30
0.000000
  70
    32
  0
VERTEX
  8
0
  5
1AA09
 10
-387.520
 20
840.213
 30
0.000000
  70
    32
  0
VERTEX
  8
0
  5
1AA0A
 10
-387.520
 20
840.214
 30
0.000000
  70
    32
  0
VERTEX
  8
0
  5
1AA0B
 10
-387.521
 20
840.214
 30
0.000000
  70
    32
  0
VERTEX
  8
0
  5
1AA0C
 10
-387.522
 20
840.215
 30
0.000000
  70
    32
  0
VERTEX
  8
0
  5
1AA0D
 10
-387.523
 20
840.215
 30
0.000000
  70
    32
  0
VERTEX
  8
0
  5
1AA0E
 10
-387.523
 20
840.216
 30
0.000000
  70
    32
  0
VERTEX
  8
0
  5
1AA0F
 10
-387.524
 20
840.216
 30
0.000000
  70
    32
  0
VERTEX
  8
0
  5
1AA10
 10
-387.525
 20
840.217
 30
0.000000
  70
    32
  0
VERTEX
  8
0
  5
1AA11
 10
-387.526
 20
840.217
 30
0.000000
  70
    32
  0
VERTEX
  8
0
  5
1AA12
 10
-387.526
 20
840.218
 30
0.000000
  70
    32
  0
VERTEX
  8
0
  5
1AA13
 10
-387.527
 20
840.218
 30
0.000000
  70
    32
  0
VERTEX
  8
0
  5
1AA14
 10
-387.528
 20
840.219
 30
0.000000
  70
    32
  0
VERTEX
  8
0
  5
1AA15
 10
-387.529
 20
840.220
 30
0.000000
  70
    32
  0
VERTEX
  8
0
  5
1AA16
 10
-387.529
 20
840.220
 30
0.000000
  70
    32
  0
VERTEX
  8
0
  5
1AA17
 10
-387.530
 20
840.221
 30
0.000000
  70
    32
  0
VERTEX
  8
0
  5
1AA18
 10
-387.531
 20
840.221
 30
0.000000
  70
    32
  0
VERTEX
  8
0
  5
1AA19
 10
-387.531
 20
840.222
 30
0.000000
  70
    32
  0
VERTEX
  8
0
  5
1AA1A
 10
-387.532
 20
840.223
 30
0.000000
  70
    32
  0
VERTEX
  8
0
  5
1AA1B
 10
-387.533
 20
840.223
 30
0.000000
  70
    32
  0
VERTEX
  8
0
  5
1AA1C
 10
-387.533
 20
840.224
 30
0.000000
  70
    32
  0
VERTEX
  8
0
  5
1AA1D
 10
-387.534
 20
840.224
 30
0.000000
  70
    32
  0
VERTEX
  8
0
  5
1AA1E
 10
-387.535
 20
840.225
 30
0.000000
  70
    32
  0
VERTEX
  8
0
  5
1AA1F
 10
-387.535
 20
840.226
 30
0.000000
  70
    32
  0
VERTEX
  8
0
  5
1AA20
 10
-387.536
 20
840.226
 30
0.000000
  70
    32
  0
VERTEX
  8
0
  5
1AA21
 10
-387.537
 20
840.227
 30
0.000000
  70
    32
  0
VERTEX
  8
0
  5
1AA22
 10
-387.537
 20
840.228
 30
0.000000
  70
    32
  0
VERTEX
  8
0
  5
1AA23
 10
-387.538
 20
840.228
 30
0.000000
  70
    32
  0
VERTEX
  8
0
  5
1AA24
 10
-387.538
 20
840.229
 30
0.000000
  70
    32
  0
VERTEX
  8
0
  5
1AA25
 10
-387.539
 20
840.230
 30
0.000000
  70
    32
  0
VERTEX
  8
0
  5
1AA26
 10
-387.540
 20
840.231
 30
0.000000
  70
    32
  0
VERTEX
  8
0
  5
1AA27
 10
-387.540
 20
840.231
 30
0.000000
  70
    32
  0
VERTEX
  8
0
  5
1AA28
 10
-387.541
 20
840.232
 30
0.000000
  70
    32
  0
VERTEX
  8
0
  5
1AA29
 10
-387.541
 20
840.233
 30
0.000000
  70
    32
  0
VERTEX
  8
0
  5
1AA2A
 10
-387.542
 20
840.233
 30
0.000000
  70
    32
  0
VERTEX
  8
0
  5
1AA2B
 10
-387.542
 20
840.234
 30
0.000000
  70
    32
  0
VERTEX
  8
0
  5
1AA2C
 10
-387.543
 20
840.235
 30
0.000000
  70
    32
  0
VERTEX
  8
0
  5
1AA2D
 10
-387.543
 20
840.236
 30
0.000000
  70
    32
  0
VERTEX
  8
0
  5
1AA2E
 10
-387.544
 20
840.236
 30
0.000000
  70
    32
  0
VERTEX
  8
0
  5
1AA2F
 10
-387.544
 20
840.237
 30
0.000000
  70
    32
  0
VERTEX
  8
0
  5
1AA30
 10
-387.545
 20
840.238
 30
0.000000
  70
    32
  0
VERTEX
  8
0
  5
1AA31
 10
-387.545
 20
840.239
 30
0.000000
  70
    32
  0
VERTEX
  8
0
  5
1AA32
 10
-387.546
 20
840.240
 30
0.000000
  70
    32
  0
VERTEX
  8
0
  5
1AA33
 10
-387.546
 20
840.240
 30
0.000000
  70
    32
  0
VERTEX
  8
0
  5
1AA34
 10
-387.547
 20
840.241
 30
0.000000
  70
    32
  0
VERTEX
  8
0
  5
1AA35
 10
-387.547
 20
840.242
 30
0.000000
  70
    32
  0
VERTEX
  8
0
  5
1AA36
 10
-387.548
 20
840.243
 30
0.000000
  70
    32
  0
VERTEX
  8
0
  5
1AA37
 10
-387.548
 20
840.244
 30
0.000000
  70
    32
  0
VERTEX
  8
0
  5
1AA38
 10
-387.549
 20
840.244
 30
0.000000
  70
    32
  0
VERTEX
  8
0
  5
1AA39
 10
-387.549
 20
840.245
 30
0.000000
  70
    32
  0
VERTEX
  8
0
  5
1AA3A
 10
-387.549
 20
840.246
 30
0.000000
  70
    32
  0
VERTEX
  8
0
  5
1AA3B
 10
-387.550
 20
840.247
 30
0.000000
  70
    32
  0
VERTEX
  8
0
  5
1AA3C
 10
-387.550
 20
840.248
 30
0.000000
  70
    32
  0
VERTEX
  8
0
  5
1AA3D
 10
-387.551
 20
840.249
 30
0.000000
  70
    32
  0
VERTEX
  8
0
  5
1AA3E
 10
-387.551
 20
840.249
 30
0.000000
  70
    32
  0
VERTEX
  8
0
  5
1AA3F
 10
-387.551
 20
840.250
 30
0.000000
  70
    32
  0
VERTEX
  8
0
  5
1AA40
 10
-387.552
 20
840.251
 30
0.000000
  70
    32
  0
VERTEX
  8
0
  5
1AA41
 10
-387.552
 20
840.252
 30
0.000000
  70
    32
  0
VERTEX
  8
0
  5
1AA42
 10
-387.552
 20
840.253
 30
0.000000
  70
    32
  0
VERTEX
  8
0
  5
1AA43
 10
-387.553
 20
840.254
 30
0.000000
  70
    32
  0
VERTEX
  8
0
  5
1AA44
 10
-387.553
 20
840.255
 30
0.000000
  70
    32
  0
VERTEX
  8
0
  5
1AA45
 10
-387.553
 20
840.255
 30
0.000000
  70
    32
  0
VERTEX
  8
0
  5
1AA46
 10
-387.554
 20
840.256
 30
0.000000
  70
    32
  0
VERTEX
  8
0
  5
1AA47
 10
-387.554
 20
840.257
 30
0.000000
  70
    32
  0
VERTEX
  8
0
  5
1AA48
 10
-387.554
 20
840.258
 30
0.000000
  70
    32
  0
VERTEX
  8
0
  5
1AA49
 10
-387.554
 20
840.259
 30
0.000000
  70
    32
  0
VERTEX
  8
0
  5
1AA4A
 10
-387.555
 20
840.260
 30
0.000000
  70
    32
  0
VERTEX
  8
0
  5
1AA4B
 10
-387.555
 20
840.261
 30
0.000000
  70
    32
  0
VERTEX
  8
0
  5
1AA4C
 10
-387.555
 20
840.262
 30
0.000000
  70
    32
  0
VERTEX
  8
0
  5
1AA4D
 10
-387.555
 20
840.262
 30
0.000000
  70
    32
  0
VERTEX
  8
0
  5
1AA4E
 10
-387.556
 20
840.263
 30
0.000000
  70
    32
  0
VERTEX
  8
0
  5
1AA4F
 10
-387.556
 20
840.264
 30
0.000000
  70
    32
  0
VERTEX
  8
0
  5
1AA50
 10
-387.556
 20
840.265
 30
0.000000
  70
    32
  0
VERTEX
  8
0
  5
1AA51
 10
-387.556
 20
840.266
 30
0.000000
  70
    32
  0
VERTEX
  8
0
  5
1AA52
 10
-387.556
 20
840.267
 30
0.000000
  70
    32
  0
VERTEX
  8
0
  5
1AA53
 10
-387.557
 20
840.268
 30
0.000000
  70
    32
  0
VERTEX
  8
0
  5
1AA54
 10
-387.557
 20
840.269
 30
0.000000
  70
    32
  0
VERTEX
  8
0
  5
1AA55
 10
-387.557
 20
840.270
 30
0.000000
  70
    32
  0
VERTEX
  8
0
  5
1AA56
 10
-387.557
 20
840.270
 30
0.000000
  70
    32
  0
VERTEX
  8
0
  5
1AA57
 10
-387.557
 20
840.271
 30
0.000000
  70
    32
  0
VERTEX
  8
0
  5
1AA58
 10
-387.557
 20
840.272
 30
0.000000
  70
    32
  0
VERTEX
  8
0
  5
1AA59
 10
-387.557
 20
840.273
 30
0.000000
  70
    32
  0
VERTEX
  8
0
  5
1AA5A
 10
-387.557
 20
840.274
 30
0.000000
  70
    32
  0
VERTEX
  8
0
  5
1AA5B
 10
-387.558
 20
840.275
 30
0.000000
  70
    32
  0
VERTEX
  8
0
  5
1AA5C
 10
-387.558
 20
840.276
 30
0.000000
  70
    32
  0
VERTEX
  8
0
  5
1AA5D
 10
-387.558
 20
840.277
 30
0.000000
  70
    32
  0
VERTEX
  8
0
  5
1AA5E
 10
-387.558
 20
840.278
 30
0.000000
  70
    32
  0
VERTEX
  8
0
  5
1AA5F
 10
-387.558
 20
840.279
 30
0.000000
  70
    32
  0
VERTEX
  8
0
  5
1AA60
 10
-387.558
 20
840.280
 30
0.000000
  70
    32
  0
VERTEX
  8
0
  5
1AA61
 10
-387.558
 20
840.280
 30
0.000000
  70
    32
  0
VERTEX
  8
0
  5
1AA62
 10
-387.558
 20
840.281
 30
0.000000
  70
    32
  0
VERTEX
  8
0
  5
1AA63
 10
-387.558
 20
840.282
 30
0.000000
  70
    32
  0
VERTEX
  8
0
  5
1AA64
 10
-387.558
 20
840.283
 30
0.000000
  70
    32
  0
VERTEX
  8
0
  5
1AA65
 10
-387.558
 20
840.284
 30
0.000000
  70
    32
  0
VERTEX
  8
0
  5
1AA66
 10
-387.558
 20
840.285
 30
0.000000
  70
    32
  0
VERTEX
  8
0
  5
1AA67
 10
-387.558
 20
840.286
 30
0.000000
  70
    32
  0
VERTEX
  8
0
  5
1AA68
 10
-387.558
 20
840.287
 30
0.000000
  70
    32
  0
VERTEX
  8
0
  5
1AA69
 10
-387.558
 20
840.288
 30
0.000000
  70
    32
  0
VERTEX
  8
0
  5
1AA6A
 10
-387.558
 20
840.289
 30
0.000000
  70
    32
  0
VERTEX
  8
0
  5
1AA6B
 10
-387.558
 20
840.290
 30
0.000000
  70
    32
  0
VERTEX
  8
0
  5
1AA6C
 10
-387.558
 20
840.291
 30
0.000000
  70
    32
  0
VERTEX
  8
0
  5
1AA6D
 10
-387.558
 20
840.291
 30
0.000000
  70
    32
  0
VERTEX
  8
0
  5
1AA6E
 10
-387.558
 20
840.292
 30
0.000000
  70
    32
  0
VERTEX
  8
0
  5
1AA6F
 10
-387.557
 20
840.293
 30
0.000000
  70
    32
  0
VERTEX
  8
0
  5
1AA70
 10
-387.557
 20
840.294
 30
0.000000
  70
    32
  0
VERTEX
  8
0
  5
1AA71
 10
-387.557
 20
840.295
 30
0.000000
  70
    32
  0
VERTEX
  8
0
  5
1AA72
 10
-387.557
 20
840.296
 30
0.000000
  70
    32
  0
VERTEX
  8
0
  5
1AA73
 10
-387.557
 20
840.297
 30
0.000000
  70
    32
  0
VERTEX
  8
0
  5
1AA74
 10
-387.557
 20
840.298
 30
0.000000
  70
    32
  0
VERTEX
  8
0
  5
1AA75
 10
-387.557
 20
840.299
 30
0.000000
  70
    32
  0
VERTEX
  8
0
  5
1AA76
 10
-387.557
 20
840.300
 30
0.000000
  70
    32
  0
VERTEX
  8
0
  5
1AA77
 10
-387.557
 20
840.301
 30
0.000000
  70
    32
  0
VERTEX
  8
0
  5
1AA78
 10
-387.556
 20
840.302
 30
0.000000
  70
    32
  0
VERTEX
  8
0
  5
1AA79
 10
-387.556
 20
840.303
 30
0.000000
  70
    32
  0
VERTEX
  8
0
  5
1AA7A
 10
-387.556
 20
840.304
 30
0.000000
  70
    32
  0
VERTEX
  8
0
  5
1AA7B
 10
-387.556
 20
840.305
 30
0.000000
  70
    32
  0
VERTEX
  8
0
  5
1AA7C
 10
-387.556
 20
840.305
 30
0.000000
  70
    32
  0
VERTEX
  8
0
  5
1AA7D
 10
-387.555
 20
840.306
 30
0.000000
  70
    32
  0
VERTEX
  8
0
  5
1AA7E
 10
-387.555
 20
840.307
 30
0.000000
  70
    32
  0
VERTEX
  8
0
  5
1AA7F
 10
-387.555
 20
840.308
 30
0.000000
  70
    32
  0
VERTEX
  8
0
  5
1AA80
 10
-387.555
 20
840.309
 30
0.000000
  70
    32
  0
VERTEX
  8
0
  5
1AA81
 10
-387.555
 20
840.310
 30
0.000000
  70
    32
  0
VERTEX
  8
0
  5
1AA82
 10
-387.554
 20
840.311
 30
0.000000
  70
    32
  0
VERTEX
  8
0
  5
1AA83
 10
-387.554
 20
840.312
 30
0.000000
  70
    32
  0
VERTEX
  8
0
  5
1AA84
 10
-387.554
 20
840.313
 30
0.000000
  70
    32
  0
VERTEX
  8
0
  5
1AA85
 10
-387.553
 20
840.314
 30
0.000000
  70
    32
  0
VERTEX
  8
0
  5
1AA86
 10
-387.553
 20
840.315
 30
0.000000
  70
    32
  0
VERTEX
  8
0
  5
1AA87
 10
-387.553
 20
840.315
 30
0.000000
  70
    32
  0
VERTEX
  8
0
  5
1AA88
 10
-387.553
 20
840.316
 30
0.000000
  70
    32
  0
VERTEX
  8
0
  5
1AA89
 10
-387.552
 20
840.317
 30
0.000000
  70
    32
  0
VERTEX
  8
0
  5
1AA8A
 10
-387.552
 20
840.318
 30
0.000000
  70
    32
  0
VERTEX
  8
0
  5
1AA8B
 10
-387.552
 20
840.319
 30
0.000000
  70
    32
  0
VERTEX
  8
0
  5
1AA8C
 10
-387.551
 20
840.320
 30
0.000000
  70
    32
  0
VERTEX
  8
0
  5
1AA8D
 10
-387.551
 20
840.321
 30
0.000000
  70
    32
  0
VERTEX
  8
0
  5
1AA8E
 10
-387.550
 20
840.322
 30
0.000000
  70
    32
  0
VERTEX
  8
0
  5
1AA8F
 10
-387.550
 20
840.322
 30
0.000000
  70
    32
  0
VERTEX
  8
0
  5
1AA90
 10
-387.550
 20
840.323
 30
0.000000
  70
    32
  0
VERTEX
  8
0
  5
1AA91
 10
-387.549
 20
840.324
 30
0.000000
  70
    32
  0
VERTEX
  8
0
  5
1AA92
 10
-387.549
 20
840.325
 30
0.000000
  70
    32
  0
VERTEX
  8
0
  5
1AA93
 10
-387.548
 20
840.326
 30
0.000000
  70
    32
  0
VERTEX
  8
0
  5
1AA94
 10
-387.548
 20
840.326
 30
0.000000
  70
    32
  0
VERTEX
  8
0
  5
1AA95
 10
-387.548
 20
840.327
 30
0.000000
  70
    32
  0
VERTEX
  8
0
  5
1AA96
 10
-387.547
 20
840.328
 30
0.000000
  70
    32
  0
VERTEX
  8
0
  5
1AA97
 10
-387.547
 20
840.329
 30
0.000000
  70
    32
  0
VERTEX
  8
0
  5
1AA98
 10
-387.546
 20
840.329
 30
0.000000
  70
    32
  0
VERTEX
  8
0
  5
1AA99
 10
-387.546
 20
840.330
 30
0.000000
  70
    32
  0
VERTEX
  8
0
  5
1AA9A
 10
-387.545
 20
840.331
 30
0.000000
  70
    32
  0
VERTEX
  8
0
  5
1AA9B
 10
-387.545
 20
840.332
 30
0.000000
  70
    32
  0
VERTEX
  8
0
  5
1AA9C
 10
-387.544
 20
840.332
 30
0.000000
  70
    32
  0
VERTEX
  8
0
  5
1AA9D
 10
-387.543
 20
840.333
 30
0.000000
  70
    32
  0
VERTEX
  8
0
  5
1AA9E
 10
-387.543
 20
840.334
 30
0.000000
  70
    32
  0
VERTEX
  8
0
  5
1AA9F
 10
-387.542
 20
840.334
 30
0.000000
  70
    32
  0
VERTEX
  8
0
  5
1AAA0
 10
-387.542
 20
840.335
 30
0.000000
  70
    32
  0
VERTEX
  8
0
  5
1AAA1
 10
-387.541
 20
840.336
 30
0.000000
  70
    32
  0
VERTEX
  8
0
  5
1AAA2
 10
-387.541
 20
840.336
 30
0.000000
  70
    32
  0
VERTEX
  8
0
  5
1AAA3
 10
-387.540
 20
840.337
 30
0.000000
  70
    32
  0
VERTEX
  8
0
  5
1AAA4
 10
-387.539
 20
840.338
 30
0.000000
  70
    32
  0
VERTEX
  8
0
  5
1AAA5
 10
-387.539
 20
840.338
 30
0.000000
  70
    32
  0
VERTEX
  8
0
  5
1AAA6
 10
-387.538
 20
840.339
 30
0.000000
  70
    32
  0
VERTEX
  8
0
  5
1AAA7
 10
-387.537
 20
840.339
 30
0.000000
  70
    32
  0
VERTEX
  8
0
  5
1AAA8
 10
-387.537
 20
840.340
 30
0.000000
  70
    32
  0
VERTEX
  8
0
  5
1AAA9
 10
-387.536
 20
840.341
 30
0.000000
  70
    32
  0
VERTEX
  8
0
  5
1AAAA
 10
-387.535
 20
840.341
 30
0.000000
  70
    32
  0
VERTEX
  8
0
  5
1AAAB
 10
-387.535
 20
840.342
 30
0.000000
  70
    32
  0
VERTEX
  8
0
  5
1AAAC
 10
-387.534
 20
840.342
 30
0.000000
  70
    32
  0
VERTEX
  8
0
  5
1AAAD
 10
-387.533
 20
840.343
 30
0.000000
  70
    32
  0
VERTEX
  8
0
  5
1AAAE
 10
-387.532
 20
840.343
 30
0.000000
  70
    32
  0
VERTEX
  8
0
  5
1AAAF
 10
-387.532
 20
840.344
 30
0.000000
  70
    32
  0
VERTEX
  8
0
  5
1AAB0
 10
-387.531
 20
840.344
 30
0.000000
  70
    32
  0
VERTEX
  8
0
  5
1AAB1
 10
-387.530
 20
840.345
 30
0.000000
  70
    32
  0
VERTEX
  8
0
  5
1AAB2
 10
-387.529
 20
840.345
 30
0.000000
  70
    32
  0
VERTEX
  8
0
  5
1AAB3
 10
-387.529
 20
840.346
 30
0.000000
  70
    32
  0
VERTEX
  8
0
  5
1AAB4
 10
-387.528
 20
840.346
 30
0.000000
  70
    32
  0
VERTEX
  8
0
  5
1AAB5
 10
-387.527
 20
840.347
 30
0.000000
  70
    32
  0
VERTEX
  8
0
  5
1AAB6
 10
-387.526
 20
840.347
 30
0.000000
  70
    32
  0
VERTEX
  8
0
  5
1AAB7
 10
-387.525
 20
840.348
 30
0.000000
  70
    32
  0
VERTEX
  8
0
  5
1AAB8
 10
-387.525
 20
840.348
 30
0.000000
  70
    32
  0
VERTEX
  8
0
  5
1AAB9
 10
-387.524
 20
840.349
 30
0.000000
  70
    32
  0
VERTEX
  8
0
  5
1AABA
 10
-387.523
 20
840.349
 30
0.000000
  70
    32
  0
VERTEX
  8
0
  5
1AABB
 10
-387.522
 20
840.349
 30
0.000000
  70
    32
  0
VERTEX
  8
0
  5
1AABC
 10
-387.521
 20
840.350
 30
0.000000
  70
    32
  0
VERTEX
  8
0
  5
1AABD
 10
-387.520
 20
840.350
 30
0.000000
  70
    32
  0
VERTEX
  8
0
  5
1AABE
 10
-387.520
 20
840.351
 30
0.000000
  70
    32
  0
VERTEX
  8
0
  5
1AABF
 10
-387.519
 20
840.351
 30
0.000000
  70
    32
  0
VERTEX
  8
0
  5
1AAC0
 10
-387.518
 20
840.352
 30
0.000000
  70
    32
  0
VERTEX
  8
0
  5
1AAC1
 10
-387.517
 20
840.352
 30
0.000000
  70
    32
  0
VERTEX
  8
0
  5
1AAC2
 10
-387.516
 20
840.352
 30
0.000000
  70
    32
  0
VERTEX
  8
0
  5
1AAC3
 10
-387.515
 20
840.353
 30
0.000000
  70
    32
  0
VERTEX
  8
0
  5
1AAC4
 10
-387.515
 20
840.353
 30
0.000000
  70
    32
  0
VERTEX
  8
0
  5
1AAC5
 10
-387.514
 20
840.354
 30
0.000000
  70
    32
  0
VERTEX
  8
0
  5
1AAC6
 10
-387.513
 20
840.354
 30
0.000000
  70
    32
  0
VERTEX
  8
0
  5
1AAC7
 10
-387.512
 20
840.354
 30
0.000000
  70
    32
  0
VERTEX
  8
0
  5
1AAC8
 10
-387.511
 20
840.355
 30
0.000000
  70
    32
  0
VERTEX
  8
0
  5
1AAC9
 10
-387.510
 20
840.355
 30
0.000000
  70
    32
  0
VERTEX
  8
0
  5
1AACA
 10
-387.509
 20
840.356
 30
0.000000
  70
    32
  0
VERTEX
  8
0
  5
1AACB
 10
-387.509
 20
840.356
 30
0.000000
  70
    32
  0
VERTEX
  8
0
  5
1AACC
 10
-387.508
 20
840.356
 30
0.000000
  70
    32
  0
VERTEX
  8
0
  5
1AACD
 10
-387.507
 20
840.357
 30
0.000000
  70
    32
  0
VERTEX
  8
0
  5
1AACE
 10
-387.506
 20
840.357
 30
0.000000
  70
    32
  0
VERTEX
  8
0
  5
1AACF
 10
-387.505
 20
840.358
 30
0.000000
  70
    32
  0
VERTEX
  8
0
  5
1AAD0
 10
-387.504
 20
840.358
 30
0.000000
  70
    32
  0
VERTEX
  8
0
  5
1AAD1
 10
-387.504
 20
840.359
 30
0.000000
  70
    32
  0
VERTEX
  8
0
  5
1AAD2
 10
-387.503
 20
840.359
 30
0.000000
  70
    32
  0
VERTEX
  8
0
  5
1AAD3
 10
-387.502
 20
840.359
 30
0.000000
  70
    32
  0
VERTEX
  8
0
  5
1AAD4
 10
-387.501
 20
840.360
 30
0.000000
  70
    32
  0
VERTEX
  8
0
  5
1AAD5
 10
-387.500
 20
840.360
 30
0.000000
  70
    32
  0
VERTEX
  8
0
  5
1AAD6
 10
-387.499
 20
840.361
 30
0.000000
  70
    32
  0
VERTEX
  8
0
  5
1AAD7
 10
-387.499
 20
840.361
 30
0.000000
  70
    32
  0
VERTEX
  8
0
  5
1AAD8
 10
-387.498
 20
840.362
 30
0.000000
  70
    32
  0
VERTEX
  8
0
  5
1AAD9
 10
-387.497
 20
840.362
 30
0.000000
  70
    32
  0
VERTEX
  8
0
  5
1AADA
 10
-387.496
 20
840.362
 30
0.000000
  70
    32
  0
VERTEX
  8
0
  5
1AADB
 10
-387.495
 20
840.363
 30
0.000000
  70
    32
  0
VERTEX
  8
0
  5
1AADC
 10
-387.494
 20
840.363
 30
0.000000
  70
    32
  0
VERTEX
  8
0
  5
1AADD
 10
-387.494
 20
840.364
 30
0.000000
  70
    32
  0
VERTEX
  8
0
  5
1AADE
 10
-387.493
 20
840.364
 30
0.000000
  70
    32
  0
VERTEX
  8
0
  5
1AADF
 10
-387.492
 20
840.365
 30
0.000000
  70
    32
  0
VERTEX
  8
0
  5
1AAE0
 10
-387.491
 20
840.365
 30
0.000000
  70
    32
  0
VERTEX
  8
0
  5
1AAE1
 10
-387.490
 20
840.366
 30
0.000000
  70
    32
  0
VERTEX
  8
0
  5
1AAE2
 10
-387.490
 20
840.366
 30
0.000000
  70
    32
  0
VERTEX
  8
0
  5
1AAE3
 10
-387.489
 20
840.367
 30
0.000000
  70
    32
  0
VERTEX
  8
0
  5
1AAE4
 10
-387.488
 20
840.367
 30
0.000000
  70
    32
  0
VERTEX
  8
0
  5
1AAE5
 10
-387.487
 20
840.368
 30
0.000000
  70
    32
  0
VERTEX
  8
0
  5
1AAE6
 10
-387.487
 20
840.368
 30
0.000000
  70
    32
  0
VERTEX
  8
0
  5
1AAE7
 10
-387.486
 20
840.369
 30
0.000000
  70
    32
  0
VERTEX
  8
0
  5
1AAE8
 10
-387.485
 20
840.369
 30
0.000000
  70
    32
  0
VERTEX
  8
0
  5
1AAE9
 10
-387.484
 20
840.370
 30
0.000000
  70
    32
  0
VERTEX
  8
0
  5
1AAEA
 10
-387.484
 20
840.370
 30
0.000000
  70
    32
  0
VERTEX
  8
0
  5
1AAEB
 10
-387.483
 20
840.371
 30
0.000000
  70
    32
  0
VERTEX
  8
0
  5
1AAEC
 10
-387.482
 20
840.371
 30
0.000000
  70
    32
  0
VERTEX
  8
0
  5
1AAED
 10
-387.482
 20
840.372
 30
0.000000
  70
    32
  0
VERTEX
  8
0
  5
1AAEE
 10
-387.481
 20
840.373
 30
0.000000
  70
    32
  0
VERTEX
  8
0
  5
1AAEF
 10
-387.480
 20
840.373
 30
0.000000
  70
    32
  0
VERTEX
  8
0
  5
1AAF0
 10
-387.480
 20
840.374
 30
0.000000
  70
    32
  0
VERTEX
  8
0
  5
1AAF1
 10
-387.479
 20
840.375
 30
0.000000
  70
    32
  0
VERTEX
  8
0
  5
1AAF2
 10
-387.478
 20
840.375
 30
0.000000
  70
    32
  0
VERTEX
  8
0
  5
1AAF3
 10
-387.478
 20
840.376
 30
0.000000
  70
    32
  0
VERTEX
  8
0
  5
1AAF4
 10
-387.477
 20
840.376
 30
0.000000
  70
    32
  0
VERTEX
  8
0
  5
1AAF5
 10
-387.476
 20
840.377
 30
0.000000
  70
    32
  0
VERTEX
  8
0
  5
1AAF6
 10
-387.476
 20
840.378
 30
0.000000
  70
    32
  0
VERTEX
  8
0
  5
1AAF7
 10
-387.475
 20
840.379
 30
0.000000
  70
    32
  0
VERTEX
  8
0
  5
1AAF8
 10
-387.475
 20
840.379
 30
0.000000
  70
    32
  0
VERTEX
  8
0
  5
1AAF9
 10
-387.474
 20
840.380
 30
0.000000
  70
    32
  0
VERTEX
  8
0
  5
1AAFA
 10
-387.474
 20
840.381
 30
0.000000
  70
    32
  0
VERTEX
  8
0
  5
1AAFB
 10
-387.473
 20
840.381
 30
0.000000
  70
    32
  0
VERTEX
  8
0
  5
1AAFC
 10
-387.472
 20
840.382
 30
0.000000
  70
    32
  0
VERTEX
  8
0
  5
1AAFD
 10
-387.472
 20
840.383
 30
0.000000
  70
    32
  0
VERTEX
  8
0
  5
1AAFE
 10
-387.471
 20
840.384
 30
0.000000
  70
    32
  0
VERTEX
  8
0
  5
1AAFF
 10
-387.471
 20
840.385
 30
0.000000
  70
    32
  0
VERTEX
  8
0
  5
1AB00
 10
-387.470
 20
840.385
 30
0.000000
  70
    32
  0
VERTEX
  8
0
  5
1AB01
 10
-387.470
 20
840.386
 30
0.000000
  70
    32
  0
VERTEX
  8
0
  5
1AB02
 10
-387.470
 20
840.387
 30
0.000000
  70
    32
  0
VERTEX
  8
0
  5
1AB03
 10
-387.469
 20
840.388
 30
0.000000
  70
    32
  0
VERTEX
  8
0
  5
1AB04
 10
-387.469
 20
840.389
 30
0.000000
  70
    32
  0
VERTEX
  8
0
  5
1AB05
 10
-387.468
 20
840.390
 30
0.000000
  70
    32
  0
VERTEX
  8
0
  5
1AB06
 10
-387.468
 20
840.390
 30
0.000000
  70
    32
  0
VERTEX
  8
0
  5
1AB07
 10
-387.467
 20
840.391
 30
0.000000
  70
    32
  0
VERTEX
  8
0
  5
1AB08
 10
-387.467
 20
840.392
 30
0.000000
  70
    32
  0
VERTEX
  8
0
  5
1AB09
 10
-387.467
 20
840.393
 30
0.000000
  70
    32
  0
VERTEX
  8
0
  5
1AB0A
 10
-387.466
 20
840.394
 30
0.000000
  70
    32
  0
VERTEX
  8
0
  5
1AB0B
 10
-387.466
 20
840.395
 30
0.000000
  70
    32
  0
VERTEX
  8
0
  5
1AB0C
 10
-387.466
 20
840.396
 30
0.000000
  70
    32
  0
VERTEX
  8
0
  5
1AB0D
 10
-387.466
 20
840.397
 30
0.000000
  70
    32
  0
VERTEX
  8
0
  5
1AB0E
 10
-387.465
 20
840.398
 30
0.000000
  70
    32
  0
VERTEX
  8
0
  5
1AB0F
 10
-387.465
 20
840.398
 30
0.000000
  70
    32
  0
VERTEX
  8
0
  5
1AB10
 10
-387.465
 20
840.399
 30
0.000000
  70
    32
  0
VERTEX
  8
0
  5
1AB11
 10
-387.465
 20
840.400
 30
0.000000
  70
    32
  0
VERTEX
  8
0
  5
1AB12
 10
-387.464
 20
840.401
 30
0.000000
  70
    32
  0
VERTEX
  8
0
  5
1AB13
 10
-387.464
 20
840.402
 30
0.000000
  70
    32
  0
VERTEX
  8
0
  5
1AB14
 10
-387.464
 20
840.403
 30
0.000000
  70
    32
  0
VERTEX
  8
0
  5
1AB15
 10
-387.464
 20
840.404
 30
0.000000
  70
    32
  0
VERTEX
  8
0
  5
1AB16
 10
-387.464
 20
840.405
 30
0.000000
  70
    32
  0
VERTEX
  8
0
  5
1AB17
 10
-387.464
 20
840.406
 30
0.000000
  70
    32
  0
VERTEX
  8
0
  5
1AB18
 10
-387.464
 20
840.407
 30
0.000000
  70
    32
  0
VERTEX
  8
0
  5
1AB19
 10
-387.464
 20
840.408
 30
0.000000
  70
    32
  0
VERTEX
  8
0
  5
1AB1A
 10
-387.464
 20
840.409
 30
0.000000
  70
    32
  0
VERTEX
  8
0
  5
1AB1B
 10
-387.464
 20
840.410
 30
0.000000
  70
    32
  0
VERTEX
  8
0
  5
1AB1C
 10
-387.464
 20
840.411
 30
0.000000
  70
    32
  0
VERTEX
  8
0
  5
1AB1D
 10
-387.464
 20
840.411
 30
0.000000
  70
    32
  0
VERTEX
  8
0
  5
1AB1E
 10
-387.464
 20
840.412
 30
0.000000
  70
    32
  0
SEQEND
  8
0
  5
1AB1F
  0
VIEWPORT
  5
BADA
 67
     1
  8
0
 10
5.2498666443542197
 20
4.0168606514874199
 30
0.0
 40
16.259611459837419
 41
8.0159429045697088
 68
     2
 69
     1
1001
ACAD
1000
MVIEW
1002
{
1070
    16
1010
0.0
1020
0.0
1030
0.0
1010
0.0
1020
0.0
1030
1.0
1040
0.0
1040
8.0159429045697088
1040
5.2498666443542197
1040
4.0168606514874199
1040
50.0
1040
0.0
1040
0.0
1070
     0
1070
   100
1070
     1
1070
     1
1070
     0
1070
     0
1070
     0
1070
     0
1040
0.0
1040
0.0
1040
0.0
1040
0.5
1040
0.5
1040
0.5
1040
0.5
1070
     0
1002
{
1002
}
1002
}
  0
VIEWPORT
  5
BADD
 67
     1
  8
0
 10
5.249999629487192
 20
4.0166741807634683
 30
0.0
 40
10.44245679893058
 41
7.8813805131999892
 68
     1
 69
     2
1001
ACAD
1000
MVIEW
1002
{
1070
    16
1010
0.0
1020
0.0
1030
0.0
1010
0.0
1020
0.0
1030
1.0
1040
0.0
1040
7.8813805116149052
1040
-385.07765484644949
1040
840.53347721117211
1040
50.0
1040
0.0
1040
0.0
1070
     0
1070
   100
1070
     1
1070
     2
1070
     0
1070
     0
1070
     0
1070
     0
1040
0.0
1040
0.0
1040
0.0
1040
0.5
1040
0.5
1040
0.5
1040
0.5
1070
     0
1002
{
1002
}
1002
}
  0
ENDSEC
  0
EOF
