  0
SECTION
  2
HEADER
  9
$ACADVER
  1
AC1009
  9
$INSBASE
 10
0.0
 20
0.0
 30
0.0
  9
$EXTMIN
 10
-388.799505084842
 20
830.86319487205117
 30
-0.0015258207003583
  9
$EXTMAX
 10
-380.31470334830908
 20
848.8569054217453
 30
0.0000000349246037
  9
$LIMMIN
 10
0.0
 20
0.0
  9
$LIMMAX
 10
1500.0
 20
1500.0
  9
$ORTHOMODE
 70
     0
  9
$REGENMODE
 70
     1
  9
$FILLMODE
 70
     1
  9
$QTEXTMODE
 70
     0
  9
$MIRRTEXT
 70
     1
  9
$DRAGMODE
 70
     2
  9
$LTSCALE
 40
1.0
  9
$OSMODE
 70
    37
  9
$ATTMODE
 70
     1
  9
$TEXTSIZE
 40
1.5
  9
$TRACEWID
 40
0.05
  9
$TEXTSTYLE
  7
STANDARD
  9
$CLAYER
  8
0
  9
$CELTYPE
  6
BYLAYER
  9
$CECOLOR
 62
   256
  9
$DIMSCALE
 40
1.0
  9
$DIMASZ
 40
0.75
  9
$DIMEXO
 40
1.5
  9
$DIMDLI
 40
2.0
  9
$DIMRND
 40
0.0
  9
$DIMDLE
 40
0.0
  9
$DIMEXE
 40
1.0
  9
$DIMTP
 40
0.0
  9
$DIMTM
 40
0.0
  9
$DIMTXT
 40
1.5
  9
$DIMCEN
 40
2.0
  9
$DIMTSZ
 40
0.0
  9
$DIMTOL
 70
     0
  9
$DIMLIM
 70
     0
  9
$DIMTIH
 70
     0
  9
$DIMTOH
 70
     0
  9
$DIMSE1
 70
     0
  9
$DIMSE2
 70
     0
  9
$DIMTAD
 70
     1
  9
$DIMZIN
 70
     0
  9
$DIMBLK
  1
ARCHTICK
  9
$DIMASO
 70
     1
  9
$DIMSHO
 70
     1
  9
$DIMPOST
  1
"
  9
$DIMAPOST
  1

  9
$DIMALT
 70
     0
  9
$DIMALTD
 70
     2
  9
$DIMALTF
 40
25.399999999999999
  9
$DIMLFAC
 40
1.0
  9
$DIMTOFL
 70
     0
  9
$DIMTVP
 40
0.0
  9
$DIMTIX
 70
     1
  9
$DIMSOXD
 70
     0
  9
$DIMSAH
 70
     0
  9
$DIMBLK1
  1

  9
$DIMBLK2
  1

  9
$DIMSTYLE
  2
THREE_QUARTER_INCH_SCALE
  9
$DIMCLRD
 70
     0
  9
$DIMCLRE
 70
     0
  9
$DIMCLRT
 70
     0
  9
$DIMTFAC
 40
1.0
  9
$DIMGAP
 40
1.0
  9
$LUNITS
 70
     2
  9
$LUPREC
 70
     4
  9
$SKETCHINC
 40
0.1
  9
$FILLETRAD
 40
0.0
  9
$AUNITS
 70
     0
  9
$AUPREC
 70
     0
  9
$MENU
  1
.
  9
$ELEVATION
 40
0.0
  9
$PELEVATION
 40
0.0
  9
$THICKNESS
 40
0.0
  9
$LIMCHECK
 70
     0
  9
$BLIPMODE
 70
     0
  9
$CHAMFERA
 40
0.5
  9
$CHAMFERB
 40
0.5
  9
$SKPOLY
 70
     0
  9
$TDCREATE
 40
2452089.395738773
  9
$TDUPDATE
 40
2453606.6669554752
  9
$TDINDWG
 40
0.974108669
  9
$TDUSRTIMER
 40
0.974108669
  9
$USRTIMER
 70
     1
  9
$ANGBASE
 50
0.0
  9
$ANGDIR
 70
     0
  9
$PDMODE
 70
     0
  9
$PDSIZE
 40
10.0
  9
$PLINEWID
 40
0.0
  9
$COORDS
 70
     1
  9
$SPLFRAME
 70
     0
  9
$SPLINETYPE
 70
     6
  9
$SPLINESEGS
 70
     8
  9
$ATTDIA
 70
     0
  9
$ATTREQ
 70
     1
  9
$HANDLING
 70
     1
  9
$HANDSEED
  5
CA4A
  9
$SURFTAB1
 70
     6
  9
$SURFTAB2
 70
     6
  9
$SURFTYPE
 70
     6
  9
$SURFU
 70
     6
  9
$SURFV
 70
     6
  9
$UCSNAME
  2

  9
$UCSORG
 10
0.0
 20
0.0
 30
0.0
  9
$UCSXDIR
 10
1.0
 20
0.0
 30
0.0
  9
$UCSYDIR
 10
0.0
 20
1.0
 30
0.0
  9
$PUCSNAME
  2

  9
$PUCSORG
 10
0.0
 20
0.0
 30
0.0
  9
$PUCSXDIR
 10
1.0
 20
0.0
 30
0.0
  9
$PUCSYDIR
 10
0.0
 20
1.0
 30
0.0
  9
$USERI1
 70
     0
  9
$USERI2
 70
     0
  9
$USERI3
 70
     0
  9
$USERI4
 70
     0
  9
$USERI5
 70
     0
  9
$USERR1
 40
0.0
  9
$USERR2
 40
0.0
  9
$USERR3
 40
0.0
  9
$USERR4
 40
0.0
  9
$USERR5
 40
0.0
  9
$WORLDVIEW
 70
     1
  9
$SHADEDGE
 70
     3
  9
$SHADEDIF
 70
    70
  9
$TILEMODE
 70
     0
  9
$MAXACTVP
 70
    64
  9
$PLIMCHECK
 70
     0
  9
$PEXTMIN
 10
0.0282895744820664
 20
0.0759353784799721
 30
-0.0015258207003583
  9
$PEXTMAX
 10
10.471709755853
 20
7.9577863512286546
 30
0.0000000349246037
  9
$PLIMMIN
 10
-0.2500002402958907
 20
-0.2499999962453767
  9
$PLIMMAX
 10
10.74999951940821
 20
8.2499997634587316
  9
$UNITMODE
 70
     0
  9
$VISRETAIN
 70
     1
  9
$PLINEGEN
 70
     0
  9
$PSLTSCALE
 70
     1
  0
ENDSEC
  0
SECTION
  2
TABLES
  0
TABLE
  2
VPORT
 70
    16
  0
VPORT
  2
*ACTIVE
 70
     0
 10
0.0
 20
0.0
 11
1.0
 21
1.0
 12
-387.4313243571695
 22
838.08322890053591
 13
0.0
 23
0.0
 14
0.5
 24
0.5
 15
0.5
 25
0.5
 16
0.0
 26
0.0
 36
1.0
 17
0.0
 27
0.0
 37
0.0
 40
4.4442890908019299
 41
2.0226628895184131
 42
50.0
 43
0.0
 44
0.0
 50
0.0
 51
0.0
 71
     0
 72
   100
 73
     1
 74
     2
 75
     0
 76
     0
 77
     0
 78
     0
  0
ENDTAB
  0
TABLE
  2
LTYPE
 70
     1
  0
LTYPE
  2
CONTINUOUS
 70
     0
  3
Solid line
 72
    65
 73
     0
 40
0.0
  0
ENDTAB
  0
TABLE
  2
LAYER
 70
    10
  0
LAYER
  2
0
 70
     0
 62
     7
  6
CONTINUOUS
  0
LAYER
  2
DEFPOINTS
 70
     0
 62
     7
  6
CONTINUOUS
  0
LAYER
  2
FRAME_200
 70
     0
 62
     8
  6
CONTINUOUS
  0
LAYER
  2
FRAME_070
 70
     0
 62
     5
  6
CONTINUOUS
  0
LAYER
  2
FRAME_050
 70
     0
 62
     6
  6
CONTINUOUS
  0
LAYER
  2
TITLE_BLOCK
 70
     0
 62
     7
  6
CONTINUOUS
  0
LAYER
  2
FRAME_025
 70
     0
 62
     7
  6
CONTINUOUS
  0
LAYER
  2
VIEWPORT
 70
     0
 62
     7
  6
CONTINUOUS
  0
LAYER
  2
PROF
 70
     0
 62
     7
  6
CONTINUOUS
  0
LAYER
  2
PROFILE
 70
     0
 62
     7
  6
CONTINUOUS
  0
ENDTAB
  0
TABLE
  2
STYLE
 70
     2
  0
STYLE
  2
STANDARD
 70
     0
 40
0.0
 41
1.0
 50
0.0
 71
     0
 42
1.5
  3
txt
  4

  0
STYLE
  2
ISO_PROPORTIONAL
 70
     0
 40
0.0
 41
1.0
 50
0.0
 71
     0
 42
2.5
  3
isocp.shx
  4

  0
ENDTAB
  0
TABLE
  2
VIEW
 70
    15
  0
ENDTAB
  0
TABLE
  2
UCS
 70
     0
  0
ENDTAB
  0
TABLE
  2
APPID
 70
     6
  0
APPID
  2
ACAD
 70
     0
  0
APPID
  2
DCO15
 70
     0
  0
APPID
  2
ACAD_EXEMPT_FROM_CAD_STANDARDS
 70
     0
  0
APPID
  2
ACAD_PSEXT
 70
     0
  0
APPID
  2
CONTENTBLOCKDESCRIPTION
 70
     0
  0
APPID
  2
CONTENTBLOCKICON
 70
     0
  0
ENDTAB
  0
TABLE
  2
DIMSTYLE
 70
     5
  0
DIMSTYLE
  2
FULL_SCALE
 70
     0
  3
"
  4

  5
ARCHTICK
  6

  7

 40
1.0
 41
0.046875
 42
0.09375
 43
0.125
 44
0.0625
 45
0.0
 46
0.0
 47
0.0
 48
0.0
140
0.125
141
0.125
142
0.0
143
25.399999999999999
144
1.0
145
0.0
146
1.0
147
0.0625
 71
     0
 72
     0
 73
     0
 74
     0
 75
     0
 76
     0
 77
     1
 78
     0
170
     0
171
     2
172
     0
173
     0
174
     1
175
     0
176
     0
177
     0
178
     0
  0
DIMSTYLE
  2
HALF_SCALE
 70
     0
  3
"
  4

  5
ARCHTICK
  6

  7

 40
1.0
 41
0.09375
 42
0.1875
 43
0.25
 44
0.125
 45
0.0
 46
0.0
 47
0.0
 48
0.0
140
0.25
141
0.25
142
0.0
143
25.399999999999999
144
1.0
145
0.0
146
1.0
147
0.125
 71
     0
 72
     0
 73
     0
 74
     0
 75
     0
 76
     0
 77
     1
 78
     0
170
     0
171
     2
172
     0
173
     0
174
     1
175
     0
176
     0
177
     0
178
     0
  0
DIMSTYLE
  2
INCH_SCALE
 70
     0
  3
"
  4

  5
ARCHTICK
  6

  7

 40
1.0
 41
0.5625
 42
1.125
 43
1.5
 44
0.75
 45
0.0
 46
0.0
 47
0.0
 48
0.0
140
1.125
141
1.5
142
0.0
143
25.399999999999999
144
1.0
145
0.0
146
1.0
147
0.75
 71
     0
 72
     0
 73
     0
 74
     0
 75
     0
 76
     0
 77
     1
 78
     0
170
     0
171
     2
172
     0
173
     0
174
     1
175
     0
176
     0
177
     0
178
     0
  0
DIMSTYLE
  2
THREE_QUARTER_INCH_SCALE
 70
     0
  3
"
  4

  5
ARCHTICK
  6

  7

 40
1.0
 41
0.75
 42
1.5
 43
2.0
 44
1.0
 45
0.0
 46
0.0
 47
0.0
 48
0.0
140
1.5
141
2.0
142
0.0
143
25.399999999999999
144
1.0
145
0.0
146
1.0
147
1.0
 71
     0
 72
     0
 73
     0
 74
     0
 75
     0
 76
     0
 77
     1
 78
     0
170
     0
171
     2
172
     0
173
     0
174
     1
175
     0
176
     0
177
     0
178
     0
  0
DIMSTYLE
  2
ZHALF_INCH_SCALE
 70
     0
  3
"
  4

  5
ARCHTICK
  6

  7

 40
1.0
 41
1.125
 42
2.25
 43
3.0
 44
1.5
 45
0.0
 46
0.0
 47
0.0
 48
0.0
140
2.25
141
3.0
142
0.0
143
25.399999999999999
144
1.0
145
0.0
146
1.0
147
1.5
 71
     0
 72
     0
 73
     0
 74
     0
 75
     0
 76
     0
 77
     1
 78
     0
170
     0
171
     2
172
     0
173
     0
174
     1
175
     0
176
     0
177
     0
178
     0
  0
ENDTAB
  0
ENDSEC
  0
SECTION
  2
BLOCKS
  0
BLOCK
  8
0
  2
$MODEL_SPACE
 70
     0
 10
0.0
 20
0.0
 30
0.0
  3
$MODEL_SPACE
  1

  0
ENDBLK
  5
21
  8
0
  0
BLOCK
 67
     1
  8
0
  2
$PAPER_SPACE
 70
     0
 10
0.0
 20
0.0
 30
0.0
  3
$PAPER_SPACE
  1

  0
ENDBLK
  5
BAD5
 67
     1
  8
0
  0
BLOCK
  8
0
  2
_ARCHTICK
 70
     0
 10
0.0
 20
0.0
 30
0.0
  3
_ARCHTICK
  1

  0
POLYLINE
  5
158
  8
0
  6
BYBLOCK
 62
     0
 66
     1
 10
0.0
 20
0.0
 30
0.0
 40
0.15
 41
0.15
  0
VERTEX
  5
C7BC
  8
0
  6
BYBLOCK
 62
     0
 10
-0.5
 20
-0.5
 30
0.0
  0
VERTEX
  5
C7BD
  8
0
  6
BYBLOCK
 62
     0
 10
0.5
 20
0.5
 30
0.0
  0
SEQEND
  5
C7BE
  8
0
  6
BYBLOCK
 62
     0
  0
ENDBLK
  5
15A
  8
0
  0
BLOCK
  8
0
  2
_OPEN30
 70
     0
 10
0.0
 20
0.0
 30
0.0
  3
_OPEN30
  1

  0
LINE
  5
15C
  8
0
  6
BYBLOCK
 62
     0
 10
-1.0
 20
0.26794919
 30
0.0
 11
0.0
 21
0.0
 31
0.0
  0
LINE
  5
15D
  8
0
  6
BYBLOCK
 62
     0
 10
0.0
 20
0.0
 30
0.0
 11
-1.0
 21
-0.26794919
 31
0.0
  0
LINE
  5
15E
  8
0
  6
BYBLOCK
 62
     0
 10
0.0
 20
0.0
 30
0.0
 11
-1.0
 21
0.0
 31
0.0
  0
ENDBLK
  5
160
  8
0
  0
BLOCK
  8
0
  2
ISO_A2_TITLE_BLOCK
 70
     2
 10
0.0
 20
0.0
 30
0.0
  3
ISO_A2_TITLE_BLOCK
  1

  0
LINE
  5
BDD
  8
FRAME_050
 10
299.5
 20
12.5
 30
0.0
 11
297.0
 21
7.5
 31
0.0
  0
LINE
  5
BDE
  8
FRAME_050
 10
294.5
 20
12.5
 30
0.0
 11
299.5
 21
12.5
 31
0.0
  0
LINE
  5
BDF
  8
FRAME_050
 10
247.0
 20
5.0
 30
0.0
 11
347.0
 21
5.0
 31
0.0
  0
LINE
  5
BE0
  8
FRAME_070
 10
584.0
 20
410.0
 30
0.0
 11
10.0
 21
410.0
 31
0.0
  0
LINE
  5
BE1
  8
FRAME_070
 10
10.0
 20
10.0
 30
0.0
 11
584.0
 21
10.0
 31
0.0
  0
LINE
  5
BE2
  8
FRAME_050
 10
12.5
 20
207.5
 30
0.0
 11
7.5
 21
210.0
 31
0.0
  0
LINE
  5
BE3
  8
FRAME_050
 10
12.5
 20
212.5
 30
0.0
 11
12.5
 21
207.5
 31
0.0
  0
LINE
  5
BE4
  8
FRAME_070
 10
10.0
 20
410.0
 30
0.0
 11
10.0
 21
10.0
 31
0.0
  0
LINE
  5
BE5
  8
FRAME_200
 10
0.0
 20
0.0
 30
0.0
 11
0.0
 21
10.0
 31
0.0
  0
LINE
  5
BE6
  8
FRAME_200
 10
0.0
 20
0.0
 30
0.0
 11
10.0
 21
0.0
 31
0.0
  0
TEXT
  5
BE7
  8
FRAME_050
 10
5.9000000000000004
 20
35.0
 30
0.0
 40
4.0
  1
H
  7
ISO_PROPORTIONAL
 72
     4
 11
7.5
 21
37.0
 31
0.0
  0
LINE
  5
BE8
  8
FRAME_050
 10
10.0
 20
60.0
 30
0.0
 11
5.0
 21
60.0
 31
0.0
  0
LINE
  5
BE9
  8
FRAME_050
 10
81.75
 20
5.0
 30
0.0
 11
81.75
 21
10.0
 31
0.0
  0
TEXT
  5
BEA
  8
FRAME_050
 10
44.874999999999993
 20
5.5
 30
0.0
 40
4.0
  1
1
  7
ISO_PROPORTIONAL
 72
     4
 11
45.875
 21
7.5
 31
0.0
  0
TEXT
  5
BEB
  8
FRAME_050
 10
6.0035533905932743
 20
85.0
 30
0.0
 40
4.0
  1
G
  7
ISO_PROPORTIONAL
 72
     4
 11
7.5
 21
87.0
 31
0.0
  0
LINE
  5
BEC
  8
FRAME_050
 10
10.0
 20
110.0
 30
0.0
 11
5.0
 21
110.0
 31
0.0
  0
TEXT
  5
BED
  8
FRAME_050
 10
6.0999999999999988
 20
135.0
 30
0.0
 40
4.0
  1
F
  7
ISO_PROPORTIONAL
 72
     4
 11
7.5
 21
137.0
 31
0.0
  0
LINE
  5
BEE
  8
FRAME_050
 10
10.0
 20
160.0
 30
0.0
 11
5.0
 21
160.0
 31
0.0
  0
TEXT
  5
BEF
  8
FRAME_050
 10
6.0999999999999988
 20
185.0
 30
0.0
 40
4.0
  1
E
  7
ISO_PROPORTIONAL
 72
     4
 11
7.5
 21
187.0
 31
0.0
  0
LINE
  5
BF0
  8
FRAME_050
 10
153.5
 20
5.0
 30
0.0
 11
153.5
 21
10.0
 31
0.0
  0
TEXT
  5
BF1
  8
FRAME_050
 10
116.1556692913386
 20
5.3996062992125982
 30
0.0
 40
4.0
  1
2
  7
ISO_PROPORTIONAL
 72
     4
 11
117.625
 21
7.5
 31
0.0
  0
TEXT
  5
BF2
  8
FRAME_050
 10
187.89215728752529
 20
5.5828427124746138
 30
0.0
 40
4.0
  1
3
  7
ISO_PROPORTIONAL
 72
     4
 11
189.375
 21
7.5
 31
0.0
  0
LINE
  5
BF3
  8
FRAME_050
 10
225.25
 20
5.0
 30
0.0
 11
225.25
 21
10.0
 31
0.0
  0
LINE
  5
BF4
  8
FRAME_050
 10
297.0
 20
7.5
 30
0.0
 11
294.5
 21
12.5
 31
0.0
  0
LINE
  5
BF5
  8
FRAME_050
 10
287.0
 20
5.0
 30
0.0
 11
287.0
 21
10.0
 31
0.0
  0
LINE
  5
BF6
  8
FRAME_050
 10
277.0
 20
5.0
 30
0.0
 11
277.0
 21
10.0
 31
0.0
  0
LINE
  5
BF7
  8
FRAME_050
 10
267.0
 20
5.0
 30
0.0
 11
267.0
 21
10.0
 31
0.0
  0
LINE
  5
BF8
  8
FRAME_050
 10
257.0
 20
5.0
 30
0.0
 11
257.0
 21
10.0
 31
0.0
  0
LINE
  5
BF9
  8
FRAME_050
 10
247.0
 20
5.0
 30
0.0
 11
247.0
 21
10.0
 31
0.0
  0
LINE
  5
BFA
  8
FRAME_050
 10
297.0
 20
10.0
 30
0.0
 11
297.0
 21
5.0
 31
0.0
  0
LINE
  5
BFB
  8
FRAME_050
 10
297.0
 20
10.0
 30
0.0
 11
297.0
 21
15.0
 31
0.0
  0
LINE
  5
BFC
  8
FRAME_050
 10
5.0
 20
210.0
 30
0.0
 11
15.0
 21
210.0
 31
0.0
  0
LINE
  5
BFD
  8
FRAME_050
 10
7.5
 20
210.0
 30
0.0
 11
12.5
 21
212.5
 31
0.0
  0
TEXT
  5
BFE
  8
FRAME_050
 10
5.7860912703473977
 20
235.0
 30
0.0
 40
4.0
  1
D
  7
ISO_PROPORTIONAL
 72
     4
 11
7.5
 21
237.0
 31
0.0
  0
LINE
  5
BFF
  8
FRAME_050
 10
10.0
 20
260.0
 30
0.0
 11
5.0
 21
260.0
 31
0.0
  0
TEXT
  5
C00
  8
FRAME_050
 10
6.1931980515339466
 20
285.0
 30
0.0
 40
4.0
  1
C
  7
ISO_PROPORTIONAL
 72
     4
 11
7.5
 21
287.0
 31
0.0
  0
LINE
  5
C01
  8
FRAME_050
 10
10.0
 20
310.0
 30
0.0
 11
5.0
 21
310.0
 31
0.0
  0
TEXT
  5
C02
  8
FRAME_050
 10
5.8999999999999959
 20
335.0
 30
0.0
 40
4.0
  1
B
  7
ISO_PROPORTIONAL
 72
     4
 11
7.5
 21
337.0
 31
0.0
  0
LINE
  5
C03
  8
FRAME_050
 10
10.0
 20
360.0
 30
0.0
 11
5.0
 21
360.0
 31
0.0
  0
TEXT
  5
C04
  8
FRAME_050
 10
5.6999999999999993
 20
385.0
 30
0.0
 40
4.0
  1
A
  7
ISO_PROPORTIONAL
 72
     4
 11
7.5
 21
387.0
 31
0.0
  0
LINE
  5
C05
  8
FRAME_200
 10
10.0
 20
420.0
 30
0.0
 11
0.0
 21
420.0
 31
0.0
  0
LINE
  5
C06
  8
FRAME_200
 10
0.0
 20
420.0
 30
0.0
 11
0.0
 21
410.0
 31
0.0
  0
TEXT
  5
C07
  8
FRAME_050
 10
44.874999999999993
 20
410.5
 30
0.0
 40
4.0
  1
1
  7
ISO_PROPORTIONAL
 72
     4
 11
45.875
 21
412.5
 31
0.0
  0
LINE
  5
C08
  8
FRAME_050
 10
81.75
 20
410.0
 30
0.0
 11
81.75
 21
415.0
 31
0.0
  0
TEXT
  5
C09
  8
FRAME_050
 10
116.1556692913386
 20
410.39960629921262
 30
0.0
 40
4.0
  1
2
  7
ISO_PROPORTIONAL
 72
     4
 11
117.625
 21
412.5
 31
0.0
  0
LINE
  5
C0A
  8
FRAME_050
 10
153.5
 20
410.0
 30
0.0
 11
153.5
 21
415.0
 31
0.0
  0
TEXT
  5
C0B
  8
FRAME_050
 10
187.89215728752529
 20
410.58284271247459
 30
0.0
 40
4.0
  1
3
  7
ISO_PROPORTIONAL
 72
     4
 11
189.375
 21
412.5
 31
0.0
  0
LINE
  5
C0C
  8
FRAME_050
 10
297.0
 20
405.0
 30
0.0
 11
297.0
 21
415.0
 31
0.0
  0
LINE
  5
C0D
  8
FRAME_050
 10
225.25
 20
410.0
 30
0.0
 11
225.25
 21
415.0
 31
0.0
  0
TEXT
  5
C0E
  8
FRAME_050
 10
259.52499999999998
 20
410.5
 30
0.0
 40
4.0
  1
4
  7
ISO_PROPORTIONAL
 72
     4
 11
261.125
 21
412.5
 31
0.0
  0
LINE
  5
C0F
  8
FRAME_070
 10
584.0
 20
10.0
 30
0.0
 11
584.0
 21
410.0
 31
0.0
  0
ATTDEF
  5
C10
  8
FRAME_025
 10
473.0
 20
31.75
 30
0.0
 40
2.5
  1
XXX - 00/00/00
  7
ISO_PROPORTIONAL
 11
473.0
 21
33.0
 31
0.0
  3
Approved by - Date
  2
APPROVED_BY_DATE
 70
     8
 74
     2
  0
TEXT
  5
C11
  8
FRAME_025
 10
448.0
 20
41.749999999999993
 30
0.0
 40
2.5
  1
Title/Name, designation, material, dimension etc
  7
ISO_PROPORTIONAL
 11
448.0
 21
43.0
 31
0.0
 73
     2
  0
TEXT
  5
C12
  8
FRAME_025
 10
473.0
 20
35.75
 30
0.0
 40
2.5
  1
Approved by - date
  7
ISO_PROPORTIONAL
 11
473.0
 21
37.0
 31
0.0
 73
     2
  0
LINE
  5
C13
  8
FRAME_070
 10
414.0
 20
46.0
 30
0.0
 11
584.0
 21
46.0
 31
0.0
  0
LINE
  5
C14
  8
FRAME_070
 10
414.0
 20
40.0
 30
0.0
 11
584.0
 21
40.0
 31
0.0
  0
LINE
  5
C15
  8
FRAME_070
 10
414.0
 20
30.0
 30
0.0
 11
584.0
 21
30.0
 31
0.0
  0
LINE
  5
C16
  8
FRAME_050
 10
368.75
 20
5.0
 30
0.0
 11
368.75
 21
10.0
 31
0.0
  0
LINE
  5
C17
  8
FRAME_050
 10
337.0
 20
5.0
 30
0.0
 11
337.0
 21
10.0
 31
0.0
  0
LINE
  5
C18
  8
FRAME_050
 10
327.0
 20
5.0
 30
0.0
 11
327.0
 21
10.0
 31
0.0
  0
LINE
  5
C19
  8
FRAME_050
 10
317.0
 20
5.0
 30
0.0
 11
317.0
 21
10.0
 31
0.0
  0
LINE
  5
C1A
  8
FRAME_050
 10
307.0
 20
5.0
 30
0.0
 11
307.0
 21
10.0
 31
0.0
  0
LINE
  5
C1B
  8
FRAME_050
 10
347.0
 20
5.0
 30
0.0
 11
347.0
 21
10.0
 31
0.0
  0
LINE
  5
C1C
  8
FRAME_050
 10
440.5
 20
5.0
 30
0.0
 11
440.5
 21
10.0
 31
0.0
  0
TEXT
  5
C1D
  8
FRAME_050
 10
403.24547244094481
 20
5.4102362204724406
 30
0.0
 40
4.0
  1
6
  7
ISO_PROPORTIONAL
 72
     4
 11
404.62499999999989
 21
7.5
 31
0.0
  0
TEXT
  5
C1E
  8
FRAME_050
 10
474.97500000000002
 20
5.5
 30
0.0
 40
4.0
  1
7
  7
ISO_PROPORTIONAL
 72
     4
 11
476.37499999999989
 21
7.5
 31
0.0
  0
TEXT
  5
C1F
  8
FRAME_025
 10
431.0
 20
41.749999999999993
 30
0.0
 40
2.5
  1
Quantity
  7
ISO_PROPORTIONAL
 11
431.0
 21
43.0
 31
0.0
 73
     2
  0
TEXT
  5
C20
  8
FRAME_025
 10
416.0
 20
41.749999999999993
 30
0.0
 40
2.5
  1
Itemref
  7
ISO_PROPORTIONAL
 11
416.0
 21
43.0
 31
0.0
 73
     2
  0
LINE
  5
C21
  8
FRAME_070
 10
414.0
 20
40.0
 30
0.0
 11
414.0
 21
46.0
 31
0.0
  0
LINE
  5
C22
  8
FRAME_070
 10
429.0
 20
40.0
 30
0.0
 11
429.0
 21
46.0
 31
0.0
  0
LINE
  5
C23
  8
FRAME_070
 10
414.0
 20
10.0
 30
0.0
 11
414.0
 21
40.0
 31
0.0
  0
ATTDEF
  5
C24
  8
FRAME_025
 10
416.0
 20
31.75
 30
0.0
 40
2.5
  1
XXX
  7
ISO_PROPORTIONAL
 11
416.0
 21
33.0
 31
0.0
  3
Designed by
  2
DESIGNED_BY
 70
     8
 74
     2
  0
TEXT
  5
C25
  8
FRAME_025
 10
416.0
 20
35.75
 30
0.0
 40
2.5
  1
Designed by
  7
ISO_PROPORTIONAL
 11
416.0
 21
37.0
 31
0.0
 73
     2
  0
LINE
  5
C26
  8
FRAME_070
 10
446.0
 20
40.0
 30
0.0
 11
446.0
 21
46.0
 31
0.0
  0
ATTDEF
  5
C27
  8
FRAME_025
 10
448.0
 20
31.75
 30
0.0
 40
2.5
  1
XXX
  7
ISO_PROPORTIONAL
 11
448.0
 21
33.0
 31
0.0
  3
Checked by
  2
CHECKED_BY
 70
     8
 74
     2
  0
TEXT
  5
C28
  8
FRAME_025
 10
448.0
 20
35.75
 30
0.0
 40
2.5
  1
Checked by
  7
ISO_PROPORTIONAL
 11
448.0
 21
37.0
 31
0.0
 73
     2
  0
ATTDEF
  5
C29
  8
FRAME_050
 10
444.74999999999989
 20
17.5
 30
0.0
 40
5.0
  1
XXX
  7
ISO_PROPORTIONAL
 72
     4
 11
451.49999999999989
 21
20.0
 31
0.0
  3
Owner
  2
OWNER
 70
     8
  0
LINE
  5
C2A
  8
FRAME_070
 10
446.0
 20
30.0
 30
0.0
 11
446.0
 21
40.0
 31
0.0
  0
LINE
  5
C2B
  8
FRAME_070
 10
471.0
 20
30.0
 30
0.0
 11
471.0
 21
40.0
 31
0.0
  0
LINE
  5
C2C
  8
FRAME_070
 10
489.0
 20
20.0
 30
0.0
 11
584.0
 21
20.0
 31
0.0
  0
LINE
  5
C2D
  8
FRAME_050
 10
512.25
 20
5.0
 30
0.0
 11
512.25
 21
10.0
 31
0.0
  0
TEXT
  5
C2E
  8
FRAME_050
 10
546.72499999999991
 20
5.5
 30
0.0
 40
4.0
  1
8
  7
ISO_PROPORTIONAL
 72
     4
 11
548.125
 21
7.5
 31
0.0
  0
ATTDEF
  5
C2F
  8
FRAME_050
 10
517.64999999999986
 20
13.5
 30
0.0
 40
3.0
  1
X
  7
ISO_PROPORTIONAL
 72
     4
 11
519.0
 21
15.0
 31
0.0
  3
Drawing number
  2
DRAWING_NUMBER
 70
     8
  0
ATTDEF
  5
C30
  8
FRAME_050
 10
529.75
 20
22.5
 30
0.0
 40
5.0
  1
XXX
  7
ISO_PROPORTIONAL
 72
     4
 11
536.5
 21
25.0
 31
0.0
  3
Title / Name
  2
TITLE
 70
     8
  0
LINE
  5
C31
  8
FRAME_070
 10
489.0
 20
10.0
 30
0.0
 11
489.0
 21
30.0
 31
0.0
  0
ATTDEF
  5
C32
  8
FRAME_025
 10
511.0
 20
31.75
 30
0.0
 40
2.5
  1
XXX
  7
ISO_PROPORTIONAL
 11
511.0
 21
33.0
 31
0.0
  3
Filename
  2
FILENAME
 70
     8
 74
     2
  0
TEXT
  5
C33
  8
FRAME_025
 10
511.0
 20
35.75
 30
0.0
 40
2.5
  1
Filename
  7
ISO_PROPORTIONAL
 11
511.0
 21
37.0
 31
0.0
 73
     2
  0
LINE
  5
C34
  8
FRAME_070
 10
509.0
 20
30.0
 30
0.0
 11
509.0
 21
40.0
 31
0.0
  0
TEXT
  5
C35
  8
FRAME_025
 10
536.0
 20
41.749999999999993
 30
0.0
 40
2.5
  1
Article No./Reference
  7
ISO_PROPORTIONAL
 11
536.0
 21
43.0
 31
0.0
 73
     2
  0
LINE
  5
C36
  8
FRAME_070
 10
534.0
 20
40.0
 30
0.0
 11
534.0
 21
46.0
 31
0.0
  0
ATTDEF
  5
C37
  8
FRAME_025
 10
551.0
 20
11.75
 30
0.0
 40
2.5
  1
0
  7
ISO_PROPORTIONAL
 11
551.0
 21
13.0
 31
0.0
  3
Edition
  2
EDITION
 70
     8
 74
     2
  0
TEXT
  5
C38
  8
FRAME_025
 10
551.0
 20
15.75
 30
0.0
 40
2.5
  1
Edition
  7
ISO_PROPORTIONAL
 11
551.0
 21
17.0
 31
0.0
 73
     2
  0
LINE
  5
C39
  8
FRAME_070
 10
549.0
 20
10.0
 30
0.0
 11
549.0
 21
20.0
 31
0.0
  0
ATTDEF
  5
C3A
  8
FRAME_025
 10
536.0
 20
31.75
 30
0.0
 40
2.5
  1
00/00/00
  7
ISO_PROPORTIONAL
 11
536.0
 21
33.0
 31
0.0
  3
Date
  2
DATE
 70
     8
 74
     2
  0
TEXT
  5
C3B
  8
FRAME_025
 10
536.0
 20
35.75
 30
0.0
 40
2.5
  1
Date
  7
ISO_PROPORTIONAL
 11
536.0
 21
37.0
 31
0.0
 73
     2
  0
LINE
  5
C3C
  8
FRAME_070
 10
534.0
 20
30.0
 30
0.0
 11
534.0
 21
40.0
 31
0.0
  0
ATTDEF
  5
C3D
  8
FRAME_025
 10
566.0
 20
11.75
 30
0.0
 40
2.5
  1
1/1
  7
ISO_PROPORTIONAL
 11
566.0
 21
13.0
 31
0.0
  3
Sheet
  2
SHEET
 70
     8
 74
     2
  0
TEXT
  5
C3E
  8
FRAME_025
 10
566.0
 20
15.75
 30
0.0
 40
2.5
  1
Sheet
  7
ISO_PROPORTIONAL
 11
566.0
 21
17.0
 31
0.0
 73
     2
  0
LINE
  5
C3F
  8
FRAME_070
 10
564.0
 20
10.0
 30
0.0
 11
564.0
 21
20.0
 31
0.0
  0
ATTDEF
  5
C40
  8
FRAME_025
 10
566.0
 20
31.75
 30
0.0
 40
2.5
  1
1:1
  7
ISO_PROPORTIONAL
 11
566.0
 21
33.0
 31
0.0
  3
Scale
  2
SCALE
 70
     8
 74
     2
  0
TEXT
  5
C41
  8
FRAME_025
 10
566.0
 20
35.75
 30
0.0
 40
2.5
  1
Scale
  7
ISO_PROPORTIONAL
 11
566.0
 21
37.0
 31
0.0
 73
     2
  0
LINE
  5
C42
  8
FRAME_070
 10
564.0
 20
30.0
 30
0.0
 11
564.0
 21
40.0
 31
0.0
  0
LINE
  5
C43
  8
FRAME_200
 10
594.0
 20
0.0
 30
0.0
 11
594.0
 21
10.0
 31
0.0
  0
LINE
  5
C44
  8
FRAME_200
 10
594.0
 20
0.0
 30
0.0
 11
584.0
 21
0.0
 31
0.0
  0
TEXT
  5
C45
  8
FRAME_050
 10
584.89999999999998
 20
35.0
 30
0.0
 40
4.0
  1
H
  7
ISO_PROPORTIONAL
 72
     4
 11
586.5
 21
37.0
 31
0.0
  0
LINE
  5
C46
  8
FRAME_050
 10
589.0
 20
60.0
 30
0.0
 11
584.0
 21
60.0
 31
0.0
  0
TEXT
  5
C47
  8
FRAME_050
 10
585.0035533905932
 20
85.0
 30
0.0
 40
4.0
  1
G
  7
ISO_PROPORTIONAL
 72
     4
 11
586.5
 21
87.0
 31
0.0
  0
LINE
  5
C48
  8
FRAME_050
 10
589.0
 20
110.0
 30
0.0
 11
584.0
 21
110.0
 31
0.0
  0
TEXT
  5
C49
  8
FRAME_050
 10
585.09999999999991
 20
135.0
 30
0.0
 40
4.0
  1
F
  7
ISO_PROPORTIONAL
 72
     4
 11
586.5
 21
137.0
 31
0.0
  0
LINE
  5
C4A
  8
FRAME_050
 10
589.0
 20
160.0
 30
0.0
 11
584.0
 21
160.0
 31
0.0
  0
TEXT
  5
C4B
  8
FRAME_050
 10
585.09999999999991
 20
185.0
 30
0.0
 40
4.0
  1
E
  7
ISO_PROPORTIONAL
 72
     4
 11
586.5
 21
187.0
 31
0.0
  0
LINE
  5
C4C
  8
FRAME_070
 10
414.0
 20
404.0
 30
0.0
 11
584.0
 21
404.0
 31
0.0
  0
TEXT
  5
C4D
  8
FRAME_050
 10
331.39215728752538
 20
410.58284271247459
 30
0.0
 40
4.0
  1
5
  7
ISO_PROPORTIONAL
 72
     4
 11
332.875
 21
412.5
 31
0.0
  0
LINE
  5
C4E
  8
FRAME_050
 10
368.75
 20
410.0
 30
0.0
 11
368.75
 21
415.0
 31
0.0
  0
TEXT
  5
C4F
  8
FRAME_025
 10
428.0
 20
405.75
 30
0.0
 40
2.5
  1
Revision note
  7
ISO_PROPORTIONAL
 11
428.0
 21
407.0
 31
0.0
 73
     2
  0
TEXT
  5
C50
  8
FRAME_025
 10
416.0
 20
405.75
 30
0.0
 40
2.5
  1
RevNo
  7
ISO_PROPORTIONAL
 11
416.0
 21
407.0
 31
0.0
 73
     2
  0
LINE
  5
C51
  8
FRAME_070
 10
426.0
 20
404.0
 30
0.0
 11
426.0
 21
410.0
 31
0.0
  0
LINE
  5
C52
  8
FRAME_070
 10
414.0
 20
404.0
 30
0.0
 11
414.0
 21
410.0
 31
0.0
  0
TEXT
  5
C53
  8
FRAME_050
 10
403.24547244094481
 20
410.41023622047243
 30
0.0
 40
4.0
  1
6
  7
ISO_PROPORTIONAL
 72
     4
 11
404.62499999999989
 21
412.5
 31
0.0
  0
LINE
  5
C54
  8
FRAME_050
 10
440.5
 20
410.0
 30
0.0
 11
440.5
 21
415.0
 31
0.0
  0
TEXT
  5
C55
  8
FRAME_050
 10
474.97500000000002
 20
410.5
 30
0.0
 40
4.0
  1
7
  7
ISO_PROPORTIONAL
 72
     4
 11
476.37499999999989
 21
412.5
 31
0.0
  0
LINE
  5
C56
  8
FRAME_050
 10
579.0
 20
210.0
 30
0.0
 11
589.0
 21
210.0
 31
0.0
  0
TEXT
  5
C57
  8
FRAME_050
 10
584.78609127034736
 20
235.0
 30
0.0
 40
4.0
  1
D
  7
ISO_PROPORTIONAL
 72
     4
 11
586.5
 21
237.0
 31
0.0
  0
LINE
  5
C58
  8
FRAME_050
 10
589.0
 20
260.0
 30
0.0
 11
584.0
 21
260.0
 31
0.0
  0
TEXT
  5
C59
  8
FRAME_050
 10
585.19319805153395
 20
285.0
 30
0.0
 40
4.0
  1
C
  7
ISO_PROPORTIONAL
 72
     4
 11
586.5
 21
287.0
 31
0.0
  0
LINE
  5
C5A
  8
FRAME_050
 10
589.0
 20
310.0
 30
0.0
 11
584.0
 21
310.0
 31
0.0
  0
TEXT
  5
C5B
  8
FRAME_050
 10
584.89999999999998
 20
335.0
 30
0.0
 40
4.0
  1
B
  7
ISO_PROPORTIONAL
 72
     4
 11
586.5
 21
337.0
 31
0.0
  0
TEXT
  5
C5C
  8
FRAME_025
 10
571.08299391850551
 20
405.75
 30
0.0
 40
2.5
  1
Checked
  7
ISO_PROPORTIONAL
 11
571.08299391850551
 21
407.0
 31
0.0
 73
     2
  0
TEXT
  5
C5D
  8
FRAME_025
 10
555.36099797283532
 20
405.75
 30
0.0
 40
2.5
  1
Signature
  7
ISO_PROPORTIONAL
 11
555.36099797283532
 21
407.0
 31
0.0
 73
     2
  0
TEXT
  5
C5E
  8
FRAME_025
 10
537.0
 20
405.75
 30
0.0
 40
2.5
  1
Date
  7
ISO_PROPORTIONAL
 11
537.0
 21
407.0
 31
0.0
 73
     2
  0
LINE
  5
C5F
  8
FRAME_070
 10
570.0
 20
404.0
 30
0.0
 11
570.0
 21
410.0
 31
0.0
  0
LINE
  5
C60
  8
FRAME_070
 10
555.0
 20
404.0
 30
0.0
 11
555.0
 21
410.0
 31
0.0
  0
LINE
  5
C61
  8
FRAME_070
 10
535.0
 20
404.0
 30
0.0
 11
535.0
 21
410.0
 31
0.0
  0
LINE
  5
C62
  8
FRAME_050
 10
512.25
 20
410.0
 30
0.0
 11
512.25
 21
415.0
 31
0.0
  0
TEXT
  5
C63
  8
FRAME_050
 10
546.72499999999991
 20
410.5
 30
0.0
 40
4.0
  1
8
  7
ISO_PROPORTIONAL
 72
     4
 11
548.125
 21
412.5
 31
0.0
  0
LINE
  5
C64
  8
FRAME_050
 10
589.0
 20
360.0
 30
0.0
 11
584.0
 21
360.0
 31
0.0
  0
TEXT
  5
C65
  8
FRAME_050
 10
584.70000000000005
 20
385.0
 30
0.0
 40
4.0
  1
A
  7
ISO_PROPORTIONAL
 72
     4
 11
586.5
 21
387.0
 31
0.0
  0
LINE
  5
C66
  8
FRAME_200
 10
594.0
 20
420.0
 30
0.0
 11
584.0
 21
420.0
 31
0.0
  0
LINE
  5
C67
  8
FRAME_200
 10
594.0
 20
410.0
 30
0.0
 11
594.0
 21
420.0
 31
0.0
  0
ENDBLK
  5
C69
  8
0
  0
BLOCK
  8
0
  2
WOBB001END
 70
     0
 10
0.0
 20
0.0
 30
0.0
  3
WOBB001END
  1

  0
LINE
  5
4D66
  8
0
  6
CONTINUOUS
 10
0.0
 20
0.0
 30
0.0
 11
0.8749999999999998
 21
0.0
 31
0.0
  0
ARC
  5
4D67
  8
0
  6
CONTINUOUS
 10
0.0331648379439287
 20
-0.5087238935900232
 30
0.0
 40
0.8790130605592325
 50
284.06490243660443
 51
312.19222981924361
  0
ARC
  5
4D68
  8
0
  6
CONTINUOUS
 10
0.2841534338796767
 20
-1.510548310625538
 30
0.0
 40
0.1537731892806598
 50
104.0649024366044
 51
179.4721730735024
  0
LINE
  5
4D69
  8
0
  6
CONTINUOUS
 10
0.0
 20
0.0
 30
0.0
 11
-0.0000000000000003
 21
-1.7501564476661919
 31
0.0
  0
ARC
  5
4D6A
  8
0
  6
CONTINUOUS
 10
0.1404622019506122
 20
-1.6303137183546199
 30
0.0
 40
0.1198427293115722
 50
275.0
 51
85.000000000000057
  0
LINE
  5
4D6B
  8
0
  6
CONTINUOUS
 10
-0.0000000000000003
 20
-1.7501564476661919
 30
0.0
 11
0.1456946485130855
 21
-1.7501564476661919
 31
0.0
  0
LINE
  5
4D6C
  8
0
  6
CONTINUOUS
 10
0.1377603739254348
 20
-1.7508506067459131
 30
0.0
 11
0.150907184036669
 21
-1.749700409899652
 31
0.0
  0
LINE
  5
4D6D
  8
0
  6
CONTINUOUS
 10
0.1303867696719884
 20
-1.5091317231818231
 30
0.0
 11
0.1509071840366689
 21
-1.5109270268095869
 31
0.0
  0
LINE
  5
4D6E
  8
0
  6
CONTINUOUS
 10
0.8749999999999998
 20
0.0
 30
0.0
 11
0.8749999999999996
 21
-0.8649327026588228
 31
0.0
  0
LINE
  5
4D6F
  8
0
  6
CONTINUOUS
 10
0.727014513830997
 20
-0.8726882933550612
 30
0.0
 11
0.727014513830997
 21
-0.9264923397184784
 31
0.0
  0
ARC
  5
4D70
  8
0
  6
CONTINUOUS
 10
0.41187090827646
 20
-0.9264923397184784
 30
0.0
 40
0.315143605554537
 50
312.19222981924361
 51
0.0
  0
LINE
  5
4D71
  8
0
  6
CONTINUOUS
 10
0.727014513830997
 20
-0.8726882933550612
 30
0.0
 11
0.8749999999999996
 21
-0.8649327026588228
 31
0.0
  0
ENDBLK
  5
4D72
  8
0
  0
BLOCK
  8
0
  2
A$C0A61123B
 70
     0
 10
0.0
 20
0.0
 30
0.0
  3
A$C0A61123B
  1

  0
LINE
  5
C0AD
  8
PROF
  6
CONTINUOUS
 10
4.9012016798694162
 20
13.325025853350891
 30
0.0000000000000002
 11
4.9012016798694162
 21
12.88585218805485
 31
0.0000000000000003
  0
INSERT
  5
C0AE
  8
0
  2
*U31
 10
0.0
 20
0.0
 30
0.0
  0
LINE
  5
C0AF
  8
PROF
 10
4.5198575031869259
 20
12.72227734589444
 30
0.0000000000000001
 11
4.5198575031869259
 21
12.88585218805485
 31
0.0000000000000001
  0
LINE
  5
C0B0
  8
PROF
  6
CONTINUOUS
 10
3.6306271195888371
 20
13.325025853350891
 30
0.0000000000000002
 11
4.9012016798694162
 21
13.325025853350891
 31
0.0000000000000002
  0
LINE
  5
C0B1
  8
PROF
 10
1.9750295148747341
 20
10.37671325491794
 30
0.0000000000000002
 11
1.9750295148747341
 21
10.11391186758919
 31
0.0000000000000002
  0
LINE
  5
C0B2
  8
PROF
 10
1.607967335755631
 20
10.11391186758919
 30
0.0000000000000001
 11
1.9750295148747341
 21
10.11391186758919
 31
0.0000000000000001
  0
LINE
  5
C0B3
  8
PROF
 10
1.9750295148747341
 20
10.11391186758919
 30
0.0000000000000001
 11
1.944958486898144
 21
10.11391186758919
 31
0.0000000000000001
  0
LINE
  5
C0B4
  8
PROF
 10
1.9750295148747341
 20
10.11391186758919
 30
0.0000000000000001
 11
1.944958486898144
 21
10.11391186758919
 31
0.0000000000000001
  0
LINE
  5
C0B5
  8
PROF
 10
0.3222605517169654
 20
7.5247473351056442
 30
-0.0000000000000002
 11
-0.0000008570117416
 21
7.5247473351056442
 31
0.0
  0
LINE
  5
C0B6
  8
PROF
 10
-0.0000008570117416
 20
7.5247473351056442
 30
0.0
 11
-0.0000008570117416
 21
9.1943336957369866
 31
0.0
  0
POLYLINE
  5
C0B7
  8
PROF
 66
     1
 10
0.0
 20
0.0
 30
0.0000000000000001
 70
     4
 75
     6
  0
VERTEX
  5
C0B8
  8
PROF
 10
1.607967335755631
 20
10.11391186758919
 30
0.0000000000000001
 70
    16
  0
VERTEX
  5
C0B9
  8
PROF
 10
1.607967335755631
 20
10.11391186758919
 30
0.0000000000000001
 70
     8
  0
VERTEX
  5
C0BA
  8
PROF
 10
1.646813232648582
 20
10.02198069336111
 30
0.0000000000000001
 70
     8
  0
VERTEX
  5
C0BB
  8
PROF
 10
1.67335966680929
 20
9.9344134163010267
 30
0.0000000000000001
 70
     8
  0
VERTEX
  5
C0BC
  8
PROF
 10
1.689008640046324
 20
9.8512576644480987
 30
0.0000000000000001
 70
     8
  0
VERTEX
  5
C0BD
  8
PROF
 10
1.695162154168258
 20
9.7725610658417281
 30
0.0000000000000001
 70
     8
  0
VERTEX
  5
C0BE
  8
PROF
 10
1.6932222109836059
 20
9.6983712485214255
 30
0.0000000000000001
 70
     8
  0
VERTEX
  5
C0BF
  8
PROF
 10
1.6845908123009961
 20
9.6287358405263603
 30
0.0000000000000001
 70
     8
  0
VERTEX
  5
C0C0
  8
PROF
 10
1.6706699599288859
 20
9.5637024698960431
 30
0.0000000000000001
 70
     8
  0
VERTEX
  5
C0C1
  8
PROF
 10
1.6528616556759621
 20
9.503318764669757
 30
0.0000000000000001
 70
     8
  0
VERTEX
  5
C0C2
  8
PROF
 10
1.6323562992730549
 20
9.4475843259650674
 30
0.0000000000000001
 70
     8
  0
VERTEX
  5
C0C3
  8
PROF
 10
1.609497882140658
 20
9.3963066472123273
 30
0.0000000000000001
 70
     8
  0
VERTEX
  5
C0C4
  8
PROF
 10
1.584418793621637
 20
9.3492451949202842
 30
0.0000000000000001
 70
     8
  0
VERTEX
  5
C0C5
  8
PROF
 10
1.557251423058744
 20
9.3061594355972375
 30
0.0000000000000001
 70
     8
  0
VERTEX
  5
C0C6
  8
PROF
 10
1.5281281597949601
 20
9.2668088357519292
 30
0.0000000000000001
 70
     8
  0
VERTEX
  5
C0C7
  8
PROF
 10
1.4971813931729789
 20
9.2309528618930017
 30
0.0000000000000001
 70
     8
  0
VERTEX
  5
C0C8
  8
PROF
 10
1.464543512535726
 20
9.1983509805288577
 30
0.0000000000000001
 70
     8
  0
VERTEX
  5
C0C9
  8
PROF
 10
1.4303469072260091
 20
9.1687626581682462
 30
0.0000000000000001
 70
     8
  0
VERTEX
  5
C0CA
  8
PROF
 10
1.3947360332574019
 20
9.1419547918675335
 30
0.0000000000000001
 70
     8
  0
VERTEX
  5
C0CB
  8
PROF
 10
1.3579036133264131
 20
9.1177240008747731
 30
0.0000000000000001
 70
     8
  0
VERTEX
  5
C0CC
  8
PROF
 10
1.3200544368004321
 20
9.0958743349860924
 30
0.0000000000000001
 70
     8
  0
VERTEX
  5
C0CD
  8
PROF
 10
1.281393293046676
 20
9.0762098439975034
 30
0.0000000000000001
 70
     8
  0
VERTEX
  5
C0CE
  8
PROF
 10
1.242124971432417
 20
9.0585345777049042
 30
0.0000000000000001
 70
     8
  0
VERTEX
  5
C0CF
  8
PROF
 10
1.2024542613249869
 20
9.0426525859044204
 30
0.0000000000000001
 70
     8
  0
VERTEX
  5
C0D0
  8
PROF
 10
1.1625859520916599
 20
9.0283679183919503
 30
0.0000000000000001
 70
     8
  0
VERTEX
  5
C0D1
  8
PROF
 10
1.1227248330997091
 20
9.0154846249635057
 30
0.0000000000000001
 70
     8
  0
VERTEX
  5
C0D2
  8
PROF
 10
1.0829726247361
 20
9.0034643862466055
 30
0.0000000000000001
 70
     8
  0
VERTEX
  5
C0D3
  8
PROF
 10
1.043018771466222
 20
8.9903994061946833
 30
0.0000000000000001
 70
     8
  0
VERTEX
  5
C0D4
  8
PROF
 10
1.002449648775211
 20
8.9740395195925657
 30
0.0000000000000001
 70
     8
  0
VERTEX
  5
C0D5
  8
PROF
 10
0.9608516321480919
 20
8.9521345612251935
 30
0.0000000000000001
 70
     8
  0
VERTEX
  5
C0D6
  8
PROF
 10
0.9178110970699435
 20
8.9224343658775052
 30
0.0000000000000001
 70
     8
  0
VERTEX
  5
C0D7
  8
PROF
 10
0.8729144190259034
 20
8.8826887683343312
 30
0.0000000000000001
 70
     8
  0
VERTEX
  5
C0D8
  8
PROF
 10
0.8257479735009951
 20
8.8306476033806121
 30
0.0000000000000001
 70
     8
  0
VERTEX
  5
C0D9
  8
PROF
 10
0.7758981359802988
 20
8.764060705801171
 30
0.0000000000000001
 70
     8
  0
VERTEX
  5
C0DA
  8
PROF
 10
1.729201901609656
 20
9.8629858761255491
 30
0.0000000000000001
 70
    16
  0
VERTEX
  5
C0DB
  8
PROF
 10
1.6793731231140889
 20
9.4532143012734196
 30
0.0000000000000001
 70
    16
  0
VERTEX
  5
C0DC
  8
PROF
 10
1.4455611507419801
 20
9.1391837193732481
 30
0.0000000000000001
 70
    16
  0
VERTEX
  5
C0DD
  8
PROF
 10
1.120463717273821
 20
9.0026267702428413
 30
0.0000000000000001
 70
    16
  0
VERTEX
  5
C0DE
  8
PROF
 10
0.9127765582653638
 20
8.9630202230383702
 30
0.0000000000000001
 70
    16
  0
VERTEX
  5
C0DF
  8
PROF
 10
0.7758981359802988
 20
8.764060705801171
 30
0.0000000000000001
 70
    16
  0
SEQEND
  5
C0E0
  8
PROF
  0
ARC
  5
C0E1
  8
PROF
 10
0.733429816733235
 20
8.4849506952165257
 30
0.0000000000000001
 40
0.2823224329524727
 50
269.73652020831901
 51
81.348449993176914
  0
LINE
  5
C0E2
  8
PROF
  6
CONTINUOUS
 10
-0.0000008570117416
 20
9.1943336957369866
 30
-0.0000000000000001
 11
3.6306271195888371
 21
13.325025853350891
 31
0.0000000000000002
  0
POLYLINE
  5
C0E3
  8
PROF
 66
     1
 10
0.0
 20
0.0
 30
0.0000000000000001
 70
     4
 75
     6
  0
VERTEX
  5
C0E4
  8
PROF
 10
4.5198575031869259
 20
12.72227734589444
 30
0.0000000000000001
 70
    16
  0
VERTEX
  5
C0E5
  8
PROF
 10
4.5198575031869259
 20
12.72227734589444
 30
0.0000000000000001
 70
     8
  0
VERTEX
  5
C0E6
  8
PROF
 10
4.4467035366886298
 20
12.741128108778071
 30
0.0000000000000001
 70
     8
  0
VERTEX
  5
C0E7
  8
PROF
 10
4.3786645761268801
 20
12.754675269913941
 30
0.0000000000000001
 70
     8
  0
VERTEX
  5
C0E8
  8
PROF
 10
4.3154364111440477
 20
12.76334314092332
 30
0.0000000000000001
 70
     8
  0
VERTEX
  5
C0E9
  8
PROF
 10
4.256714831382566
 20
12.76755603342724
 30
0.0000000000000001
 70
     8
  0
VERTEX
  5
C0EA
  8
PROF
 10
4.2021956264849791
 20
12.76773825904672
 30
0.0000000000000001
 70
     8
  0
VERTEX
  5
C0EB
  8
PROF
 10
4.1515745860935453
 20
12.764314129403139
 30
0.0000000000000001
 70
     8
  0
VERTEX
  5
C0EC
  8
PROF
 10
4.1045474998508658
 20
12.75770795611743
 30
0.0000000000000001
 70
     8
  0
VERTEX
  5
C0ED
  8
PROF
 10
4.0608101573993158
 20
12.748344050810831
 30
0.0000000000000001
 70
     8
  0
VERTEX
  5
C0EE
  8
PROF
 10
4.0200583483813261
 20
12.736646725104491
 30
0.0000000000000001
 70
     8
  0
VERTEX
  5
C0EF
  8
PROF
 10
3.9819878624393819
 20
12.72304029061945
 30
0.0000000000000001
 70
     8
  0
VERTEX
  5
C0F0
  8
PROF
 10
3.946294489215858
 20
12.707949058976959
 30
0.0000000000000001
 70
     8
  0
VERTEX
  5
C0F1
  8
PROF
 10
3.9126740183532429
 20
12.691797341798059
 30
0.0000000000000001
 70
     8
  0
VERTEX
  5
C0F2
  8
PROF
 10
3.8808638350742508
 20
12.67494295718654
 30
0.0000000000000001
 70
     8
  0
VERTEX
  5
C0F3
  8
PROF
 10
3.850767706922738
 20
12.65747774917668
 30
0.0000000000000001
 70
     8
  0
VERTEX
  5
C0F4
  8
PROF
 10
3.8223309970228452
 20
12.639427068285499
 30
0.0000000000000001
 70
     8
  0
VERTEX
  5
C0F5
  8
PROF
 10
3.7954990684987129
 20
12.62081626503004
 30
0.0000000000000001
 70
     8
  0
VERTEX
  5
C0F6
  8
PROF
 10
3.7702172844744828
 20
12.601670689926999
 30
0.0000000000000001
 70
     8
  0
VERTEX
  5
C0F7
  8
PROF
 10
3.746431008074353
 20
12.58201569349364
 30
0.0000000000000001
 70
     8
  0
VERTEX
  5
C0F8
  8
PROF
 10
3.7240856024224618
 20
12.56187662624666
 30
0.0000000000000001
 70
     8
  0
VERTEX
  5
C0F9
  8
PROF
 10
3.7031264306428961
 20
12.541278838703191
 30
0.0000000000000001
 70
     8
  0
VERTEX
  5
C0FA
  8
PROF
 10
3.6834988558599089
 20
12.520247681380051
 30
0.0000000000000001
 70
     8
  0
VERTEX
  5
C0FB
  8
PROF
 10
3.665148241197528
 20
12.49880850479428
 30
0.0000000000000001
 70
     8
  0
VERTEX
  5
C0FC
  8
PROF
 10
3.6480199497799499
 20
12.47698665946279
 30
0.0000000000000001
 70
     8
  0
VERTEX
  5
C0FD
  8
PROF
 10
3.6320593447313172
 20
12.45480749590263
 30
0.0000000000000001
 70
     8
  0
VERTEX
  5
C0FE
  8
PROF
 10
3.6171895848866589
 20
12.43223790353807
 30
0.0000000000000001
 70
     8
  0
VERTEX
  5
C0FF
  8
PROF
 10
3.6032450119242858
 20
12.40901092742285
 30
0.0000000000000001
 70
     8
  0
VERTEX
  5
C100
  8
PROF
 10
3.590037763233453
 20
12.38480115151844
 30
0.0000000000000001
 70
     8
  0
VERTEX
  5
C101
  8
PROF
 10
3.5773799762033032
 20
12.35928315978594
 30
0.0000000000000001
 70
     8
  0
VERTEX
  5
C102
  8
PROF
 10
3.5650837882230908
 20
12.33213153618658
 30
0.0000000000000001
 70
     8
  0
VERTEX
  5
C103
  8
PROF
 10
3.5529613366819599
 20
12.303020864681571
 30
0.0000000000000001
 70
     8
  0
VERTEX
  5
C104
  8
PROF
 10
3.540824758969165
 20
12.271625729232371
 30
0.0000000000000001
 70
     8
  0
VERTEX
  5
C105
  8
PROF
 10
3.5284861924738489
 20
12.23762071379997
 30
0.0000000000000001
 70
     8
  0
VERTEX
  5
C106
  8
PROF
 10
3.5157577745852668
 20
12.200680402345711
 30
0.0000000000000001
 70
     8
  0
VERTEX
  5
C107
  8
PROF
 10
3.5024516426926189
 20
12.16047937883093
 30
0.0000000000000001
 70
     8
  0
VERTEX
  5
C108
  8
PROF
 10
3.4883799341851041
 20
12.116692227216619
 30
0.0000000000000001
 70
     8
  0
VERTEX
  5
C109
  8
PROF
 10
3.4733547864519201
 20
12.06899353146423
 30
0.0000000000000001
 70
     8
  0
VERTEX
  5
C10A
  8
PROF
 10
3.45723654619428
 20
12.0172095445447
 30
0.0000000000000001
 70
     8
  0
VERTEX
  5
C10B
  8
PROF
 10
3.4400783973613889
 20
11.961773195467799
 30
0.0000000000000001
 70
     8
  0
VERTEX
  5
C10C
  8
PROF
 10
3.421981733214579
 20
11.90326908225302
 30
0.0000000000000001
 70
     8
  0
VERTEX
  5
C10D
  8
PROF
 10
3.4030479470150108
 20
11.842281802919951
 30
0.0000000000000001
 70
     8
  0
VERTEX
  5
C10E
  8
PROF
 10
3.383378432024017
 20
11.779395955487979
 30
0.0000000000000001
 70
     8
  0
VERTEX
  5
C10F
  8
PROF
 10
3.3630745815028709
 20
11.715196137976809
 30
0.0000000000000001
 70
     8
  0
VERTEX
  5
C110
  8
PROF
 10
3.3422377887127359
 20
11.650266948405831
 30
0.0000000000000001
 70
     8
  0
VERTEX
  5
C111
  8
PROF
 10
3.320969446915
 20
11.58519298479461
 30
0.0000000000000001
 70
     8
  0
VERTEX
  5
C112
  8
PROF
 10
3.2993709493707679
 20
11.520558845162549
 30
0.0000000000000001
 70
     8
  0
VERTEX
  5
C113
  8
PROF
 10
3.277543689341428
 20
11.456949127529469
 30
0.0000000000000001
 70
     8
  0
VERTEX
  5
C114
  8
PROF
 10
3.2555890600881412
 20
11.3949484299145
 30
0.0000000000000001
 70
     8
  0
VERTEX
  5
C115
  8
PROF
 10
3.233608454872182
 20
11.335141350337491
 30
0.0000000000000001
 70
     8
  0
VERTEX
  5
C116
  8
PROF
 10
3.2116715641212181
 20
11.27799544797778
 30
0.0000000000000001
 70
     8
  0
VERTEX
  5
C117
  8
PROF
 10
3.189721266927847
 20
11.22351012665467
 30
0.0000000000000001
 70
     8
  0
VERTEX
  5
C118
  8
PROF
 10
3.1676687395512881
 20
11.17156775134765
 30
0.0000000000000001
 70
     8
  0
VERTEX
  5
C119
  8
PROF
 10
3.1454251582505321
 20
11.12205068703588
 30
0.0000000000000001
 70
     8
  0
VERTEX
  5
C11A
  8
PROF
 10
3.122901699284625
 20
11.07484129869874
 30
0.0000000000000001
 70
     8
  0
VERTEX
  5
C11B
  8
PROF
 10
3.1000095389127291
 20
11.02982195131551
 30
0.0000000000000001
 70
     8
  0
VERTEX
  5
C11C
  8
PROF
 10
3.0766598533938909
 20
10.986875009865679
 30
0.0000000000000001
 70
     8
  0
VERTEX
  5
C11D
  8
PROF
 10
3.0527638189871591
 20
10.9458828393283
 30
0.0000000000000001
 70
     8
  0
VERTEX
  5
C11E
  8
PROF
 10
3.0282326119516361
 20
10.90672780468298
 30
0.0000000000000001
 70
     8
  0
VERTEX
  5
C11F
  8
PROF
 10
3.002977408546371
 20
10.869292270908771
 30
0.0000000000000001
 70
     8
  0
VERTEX
  5
C120
  8
PROF
 10
2.9769093850304098
 20
10.833458602985161
 30
0.0000000000000001
 70
     8
  0
VERTEX
  5
C121
  8
PROF
 10
2.9499397176628568
 20
10.799109165891419
 30
0.0000000000000001
 70
     8
  0
VERTEX
  5
C122
  8
PROF
 10
2.9220006098404379
 20
10.76614363969508
 30
0.0000000000000001
 70
     8
  0
VERTEX
  5
C123
  8
PROF
 10
2.8931083735103011
 20
10.7345309648158
 30
0.0000000000000001
 70
     8
  0
VERTEX
  5
C124
  8
PROF
 10
2.8633003477572738
 20
10.70425739676193
 30
0.0000000000000001
 70
     8
  0
VERTEX
  5
C125
  8
PROF
 10
2.8326138716660689
 20
10.67530919104115
 30
0.0000000000000001
 70
     8
  0
VERTEX
  5
C126
  8
PROF
 10
2.8010862843216269
 20
10.647672603161711
 30
0.0000000000000001
 70
     8
  0
VERTEX
  5
C127
  8
PROF
 10
2.7687549248087171
 20
10.62133388863162
 30
0.0000000000000001
 70
     8
  0
VERTEX
  5
C128
  8
PROF
 10
2.735657132212054
 20
10.5962793029588
 30
0.0000000000000001
 70
     8
  0
VERTEX
  5
C129
  8
PROF
 10
2.7018302456165202
 20
10.572495101651381
 30
0.0000000000000001
 70
     8
  0
VERTEX
  5
C12A
  8
PROF
 10
2.6673116041068852
 20
10.54996754021726
 30
0.0000000000000001
 70
     8
  0
VERTEX
  5
C12B
  8
PROF
 10
2.6321385467680321
 20
10.528682874164581
 30
0.0000000000000001
 70
     8
  0
VERTEX
  5
C12C
  8
PROF
 10
2.5963484126846188
 20
10.508627359001251
 30
0.0000000000000001
 70
     8
  0
VERTEX
  5
C12D
  8
PROF
 10
2.5599785409415849
 20
10.489787250235279
 30
0.0000000000000001
 70
     8
  0
VERTEX
  5
C12E
  8
PROF
 10
2.522998630314361
 20
10.472162234281081
 30
0.0000000000000001
 70
     8
  0
VERTEX
  5
C12F
  8
PROF
 10
2.4851078183409072
 20
10.455805721177621
 30
0.0000000000000001
 70
     8
  0
VERTEX
  5
C130
  8
PROF
 10
2.4459376022498982
 20
10.44078455187036
 30
0.0000000000000001
 70
     8
  0
VERTEX
  5
C131
  8
PROF
 10
2.4051194792701258
 20
10.42716556730465
 30
0.0000000000000001
 70
     8
  0
VERTEX
  5
C132
  8
PROF
 10
2.3622849466301541
 20
10.415015608425851
 30
0.0000000000000001
 70
     8
  0
VERTEX
  5
C133
  8
PROF
 10
2.3170655015587149
 20
10.40440151617929
 30
0.0000000000000001
 70
     8
  0
VERTEX
  5
C134
  8
PROF
 10
2.2690926412844301
 20
10.395390131510339
 30
0.0000000000000001
 70
     8
  0
VERTEX
  5
C135
  8
PROF
 10
2.2179978630360888
 20
10.388048295364451
 30
0.0000000000000001
 70
     8
  0
VERTEX
  5
C136
  8
PROF
 10
2.1634126640422551
 20
10.38244284868688
 30
0.0000000000000001
 70
     8
  0
VERTEX
  5
C137
  8
PROF
 10
2.104968541531604
 20
10.37864063242295
 30
0.0000000000000001
 70
     8
  0
VERTEX
  5
C138
  8
PROF
 10
2.0422969927328718
 20
10.37670848751816
 30
0.0000000000000001
 70
     8
  0
VERTEX
  5
C139
  8
PROF
 10
1.9750295148747341
 20
10.37671325491794
 30
0.0000000000000001
 70
     8
  0
VERTEX
  5
C13A
  8
PROF
 10
4.2166060115107484
 20
12.80885334975255
 30
0.0000000000000001
 70
    16
  0
VERTEX
  5
C13B
  8
PROF
 10
3.8702254102732918
 20
12.707065515763929
 30
0.0000000000000001
 70
    16
  0
VERTEX
  5
C13C
  8
PROF
 10
3.605346156896871
 20
12.46277472098552
 30
0.0000000000000001
 70
    16
  0
VERTEX
  5
C13D
  8
PROF
 10
3.500746030527238
 20
12.170680575709749
 30
0.0000000000000001
 70
    16
  0
VERTEX
  5
C13E
  8
PROF
 10
3.231798439705698
 20
11.26846416496107
 30
0.0000000000000001
 70
    16
  0
VERTEX
  5
C13F
  8
PROF
 10
2.9737109398832891
 20
10.76631086647069
 30
0.0000000000000001
 70
    16
  0
VERTEX
  5
C140
  8
PROF
 10
2.5729961067384011
 20
10.460947364504699
 30
0.0000000000000001
 70
    16
  0
VERTEX
  5
C141
  8
PROF
 10
2.253782621454604
 20
10.372731239449759
 30
0.0000000000000001
 70
    16
  0
VERTEX
  5
C142
  8
PROF
 10
1.9750295148747341
 20
10.37671325491794
 30
0.0000000000000001
 70
    16
  0
SEQEND
  5
C143
  8
PROF
  0
LINE
  5
C144
  8
PROF
 10
4.9012016798694162
 20
12.88585218805485
 30
0.0000000000000003
 11
4.5198575031869259
 21
12.88585218805485
 31
0.0000000000000003
  0
LINE
  5
C145
  8
PROF
 10
0.7321315362267457
 20
8.2026312473991538
 30
0.0000000000000006
 11
0.7321315362267457
 21
8.0511853963434987
 31
0.0000000000000006
  0
ARC
  5
C146
  8
PROF
 10
0.7977322214551919
 20
7.5773339332026799
 30
0.0000000000000006
 40
0.4783708383912012
 50
97.882010168942529
 51
186.31119505698649
  0
LINE
  5
C147
  8
FRAME_050
 10
7.8016377197432121
 20
17.99371054969447
 30
0.0
 11
7.8016377197432121
 21
0.0000000000002274
 31
0.0
  0
ENDBLK
  5
C149
  8
0
  0
BLOCK
  8
0
  2
*U17
 70
     1
 10
0.0
 20
0.0
 30
0.0
  3
*U17
  1

  0
TEXT
  5
C7CA
  8
0
 10
1.239259081419714
 20
2.6950951676960808
 30
0.0
 40
0.125
  1
Base Board Assembly
  0
TEXT
  5
C7CB
  8
0
 10
1.2479562164811051
 20
2.4862502381826661
 30
0.0
 40
0.125
  1
TL-685
  0
TEXT
  5
C7CC
  8
0
 10
1.233034661228718
 20
2.2757852540989911
 30
0.0
 40
0.125
  1
1-1/4" x 5-1/2"
  0
TEXT
  5
C7CD
  8
0
 10
1.2449719054306281
 20
2.065320270015317
 30
0.0
 40
0.125
  1
800.66.TAGUE
  0
ENDBLK
  5
C7CF
  8
0
  0
BLOCK
  8
0
  2
*U18
 70
     1
 10
0.0
 20
0.0
 30
0.0
  3
*U18
  1

  0
TEXT
  5
C7D1
  8
0
 10
1.7640183057957921
 20
0.9043543980393561
 30
0.0
 40
0.125
  1
TL-AB027
  0
ENDBLK
  5
C7D3
  8
0
  0
BLOCK
  8
0
  2
*U19
 70
     1
 10
0.0
 20
0.0
 30
0.0
  3
*U19
  1

  0
INSERT
  5
C7D5
  8
0
  2
_OPEN30
 10
1.044939211408632
 20
0.5089063444504518
 30
0.0
 41
0.046875
 42
0.046875
 43
0.046875
 50
218.32432662178419
  0
POLYLINE
  5
C7D6
  8
0
 66
     1
 10
0.0
 20
0.0
 30
0.0
  0
VERTEX
  5
C7D7
  8
0
 10
1.0817132655138231
 20
0.537974102700246
 30
0.0
  0
VERTEX
  5
C7D8
  8
0
 10
1.624619731937514
 20
0.967110196129397
 30
0.0
  0
VERTEX
  5
C7D9
  8
0
 10
1.7056110752364471
 20
0.967110196129397
 30
0.0
  0
SEQEND
  5
C7DA
  8
0
  0
ENDBLK
  5
C7DC
  8
0
  0
BLOCK
  8
0
  2
*U20
 70
     1
 10
0.0
 20
0.0
 30
0.0
  3
*U20
  1

  0
TEXT
  5
C7DE
  8
0
 10
1.7550192676514531
 20
4.0522382494085818
 30
0.0
 40
0.125
  1
TL-AB212
  0
ENDBLK
  5
C7E0
  8
0
  0
BLOCK
  8
0
  2
*U21
 70
     1
 10
0.0
 20
0.0
 30
0.0
  3
*U21
  1

  0
INSERT
  5
C7E2
  8
0
  2
_OPEN30
 10
0.7500010642923485
 20
3.3237175171506119
 30
0.0
 41
0.046875
 42
0.046875
 43
0.046875
 50
223.3453603417224
  0
POLYLINE
  5
C7E3
  8
0
 66
     1
 10
0.0
 20
0.0
 30
0.0
  0
VERTEX
  5
C7E4
  8
0
 10
0.7840899506651152
 20
3.3558922502631741
 30
0.0
  0
VERTEX
  5
C7E5
  8
0
 10
1.588623579360273
 20
4.1152498455886644
 30
0.0
  0
VERTEX
  5
C7E6
  8
0
 10
1.6966120370921081
 20
4.1152498455886644
 30
0.0
  0
SEQEND
  5
C7E7
  8
0
  0
ENDBLK
  5
C7E9
  8
0
  0
BLOCK
  8
0
  2
*U22
 70
     1
 10
0.0
 20
0.0
 30
0.0
  3
*U22
  1

  0
TEXT
  5
C7EB
  8
0
 10
2.0536448317174449
 20
2.8674626560690508
 30
0.0
 40
0.125
  1
Base Board
  0
TEXT
  5
C7EC
  8
0
 10
2.0623419667788361
 20
2.6586177265556361
 30
0.0
 40
0.125
  1
TL-AB205-1
  0
TEXT
  5
C7ED
  8
0
 10
2.0591018576383182
 20
2.4481527424719611
 30
0.0
 40
0.125
  1
3/4" x 6"
  0
TEXT
  5
C7EE
  8
0
 10
2.059357655728359
 20
2.237687758388287
 30
0.0
 40
0.125
  1
800.66.TAGUE
  0
ENDBLK
  5
C7F0
  8
0
  0
BLOCK
  8
0
  2
*U23
 70
     1
 10
0.0
 20
0.0
 30
0.0
  3
*U23
  1

  0
TEXT
  5
C7F2
  8
0
 10
1.7855571417890179
 20
4.1565288011385277
 30
0.0
 40
0.125
  1
TL-AB205-1
  0
ENDBLK
  5
C7F4
  8
0
  0
BLOCK
  8
0
  2
*U24
 70
     1
 10
0.0
 20
0.0
 30
0.0
  3
*U24
  1

  0
INSERT
  5
C7F6
  8
0
  2
_OPEN30
 10
0.7805389384299133
 20
3.4280080688805579
 30
0.0
 41
0.046875
 42
0.046875
 43
0.046875
 50
223.3453603417224
  0
POLYLINE
  5
C7F7
  8
0
 66
     1
 10
0.0
 20
0.0
 30
0.0
  0
VERTEX
  5
C7F8
  8
0
 10
0.8146278248026799
 20
3.46018280199312
 30
0.0
  0
VERTEX
  5
C7F9
  8
0
 10
1.619161453497838
 20
4.2195403973186103
 30
0.0
  0
VERTEX
  5
C7FA
  8
0
 10
1.7271499112296731
 20
4.2195403973186103
 30
0.0
  0
SEQEND
  5
C7FB
  8
0
  0
ENDBLK
  5
C7FD
  8
0
  0
BLOCK
  8
0
  2
*U25
 70
     1
 10
0.0
 20
0.0
 30
0.0
  3
*U25
  1

  0
TEXT
  5
C7FF
  8
0
 10
1.9564823505784881
 20
1.118028290552296
 30
0.0
 40
0.125
  1
TL-AB205-2
  0
ENDBLK
  5
C801
  8
0
  0
BLOCK
  8
0
  2
*U26
 70
     1
 10
0.0
 20
0.0
 30
0.0
  3
*U26
  1

  0
INSERT
  5
C803
  8
0
  2
_OPEN30
 10
1.237403256191328
 20
0.7228360350534331
 30
0.0
 41
0.046875
 42
0.046875
 43
0.046875
 50
218.32432662178419
  0
POLYLINE
  5
C804
  8
0
 66
     1
 10
0.0
 20
0.0
 30
0.0
  0
VERTEX
  5
C805
  8
0
 10
1.274177310296519
 20
0.7519037933032273
 30
0.0
  0
VERTEX
  5
C806
  8
0
 10
1.8170837767202099
 20
1.1810398867323779
 30
0.0
  0
VERTEX
  5
C807
  8
0
 10
1.898075120019143
 20
1.1810398867323779
 30
0.0
  0
SEQEND
  5
C808
  8
0
  0
ENDBLK
  5
C80A
  8
0
  0
BLOCK
  8
0
  2
*U27
 70
     1
 10
0.0
 20
0.0
 30
0.0
  3
*U27
  1

  0
TEXT
  5
C80C
  8
0
 10
2.0799599944435658
 20
2.5169657803437531
 30
0.0
 40
0.125
  1
Base Board Assembly
  0
TEXT
  5
C80D
  8
0
 10
2.088657129504957
 20
2.308120850830337
 30
0.0
 40
0.125
  1
TL-686
  0
TEXT
  5
C80E
  8
0
 10
2.07373557425257
 20
2.0976558667466629
 30
0.0
 40
0.125
  1
1-1/4" x 6"
  0
TEXT
  5
C80F
  8
0
 10
2.0856728184544799
 20
1.8871908826629891
 30
0.0
 40
0.125
  1
800.66.TAGUE
  0
ENDBLK
  5
C811
  8
0
  0
BLOCK
  8
0
  2
*U28
 70
     1
 10
0.0
 20
0.0
 30
0.0
  3
*U28
  1

  0
TEXT
  5
C813
  8
0
 10
1.8345943037090069
 20
1.9969406973625601
 30
0.0
 40
0.125
  1
Base Board
  0
TEXT
  5
C814
  8
0
 10
1.843291438770398
 20
1.7880957678491449
 30
0.0
 40
0.125
  1
TL-AB206
  0
TEXT
  5
C815
  8
0
 10
1.8400513296298799
 20
1.5776307837654711
 30
0.0
 40
0.125
  1
3/4" x 4-1/2"
  0
TEXT
  5
C816
  8
0
 10
1.840307127719921
 20
1.3671657996817961
 30
0.0
 40
0.125
  1
800.66.TAGUE
  0
ENDBLK
  5
C818
  8
0
  0
BLOCK
  8
0
  2
*U29
 70
     1
 10
0.0
 20
0.0
 30
0.0
  3
*U29
  1

  0
TEXT
  5
C841
  8
0
 10
1.4684085965092539
 20
1.5481981773604201
 30
0.0
 40
0.125
  1
Chair Rail
  0
TEXT
  5
C842
  8
0
 10
1.4730129621299899
 20
1.3393532478470049
 30
0.0
 40
0.125
  1
TL-AB303
  0
TEXT
  5
C843
  8
0
 10
1.458091406877603
 20
1.1288882637633311
 30
0.0
 40
0.125
  1
1-5/16" x 2-1/2"
  0
TEXT
  5
C844
  8
0
 10
1.4700286510795131
 20
0.9184232796796568
 30
0.0
 40
0.125
  1
800.66.TAGUE
  0
ENDBLK
  5
C846
  8
0
  0
BLOCK
  8
0
  2
*U30
 70
     1
 10
0.0
 20
0.0
 30
0.0
  3
*U30
  1

  0
TEXT
  5
C848
  8
0
 10
2.36488225233072
 20
1.9253039165491981
 30
0.0
 40
0.125
  1
Crown Moulding
  0
TEXT
  5
C849
  8
0
 10
2.3694866179514569
 20
1.7164589870357829
 30
0.0
 40
0.125
  1
TL-AB402
  0
TEXT
  5
C84A
  8
0
 10
2.35456506269907
 20
1.5059940029521091
 30
0.0
 40
0.125
  1
1-1/16" x 5-5/16"
  0
TEXT
  5
C84B
  8
0
 10
2.3665023069009798
 20
1.2955290188684341
 30
0.0
 40
0.125
  1
800.66.TAGUE
  0
ENDBLK
  5
C84D
  8
0
  0
BLOCK
  8
0
  2
*U31
 70
     1
 10
0.0
 20
0.0
 30
0.0
  3
*U31
  1

  0
TEXT
  5
C84F
  8
0
 10
3.5177832928899071
 20
10.38601584255777
 30
0.0
 40
0.125
  1
Crown Moulding
  0
TEXT
  5
C850
  8
0
 10
3.5223876585106431
 20
10.17717091304435
 30
0.0
 40
0.125
  1
TL-AB509
  0
TEXT
  5
C851
  8
0
 10
3.5074661032582561
 20
9.9667059289606801
 30
0.0
 40
0.125
  1
1-5/16" x 7-9/16"
  0
TEXT
  5
C852
  8
0
 10
3.519403347460166
 20
9.7562409448770051
 30
0.0
 40
0.125
  1
800.66.TAGUE
  0
ENDBLK
  5
C854
  8
0
  0
BLOCK
  8
0
  2
*U32
 70
     1
 10
0.0
 20
0.0
 30
0.0
  3
*U32
  1

  0
TEXT
  5
C856
  8
0
 10
0.1012925696926224
 20
0.6786215139948287
 30
0.0
 40
0.125
  1
Casing
  0
TEXT
  5
C857
  8
0
 10
0.1058969353133591
 20
0.4697765844814135
 30
0.0
 40
0.125
  1
TL-AB129
  0
TEXT
  5
C858
  8
0
 10
0.0909753800609717
 20
0.259311600397739
 30
0.0
 40
0.125
  1
1-1/16" x 4-3/8"
  0
TEXT
  5
C859
  8
0
 10
0.1029126242628816
 20
0.0488466163140646
 30
0.0
 40
0.125
  1
800.66.TAGUE
  0
ENDBLK
  5
C85B
  8
0
  0
BLOCK
  8
0
  2
*U33
 70
     1
 10
0.0
 20
0.0
 30
0.0
  3
*U33
  1

  0
TEXT
  5
C85D
  8
0
 10
2.9195110477361248
 20
0.6786214518292582
 30
0.0
 40
0.125
  1
Astragal
  0
TEXT
  5
C85E
  8
0
 10
2.9151624802054301
 20
0.469776522315843
 30
0.0
 40
0.125
  1
TL-133
  0
TEXT
  5
C85F
  8
0
 10
2.9002409249530419
 20
0.2593115382321685
 30
0.0
 40
0.125
  1
11/16" x 1-3/4"
  0
TEXT
  5
C860
  8
0
 10
2.9121781691549522
 20
0.0488465541484942
 30
0.0
 40
0.125
  1
800.66.TAGUE
  0
ENDBLK
  5
C862
  8
0
  0
BLOCK
  8
0
  2
*U34
 70
     1
 10
0.0
 20
0.0
 30
0.0
  3
*U34
  1

  0
TEXT
  5
C864
  8
0
 10
3.309952260585066
 20
0.6786221547688456
 30
0.0
 40
0.125
  1
Astragal
  0
TEXT
  5
C865
  8
0
 10
3.3056036930543709
 20
0.4697772252554305
 30
0.0
 40
0.125
  1
TL-980
  0
TEXT
  5
C866
  8
0
 10
3.3014256575837022
 20
0.259312241171756
 30
0.0
 40
0.125
  1
7/16" x 2-1/4"
  0
TEXT
  5
C867
  8
0
 10
3.3026193820038929
 20
0.0488472570880816
 30
0.0
 40
0.125
  1
800.66.TAGUE
  0
ENDBLK
  5
C869
  8
0
  0
BLOCK
  8
0
  2
*U35
 70
     1
 10
0.0
 20
0.0
 30
0.0
  3
*U35
  1

  0
TEXT
  5
C86B
  8
0
 10
2.6099114019899501
 20
0.6786225680937151
 30
0.0
 40
0.125
  1
Astragal
  0
TEXT
  5
C86C
  8
0
 10
2.6055628344592541
 20
0.4697776385802999
 30
0.0
 40
0.125
  1
TL-983
  0
TEXT
  5
C86D
  8
0
 10
2.6013847989885859
 20
0.2593126544966254
 30
0.0
 40
0.125
  1
7/16" x 1-5/8"
  0
TEXT
  5
C86E
  8
0
 10
2.602578523408777
 20
0.048847670412951
 30
0.0
 40
0.125
  1
800.66.TAGUE
  0
ENDBLK
  5
C870
  8
0
  0
BLOCK
  8
0
  2
*U36
 70
     1
 10
0.0
 20
0.0
 30
0.0
  3
*U36
  1

  0
TEXT
  5
C872
  8
0
 10
2.3457912862636361
 20
0.6786222542573343
 30
0.0
 40
0.125
  1
Astragal
  0
TEXT
  5
C873
  8
0
 10
2.3414427187329401
 20
0.469777324743919
 30
0.0
 40
0.125
  1
TL-984
  0
TEXT
  5
C874
  8
0
 10
2.3265211634805532
 20
0.2593123406602445
 30
0.0
 40
0.125
  1
1/4" x 1-3/8"
  0
TEXT
  5
C875
  8
0
 10
2.338458407682463
 20
0.0488473565765701
 30
0.0
 40
0.125
  1
800.66.TAGUE
  0
ENDBLK
  5
C877
  8
0
  0
BLOCK
  8
0
  2
*U37
 70
     1
 10
0.0
 20
0.0
 30
0.0
  3
*U37
  1

  0
TEXT
  5
C879
  8
0
 10
1.391662915661857
 20
0.8873466943981611
 30
0.0
 40
0.125
  1
Attic Mould
  0
TEXT
  5
C87A
  8
0
 10
1.3873143481311609
 20
0.678501764884746
 30
0.0
 40
0.125
  1
TL-46
  0
TEXT
  5
C87B
  8
0
 10
1.3841595050206561
 20
0.4680367808010716
 30
0.0
 40
0.125
  1
9/16" x 1-5/8"
  0
TEXT
  5
C87C
  8
0
 10
1.384330037080683
 20
0.2575717967173972
 30
0.0
 40
0.125
  1
800.66.TAGUE
  0
ENDBLK
  5
C87E
  8
0
  0
BLOCK
  8
0
  2
*U38
 70
     1
 10
0.0
 20
0.0
 30
0.0
  3
*U38
  1

  0
TEXT
  5
C880
  8
0
 10
-386.75629083835531
 20
838.56255470618487
 30
0.0
 40
0.125
  1
Attic Mould
  0
TEXT
  5
C881
  8
0
 10
-386.76063940588602
 20
838.35370977667162
 30
0.0
 40
0.125
  1
TL-46
  0
TEXT
  5
C882
  8
0
 10
-386.76379424899648
 20
838.14324479258789
 30
0.0
 40
0.125
  1
9/16" x 1-5/8"
  0
TEXT
  5
C883
  8
0
 10
-386.76362371693648
 20
837.93277980850405
 30
0.0
 40
0.125
  1
800.66.TAGUE
  0
ENDBLK
  5
C885
  8
0
  0
ENDSEC
  0
SECTION
  2
ENTITIES
  0
INSERT
  5
C7A7
  8
0
  2
*U38
 10
0.0
 20
0.0
 30
0.0
  0
LINE
  5
C7A8
  8
0
 10
-387.86590694706138
 20
837.67520886181751
 30
0.0
 11
-388.1479522757366
 21
837.67520886181751
 31
0.0
  0
LINE
  5
C7A9
  8
0
 10
-387.8005481219497
 20
838.12961351719252
 30
0.0
 11
-387.72965105723807
 21
838.04456393122859
 31
0.0
  0
LINE
  5
C7AA
  8
0
 10
-387.54752744758542
 20
838.72082781495726
 30
0.0
 11
-387.64861935709791
 21
838.68293015785434
 31
0.0
  0
LINE
  5
C7AB
  8
0
 10
-387.6801262530841
 20
839.22111247551163
 30
0.0
 11
-387.51829913196201
 21
839.08607589436042
 31
0.0
  0
LINE
  5
C7AC
  8
0
 10
-388.1479522757366
 20
838.47064038354597
 30
0.0
 11
-388.1479522757366
 21
837.67520886181751
 31
0.0
  0
LINE
  5
C7AD
  8
0
 10
-387.6801262530841
 20
839.22111247551163
 30
0.0
 11
-388.1479522757366
 21
838.47064038354597
 31
0.0
  0
ARC
  5
C7AE
  8
0
  6
CONTINUOUS
 10
-387.9834223577646
 20
838.47734331572485
 30
0.0
 40
0.3928854781130607
 50
297.74028670995779
 51
31.552137090787308
  0
POLYLINE
  8
0
  5
C886
  66
     1
 10
0.000000
 20
0.000000
 30
0.000000
  70
     8
  0
VERTEX
  8
0
  5
C887
 10
-387.730
 20
838.045
 30
0.000000
  70
    32
  0
VERTEX
  8
0
  5
C888
 10
-387.731
 20
838.044
 30
0.000000
  70
    32
  0
VERTEX
  8
0
  5
C889
 10
-387.733
 20
838.043
 30
0.000000
  70
    32
  0
VERTEX
  8
0
  5
C88A
 10
-387.735
 20
838.042
 30
0.000000
  70
    32
  0
VERTEX
  8
0
  5
C88B
 10
-387.737
 20
838.041
 30
0.000000
  70
    32
  0
VERTEX
  8
0
  5
C88C
 10
-387.738
 20
838.040
 30
0.000000
  70
    32
  0
VERTEX
  8
0
  5
C88D
 10
-387.740
 20
838.039
 30
0.000000
  70
    32
  0
VERTEX
  8
0
  5
C88E
 10
-387.742
 20
838.038
 30
0.000000
  70
    32
  0
VERTEX
  8
0
  5
C88F
 10
-387.744
 20
838.037
 30
0.000000
  70
    32
  0
VERTEX
  8
0
  5
C890
 10
-387.746
 20
838.036
 30
0.000000
  70
    32
  0
VERTEX
  8
0
  5
C891
 10
-387.747
 20
838.035
 30
0.000000
  70
    32
  0
VERTEX
  8
0
  5
C892
 10
-387.749
 20
838.034
 30
0.000000
  70
    32
  0
VERTEX
  8
0
  5
C893
 10
-387.751
 20
838.034
 30
0.000000
  70
    32
  0
VERTEX
  8
0
  5
C894
 10
-387.753
 20
838.033
 30
0.000000
  70
    32
  0
VERTEX
  8
0
  5
C895
 10
-387.755
 20
838.032
 30
0.000000
  70
    32
  0
VERTEX
  8
0
  5
C896
 10
-387.756
 20
838.031
 30
0.000000
  70
    32
  0
VERTEX
  8
0
  5
C897
 10
-387.758
 20
838.030
 30
0.000000
  70
    32
  0
VERTEX
  8
0
  5
C898
 10
-387.760
 20
838.029
 30
0.000000
  70
    32
  0
VERTEX
  8
0
  5
C899
 10
-387.762
 20
838.028
 30
0.000000
  70
    32
  0
VERTEX
  8
0
  5
C89A
 10
-387.764
 20
838.027
 30
0.000000
  70
    32
  0
VERTEX
  8
0
  5
C89B
 10
-387.765
 20
838.026
 30
0.000000
  70
    32
  0
VERTEX
  8
0
  5
C89C
 10
-387.767
 20
838.026
 30
0.000000
  70
    32
  0
VERTEX
  8
0
  5
C89D
 10
-387.769
 20
838.025
 30
0.000000
  70
    32
  0
VERTEX
  8
0
  5
C89E
 10
-387.771
 20
838.024
 30
0.000000
  70
    32
  0
VERTEX
  8
0
  5
C89F
 10
-387.773
 20
838.023
 30
0.000000
  70
    32
  0
VERTEX
  8
0
  5
C8A0
 10
-387.774
 20
838.022
 30
0.000000
  70
    32
  0
VERTEX
  8
0
  5
C8A1
 10
-387.776
 20
838.021
 30
0.000000
  70
    32
  0
VERTEX
  8
0
  5
C8A2
 10
-387.778
 20
838.020
 30
0.000000
  70
    32
  0
VERTEX
  8
0
  5
C8A3
 10
-387.780
 20
838.019
 30
0.000000
  70
    32
  0
VERTEX
  8
0
  5
C8A4
 10
-387.781
 20
838.018
 30
0.000000
  70
    32
  0
VERTEX
  8
0
  5
C8A5
 10
-387.783
 20
838.017
 30
0.000000
  70
    32
  0
VERTEX
  8
0
  5
C8A6
 10
-387.785
 20
838.016
 30
0.000000
  70
    32
  0
VERTEX
  8
0
  5
C8A7
 10
-387.787
 20
838.015
 30
0.000000
  70
    32
  0
VERTEX
  8
0
  5
C8A8
 10
-387.789
 20
838.014
 30
0.000000
  70
    32
  0
VERTEX
  8
0
  5
C8A9
 10
-387.790
 20
838.014
 30
0.000000
  70
    32
  0
VERTEX
  8
0
  5
C8AA
 10
-387.792
 20
838.013
 30
0.000000
  70
    32
  0
VERTEX
  8
0
  5
C8AB
 10
-387.794
 20
838.012
 30
0.000000
  70
    32
  0
VERTEX
  8
0
  5
C8AC
 10
-387.796
 20
838.011
 30
0.000000
  70
    32
  0
VERTEX
  8
0
  5
C8AD
 10
-387.797
 20
838.010
 30
0.000000
  70
    32
  0
VERTEX
  8
0
  5
C8AE
 10
-387.799
 20
838.009
 30
0.000000
  70
    32
  0
VERTEX
  8
0
  5
C8AF
 10
-387.801
 20
838.008
 30
0.000000
  70
    32
  0
VERTEX
  8
0
  5
C8B0
 10
-387.802
 20
838.007
 30
0.000000
  70
    32
  0
VERTEX
  8
0
  5
C8B1
 10
-387.804
 20
838.006
 30
0.000000
  70
    32
  0
VERTEX
  8
0
  5
C8B2
 10
-387.806
 20
838.004
 30
0.000000
  70
    32
  0
VERTEX
  8
0
  5
C8B3
 10
-387.807
 20
838.003
 30
0.000000
  70
    32
  0
VERTEX
  8
0
  5
C8B4
 10
-387.809
 20
838.002
 30
0.000000
  70
    32
  0
VERTEX
  8
0
  5
C8B5
 10
-387.811
 20
838.001
 30
0.000000
  70
    32
  0
VERTEX
  8
0
  5
C8B6
 10
-387.812
 20
838.000
 30
0.000000
  70
    32
  0
VERTEX
  8
0
  5
C8B7
 10
-387.814
 20
837.999
 30
0.000000
  70
    32
  0
VERTEX
  8
0
  5
C8B8
 10
-387.816
 20
837.998
 30
0.000000
  70
    32
  0
VERTEX
  8
0
  5
C8B9
 10
-387.817
 20
837.997
 30
0.000000
  70
    32
  0
VERTEX
  8
0
  5
C8BA
 10
-387.819
 20
837.996
 30
0.000000
  70
    32
  0
VERTEX
  8
0
  5
C8BB
 10
-387.820
 20
837.994
 30
0.000000
  70
    32
  0
VERTEX
  8
0
  5
C8BC
 10
-387.822
 20
837.993
 30
0.000000
  70
    32
  0
VERTEX
  8
0
  5
C8BD
 10
-387.824
 20
837.992
 30
0.000000
  70
    32
  0
VERTEX
  8
0
  5
C8BE
 10
-387.825
 20
837.991
 30
0.000000
  70
    32
  0
VERTEX
  8
0
  5
C8BF
 10
-387.827
 20
837.990
 30
0.000000
  70
    32
  0
VERTEX
  8
0
  5
C8C0
 10
-387.828
 20
837.988
 30
0.000000
  70
    32
  0
VERTEX
  8
0
  5
C8C1
 10
-387.830
 20
837.987
 30
0.000000
  70
    32
  0
VERTEX
  8
0
  5
C8C2
 10
-387.831
 20
837.986
 30
0.000000
  70
    32
  0
VERTEX
  8
0
  5
C8C3
 10
-387.832
 20
837.985
 30
0.000000
  70
    32
  0
VERTEX
  8
0
  5
C8C4
 10
-387.834
 20
837.983
 30
0.000000
  70
    32
  0
VERTEX
  8
0
  5
C8C5
 10
-387.835
 20
837.982
 30
0.000000
  70
    32
  0
VERTEX
  8
0
  5
C8C6
 10
-387.837
 20
837.980
 30
0.000000
  70
    32
  0
VERTEX
  8
0
  5
C8C7
 10
-387.838
 20
837.979
 30
0.000000
  70
    32
  0
VERTEX
  8
0
  5
C8C8
 10
-387.839
 20
837.978
 30
0.000000
  70
    32
  0
VERTEX
  8
0
  5
C8C9
 10
-387.841
 20
837.976
 30
0.000000
  70
    32
  0
VERTEX
  8
0
  5
C8CA
 10
-387.842
 20
837.975
 30
0.000000
  70
    32
  0
VERTEX
  8
0
  5
C8CB
 10
-387.843
 20
837.973
 30
0.000000
  70
    32
  0
VERTEX
  8
0
  5
C8CC
 10
-387.845
 20
837.972
 30
0.000000
  70
    32
  0
VERTEX
  8
0
  5
C8CD
 10
-387.846
 20
837.970
 30
0.000000
  70
    32
  0
VERTEX
  8
0
  5
C8CE
 10
-387.847
 20
837.969
 30
0.000000
  70
    32
  0
VERTEX
  8
0
  5
C8CF
 10
-387.848
 20
837.967
 30
0.000000
  70
    32
  0
VERTEX
  8
0
  5
C8D0
 10
-387.850
 20
837.966
 30
0.000000
  70
    32
  0
VERTEX
  8
0
  5
C8D1
 10
-387.851
 20
837.964
 30
0.000000
  70
    32
  0
VERTEX
  8
0
  5
C8D2
 10
-387.852
 20
837.963
 30
0.000000
  70
    32
  0
VERTEX
  8
0
  5
C8D3
 10
-387.853
 20
837.961
 30
0.000000
  70
    32
  0
VERTEX
  8
0
  5
C8D4
 10
-387.854
 20
837.959
 30
0.000000
  70
    32
  0
VERTEX
  8
0
  5
C8D5
 10
-387.855
 20
837.958
 30
0.000000
  70
    32
  0
VERTEX
  8
0
  5
C8D6
 10
-387.856
 20
837.956
 30
0.000000
  70
    32
  0
VERTEX
  8
0
  5
C8D7
 10
-387.858
 20
837.954
 30
0.000000
  70
    32
  0
VERTEX
  8
0
  5
C8D8
 10
-387.859
 20
837.953
 30
0.000000
  70
    32
  0
VERTEX
  8
0
  5
C8D9
 10
-387.860
 20
837.951
 30
0.000000
  70
    32
  0
VERTEX
  8
0
  5
C8DA
 10
-387.861
 20
837.949
 30
0.000000
  70
    32
  0
VERTEX
  8
0
  5
C8DB
 10
-387.862
 20
837.947
 30
0.000000
  70
    32
  0
VERTEX
  8
0
  5
C8DC
 10
-387.863
 20
837.946
 30
0.000000
  70
    32
  0
VERTEX
  8
0
  5
C8DD
 10
-387.864
 20
837.944
 30
0.000000
  70
    32
  0
VERTEX
  8
0
  5
C8DE
 10
-387.864
 20
837.942
 30
0.000000
  70
    32
  0
VERTEX
  8
0
  5
C8DF
 10
-387.865
 20
837.940
 30
0.000000
  70
    32
  0
VERTEX
  8
0
  5
C8E0
 10
-387.866
 20
837.938
 30
0.000000
  70
    32
  0
VERTEX
  8
0
  5
C8E1
 10
-387.867
 20
837.937
 30
0.000000
  70
    32
  0
VERTEX
  8
0
  5
C8E2
 10
-387.868
 20
837.935
 30
0.000000
  70
    32
  0
VERTEX
  8
0
  5
C8E3
 10
-387.869
 20
837.933
 30
0.000000
  70
    32
  0
VERTEX
  8
0
  5
C8E4
 10
-387.870
 20
837.931
 30
0.000000
  70
    32
  0
VERTEX
  8
0
  5
C8E5
 10
-387.870
 20
837.929
 30
0.000000
  70
    32
  0
VERTEX
  8
0
  5
C8E6
 10
-387.871
 20
837.927
 30
0.000000
  70
    32
  0
VERTEX
  8
0
  5
C8E7
 10
-387.872
 20
837.925
 30
0.000000
  70
    32
  0
VERTEX
  8
0
  5
C8E8
 10
-387.873
 20
837.924
 30
0.000000
  70
    32
  0
VERTEX
  8
0
  5
C8E9
 10
-387.874
 20
837.922
 30
0.000000
  70
    32
  0
VERTEX
  8
0
  5
C8EA
 10
-387.874
 20
837.920
 30
0.000000
  70
    32
  0
VERTEX
  8
0
  5
C8EB
 10
-387.875
 20
837.918
 30
0.000000
  70
    32
  0
VERTEX
  8
0
  5
C8EC
 10
-387.876
 20
837.916
 30
0.000000
  70
    32
  0
VERTEX
  8
0
  5
C8ED
 10
-387.876
 20
837.914
 30
0.000000
  70
    32
  0
VERTEX
  8
0
  5
C8EE
 10
-387.877
 20
837.912
 30
0.000000
  70
    32
  0
VERTEX
  8
0
  5
C8EF
 10
-387.877
 20
837.910
 30
0.000000
  70
    32
  0
VERTEX
  8
0
  5
C8F0
 10
-387.878
 20
837.908
 30
0.000000
  70
    32
  0
VERTEX
  8
0
  5
C8F1
 10
-387.879
 20
837.906
 30
0.000000
  70
    32
  0
VERTEX
  8
0
  5
C8F2
 10
-387.879
 20
837.904
 30
0.000000
  70
    32
  0
VERTEX
  8
0
  5
C8F3
 10
-387.880
 20
837.902
 30
0.000000
  70
    32
  0
VERTEX
  8
0
  5
C8F4
 10
-387.880
 20
837.900
 30
0.000000
  70
    32
  0
VERTEX
  8
0
  5
C8F5
 10
-387.881
 20
837.898
 30
0.000000
  70
    32
  0
VERTEX
  8
0
  5
C8F6
 10
-387.881
 20
837.896
 30
0.000000
  70
    32
  0
VERTEX
  8
0
  5
C8F7
 10
-387.882
 20
837.894
 30
0.000000
  70
    32
  0
VERTEX
  8
0
  5
C8F8
 10
-387.882
 20
837.892
 30
0.000000
  70
    32
  0
VERTEX
  8
0
  5
C8F9
 10
-387.883
 20
837.890
 30
0.000000
  70
    32
  0
VERTEX
  8
0
  5
C8FA
 10
-387.883
 20
837.888
 30
0.000000
  70
    32
  0
VERTEX
  8
0
  5
C8FB
 10
-387.883
 20
837.886
 30
0.000000
  70
    32
  0
VERTEX
  8
0
  5
C8FC
 10
-387.884
 20
837.884
 30
0.000000
  70
    32
  0
VERTEX
  8
0
  5
C8FD
 10
-387.884
 20
837.882
 30
0.000000
  70
    32
  0
VERTEX
  8
0
  5
C8FE
 10
-387.884
 20
837.880
 30
0.000000
  70
    32
  0
VERTEX
  8
0
  5
C8FF
 10
-387.885
 20
837.878
 30
0.000000
  70
    32
  0
VERTEX
  8
0
  5
C900
 10
-387.885
 20
837.876
 30
0.000000
  70
    32
  0
VERTEX
  8
0
  5
C901
 10
-387.885
 20
837.874
 30
0.000000
  70
    32
  0
VERTEX
  8
0
  5
C902
 10
-387.886
 20
837.872
 30
0.000000
  70
    32
  0
VERTEX
  8
0
  5
C903
 10
-387.886
 20
837.870
 30
0.000000
  70
    32
  0
VERTEX
  8
0
  5
C904
 10
-387.886
 20
837.868
 30
0.000000
  70
    32
  0
VERTEX
  8
0
  5
C905
 10
-387.886
 20
837.866
 30
0.000000
  70
    32
  0
VERTEX
  8
0
  5
C906
 10
-387.886
 20
837.864
 30
0.000000
  70
    32
  0
VERTEX
  8
0
  5
C907
 10
-387.886
 20
837.862
 30
0.000000
  70
    32
  0
VERTEX
  8
0
  5
C908
 10
-387.887
 20
837.860
 30
0.000000
  70
    32
  0
VERTEX
  8
0
  5
C909
 10
-387.887
 20
837.858
 30
0.000000
  70
    32
  0
VERTEX
  8
0
  5
C90A
 10
-387.887
 20
837.856
 30
0.000000
  70
    32
  0
VERTEX
  8
0
  5
C90B
 10
-387.887
 20
837.854
 30
0.000000
  70
    32
  0
VERTEX
  8
0
  5
C90C
 10
-387.887
 20
837.852
 30
0.000000
  70
    32
  0
VERTEX
  8
0
  5
C90D
 10
-387.887
 20
837.850
 30
0.000000
  70
    32
  0
VERTEX
  8
0
  5
C90E
 10
-387.887
 20
837.848
 30
0.000000
  70
    32
  0
VERTEX
  8
0
  5
C90F
 10
-387.887
 20
837.846
 30
0.000000
  70
    32
  0
VERTEX
  8
0
  5
C910
 10
-387.887
 20
837.844
 30
0.000000
  70
    32
  0
VERTEX
  8
0
  5
C911
 10
-387.887
 20
837.842
 30
0.000000
  70
    32
  0
VERTEX
  8
0
  5
C912
 10
-387.887
 20
837.840
 30
0.000000
  70
    32
  0
VERTEX
  8
0
  5
C913
 10
-387.887
 20
837.838
 30
0.000000
  70
    32
  0
VERTEX
  8
0
  5
C914
 10
-387.887
 20
837.836
 30
0.000000
  70
    32
  0
VERTEX
  8
0
  5
C915
 10
-387.887
 20
837.834
 30
0.000000
  70
    32
  0
VERTEX
  8
0
  5
C916
 10
-387.887
 20
837.832
 30
0.000000
  70
    32
  0
VERTEX
  8
0
  5
C917
 10
-387.887
 20
837.830
 30
0.000000
  70
    32
  0
VERTEX
  8
0
  5
C918
 10
-387.886
 20
837.828
 30
0.000000
  70
    32
  0
VERTEX
  8
0
  5
C919
 10
-387.886
 20
837.826
 30
0.000000
  70
    32
  0
VERTEX
  8
0
  5
C91A
 10
-387.886
 20
837.824
 30
0.000000
  70
    32
  0
VERTEX
  8
0
  5
C91B
 10
-387.886
 20
837.822
 30
0.000000
  70
    32
  0
VERTEX
  8
0
  5
C91C
 10
-387.886
 20
837.820
 30
0.000000
  70
    32
  0
VERTEX
  8
0
  5
C91D
 10
-387.886
 20
837.818
 30
0.000000
  70
    32
  0
VERTEX
  8
0
  5
C91E
 10
-387.886
 20
837.816
 30
0.000000
  70
    32
  0
VERTEX
  8
0
  5
C91F
 10
-387.885
 20
837.814
 30
0.000000
  70
    32
  0
VERTEX
  8
0
  5
C920
 10
-387.885
 20
837.812
 30
0.000000
  70
    32
  0
VERTEX
  8
0
  5
C921
 10
-387.885
 20
837.810
 30
0.000000
  70
    32
  0
VERTEX
  8
0
  5
C922
 10
-387.885
 20
837.808
 30
0.000000
  70
    32
  0
VERTEX
  8
0
  5
C923
 10
-387.884
 20
837.806
 30
0.000000
  70
    32
  0
VERTEX
  8
0
  5
C924
 10
-387.884
 20
837.804
 30
0.000000
  70
    32
  0
VERTEX
  8
0
  5
C925
 10
-387.884
 20
837.803
 30
0.000000
  70
    32
  0
VERTEX
  8
0
  5
C926
 10
-387.884
 20
837.801
 30
0.000000
  70
    32
  0
VERTEX
  8
0
  5
C927
 10
-387.883
 20
837.799
 30
0.000000
  70
    32
  0
VERTEX
  8
0
  5
C928
 10
-387.883
 20
837.797
 30
0.000000
  70
    32
  0
VERTEX
  8
0
  5
C929
 10
-387.883
 20
837.795
 30
0.000000
  70
    32
  0
VERTEX
  8
0
  5
C92A
 10
-387.883
 20
837.793
 30
0.000000
  70
    32
  0
VERTEX
  8
0
  5
C92B
 10
-387.882
 20
837.791
 30
0.000000
  70
    32
  0
VERTEX
  8
0
  5
C92C
 10
-387.882
 20
837.789
 30
0.000000
  70
    32
  0
VERTEX
  8
0
  5
C92D
 10
-387.882
 20
837.787
 30
0.000000
  70
    32
  0
VERTEX
  8
0
  5
C92E
 10
-387.881
 20
837.785
 30
0.000000
  70
    32
  0
VERTEX
  8
0
  5
C92F
 10
-387.881
 20
837.783
 30
0.000000
  70
    32
  0
VERTEX
  8
0
  5
C930
 10
-387.881
 20
837.781
 30
0.000000
  70
    32
  0
VERTEX
  8
0
  5
C931
 10
-387.881
 20
837.779
 30
0.000000
  70
    32
  0
VERTEX
  8
0
  5
C932
 10
-387.880
 20
837.777
 30
0.000000
  70
    32
  0
VERTEX
  8
0
  5
C933
 10
-387.880
 20
837.775
 30
0.000000
  70
    32
  0
VERTEX
  8
0
  5
C934
 10
-387.880
 20
837.773
 30
0.000000
  70
    32
  0
VERTEX
  8
0
  5
C935
 10
-387.879
 20
837.771
 30
0.000000
  70
    32
  0
VERTEX
  8
0
  5
C936
 10
-387.879
 20
837.769
 30
0.000000
  70
    32
  0
VERTEX
  8
0
  5
C937
 10
-387.879
 20
837.767
 30
0.000000
  70
    32
  0
VERTEX
  8
0
  5
C938
 10
-387.878
 20
837.765
 30
0.000000
  70
    32
  0
VERTEX
  8
0
  5
C939
 10
-387.878
 20
837.763
 30
0.000000
  70
    32
  0
VERTEX
  8
0
  5
C93A
 10
-387.878
 20
837.761
 30
0.000000
  70
    32
  0
VERTEX
  8
0
  5
C93B
 10
-387.877
 20
837.760
 30
0.000000
  70
    32
  0
VERTEX
  8
0
  5
C93C
 10
-387.877
 20
837.758
 30
0.000000
  70
    32
  0
VERTEX
  8
0
  5
C93D
 10
-387.877
 20
837.756
 30
0.000000
  70
    32
  0
VERTEX
  8
0
  5
C93E
 10
-387.876
 20
837.754
 30
0.000000
  70
    32
  0
VERTEX
  8
0
  5
C93F
 10
-387.876
 20
837.752
 30
0.000000
  70
    32
  0
VERTEX
  8
0
  5
C940
 10
-387.876
 20
837.750
 30
0.000000
  70
    32
  0
VERTEX
  8
0
  5
C941
 10
-387.876
 20
837.748
 30
0.000000
  70
    32
  0
VERTEX
  8
0
  5
C942
 10
-387.875
 20
837.746
 30
0.000000
  70
    32
  0
VERTEX
  8
0
  5
C943
 10
-387.875
 20
837.744
 30
0.000000
  70
    32
  0
VERTEX
  8
0
  5
C944
 10
-387.875
 20
837.742
 30
0.000000
  70
    32
  0
VERTEX
  8
0
  5
C945
 10
-387.874
 20
837.740
 30
0.000000
  70
    32
  0
VERTEX
  8
0
  5
C946
 10
-387.874
 20
837.738
 30
0.000000
  70
    32
  0
VERTEX
  8
0
  5
C947
 10
-387.874
 20
837.736
 30
0.000000
  70
    32
  0
VERTEX
  8
0
  5
C948
 10
-387.874
 20
837.734
 30
0.000000
  70
    32
  0
VERTEX
  8
0
  5
C949
 10
-387.873
 20
837.732
 30
0.000000
  70
    32
  0
VERTEX
  8
0
  5
C94A
 10
-387.873
 20
837.730
 30
0.000000
  70
    32
  0
VERTEX
  8
0
  5
C94B
 10
-387.873
 20
837.728
 30
0.000000
  70
    32
  0
VERTEX
  8
0
  5
C94C
 10
-387.873
 20
837.726
 30
0.000000
  70
    32
  0
VERTEX
  8
0
  5
C94D
 10
-387.872
 20
837.724
 30
0.000000
  70
    32
  0
VERTEX
  8
0
  5
C94E
 10
-387.872
 20
837.722
 30
0.000000
  70
    32
  0
VERTEX
  8
0
  5
C94F
 10
-387.872
 20
837.720
 30
0.000000
  70
    32
  0
VERTEX
  8
0
  5
C950
 10
-387.871
 20
837.718
 30
0.000000
  70
    32
  0
VERTEX
  8
0
  5
C951
 10
-387.871
 20
837.716
 30
0.000000
  70
    32
  0
VERTEX
  8
0
  5
C952
 10
-387.871
 20
837.714
 30
0.000000
  70
    32
  0
VERTEX
  8
0
  5
C953
 10
-387.871
 20
837.712
 30
0.000000
  70
    32
  0
VERTEX
  8
0
  5
C954
 10
-387.870
 20
837.711
 30
0.000000
  70
    32
  0
VERTEX
  8
0
  5
C955
 10
-387.870
 20
837.709
 30
0.000000
  70
    32
  0
VERTEX
  8
0
  5
C956
 10
-387.870
 20
837.707
 30
0.000000
  70
    32
  0
VERTEX
  8
0
  5
C957
 10
-387.870
 20
837.705
 30
0.000000
  70
    32
  0
VERTEX
  8
0
  5
C958
 10
-387.869
 20
837.703
 30
0.000000
  70
    32
  0
VERTEX
  8
0
  5
C959
 10
-387.869
 20
837.701
 30
0.000000
  70
    32
  0
VERTEX
  8
0
  5
C95A
 10
-387.869
 20
837.699
 30
0.000000
  70
    32
  0
VERTEX
  8
0
  5
C95B
 10
-387.869
 20
837.697
 30
0.000000
  70
    32
  0
VERTEX
  8
0
  5
C95C
 10
-387.868
 20
837.695
 30
0.000000
  70
    32
  0
VERTEX
  8
0
  5
C95D
 10
-387.868
 20
837.693
 30
0.000000
  70
    32
  0
VERTEX
  8
0
  5
C95E
 10
-387.868
 20
837.691
 30
0.000000
  70
    32
  0
VERTEX
  8
0
  5
C95F
 10
-387.868
 20
837.689
 30
0.000000
  70
    32
  0
VERTEX
  8
0
  5
C960
 10
-387.867
 20
837.687
 30
0.000000
  70
    32
  0
VERTEX
  8
0
  5
C961
 10
-387.867
 20
837.685
 30
0.000000
  70
    32
  0
VERTEX
  8
0
  5
C962
 10
-387.867
 20
837.683
 30
0.000000
  70
    32
  0
VERTEX
  8
0
  5
C963
 10
-387.867
 20
837.681
 30
0.000000
  70
    32
  0
VERTEX
  8
0
  5
C964
 10
-387.866
 20
837.679
 30
0.000000
  70
    32
  0
VERTEX
  8
0
  5
C965
 10
-387.866
 20
837.677
 30
0.000000
  70
    32
  0
VERTEX
  8
0
  5
C966
 10
-387.866
 20
837.675
 30
0.000000
  70
    32
  0
SEQEND
  8
0
  5
C967
  0
POLYLINE
  8
0
  5
C968
  66
     1
 10
0.000000
 20
0.000000
 30
0.000000
  70
     8
  0
VERTEX
  8
0
  5
C969
 10
-387.518
 20
839.086
 30
0.000000
  70
    32
  0
VERTEX
  8
0
  5
C96A
 10
-387.520
 20
839.085
 30
0.000000
  70
    32
  0
VERTEX
  8
0
  5
C96B
 10
-387.521
 20
839.083
 30
0.000000
  70
    32
  0
VERTEX
  8
0
  5
C96C
 10
-387.522
 20
839.082
 30
0.000000
  70
    32
  0
VERTEX
  8
0
  5
C96D
 10
-387.523
 20
839.081
 30
0.000000
  70
    32
  0
VERTEX
  8
0
  5
C96E
 10
-387.525
 20
839.080
 30
0.000000
  70
    32
  0
VERTEX
  8
0
  5
C96F
 10
-387.526
 20
839.078
 30
0.000000
  70
    32
  0
VERTEX
  8
0
  5
C970
 10
-387.527
 20
839.077
 30
0.000000
  70
    32
  0
VERTEX
  8
0
  5
C971
 10
-387.528
 20
839.076
 30
0.000000
  70
    32
  0
VERTEX
  8
0
  5
C972
 10
-387.530
 20
839.074
 30
0.000000
  70
    32
  0
VERTEX
  8
0
  5
C973
 10
-387.531
 20
839.073
 30
0.000000
  70
    32
  0
VERTEX
  8
0
  5
C974
 10
-387.532
 20
839.072
 30
0.000000
  70
    32
  0
VERTEX
  8
0
  5
C975
 10
-387.533
 20
839.070
 30
0.000000
  70
    32
  0
VERTEX
  8
0
  5
C976
 10
-387.534
 20
839.069
 30
0.000000
  70
    32
  0
VERTEX
  8
0
  5
C977
 10
-387.536
 20
839.067
 30
0.000000
  70
    32
  0
VERTEX
  8
0
  5
C978
 10
-387.537
 20
839.066
 30
0.000000
  70
    32
  0
VERTEX
  8
0
  5
C979
 10
-387.538
 20
839.065
 30
0.000000
  70
    32
  0
VERTEX
  8
0
  5
C97A
 10
-387.539
 20
839.063
 30
0.000000
  70
    32
  0
VERTEX
  8
0
  5
C97B
 10
-387.540
 20
839.062
 30
0.000000
  70
    32
  0
VERTEX
  8
0
  5
C97C
 10
-387.541
 20
839.061
 30
0.000000
  70
    32
  0
VERTEX
  8
0
  5
C97D
 10
-387.543
 20
839.059
 30
0.000000
  70
    32
  0
VERTEX
  8
0
  5
C97E
 10
-387.544
 20
839.058
 30
0.000000
  70
    32
  0
VERTEX
  8
0
  5
C97F
 10
-387.545
 20
839.056
 30
0.000000
  70
    32
  0
VERTEX
  8
0
  5
C980
 10
-387.546
 20
839.055
 30
0.000000
  70
    32
  0
VERTEX
  8
0
  5
C981
 10
-387.547
 20
839.054
 30
0.000000
  70
    32
  0
VERTEX
  8
0
  5
C982
 10
-387.548
 20
839.052
 30
0.000000
  70
    32
  0
VERTEX
  8
0
  5
C983
 10
-387.549
 20
839.051
 30
0.000000
  70
    32
  0
VERTEX
  8
0
  5
C984
 10
-387.551
 20
839.049
 30
0.000000
  70
    32
  0
VERTEX
  8
0
  5
C985
 10
-387.552
 20
839.048
 30
0.000000
  70
    32
  0
VERTEX
  8
0
  5
C986
 10
-387.553
 20
839.046
 30
0.000000
  70
    32
  0
VERTEX
  8
0
  5
C987
 10
-387.554
 20
839.045
 30
0.000000
  70
    32
  0
VERTEX
  8
0
  5
C988
 10
-387.555
 20
839.043
 30
0.000000
  70
    32
  0
VERTEX
  8
0
  5
C989
 10
-387.556
 20
839.042
 30
0.000000
  70
    32
  0
VERTEX
  8
0
  5
C98A
 10
-387.557
 20
839.041
 30
0.000000
  70
    32
  0
VERTEX
  8
0
  5
C98B
 10
-387.558
 20
839.039
 30
0.000000
  70
    32
  0
VERTEX
  8
0
  5
C98C
 10
-387.559
 20
839.038
 30
0.000000
  70
    32
  0
VERTEX
  8
0
  5
C98D
 10
-387.560
 20
839.036
 30
0.000000
  70
    32
  0
VERTEX
  8
0
  5
C98E
 10
-387.561
 20
839.035
 30
0.000000
  70
    32
  0
VERTEX
  8
0
  5
C98F
 10
-387.562
 20
839.033
 30
0.000000
  70
    32
  0
VERTEX
  8
0
  5
C990
 10
-387.563
 20
839.032
 30
0.000000
  70
    32
  0
VERTEX
  8
0
  5
C991
 10
-387.564
 20
839.030
 30
0.000000
  70
    32
  0
VERTEX
  8
0
  5
C992
 10
-387.565
 20
839.029
 30
0.000000
  70
    32
  0
VERTEX
  8
0
  5
C993
 10
-387.566
 20
839.027
 30
0.000000
  70
    32
  0
VERTEX
  8
0
  5
C994
 10
-387.567
 20
839.026
 30
0.000000
  70
    32
  0
VERTEX
  8
0
  5
C995
 10
-387.568
 20
839.024
 30
0.000000
  70
    32
  0
VERTEX
  8
0
  5
C996
 10
-387.569
 20
839.023
 30
0.000000
  70
    32
  0
VERTEX
  8
0
  5
C997
 10
-387.570
 20
839.021
 30
0.000000
  70
    32
  0
VERTEX
  8
0
  5
C998
 10
-387.571
 20
839.019
 30
0.000000
  70
    32
  0
VERTEX
  8
0
  5
C999
 10
-387.572
 20
839.018
 30
0.000000
  70
    32
  0
VERTEX
  8
0
  5
C99A
 10
-387.573
 20
839.016
 30
0.000000
  70
    32
  0
VERTEX
  8
0
  5
C99B
 10
-387.574
 20
839.015
 30
0.000000
  70
    32
  0
VERTEX
  8
0
  5
C99C
 10
-387.575
 20
839.013
 30
0.000000
  70
    32
  0
VERTEX
  8
0
  5
C99D
 10
-387.576
 20
839.012
 30
0.000000
  70
    32
  0
VERTEX
  8
0
  5
C99E
 10
-387.577
 20
839.010
 30
0.000000
  70
    32
  0
VERTEX
  8
0
  5
C99F
 10
-387.578
 20
839.008
 30
0.000000
  70
    32
  0
VERTEX
  8
0
  5
C9A0
 10
-387.579
 20
839.007
 30
0.000000
  70
    32
  0
VERTEX
  8
0
  5
C9A1
 10
-387.580
 20
839.005
 30
0.000000
  70
    32
  0
VERTEX
  8
0
  5
C9A2
 10
-387.580
 20
839.004
 30
0.000000
  70
    32
  0
VERTEX
  8
0
  5
C9A3
 10
-387.581
 20
839.002
 30
0.000000
  70
    32
  0
VERTEX
  8
0
  5
C9A4
 10
-387.582
 20
839.000
 30
0.000000
  70
    32
  0
VERTEX
  8
0
  5
C9A5
 10
-387.583
 20
838.999
 30
0.000000
  70
    32
  0
VERTEX
  8
0
  5
C9A6
 10
-387.584
 20
838.997
 30
0.000000
  70
    32
  0
VERTEX
  8
0
  5
C9A7
 10
-387.585
 20
838.996
 30
0.000000
  70
    32
  0
VERTEX
  8
0
  5
C9A8
 10
-387.585
 20
838.994
 30
0.000000
  70
    32
  0
VERTEX
  8
0
  5
C9A9
 10
-387.586
 20
838.992
 30
0.000000
  70
    32
  0
VERTEX
  8
0
  5
C9AA
 10
-387.587
 20
838.991
 30
0.000000
  70
    32
  0
VERTEX
  8
0
  5
C9AB
 10
-387.588
 20
838.989
 30
0.000000
  70
    32
  0
VERTEX
  8
0
  5
C9AC
 10
-387.589
 20
838.987
 30
0.000000
  70
    32
  0
VERTEX
  8
0
  5
C9AD
 10
-387.589
 20
838.986
 30
0.000000
  70
    32
  0
VERTEX
  8
0
  5
C9AE
 10
-387.590
 20
838.984
 30
0.000000
  70
    32
  0
VERTEX
  8
0
  5
C9AF
 10
-387.591
 20
838.982
 30
0.000000
  70
    32
  0
VERTEX
  8
0
  5
C9B0
 10
-387.592
 20
838.981
 30
0.000000
  70
    32
  0
VERTEX
  8
0
  5
C9B1
 10
-387.592
 20
838.979
 30
0.000000
  70
    32
  0
VERTEX
  8
0
  5
C9B2
 10
-387.593
 20
838.977
 30
0.000000
  70
    32
  0
VERTEX
  8
0
  5
C9B3
 10
-387.594
 20
838.976
 30
0.000000
  70
    32
  0
VERTEX
  8
0
  5
C9B4
 10
-387.594
 20
838.974
 30
0.000000
  70
    32
  0
VERTEX
  8
0
  5
C9B5
 10
-387.595
 20
838.972
 30
0.000000
  70
    32
  0
VERTEX
  8
0
  5
C9B6
 10
-387.596
 20
838.971
 30
0.000000
  70
    32
  0
VERTEX
  8
0
  5
C9B7
 10
-387.596
 20
838.969
 30
0.000000
  70
    32
  0
VERTEX
  8
0
  5
C9B8
 10
-387.597
 20
838.967
 30
0.000000
  70
    32
  0
VERTEX
  8
0
  5
C9B9
 10
-387.598
 20
838.965
 30
0.000000
  70
    32
  0
VERTEX
  8
0
  5
C9BA
 10
-387.598
 20
838.964
 30
0.000000
  70
    32
  0
VERTEX
  8
0
  5
C9BB
 10
-387.599
 20
838.962
 30
0.000000
  70
    32
  0
VERTEX
  8
0
  5
C9BC
 10
-387.600
 20
838.960
 30
0.000000
  70
    32
  0
VERTEX
  8
0
  5
C9BD
 10
-387.600
 20
838.959
 30
0.000000
  70
    32
  0
VERTEX
  8
0
  5
C9BE
 10
-387.601
 20
838.957
 30
0.000000
  70
    32
  0
VERTEX
  8
0
  5
C9BF
 10
-387.601
 20
838.955
 30
0.000000
  70
    32
  0
VERTEX
  8
0
  5
C9C0
 10
-387.602
 20
838.953
 30
0.000000
  70
    32
  0
VERTEX
  8
0
  5
C9C1
 10
-387.602
 20
838.952
 30
0.000000
  70
    32
  0
VERTEX
  8
0
  5
C9C2
 10
-387.603
 20
838.950
 30
0.000000
  70
    32
  0
VERTEX
  8
0
  5
C9C3
 10
-387.603
 20
838.948
 30
0.000000
  70
    32
  0
VERTEX
  8
0
  5
C9C4
 10
-387.604
 20
838.946
 30
0.000000
  70
    32
  0
VERTEX
  8
0
  5
C9C5
 10
-387.604
 20
838.945
 30
0.000000
  70
    32
  0
VERTEX
  8
0
  5
C9C6
 10
-387.605
 20
838.943
 30
0.000000
  70
    32
  0
VERTEX
  8
0
  5
C9C7
 10
-387.605
 20
838.941
 30
0.000000
  70
    32
  0
VERTEX
  8
0
  5
C9C8
 10
-387.606
 20
838.939
 30
0.000000
  70
    32
  0
VERTEX
  8
0
  5
C9C9
 10
-387.606
 20
838.937
 30
0.000000
  70
    32
  0
VERTEX
  8
0
  5
C9CA
 10
-387.606
 20
838.936
 30
0.000000
  70
    32
  0
VERTEX
  8
0
  5
C9CB
 10
-387.607
 20
838.934
 30
0.000000
  70
    32
  0
VERTEX
  8
0
  5
C9CC
 10
-387.607
 20
838.932
 30
0.000000
  70
    32
  0
VERTEX
  8
0
  5
C9CD
 10
-387.608
 20
838.930
 30
0.000000
  70
    32
  0
VERTEX
  8
0
  5
C9CE
 10
-387.608
 20
838.929
 30
0.000000
  70
    32
  0
VERTEX
  8
0
  5
C9CF
 10
-387.608
 20
838.927
 30
0.000000
  70
    32
  0
VERTEX
  8
0
  5
C9D0
 10
-387.609
 20
838.925
 30
0.000000
  70
    32
  0
VERTEX
  8
0
  5
C9D1
 10
-387.609
 20
838.923
 30
0.000000
  70
    32
  0
VERTEX
  8
0
  5
C9D2
 10
-387.609
 20
838.921
 30
0.000000
  70
    32
  0
VERTEX
  8
0
  5
C9D3
 10
-387.609
 20
838.920
 30
0.000000
  70
    32
  0
VERTEX
  8
0
  5
C9D4
 10
-387.610
 20
838.918
 30
0.000000
  70
    32
  0
VERTEX
  8
0
  5
C9D5
 10
-387.610
 20
838.916
 30
0.000000
  70
    32
  0
VERTEX
  8
0
  5
C9D6
 10
-387.610
 20
838.914
 30
0.000000
  70
    32
  0
VERTEX
  8
0
  5
C9D7
 10
-387.610
 20
838.912
 30
0.000000
  70
    32
  0
VERTEX
  8
0
  5
C9D8
 10
-387.610
 20
838.911
 30
0.000000
  70
    32
  0
VERTEX
  8
0
  5
C9D9
 10
-387.611
 20
838.909
 30
0.000000
  70
    32
  0
VERTEX
  8
0
  5
C9DA
 10
-387.611
 20
838.907
 30
0.000000
  70
    32
  0
VERTEX
  8
0
  5
C9DB
 10
-387.611
 20
838.905
 30
0.000000
  70
    32
  0
VERTEX
  8
0
  5
C9DC
 10
-387.611
 20
838.903
 30
0.000000
  70
    32
  0
VERTEX
  8
0
  5
C9DD
 10
-387.611
 20
838.902
 30
0.000000
  70
    32
  0
VERTEX
  8
0
  5
C9DE
 10
-387.611
 20
838.900
 30
0.000000
  70
    32
  0
VERTEX
  8
0
  5
C9DF
 10
-387.611
 20
838.898
 30
0.000000
  70
    32
  0
VERTEX
  8
0
  5
C9E0
 10
-387.611
 20
838.896
 30
0.000000
  70
    32
  0
VERTEX
  8
0
  5
C9E1
 10
-387.611
 20
838.894
 30
0.000000
  70
    32
  0
VERTEX
  8
0
  5
C9E2
 10
-387.611
 20
838.893
 30
0.000000
  70
    32
  0
VERTEX
  8
0
  5
C9E3
 10
-387.611
 20
838.891
 30
0.000000
  70
    32
  0
VERTEX
  8
0
  5
C9E4
 10
-387.611
 20
838.889
 30
0.000000
  70
    32
  0
VERTEX
  8
0
  5
C9E5
 10
-387.611
 20
838.887
 30
0.000000
  70
    32
  0
VERTEX
  8
0
  5
C9E6
 10
-387.611
 20
838.885
 30
0.000000
  70
    32
  0
VERTEX
  8
0
  5
C9E7
 10
-387.611
 20
838.884
 30
0.000000
  70
    32
  0
VERTEX
  8
0
  5
C9E8
 10
-387.611
 20
838.882
 30
0.000000
  70
    32
  0
VERTEX
  8
0
  5
C9E9
 10
-387.611
 20
838.880
 30
0.000000
  70
    32
  0
VERTEX
  8
0
  5
C9EA
 10
-387.611
 20
838.878
 30
0.000000
  70
    32
  0
VERTEX
  8
0
  5
C9EB
 10
-387.610
 20
838.876
 30
0.000000
  70
    32
  0
VERTEX
  8
0
  5
C9EC
 10
-387.610
 20
838.874
 30
0.000000
  70
    32
  0
VERTEX
  8
0
  5
C9ED
 10
-387.610
 20
838.873
 30
0.000000
  70
    32
  0
VERTEX
  8
0
  5
C9EE
 10
-387.610
 20
838.871
 30
0.000000
  70
    32
  0
VERTEX
  8
0
  5
C9EF
 10
-387.610
 20
838.869
 30
0.000000
  70
    32
  0
VERTEX
  8
0
  5
C9F0
 10
-387.609
 20
838.867
 30
0.000000
  70
    32
  0
VERTEX
  8
0
  5
C9F1
 10
-387.609
 20
838.865
 30
0.000000
  70
    32
  0
VERTEX
  8
0
  5
C9F2
 10
-387.609
 20
838.864
 30
0.000000
  70
    32
  0
VERTEX
  8
0
  5
C9F3
 10
-387.608
 20
838.862
 30
0.000000
  70
    32
  0
VERTEX
  8
0
  5
C9F4
 10
-387.608
 20
838.860
 30
0.000000
  70
    32
  0
VERTEX
  8
0
  5
C9F5
 10
-387.608
 20
838.858
 30
0.000000
  70
    32
  0
VERTEX
  8
0
  5
C9F6
 10
-387.608
 20
838.856
 30
0.000000
  70
    32
  0
VERTEX
  8
0
  5
C9F7
 10
-387.607
 20
838.855
 30
0.000000
  70
    32
  0
VERTEX
  8
0
  5
C9F8
 10
-387.607
 20
838.853
 30
0.000000
  70
    32
  0
VERTEX
  8
0
  5
C9F9
 10
-387.606
 20
838.851
 30
0.000000
  70
    32
  0
VERTEX
  8
0
  5
C9FA
 10
-387.606
 20
838.849
 30
0.000000
  70
    32
  0
VERTEX
  8
0
  5
C9FB
 10
-387.606
 20
838.848
 30
0.000000
  70
    32
  0
VERTEX
  8
0
  5
C9FC
 10
-387.605
 20
838.846
 30
0.000000
  70
    32
  0
VERTEX
  8
0
  5
C9FD
 10
-387.605
 20
838.844
 30
0.000000
  70
    32
  0
VERTEX
  8
0
  5
C9FE
 10
-387.604
 20
838.842
 30
0.000000
  70
    32
  0
VERTEX
  8
0
  5
C9FF
 10
-387.604
 20
838.840
 30
0.000000
  70
    32
  0
VERTEX
  8
0
  5
CA00
 10
-387.603
 20
838.839
 30
0.000000
  70
    32
  0
VERTEX
  8
0
  5
CA01
 10
-387.603
 20
838.837
 30
0.000000
  70
    32
  0
VERTEX
  8
0
  5
CA02
 10
-387.602
 20
838.835
 30
0.000000
  70
    32
  0
VERTEX
  8
0
  5
CA03
 10
-387.602
 20
838.833
 30
0.000000
  70
    32
  0
VERTEX
  8
0
  5
CA04
 10
-387.601
 20
838.832
 30
0.000000
  70
    32
  0
VERTEX
  8
0
  5
CA05
 10
-387.601
 20
838.830
 30
0.000000
  70
    32
  0
VERTEX
  8
0
  5
CA06
 10
-387.600
 20
838.828
 30
0.000000
  70
    32
  0
VERTEX
  8
0
  5
CA07
 10
-387.600
 20
838.826
 30
0.000000
  70
    32
  0
VERTEX
  8
0
  5
CA08
 10
-387.599
 20
838.825
 30
0.000000
  70
    32
  0
VERTEX
  8
0
  5
CA09
 10
-387.598
 20
838.823
 30
0.000000
  70
    32
  0
VERTEX
  8
0
  5
CA0A
 10
-387.598
 20
838.821
 30
0.000000
  70
    32
  0
VERTEX
  8
0
  5
CA0B
 10
-387.597
 20
838.819
 30
0.000000
  70
    32
  0
VERTEX
  8
0
  5
CA0C
 10
-387.596
 20
838.818
 30
0.000000
  70
    32
  0
VERTEX
  8
0
  5
CA0D
 10
-387.596
 20
838.816
 30
0.000000
  70
    32
  0
VERTEX
  8
0
  5
CA0E
 10
-387.595
 20
838.814
 30
0.000000
  70
    32
  0
VERTEX
  8
0
  5
CA0F
 10
-387.595
 20
838.813
 30
0.000000
  70
    32
  0
VERTEX
  8
0
  5
CA10
 10
-387.594
 20
838.811
 30
0.000000
  70
    32
  0
VERTEX
  8
0
  5
CA11
 10
-387.593
 20
838.809
 30
0.000000
  70
    32
  0
VERTEX
  8
0
  5
CA12
 10
-387.592
 20
838.808
 30
0.000000
  70
    32
  0
VERTEX
  8
0
  5
CA13
 10
-387.592
 20
838.806
 30
0.000000
  70
    32
  0
VERTEX
  8
0
  5
CA14
 10
-387.591
 20
838.804
 30
0.000000
  70
    32
  0
VERTEX
  8
0
  5
CA15
 10
-387.590
 20
838.803
 30
0.000000
  70
    32
  0
VERTEX
  8
0
  5
CA16
 10
-387.589
 20
838.801
 30
0.000000
  70
    32
  0
VERTEX
  8
0
  5
CA17
 10
-387.589
 20
838.799
 30
0.000000
  70
    32
  0
VERTEX
  8
0
  5
CA18
 10
-387.588
 20
838.798
 30
0.000000
  70
    32
  0
VERTEX
  8
0
  5
CA19
 10
-387.587
 20
838.796
 30
0.000000
  70
    32
  0
VERTEX
  8
0
  5
CA1A
 10
-387.586
 20
838.794
 30
0.000000
  70
    32
  0
VERTEX
  8
0
  5
CA1B
 10
-387.586
 20
838.793
 30
0.000000
  70
    32
  0
VERTEX
  8
0
  5
CA1C
 10
-387.585
 20
838.791
 30
0.000000
  70
    32
  0
VERTEX
  8
0
  5
CA1D
 10
-387.584
 20
838.789
 30
0.000000
  70
    32
  0
VERTEX
  8
0
  5
CA1E
 10
-387.583
 20
838.788
 30
0.000000
  70
    32
  0
VERTEX
  8
0
  5
CA1F
 10
-387.582
 20
838.786
 30
0.000000
  70
    32
  0
VERTEX
  8
0
  5
CA20
 10
-387.581
 20
838.785
 30
0.000000
  70
    32
  0
VERTEX
  8
0
  5
CA21
 10
-387.581
 20
838.783
 30
0.000000
  70
    32
  0
VERTEX
  8
0
  5
CA22
 10
-387.580
 20
838.781
 30
0.000000
  70
    32
  0
VERTEX
  8
0
  5
CA23
 10
-387.579
 20
838.780
 30
0.000000
  70
    32
  0
VERTEX
  8
0
  5
CA24
 10
-387.578
 20
838.778
 30
0.000000
  70
    32
  0
VERTEX
  8
0
  5
CA25
 10
-387.577
 20
838.777
 30
0.000000
  70
    32
  0
VERTEX
  8
0
  5
CA26
 10
-387.576
 20
838.775
 30
0.000000
  70
    32
  0
VERTEX
  8
0
  5
CA27
 10
-387.575
 20
838.774
 30
0.000000
  70
    32
  0
VERTEX
  8
0
  5
CA28
 10
-387.574
 20
838.772
 30
0.000000
  70
    32
  0
VERTEX
  8
0
  5
CA29
 10
-387.574
 20
838.770
 30
0.000000
  70
    32
  0
VERTEX
  8
0
  5
CA2A
 10
-387.573
 20
838.769
 30
0.000000
  70
    32
  0
VERTEX
  8
0
  5
CA2B
 10
-387.572
 20
838.767
 30
0.000000
  70
    32
  0
VERTEX
  8
0
  5
CA2C
 10
-387.571
 20
838.766
 30
0.000000
  70
    32
  0
VERTEX
  8
0
  5
CA2D
 10
-387.570
 20
838.764
 30
0.000000
  70
    32
  0
VERTEX
  8
0
  5
CA2E
 10
-387.569
 20
838.762
 30
0.000000
  70
    32
  0
VERTEX
  8
0
  5
CA2F
 10
-387.568
 20
838.761
 30
0.000000
  70
    32
  0
VERTEX
  8
0
  5
CA30
 10
-387.567
 20
838.759
 30
0.000000
  70
    32
  0
VERTEX
  8
0
  5
CA31
 10
-387.566
 20
838.758
 30
0.000000
  70
    32
  0
VERTEX
  8
0
  5
CA32
 10
-387.566
 20
838.756
 30
0.000000
  70
    32
  0
VERTEX
  8
0
  5
CA33
 10
-387.565
 20
838.755
 30
0.000000
  70
    32
  0
VERTEX
  8
0
  5
CA34
 10
-387.564
 20
838.753
 30
0.000000
  70
    32
  0
VERTEX
  8
0
  5
CA35
 10
-387.563
 20
838.751
 30
0.000000
  70
    32
  0
VERTEX
  8
0
  5
CA36
 10
-387.562
 20
838.750
 30
0.000000
  70
    32
  0
VERTEX
  8
0
  5
CA37
 10
-387.561
 20
838.748
 30
0.000000
  70
    32
  0
VERTEX
  8
0
  5
CA38
 10
-387.560
 20
838.747
 30
0.000000
  70
    32
  0
VERTEX
  8
0
  5
CA39
 10
-387.559
 20
838.745
 30
0.000000
  70
    32
  0
VERTEX
  8
0
  5
CA3A
 10
-387.559
 20
838.744
 30
0.000000
  70
    32
  0
VERTEX
  8
0
  5
CA3B
 10
-387.558
 20
838.742
 30
0.000000
  70
    32
  0
VERTEX
  8
0
  5
CA3C
 10
-387.557
 20
838.740
 30
0.000000
  70
    32
  0
VERTEX
  8
0
  5
CA3D
 10
-387.556
 20
838.739
 30
0.000000
  70
    32
  0
VERTEX
  8
0
  5
CA3E
 10
-387.555
 20
838.737
 30
0.000000
  70
    32
  0
VERTEX
  8
0
  5
CA3F
 10
-387.554
 20
838.736
 30
0.000000
  70
    32
  0
VERTEX
  8
0
  5
CA40
 10
-387.554
 20
838.734
 30
0.000000
  70
    32
  0
VERTEX
  8
0
  5
CA41
 10
-387.553
 20
838.732
 30
0.000000
  70
    32
  0
VERTEX
  8
0
  5
CA42
 10
-387.552
 20
838.731
 30
0.000000
  70
    32
  0
VERTEX
  8
0
  5
CA43
 10
-387.551
 20
838.729
 30
0.000000
  70
    32
  0
VERTEX
  8
0
  5
CA44
 10
-387.550
 20
838.727
 30
0.000000
  70
    32
  0
VERTEX
  8
0
  5
CA45
 10
-387.550
 20
838.726
 30
0.000000
  70
    32
  0
VERTEX
  8
0
  5
CA46
 10
-387.549
 20
838.724
 30
0.000000
  70
    32
  0
VERTEX
  8
0
  5
CA47
 10
-387.548
 20
838.722
 30
0.000000
  70
    32
  0
VERTEX
  8
0
  5
CA48
 10
-387.548
 20
838.721
 30
0.000000
  70
    32
  0
SEQEND
  8
0
  5
CA49
  0
VIEWPORT
  5
BADA
 67
     1
  8
0
 10
5.249999665167536
 20
4.0168608648543129
 30
0.0
 40
16.212536403349191
 41
8.0154416672020492
 68
     1
 69
     1
1001
ACAD
1000
MVIEW
1002
{
1070
    16
1010
0.0
1020
0.0
1030
0.0
1010
0.0
1020
0.0
1030
1.0
1040
0.0
1040
8.0154416672020492
1040
5.249999665167536
1040
4.0168608648543129
1040
50.0
1040
0.0
1040
0.0
1070
     0
1070
   100
1070
     1
1070
     1
1070
     0
1070
     0
1070
     0
1070
     0
1040
0.0
1040
0.0
1040
0.0
1040
0.5
1040
0.5
1040
0.5
1040
0.5
1070
     0
1002
{
1002
}
1002
}
  0
VIEWPORT
  5
BADD
 67
     1
  8
0
 10
5.2499996294871929
 20
4.0166741807634683
 30
0.0
 40
10.44245679893058
 41
7.8813805131999892
 68
     2
 69
     2
1001
ACAD
1000
MVIEW
1002
{
1070
    16
1010
0.0
1020
0.0
1030
0.0
1010
0.0
1020
0.0
1030
1.0
1040
0.0
1040
7.8813805190370463
1040
-387.20985136692838
1040
838.2226040800208
1040
50.0
1040
0.0
1040
0.0
1070
     0
1070
   100
1070
     1
1070
     2
1070
     0
1070
     0
1070
     0
1070
     0
1040
0.0
1040
0.0
1040
0.0
1040
0.5
1040
0.5
1040
0.5
1040
0.5
1070
     0
1002
{
1002
}
1002
}
  0
ENDSEC
  0
EOF
