  0
SECTION
  2
HEADER
  9
$ACADVER
  1
AC1009
  9
$INSBASE
 10
0.0
 20
0.0
 30
0.0
  9
$EXTMIN
 10
-382.53419390346619
 20
843.59331654706148
 30
0.0
  9
$EXTMAX
 10
-376.9820167945885
 20
847.84372571287315
 30
0.0
  9
$LIMMIN
 10
0.0
 20
0.0
  9
$LIMMAX
 10
1500.0
 20
1500.0
  9
$ORTHOMODE
 70
     0
  9
$REGENMODE
 70
     1
  9
$FILLMODE
 70
     1
  9
$QTEXTMODE
 70
     0
  9
$MIRRTEXT
 70
     1
  9
$DRAGMODE
 70
     2
  9
$LTSCALE
 40
1.0
  9
$OSMODE
 70
    37
  9
$ATTMODE
 70
     1
  9
$TEXTSIZE
 40
1.5
  9
$TRACEWID
 40
0.05
  9
$TEXTSTYLE
  7
STANDARD
  9
$CLAYER
  8
0
  9
$CELTYPE
  6
BYLAYER
  9
$CECOLOR
 62
   256
  9
$DIMSCALE
 40
1.0
  9
$DIMASZ
 40
0.75
  9
$DIMEXO
 40
1.5
  9
$DIMDLI
 40
2.0
  9
$DIMRND
 40
0.0
  9
$DIMDLE
 40
0.0
  9
$DIMEXE
 40
1.0
  9
$DIMTP
 40
0.0
  9
$DIMTM
 40
0.0
  9
$DIMTXT
 40
1.5
  9
$DIMCEN
 40
2.0
  9
$DIMTSZ
 40
0.0
  9
$DIMTOL
 70
     0
  9
$DIMLIM
 70
     0
  9
$DIMTIH
 70
     0
  9
$DIMTOH
 70
     0
  9
$DIMSE1
 70
     0
  9
$DIMSE2
 70
     0
  9
$DIMTAD
 70
     1
  9
$DIMZIN
 70
     0
  9
$DIMBLK
  1
ARCHTICK
  9
$DIMASO
 70
     1
  9
$DIMSHO
 70
     1
  9
$DIMPOST
  1
"
  9
$DIMAPOST
  1

  9
$DIMALT
 70
     0
  9
$DIMALTD
 70
     2
  9
$DIMALTF
 40
25.399999999999999
  9
$DIMLFAC
 40
1.0
  9
$DIMTOFL
 70
     0
  9
$DIMTVP
 40
0.0
  9
$DIMTIX
 70
     1
  9
$DIMSOXD
 70
     0
  9
$DIMSAH
 70
     0
  9
$DIMBLK1
  1

  9
$DIMBLK2
  1

  9
$DIMSTYLE
  2
THREE_QUARTER_INCH_SCALE
  9
$DIMCLRD
 70
     0
  9
$DIMCLRE
 70
     0
  9
$DIMCLRT
 70
     0
  9
$DIMTFAC
 40
1.0
  9
$DIMGAP
 40
1.0
  9
$LUNITS
 70
     2
  9
$LUPREC
 70
     4
  9
$SKETCHINC
 40
0.1
  9
$FILLETRAD
 40
0.0
  9
$AUNITS
 70
     0
  9
$AUPREC
 70
     0
  9
$MENU
  1
.
  9
$ELEVATION
 40
0.0
  9
$PELEVATION
 40
0.0
  9
$THICKNESS
 40
0.0
  9
$LIMCHECK
 70
     0
  9
$BLIPMODE
 70
     0
  9
$CHAMFERA
 40
0.5
  9
$CHAMFERB
 40
0.5
  9
$SKPOLY
 70
     0
  9
$TDCREATE
 40
2452089.395738773
  9
$TDUPDATE
 40
2453608.3256812971
  9
$TDINDWG
 40
1.3531001041999999
  9
$TDUSRTIMER
 40
1.3531001041999999
  9
$USRTIMER
 70
     1
  9
$ANGBASE
 50
0.0
  9
$ANGDIR
 70
     0
  9
$PDMODE
 70
     0
  9
$PDSIZE
 40
10.0
  9
$PLINEWID
 40
0.0
  9
$COORDS
 70
     1
  9
$SPLFRAME
 70
     0
  9
$SPLINETYPE
 70
     6
  9
$SPLINESEGS
 70
     8
  9
$ATTDIA
 70
     0
  9
$ATTREQ
 70
     1
  9
$HANDLING
 70
     1
  9
$HANDSEED
  5
2FE00
  9
$SURFTAB1
 70
     6
  9
$SURFTAB2
 70
     6
  9
$SURFTYPE
 70
     6
  9
$SURFU
 70
     6
  9
$SURFV
 70
     6
  9
$UCSNAME
  2

  9
$UCSORG
 10
0.0
 20
0.0
 30
0.0
  9
$UCSXDIR
 10
1.0
 20
0.0
 30
0.0
  9
$UCSYDIR
 10
0.0
 20
1.0
 30
0.0
  9
$PUCSNAME
  2

  9
$PUCSORG
 10
0.0
 20
0.0
 30
0.0
  9
$PUCSXDIR
 10
1.0
 20
0.0
 30
0.0
  9
$PUCSYDIR
 10
0.0
 20
1.0
 30
0.0
  9
$USERI1
 70
     0
  9
$USERI2
 70
     0
  9
$USERI3
 70
     0
  9
$USERI4
 70
     0
  9
$USERI5
 70
     0
  9
$USERR1
 40
0.0
  9
$USERR2
 40
0.0
  9
$USERR3
 40
0.0
  9
$USERR4
 40
0.0
  9
$USERR5
 40
0.0
  9
$WORLDVIEW
 70
     1
  9
$SHADEDGE
 70
     3
  9
$SHADEDIF
 70
    70
  9
$TILEMODE
 70
     0
  9
$MAXACTVP
 70
    64
  9
$PLIMCHECK
 70
     0
  9
$PEXTMIN
 10
0.0282895744820664
 20
0.0759353784799721
 30
-0.0015258207003583
  9
$PEXTMAX
 10
10.471709755853
 20
7.9577863512286546
 30
0.0000000349246037
  9
$PLIMMIN
 10
-0.2500002402958907
 20
-0.2499999962453767
  9
$PLIMMAX
 10
10.74999951940821
 20
8.2499997634587316
  9
$UNITMODE
 70
     0
  9
$VISRETAIN
 70
     1
  9
$PLINEGEN
 70
     0
  9
$PSLTSCALE
 70
     1
  0
ENDSEC
  0
SECTION
  2
TABLES
  0
TABLE
  2
VPORT
 70
     3
  0
VPORT
  2
*ACTIVE
 70
     0
 10
0.0
 20
0.0
 11
1.0
 21
1.0
 12
-380.70010693656201
 22
845.16779400026962
 13
0.0
 23
0.0
 14
0.5
 24
0.5
 15
0.5
 25
0.5
 16
0.0
 26
0.0
 36
1.0
 17
0.0
 27
0.0
 37
0.0
 40
8.8173627230431642
 41
2.0
 42
50.0
 43
0.0
 44
0.0
 50
0.0
 51
0.0
 71
     0
 72
   100
 73
     1
 74
     2
 75
     0
 76
     0
 77
     0
 78
     0
  0
ENDTAB
  0
TABLE
  2
LTYPE
 70
     1
  0
LTYPE
  2
CONTINUOUS
 70
     0
  3
Solid line
 72
    65
 73
     0
 40
0.0
  0
ENDTAB
  0
TABLE
  2
LAYER
 70
    10
  0
LAYER
  2
0
 70
     0
 62
     7
  6
CONTINUOUS
  0
LAYER
  2
DEFPOINTS
 70
     0
 62
     7
  6
CONTINUOUS
  0
LAYER
  2
FRAME_200
 70
     0
 62
     8
  6
CONTINUOUS
  0
LAYER
  2
FRAME_070
 70
     0
 62
     5
  6
CONTINUOUS
  0
LAYER
  2
FRAME_050
 70
     0
 62
     6
  6
CONTINUOUS
  0
LAYER
  2
TITLE_BLOCK
 70
     0
 62
     7
  6
CONTINUOUS
  0
LAYER
  2
FRAME_025
 70
     0
 62
     7
  6
CONTINUOUS
  0
LAYER
  2
VIEWPORT
 70
     0
 62
     7
  6
CONTINUOUS
  0
LAYER
  2
PROF
 70
     0
 62
     7
  6
CONTINUOUS
  0
LAYER
  2
PROFILE
 70
     0
 62
     7
  6
CONTINUOUS
  0
ENDTAB
  0
TABLE
  2
STYLE
 70
     2
  0
STYLE
  2
STANDARD
 70
     0
 40
0.0
 41
1.0
 50
0.0
 71
     0
 42
1.5
  3
txt
  4

  0
STYLE
  2
ISO_PROPORTIONAL
 70
     0
 40
0.0
 41
1.0
 50
0.0
 71
     0
 42
2.5
  3
isocp.shx
  4

  0
ENDTAB
  0
TABLE
  2
VIEW
 70
     2
  0
ENDTAB
  0
TABLE
  2
UCS
 70
     0
  0
ENDTAB
  0
TABLE
  2
APPID
 70
     6
  0
APPID
  2
ACAD
 70
     0
  0
APPID
  2
DCO15
 70
     0
  0
APPID
  2
ACAD_EXEMPT_FROM_CAD_STANDARDS
 70
     0
  0
APPID
  2
ACAD_PSEXT
 70
     0
  0
APPID
  2
CONTENTBLOCKDESCRIPTION
 70
     0
  0
APPID
  2
CONTENTBLOCKICON
 70
     0
  0
ENDTAB
  0
TABLE
  2
DIMSTYLE
 70
     5
  0
DIMSTYLE
  2
FULL_SCALE
 70
     0
  3
"
  4

  5
ARCHTICK
  6

  7

 40
1.0
 41
0.046875
 42
0.09375
 43
0.125
 44
0.0625
 45
0.0
 46
0.0
 47
0.0
 48
0.0
140
0.125
141
0.125
142
0.0
143
25.399999999999999
144
1.0
145
0.0
146
1.0
147
0.0625
 71
     0
 72
     0
 73
     0
 74
     0
 75
     0
 76
     0
 77
     1
 78
     0
170
     0
171
     2
172
     0
173
     0
174
     1
175
     0
176
     0
177
     0
178
     0
  0
DIMSTYLE
  2
HALF_SCALE
 70
     0
  3
"
  4

  5
ARCHTICK
  6

  7

 40
1.0
 41
0.09375
 42
0.1875
 43
0.25
 44
0.125
 45
0.0
 46
0.0
 47
0.0
 48
0.0
140
0.25
141
0.25
142
0.0
143
25.399999999999999
144
1.0
145
0.0
146
1.0
147
0.125
 71
     0
 72
     0
 73
     0
 74
     0
 75
     0
 76
     0
 77
     1
 78
     0
170
     0
171
     2
172
     0
173
     0
174
     1
175
     0
176
     0
177
     0
178
     0
  0
DIMSTYLE
  2
INCH_SCALE
 70
     0
  3
"
  4

  5
ARCHTICK
  6

  7

 40
1.0
 41
0.5625
 42
1.125
 43
1.5
 44
0.75
 45
0.0
 46
0.0
 47
0.0
 48
0.0
140
1.125
141
1.5
142
0.0
143
25.399999999999999
144
1.0
145
0.0
146
1.0
147
0.75
 71
     0
 72
     0
 73
     0
 74
     0
 75
     0
 76
     0
 77
     1
 78
     0
170
     0
171
     2
172
     0
173
     0
174
     1
175
     0
176
     0
177
     0
178
     0
  0
DIMSTYLE
  2
THREE_QUARTER_INCH_SCALE
 70
     0
  3
"
  4

  5
ARCHTICK
  6

  7

 40
1.0
 41
0.75
 42
1.5
 43
2.0
 44
1.0
 45
0.0
 46
0.0
 47
0.0
 48
0.0
140
1.5
141
2.0
142
0.0
143
25.399999999999999
144
1.0
145
0.0
146
1.0
147
1.0
 71
     0
 72
     0
 73
     0
 74
     0
 75
     0
 76
     0
 77
     1
 78
     0
170
     0
171
     2
172
     0
173
     0
174
     1
175
     0
176
     0
177
     0
178
     0
  0
DIMSTYLE
  2
ZHALF_INCH_SCALE
 70
     0
  3
"
  4

  5
ARCHTICK
  6

  7

 40
1.0
 41
1.125
 42
2.25
 43
3.0
 44
1.5
 45
0.0
 46
0.0
 47
0.0
 48
0.0
140
2.25
141
3.0
142
0.0
143
25.399999999999999
144
1.0
145
0.0
146
1.0
147
1.5
 71
     0
 72
     0
 73
     0
 74
     0
 75
     0
 76
     0
 77
     1
 78
     0
170
     0
171
     2
172
     0
173
     0
174
     1
175
     0
176
     0
177
     0
178
     0
  0
ENDTAB
  0
ENDSEC
  0
SECTION
  2
BLOCKS
  0
BLOCK
  8
0
  2
$MODEL_SPACE
 70
     0
 10
0.0
 20
0.0
 30
0.0
  3
$MODEL_SPACE
  1

  0
ENDBLK
  5
21
  8
0
  0
BLOCK
 67
     1
  8
0
  2
$PAPER_SPACE
 70
     0
 10
0.0
 20
0.0
 30
0.0
  3
$PAPER_SPACE
  1

  0
ENDBLK
  5
BAD5
 67
     1
  8
0
  0
BLOCK
  8
0
  2
_ARCHTICK
 70
     0
 10
0.0
 20
0.0
 30
0.0
  3
_ARCHTICK
  1

  0
POLYLINE
  5
158
  8
0
  6
BYBLOCK
 62
     0
 66
     1
 10
0.0
 20
0.0
 30
0.0
 40
0.15
 41
0.15
  0
VERTEX
  5
2FA84
  8
0
  6
BYBLOCK
 62
     0
 10
-0.5
 20
-0.5
 30
0.0
  0
VERTEX
  5
2FA85
  8
0
  6
BYBLOCK
 62
     0
 10
0.5
 20
0.5
 30
0.0
  0
SEQEND
  5
2FA86
  8
0
  6
BYBLOCK
 62
     0
  0
ENDBLK
  5
15A
  8
0
  0
BLOCK
  8
0
  2
_OPEN30
 70
     0
 10
0.0
 20
0.0
 30
0.0
  3
_OPEN30
  1

  0
LINE
  5
15C
  8
0
  6
BYBLOCK
 62
     0
 10
-1.0
 20
0.26794919
 30
0.0
 11
0.0
 21
0.0
 31
0.0
  0
LINE
  5
15D
  8
0
  6
BYBLOCK
 62
     0
 10
0.0
 20
0.0
 30
0.0
 11
-1.0
 21
-0.26794919
 31
0.0
  0
LINE
  5
15E
  8
0
  6
BYBLOCK
 62
     0
 10
0.0
 20
0.0
 30
0.0
 11
-1.0
 21
0.0
 31
0.0
  0
ENDBLK
  5
160
  8
0
  0
BLOCK
  8
0
  2
ISO_A2_TITLE_BLOCK
 70
     2
 10
0.0
 20
0.0
 30
0.0
  3
ISO_A2_TITLE_BLOCK
  1

  0
LINE
  5
BDD
  8
FRAME_050
 10
299.5
 20
12.5
 30
0.0
 11
297.0
 21
7.5
 31
0.0
  0
LINE
  5
BDE
  8
FRAME_050
 10
294.5
 20
12.5
 30
0.0
 11
299.5
 21
12.5
 31
0.0
  0
LINE
  5
BDF
  8
FRAME_050
 10
247.0
 20
5.0
 30
0.0
 11
347.0
 21
5.0
 31
0.0
  0
LINE
  5
BE0
  8
FRAME_070
 10
584.0
 20
410.0
 30
0.0
 11
10.0
 21
410.0
 31
0.0
  0
LINE
  5
BE1
  8
FRAME_070
 10
10.0
 20
10.0
 30
0.0
 11
584.0
 21
10.0
 31
0.0
  0
LINE
  5
BE2
  8
FRAME_050
 10
12.5
 20
207.5
 30
0.0
 11
7.5
 21
210.0
 31
0.0
  0
LINE
  5
BE3
  8
FRAME_050
 10
12.5
 20
212.5
 30
0.0
 11
12.5
 21
207.5
 31
0.0
  0
LINE
  5
BE4
  8
FRAME_070
 10
10.0
 20
410.0
 30
0.0
 11
10.0
 21
10.0
 31
0.0
  0
LINE
  5
BE5
  8
FRAME_200
 10
0.0
 20
0.0
 30
0.0
 11
0.0
 21
10.0
 31
0.0
  0
LINE
  5
BE6
  8
FRAME_200
 10
0.0
 20
0.0
 30
0.0
 11
10.0
 21
0.0
 31
0.0
  0
TEXT
  5
BE7
  8
FRAME_050
 10
5.9000000000000004
 20
35.0
 30
0.0
 40
4.0
  1
H
  7
ISO_PROPORTIONAL
 72
     4
 11
7.5
 21
37.0
 31
0.0
  0
LINE
  5
BE8
  8
FRAME_050
 10
10.0
 20
60.0
 30
0.0
 11
5.0
 21
60.0
 31
0.0
  0
LINE
  5
BE9
  8
FRAME_050
 10
81.75
 20
5.0
 30
0.0
 11
81.75
 21
10.0
 31
0.0
  0
TEXT
  5
BEA
  8
FRAME_050
 10
44.874999999999993
 20
5.5
 30
0.0
 40
4.0
  1
1
  7
ISO_PROPORTIONAL
 72
     4
 11
45.875
 21
7.5
 31
0.0
  0
TEXT
  5
BEB
  8
FRAME_050
 10
6.0035533905932743
 20
85.0
 30
0.0
 40
4.0
  1
G
  7
ISO_PROPORTIONAL
 72
     4
 11
7.5
 21
87.0
 31
0.0
  0
LINE
  5
BEC
  8
FRAME_050
 10
10.0
 20
110.0
 30
0.0
 11
5.0
 21
110.0
 31
0.0
  0
TEXT
  5
BED
  8
FRAME_050
 10
6.0999999999999988
 20
135.0
 30
0.0
 40
4.0
  1
F
  7
ISO_PROPORTIONAL
 72
     4
 11
7.5
 21
137.0
 31
0.0
  0
LINE
  5
BEE
  8
FRAME_050
 10
10.0
 20
160.0
 30
0.0
 11
5.0
 21
160.0
 31
0.0
  0
TEXT
  5
BEF
  8
FRAME_050
 10
6.0999999999999988
 20
185.0
 30
0.0
 40
4.0
  1
E
  7
ISO_PROPORTIONAL
 72
     4
 11
7.5
 21
187.0
 31
0.0
  0
LINE
  5
BF0
  8
FRAME_050
 10
153.5
 20
5.0
 30
0.0
 11
153.5
 21
10.0
 31
0.0
  0
TEXT
  5
BF1
  8
FRAME_050
 10
116.1556692913386
 20
5.3996062992125982
 30
0.0
 40
4.0
  1
2
  7
ISO_PROPORTIONAL
 72
     4
 11
117.625
 21
7.5
 31
0.0
  0
TEXT
  5
BF2
  8
FRAME_050
 10
187.89215728752529
 20
5.5828427124746138
 30
0.0
 40
4.0
  1
3
  7
ISO_PROPORTIONAL
 72
     4
 11
189.375
 21
7.5
 31
0.0
  0
LINE
  5
BF3
  8
FRAME_050
 10
225.25
 20
5.0
 30
0.0
 11
225.25
 21
10.0
 31
0.0
  0
LINE
  5
BF4
  8
FRAME_050
 10
297.0
 20
7.5
 30
0.0
 11
294.5
 21
12.5
 31
0.0
  0
LINE
  5
BF5
  8
FRAME_050
 10
287.0
 20
5.0
 30
0.0
 11
287.0
 21
10.0
 31
0.0
  0
LINE
  5
BF6
  8
FRAME_050
 10
277.0
 20
5.0
 30
0.0
 11
277.0
 21
10.0
 31
0.0
  0
LINE
  5
BF7
  8
FRAME_050
 10
267.0
 20
5.0
 30
0.0
 11
267.0
 21
10.0
 31
0.0
  0
LINE
  5
BF8
  8
FRAME_050
 10
257.0
 20
5.0
 30
0.0
 11
257.0
 21
10.0
 31
0.0
  0
LINE
  5
BF9
  8
FRAME_050
 10
247.0
 20
5.0
 30
0.0
 11
247.0
 21
10.0
 31
0.0
  0
LINE
  5
BFA
  8
FRAME_050
 10
297.0
 20
10.0
 30
0.0
 11
297.0
 21
5.0
 31
0.0
  0
LINE
  5
BFB
  8
FRAME_050
 10
297.0
 20
10.0
 30
0.0
 11
297.0
 21
15.0
 31
0.0
  0
LINE
  5
BFC
  8
FRAME_050
 10
5.0
 20
210.0
 30
0.0
 11
15.0
 21
210.0
 31
0.0
  0
LINE
  5
BFD
  8
FRAME_050
 10
7.5
 20
210.0
 30
0.0
 11
12.5
 21
212.5
 31
0.0
  0
TEXT
  5
BFE
  8
FRAME_050
 10
5.7860912703473977
 20
235.0
 30
0.0
 40
4.0
  1
D
  7
ISO_PROPORTIONAL
 72
     4
 11
7.5
 21
237.0
 31
0.0
  0
LINE
  5
BFF
  8
FRAME_050
 10
10.0
 20
260.0
 30
0.0
 11
5.0
 21
260.0
 31
0.0
  0
TEXT
  5
C00
  8
FRAME_050
 10
6.1931980515339466
 20
285.0
 30
0.0
 40
4.0
  1
C
  7
ISO_PROPORTIONAL
 72
     4
 11
7.5
 21
287.0
 31
0.0
  0
LINE
  5
C01
  8
FRAME_050
 10
10.0
 20
310.0
 30
0.0
 11
5.0
 21
310.0
 31
0.0
  0
TEXT
  5
C02
  8
FRAME_050
 10
5.8999999999999959
 20
335.0
 30
0.0
 40
4.0
  1
B
  7
ISO_PROPORTIONAL
 72
     4
 11
7.5
 21
337.0
 31
0.0
  0
LINE
  5
C03
  8
FRAME_050
 10
10.0
 20
360.0
 30
0.0
 11
5.0
 21
360.0
 31
0.0
  0
TEXT
  5
C04
  8
FRAME_050
 10
5.6999999999999993
 20
385.0
 30
0.0
 40
4.0
  1
A
  7
ISO_PROPORTIONAL
 72
     4
 11
7.5
 21
387.0
 31
0.0
  0
LINE
  5
C05
  8
FRAME_200
 10
10.0
 20
420.0
 30
0.0
 11
0.0
 21
420.0
 31
0.0
  0
LINE
  5
C06
  8
FRAME_200
 10
0.0
 20
420.0
 30
0.0
 11
0.0
 21
410.0
 31
0.0
  0
TEXT
  5
C07
  8
FRAME_050
 10
44.874999999999993
 20
410.5
 30
0.0
 40
4.0
  1
1
  7
ISO_PROPORTIONAL
 72
     4
 11
45.875
 21
412.5
 31
0.0
  0
LINE
  5
C08
  8
FRAME_050
 10
81.75
 20
410.0
 30
0.0
 11
81.75
 21
415.0
 31
0.0
  0
TEXT
  5
C09
  8
FRAME_050
 10
116.1556692913386
 20
410.39960629921262
 30
0.0
 40
4.0
  1
2
  7
ISO_PROPORTIONAL
 72
     4
 11
117.625
 21
412.5
 31
0.0
  0
LINE
  5
C0A
  8
FRAME_050
 10
153.5
 20
410.0
 30
0.0
 11
153.5
 21
415.0
 31
0.0
  0
TEXT
  5
C0B
  8
FRAME_050
 10
187.89215728752529
 20
410.58284271247459
 30
0.0
 40
4.0
  1
3
  7
ISO_PROPORTIONAL
 72
     4
 11
189.375
 21
412.5
 31
0.0
  0
LINE
  5
C0C
  8
FRAME_050
 10
297.0
 20
405.0
 30
0.0
 11
297.0
 21
415.0
 31
0.0
  0
LINE
  5
C0D
  8
FRAME_050
 10
225.25
 20
410.0
 30
0.0
 11
225.25
 21
415.0
 31
0.0
  0
TEXT
  5
C0E
  8
FRAME_050
 10
259.52499999999998
 20
410.5
 30
0.0
 40
4.0
  1
4
  7
ISO_PROPORTIONAL
 72
     4
 11
261.125
 21
412.5
 31
0.0
  0
LINE
  5
C0F
  8
FRAME_070
 10
584.0
 20
10.0
 30
0.0
 11
584.0
 21
410.0
 31
0.0
  0
ATTDEF
  5
C10
  8
FRAME_025
 10
473.0
 20
31.75
 30
0.0
 40
2.5
  1
XXX - 00/00/00
  7
ISO_PROPORTIONAL
 11
473.0
 21
33.0
 31
0.0
  3
Approved by - Date
  2
APPROVED_BY_DATE
 70
     8
 74
     2
  0
TEXT
  5
C11
  8
FRAME_025
 10
448.0
 20
41.749999999999993
 30
0.0
 40
2.5
  1
Title/Name, designation, material, dimension etc
  7
ISO_PROPORTIONAL
 11
448.0
 21
43.0
 31
0.0
 73
     2
  0
TEXT
  5
C12
  8
FRAME_025
 10
473.0
 20
35.75
 30
0.0
 40
2.5
  1
Approved by - date
  7
ISO_PROPORTIONAL
 11
473.0
 21
37.0
 31
0.0
 73
     2
  0
LINE
  5
C13
  8
FRAME_070
 10
414.0
 20
46.0
 30
0.0
 11
584.0
 21
46.0
 31
0.0
  0
LINE
  5
C14
  8
FRAME_070
 10
414.0
 20
40.0
 30
0.0
 11
584.0
 21
40.0
 31
0.0
  0
LINE
  5
C15
  8
FRAME_070
 10
414.0
 20
30.0
 30
0.0
 11
584.0
 21
30.0
 31
0.0
  0
LINE
  5
C16
  8
FRAME_050
 10
368.75
 20
5.0
 30
0.0
 11
368.75
 21
10.0
 31
0.0
  0
LINE
  5
C17
  8
FRAME_050
 10
337.0
 20
5.0
 30
0.0
 11
337.0
 21
10.0
 31
0.0
  0
LINE
  5
C18
  8
FRAME_050
 10
327.0
 20
5.0
 30
0.0
 11
327.0
 21
10.0
 31
0.0
  0
LINE
  5
C19
  8
FRAME_050
 10
317.0
 20
5.0
 30
0.0
 11
317.0
 21
10.0
 31
0.0
  0
LINE
  5
C1A
  8
FRAME_050
 10
307.0
 20
5.0
 30
0.0
 11
307.0
 21
10.0
 31
0.0
  0
LINE
  5
C1B
  8
FRAME_050
 10
347.0
 20
5.0
 30
0.0
 11
347.0
 21
10.0
 31
0.0
  0
LINE
  5
C1C
  8
FRAME_050
 10
440.5
 20
5.0
 30
0.0
 11
440.5
 21
10.0
 31
0.0
  0
TEXT
  5
C1D
  8
FRAME_050
 10
403.24547244094481
 20
5.4102362204724406
 30
0.0
 40
4.0
  1
6
  7
ISO_PROPORTIONAL
 72
     4
 11
404.62499999999989
 21
7.5
 31
0.0
  0
TEXT
  5
C1E
  8
FRAME_050
 10
474.97500000000002
 20
5.5
 30
0.0
 40
4.0
  1
7
  7
ISO_PROPORTIONAL
 72
     4
 11
476.37499999999989
 21
7.5
 31
0.0
  0
TEXT
  5
C1F
  8
FRAME_025
 10
431.0
 20
41.749999999999993
 30
0.0
 40
2.5
  1
Quantity
  7
ISO_PROPORTIONAL
 11
431.0
 21
43.0
 31
0.0
 73
     2
  0
TEXT
  5
C20
  8
FRAME_025
 10
416.0
 20
41.749999999999993
 30
0.0
 40
2.5
  1
Itemref
  7
ISO_PROPORTIONAL
 11
416.0
 21
43.0
 31
0.0
 73
     2
  0
LINE
  5
C21
  8
FRAME_070
 10
414.0
 20
40.0
 30
0.0
 11
414.0
 21
46.0
 31
0.0
  0
LINE
  5
C22
  8
FRAME_070
 10
429.0
 20
40.0
 30
0.0
 11
429.0
 21
46.0
 31
0.0
  0
LINE
  5
C23
  8
FRAME_070
 10
414.0
 20
10.0
 30
0.0
 11
414.0
 21
40.0
 31
0.0
  0
ATTDEF
  5
C24
  8
FRAME_025
 10
416.0
 20
31.75
 30
0.0
 40
2.5
  1
XXX
  7
ISO_PROPORTIONAL
 11
416.0
 21
33.0
 31
0.0
  3
Designed by
  2
DESIGNED_BY
 70
     8
 74
     2
  0
TEXT
  5
C25
  8
FRAME_025
 10
416.0
 20
35.75
 30
0.0
 40
2.5
  1
Designed by
  7
ISO_PROPORTIONAL
 11
416.0
 21
37.0
 31
0.0
 73
     2
  0
LINE
  5
C26
  8
FRAME_070
 10
446.0
 20
40.0
 30
0.0
 11
446.0
 21
46.0
 31
0.0
  0
ATTDEF
  5
C27
  8
FRAME_025
 10
448.0
 20
31.75
 30
0.0
 40
2.5
  1
XXX
  7
ISO_PROPORTIONAL
 11
448.0
 21
33.0
 31
0.0
  3
Checked by
  2
CHECKED_BY
 70
     8
 74
     2
  0
TEXT
  5
C28
  8
FRAME_025
 10
448.0
 20
35.75
 30
0.0
 40
2.5
  1
Checked by
  7
ISO_PROPORTIONAL
 11
448.0
 21
37.0
 31
0.0
 73
     2
  0
ATTDEF
  5
C29
  8
FRAME_050
 10
444.74999999999989
 20
17.5
 30
0.0
 40
5.0
  1
XXX
  7
ISO_PROPORTIONAL
 72
     4
 11
451.49999999999989
 21
20.0
 31
0.0
  3
Owner
  2
OWNER
 70
     8
  0
LINE
  5
C2A
  8
FRAME_070
 10
446.0
 20
30.0
 30
0.0
 11
446.0
 21
40.0
 31
0.0
  0
LINE
  5
C2B
  8
FRAME_070
 10
471.0
 20
30.0
 30
0.0
 11
471.0
 21
40.0
 31
0.0
  0
LINE
  5
C2C
  8
FRAME_070
 10
489.0
 20
20.0
 30
0.0
 11
584.0
 21
20.0
 31
0.0
  0
LINE
  5
C2D
  8
FRAME_050
 10
512.25
 20
5.0
 30
0.0
 11
512.25
 21
10.0
 31
0.0
  0
TEXT
  5
C2E
  8
FRAME_050
 10
546.72499999999991
 20
5.5
 30
0.0
 40
4.0
  1
8
  7
ISO_PROPORTIONAL
 72
     4
 11
548.125
 21
7.5
 31
0.0
  0
ATTDEF
  5
C2F
  8
FRAME_050
 10
517.64999999999986
 20
13.5
 30
0.0
 40
3.0
  1
X
  7
ISO_PROPORTIONAL
 72
     4
 11
519.0
 21
15.0
 31
0.0
  3
Drawing number
  2
DRAWING_NUMBER
 70
     8
  0
ATTDEF
  5
C30
  8
FRAME_050
 10
529.75
 20
22.5
 30
0.0
 40
5.0
  1
XXX
  7
ISO_PROPORTIONAL
 72
     4
 11
536.5
 21
25.0
 31
0.0
  3
Title / Name
  2
TITLE
 70
     8
  0
LINE
  5
C31
  8
FRAME_070
 10
489.0
 20
10.0
 30
0.0
 11
489.0
 21
30.0
 31
0.0
  0
ATTDEF
  5
C32
  8
FRAME_025
 10
511.0
 20
31.75
 30
0.0
 40
2.5
  1
XXX
  7
ISO_PROPORTIONAL
 11
511.0
 21
33.0
 31
0.0
  3
Filename
  2
FILENAME
 70
     8
 74
     2
  0
TEXT
  5
C33
  8
FRAME_025
 10
511.0
 20
35.75
 30
0.0
 40
2.5
  1
Filename
  7
ISO_PROPORTIONAL
 11
511.0
 21
37.0
 31
0.0
 73
     2
  0
LINE
  5
C34
  8
FRAME_070
 10
509.0
 20
30.0
 30
0.0
 11
509.0
 21
40.0
 31
0.0
  0
TEXT
  5
C35
  8
FRAME_025
 10
536.0
 20
41.749999999999993
 30
0.0
 40
2.5
  1
Article No./Reference
  7
ISO_PROPORTIONAL
 11
536.0
 21
43.0
 31
0.0
 73
     2
  0
LINE
  5
C36
  8
FRAME_070
 10
534.0
 20
40.0
 30
0.0
 11
534.0
 21
46.0
 31
0.0
  0
ATTDEF
  5
C37
  8
FRAME_025
 10
551.0
 20
11.75
 30
0.0
 40
2.5
  1
0
  7
ISO_PROPORTIONAL
 11
551.0
 21
13.0
 31
0.0
  3
Edition
  2
EDITION
 70
     8
 74
     2
  0
TEXT
  5
C38
  8
FRAME_025
 10
551.0
 20
15.75
 30
0.0
 40
2.5
  1
Edition
  7
ISO_PROPORTIONAL
 11
551.0
 21
17.0
 31
0.0
 73
     2
  0
LINE
  5
C39
  8
FRAME_070
 10
549.0
 20
10.0
 30
0.0
 11
549.0
 21
20.0
 31
0.0
  0
ATTDEF
  5
C3A
  8
FRAME_025
 10
536.0
 20
31.75
 30
0.0
 40
2.5
  1
00/00/00
  7
ISO_PROPORTIONAL
 11
536.0
 21
33.0
 31
0.0
  3
Date
  2
DATE
 70
     8
 74
     2
  0
TEXT
  5
C3B
  8
FRAME_025
 10
536.0
 20
35.75
 30
0.0
 40
2.5
  1
Date
  7
ISO_PROPORTIONAL
 11
536.0
 21
37.0
 31
0.0
 73
     2
  0
LINE
  5
C3C
  8
FRAME_070
 10
534.0
 20
30.0
 30
0.0
 11
534.0
 21
40.0
 31
0.0
  0
ATTDEF
  5
C3D
  8
FRAME_025
 10
566.0
 20
11.75
 30
0.0
 40
2.5
  1
1/1
  7
ISO_PROPORTIONAL
 11
566.0
 21
13.0
 31
0.0
  3
Sheet
  2
SHEET
 70
     8
 74
     2
  0
TEXT
  5
C3E
  8
FRAME_025
 10
566.0
 20
15.75
 30
0.0
 40
2.5
  1
Sheet
  7
ISO_PROPORTIONAL
 11
566.0
 21
17.0
 31
0.0
 73
     2
  0
LINE
  5
C3F
  8
FRAME_070
 10
564.0
 20
10.0
 30
0.0
 11
564.0
 21
20.0
 31
0.0
  0
ATTDEF
  5
C40
  8
FRAME_025
 10
566.0
 20
31.75
 30
0.0
 40
2.5
  1
1:1
  7
ISO_PROPORTIONAL
 11
566.0
 21
33.0
 31
0.0
  3
Scale
  2
SCALE
 70
     8
 74
     2
  0
TEXT
  5
C41
  8
FRAME_025
 10
566.0
 20
35.75
 30
0.0
 40
2.5
  1
Scale
  7
ISO_PROPORTIONAL
 11
566.0
 21
37.0
 31
0.0
 73
     2
  0
LINE
  5
C42
  8
FRAME_070
 10
564.0
 20
30.0
 30
0.0
 11
564.0
 21
40.0
 31
0.0
  0
LINE
  5
C43
  8
FRAME_200
 10
594.0
 20
0.0
 30
0.0
 11
594.0
 21
10.0
 31
0.0
  0
LINE
  5
C44
  8
FRAME_200
 10
594.0
 20
0.0
 30
0.0
 11
584.0
 21
0.0
 31
0.0
  0
TEXT
  5
C45
  8
FRAME_050
 10
584.89999999999998
 20
35.0
 30
0.0
 40
4.0
  1
H
  7
ISO_PROPORTIONAL
 72
     4
 11
586.5
 21
37.0
 31
0.0
  0
LINE
  5
C46
  8
FRAME_050
 10
589.0
 20
60.0
 30
0.0
 11
584.0
 21
60.0
 31
0.0
  0
TEXT
  5
C47
  8
FRAME_050
 10
585.0035533905932
 20
85.0
 30
0.0
 40
4.0
  1
G
  7
ISO_PROPORTIONAL
 72
     4
 11
586.5
 21
87.0
 31
0.0
  0
LINE
  5
C48
  8
FRAME_050
 10
589.0
 20
110.0
 30
0.0
 11
584.0
 21
110.0
 31
0.0
  0
TEXT
  5
C49
  8
FRAME_050
 10
585.09999999999991
 20
135.0
 30
0.0
 40
4.0
  1
F
  7
ISO_PROPORTIONAL
 72
     4
 11
586.5
 21
137.0
 31
0.0
  0
LINE
  5
C4A
  8
FRAME_050
 10
589.0
 20
160.0
 30
0.0
 11
584.0
 21
160.0
 31
0.0
  0
TEXT
  5
C4B
  8
FRAME_050
 10
585.09999999999991
 20
185.0
 30
0.0
 40
4.0
  1
E
  7
ISO_PROPORTIONAL
 72
     4
 11
586.5
 21
187.0
 31
0.0
  0
LINE
  5
C4C
  8
FRAME_070
 10
414.0
 20
404.0
 30
0.0
 11
584.0
 21
404.0
 31
0.0
  0
TEXT
  5
C4D
  8
FRAME_050
 10
331.39215728752538
 20
410.58284271247459
 30
0.0
 40
4.0
  1
5
  7
ISO_PROPORTIONAL
 72
     4
 11
332.875
 21
412.5
 31
0.0
  0
LINE
  5
C4E
  8
FRAME_050
 10
368.75
 20
410.0
 30
0.0
 11
368.75
 21
415.0
 31
0.0
  0
TEXT
  5
C4F
  8
FRAME_025
 10
428.0
 20
405.75
 30
0.0
 40
2.5
  1
Revision note
  7
ISO_PROPORTIONAL
 11
428.0
 21
407.0
 31
0.0
 73
     2
  0
TEXT
  5
C50
  8
FRAME_025
 10
416.0
 20
405.75
 30
0.0
 40
2.5
  1
RevNo
  7
ISO_PROPORTIONAL
 11
416.0
 21
407.0
 31
0.0
 73
     2
  0
LINE
  5
C51
  8
FRAME_070
 10
426.0
 20
404.0
 30
0.0
 11
426.0
 21
410.0
 31
0.0
  0
LINE
  5
C52
  8
FRAME_070
 10
414.0
 20
404.0
 30
0.0
 11
414.0
 21
410.0
 31
0.0
  0
TEXT
  5
C53
  8
FRAME_050
 10
403.24547244094481
 20
410.41023622047243
 30
0.0
 40
4.0
  1
6
  7
ISO_PROPORTIONAL
 72
     4
 11
404.62499999999989
 21
412.5
 31
0.0
  0
LINE
  5
C54
  8
FRAME_050
 10
440.5
 20
410.0
 30
0.0
 11
440.5
 21
415.0
 31
0.0
  0
TEXT
  5
C55
  8
FRAME_050
 10
474.97500000000002
 20
410.5
 30
0.0
 40
4.0
  1
7
  7
ISO_PROPORTIONAL
 72
     4
 11
476.37499999999989
 21
412.5
 31
0.0
  0
LINE
  5
C56
  8
FRAME_050
 10
579.0
 20
210.0
 30
0.0
 11
589.0
 21
210.0
 31
0.0
  0
TEXT
  5
C57
  8
FRAME_050
 10
584.78609127034736
 20
235.0
 30
0.0
 40
4.0
  1
D
  7
ISO_PROPORTIONAL
 72
     4
 11
586.5
 21
237.0
 31
0.0
  0
LINE
  5
C58
  8
FRAME_050
 10
589.0
 20
260.0
 30
0.0
 11
584.0
 21
260.0
 31
0.0
  0
TEXT
  5
C59
  8
FRAME_050
 10
585.19319805153395
 20
285.0
 30
0.0
 40
4.0
  1
C
  7
ISO_PROPORTIONAL
 72
     4
 11
586.5
 21
287.0
 31
0.0
  0
LINE
  5
C5A
  8
FRAME_050
 10
589.0
 20
310.0
 30
0.0
 11
584.0
 21
310.0
 31
0.0
  0
TEXT
  5
C5B
  8
FRAME_050
 10
584.89999999999998
 20
335.0
 30
0.0
 40
4.0
  1
B
  7
ISO_PROPORTIONAL
 72
     4
 11
586.5
 21
337.0
 31
0.0
  0
TEXT
  5
C5C
  8
FRAME_025
 10
571.08299391850551
 20
405.75
 30
0.0
 40
2.5
  1
Checked
  7
ISO_PROPORTIONAL
 11
571.08299391850551
 21
407.0
 31
0.0
 73
     2
  0
TEXT
  5
C5D
  8
FRAME_025
 10
555.36099797283532
 20
405.75
 30
0.0
 40
2.5
  1
Signature
  7
ISO_PROPORTIONAL
 11
555.36099797283532
 21
407.0
 31
0.0
 73
     2
  0
TEXT
  5
C5E
  8
FRAME_025
 10
537.0
 20
405.75
 30
0.0
 40
2.5
  1
Date
  7
ISO_PROPORTIONAL
 11
537.0
 21
407.0
 31
0.0
 73
     2
  0
LINE
  5
C5F
  8
FRAME_070
 10
570.0
 20
404.0
 30
0.0
 11
570.0
 21
410.0
 31
0.0
  0
LINE
  5
C60
  8
FRAME_070
 10
555.0
 20
404.0
 30
0.0
 11
555.0
 21
410.0
 31
0.0
  0
LINE
  5
C61
  8
FRAME_070
 10
535.0
 20
404.0
 30
0.0
 11
535.0
 21
410.0
 31
0.0
  0
LINE
  5
C62
  8
FRAME_050
 10
512.25
 20
410.0
 30
0.0
 11
512.25
 21
415.0
 31
0.0
  0
TEXT
  5
C63
  8
FRAME_050
 10
546.72499999999991
 20
410.5
 30
0.0
 40
4.0
  1
8
  7
ISO_PROPORTIONAL
 72
     4
 11
548.125
 21
412.5
 31
0.0
  0
LINE
  5
C64
  8
FRAME_050
 10
589.0
 20
360.0
 30
0.0
 11
584.0
 21
360.0
 31
0.0
  0
TEXT
  5
C65
  8
FRAME_050
 10
584.70000000000005
 20
385.0
 30
0.0
 40
4.0
  1
A
  7
ISO_PROPORTIONAL
 72
     4
 11
586.5
 21
387.0
 31
0.0
  0
LINE
  5
C66
  8
FRAME_200
 10
594.0
 20
420.0
 30
0.0
 11
584.0
 21
420.0
 31
0.0
  0
LINE
  5
C67
  8
FRAME_200
 10
594.0
 20
410.0
 30
0.0
 11
594.0
 21
420.0
 31
0.0
  0
ENDBLK
  5
C69
  8
0
  0
BLOCK
  8
0
  2
WOBB001END
 70
     0
 10
0.0
 20
0.0
 30
0.0
  3
WOBB001END
  1

  0
LINE
  5
4D66
  8
0
  6
CONTINUOUS
 10
0.0
 20
0.0
 30
0.0
 11
0.8749999999999998
 21
0.0
 31
0.0
  0
ARC
  5
4D67
  8
0
  6
CONTINUOUS
 10
0.0331648379439287
 20
-0.5087238935900232
 30
0.0
 40
0.8790130605592325
 50
284.06490243660443
 51
312.19222981924361
  0
ARC
  5
4D68
  8
0
  6
CONTINUOUS
 10
0.2841534338796767
 20
-1.510548310625538
 30
0.0
 40
0.1537731892806598
 50
104.0649024366044
 51
179.4721730735024
  0
LINE
  5
4D69
  8
0
  6
CONTINUOUS
 10
0.0
 20
0.0
 30
0.0
 11
-0.0000000000000003
 21
-1.7501564476661919
 31
0.0
  0
ARC
  5
4D6A
  8
0
  6
CONTINUOUS
 10
0.1404622019506122
 20
-1.6303137183546199
 30
0.0
 40
0.1198427293115722
 50
275.0
 51
85.000000000000057
  0
LINE
  5
4D6B
  8
0
  6
CONTINUOUS
 10
-0.0000000000000003
 20
-1.7501564476661919
 30
0.0
 11
0.1456946485130855
 21
-1.7501564476661919
 31
0.0
  0
LINE
  5
4D6C
  8
0
  6
CONTINUOUS
 10
0.1377603739254348
 20
-1.7508506067459131
 30
0.0
 11
0.150907184036669
 21
-1.749700409899652
 31
0.0
  0
LINE
  5
4D6D
  8
0
  6
CONTINUOUS
 10
0.1303867696719884
 20
-1.5091317231818231
 30
0.0
 11
0.1509071840366689
 21
-1.5109270268095869
 31
0.0
  0
LINE
  5
4D6E
  8
0
  6
CONTINUOUS
 10
0.8749999999999998
 20
0.0
 30
0.0
 11
0.8749999999999996
 21
-0.8649327026588228
 31
0.0
  0
LINE
  5
4D6F
  8
0
  6
CONTINUOUS
 10
0.727014513830997
 20
-0.8726882933550612
 30
0.0
 11
0.727014513830997
 21
-0.9264923397184784
 31
0.0
  0
ARC
  5
4D70
  8
0
  6
CONTINUOUS
 10
0.41187090827646
 20
-0.9264923397184784
 30
0.0
 40
0.315143605554537
 50
312.19222981924361
 51
0.0
  0
LINE
  5
4D71
  8
0
  6
CONTINUOUS
 10
0.727014513830997
 20
-0.8726882933550612
 30
0.0
 11
0.8749999999999996
 21
-0.8649327026588228
 31
0.0
  0
ENDBLK
  5
4D72
  8
0
  0
BLOCK
  8
0
  2
A$C0A61123B
 70
     0
 10
0.0
 20
0.0
 30
0.0
  3
A$C0A61123B
  1

  0
LINE
  5
C0AD
  8
PROF
  6
CONTINUOUS
 10
4.9012016798694162
 20
13.325025853350891
 30
0.0000000000000002
 11
4.9012016798694162
 21
12.88585218805485
 31
0.0000000000000003
  0
INSERT
  5
C0AE
  8
0
  2
*U18
 10
0.0
 20
0.0
 30
0.0
  0
LINE
  5
C0AF
  8
PROF
 10
4.5198575031869259
 20
12.72227734589444
 30
0.0000000000000001
 11
4.5198575031869259
 21
12.88585218805485
 31
0.0000000000000001
  0
LINE
  5
C0B0
  8
PROF
  6
CONTINUOUS
 10
3.6306271195888371
 20
13.325025853350891
 30
0.0000000000000002
 11
4.9012016798694162
 21
13.325025853350891
 31
0.0000000000000002
  0
LINE
  5
C0B1
  8
PROF
 10
1.9750295148747341
 20
10.37671325491794
 30
0.0000000000000002
 11
1.9750295148747341
 21
10.11391186758919
 31
0.0000000000000002
  0
LINE
  5
C0B2
  8
PROF
 10
1.607967335755631
 20
10.11391186758919
 30
0.0000000000000001
 11
1.9750295148747341
 21
10.11391186758919
 31
0.0000000000000001
  0
LINE
  5
C0B3
  8
PROF
 10
1.9750295148747341
 20
10.11391186758919
 30
0.0000000000000001
 11
1.944958486898144
 21
10.11391186758919
 31
0.0000000000000001
  0
LINE
  5
C0B4
  8
PROF
 10
1.9750295148747341
 20
10.11391186758919
 30
0.0000000000000001
 11
1.944958486898144
 21
10.11391186758919
 31
0.0000000000000001
  0
LINE
  5
C0B5
  8
PROF
 10
0.3222605517169654
 20
7.5247473351056442
 30
-0.0000000000000002
 11
-0.0000008570117416
 21
7.5247473351056442
 31
0.0
  0
LINE
  5
C0B6
  8
PROF
 10
-0.0000008570117416
 20
7.5247473351056442
 30
0.0
 11
-0.0000008570117416
 21
9.1943336957369866
 31
0.0
  0
POLYLINE
  5
C0B7
  8
PROF
 66
     1
 10
0.0
 20
0.0
 30
0.0000000000000001
 70
     4
 75
     6
  0
VERTEX
  5
C0B8
  8
PROF
 10
1.607967335755631
 20
10.11391186758919
 30
0.0000000000000001
 70
    16
  0
VERTEX
  5
C0B9
  8
PROF
 10
1.607967335755631
 20
10.11391186758919
 30
0.0000000000000001
 70
     8
  0
VERTEX
  5
C0BA
  8
PROF
 10
1.646813232648582
 20
10.02198069336111
 30
0.0000000000000001
 70
     8
  0
VERTEX
  5
C0BB
  8
PROF
 10
1.67335966680929
 20
9.9344134163010267
 30
0.0000000000000001
 70
     8
  0
VERTEX
  5
C0BC
  8
PROF
 10
1.689008640046324
 20
9.8512576644480987
 30
0.0000000000000001
 70
     8
  0
VERTEX
  5
C0BD
  8
PROF
 10
1.695162154168258
 20
9.7725610658417281
 30
0.0000000000000001
 70
     8
  0
VERTEX
  5
C0BE
  8
PROF
 10
1.6932222109836059
 20
9.6983712485214255
 30
0.0000000000000001
 70
     8
  0
VERTEX
  5
C0BF
  8
PROF
 10
1.6845908123009961
 20
9.6287358405263603
 30
0.0000000000000001
 70
     8
  0
VERTEX
  5
C0C0
  8
PROF
 10
1.6706699599288859
 20
9.5637024698960431
 30
0.0000000000000001
 70
     8
  0
VERTEX
  5
C0C1
  8
PROF
 10
1.6528616556759621
 20
9.503318764669757
 30
0.0000000000000001
 70
     8
  0
VERTEX
  5
C0C2
  8
PROF
 10
1.6323562992730549
 20
9.4475843259650674
 30
0.0000000000000001
 70
     8
  0
VERTEX
  5
C0C3
  8
PROF
 10
1.609497882140658
 20
9.3963066472123273
 30
0.0000000000000001
 70
     8
  0
VERTEX
  5
C0C4
  8
PROF
 10
1.584418793621637
 20
9.3492451949202842
 30
0.0000000000000001
 70
     8
  0
VERTEX
  5
C0C5
  8
PROF
 10
1.557251423058744
 20
9.3061594355972375
 30
0.0000000000000001
 70
     8
  0
VERTEX
  5
C0C6
  8
PROF
 10
1.5281281597949601
 20
9.2668088357519292
 30
0.0000000000000001
 70
     8
  0
VERTEX
  5
C0C7
  8
PROF
 10
1.4971813931729789
 20
9.2309528618930017
 30
0.0000000000000001
 70
     8
  0
VERTEX
  5
C0C8
  8
PROF
 10
1.464543512535726
 20
9.1983509805288577
 30
0.0000000000000001
 70
     8
  0
VERTEX
  5
C0C9
  8
PROF
 10
1.4303469072260091
 20
9.1687626581682462
 30
0.0000000000000001
 70
     8
  0
VERTEX
  5
C0CA
  8
PROF
 10
1.3947360332574019
 20
9.1419547918675335
 30
0.0000000000000001
 70
     8
  0
VERTEX
  5
C0CB
  8
PROF
 10
1.3579036133264131
 20
9.1177240008747731
 30
0.0000000000000001
 70
     8
  0
VERTEX
  5
C0CC
  8
PROF
 10
1.3200544368004321
 20
9.0958743349860924
 30
0.0000000000000001
 70
     8
  0
VERTEX
  5
C0CD
  8
PROF
 10
1.281393293046676
 20
9.0762098439975034
 30
0.0000000000000001
 70
     8
  0
VERTEX
  5
C0CE
  8
PROF
 10
1.242124971432417
 20
9.0585345777049042
 30
0.0000000000000001
 70
     8
  0
VERTEX
  5
C0CF
  8
PROF
 10
1.2024542613249869
 20
9.0426525859044204
 30
0.0000000000000001
 70
     8
  0
VERTEX
  5
C0D0
  8
PROF
 10
1.1625859520916599
 20
9.0283679183919503
 30
0.0000000000000001
 70
     8
  0
VERTEX
  5
C0D1
  8
PROF
 10
1.1227248330997091
 20
9.0154846249635057
 30
0.0000000000000001
 70
     8
  0
VERTEX
  5
C0D2
  8
PROF
 10
1.0829726247361
 20
9.0034643862466055
 30
0.0000000000000001
 70
     8
  0
VERTEX
  5
C0D3
  8
PROF
 10
1.043018771466222
 20
8.9903994061946833
 30
0.0000000000000001
 70
     8
  0
VERTEX
  5
C0D4
  8
PROF
 10
1.002449648775211
 20
8.9740395195925657
 30
0.0000000000000001
 70
     8
  0
VERTEX
  5
C0D5
  8
PROF
 10
0.9608516321480919
 20
8.9521345612251935
 30
0.0000000000000001
 70
     8
  0
VERTEX
  5
C0D6
  8
PROF
 10
0.9178110970699435
 20
8.9224343658775052
 30
0.0000000000000001
 70
     8
  0
VERTEX
  5
C0D7
  8
PROF
 10
0.8729144190259034
 20
8.8826887683343312
 30
0.0000000000000001
 70
     8
  0
VERTEX
  5
C0D8
  8
PROF
 10
0.8257479735009951
 20
8.8306476033806121
 30
0.0000000000000001
 70
     8
  0
VERTEX
  5
C0D9
  8
PROF
 10
0.7758981359802988
 20
8.764060705801171
 30
0.0000000000000001
 70
     8
  0
VERTEX
  5
C0DA
  8
PROF
 10
1.729201901609656
 20
9.8629858761255491
 30
0.0000000000000001
 70
    16
  0
VERTEX
  5
C0DB
  8
PROF
 10
1.6793731231140889
 20
9.4532143012734196
 30
0.0000000000000001
 70
    16
  0
VERTEX
  5
C0DC
  8
PROF
 10
1.4455611507419801
 20
9.1391837193732481
 30
0.0000000000000001
 70
    16
  0
VERTEX
  5
C0DD
  8
PROF
 10
1.120463717273821
 20
9.0026267702428413
 30
0.0000000000000001
 70
    16
  0
VERTEX
  5
C0DE
  8
PROF
 10
0.9127765582653638
 20
8.9630202230383702
 30
0.0000000000000001
 70
    16
  0
VERTEX
  5
C0DF
  8
PROF
 10
0.7758981359802988
 20
8.764060705801171
 30
0.0000000000000001
 70
    16
  0
SEQEND
  5
C0E0
  8
PROF
  0
ARC
  5
C0E1
  8
PROF
 10
0.733429816733235
 20
8.4849506952165257
 30
0.0000000000000001
 40
0.2823224329524727
 50
269.73652020831901
 51
81.348449993176914
  0
LINE
  5
C0E2
  8
PROF
  6
CONTINUOUS
 10
-0.0000008570117416
 20
9.1943336957369866
 30
-0.0000000000000001
 11
3.6306271195888371
 21
13.325025853350891
 31
0.0000000000000002
  0
POLYLINE
  5
C0E3
  8
PROF
 66
     1
 10
0.0
 20
0.0
 30
0.0000000000000001
 70
     4
 75
     6
  0
VERTEX
  5
C0E4
  8
PROF
 10
4.5198575031869259
 20
12.72227734589444
 30
0.0000000000000001
 70
    16
  0
VERTEX
  5
C0E5
  8
PROF
 10
4.5198575031869259
 20
12.72227734589444
 30
0.0000000000000001
 70
     8
  0
VERTEX
  5
C0E6
  8
PROF
 10
4.4467035366886298
 20
12.741128108778071
 30
0.0000000000000001
 70
     8
  0
VERTEX
  5
C0E7
  8
PROF
 10
4.3786645761268801
 20
12.754675269913941
 30
0.0000000000000001
 70
     8
  0
VERTEX
  5
C0E8
  8
PROF
 10
4.3154364111440477
 20
12.76334314092332
 30
0.0000000000000001
 70
     8
  0
VERTEX
  5
C0E9
  8
PROF
 10
4.256714831382566
 20
12.76755603342724
 30
0.0000000000000001
 70
     8
  0
VERTEX
  5
C0EA
  8
PROF
 10
4.2021956264849791
 20
12.76773825904672
 30
0.0000000000000001
 70
     8
  0
VERTEX
  5
C0EB
  8
PROF
 10
4.1515745860935453
 20
12.764314129403139
 30
0.0000000000000001
 70
     8
  0
VERTEX
  5
C0EC
  8
PROF
 10
4.1045474998508658
 20
12.75770795611743
 30
0.0000000000000001
 70
     8
  0
VERTEX
  5
C0ED
  8
PROF
 10
4.0608101573993158
 20
12.748344050810831
 30
0.0000000000000001
 70
     8
  0
VERTEX
  5
C0EE
  8
PROF
 10
4.0200583483813261
 20
12.736646725104491
 30
0.0000000000000001
 70
     8
  0
VERTEX
  5
C0EF
  8
PROF
 10
3.9819878624393819
 20
12.72304029061945
 30
0.0000000000000001
 70
     8
  0
VERTEX
  5
C0F0
  8
PROF
 10
3.946294489215858
 20
12.707949058976959
 30
0.0000000000000001
 70
     8
  0
VERTEX
  5
C0F1
  8
PROF
 10
3.9126740183532429
 20
12.691797341798059
 30
0.0000000000000001
 70
     8
  0
VERTEX
  5
C0F2
  8
PROF
 10
3.8808638350742508
 20
12.67494295718654
 30
0.0000000000000001
 70
     8
  0
VERTEX
  5
C0F3
  8
PROF
 10
3.850767706922738
 20
12.65747774917668
 30
0.0000000000000001
 70
     8
  0
VERTEX
  5
C0F4
  8
PROF
 10
3.8223309970228452
 20
12.639427068285499
 30
0.0000000000000001
 70
     8
  0
VERTEX
  5
C0F5
  8
PROF
 10
3.7954990684987129
 20
12.62081626503004
 30
0.0000000000000001
 70
     8
  0
VERTEX
  5
C0F6
  8
PROF
 10
3.7702172844744828
 20
12.601670689926999
 30
0.0000000000000001
 70
     8
  0
VERTEX
  5
C0F7
  8
PROF
 10
3.746431008074353
 20
12.58201569349364
 30
0.0000000000000001
 70
     8
  0
VERTEX
  5
C0F8
  8
PROF
 10
3.7240856024224618
 20
12.56187662624666
 30
0.0000000000000001
 70
     8
  0
VERTEX
  5
C0F9
  8
PROF
 10
3.7031264306428961
 20
12.541278838703191
 30
0.0000000000000001
 70
     8
  0
VERTEX
  5
C0FA
  8
PROF
 10
3.6834988558599089
 20
12.520247681380051
 30
0.0000000000000001
 70
     8
  0
VERTEX
  5
C0FB
  8
PROF
 10
3.665148241197528
 20
12.49880850479428
 30
0.0000000000000001
 70
     8
  0
VERTEX
  5
C0FC
  8
PROF
 10
3.6480199497799499
 20
12.47698665946279
 30
0.0000000000000001
 70
     8
  0
VERTEX
  5
C0FD
  8
PROF
 10
3.6320593447313172
 20
12.45480749590263
 30
0.0000000000000001
 70
     8
  0
VERTEX
  5
C0FE
  8
PROF
 10
3.6171895848866589
 20
12.43223790353807
 30
0.0000000000000001
 70
     8
  0
VERTEX
  5
C0FF
  8
PROF
 10
3.6032450119242858
 20
12.40901092742285
 30
0.0000000000000001
 70
     8
  0
VERTEX
  5
C100
  8
PROF
 10
3.590037763233453
 20
12.38480115151844
 30
0.0000000000000001
 70
     8
  0
VERTEX
  5
C101
  8
PROF
 10
3.5773799762033032
 20
12.35928315978594
 30
0.0000000000000001
 70
     8
  0
VERTEX
  5
C102
  8
PROF
 10
3.5650837882230908
 20
12.33213153618658
 30
0.0000000000000001
 70
     8
  0
VERTEX
  5
C103
  8
PROF
 10
3.5529613366819599
 20
12.303020864681571
 30
0.0000000000000001
 70
     8
  0
VERTEX
  5
C104
  8
PROF
 10
3.540824758969165
 20
12.271625729232371
 30
0.0000000000000001
 70
     8
  0
VERTEX
  5
C105
  8
PROF
 10
3.5284861924738489
 20
12.23762071379997
 30
0.0000000000000001
 70
     8
  0
VERTEX
  5
C106
  8
PROF
 10
3.5157577745852668
 20
12.200680402345711
 30
0.0000000000000001
 70
     8
  0
VERTEX
  5
C107
  8
PROF
 10
3.5024516426926189
 20
12.16047937883093
 30
0.0000000000000001
 70
     8
  0
VERTEX
  5
C108
  8
PROF
 10
3.4883799341851041
 20
12.116692227216619
 30
0.0000000000000001
 70
     8
  0
VERTEX
  5
C109
  8
PROF
 10
3.4733547864519201
 20
12.06899353146423
 30
0.0000000000000001
 70
     8
  0
VERTEX
  5
C10A
  8
PROF
 10
3.45723654619428
 20
12.0172095445447
 30
0.0000000000000001
 70
     8
  0
VERTEX
  5
C10B
  8
PROF
 10
3.4400783973613889
 20
11.961773195467799
 30
0.0000000000000001
 70
     8
  0
VERTEX
  5
C10C
  8
PROF
 10
3.421981733214579
 20
11.90326908225302
 30
0.0000000000000001
 70
     8
  0
VERTEX
  5
C10D
  8
PROF
 10
3.4030479470150108
 20
11.842281802919951
 30
0.0000000000000001
 70
     8
  0
VERTEX
  5
C10E
  8
PROF
 10
3.383378432024017
 20
11.779395955487979
 30
0.0000000000000001
 70
     8
  0
VERTEX
  5
C10F
  8
PROF
 10
3.3630745815028709
 20
11.715196137976809
 30
0.0000000000000001
 70
     8
  0
VERTEX
  5
C110
  8
PROF
 10
3.3422377887127359
 20
11.650266948405831
 30
0.0000000000000001
 70
     8
  0
VERTEX
  5
C111
  8
PROF
 10
3.320969446915
 20
11.58519298479461
 30
0.0000000000000001
 70
     8
  0
VERTEX
  5
C112
  8
PROF
 10
3.2993709493707679
 20
11.520558845162549
 30
0.0000000000000001
 70
     8
  0
VERTEX
  5
C113
  8
PROF
 10
3.277543689341428
 20
11.456949127529469
 30
0.0000000000000001
 70
     8
  0
VERTEX
  5
C114
  8
PROF
 10
3.2555890600881412
 20
11.3949484299145
 30
0.0000000000000001
 70
     8
  0
VERTEX
  5
C115
  8
PROF
 10
3.233608454872182
 20
11.335141350337491
 30
0.0000000000000001
 70
     8
  0
VERTEX
  5
C116
  8
PROF
 10
3.2116715641212181
 20
11.27799544797778
 30
0.0000000000000001
 70
     8
  0
VERTEX
  5
C117
  8
PROF
 10
3.189721266927847
 20
11.22351012665467
 30
0.0000000000000001
 70
     8
  0
VERTEX
  5
C118
  8
PROF
 10
3.1676687395512881
 20
11.17156775134765
 30
0.0000000000000001
 70
     8
  0
VERTEX
  5
C119
  8
PROF
 10
3.1454251582505321
 20
11.12205068703588
 30
0.0000000000000001
 70
     8
  0
VERTEX
  5
C11A
  8
PROF
 10
3.122901699284625
 20
11.07484129869874
 30
0.0000000000000001
 70
     8
  0
VERTEX
  5
C11B
  8
PROF
 10
3.1000095389127291
 20
11.02982195131551
 30
0.0000000000000001
 70
     8
  0
VERTEX
  5
C11C
  8
PROF
 10
3.0766598533938909
 20
10.986875009865679
 30
0.0000000000000001
 70
     8
  0
VERTEX
  5
C11D
  8
PROF
 10
3.0527638189871591
 20
10.9458828393283
 30
0.0000000000000001
 70
     8
  0
VERTEX
  5
C11E
  8
PROF
 10
3.0282326119516361
 20
10.90672780468298
 30
0.0000000000000001
 70
     8
  0
VERTEX
  5
C11F
  8
PROF
 10
3.002977408546371
 20
10.869292270908771
 30
0.0000000000000001
 70
     8
  0
VERTEX
  5
C120
  8
PROF
 10
2.9769093850304098
 20
10.833458602985161
 30
0.0000000000000001
 70
     8
  0
VERTEX
  5
C121
  8
PROF
 10
2.9499397176628568
 20
10.799109165891419
 30
0.0000000000000001
 70
     8
  0
VERTEX
  5
C122
  8
PROF
 10
2.9220006098404379
 20
10.76614363969508
 30
0.0000000000000001
 70
     8
  0
VERTEX
  5
C123
  8
PROF
 10
2.8931083735103011
 20
10.7345309648158
 30
0.0000000000000001
 70
     8
  0
VERTEX
  5
C124
  8
PROF
 10
2.8633003477572738
 20
10.70425739676193
 30
0.0000000000000001
 70
     8
  0
VERTEX
  5
C125
  8
PROF
 10
2.8326138716660689
 20
10.67530919104115
 30
0.0000000000000001
 70
     8
  0
VERTEX
  5
C126
  8
PROF
 10
2.8010862843216269
 20
10.647672603161711
 30
0.0000000000000001
 70
     8
  0
VERTEX
  5
C127
  8
PROF
 10
2.7687549248087171
 20
10.62133388863162
 30
0.0000000000000001
 70
     8
  0
VERTEX
  5
C128
  8
PROF
 10
2.735657132212054
 20
10.5962793029588
 30
0.0000000000000001
 70
     8
  0
VERTEX
  5
C129
  8
PROF
 10
2.7018302456165202
 20
10.572495101651381
 30
0.0000000000000001
 70
     8
  0
VERTEX
  5
C12A
  8
PROF
 10
2.6673116041068852
 20
10.54996754021726
 30
0.0000000000000001
 70
     8
  0
VERTEX
  5
C12B
  8
PROF
 10
2.6321385467680321
 20
10.528682874164581
 30
0.0000000000000001
 70
     8
  0
VERTEX
  5
C12C
  8
PROF
 10
2.5963484126846188
 20
10.508627359001251
 30
0.0000000000000001
 70
     8
  0
VERTEX
  5
C12D
  8
PROF
 10
2.5599785409415849
 20
10.489787250235279
 30
0.0000000000000001
 70
     8
  0
VERTEX
  5
C12E
  8
PROF
 10
2.522998630314361
 20
10.472162234281081
 30
0.0000000000000001
 70
     8
  0
VERTEX
  5
C12F
  8
PROF
 10
2.4851078183409072
 20
10.455805721177621
 30
0.0000000000000001
 70
     8
  0
VERTEX
  5
C130
  8
PROF
 10
2.4459376022498982
 20
10.44078455187036
 30
0.0000000000000001
 70
     8
  0
VERTEX
  5
C131
  8
PROF
 10
2.4051194792701258
 20
10.42716556730465
 30
0.0000000000000001
 70
     8
  0
VERTEX
  5
C132
  8
PROF
 10
2.3622849466301541
 20
10.415015608425851
 30
0.0000000000000001
 70
     8
  0
VERTEX
  5
C133
  8
PROF
 10
2.3170655015587149
 20
10.40440151617929
 30
0.0000000000000001
 70
     8
  0
VERTEX
  5
C134
  8
PROF
 10
2.2690926412844301
 20
10.395390131510339
 30
0.0000000000000001
 70
     8
  0
VERTEX
  5
C135
  8
PROF
 10
2.2179978630360888
 20
10.388048295364451
 30
0.0000000000000001
 70
     8
  0
VERTEX
  5
C136
  8
PROF
 10
2.1634126640422551
 20
10.38244284868688
 30
0.0000000000000001
 70
     8
  0
VERTEX
  5
C137
  8
PROF
 10
2.104968541531604
 20
10.37864063242295
 30
0.0000000000000001
 70
     8
  0
VERTEX
  5
C138
  8
PROF
 10
2.0422969927328718
 20
10.37670848751816
 30
0.0000000000000001
 70
     8
  0
VERTEX
  5
C139
  8
PROF
 10
1.9750295148747341
 20
10.37671325491794
 30
0.0000000000000001
 70
     8
  0
VERTEX
  5
C13A
  8
PROF
 10
4.2166060115107484
 20
12.80885334975255
 30
0.0000000000000001
 70
    16
  0
VERTEX
  5
C13B
  8
PROF
 10
3.8702254102732918
 20
12.707065515763929
 30
0.0000000000000001
 70
    16
  0
VERTEX
  5
C13C
  8
PROF
 10
3.605346156896871
 20
12.46277472098552
 30
0.0000000000000001
 70
    16
  0
VERTEX
  5
C13D
  8
PROF
 10
3.500746030527238
 20
12.170680575709749
 30
0.0000000000000001
 70
    16
  0
VERTEX
  5
C13E
  8
PROF
 10
3.231798439705698
 20
11.26846416496107
 30
0.0000000000000001
 70
    16
  0
VERTEX
  5
C13F
  8
PROF
 10
2.9737109398832891
 20
10.76631086647069
 30
0.0000000000000001
 70
    16
  0
VERTEX
  5
C140
  8
PROF
 10
2.5729961067384011
 20
10.460947364504699
 30
0.0000000000000001
 70
    16
  0
VERTEX
  5
C141
  8
PROF
 10
2.253782621454604
 20
10.372731239449759
 30
0.0000000000000001
 70
    16
  0
VERTEX
  5
C142
  8
PROF
 10
1.9750295148747341
 20
10.37671325491794
 30
0.0000000000000001
 70
    16
  0
SEQEND
  5
C143
  8
PROF
  0
LINE
  5
C144
  8
PROF
 10
4.9012016798694162
 20
12.88585218805485
 30
0.0000000000000003
 11
4.5198575031869259
 21
12.88585218805485
 31
0.0000000000000003
  0
LINE
  5
C145
  8
PROF
 10
0.7321315362267457
 20
8.2026312473991538
 30
0.0000000000000006
 11
0.7321315362267457
 21
8.0511853963434987
 31
0.0000000000000006
  0
ARC
  5
C146
  8
PROF
 10
0.7977322214551919
 20
7.5773339332026799
 30
0.0000000000000006
 40
0.4783708383912012
 50
97.882010168942529
 51
186.31119505698649
  0
LINE
  5
C147
  8
FRAME_050
 10
7.8016377197432121
 20
17.99371054969447
 30
0.0
 11
7.8016377197432121
 21
0.0000000000002274
 31
0.0
  0
ENDBLK
  5
C149
  8
0
  0
BLOCK
  8
0
  2
A$C3A7C6791
 70
     0
 10
0.0
 20
0.0
 30
0.0
  3
A$C3A7C6791
  1

  0
ARC
  5
1A561
  8
0
 10
1.0342682520551421
 20
11.169869575314801
 30
0.0
 40
0.3900479059662017
 50
183.5871702804647
 51
250.12003892297869
  0
ARC
  5
1A562
  8
0
 10
0.3331235273064408
 20
14.96835148878222
 30
0.0
 40
0.279776987736341
 50
290.26301102890392
 51
72.509116341854423
  0
ARC
  5
1A563
  8
0
 10
0.7948887850711232
 20
10.60700392177659
 30
0.0
 40
0.2232361910347119
 50
300.2914142988875
 51
61.434469032044603
  0
LINE
  5
1A564
  8
0
 10
-0.0000015027120526
 20
9.7351929270671462
 30
0.0
 11
1.0332573394856579
 21
9.7351929270671462
 31
0.0
  0
LINE
  5
1A565
  8
0
 10
1.0332573394856579
 20
10.377304601683591
 30
0.0
 11
0.9074887268004658
 21
10.377304601683591
 31
0.0
  0
LINE
  5
1A566
  8
0
 10
0.6449845421777241
 20
11.145465432783791
 30
0.0
 11
0.5554296092705046
 21
11.181249222917581
 31
0.0
  0
LINE
  5
1A567
  8
0
 10
0.5554296092705046
 20
14.67010534946894
 30
0.0
 11
0.430018718777319
 21
14.67010534946894
 31
0.0
  0
LINE
  5
1A568
  8
0
 10
0.4172116339615855
 20
15.235192927067139
 30
0.0
 11
-0.0000015027120526
 21
15.235192927067139
 31
0.0
  0
LINE
  5
1A569
  8
0
 10
-0.0000015027120526
 20
15.235192927067139
 30
0.0
 11
-0.0000015027120526
 21
9.7351929270671462
 31
0.0
  0
LINE
  5
1A56A
  8
0
 10
1.0332573394856579
 20
9.7351929270671462
 30
0.0
 11
1.0332573394856579
 21
10.377304601683591
 31
0.0
  0
LINE
  5
1A56B
  8
0
 10
0.9074887268004658
 20
10.377304601683591
 30
0.0
 11
0.9074887268003521
 21
10.414245912577821
 31
0.0
  0
LINE
  5
1A56C
  8
0
 10
0.5554296092705046
 20
11.181249222917581
 30
0.0
 11
0.5554296092705046
 21
14.67010534946894
 31
0.0
  0
LINE
  5
1A56D
  8
0
 10
0.430018718777319
 20
14.67010534946894
 30
0.0
 11
0.4300187187771485
 21
14.705889139602959
 31
0.0
  0
INSERT
  5
1A56E
  8
0
  2
*U19
 10
0.0
 20
0.0
 30
0.0
  0
LINE
  5
1A56F
  8
FRAME_050
 10
5.1382720395286006
 20
17.993710579095019
 30
0.0
 11
5.1382720395286006
 21
0.0000000294007805
 31
0.0
  0
ENDBLK
  5
1A571
  8
0
  0
BLOCK
  8
0
  2
A$C212248C0
 70
     0
 10
0.0
 20
0.0
 30
0.0
  3
A$C212248C0
  1

  0
LINE
  5
2846E
  8
0
 10
-0.0000002092490945
 20
10.41741894345523
 30
0.0
 11
-0.000000218823061
 21
12.91741894345523
 31
0.0
  0
LINE
  5
2846F
  8
0
 10
0.8061752779508424
 20
10.41741894654251
 30
0.0
 11
0.80617527442746
 21
11.337459194522349
 31
0.0
  0
LINE
  5
28470
  8
0
 10
-0.0000002092490945
 20
10.41741894345523
 30
0.0
 11
0.8061752779508424
 21
10.41741894654251
 31
0.0
  0
LINE
  5
28471
  8
0
 10
-0.000000218823061
 20
12.91741894345523
 30
0.0
 11
0.1835338022692099
 21
12.91741894415804
 31
0.0
  0
LINE
  5
28472
  8
0
 10
0.5432593756756888
 20
11.33745919351543
 30
0.0
 11
0.8061752744275167
 21
11.337459194522349
 31
0.0
  0
LINE
  5
28473
  8
0
 10
0.5432593756756888
 20
11.33745919351543
 30
0.0
 11
0.54325937522907
 21
11.454074799268589
 31
0.0
  0
ARC
  5
28474
  8
0
 10
0.5406585726453841
 20
11.69407225899795
 30
0.0
 40
0.2400115514942006
 50
270.62087814899439
 51
10.065567101317541
  0
ARC
  5
28475
  8
0
 10
0.3766221072655185
 20
12.57830290724473
 30
0.0
 40
0.1204493443528103
 50
92.075522465847911
 51
186.90606997904499
  0
ARC
  5
28476
  8
0
 10
0.3522648873053527
 20
11.66572609276443
 30
0.0
 40
0.4304889887359197
 50
9.3978639632316945
 51
32.979139282634932
  0
ARC
  5
28477
  8
0
 10
-3.1652042745943159
 20
9.0577862235478506
 30
0.0
 40
4.8085319198703189
 50
36.234313076985558
 51
42.402692063571678
  0
LINE
  5
28478
  8
0
 10
0.1835338022692099
 20
12.91741894415804
 30
0.0
 11
0.3722598200128004
 21
12.698673231681139
 31
0.0
  0
ARC
  5
28479
  8
0
 10
0.9319226152692294
 20
12.72987725098619
 30
0.0
 40
0.6950054723870779
 50
193.8233761419454
 51
218.1708864341492
  0
LINE
  5
2847A
  8
0
 10
-0.0000002092490945
 20
10.41741894345523
 30
0.0
 11
-0.0000002092490945
 21
12.91741894345523
 31
0.0
  0
INSERT
  5
2847B
  8
0
  2
*U20
 10
0.0
 20
0.0
 30
0.0
  0
LINE
  5
2847C
  8
FRAME_050
 10
6.2588202718825414
 20
17.993710579095019
 30
0.0
 11
6.2588202718825414
 21
0.0000000294007805
 31
0.0
  0
ENDBLK
  5
2847E
  8
0
  0
BLOCK
  8
0
  2
A$C52DE5D80
 70
     0
 10
0.0
 20
0.0
 30
0.0
  3
A$C52DE5D80
  1

  0
INSERT
  5
2B89A
  8
0
  2
*U21
 10
0.0
 20
0.0
 30
0.0
  0
LINE
  5
2B89B
  8
0
 10
0.0000014767382481
 20
7.878552666495465
 30
0.0
 11
1.5240062297528421
 21
7.8785526664953522
 31
0.0
  0
LINE
  5
2B89C
  8
0
 10
1.5240062297528421
 20
8.3261365866769665
 30
0.0
 11
1.5240062297528421
 21
7.8785526664953522
 31
0.0
  0
LINE
  5
2B89D
  8
0
 10
1.394539806559862
 20
8.3261365866769665
 30
0.0
 11
1.5240062297528421
 21
8.3261365866769665
 31
0.0
  0
LINE
  5
2B89E
  8
0
 10
0.7472076905950758
 20
9.2582948336663549
 30
0.0
 11
0.8951693171012493
 21
9.2582948336665822
 31
0.0
  0
POLYLINE
  8
0
  5
2FAFA
  62
7
  66
     1
 10
0.000000
 20
0.000000
 30
0.000000
  70
     8
  0
VERTEX
  8
0
  5
2FAFB
 10
1.39454
 20
8.32614
 30
0.000000
  70
    32
  0
VERTEX
  8
0
  5
2FAFC
 10
1.39468
 20
8.33131
 30
0.000000
  70
    32
  0
VERTEX
  8
0
  5
2FAFD
 10
1.39482
 20
8.33649
 30
0.000000
  70
    32
  0
VERTEX
  8
0
  5
2FAFE
 10
1.39495
 20
8.34167
 30
0.000000
  70
    32
  0
VERTEX
  8
0
  5
2FAFF
 10
1.39508
 20
8.34684
 30
0.000000
  70
    32
  0
VERTEX
  8
0
  5
2FB00
 10
1.39521
 20
8.35201
 30
0.000000
  70
    32
  0
VERTEX
  8
0
  5
2FB01
 10
1.39532
 20
8.35718
 30
0.000000
  70
    32
  0
VERTEX
  8
0
  5
2FB02
 10
1.39542
 20
8.36234
 30
0.000000
  70
    32
  0
VERTEX
  8
0
  5
2FB03
 10
1.39552
 20
8.36749
 30
0.000000
  70
    32
  0
VERTEX
  8
0
  5
2FB04
 10
1.39559
 20
8.37264
 30
0.000000
  70
    32
  0
VERTEX
  8
0
  5
2FB05
 10
1.39566
 20
8.37779
 30
0.000000
  70
    32
  0
VERTEX
  8
0
  5
2FB06
 10
1.39570
 20
8.38292
 30
0.000000
  70
    32
  0
VERTEX
  8
0
  5
2FB07
 10
1.39573
 20
8.38805
 30
0.000000
  70
    32
  0
VERTEX
  8
0
  5
2FB08
 10
1.39574
 20
8.39316
 30
0.000000
  70
    32
  0
VERTEX
  8
0
  5
2FB09
 10
1.39572
 20
8.39827
 30
0.000000
  70
    32
  0
VERTEX
  8
0
  5
2FB0A
 10
1.39569
 20
8.40337
 30
0.000000
  70
    32
  0
VERTEX
  8
0
  5
2FB0B
 10
1.39562
 20
8.40845
 30
0.000000
  70
    32
  0
VERTEX
  8
0
  5
2FB0C
 10
1.39553
 20
8.41352
 30
0.000000
  70
    32
  0
VERTEX
  8
0
  5
2FB0D
 10
1.39541
 20
8.41858
 30
0.000000
  70
    32
  0
VERTEX
  8
0
  5
2FB0E
 10
1.39526
 20
8.42363
 30
0.000000
  70
    32
  0
VERTEX
  8
0
  5
2FB0F
 10
1.39507
 20
8.42866
 30
0.000000
  70
    32
  0
VERTEX
  8
0
  5
2FB10
 10
1.39486
 20
8.43367
 30
0.000000
  70
    32
  0
VERTEX
  8
0
  5
2FB11
 10
1.39460
 20
8.43867
 30
0.000000
  70
    32
  0
VERTEX
  8
0
  5
2FB12
 10
1.39431
 20
8.44365
 30
0.000000
  70
    32
  0
VERTEX
  8
0
  5
2FB13
 10
1.39398
 20
8.44862
 30
0.000000
  70
    32
  0
VERTEX
  8
0
  5
2FB14
 10
1.39361
 20
8.45356
 30
0.000000
  70
    32
  0
VERTEX
  8
0
  5
2FB15
 10
1.39320
 20
8.45849
 30
0.000000
  70
    32
  0
VERTEX
  8
0
  5
2FB16
 10
1.39274
 20
8.46339
 30
0.000000
  70
    32
  0
VERTEX
  8
0
  5
2FB17
 10
1.39224
 20
8.46828
 30
0.000000
  70
    32
  0
VERTEX
  8
0
  5
2FB18
 10
1.39168
 20
8.47314
 30
0.000000
  70
    32
  0
VERTEX
  8
0
  5
2FB19
 10
1.39108
 20
8.47798
 30
0.000000
  70
    32
  0
VERTEX
  8
0
  5
2FB1A
 10
1.39043
 20
8.48280
 30
0.000000
  70
    32
  0
VERTEX
  8
0
  5
2FB1B
 10
1.38973
 20
8.48759
 30
0.000000
  70
    32
  0
VERTEX
  8
0
  5
2FB1C
 10
1.38897
 20
8.49236
 30
0.000000
  70
    32
  0
VERTEX
  8
0
  5
2FB1D
 10
1.38815
 20
8.49711
 30
0.000000
  70
    32
  0
VERTEX
  8
0
  5
2FB1E
 10
1.38728
 20
8.50182
 30
0.000000
  70
    32
  0
VERTEX
  8
0
  5
2FB1F
 10
1.38635
 20
8.50651
 30
0.000000
  70
    32
  0
VERTEX
  8
0
  5
2FB20
 10
1.38535
 20
8.51117
 30
0.000000
  70
    32
  0
VERTEX
  8
0
  5
2FB21
 10
1.38429
 20
8.51581
 30
0.000000
  70
    32
  0
VERTEX
  8
0
  5
2FB22
 10
1.38317
 20
8.52041
 30
0.000000
  70
    32
  0
VERTEX
  8
0
  5
2FB23
 10
1.38198
 20
8.52498
 30
0.000000
  70
    32
  0
VERTEX
  8
0
  5
2FB24
 10
1.38073
 20
8.52953
 30
0.000000
  70
    32
  0
VERTEX
  8
0
  5
2FB25
 10
1.37940
 20
8.53404
 30
0.000000
  70
    32
  0
VERTEX
  8
0
  5
2FB26
 10
1.37800
 20
8.53851
 30
0.000000
  70
    32
  0
VERTEX
  8
0
  5
2FB27
 10
1.37653
 20
8.54296
 30
0.000000
  70
    32
  0
VERTEX
  8
0
  5
2FB28
 10
1.37499
 20
8.54737
 30
0.000000
  70
    32
  0
VERTEX
  8
0
  5
2FB29
 10
1.37337
 20
8.55175
 30
0.000000
  70
    32
  0
VERTEX
  8
0
  5
2FB2A
 10
1.37167
 20
8.55609
 30
0.000000
  70
    32
  0
VERTEX
  8
0
  5
2FB2B
 10
1.36991
 20
8.56040
 30
0.000000
  70
    32
  0
VERTEX
  8
0
  5
2FB2C
 10
1.36807
 20
8.56468
 30
0.000000
  70
    32
  0
VERTEX
  8
0
  5
2FB2D
 10
1.36616
 20
8.56893
 30
0.000000
  70
    32
  0
VERTEX
  8
0
  5
2FB2E
 10
1.36418
 20
8.57314
 30
0.000000
  70
    32
  0
VERTEX
  8
0
  5
2FB2F
 10
1.36214
 20
8.57733
 30
0.000000
  70
    32
  0
VERTEX
  8
0
  5
2FB30
 10
1.36003
 20
8.58148
 30
0.000000
  70
    32
  0
VERTEX
  8
0
  5
2FB31
 10
1.35785
 20
8.58560
 30
0.000000
  70
    32
  0
VERTEX
  8
0
  5
2FB32
 10
1.35561
 20
8.58970
 30
0.000000
  70
    32
  0
VERTEX
  8
0
  5
2FB33
 10
1.35330
 20
8.59377
 30
0.000000
  70
    32
  0
VERTEX
  8
0
  5
2FB34
 10
1.35093
 20
8.59781
 30
0.000000
  70
    32
  0
VERTEX
  8
0
  5
2FB35
 10
1.34851
 20
8.60182
 30
0.000000
  70
    32
  0
VERTEX
  8
0
  5
2FB36
 10
1.34602
 20
8.60581
 30
0.000000
  70
    32
  0
VERTEX
  8
0
  5
2FB37
 10
1.34347
 20
8.60976
 30
0.000000
  70
    32
  0
VERTEX
  8
0
  5
2FB38
 10
1.34086
 20
8.61370
 30
0.000000
  70
    32
  0
VERTEX
  8
0
  5
2FB39
 10
1.33820
 20
8.61761
 30
0.000000
  70
    32
  0
VERTEX
  8
0
  5
2FB3A
 10
1.33549
 20
8.62149
 30
0.000000
  70
    32
  0
VERTEX
  8
0
  5
2FB3B
 10
1.33271
 20
8.62535
 30
0.000000
  70
    32
  0
VERTEX
  8
0
  5
2FB3C
 10
1.32989
 20
8.62919
 30
0.000000
  70
    32
  0
VERTEX
  8
0
  5
2FB3D
 10
1.32701
 20
8.63300
 30
0.000000
  70
    32
  0
VERTEX
  8
0
  5
2FB3E
 10
1.32408
 20
8.63679
 30
0.000000
  70
    32
  0
VERTEX
  8
0
  5
2FB3F
 10
1.32111
 20
8.64056
 30
0.000000
  70
    32
  0
VERTEX
  8
0
  5
2FB40
 10
1.31808
 20
8.64431
 30
0.000000
  70
    32
  0
VERTEX
  8
0
  5
2FB41
 10
1.31501
 20
8.64803
 30
0.000000
  70
    32
  0
VERTEX
  8
0
  5
2FB42
 10
1.31189
 20
8.65174
 30
0.000000
  70
    32
  0
VERTEX
  8
0
  5
2FB43
 10
1.30872
 20
8.65543
 30
0.000000
  70
    32
  0
VERTEX
  8
0
  5
2FB44
 10
1.30551
 20
8.65910
 30
0.000000
  70
    32
  0
VERTEX
  8
0
  5
2FB45
 10
1.30226
 20
8.66275
 30
0.000000
  70
    32
  0
VERTEX
  8
0
  5
2FB46
 10
1.29896
 20
8.66638
 30
0.000000
  70
    32
  0
VERTEX
  8
0
  5
2FB47
 10
1.29563
 20
8.66999
 30
0.000000
  70
    32
  0
VERTEX
  8
0
  5
2FB48
 10
1.29225
 20
8.67359
 30
0.000000
  70
    32
  0
VERTEX
  8
0
  5
2FB49
 10
1.28884
 20
8.67717
 30
0.000000
  70
    32
  0
VERTEX
  8
0
  5
2FB4A
 10
1.28539
 20
8.68074
 30
0.000000
  70
    32
  0
VERTEX
  8
0
  5
2FB4B
 10
1.28190
 20
8.68429
 30
0.000000
  70
    32
  0
VERTEX
  8
0
  5
2FB4C
 10
1.27838
 20
8.68782
 30
0.000000
  70
    32
  0
VERTEX
  8
0
  5
2FB4D
 10
1.27482
 20
8.69134
 30
0.000000
  70
    32
  0
VERTEX
  8
0
  5
2FB4E
 10
1.27123
 20
8.69485
 30
0.000000
  70
    32
  0
VERTEX
  8
0
  5
2FB4F
 10
1.26761
 20
8.69835
 30
0.000000
  70
    32
  0
VERTEX
  8
0
  5
2FB50
 10
1.26396
 20
8.70183
 30
0.000000
  70
    32
  0
VERTEX
  8
0
  5
2FB51
 10
1.26028
 20
8.70530
 30
0.000000
  70
    32
  0
VERTEX
  8
0
  5
2FB52
 10
1.25657
 20
8.70876
 30
0.000000
  70
    32
  0
VERTEX
  8
0
  5
2FB53
 10
1.25283
 20
8.71220
 30
0.000000
  70
    32
  0
VERTEX
  8
0
  5
2FB54
 10
1.24907
 20
8.71564
 30
0.000000
  70
    32
  0
VERTEX
  8
0
  5
2FB55
 10
1.24528
 20
8.71907
 30
0.000000
  70
    32
  0
VERTEX
  8
0
  5
2FB56
 10
1.24147
 20
8.72249
 30
0.000000
  70
    32
  0
VERTEX
  8
0
  5
2FB57
 10
1.23764
 20
8.72590
 30
0.000000
  70
    32
  0
VERTEX
  8
0
  5
2FB58
 10
1.23379
 20
8.72930
 30
0.000000
  70
    32
  0
VERTEX
  8
0
  5
2FB59
 10
1.22991
 20
8.73270
 30
0.000000
  70
    32
  0
VERTEX
  8
0
  5
2FB5A
 10
1.22601
 20
8.73609
 30
0.000000
  70
    32
  0
VERTEX
  8
0
  5
2FB5B
 10
1.22210
 20
8.73947
 30
0.000000
  70
    32
  0
VERTEX
  8
0
  5
2FB5C
 10
1.21817
 20
8.74284
 30
0.000000
  70
    32
  0
VERTEX
  8
0
  5
2FB5D
 10
1.21423
 20
8.74621
 30
0.000000
  70
    32
  0
VERTEX
  8
0
  5
2FB5E
 10
1.21027
 20
8.74958
 30
0.000000
  70
    32
  0
VERTEX
  8
0
  5
2FB5F
 10
1.20629
 20
8.75294
 30
0.000000
  70
    32
  0
VERTEX
  8
0
  5
2FB60
 10
1.20230
 20
8.75630
 30
0.000000
  70
    32
  0
VERTEX
  8
0
  5
2FB61
 10
1.19831
 20
8.75965
 30
0.000000
  70
    32
  0
VERTEX
  8
0
  5
2FB62
 10
1.19430
 20
8.76300
 30
0.000000
  70
    32
  0
VERTEX
  8
0
  5
2FB63
 10
1.19028
 20
8.76636
 30
0.000000
  70
    32
  0
VERTEX
  8
0
  5
2FB64
 10
1.18626
 20
8.76970
 30
0.000000
  70
    32
  0
VERTEX
  8
0
  5
2FB65
 10
1.18222
 20
8.77305
 30
0.000000
  70
    32
  0
VERTEX
  8
0
  5
2FB66
 10
1.17819
 20
8.77640
 30
0.000000
  70
    32
  0
VERTEX
  8
0
  5
2FB67
 10
1.17414
 20
8.77975
 30
0.000000
  70
    32
  0
VERTEX
  8
0
  5
2FB68
 10
1.17010
 20
8.78310
 30
0.000000
  70
    32
  0
VERTEX
  8
0
  5
2FB69
 10
1.16605
 20
8.78645
 30
0.000000
  70
    32
  0
VERTEX
  8
0
  5
2FB6A
 10
1.16200
 20
8.78980
 30
0.000000
  70
    32
  0
VERTEX
  8
0
  5
2FB6B
 10
1.15795
 20
8.79315
 30
0.000000
  70
    32
  0
VERTEX
  8
0
  5
2FB6C
 10
1.15390
 20
8.79651
 30
0.000000
  70
    32
  0
VERTEX
  8
0
  5
2FB6D
 10
1.14986
 20
8.79987
 30
0.000000
  70
    32
  0
VERTEX
  8
0
  5
2FB6E
 10
1.14582
 20
8.80323
 30
0.000000
  70
    32
  0
VERTEX
  8
0
  5
2FB6F
 10
1.14178
 20
8.80660
 30
0.000000
  70
    32
  0
VERTEX
  8
0
  5
2FB70
 10
1.13775
 20
8.80998
 30
0.000000
  70
    32
  0
VERTEX
  8
0
  5
2FB71
 10
1.13372
 20
8.81336
 30
0.000000
  70
    32
  0
VERTEX
  8
0
  5
2FB72
 10
1.12970
 20
8.81674
 30
0.000000
  70
    32
  0
VERTEX
  8
0
  5
2FB73
 10
1.12569
 20
8.82014
 30
0.000000
  70
    32
  0
VERTEX
  8
0
  5
2FB74
 10
1.12170
 20
8.82354
 30
0.000000
  70
    32
  0
VERTEX
  8
0
  5
2FB75
 10
1.11771
 20
8.82695
 30
0.000000
  70
    32
  0
VERTEX
  8
0
  5
2FB76
 10
1.11373
 20
8.83036
 30
0.000000
  70
    32
  0
VERTEX
  8
0
  5
2FB77
 10
1.10977
 20
8.83379
 30
0.000000
  70
    32
  0
VERTEX
  8
0
  5
2FB78
 10
1.10583
 20
8.83723
 30
0.000000
  70
    32
  0
VERTEX
  8
0
  5
2FB79
 10
1.10190
 20
8.84067
 30
0.000000
  70
    32
  0
VERTEX
  8
0
  5
2FB7A
 10
1.09798
 20
8.84413
 30
0.000000
  70
    32
  0
VERTEX
  8
0
  5
2FB7B
 10
1.09409
 20
8.84760
 30
0.000000
  70
    32
  0
VERTEX
  8
0
  5
2FB7C
 10
1.09021
 20
8.85107
 30
0.000000
  70
    32
  0
VERTEX
  8
0
  5
2FB7D
 10
1.08635
 20
8.85457
 30
0.000000
  70
    32
  0
VERTEX
  8
0
  5
2FB7E
 10
1.08251
 20
8.85807
 30
0.000000
  70
    32
  0
VERTEX
  8
0
  5
2FB7F
 10
1.07870
 20
8.86158
 30
0.000000
  70
    32
  0
VERTEX
  8
0
  5
2FB80
 10
1.07490
 20
8.86511
 30
0.000000
  70
    32
  0
VERTEX
  8
0
  5
2FB81
 10
1.07113
 20
8.86865
 30
0.000000
  70
    32
  0
VERTEX
  8
0
  5
2FB82
 10
1.06738
 20
8.87220
 30
0.000000
  70
    32
  0
VERTEX
  8
0
  5
2FB83
 10
1.06365
 20
8.87576
 30
0.000000
  70
    32
  0
VERTEX
  8
0
  5
2FB84
 10
1.05995
 20
8.87934
 30
0.000000
  70
    32
  0
VERTEX
  8
0
  5
2FB85
 10
1.05628
 20
8.88294
 30
0.000000
  70
    32
  0
VERTEX
  8
0
  5
2FB86
 10
1.05263
 20
8.88654
 30
0.000000
  70
    32
  0
VERTEX
  8
0
  5
2FB87
 10
1.04900
 20
8.89016
 30
0.000000
  70
    32
  0
VERTEX
  8
0
  5
2FB88
 10
1.04541
 20
8.89380
 30
0.000000
  70
    32
  0
VERTEX
  8
0
  5
2FB89
 10
1.04185
 20
8.89745
 30
0.000000
  70
    32
  0
VERTEX
  8
0
  5
2FB8A
 10
1.03831
 20
8.90112
 30
0.000000
  70
    32
  0
VERTEX
  8
0
  5
2FB8B
 10
1.03481
 20
8.90480
 30
0.000000
  70
    32
  0
VERTEX
  8
0
  5
2FB8C
 10
1.03133
 20
8.90850
 30
0.000000
  70
    32
  0
VERTEX
  8
0
  5
2FB8D
 10
1.02789
 20
8.91221
 30
0.000000
  70
    32
  0
VERTEX
  8
0
  5
2FB8E
 10
1.02448
 20
8.91594
 30
0.000000
  70
    32
  0
VERTEX
  8
0
  5
2FB8F
 10
1.02111
 20
8.91969
 30
0.000000
  70
    32
  0
VERTEX
  8
0
  5
2FB90
 10
1.01777
 20
8.92345
 30
0.000000
  70
    32
  0
VERTEX
  8
0
  5
2FB91
 10
1.01446
 20
8.92723
 30
0.000000
  70
    32
  0
VERTEX
  8
0
  5
2FB92
 10
1.01119
 20
8.93103
 30
0.000000
  70
    32
  0
VERTEX
  8
0
  5
2FB93
 10
1.00796
 20
8.93484
 30
0.000000
  70
    32
  0
VERTEX
  8
0
  5
2FB94
 10
1.00476
 20
8.93868
 30
0.000000
  70
    32
  0
VERTEX
  8
0
  5
2FB95
 10
1.00160
 20
8.94253
 30
0.000000
  70
    32
  0
VERTEX
  8
0
  5
2FB96
 10
0.998485
 20
8.94640
 30
0.000000
  70
    32
  0
VERTEX
  8
0
  5
2FB97
 10
0.995407
 20
8.95029
 30
0.000000
  70
    32
  0
VERTEX
  8
0
  5
2FB98
 10
0.992369
 20
8.95420
 30
0.000000
  70
    32
  0
VERTEX
  8
0
  5
2FB99
 10
0.989373
 20
8.95813
 30
0.000000
  70
    32
  0
VERTEX
  8
0
  5
2FB9A
 10
0.986419
 20
8.96208
 30
0.000000
  70
    32
  0
VERTEX
  8
0
  5
2FB9B
 10
0.983508
 20
8.96605
 30
0.000000
  70
    32
  0
VERTEX
  8
0
  5
2FB9C
 10
0.980642
 20
8.97004
 30
0.000000
  70
    32
  0
VERTEX
  8
0
  5
2FB9D
 10
0.977819
 20
8.97405
 30
0.000000
  70
    32
  0
VERTEX
  8
0
  5
2FB9E
 10
0.975042
 20
8.97808
 30
0.000000
  70
    32
  0
VERTEX
  8
0
  5
2FB9F
 10
0.972312
 20
8.98213
 30
0.000000
  70
    32
  0
VERTEX
  8
0
  5
2FBA0
 10
0.969628
 20
8.98621
 30
0.000000
  70
    32
  0
VERTEX
  8
0
  5
2FBA1
 10
0.966993
 20
8.99030
 30
0.000000
  70
    32
  0
VERTEX
  8
0
  5
2FBA2
 10
0.964406
 20
8.99442
 30
0.000000
  70
    32
  0
VERTEX
  8
0
  5
2FBA3
 10
0.961868
 20
8.99856
 30
0.000000
  70
    32
  0
VERTEX
  8
0
  5
2FBA4
 10
0.959381
 20
9.00272
 30
0.000000
  70
    32
  0
VERTEX
  8
0
  5
2FBA5
 10
0.956944
 20
9.00691
 30
0.000000
  70
    32
  0
VERTEX
  8
0
  5
2FBA6
 10
0.954559
 20
9.01112
 30
0.000000
  70
    32
  0
VERTEX
  8
0
  5
2FBA7
 10
0.952227
 20
9.01535
 30
0.000000
  70
    32
  0
VERTEX
  8
0
  5
2FBA8
 10
0.949949
 20
9.01960
 30
0.000000
  70
    32
  0
VERTEX
  8
0
  5
2FBA9
 10
0.947724
 20
9.02388
 30
0.000000
  70
    32
  0
VERTEX
  8
0
  5
2FBAA
 10
0.945555
 20
9.02819
 30
0.000000
  70
    32
  0
VERTEX
  8
0
  5
2FBAB
 10
0.943441
 20
9.03252
 30
0.000000
  70
    32
  0
VERTEX
  8
0
  5
2FBAC
 10
0.941383
 20
9.03687
 30
0.000000
  70
    32
  0
VERTEX
  8
0
  5
2FBAD
 10
0.939384
 20
9.04125
 30
0.000000
  70
    32
  0
VERTEX
  8
0
  5
2FBAE
 10
0.937442
 20
9.04566
 30
0.000000
  70
    32
  0
VERTEX
  8
0
  5
2FBAF
 10
0.935559
 20
9.05009
 30
0.000000
  70
    32
  0
VERTEX
  8
0
  5
2FBB0
 10
0.933736
 20
9.05455
 30
0.000000
  70
    32
  0
VERTEX
  8
0
  5
2FBB1
 10
0.931973
 20
9.05903
 30
0.000000
  70
    32
  0
VERTEX
  8
0
  5
2FBB2
 10
0.930271
 20
9.06354
 30
0.000000
  70
    32
  0
VERTEX
  8
0
  5
2FBB3
 10
0.928629
 20
9.06808
 30
0.000000
  70
    32
  0
VERTEX
  8
0
  5
2FBB4
 10
0.927045
 20
9.07264
 30
0.000000
  70
    32
  0
VERTEX
  8
0
  5
2FBB5
 10
0.925517
 20
9.07722
 30
0.000000
  70
    32
  0
VERTEX
  8
0
  5
2FBB6
 10
0.924045
 20
9.08183
 30
0.000000
  70
    32
  0
VERTEX
  8
0
  5
2FBB7
 10
0.922626
 20
9.08647
 30
0.000000
  70
    32
  0
VERTEX
  8
0
  5
2FBB8
 10
0.921259
 20
9.09112
 30
0.000000
  70
    32
  0
VERTEX
  8
0
  5
2FBB9
 10
0.919943
 20
9.09580
 30
0.000000
  70
    32
  0
VERTEX
  8
0
  5
2FBBA
 10
0.918676
 20
9.10050
 30
0.000000
  70
    32
  0
VERTEX
  8
0
  5
2FBBB
 10
0.917457
 20
9.10522
 30
0.000000
  70
    32
  0
VERTEX
  8
0
  5
2FBBC
 10
0.916283
 20
9.10996
 30
0.000000
  70
    32
  0
VERTEX
  8
0
  5
2FBBD
 10
0.915155
 20
9.11472
 30
0.000000
  70
    32
  0
VERTEX
  8
0
  5
2FBBE
 10
0.914070
 20
9.11950
 30
0.000000
  70
    32
  0
VERTEX
  8
0
  5
2FBBF
 10
0.913026
 20
9.12429
 30
0.000000
  70
    32
  0
VERTEX
  8
0
  5
2FBC0
 10
0.912023
 20
9.12911
 30
0.000000
  70
    32
  0
VERTEX
  8
0
  5
2FBC1
 10
0.911058
 20
9.13394
 30
0.000000
  70
    32
  0
VERTEX
  8
0
  5
2FBC2
 10
0.910131
 20
9.13879
 30
0.000000
  70
    32
  0
VERTEX
  8
0
  5
2FBC3
 10
0.909239
 20
9.14365
 30
0.000000
  70
    32
  0
VERTEX
  8
0
  5
2FBC4
 10
0.908381
 20
9.14853
 30
0.000000
  70
    32
  0
VERTEX
  8
0
  5
2FBC5
 10
0.907557
 20
9.15342
 30
0.000000
  70
    32
  0
VERTEX
  8
0
  5
2FBC6
 10
0.906763
 20
9.15832
 30
0.000000
  70
    32
  0
VERTEX
  8
0
  5
2FBC7
 10
0.906000
 20
9.16324
 30
0.000000
  70
    32
  0
VERTEX
  8
0
  5
2FBC8
 10
0.905264
 20
9.16817
 30
0.000000
  70
    32
  0
VERTEX
  8
0
  5
2FBC9
 10
0.904556
 20
9.17312
 30
0.000000
  70
    32
  0
VERTEX
  8
0
  5
2FBCA
 10
0.903873
 20
9.17807
 30
0.000000
  70
    32
  0
VERTEX
  8
0
  5
2FBCB
 10
0.903213
 20
9.18303
 30
0.000000
  70
    32
  0
VERTEX
  8
0
  5
2FBCC
 10
0.902576
 20
9.18801
 30
0.000000
  70
    32
  0
VERTEX
  8
0
  5
2FBCD
 10
0.901960
 20
9.19299
 30
0.000000
  70
    32
  0
VERTEX
  8
0
  5
2FBCE
 10
0.901363
 20
9.19798
 30
0.000000
  70
    32
  0
VERTEX
  8
0
  5
2FBCF
 10
0.900784
 20
9.20298
 30
0.000000
  70
    32
  0
VERTEX
  8
0
  5
2FBD0
 10
0.900222
 20
9.20799
 30
0.000000
  70
    32
  0
VERTEX
  8
0
  5
2FBD1
 10
0.899674
 20
9.21300
 30
0.000000
  70
    32
  0
VERTEX
  8
0
  5
2FBD2
 10
0.899140
 20
9.21802
 30
0.000000
  70
    32
  0
VERTEX
  8
0
  5
2FBD3
 10
0.898617
 20
9.22304
 30
0.000000
  70
    32
  0
VERTEX
  8
0
  5
2FBD4
 10
0.898105
 20
9.22807
 30
0.000000
  70
    32
  0
VERTEX
  8
0
  5
2FBD5
 10
0.897602
 20
9.23310
 30
0.000000
  70
    32
  0
VERTEX
  8
0
  5
2FBD6
 10
0.897107
 20
9.23813
 30
0.000000
  70
    32
  0
VERTEX
  8
0
  5
2FBD7
 10
0.896617
 20
9.24317
 30
0.000000
  70
    32
  0
VERTEX
  8
0
  5
2FBD8
 10
0.896132
 20
9.24821
 30
0.000000
  70
    32
  0
VERTEX
  8
0
  5
2FBD9
 10
0.895650
 20
9.25325
 30
0.000000
  70
    32
  0
VERTEX
  8
0
  5
2FBDA
 10
0.895169
 20
9.25829
 30
0.000000
  70
    32
  0
SEQEND
  8
0
  5
2FBDB
  0
LINE
  5
2B8A0
  8
0
  6
CONTINUOUS
 62
     7
 10
0.7472076905950758
 20
9.2582948336663549
 30
0.0
 11
0.7472076905949621
 21
11.826520277942111
 31
0.0
  0
LINE
  5
2B8A1
  8
0
  6
CONTINUOUS
 62
     7
 10
0.4997076905949598
 20
12.389020277942111
 30
0.0
 11
0.000001476738305
 21
12.389020277942111
 31
0.0
  0
ARC
  5
2B8A2
  8
0
 10
0.4997076905949598
 20
12.139020277942111
 30
0.0
 40
0.2500000000000009
 50
269.42703265506509
 51
90.0
  0
LINE
  5
2B8A3
  8
0
  6
CONTINUOUS
 62
     7
 10
0.7472076905949621
 20
11.826520277942111
 30
0.0
 11
0.5597076905949621
 21
11.826520277942111
 31
0.0
  0
LINE
  5
2B8A4
  8
0
  6
CONTINUOUS
 62
     7
 10
0.4972076905949621
 20
11.826520277942111
 30
0.0
 11
0.4972076905949621
 21
11.88903277828603
 31
0.0
  0
LINE
  5
2B8A5
  8
0
 10
0.0000014767382481
 20
7.878552666495465
 30
0.0
 11
0.000001476738305
 21
12.389020277942111
 31
0.0
  0
LINE
  5
2B8A6
  8
0
 10
0.7472076905949621
 20
11.826520277942111
 30
0.0
 11
0.4972076905949621
 21
11.826520277942111
 31
0.0
  0
LINE
  5
2B8A7
  8
FRAME_050
 10
6.5744546621590407
 20
17.993710579095019
 30
0.0
 11
6.5744546621590407
 21
0.0000000294007805
 31
0.0
  0
ENDBLK
  5
2B8A9
  8
0
  0
BLOCK
  8
0
  2
*U18
 70
     1
 10
0.0
 20
0.0
 30
0.0
  3
*U18
  1

  0
TEXT
  5
2FA92
  8
0
 10
3.5177832928899071
 20
10.38601584255777
 30
0.0
 40
0.125
  1
Crown Moulding
  0
TEXT
  5
2FA93
  8
0
 10
3.5223876585106431
 20
10.17717091304435
 30
0.0
 40
0.125
  1
TL-AB509
  0
TEXT
  5
2FA94
  8
0
 10
3.5074661032582561
 20
9.9667059289606801
 30
0.0
 40
0.125
  1
1-5/16" x 7-9/16"
  0
TEXT
  5
2FA95
  8
0
 10
3.519403347460166
 20
9.7562409448770051
 30
0.0
 40
0.125
  1
800.66.TAGUE
  0
ENDBLK
  5
2FA97
  8
0
  0
BLOCK
  8
0
  2
*U19
 70
     1
 10
0.0
 20
0.0
 30
0.0
  3
*U19
  1

  0
TEXT
  5
2FA99
  8
0
 10
1.4086740032724709
 20
13.04264108713495
 30
0.0
 40
0.125
  1
Casing
  0
TEXT
  5
2FA9A
  8
0
 10
1.4132783688932069
 20
12.83379615762154
 30
0.0
 40
0.125
  1
TL-2019
  0
TEXT
  5
2FA9B
  8
0
 10
1.39835681364082
 20
12.62333117353786
 30
0.0
 40
0.125
  1
1-1/16" x 5-1/2"
  0
TEXT
  5
2FA9C
  8
0
 10
1.4102940578427301
 20
12.41286618945419
 30
0.0
 40
0.125
  1
800.66.TAGUE
  0
ENDBLK
  5
2FA9E
  8
0
  0
BLOCK
  8
0
  2
*U20
 70
     1
 10
0.0
 20
0.0
 30
0.0
  3
*U20
  1

  0
TEXT
  5
2FAA0
  8
0
 10
1.9061884295105971
 20
11.78127341408482
 30
0.0
 40
0.125
  1
Casing
  0
TEXT
  5
2FAA1
  8
0
 10
1.9107927951313339
 20
11.572428484571409
 30
0.0
 40
0.125
  1
TL-2318
  0
TEXT
  5
2FAA2
  8
0
 10
1.8958712398789459
 20
11.361963500487731
 30
0.0
 40
0.125
  1
13/16" x 2-1/2"
  0
TEXT
  5
2FAA3
  8
0
 10
1.907808484080856
 20
11.151498516404059
 30
0.0
 40
0.125
  1
800.66.TAGUE
  0
ENDBLK
  5
2FAA5
  8
0
  0
BLOCK
  8
0
  2
*U21
 70
     1
 10
0.0
 20
0.0
 30
0.0
  3
*U21
  1

  0
TEXT
  5
2FAA7
  8
0
 10
2.2380648505203782
 20
10.70752122569969
 30
0.0
 40
0.125
  1
Casing Assembly
  0
TEXT
  5
2FAA8
  8
0
 10
2.242669216141115
 20
10.498676296186281
 30
0.0
 40
0.125
  1
TL-2225
  0
TEXT
  5
2FAA9
  8
0
 10
2.2277476608887281
 20
10.2882113121026
 30
0.0
 40
0.125
  1
1-9/16" x 4-1/2"
  0
TEXT
  5
2FAAA
  8
0
 10
2.239684905090638
 20
10.077746328018931
 30
0.0
 40
0.125
  1
800.66.TAGUE
  0
ENDBLK
  5
2FAAC
  8
0
  0
BLOCK
  8
0
  2
*U22
 70
     1
 10
0.0
 20
0.0
 30
0.0
  3
*U22
  1

  0
TEXT
  5
2FAAE
  8
0
 10
2.45740474597793
 20
2.5787099920155621
 30
0.0
 40
0.125
  1
Chair Rail
  0
TEXT
  5
2FAAF
  8
0
 10
2.462009111598666
 20
2.3698650625021469
 30
0.0
 40
0.125
  1
TL-300
  0
TEXT
  5
2FAB0
  8
0
 10
2.4470875563462791
 20
2.1594000784184728
 30
0.0
 40
0.125
  1
1-1/16" x 2-15/16"
  0
TEXT
  5
2FAB1
  8
0
 10
2.4590248005481889
 20
1.9489350943347981
 30
0.0
 40
0.125
  1
800.66.TAGUE
  0
ENDBLK
  5
2FAB3
  8
0
  0
BLOCK
  8
0
  2
*U23
 70
     1
 10
0.0
 20
0.0
 30
0.0
  3
*U23
  1

  0
TEXT
  5
2FAB5
  8
0
 10
2.296373382618786
 20
2.154638056947094
 30
0.0
 40
0.125
  1
Chair Rail
  0
TEXT
  5
2FAB6
  8
0
 10
2.3009777482395228
 20
1.945793127433679
 30
0.0
 40
0.125
  1
TL-384
  0
TEXT
  5
2FAB7
  8
0
 10
2.2860561929871359
 20
1.7353281433500041
 30
0.0
 40
0.125
  1
1-1/8" x 2-3/4"
  0
TEXT
  5
2FAB8
  8
0
 10
2.2979934371890458
 20
1.52486315926633
 30
0.0
 40
0.125
  1
800.66.TAGUE
  0
ENDBLK
  5
2FABA
  8
0
  0
BLOCK
  8
0
  2
*U24
 70
     1
 10
0.0
 20
0.0
 30
0.0
  3
*U24
  1

  0
TEXT
  5
2FABC
  8
0
 10
1.7903030854828661
 20
1.879104976913611
 30
0.0
 40
0.125
  1
Chair Rail
  0
TEXT
  5
2FABD
  8
0
 10
1.7949074511036021
 20
1.6702600474001961
 30
0.0
 40
0.125
  1
TL-390
  0
TEXT
  5
2FABE
  8
0
 10
1.7799858958512149
 20
1.4597950633165211
 30
0.0
 40
0.125
  1
11/16" x 2-9/16"
  0
TEXT
  5
2FABF
  8
0
 10
1.791923140053125
 20
1.249330079232847
 30
0.0
 40
0.125
  1
800.66.TAGUE
  0
ENDBLK
  5
2FAC1
  8
0
  0
BLOCK
  8
0
  2
*U25
 70
     1
 10
0.0
 20
0.0
 30
0.0
  3
*U25
  1

  0
TEXT
  5
2FAC3
  8
0
 10
1.7790082072096181
 20
2.7163812729427419
 30
0.0
 40
0.125
  1
Chair Rail
  0
TEXT
  5
2FAC4
  8
0
 10
1.7836125728303549
 20
2.5075363434293272
 30
0.0
 40
0.125
  1
TL-391
  0
TEXT
  5
2FAC5
  8
0
 10
1.780372463689837
 20
2.2970713593456522
 30
0.0
 40
0.125
  1
3/4" x 3-1/2"
  0
TEXT
  5
2FAC6
  8
0
 10
1.7806282617798781
 20
2.0866063752619781
 30
0.0
 40
0.125
  1
800.66.TAGUE
  0
ENDBLK
  5
2FAC8
  8
0
  0
BLOCK
  8
0
  2
*U26
 70
     1
 10
0.0
 20
0.0
 30
0.0
  3
*U26
  1

  0
TEXT
  5
2FACA
  8
0
 10
1.979493109854592
 20
1.3931549873730249
 30
0.0
 40
0.125
  1
Chair Rail
  0
TEXT
  5
2FACB
  8
0
 10
1.984097475475328
 20
1.1843100578596091
 30
0.0
 40
0.125
  1
TL-393
  0
TEXT
  5
2FACC
  8
0
 10
1.9691759202229411
 20
0.9738450737759357
 30
0.0
 40
0.125
  1
1-1/4" x 2-1/2"
  0
TEXT
  5
2FACD
  8
0
 10
1.981113164424851
 20
0.7633800896922612
 30
0.0
 40
0.125
  1
800.66.TAGUE
  0
ENDBLK
  5
2FACF
  8
0
  0
BLOCK
  8
0
  2
*U27
 70
     1
 10
0.0
 20
0.0
 30
0.0
  3
*U27
  1

  0
TEXT
  5
2FAD1
  8
0
 10
2.213601074382983
 20
2.6517246081325689
 30
0.0
 40
0.125
  1
Chair Rail
  0
TEXT
  5
2FAD2
  8
0
 10
2.2182054400037199
 20
2.4428796786191538
 30
0.0
 40
0.125
  1
TL-538
  0
TEXT
  5
2FAD3
  8
0
 10
2.2171822476435561
 20
2.2324146945354801
 30
0.0
 40
0.125
  1
27/32" x 3-1/4"
  0
TEXT
  5
2FAD4
  8
0
 10
2.215221128953242
 20
2.021949710451806
 30
0.0
 40
0.125
  1
800.66.TAGUE
  0
ENDBLK
  5
2FAD6
  8
0
  0
BLOCK
  8
0
  2
*U28
 70
     1
 10
0.0
 20
0.0
 30
0.0
  3
*U28
  1

  0
TEXT
  5
2FAD8
  8
0
 10
2.143641095436839
 20
2.3625917493022981
 30
0.0
 40
0.125
  1
Chair Rail
  0
TEXT
  5
2FAD9
  8
0
 10
2.148245461057575
 20
2.1537468197888829
 30
0.0
 40
0.125
  1
TL-2002
  0
TEXT
  5
2FADA
  8
0
 10
2.1450053519170571
 20
1.943281835705208
 30
0.0
 40
0.125
  1
3/4" x 3"
  0
TEXT
  5
2FADB
  8
0
 10
2.1452611500070979
 20
1.7328168516215341
 30
0.0
 40
0.125
  1
800.66.TAGUE
  0
ENDBLK
  5
2FADD
  8
0
  0
BLOCK
  8
0
  2
*U29
 70
     1
 10
0.0
 20
0.0
 30
0.0
  3
*U29
  1

  0
TEXT
  5
2FADF
  8
0
 10
2.0814022841362081
 20
2.4827230287430821
 30
0.0
 40
0.125
  1
Chair Rail
  0
TEXT
  5
2FAE0
  8
0
 10
2.0860066497569441
 20
2.273878099229667
 30
0.0
 40
0.125
  1
TL-2003
  0
TEXT
  5
2FAE1
  8
0
 10
2.0818286142862759
 20
2.063413115145992
 30
0.0
 40
0.125
  1
7/8" x 3-13/16"
  0
TEXT
  5
2FAE2
  8
0
 10
2.083022338706467
 20
1.8529481310623179
 30
0.0
 40
0.125
  1
800.66.TAGUE
  0
ENDBLK
  5
2FAE4
  8
0
  0
BLOCK
  8
0
  2
*U30
 70
     1
 10
0.0
 20
0.0
 30
0.0
  3
*U30
  1

  0
TEXT
  5
2FAE6
  8
0
 10
2.396282120712645
 20
2.6371956792013558
 30
0.0
 40
0.125
  1
Chair Rail
  0
TEXT
  5
2FAE7
  8
0
 10
2.4008864863333819
 20
2.4283507496879411
 30
0.0
 40
0.125
  1
TL-2097
  0
TEXT
  5
2FAE8
  8
0
 10
2.3859649310809949
 20
2.2178857656042661
 30
0.0
 40
0.125
  1
1-1/4" x 2-7/8"
  0
TEXT
  5
2FAE9
  8
0
 10
2.3979021752829048
 20
2.007420781520592
 30
0.0
 40
0.125
  1
800.66.TAGUE
  0
ENDBLK
  5
2FAEB
  8
0
  0
BLOCK
  8
0
  2
*U31
 70
     1
 10
0.0
 20
0.0
 30
0.0
  3
*U31
  1

  0
TEXT
  5
2FAED
  8
0
 10
2.2497671895647828
 20
1.9038951213874651
 30
0.0
 40
0.125
  1
Chair Rail
  0
TEXT
  5
2FAEE
  8
0
 10
2.2543715551855201
 20
1.6950501918740499
 30
0.0
 40
0.125
  1
TL-392
  0
TEXT
  5
2FAEF
  8
0
 10
2.2394499999331319
 20
1.4845852077903761
 30
0.0
 40
0.125
  1
1-5/16" x 2-3/8"
  0
TEXT
  5
2FAF0
  8
0
 10
2.2513872441350422
 20
1.2741202237067011
 30
0.0
 40
0.125
  1
800.66.TAGUE
  0
ENDBLK
  5
2FAF2
  8
0
  0
BLOCK
  8
0
  2
*U32
 70
     1
 10
0.0
 20
0.0
 30
0.0
  3
*U32
  1

  0
TEXT
  5
2FAF4
  8
0
 10
-378.24091271939432
 20
846.73637693591525
 30
0.0
 40
0.125
  1
Chair Rail
  0
TEXT
  5
2FAF5
  8
0
 10
-378.23630835377361
 20
846.52753200640188
 30
0.0
 40
0.125
  1
TL-392
  0
TEXT
  5
2FAF6
  8
0
 10
-378.25122990902599
 20
846.31706702231816
 30
0.0
 40
0.125
  1
1-5/16" x 2-3/8"
  0
TEXT
  5
2FAF7
  8
0
 10
-378.23929266482412
 20
846.10660203823454
 30
0.0
 40
0.125
  1
800.66.TAGUE
  0
ENDBLK
  5
2FAF9
  8
0
  0
ENDSEC
  0
SECTION
  2
ENTITIES
  0
INSERT
  5
2FA70
  8
0
  2
*U32
 10
0.0
 20
0.0
 30
0.0
  0
LINE
  5
2FA71
  8
0
  6
CONTINUOUS
 10
-379.78563131077323
 20
847.06919334592578
 30
0.0
 11
-379.78563131077323
 21
847.20748124879026
 31
0.0
  0
LINE
  5
2FA72
  8
0
  6
CONTINUOUS
 10
-379.78563131077323
 20
847.20748124879026
 30
0.0
 11
-380.49067974088081
 21
847.20748124879026
 31
0.0
  0
LINE
  5
2FA73
  8
0
  6
CONTINUOUS
 10
-380.49067974088081
 20
847.20748124879026
 30
0.0
 11
-380.49067974088081
 21
846.53291423092332
 31
0.0
  0
LINE
  5
2FA74
  8
0
  6
CONTINUOUS
 10
-380.42252378105081
 20
846.48790656111669
 30
0.0
 11
-380.49067974088081
 21
846.53291423092332
 31
0.0
  0
LINE
  5
2FA75
  8
0
  6
CONTINUOUS
 10
-380.49067974088081
 20
844.83248124879037
 30
0.0
 11
-380.2444738628235
 21
844.83248124879037
 31
0.0
  0
LINE
  5
2FA76
  8
0
  6
CONTINUOUS
 10
-380.2444738628235
 20
844.83248124879037
 30
0.0
 11
-380.2444738628235
 21
844.9909496860239
 31
0.0
  0
LINE
  5
2FA77
  8
0
  6
CONTINUOUS
 10
-380.2444738628235
 20
844.9909496860239
 30
0.0
 11
-380.15242675394938
 21
845.00679653214763
 31
0.0
  0
LINE
  5
2FA78
  8
0
  6
CONTINUOUS
 10
-379.91119983753907
 20
845.53925048829365
 30
0.0
 11
-379.80963059547338
 21
845.58679101866358
 31
0.0
  0
LINE
  5
2FA79
  8
0
  6
CONTINUOUS
 10
-379.80963059547338
 20
845.58679101866358
 30
0.0
 11
-379.80963059547338
 21
845.93054443688243
 31
0.0
  0
LINE
  5
2FA7A
  8
0
  6
CONTINUOUS
 10
-379.80963059547338
 20
845.93054443688243
 30
0.0
 11
-380.0447703378257
 21
845.93054443688243
 31
0.0
  0
POLYLINE
  8
0
  5
2FBDC
  66
     1
 10
0.000000
 20
0.000000
 30
0.000000
  70
     8
  0
VERTEX
  8
0
  5
2FBDD
 10
-380.152
 20
845.007
 30
0.000000
  70
    32
  0
VERTEX
  8
0
  5
2FBDE
 10
-380.152
 20
845.009
 30
0.000000
  70
    32
  0
VERTEX
  8
0
  5
2FBDF
 10
-380.152
 20
845.012
 30
0.000000
  70
    32
  0
VERTEX
  8
0
  5
2FBE0
 10
-380.151
 20
845.015
 30
0.000000
  70
    32
  0
VERTEX
  8
0
  5
2FBE1
 10
-380.151
 20
845.017
 30
0.000000
  70
    32
  0
VERTEX
  8
0
  5
2FBE2
 10
-380.151
 20
845.020
 30
0.000000
  70
    32
  0
VERTEX
  8
0
  5
2FBE3
 10
-380.150
 20
845.022
 30
0.000000
  70
    32
  0
VERTEX
  8
0
  5
2FBE4
 10
-380.150
 20
845.025
 30
0.000000
  70
    32
  0
VERTEX
  8
0
  5
2FBE5
 10
-380.150
 20
845.028
 30
0.000000
  70
    32
  0
VERTEX
  8
0
  5
2FBE6
 10
-380.149
 20
845.030
 30
0.000000
  70
    32
  0
VERTEX
  8
0
  5
2FBE7
 10
-380.149
 20
845.033
 30
0.000000
  70
    32
  0
VERTEX
  8
0
  5
2FBE8
 10
-380.148
 20
845.035
 30
0.000000
  70
    32
  0
VERTEX
  8
0
  5
2FBE9
 10
-380.148
 20
845.038
 30
0.000000
  70
    32
  0
VERTEX
  8
0
  5
2FBEA
 10
-380.147
 20
845.041
 30
0.000000
  70
    32
  0
VERTEX
  8
0
  5
2FBEB
 10
-380.147
 20
845.043
 30
0.000000
  70
    32
  0
VERTEX
  8
0
  5
2FBEC
 10
-380.146
 20
845.046
 30
0.000000
  70
    32
  0
VERTEX
  8
0
  5
2FBED
 10
-380.145
 20
845.048
 30
0.000000
  70
    32
  0
VERTEX
  8
0
  5
2FBEE
 10
-380.145
 20
845.051
 30
0.000000
  70
    32
  0
VERTEX
  8
0
  5
2FBEF
 10
-380.144
 20
845.054
 30
0.000000
  70
    32
  0
VERTEX
  8
0
  5
2FBF0
 10
-380.144
 20
845.056
 30
0.000000
  70
    32
  0
VERTEX
  8
0
  5
2FBF1
 10
-380.143
 20
845.059
 30
0.000000
  70
    32
  0
VERTEX
  8
0
  5
2FBF2
 10
-380.142
 20
845.061
 30
0.000000
  70
    32
  0
VERTEX
  8
0
  5
2FBF3
 10
-380.141
 20
845.064
 30
0.000000
  70
    32
  0
VERTEX
  8
0
  5
2FBF4
 10
-380.141
 20
845.066
 30
0.000000
  70
    32
  0
VERTEX
  8
0
  5
2FBF5
 10
-380.140
 20
845.069
 30
0.000000
  70
    32
  0
VERTEX
  8
0
  5
2FBF6
 10
-380.139
 20
845.071
 30
0.000000
  70
    32
  0
VERTEX
  8
0
  5
2FBF7
 10
-380.138
 20
845.074
 30
0.000000
  70
    32
  0
VERTEX
  8
0
  5
2FBF8
 10
-380.137
 20
845.076
 30
0.000000
  70
    32
  0
VERTEX
  8
0
  5
2FBF9
 10
-380.137
 20
845.079
 30
0.000000
  70
    32
  0
VERTEX
  8
0
  5
2FBFA
 10
-380.136
 20
845.081
 30
0.000000
  70
    32
  0
VERTEX
  8
0
  5
2FBFB
 10
-380.135
 20
845.084
 30
0.000000
  70
    32
  0
VERTEX
  8
0
  5
2FBFC
 10
-380.134
 20
845.086
 30
0.000000
  70
    32
  0
VERTEX
  8
0
  5
2FBFD
 10
-380.133
 20
845.089
 30
0.000000
  70
    32
  0
VERTEX
  8
0
  5
2FBFE
 10
-380.132
 20
845.091
 30
0.000000
  70
    32
  0
VERTEX
  8
0
  5
2FBFF
 10
-380.131
 20
845.094
 30
0.000000
  70
    32
  0
VERTEX
  8
0
  5
2FC00
 10
-380.130
 20
845.096
 30
0.000000
  70
    32
  0
VERTEX
  8
0
  5
2FC01
 10
-380.129
 20
845.098
 30
0.000000
  70
    32
  0
VERTEX
  8
0
  5
2FC02
 10
-380.128
 20
845.101
 30
0.000000
  70
    32
  0
VERTEX
  8
0
  5
2FC03
 10
-380.127
 20
845.103
 30
0.000000
  70
    32
  0
VERTEX
  8
0
  5
2FC04
 10
-380.125
 20
845.105
 30
0.000000
  70
    32
  0
VERTEX
  8
0
  5
2FC05
 10
-380.124
 20
845.108
 30
0.000000
  70
    32
  0
VERTEX
  8
0
  5
2FC06
 10
-380.123
 20
845.110
 30
0.000000
  70
    32
  0
VERTEX
  8
0
  5
2FC07
 10
-380.122
 20
845.112
 30
0.000000
  70
    32
  0
VERTEX
  8
0
  5
2FC08
 10
-380.120
 20
845.114
 30
0.000000
  70
    32
  0
VERTEX
  8
0
  5
2FC09
 10
-380.119
 20
845.117
 30
0.000000
  70
    32
  0
VERTEX
  8
0
  5
2FC0A
 10
-380.118
 20
845.119
 30
0.000000
  70
    32
  0
VERTEX
  8
0
  5
2FC0B
 10
-380.116
 20
845.121
 30
0.000000
  70
    32
  0
VERTEX
  8
0
  5
2FC0C
 10
-380.115
 20
845.123
 30
0.000000
  70
    32
  0
VERTEX
  8
0
  5
2FC0D
 10
-380.114
 20
845.125
 30
0.000000
  70
    32
  0
VERTEX
  8
0
  5
2FC0E
 10
-380.112
 20
845.127
 30
0.000000
  70
    32
  0
VERTEX
  8
0
  5
2FC0F
 10
-380.111
 20
845.129
 30
0.000000
  70
    32
  0
VERTEX
  8
0
  5
2FC10
 10
-380.109
 20
845.131
 30
0.000000
  70
    32
  0
VERTEX
  8
0
  5
2FC11
 10
-380.108
 20
845.133
 30
0.000000
  70
    32
  0
VERTEX
  8
0
  5
2FC12
 10
-380.106
 20
845.135
 30
0.000000
  70
    32
  0
VERTEX
  8
0
  5
2FC13
 10
-380.104
 20
845.137
 30
0.000000
  70
    32
  0
VERTEX
  8
0
  5
2FC14
 10
-380.103
 20
845.139
 30
0.000000
  70
    32
  0
VERTEX
  8
0
  5
2FC15
 10
-380.101
 20
845.141
 30
0.000000
  70
    32
  0
VERTEX
  8
0
  5
2FC16
 10
-380.099
 20
845.143
 30
0.000000
  70
    32
  0
VERTEX
  8
0
  5
2FC17
 10
-380.098
 20
845.145
 30
0.000000
  70
    32
  0
VERTEX
  8
0
  5
2FC18
 10
-380.096
 20
845.147
 30
0.000000
  70
    32
  0
VERTEX
  8
0
  5
2FC19
 10
-380.094
 20
845.149
 30
0.000000
  70
    32
  0
VERTEX
  8
0
  5
2FC1A
 10
-380.093
 20
845.151
 30
0.000000
  70
    32
  0
VERTEX
  8
0
  5
2FC1B
 10
-380.091
 20
845.152
 30
0.000000
  70
    32
  0
VERTEX
  8
0
  5
2FC1C
 10
-380.089
 20
845.154
 30
0.000000
  70
    32
  0
VERTEX
  8
0
  5
2FC1D
 10
-380.087
 20
845.156
 30
0.000000
  70
    32
  0
VERTEX
  8
0
  5
2FC1E
 10
-380.085
 20
845.158
 30
0.000000
  70
    32
  0
VERTEX
  8
0
  5
2FC1F
 10
-380.083
 20
845.159
 30
0.000000
  70
    32
  0
VERTEX
  8
0
  5
2FC20
 10
-380.081
 20
845.161
 30
0.000000
  70
    32
  0
VERTEX
  8
0
  5
2FC21
 10
-380.080
 20
845.163
 30
0.000000
  70
    32
  0
VERTEX
  8
0
  5
2FC22
 10
-380.078
 20
845.165
 30
0.000000
  70
    32
  0
VERTEX
  8
0
  5
2FC23
 10
-380.076
 20
845.166
 30
0.000000
  70
    32
  0
VERTEX
  8
0
  5
2FC24
 10
-380.074
 20
845.168
 30
0.000000
  70
    32
  0
VERTEX
  8
0
  5
2FC25
 10
-380.072
 20
845.169
 30
0.000000
  70
    32
  0
VERTEX
  8
0
  5
2FC26
 10
-380.070
 20
845.171
 30
0.000000
  70
    32
  0
VERTEX
  8
0
  5
2FC27
 10
-380.068
 20
845.173
 30
0.000000
  70
    32
  0
VERTEX
  8
0
  5
2FC28
 10
-380.066
 20
845.174
 30
0.000000
  70
    32
  0
VERTEX
  8
0
  5
2FC29
 10
-380.063
 20
845.176
 30
0.000000
  70
    32
  0
VERTEX
  8
0
  5
2FC2A
 10
-380.061
 20
845.178
 30
0.000000
  70
    32
  0
VERTEX
  8
0
  5
2FC2B
 10
-380.059
 20
845.179
 30
0.000000
  70
    32
  0
VERTEX
  8
0
  5
2FC2C
 10
-380.057
 20
845.181
 30
0.000000
  70
    32
  0
VERTEX
  8
0
  5
2FC2D
 10
-380.055
 20
845.182
 30
0.000000
  70
    32
  0
VERTEX
  8
0
  5
2FC2E
 10
-380.053
 20
845.184
 30
0.000000
  70
    32
  0
VERTEX
  8
0
  5
2FC2F
 10
-380.051
 20
845.185
 30
0.000000
  70
    32
  0
VERTEX
  8
0
  5
2FC30
 10
-380.049
 20
845.187
 30
0.000000
  70
    32
  0
VERTEX
  8
0
  5
2FC31
 10
-380.046
 20
845.188
 30
0.000000
  70
    32
  0
VERTEX
  8
0
  5
2FC32
 10
-380.044
 20
845.190
 30
0.000000
  70
    32
  0
VERTEX
  8
0
  5
2FC33
 10
-380.042
 20
845.191
 30
0.000000
  70
    32
  0
VERTEX
  8
0
  5
2FC34
 10
-380.040
 20
845.193
 30
0.000000
  70
    32
  0
VERTEX
  8
0
  5
2FC35
 10
-380.038
 20
845.194
 30
0.000000
  70
    32
  0
VERTEX
  8
0
  5
2FC36
 10
-380.035
 20
845.196
 30
0.000000
  70
    32
  0
VERTEX
  8
0
  5
2FC37
 10
-380.033
 20
845.197
 30
0.000000
  70
    32
  0
VERTEX
  8
0
  5
2FC38
 10
-380.031
 20
845.199
 30
0.000000
  70
    32
  0
VERTEX
  8
0
  5
2FC39
 10
-380.029
 20
845.200
 30
0.000000
  70
    32
  0
VERTEX
  8
0
  5
2FC3A
 10
-380.027
 20
845.202
 30
0.000000
  70
    32
  0
VERTEX
  8
0
  5
2FC3B
 10
-380.024
 20
845.203
 30
0.000000
  70
    32
  0
VERTEX
  8
0
  5
2FC3C
 10
-380.022
 20
845.204
 30
0.000000
  70
    32
  0
VERTEX
  8
0
  5
2FC3D
 10
-380.020
 20
845.206
 30
0.000000
  70
    32
  0
VERTEX
  8
0
  5
2FC3E
 10
-380.017
 20
845.207
 30
0.000000
  70
    32
  0
VERTEX
  8
0
  5
2FC3F
 10
-380.015
 20
845.209
 30
0.000000
  70
    32
  0
VERTEX
  8
0
  5
2FC40
 10
-380.013
 20
845.210
 30
0.000000
  70
    32
  0
VERTEX
  8
0
  5
2FC41
 10
-380.011
 20
845.212
 30
0.000000
  70
    32
  0
VERTEX
  8
0
  5
2FC42
 10
-380.008
 20
845.213
 30
0.000000
  70
    32
  0
VERTEX
  8
0
  5
2FC43
 10
-380.006
 20
845.214
 30
0.000000
  70
    32
  0
VERTEX
  8
0
  5
2FC44
 10
-380.004
 20
845.216
 30
0.000000
  70
    32
  0
VERTEX
  8
0
  5
2FC45
 10
-380.001
 20
845.217
 30
0.000000
  70
    32
  0
VERTEX
  8
0
  5
2FC46
 10
-379.999
 20
845.219
 30
0.000000
  70
    32
  0
VERTEX
  8
0
  5
2FC47
 10
-379.997
 20
845.220
 30
0.000000
  70
    32
  0
VERTEX
  8
0
  5
2FC48
 10
-379.995
 20
845.222
 30
0.000000
  70
    32
  0
VERTEX
  8
0
  5
2FC49
 10
-379.992
 20
845.223
 30
0.000000
  70
    32
  0
VERTEX
  8
0
  5
2FC4A
 10
-379.990
 20
845.224
 30
0.000000
  70
    32
  0
VERTEX
  8
0
  5
2FC4B
 10
-379.988
 20
845.226
 30
0.000000
  70
    32
  0
VERTEX
  8
0
  5
2FC4C
 10
-379.985
 20
845.227
 30
0.000000
  70
    32
  0
VERTEX
  8
0
  5
2FC4D
 10
-379.983
 20
845.229
 30
0.000000
  70
    32
  0
VERTEX
  8
0
  5
2FC4E
 10
-379.981
 20
845.230
 30
0.000000
  70
    32
  0
VERTEX
  8
0
  5
2FC4F
 10
-379.979
 20
845.232
 30
0.000000
  70
    32
  0
VERTEX
  8
0
  5
2FC50
 10
-379.976
 20
845.233
 30
0.000000
  70
    32
  0
VERTEX
  8
0
  5
2FC51
 10
-379.974
 20
845.235
 30
0.000000
  70
    32
  0
VERTEX
  8
0
  5
2FC52
 10
-379.972
 20
845.236
 30
0.000000
  70
    32
  0
VERTEX
  8
0
  5
2FC53
 10
-379.970
 20
845.237
 30
0.000000
  70
    32
  0
VERTEX
  8
0
  5
2FC54
 10
-379.967
 20
845.239
 30
0.000000
  70
    32
  0
VERTEX
  8
0
  5
2FC55
 10
-379.965
 20
845.240
 30
0.000000
  70
    32
  0
VERTEX
  8
0
  5
2FC56
 10
-379.963
 20
845.242
 30
0.000000
  70
    32
  0
VERTEX
  8
0
  5
2FC57
 10
-379.961
 20
845.243
 30
0.000000
  70
    32
  0
VERTEX
  8
0
  5
2FC58
 10
-379.958
 20
845.245
 30
0.000000
  70
    32
  0
VERTEX
  8
0
  5
2FC59
 10
-379.956
 20
845.246
 30
0.000000
  70
    32
  0
VERTEX
  8
0
  5
2FC5A
 10
-379.954
 20
845.248
 30
0.000000
  70
    32
  0
VERTEX
  8
0
  5
2FC5B
 10
-379.952
 20
845.249
 30
0.000000
  70
    32
  0
VERTEX
  8
0
  5
2FC5C
 10
-379.950
 20
845.251
 30
0.000000
  70
    32
  0
VERTEX
  8
0
  5
2FC5D
 10
-379.948
 20
845.253
 30
0.000000
  70
    32
  0
VERTEX
  8
0
  5
2FC5E
 10
-379.945
 20
845.254
 30
0.000000
  70
    32
  0
VERTEX
  8
0
  5
2FC5F
 10
-379.943
 20
845.256
 30
0.000000
  70
    32
  0
VERTEX
  8
0
  5
2FC60
 10
-379.941
 20
845.257
 30
0.000000
  70
    32
  0
VERTEX
  8
0
  5
2FC61
 10
-379.939
 20
845.259
 30
0.000000
  70
    32
  0
VERTEX
  8
0
  5
2FC62
 10
-379.937
 20
845.260
 30
0.000000
  70
    32
  0
VERTEX
  8
0
  5
2FC63
 10
-379.935
 20
845.262
 30
0.000000
  70
    32
  0
VERTEX
  8
0
  5
2FC64
 10
-379.933
 20
845.264
 30
0.000000
  70
    32
  0
VERTEX
  8
0
  5
2FC65
 10
-379.931
 20
845.265
 30
0.000000
  70
    32
  0
VERTEX
  8
0
  5
2FC66
 10
-379.929
 20
845.267
 30
0.000000
  70
    32
  0
VERTEX
  8
0
  5
2FC67
 10
-379.927
 20
845.269
 30
0.000000
  70
    32
  0
VERTEX
  8
0
  5
2FC68
 10
-379.925
 20
845.270
 30
0.000000
  70
    32
  0
VERTEX
  8
0
  5
2FC69
 10
-379.923
 20
845.272
 30
0.000000
  70
    32
  0
VERTEX
  8
0
  5
2FC6A
 10
-379.921
 20
845.274
 30
0.000000
  70
    32
  0
VERTEX
  8
0
  5
2FC6B
 10
-379.919
 20
845.276
 30
0.000000
  70
    32
  0
VERTEX
  8
0
  5
2FC6C
 10
-379.917
 20
845.277
 30
0.000000
  70
    32
  0
VERTEX
  8
0
  5
2FC6D
 10
-379.915
 20
845.279
 30
0.000000
  70
    32
  0
VERTEX
  8
0
  5
2FC6E
 10
-379.913
 20
845.281
 30
0.000000
  70
    32
  0
VERTEX
  8
0
  5
2FC6F
 10
-379.911
 20
845.283
 30
0.000000
  70
    32
  0
VERTEX
  8
0
  5
2FC70
 10
-379.909
 20
845.284
 30
0.000000
  70
    32
  0
VERTEX
  8
0
  5
2FC71
 10
-379.907
 20
845.286
 30
0.000000
  70
    32
  0
VERTEX
  8
0
  5
2FC72
 10
-379.906
 20
845.288
 30
0.000000
  70
    32
  0
VERTEX
  8
0
  5
2FC73
 10
-379.904
 20
845.290
 30
0.000000
  70
    32
  0
VERTEX
  8
0
  5
2FC74
 10
-379.902
 20
845.292
 30
0.000000
  70
    32
  0
VERTEX
  8
0
  5
2FC75
 10
-379.900
 20
845.294
 30
0.000000
  70
    32
  0
VERTEX
  8
0
  5
2FC76
 10
-379.899
 20
845.296
 30
0.000000
  70
    32
  0
VERTEX
  8
0
  5
2FC77
 10
-379.897
 20
845.298
 30
0.000000
  70
    32
  0
VERTEX
  8
0
  5
2FC78
 10
-379.895
 20
845.300
 30
0.000000
  70
    32
  0
VERTEX
  8
0
  5
2FC79
 10
-379.894
 20
845.302
 30
0.000000
  70
    32
  0
VERTEX
  8
0
  5
2FC7A
 10
-379.892
 20
845.304
 30
0.000000
  70
    32
  0
VERTEX
  8
0
  5
2FC7B
 10
-379.891
 20
845.306
 30
0.000000
  70
    32
  0
VERTEX
  8
0
  5
2FC7C
 10
-379.889
 20
845.308
 30
0.000000
  70
    32
  0
VERTEX
  8
0
  5
2FC7D
 10
-379.887
 20
845.310
 30
0.000000
  70
    32
  0
VERTEX
  8
0
  5
2FC7E
 10
-379.886
 20
845.312
 30
0.000000
  70
    32
  0
VERTEX
  8
0
  5
2FC7F
 10
-379.885
 20
845.314
 30
0.000000
  70
    32
  0
VERTEX
  8
0
  5
2FC80
 10
-379.883
 20
845.316
 30
0.000000
  70
    32
  0
VERTEX
  8
0
  5
2FC81
 10
-379.882
 20
845.319
 30
0.000000
  70
    32
  0
VERTEX
  8
0
  5
2FC82
 10
-379.880
 20
845.321
 30
0.000000
  70
    32
  0
VERTEX
  8
0
  5
2FC83
 10
-379.879
 20
845.323
 30
0.000000
  70
    32
  0
VERTEX
  8
0
  5
2FC84
 10
-379.878
 20
845.325
 30
0.000000
  70
    32
  0
VERTEX
  8
0
  5
2FC85
 10
-379.876
 20
845.328
 30
0.000000
  70
    32
  0
VERTEX
  8
0
  5
2FC86
 10
-379.875
 20
845.330
 30
0.000000
  70
    32
  0
VERTEX
  8
0
  5
2FC87
 10
-379.874
 20
845.332
 30
0.000000
  70
    32
  0
VERTEX
  8
0
  5
2FC88
 10
-379.873
 20
845.335
 30
0.000000
  70
    32
  0
VERTEX
  8
0
  5
2FC89
 10
-379.872
 20
845.337
 30
0.000000
  70
    32
  0
VERTEX
  8
0
  5
2FC8A
 10
-379.870
 20
845.339
 30
0.000000
  70
    32
  0
VERTEX
  8
0
  5
2FC8B
 10
-379.869
 20
845.342
 30
0.000000
  70
    32
  0
VERTEX
  8
0
  5
2FC8C
 10
-379.868
 20
845.344
 30
0.000000
  70
    32
  0
VERTEX
  8
0
  5
2FC8D
 10
-379.867
 20
845.347
 30
0.000000
  70
    32
  0
VERTEX
  8
0
  5
2FC8E
 10
-379.866
 20
845.349
 30
0.000000
  70
    32
  0
VERTEX
  8
0
  5
2FC8F
 10
-379.865
 20
845.352
 30
0.000000
  70
    32
  0
VERTEX
  8
0
  5
2FC90
 10
-379.865
 20
845.354
 30
0.000000
  70
    32
  0
VERTEX
  8
0
  5
2FC91
 10
-379.864
 20
845.357
 30
0.000000
  70
    32
  0
VERTEX
  8
0
  5
2FC92
 10
-379.863
 20
845.359
 30
0.000000
  70
    32
  0
VERTEX
  8
0
  5
2FC93
 10
-379.862
 20
845.362
 30
0.000000
  70
    32
  0
VERTEX
  8
0
  5
2FC94
 10
-379.861
 20
845.364
 30
0.000000
  70
    32
  0
VERTEX
  8
0
  5
2FC95
 10
-379.861
 20
845.367
 30
0.000000
  70
    32
  0
VERTEX
  8
0
  5
2FC96
 10
-379.860
 20
845.370
 30
0.000000
  70
    32
  0
VERTEX
  8
0
  5
2FC97
 10
-379.859
 20
845.372
 30
0.000000
  70
    32
  0
VERTEX
  8
0
  5
2FC98
 10
-379.859
 20
845.375
 30
0.000000
  70
    32
  0
VERTEX
  8
0
  5
2FC99
 10
-379.858
 20
845.377
 30
0.000000
  70
    32
  0
VERTEX
  8
0
  5
2FC9A
 10
-379.858
 20
845.380
 30
0.000000
  70
    32
  0
VERTEX
  8
0
  5
2FC9B
 10
-379.857
 20
845.383
 30
0.000000
  70
    32
  0
VERTEX
  8
0
  5
2FC9C
 10
-379.857
 20
845.385
 30
0.000000
  70
    32
  0
VERTEX
  8
0
  5
2FC9D
 10
-379.856
 20
845.388
 30
0.000000
  70
    32
  0
VERTEX
  8
0
  5
2FC9E
 10
-379.856
 20
845.391
 30
0.000000
  70
    32
  0
VERTEX
  8
0
  5
2FC9F
 10
-379.856
 20
845.393
 30
0.000000
  70
    32
  0
VERTEX
  8
0
  5
2FCA0
 10
-379.855
 20
845.396
 30
0.000000
  70
    32
  0
VERTEX
  8
0
  5
2FCA1
 10
-379.855
 20
845.398
 30
0.000000
  70
    32
  0
VERTEX
  8
0
  5
2FCA2
 10
-379.855
 20
845.401
 30
0.000000
  70
    32
  0
VERTEX
  8
0
  5
2FCA3
 10
-379.855
 20
845.404
 30
0.000000
  70
    32
  0
VERTEX
  8
0
  5
2FCA4
 10
-379.855
 20
845.406
 30
0.000000
  70
    32
  0
VERTEX
  8
0
  5
2FCA5
 10
-379.855
 20
845.409
 30
0.000000
  70
    32
  0
VERTEX
  8
0
  5
2FCA6
 10
-379.855
 20
845.412
 30
0.000000
  70
    32
  0
VERTEX
  8
0
  5
2FCA7
 10
-379.855
 20
845.414
 30
0.000000
  70
    32
  0
VERTEX
  8
0
  5
2FCA8
 10
-379.855
 20
845.417
 30
0.000000
  70
    32
  0
VERTEX
  8
0
  5
2FCA9
 10
-379.855
 20
845.420
 30
0.000000
  70
    32
  0
VERTEX
  8
0
  5
2FCAA
 10
-379.855
 20
845.422
 30
0.000000
  70
    32
  0
VERTEX
  8
0
  5
2FCAB
 10
-379.856
 20
845.425
 30
0.000000
  70
    32
  0
VERTEX
  8
0
  5
2FCAC
 10
-379.856
 20
845.427
 30
0.000000
  70
    32
  0
VERTEX
  8
0
  5
2FCAD
 10
-379.856
 20
845.430
 30
0.000000
  70
    32
  0
VERTEX
  8
0
  5
2FCAE
 10
-379.857
 20
845.433
 30
0.000000
  70
    32
  0
VERTEX
  8
0
  5
2FCAF
 10
-379.857
 20
845.435
 30
0.000000
  70
    32
  0
VERTEX
  8
0
  5
2FCB0
 10
-379.858
 20
845.438
 30
0.000000
  70
    32
  0
VERTEX
  8
0
  5
2FCB1
 10
-379.858
 20
845.440
 30
0.000000
  70
    32
  0
VERTEX
  8
0
  5
2FCB2
 10
-379.859
 20
845.443
 30
0.000000
  70
    32
  0
VERTEX
  8
0
  5
2FCB3
 10
-379.859
 20
845.445
 30
0.000000
  70
    32
  0
VERTEX
  8
0
  5
2FCB4
 10
-379.860
 20
845.448
 30
0.000000
  70
    32
  0
VERTEX
  8
0
  5
2FCB5
 10
-379.861
 20
845.450
 30
0.000000
  70
    32
  0
VERTEX
  8
0
  5
2FCB6
 10
-379.861
 20
845.453
 30
0.000000
  70
    32
  0
VERTEX
  8
0
  5
2FCB7
 10
-379.862
 20
845.455
 30
0.000000
  70
    32
  0
VERTEX
  8
0
  5
2FCB8
 10
-379.863
 20
845.458
 30
0.000000
  70
    32
  0
VERTEX
  8
0
  5
2FCB9
 10
-379.864
 20
845.460
 30
0.000000
  70
    32
  0
VERTEX
  8
0
  5
2FCBA
 10
-379.865
 20
845.463
 30
0.000000
  70
    32
  0
VERTEX
  8
0
  5
2FCBB
 10
-379.866
 20
845.465
 30
0.000000
  70
    32
  0
VERTEX
  8
0
  5
2FCBC
 10
-379.867
 20
845.468
 30
0.000000
  70
    32
  0
VERTEX
  8
0
  5
2FCBD
 10
-379.868
 20
845.470
 30
0.000000
  70
    32
  0
VERTEX
  8
0
  5
2FCBE
 10
-379.869
 20
845.473
 30
0.000000
  70
    32
  0
VERTEX
  8
0
  5
2FCBF
 10
-379.870
 20
845.475
 30
0.000000
  70
    32
  0
VERTEX
  8
0
  5
2FCC0
 10
-379.871
 20
845.477
 30
0.000000
  70
    32
  0
VERTEX
  8
0
  5
2FCC1
 10
-379.872
 20
845.480
 30
0.000000
  70
    32
  0
VERTEX
  8
0
  5
2FCC2
 10
-379.873
 20
845.482
 30
0.000000
  70
    32
  0
VERTEX
  8
0
  5
2FCC3
 10
-379.874
 20
845.484
 30
0.000000
  70
    32
  0
VERTEX
  8
0
  5
2FCC4
 10
-379.876
 20
845.487
 30
0.000000
  70
    32
  0
VERTEX
  8
0
  5
2FCC5
 10
-379.877
 20
845.489
 30
0.000000
  70
    32
  0
VERTEX
  8
0
  5
2FCC6
 10
-379.878
 20
845.491
 30
0.000000
  70
    32
  0
VERTEX
  8
0
  5
2FCC7
 10
-379.879
 20
845.494
 30
0.000000
  70
    32
  0
VERTEX
  8
0
  5
2FCC8
 10
-379.881
 20
845.496
 30
0.000000
  70
    32
  0
VERTEX
  8
0
  5
2FCC9
 10
-379.882
 20
845.498
 30
0.000000
  70
    32
  0
VERTEX
  8
0
  5
2FCCA
 10
-379.884
 20
845.501
 30
0.000000
  70
    32
  0
VERTEX
  8
0
  5
2FCCB
 10
-379.885
 20
845.503
 30
0.000000
  70
    32
  0
VERTEX
  8
0
  5
2FCCC
 10
-379.886
 20
845.505
 30
0.000000
  70
    32
  0
VERTEX
  8
0
  5
2FCCD
 10
-379.888
 20
845.507
 30
0.000000
  70
    32
  0
VERTEX
  8
0
  5
2FCCE
 10
-379.889
 20
845.510
 30
0.000000
  70
    32
  0
VERTEX
  8
0
  5
2FCCF
 10
-379.891
 20
845.512
 30
0.000000
  70
    32
  0
VERTEX
  8
0
  5
2FCD0
 10
-379.892
 20
845.514
 30
0.000000
  70
    32
  0
VERTEX
  8
0
  5
2FCD1
 10
-379.894
 20
845.516
 30
0.000000
  70
    32
  0
VERTEX
  8
0
  5
2FCD2
 10
-379.895
 20
845.518
 30
0.000000
  70
    32
  0
VERTEX
  8
0
  5
2FCD3
 10
-379.897
 20
845.520
 30
0.000000
  70
    32
  0
VERTEX
  8
0
  5
2FCD4
 10
-379.898
 20
845.523
 30
0.000000
  70
    32
  0
VERTEX
  8
0
  5
2FCD5
 10
-379.900
 20
845.525
 30
0.000000
  70
    32
  0
VERTEX
  8
0
  5
2FCD6
 10
-379.902
 20
845.527
 30
0.000000
  70
    32
  0
VERTEX
  8
0
  5
2FCD7
 10
-379.903
 20
845.529
 30
0.000000
  70
    32
  0
VERTEX
  8
0
  5
2FCD8
 10
-379.905
 20
845.531
 30
0.000000
  70
    32
  0
VERTEX
  8
0
  5
2FCD9
 10
-379.906
 20
845.533
 30
0.000000
  70
    32
  0
VERTEX
  8
0
  5
2FCDA
 10
-379.908
 20
845.535
 30
0.000000
  70
    32
  0
VERTEX
  8
0
  5
2FCDB
 10
-379.910
 20
845.537
 30
0.000000
  70
    32
  0
VERTEX
  8
0
  5
2FCDC
 10
-379.911
 20
845.539
 30
0.000000
  70
    32
  0
SEQEND
  8
0
  5
2FCDD
  0
LINE
  5
2FA7C
  8
0
  6
CONTINUOUS
 10
-380.42252378105081
 20
845.51689340058238
 30
0.0
 11
-380.49067974088081
 21
845.47188573077597
 31
0.0
  0
LINE
  5
2FA7D
  8
0
  6
CONTINUOUS
 10
-380.49067974088081
 20
845.47188573077597
 30
0.0
 11
-380.49067974088081
 21
844.83248124879037
 31
0.0
  0
POLYLINE
  8
0
  5
2FCDE
  66
     1
 10
0.000000
 20
0.000000
 30
0.000000
  70
     8
  0
VERTEX
  8
0
  5
2FCDF
 10
-380.045
 20
845.931
 30
0.000000
  70
    32
  0
VERTEX
  8
0
  5
2FCE0
 10
-380.044
 20
845.935
 30
0.000000
  70
    32
  0
VERTEX
  8
0
  5
2FCE1
 10
-380.043
 20
845.940
 30
0.000000
  70
    32
  0
VERTEX
  8
0
  5
2FCE2
 10
-380.043
 20
845.945
 30
0.000000
  70
    32
  0
VERTEX
  8
0
  5
2FCE3
 10
-380.042
 20
845.950
 30
0.000000
  70
    32
  0
VERTEX
  8
0
  5
2FCE4
 10
-380.041
 20
845.955
 30
0.000000
  70
    32
  0
VERTEX
  8
0
  5
2FCE5
 10
-380.040
 20
845.960
 30
0.000000
  70
    32
  0
VERTEX
  8
0
  5
2FCE6
 10
-380.039
 20
845.965
 30
0.000000
  70
    32
  0
VERTEX
  8
0
  5
2FCE7
 10
-380.039
 20
845.970
 30
0.000000
  70
    32
  0
VERTEX
  8
0
  5
2FCE8
 10
-380.038
 20
845.975
 30
0.000000
  70
    32
  0
VERTEX
  8
0
  5
2FCE9
 10
-380.037
 20
845.980
 30
0.000000
  70
    32
  0
VERTEX
  8
0
  5
2FCEA
 10
-380.036
 20
845.985
 30
0.000000
  70
    32
  0
VERTEX
  8
0
  5
2FCEB
 10
-380.035
 20
845.990
 30
0.000000
  70
    32
  0
VERTEX
  8
0
  5
2FCEC
 10
-380.034
 20
845.995
 30
0.000000
  70
    32
  0
VERTEX
  8
0
  5
2FCED
 10
-380.033
 20
846.000
 30
0.000000
  70
    32
  0
VERTEX
  8
0
  5
2FCEE
 10
-380.031
 20
846.004
 30
0.000000
  70
    32
  0
VERTEX
  8
0
  5
2FCEF
 10
-380.030
 20
846.009
 30
0.000000
  70
    32
  0
VERTEX
  8
0
  5
2FCF0
 10
-380.029
 20
846.014
 30
0.000000
  70
    32
  0
VERTEX
  8
0
  5
2FCF1
 10
-380.028
 20
846.019
 30
0.000000
  70
    32
  0
VERTEX
  8
0
  5
2FCF2
 10
-380.027
 20
846.024
 30
0.000000
  70
    32
  0
VERTEX
  8
0
  5
2FCF3
 10
-380.025
 20
846.029
 30
0.000000
  70
    32
  0
VERTEX
  8
0
  5
2FCF4
 10
-380.024
 20
846.034
 30
0.000000
  70
    32
  0
VERTEX
  8
0
  5
2FCF5
 10
-380.022
 20
846.038
 30
0.000000
  70
    32
  0
VERTEX
  8
0
  5
2FCF6
 10
-380.021
 20
846.043
 30
0.000000
  70
    32
  0
VERTEX
  8
0
  5
2FCF7
 10
-380.019
 20
846.048
 30
0.000000
  70
    32
  0
VERTEX
  8
0
  5
2FCF8
 10
-380.018
 20
846.053
 30
0.000000
  70
    32
  0
VERTEX
  8
0
  5
2FCF9
 10
-380.016
 20
846.057
 30
0.000000
  70
    32
  0
VERTEX
  8
0
  5
2FCFA
 10
-380.014
 20
846.062
 30
0.000000
  70
    32
  0
VERTEX
  8
0
  5
2FCFB
 10
-380.013
 20
846.067
 30
0.000000
  70
    32
  0
VERTEX
  8
0
  5
2FCFC
 10
-380.011
 20
846.071
 30
0.000000
  70
    32
  0
VERTEX
  8
0
  5
2FCFD
 10
-380.009
 20
846.076
 30
0.000000
  70
    32
  0
VERTEX
  8
0
  5
2FCFE
 10
-380.007
 20
846.081
 30
0.000000
  70
    32
  0
VERTEX
  8
0
  5
2FCFF
 10
-380.005
 20
846.085
 30
0.000000
  70
    32
  0
VERTEX
  8
0
  5
2FD00
 10
-380.003
 20
846.090
 30
0.000000
  70
    32
  0
VERTEX
  8
0
  5
2FD01
 10
-380.001
 20
846.094
 30
0.000000
  70
    32
  0
VERTEX
  8
0
  5
2FD02
 10
-379.999
 20
846.099
 30
0.000000
  70
    32
  0
VERTEX
  8
0
  5
2FD03
 10
-379.997
 20
846.103
 30
0.000000
  70
    32
  0
VERTEX
  8
0
  5
2FD04
 10
-379.995
 20
846.108
 30
0.000000
  70
    32
  0
VERTEX
  8
0
  5
2FD05
 10
-379.993
 20
846.112
 30
0.000000
  70
    32
  0
VERTEX
  8
0
  5
2FD06
 10
-379.990
 20
846.116
 30
0.000000
  70
    32
  0
VERTEX
  8
0
  5
2FD07
 10
-379.988
 20
846.121
 30
0.000000
  70
    32
  0
VERTEX
  8
0
  5
2FD08
 10
-379.986
 20
846.125
 30
0.000000
  70
    32
  0
VERTEX
  8
0
  5
2FD09
 10
-379.983
 20
846.129
 30
0.000000
  70
    32
  0
VERTEX
  8
0
  5
2FD0A
 10
-379.980
 20
846.133
 30
0.000000
  70
    32
  0
VERTEX
  8
0
  5
2FD0B
 10
-379.978
 20
846.137
 30
0.000000
  70
    32
  0
VERTEX
  8
0
  5
2FD0C
 10
-379.975
 20
846.141
 30
0.000000
  70
    32
  0
VERTEX
  8
0
  5
2FD0D
 10
-379.972
 20
846.145
 30
0.000000
  70
    32
  0
VERTEX
  8
0
  5
2FD0E
 10
-379.970
 20
846.149
 30
0.000000
  70
    32
  0
VERTEX
  8
0
  5
2FD0F
 10
-379.967
 20
846.153
 30
0.000000
  70
    32
  0
VERTEX
  8
0
  5
2FD10
 10
-379.964
 20
846.157
 30
0.000000
  70
    32
  0
VERTEX
  8
0
  5
2FD11
 10
-379.961
 20
846.161
 30
0.000000
  70
    32
  0
VERTEX
  8
0
  5
2FD12
 10
-379.958
 20
846.165
 30
0.000000
  70
    32
  0
VERTEX
  8
0
  5
2FD13
 10
-379.955
 20
846.169
 30
0.000000
  70
    32
  0
VERTEX
  8
0
  5
2FD14
 10
-379.952
 20
846.173
 30
0.000000
  70
    32
  0
VERTEX
  8
0
  5
2FD15
 10
-379.949
 20
846.176
 30
0.000000
  70
    32
  0
VERTEX
  8
0
  5
2FD16
 10
-379.946
 20
846.180
 30
0.000000
  70
    32
  0
VERTEX
  8
0
  5
2FD17
 10
-379.942
 20
846.184
 30
0.000000
  70
    32
  0
VERTEX
  8
0
  5
2FD18
 10
-379.939
 20
846.188
 30
0.000000
  70
    32
  0
VERTEX
  8
0
  5
2FD19
 10
-379.936
 20
846.191
 30
0.000000
  70
    32
  0
VERTEX
  8
0
  5
2FD1A
 10
-379.933
 20
846.195
 30
0.000000
  70
    32
  0
VERTEX
  8
0
  5
2FD1B
 10
-379.929
 20
846.198
 30
0.000000
  70
    32
  0
VERTEX
  8
0
  5
2FD1C
 10
-379.926
 20
846.202
 30
0.000000
  70
    32
  0
VERTEX
  8
0
  5
2FD1D
 10
-379.922
 20
846.205
 30
0.000000
  70
    32
  0
VERTEX
  8
0
  5
2FD1E
 10
-379.919
 20
846.209
 30
0.000000
  70
    32
  0
VERTEX
  8
0
  5
2FD1F
 10
-379.915
 20
846.212
 30
0.000000
  70
    32
  0
VERTEX
  8
0
  5
2FD20
 10
-379.912
 20
846.216
 30
0.000000
  70
    32
  0
VERTEX
  8
0
  5
2FD21
 10
-379.908
 20
846.219
 30
0.000000
  70
    32
  0
VERTEX
  8
0
  5
2FD22
 10
-379.904
 20
846.223
 30
0.000000
  70
    32
  0
VERTEX
  8
0
  5
2FD23
 10
-379.901
 20
846.226
 30
0.000000
  70
    32
  0
VERTEX
  8
0
  5
2FD24
 10
-379.897
 20
846.230
 30
0.000000
  70
    32
  0
VERTEX
  8
0
  5
2FD25
 10
-379.893
 20
846.233
 30
0.000000
  70
    32
  0
VERTEX
  8
0
  5
2FD26
 10
-379.890
 20
846.236
 30
0.000000
  70
    32
  0
VERTEX
  8
0
  5
2FD27
 10
-379.886
 20
846.240
 30
0.000000
  70
    32
  0
VERTEX
  8
0
  5
2FD28
 10
-379.882
 20
846.243
 30
0.000000
  70
    32
  0
VERTEX
  8
0
  5
2FD29
 10
-379.878
 20
846.246
 30
0.000000
  70
    32
  0
VERTEX
  8
0
  5
2FD2A
 10
-379.874
 20
846.249
 30
0.000000
  70
    32
  0
VERTEX
  8
0
  5
2FD2B
 10
-379.870
 20
846.253
 30
0.000000
  70
    32
  0
VERTEX
  8
0
  5
2FD2C
 10
-379.867
 20
846.256
 30
0.000000
  70
    32
  0
VERTEX
  8
0
  5
2FD2D
 10
-379.863
 20
846.259
 30
0.000000
  70
    32
  0
VERTEX
  8
0
  5
2FD2E
 10
-379.859
 20
846.262
 30
0.000000
  70
    32
  0
VERTEX
  8
0
  5
2FD2F
 10
-379.855
 20
846.266
 30
0.000000
  70
    32
  0
VERTEX
  8
0
  5
2FD30
 10
-379.851
 20
846.269
 30
0.000000
  70
    32
  0
VERTEX
  8
0
  5
2FD31
 10
-379.847
 20
846.272
 30
0.000000
  70
    32
  0
VERTEX
  8
0
  5
2FD32
 10
-379.843
 20
846.275
 30
0.000000
  70
    32
  0
VERTEX
  8
0
  5
2FD33
 10
-379.839
 20
846.278
 30
0.000000
  70
    32
  0
VERTEX
  8
0
  5
2FD34
 10
-379.835
 20
846.281
 30
0.000000
  70
    32
  0
VERTEX
  8
0
  5
2FD35
 10
-379.831
 20
846.284
 30
0.000000
  70
    32
  0
VERTEX
  8
0
  5
2FD36
 10
-379.827
 20
846.288
 30
0.000000
  70
    32
  0
VERTEX
  8
0
  5
2FD37
 10
-379.822
 20
846.291
 30
0.000000
  70
    32
  0
VERTEX
  8
0
  5
2FD38
 10
-379.818
 20
846.294
 30
0.000000
  70
    32
  0
VERTEX
  8
0
  5
2FD39
 10
-379.814
 20
846.297
 30
0.000000
  70
    32
  0
VERTEX
  8
0
  5
2FD3A
 10
-379.810
 20
846.300
 30
0.000000
  70
    32
  0
VERTEX
  8
0
  5
2FD3B
 10
-379.806
 20
846.303
 30
0.000000
  70
    32
  0
VERTEX
  8
0
  5
2FD3C
 10
-379.802
 20
846.306
 30
0.000000
  70
    32
  0
VERTEX
  8
0
  5
2FD3D
 10
-379.798
 20
846.309
 30
0.000000
  70
    32
  0
VERTEX
  8
0
  5
2FD3E
 10
-379.794
 20
846.312
 30
0.000000
  70
    32
  0
VERTEX
  8
0
  5
2FD3F
 10
-379.789
 20
846.315
 30
0.000000
  70
    32
  0
VERTEX
  8
0
  5
2FD40
 10
-379.785
 20
846.318
 30
0.000000
  70
    32
  0
VERTEX
  8
0
  5
2FD41
 10
-379.781
 20
846.321
 30
0.000000
  70
    32
  0
VERTEX
  8
0
  5
2FD42
 10
-379.777
 20
846.324
 30
0.000000
  70
    32
  0
VERTEX
  8
0
  5
2FD43
 10
-379.773
 20
846.328
 30
0.000000
  70
    32
  0
VERTEX
  8
0
  5
2FD44
 10
-379.769
 20
846.331
 30
0.000000
  70
    32
  0
VERTEX
  8
0
  5
2FD45
 10
-379.765
 20
846.334
 30
0.000000
  70
    32
  0
VERTEX
  8
0
  5
2FD46
 10
-379.761
 20
846.337
 30
0.000000
  70
    32
  0
VERTEX
  8
0
  5
2FD47
 10
-379.756
 20
846.340
 30
0.000000
  70
    32
  0
VERTEX
  8
0
  5
2FD48
 10
-379.752
 20
846.343
 30
0.000000
  70
    32
  0
VERTEX
  8
0
  5
2FD49
 10
-379.748
 20
846.346
 30
0.000000
  70
    32
  0
VERTEX
  8
0
  5
2FD4A
 10
-379.744
 20
846.349
 30
0.000000
  70
    32
  0
VERTEX
  8
0
  5
2FD4B
 10
-379.740
 20
846.352
 30
0.000000
  70
    32
  0
VERTEX
  8
0
  5
2FD4C
 10
-379.736
 20
846.355
 30
0.000000
  70
    32
  0
VERTEX
  8
0
  5
2FD4D
 10
-379.732
 20
846.358
 30
0.000000
  70
    32
  0
VERTEX
  8
0
  5
2FD4E
 10
-379.728
 20
846.362
 30
0.000000
  70
    32
  0
VERTEX
  8
0
  5
2FD4F
 10
-379.724
 20
846.365
 30
0.000000
  70
    32
  0
VERTEX
  8
0
  5
2FD50
 10
-379.720
 20
846.368
 30
0.000000
  70
    32
  0
VERTEX
  8
0
  5
2FD51
 10
-379.716
 20
846.371
 30
0.000000
  70
    32
  0
VERTEX
  8
0
  5
2FD52
 10
-379.712
 20
846.374
 30
0.000000
  70
    32
  0
VERTEX
  8
0
  5
2FD53
 10
-379.708
 20
846.377
 30
0.000000
  70
    32
  0
VERTEX
  8
0
  5
2FD54
 10
-379.704
 20
846.380
 30
0.000000
  70
    32
  0
VERTEX
  8
0
  5
2FD55
 10
-379.700
 20
846.384
 30
0.000000
  70
    32
  0
VERTEX
  8
0
  5
2FD56
 10
-379.696
 20
846.387
 30
0.000000
  70
    32
  0
VERTEX
  8
0
  5
2FD57
 10
-379.692
 20
846.390
 30
0.000000
  70
    32
  0
VERTEX
  8
0
  5
2FD58
 10
-379.689
 20
846.393
 30
0.000000
  70
    32
  0
VERTEX
  8
0
  5
2FD59
 10
-379.685
 20
846.397
 30
0.000000
  70
    32
  0
VERTEX
  8
0
  5
2FD5A
 10
-379.681
 20
846.400
 30
0.000000
  70
    32
  0
VERTEX
  8
0
  5
2FD5B
 10
-379.677
 20
846.403
 30
0.000000
  70
    32
  0
VERTEX
  8
0
  5
2FD5C
 10
-379.673
 20
846.407
 30
0.000000
  70
    32
  0
VERTEX
  8
0
  5
2FD5D
 10
-379.670
 20
846.410
 30
0.000000
  70
    32
  0
VERTEX
  8
0
  5
2FD5E
 10
-379.666
 20
846.413
 30
0.000000
  70
    32
  0
VERTEX
  8
0
  5
2FD5F
 10
-379.662
 20
846.417
 30
0.000000
  70
    32
  0
VERTEX
  8
0
  5
2FD60
 10
-379.659
 20
846.420
 30
0.000000
  70
    32
  0
VERTEX
  8
0
  5
2FD61
 10
-379.655
 20
846.424
 30
0.000000
  70
    32
  0
VERTEX
  8
0
  5
2FD62
 10
-379.652
 20
846.427
 30
0.000000
  70
    32
  0
VERTEX
  8
0
  5
2FD63
 10
-379.648
 20
846.430
 30
0.000000
  70
    32
  0
VERTEX
  8
0
  5
2FD64
 10
-379.645
 20
846.434
 30
0.000000
  70
    32
  0
VERTEX
  8
0
  5
2FD65
 10
-379.641
 20
846.438
 30
0.000000
  70
    32
  0
VERTEX
  8
0
  5
2FD66
 10
-379.638
 20
846.441
 30
0.000000
  70
    32
  0
VERTEX
  8
0
  5
2FD67
 10
-379.635
 20
846.445
 30
0.000000
  70
    32
  0
VERTEX
  8
0
  5
2FD68
 10
-379.631
 20
846.448
 30
0.000000
  70
    32
  0
VERTEX
  8
0
  5
2FD69
 10
-379.628
 20
846.452
 30
0.000000
  70
    32
  0
VERTEX
  8
0
  5
2FD6A
 10
-379.625
 20
846.456
 30
0.000000
  70
    32
  0
VERTEX
  8
0
  5
2FD6B
 10
-379.622
 20
846.459
 30
0.000000
  70
    32
  0
VERTEX
  8
0
  5
2FD6C
 10
-379.619
 20
846.463
 30
0.000000
  70
    32
  0
VERTEX
  8
0
  5
2FD6D
 10
-379.615
 20
846.467
 30
0.000000
  70
    32
  0
VERTEX
  8
0
  5
2FD6E
 10
-379.612
 20
846.471
 30
0.000000
  70
    32
  0
VERTEX
  8
0
  5
2FD6F
 10
-379.609
 20
846.474
 30
0.000000
  70
    32
  0
VERTEX
  8
0
  5
2FD70
 10
-379.607
 20
846.478
 30
0.000000
  70
    32
  0
VERTEX
  8
0
  5
2FD71
 10
-379.604
 20
846.482
 30
0.000000
  70
    32
  0
VERTEX
  8
0
  5
2FD72
 10
-379.601
 20
846.486
 30
0.000000
  70
    32
  0
VERTEX
  8
0
  5
2FD73
 10
-379.598
 20
846.490
 30
0.000000
  70
    32
  0
VERTEX
  8
0
  5
2FD74
 10
-379.595
 20
846.494
 30
0.000000
  70
    32
  0
VERTEX
  8
0
  5
2FD75
 10
-379.593
 20
846.498
 30
0.000000
  70
    32
  0
VERTEX
  8
0
  5
2FD76
 10
-379.590
 20
846.502
 30
0.000000
  70
    32
  0
VERTEX
  8
0
  5
2FD77
 10
-379.588
 20
846.507
 30
0.000000
  70
    32
  0
VERTEX
  8
0
  5
2FD78
 10
-379.585
 20
846.511
 30
0.000000
  70
    32
  0
VERTEX
  8
0
  5
2FD79
 10
-379.583
 20
846.515
 30
0.000000
  70
    32
  0
VERTEX
  8
0
  5
2FD7A
 10
-379.580
 20
846.519
 30
0.000000
  70
    32
  0
VERTEX
  8
0
  5
2FD7B
 10
-379.578
 20
846.524
 30
0.000000
  70
    32
  0
VERTEX
  8
0
  5
2FD7C
 10
-379.576
 20
846.528
 30
0.000000
  70
    32
  0
VERTEX
  8
0
  5
2FD7D
 10
-379.574
 20
846.532
 30
0.000000
  70
    32
  0
VERTEX
  8
0
  5
2FD7E
 10
-379.572
 20
846.537
 30
0.000000
  70
    32
  0
VERTEX
  8
0
  5
2FD7F
 10
-379.570
 20
846.541
 30
0.000000
  70
    32
  0
VERTEX
  8
0
  5
2FD80
 10
-379.568
 20
846.546
 30
0.000000
  70
    32
  0
VERTEX
  8
0
  5
2FD81
 10
-379.566
 20
846.550
 30
0.000000
  70
    32
  0
VERTEX
  8
0
  5
2FD82
 10
-379.564
 20
846.555
 30
0.000000
  70
    32
  0
VERTEX
  8
0
  5
2FD83
 10
-379.562
 20
846.559
 30
0.000000
  70
    32
  0
VERTEX
  8
0
  5
2FD84
 10
-379.560
 20
846.564
 30
0.000000
  70
    32
  0
VERTEX
  8
0
  5
2FD85
 10
-379.559
 20
846.569
 30
0.000000
  70
    32
  0
VERTEX
  8
0
  5
2FD86
 10
-379.557
 20
846.573
 30
0.000000
  70
    32
  0
VERTEX
  8
0
  5
2FD87
 10
-379.555
 20
846.578
 30
0.000000
  70
    32
  0
VERTEX
  8
0
  5
2FD88
 10
-379.554
 20
846.583
 30
0.000000
  70
    32
  0
VERTEX
  8
0
  5
2FD89
 10
-379.552
 20
846.588
 30
0.000000
  70
    32
  0
VERTEX
  8
0
  5
2FD8A
 10
-379.551
 20
846.593
 30
0.000000
  70
    32
  0
VERTEX
  8
0
  5
2FD8B
 10
-379.550
 20
846.597
 30
0.000000
  70
    32
  0
VERTEX
  8
0
  5
2FD8C
 10
-379.549
 20
846.602
 30
0.000000
  70
    32
  0
VERTEX
  8
0
  5
2FD8D
 10
-379.547
 20
846.607
 30
0.000000
  70
    32
  0
VERTEX
  8
0
  5
2FD8E
 10
-379.546
 20
846.612
 30
0.000000
  70
    32
  0
VERTEX
  8
0
  5
2FD8F
 10
-379.545
 20
846.617
 30
0.000000
  70
    32
  0
VERTEX
  8
0
  5
2FD90
 10
-379.544
 20
846.622
 30
0.000000
  70
    32
  0
VERTEX
  8
0
  5
2FD91
 10
-379.543
 20
846.627
 30
0.000000
  70
    32
  0
VERTEX
  8
0
  5
2FD92
 10
-379.542
 20
846.632
 30
0.000000
  70
    32
  0
VERTEX
  8
0
  5
2FD93
 10
-379.542
 20
846.637
 30
0.000000
  70
    32
  0
VERTEX
  8
0
  5
2FD94
 10
-379.541
 20
846.642
 30
0.000000
  70
    32
  0
VERTEX
  8
0
  5
2FD95
 10
-379.540
 20
846.647
 30
0.000000
  70
    32
  0
VERTEX
  8
0
  5
2FD96
 10
-379.539
 20
846.652
 30
0.000000
  70
    32
  0
VERTEX
  8
0
  5
2FD97
 10
-379.539
 20
846.657
 30
0.000000
  70
    32
  0
VERTEX
  8
0
  5
2FD98
 10
-379.538
 20
846.662
 30
0.000000
  70
    32
  0
VERTEX
  8
0
  5
2FD99
 10
-379.538
 20
846.667
 30
0.000000
  70
    32
  0
VERTEX
  8
0
  5
2FD9A
 10
-379.538
 20
846.672
 30
0.000000
  70
    32
  0
VERTEX
  8
0
  5
2FD9B
 10
-379.537
 20
846.677
 30
0.000000
  70
    32
  0
VERTEX
  8
0
  5
2FD9C
 10
-379.537
 20
846.682
 30
0.000000
  70
    32
  0
VERTEX
  8
0
  5
2FD9D
 10
-379.537
 20
846.687
 30
0.000000
  70
    32
  0
VERTEX
  8
0
  5
2FD9E
 10
-379.537
 20
846.692
 30
0.000000
  70
    32
  0
VERTEX
  8
0
  5
2FD9F
 10
-379.536
 20
846.697
 30
0.000000
  70
    32
  0
VERTEX
  8
0
  5
2FDA0
 10
-379.536
 20
846.703
 30
0.000000
  70
    32
  0
VERTEX
  8
0
  5
2FDA1
 10
-379.536
 20
846.708
 30
0.000000
  70
    32
  0
VERTEX
  8
0
  5
2FDA2
 10
-379.536
 20
846.713
 30
0.000000
  70
    32
  0
VERTEX
  8
0
  5
2FDA3
 10
-379.537
 20
846.718
 30
0.000000
  70
    32
  0
VERTEX
  8
0
  5
2FDA4
 10
-379.537
 20
846.723
 30
0.000000
  70
    32
  0
VERTEX
  8
0
  5
2FDA5
 10
-379.537
 20
846.728
 30
0.000000
  70
    32
  0
VERTEX
  8
0
  5
2FDA6
 10
-379.537
 20
846.733
 30
0.000000
  70
    32
  0
VERTEX
  8
0
  5
2FDA7
 10
-379.538
 20
846.738
 30
0.000000
  70
    32
  0
VERTEX
  8
0
  5
2FDA8
 10
-379.538
 20
846.743
 30
0.000000
  70
    32
  0
VERTEX
  8
0
  5
2FDA9
 10
-379.539
 20
846.748
 30
0.000000
  70
    32
  0
VERTEX
  8
0
  5
2FDAA
 10
-379.539
 20
846.753
 30
0.000000
  70
    32
  0
VERTEX
  8
0
  5
2FDAB
 10
-379.540
 20
846.758
 30
0.000000
  70
    32
  0
VERTEX
  8
0
  5
2FDAC
 10
-379.540
 20
846.763
 30
0.000000
  70
    32
  0
VERTEX
  8
0
  5
2FDAD
 10
-379.541
 20
846.768
 30
0.000000
  70
    32
  0
VERTEX
  8
0
  5
2FDAE
 10
-379.542
 20
846.773
 30
0.000000
  70
    32
  0
VERTEX
  8
0
  5
2FDAF
 10
-379.543
 20
846.778
 30
0.000000
  70
    32
  0
VERTEX
  8
0
  5
2FDB0
 10
-379.544
 20
846.783
 30
0.000000
  70
    32
  0
VERTEX
  8
0
  5
2FDB1
 10
-379.545
 20
846.788
 30
0.000000
  70
    32
  0
VERTEX
  8
0
  5
2FDB2
 10
-379.546
 20
846.793
 30
0.000000
  70
    32
  0
VERTEX
  8
0
  5
2FDB3
 10
-379.547
 20
846.798
 30
0.000000
  70
    32
  0
VERTEX
  8
0
  5
2FDB4
 10
-379.548
 20
846.803
 30
0.000000
  70
    32
  0
VERTEX
  8
0
  5
2FDB5
 10
-379.549
 20
846.808
 30
0.000000
  70
    32
  0
VERTEX
  8
0
  5
2FDB6
 10
-379.550
 20
846.813
 30
0.000000
  70
    32
  0
VERTEX
  8
0
  5
2FDB7
 10
-379.551
 20
846.817
 30
0.000000
  70
    32
  0
VERTEX
  8
0
  5
2FDB8
 10
-379.553
 20
846.822
 30
0.000000
  70
    32
  0
VERTEX
  8
0
  5
2FDB9
 10
-379.554
 20
846.827
 30
0.000000
  70
    32
  0
VERTEX
  8
0
  5
2FDBA
 10
-379.556
 20
846.832
 30
0.000000
  70
    32
  0
VERTEX
  8
0
  5
2FDBB
 10
-379.557
 20
846.836
 30
0.000000
  70
    32
  0
VERTEX
  8
0
  5
2FDBC
 10
-379.559
 20
846.841
 30
0.000000
  70
    32
  0
VERTEX
  8
0
  5
2FDBD
 10
-379.561
 20
846.846
 30
0.000000
  70
    32
  0
VERTEX
  8
0
  5
2FDBE
 10
-379.562
 20
846.851
 30
0.000000
  70
    32
  0
VERTEX
  8
0
  5
2FDBF
 10
-379.564
 20
846.855
 30
0.000000
  70
    32
  0
VERTEX
  8
0
  5
2FDC0
 10
-379.566
 20
846.860
 30
0.000000
  70
    32
  0
VERTEX
  8
0
  5
2FDC1
 10
-379.568
 20
846.865
 30
0.000000
  70
    32
  0
VERTEX
  8
0
  5
2FDC2
 10
-379.570
 20
846.869
 30
0.000000
  70
    32
  0
VERTEX
  8
0
  5
2FDC3
 10
-379.572
 20
846.874
 30
0.000000
  70
    32
  0
VERTEX
  8
0
  5
2FDC4
 10
-379.574
 20
846.878
 30
0.000000
  70
    32
  0
VERTEX
  8
0
  5
2FDC5
 10
-379.576
 20
846.883
 30
0.000000
  70
    32
  0
VERTEX
  8
0
  5
2FDC6
 10
-379.579
 20
846.887
 30
0.000000
  70
    32
  0
VERTEX
  8
0
  5
2FDC7
 10
-379.581
 20
846.892
 30
0.000000
  70
    32
  0
VERTEX
  8
0
  5
2FDC8
 10
-379.583
 20
846.896
 30
0.000000
  70
    32
  0
VERTEX
  8
0
  5
2FDC9
 10
-379.586
 20
846.900
 30
0.000000
  70
    32
  0
VERTEX
  8
0
  5
2FDCA
 10
-379.588
 20
846.905
 30
0.000000
  70
    32
  0
VERTEX
  8
0
  5
2FDCB
 10
-379.591
 20
846.909
 30
0.000000
  70
    32
  0
VERTEX
  8
0
  5
2FDCC
 10
-379.593
 20
846.913
 30
0.000000
  70
    32
  0
VERTEX
  8
0
  5
2FDCD
 10
-379.596
 20
846.917
 30
0.000000
  70
    32
  0
VERTEX
  8
0
  5
2FDCE
 10
-379.599
 20
846.922
 30
0.000000
  70
    32
  0
VERTEX
  8
0
  5
2FDCF
 10
-379.602
 20
846.926
 30
0.000000
  70
    32
  0
VERTEX
  8
0
  5
2FDD0
 10
-379.604
 20
846.930
 30
0.000000
  70
    32
  0
VERTEX
  8
0
  5
2FDD1
 10
-379.607
 20
846.934
 30
0.000000
  70
    32
  0
VERTEX
  8
0
  5
2FDD2
 10
-379.610
 20
846.938
 30
0.000000
  70
    32
  0
VERTEX
  8
0
  5
2FDD3
 10
-379.613
 20
846.942
 30
0.000000
  70
    32
  0
VERTEX
  8
0
  5
2FDD4
 10
-379.617
 20
846.946
 30
0.000000
  70
    32
  0
VERTEX
  8
0
  5
2FDD5
 10
-379.620
 20
846.950
 30
0.000000
  70
    32
  0
VERTEX
  8
0
  5
2FDD6
 10
-379.623
 20
846.954
 30
0.000000
  70
    32
  0
VERTEX
  8
0
  5
2FDD7
 10
-379.626
 20
846.957
 30
0.000000
  70
    32
  0
VERTEX
  8
0
  5
2FDD8
 10
-379.630
 20
846.961
 30
0.000000
  70
    32
  0
VERTEX
  8
0
  5
2FDD9
 10
-379.633
 20
846.965
 30
0.000000
  70
    32
  0
VERTEX
  8
0
  5
2FDDA
 10
-379.636
 20
846.969
 30
0.000000
  70
    32
  0
VERTEX
  8
0
  5
2FDDB
 10
-379.640
 20
846.972
 30
0.000000
  70
    32
  0
VERTEX
  8
0
  5
2FDDC
 10
-379.643
 20
846.976
 30
0.000000
  70
    32
  0
VERTEX
  8
0
  5
2FDDD
 10
-379.647
 20
846.979
 30
0.000000
  70
    32
  0
VERTEX
  8
0
  5
2FDDE
 10
-379.651
 20
846.983
 30
0.000000
  70
    32
  0
VERTEX
  8
0
  5
2FDDF
 10
-379.654
 20
846.986
 30
0.000000
  70
    32
  0
VERTEX
  8
0
  5
2FDE0
 10
-379.658
 20
846.990
 30
0.000000
  70
    32
  0
VERTEX
  8
0
  5
2FDE1
 10
-379.662
 20
846.993
 30
0.000000
  70
    32
  0
VERTEX
  8
0
  5
2FDE2
 10
-379.666
 20
846.997
 30
0.000000
  70
    32
  0
VERTEX
  8
0
  5
2FDE3
 10
-379.669
 20
847.000
 30
0.000000
  70
    32
  0
VERTEX
  8
0
  5
2FDE4
 10
-379.673
 20
847.003
 30
0.000000
  70
    32
  0
VERTEX
  8
0
  5
2FDE5
 10
-379.677
 20
847.006
 30
0.000000
  70
    32
  0
VERTEX
  8
0
  5
2FDE6
 10
-379.681
 20
847.009
 30
0.000000
  70
    32
  0
VERTEX
  8
0
  5
2FDE7
 10
-379.685
 20
847.013
 30
0.000000
  70
    32
  0
VERTEX
  8
0
  5
2FDE8
 10
-379.689
 20
847.016
 30
0.000000
  70
    32
  0
VERTEX
  8
0
  5
2FDE9
 10
-379.693
 20
847.019
 30
0.000000
  70
    32
  0
VERTEX
  8
0
  5
2FDEA
 10
-379.697
 20
847.022
 30
0.000000
  70
    32
  0
VERTEX
  8
0
  5
2FDEB
 10
-379.702
 20
847.024
 30
0.000000
  70
    32
  0
VERTEX
  8
0
  5
2FDEC
 10
-379.706
 20
847.027
 30
0.000000
  70
    32
  0
VERTEX
  8
0
  5
2FDED
 10
-379.710
 20
847.030
 30
0.000000
  70
    32
  0
VERTEX
  8
0
  5
2FDEE
 10
-379.714
 20
847.033
 30
0.000000
  70
    32
  0
VERTEX
  8
0
  5
2FDEF
 10
-379.719
 20
847.036
 30
0.000000
  70
    32
  0
VERTEX
  8
0
  5
2FDF0
 10
-379.723
 20
847.038
 30
0.000000
  70
    32
  0
VERTEX
  8
0
  5
2FDF1
 10
-379.727
 20
847.041
 30
0.000000
  70
    32
  0
VERTEX
  8
0
  5
2FDF2
 10
-379.732
 20
847.043
 30
0.000000
  70
    32
  0
VERTEX
  8
0
  5
2FDF3
 10
-379.736
 20
847.046
 30
0.000000
  70
    32
  0
VERTEX
  8
0
  5
2FDF4
 10
-379.740
 20
847.048
 30
0.000000
  70
    32
  0
VERTEX
  8
0
  5
2FDF5
 10
-379.745
 20
847.051
 30
0.000000
  70
    32
  0
VERTEX
  8
0
  5
2FDF6
 10
-379.749
 20
847.053
 30
0.000000
  70
    32
  0
VERTEX
  8
0
  5
2FDF7
 10
-379.754
 20
847.055
 30
0.000000
  70
    32
  0
VERTEX
  8
0
  5
2FDF8
 10
-379.758
 20
847.057
 30
0.000000
  70
    32
  0
VERTEX
  8
0
  5
2FDF9
 10
-379.763
 20
847.059
 30
0.000000
  70
    32
  0
VERTEX
  8
0
  5
2FDFA
 10
-379.767
 20
847.061
 30
0.000000
  70
    32
  0
VERTEX
  8
0
  5
2FDFB
 10
-379.772
 20
847.063
 30
0.000000
  70
    32
  0
VERTEX
  8
0
  5
2FDFC
 10
-379.776
 20
847.065
 30
0.000000
  70
    32
  0
VERTEX
  8
0
  5
2FDFD
 10
-379.781
 20
847.067
 30
0.000000
  70
    32
  0
VERTEX
  8
0
  5
2FDFE
 10
-379.786
 20
847.069
 30
0.000000
  70
    32
  0
SEQEND
  8
0
  5
2FDFF
  0
LINE
  5
2FA7F
  8
0
  6
CONTINUOUS
 10
-380.42252378105081
 20
846.48790656111669
 30
0.0
 11
-380.42252378105081
 21
845.51689340058238
 31
0.0
  0
VIEWPORT
  5
BADA
 67
     1
  8
0
 10
5.249999665167536
 20
4.0168608648543138
 30
0.0
 40
16.023543186357209
 41
8.0117715931786062
 68
     1
 69
     1
1001
ACAD
1000
MVIEW
1002
{
1070
    16
1010
0.0
1020
0.0
1030
0.0
1010
0.0
1020
0.0
1030
1.0
1040
0.0
1040
8.0117715931786062
1040
5.249999665167536
1040
4.0168608648543138
1040
50.0
1040
0.0
1040
0.0
1070
     0
1070
   100
1070
     1
1070
     1
1070
     0
1070
     0
1070
     0
1070
     0
1040
0.0
1040
0.0
1040
0.0
1040
0.5
1040
0.5
1040
0.5
1040
0.5
1070
     0
1002
{
1002
}
1002
}
  0
VIEWPORT
  5
BADD
 67
     1
  8
0
 10
5.2499996294871929
 20
4.0166741807634683
 30
0.0
 40
10.44245679893058
 41
7.8813805131999892
 68
     2
 69
     2
1001
ACAD
1000
MVIEW
1002
{
1070
    16
1010
0.0
1020
0.0
1030
0.0
1010
0.0
1020
0.0
1030
1.0
1040
0.0
1040
7.8813805131999892
1040
-379.01775989635541
1040
845.96625717437837
1040
50.0
1040
0.0
1040
0.0
1070
     0
1070
   100
1070
     1
1070
     2
1070
     0
1070
     0
1070
     0
1070
     0
1040
0.0
1040
0.0
1040
0.0
1040
0.5
1040
0.5
1040
0.5
1040
0.5
1070
     0
1002
{
1002
}
1002
}
  0
ENDSEC
  0
EOF
