  0
SECTION
  2
HEADER
  9
$ACADVER
  1
AC1032
  9
$ACADMAINTVER
 90
        4
  9
$DWGCODEPAGE
  3
ANSI_1252
  9
$LASTSAVEDBY
  1
SPetery
  9
$REQUIREDVERSIONS
160
                 0
  9
$INSBASE
 10
0.0
 20
0.0
 30
0.0
  9
$EXTMIN
 10
-0.0000071799518651
 20
-0.0000000000122782
 30
0.0
  9
$EXTMAX
 10
4.552083791312169
 20
1.25
 30
0.0
  9
$LIMMIN
 10
0.0
 20
0.0
  9
$LIMMAX
 10
1500.0
 20
1500.0
  9
$ORTHOMODE
 70
     0
  9
$REGENMODE
 70
     1
  9
$FILLMODE
 70
     1
  9
$QTEXTMODE
 70
     0
  9
$MIRRTEXT
 70
     1
  9
$LTSCALE
 40
1.0
  9
$ATTMODE
 70
     1
  9
$TEXTSIZE
 40
1.5
  9
$TRACEWID
 40
0.05
  9
$TEXTSTYLE
  7
Standard
  9
$CLAYER
  8
0
  9
$CELTYPE
  6
ByLayer
  9
$CECOLOR
 62
   256
  9
$CELTSCALE
 40
1.0
  9
$DISPSILH
 70
     0
  9
$DIMSCALE
 40
1.0
  9
$DIMASZ
 40
0.75
  9
$DIMEXO
 40
1.5
  9
$DIMDLI
 40
2.0
  9
$DIMRND
 40
0.0
  9
$DIMDLE
 40
0.0
  9
$DIMEXE
 40
1.0
  9
$DIMTP
 40
0.0
  9
$DIMTM
 40
0.0
  9
$DIMTXT
 40
1.5
  9
$DIMCEN
 40
2.0
  9
$DIMTSZ
 40
0.0
  9
$DIMTOL
 70
     0
  9
$DIMLIM
 70
     0
  9
$DIMTIH
 70
     0
  9
$DIMTOH
 70
     0
  9
$DIMSE1
 70
     0
  9
$DIMSE2
 70
     0
  9
$DIMTAD
 70
     1
  9
$DIMZIN
 70
     0
  9
$DIMBLK
  1
ArchTick
  9
$DIMASO
 70
     1
  9
$DIMSHO
 70
     1
  9
$DIMPOST
  1
"
  9
$DIMAPOST
  1

  9
$DIMALT
 70
     0
  9
$DIMALTD
 70
     2
  9
$DIMALTF
 40
25.4
  9
$DIMLFAC
 40
1.0
  9
$DIMTOFL
 70
     0
  9
$DIMTVP
 40
0.0
  9
$DIMTIX
 70
     1
  9
$DIMSOXD
 70
     0
  9
$DIMSAH
 70
     0
  9
$DIMBLK1
  1

  9
$DIMBLK2
  1

  9
$DIMSTYLE
  2
Three Quarter Inch Scale
  9
$DIMCLRD
 70
     0
  9
$DIMCLRE
 70
     0
  9
$DIMCLRT
 70
     0
  9
$DIMTFAC
 40
1.0
  9
$DIMGAP
 40
1.0
  9
$DIMJUST
 70
     0
  9
$DIMSD1
 70
     0
  9
$DIMSD2
 70
     0
  9
$DIMTOLJ
 70
     1
  9
$DIMTZIN
 70
     0
  9
$DIMALTZ
 70
     0
  9
$DIMALTTZ
 70
     0
  9
$DIMUPT
 70
     0
  9
$DIMDEC
 70
     5
  9
$DIMTDEC
 70
     5
  9
$DIMALTU
 70
     2
  9
$DIMALTTD
 70
     2
  9
$DIMTXSTY
  7
Standard
  9
$DIMAUNIT
 70
     0
  9
$DIMADEC
 70
     0
  9
$DIMALTRND
 40
0.0
  9
$DIMAZIN
 70
     0
  9
$DIMDSEP
 70
    46
  9
$DIMATFIT
 70
     3
  9
$DIMFRAC
 70
     0
  9
$DIMLDRBLK
  1
Open30
  9
$DIMLUNIT
 70
     5
  9
$DIMLWD
 70
    -2
  9
$DIMLWE
 70
    -2
  9
$DIMTMOVE
 70
     2
  9
$DIMFXL
 40
1.0
  9
$DIMFXLON
 70
     0
  9
$DIMJOGANG
 40
0.7853981633974483
  9
$DIMTFILL
 70
     0
  9
$DIMTFILLCLR
 70
     0
  9
$DIMARCSYM
 70
     0
  9
$DIMLTYPE
  6

  9
$DIMLTEX1
  6

  9
$DIMLTEX2
  6

  9
$DIMTXTDIRECTION
 70
     0
  9
$LUNITS
 70
     2
  9
$LUPREC
 70
     4
  9
$SKETCHINC
 40
0.1
  9
$FILLETRAD
 40
0.0
  9
$AUNITS
 70
     0
  9
$AUPREC
 70
     0
  9
$MENU
  1
.
  9
$ELEVATION
 40
0.0
  9
$PELEVATION
 40
0.0
  9
$THICKNESS
 40
0.0
  9
$LIMCHECK
 70
     0
  9
$CHAMFERA
 40
0.5
  9
$CHAMFERB
 40
0.5
  9
$CHAMFERC
 40
1.0
  9
$CHAMFERD
 40
0.0
  9
$SKPOLY
 70
     0
  9
$TDCREATE
 40
2452089.395729167
  9
$TDUCREATE
 40
2452089.562405440
  9
$TDUPDATE
 40
2459870.296817129
  9
$TDUUPDATE
 40
2459870.463483797
  9
$TDINDWG
 40
1.2633210995
  9
$TDUSRTIMER
 40
1.2633210995
  9
$USRTIMER
 70
     1
  9
$ANGBASE
 50
0.0
  9
$ANGDIR
 70
     0
  9
$PDMODE
 70
     0
  9
$PDSIZE
 40
10.0
  9
$PLINEWID
 40
0.0
  9
$SPLFRAME
 70
     0
  9
$SPLINETYPE
 70
     6
  9
$SPLINESEGS
 70
     8
  9
$HANDSEED
  5
18952
  9
$SURFTAB1
 70
     6
  9
$SURFTAB2
 70
     6
  9
$SURFTYPE
 70
     6
  9
$SURFU
 70
     6
  9
$SURFV
 70
     6
  9
$UCSBASE
  2

  9
$UCSNAME
  2

  9
$UCSORG
 10
0.0
 20
0.0
 30
0.0
  9
$UCSXDIR
 10
1.0
 20
0.0
 30
0.0
  9
$UCSYDIR
 10
0.0
 20
1.0
 30
0.0
  9
$UCSORTHOREF
  2

  9
$UCSORTHOVIEW
 70
     0
  9
$UCSORGTOP
 10
0.0
 20
0.0
 30
0.0
  9
$UCSORGBOTTOM
 10
0.0
 20
0.0
 30
0.0
  9
$UCSORGLEFT
 10
0.0
 20
0.0
 30
0.0
  9
$UCSORGRIGHT
 10
0.0
 20
0.0
 30
0.0
  9
$UCSORGFRONT
 10
0.0
 20
0.0
 30
0.0
  9
$UCSORGBACK
 10
0.0
 20
0.0
 30
0.0
  9
$PUCSBASE
  2

  9
$PUCSNAME
  2

  9
$PUCSORG
 10
0.0
 20
0.0
 30
0.0
  9
$PUCSXDIR
 10
1.0
 20
0.0
 30
0.0
  9
$PUCSYDIR
 10
0.0
 20
1.0
 30
0.0
  9
$PUCSORTHOREF
  2

  9
$PUCSORTHOVIEW
 70
     0
  9
$PUCSORGTOP
 10
0.0
 20
0.0
 30
0.0
  9
$PUCSORGBOTTOM
 10
0.0
 20
0.0
 30
0.0
  9
$PUCSORGLEFT
 10
0.0
 20
0.0
 30
0.0
  9
$PUCSORGRIGHT
 10
0.0
 20
0.0
 30
0.0
  9
$PUCSORGFRONT
 10
0.0
 20
0.0
 30
0.0
  9
$PUCSORGBACK
 10
0.0
 20
0.0
 30
0.0
  9
$USERI1
 70
     0
  9
$USERI2
 70
     0
  9
$USERI3
 70
     0
  9
$USERI4
 70
     0
  9
$USERI5
 70
     0
  9
$USERR1
 40
0.0
  9
$USERR2
 40
0.0
  9
$USERR3
 40
0.0
  9
$USERR4
 40
0.0
  9
$USERR5
 40
0.0
  9
$WORLDVIEW
 70
     1
  9
$SHADEDGE
 70
     3
  9
$SHADEDIF
 70
    70
  9
$TILEMODE
 70
     1
  9
$MAXACTVP
 70
    64
  9
$PINSBASE
 10
0.0
 20
0.0
 30
0.0
  9
$PLIMCHECK
 70
     0
  9
$PEXTMIN
 10
0.0287712300219028
 20
0.0759839241634737
 30
0.0
  9
$PEXTMAX
 10
10.47122802895248
 20
7.957364437363462
 30
0.0
  9
$PLIMMIN
 10
-0.2500002402958907
 20
-0.2499999962453767
  9
$PLIMMAX
 10
10.74999951940821
 20
8.249999763458731
  9
$UNITMODE
 70
     0
  9
$VISRETAIN
 70
     1
  9
$PLINEGEN
 70
     0
  9
$PSLTSCALE
 70
     1
  9
$TREEDEPTH
 70
  3020
  9
$CMLSTYLE
  2
Standard
  9
$CMLJUST
 70
     0
  9
$CMLSCALE
 40
1.0
  9
$PROXYGRAPHICS
 70
     1
  9
$MEASUREMENT
 70
     0
  9
$CELWEIGHT
370
    -1
  9
$ENDCAPS
280
     0
  9
$JOINSTYLE
280
     0
  9
$LWDISPLAY
290
     0
  9
$INSUNITS
 70
     1
  9
$HYPERLINKBASE
  1

  9
$STYLESHEET
  1

  9
$XEDIT
290
     1
  9
$CEPSNTYPE
380
     0
  9
$PSTYLEMODE
290
     1
  9
$FINGERPRINTGUID
  2
{FDEAD576-A652-11D2-9A35-0060089B3A3F}
  9
$VERSIONGUID
  2
{182AF428-267E-6C4B-88E8-8E544F5B1BDB}
  9
$EXTNAMES
290
     1
  9
$PSVPSCALE
 40
0.0
  9
$OLESTARTUP
290
     0
  9
$SORTENTS
280
    96
  9
$INDEXCTL
280
     0
  9
$HIDETEXT
280
     0
  9
$XCLIPFRAME
280
     0
  9
$HALOGAP
280
     0
  9
$OBSCOLOR
 70
   257
  9
$OBSLTYPE
280
     0
  9
$INTERSECTIONDISPLAY
280
     0
  9
$INTERSECTIONCOLOR
 70
   257
  9
$DIMASSOC
280
     1
  9
$PROJECTNAME
  1

  9
$CAMERADISPLAY
290
     0
  9
$LENSLENGTH
 40
50.0
  9
$CAMERAHEIGHT
 40
0.0
  9
$STEPSPERSEC
 40
2.0
  9
$STEPSIZE
 40
6.0
  9
$3DDWFPREC
 40
2.0
  9
$PSOLWIDTH
 40
0.25
  9
$PSOLHEIGHT
 40
4.0
  9
$LOFTANG1
 40
1.570796326794896
  9
$LOFTANG2
 40
1.570796326794896
  9
$LOFTMAG1
 40
0.0
  9
$LOFTMAG2
 40
0.0
  9
$LOFTPARAM
 70
     7
  9
$LOFTNORMALS
280
     1
  9
$LATITUDE
 40
37.795
  9
$LONGITUDE
 40
-122.394
  9
$NORTHDIRECTION
 40
0.0
  9
$TIMEZONE
 70
 -8000
  9
$LIGHTGLYPHDISPLAY
280
     1
  9
$TILEMODELIGHTSYNCH
280
     1
  9
$CMATERIAL
347
1716F
  9
$SOLIDHIST
280
     0
  9
$SHOWHIST
280
     1
  9
$DWFFRAME
280
     2
  9
$DGNFRAME
280
     0
  9
$REALWORLDSCALE
290
     1
  9
$INTERFERECOLOR
 62
     1
  9
$INTERFEREOBJVS
345
17191
  9
$INTERFEREVPVS
346
1718E
  9
$CSHADOW
280
     0
  9
$SHADOWPLANELOCATION
 40
0.0
  0
ENDSEC
  0
SECTION
  2
CLASSES
  0
CLASS
  1
ACDBDICTIONARYWDFLT
  2
AcDbDictionaryWithDefault
  3
ObjectDBX Classes
 90
        0
 91
        1
280
     0
281
     0
  0
CLASS
  1
DICTIONARYVAR
  2
AcDbDictionaryVar
  3
ObjectDBX Classes
 90
        0
 91
       12
280
     0
281
     0
  0
CLASS
  1
PLOTSETTINGS
  2
AcDbPlotSettings
  3
ObjectDBX Classes
 90
        0
 91
        0
280
     0
281
     0
  0
CLASS
  1
TABLESTYLE
  2
AcDbTableStyle
  3
ObjectDBX Classes
 90
     4095
 91
        1
280
     0
281
     0
  0
CLASS
  1
SORTENTSTABLE
  2
AcDbSortentsTable
  3
ObjectDBX Classes
 90
        0
 91
        1
280
     0
281
     0
  0
CLASS
  1
MATERIAL
  2
AcDbMaterial
  3
ObjectDBX Classes
 90
     1153
 91
        3
280
     0
281
     0
  0
CLASS
  1
VISUALSTYLE
  2
AcDbVisualStyle
  3
ObjectDBX Classes
 90
     4095
 91
       25
280
     0
281
     0
  0
CLASS
  1
SCALE
  2
AcDbScale
  3
ObjectDBX Classes
 90
     1153
 91
       17
280
     0
281
     0
  0
CLASS
  1
MLEADERSTYLE
  2
AcDbMLeaderStyle
  3
ACDB_MLEADERSTYLE_CLASS
 90
     4095
 91
        1
280
     0
281
     0
  0
CLASS
  1
ACDBSECTIONVIEWSTYLE
  2
AcDbSectionViewStyle
  3
ObjectDBX Classes
 90
     1025
 91
        1
280
     0
281
     0
  0
CLASS
  1
ACDBDETAILVIEWSTYLE
  2
AcDbDetailViewStyle
  3
ObjectDBX Classes
 90
     1025
 91
        1
280
     0
281
     0
  0
CLASS
  1
CELLSTYLEMAP
  2
AcDbCellStyleMap
  3
ObjectDBX Classes
 90
     1152
 91
        1
280
     0
281
     0
  0
ENDSEC
  0
SECTION
  2
TABLES
  0
TABLE
  2
VPORT
  5
8
330
0
100
AcDbSymbolTable
 70
     1
  0
VPORT
  5
16E58
330
8
100
AcDbSymbolTableRecord
100
AcDbViewportTableRecord
  2
*Active
 70
     0
 10
0.0
 20
0.0
 11
1.0
 21
1.0
 12
2.276038305680151
 22
0.6249999999938609
 13
0.0
 23
0.0
 14
0.5
 24
0.5
 15
0.5
 25
0.5
 16
0.0
 26
0.0
 36
1.0
 17
0.0
 27
0.0
 37
0.0
 40
2.309575420446078
 41
1.977395048439181
 42
50.0
 43
0.0
 44
0.0
 50
0.0
 51
0.0
 71
     0
 72
   100
 73
     1
 74
     2
 75
     0
 76
     0
 77
     0
 78
     0
281
     0
 65
     1
110
0.0
120
0.0
130
0.0
111
1.0
121
0.0
131
0.0
112
0.0
122
1.0
132
0.0
 79
     0
146
0.0
348
1718D
 60
     3
 61
     5
292
     1
282
     1
141
0.0
142
0.0
 63
   250
421
  3355443
1001
ACAD_NAV_VCDISPLAY
1070
     3
  0
ENDTAB
  0
TABLE
  2
LTYPE
  5
5
330
0
100
AcDbSymbolTable
 70
     2
  0
LTYPE
  5
14
330
5
100
AcDbSymbolTableRecord
100
AcDbLinetypeTableRecord
  2
ByBlock
 70
     0
  3

 72
    65
 73
     0
 40
0.0
  0
LTYPE
  5
15
330
5
100
AcDbSymbolTableRecord
100
AcDbLinetypeTableRecord
  2
ByLayer
 70
     0
  3

 72
    65
 73
     0
 40
0.0
  0
LTYPE
  5
16
330
5
100
AcDbSymbolTableRecord
100
AcDbLinetypeTableRecord
  2
Continuous
 70
     0
  3
Solid line
 72
    65
 73
     0
 40
0.0
  0
ENDTAB
  0
TABLE
  2
LAYER
  5
2
102
{ACAD_XDICTIONARY
360
4D73
102
}
330
0
100
AcDbSymbolTable
 70
     2
  0
LAYER
  5
10
102
{ACAD_XDICTIONARY
360
171D0
102
}
330
2
100
AcDbSymbolTableRecord
100
AcDbLayerTableRecord
  2
0
 70
     0
 62
     7
  6
Continuous
370
    -3
390
F
347
1717F
348
0
  0
LAYER
  5
135
330
2
100
AcDbSymbolTableRecord
100
AcDbLayerTableRecord
  2
Defpoints
 70
     0
 62
     7
  6
Continuous
290
     0
370
    -3
390
F
347
1717F
348
0
  0
ENDTAB
  0
TABLE
  2
STYLE
  5
3
330
0
100
AcDbSymbolTable
 70
     1
  0
STYLE
  5
11
330
3
100
AcDbSymbolTableRecord
100
AcDbTextStyleTableRecord
  2
Standard
 70
     0
 40
0.0
 41
1.0
 50
0.0
 71
     0
 42
1.5
  3
arial.ttf
  4

1001
ACAD
1000
Arial
1071
       34
  0
ENDTAB
  0
TABLE
  2
VIEW
  5
6
330
0
100
AcDbSymbolTable
 70
     0
  0
ENDTAB
  0
TABLE
  2
UCS
  5
7
330
0
100
AcDbSymbolTable
 70
     0
  0
ENDTAB
  0
TABLE
  2
APPID
  5
9
330
0
100
AcDbSymbolTable
 70
     9
  0
APPID
  5
12
330
9
100
AcDbSymbolTableRecord
100
AcDbRegAppTableRecord
  2
ACAD
 70
     0
  0
APPID
  5
DE8
330
9
100
AcDbSymbolTableRecord
100
AcDbRegAppTableRecord
  2
DCO15
 70
     0
  0
APPID
  5
BABC
330
9
100
AcDbSymbolTableRecord
100
AcDbRegAppTableRecord
  2
ACAD_EXEMPT_FROM_CAD_STANDARDS
 70
     0
  0
APPID
  5
BADB
330
9
100
AcDbSymbolTableRecord
100
AcDbRegAppTableRecord
  2
ACAD_PSEXT
 70
     0
  0
APPID
  5
171C8
330
9
100
AcDbSymbolTableRecord
100
AcDbRegAppTableRecord
  2
ACAD_NAV_VCDISPLAY
 70
     0
  0
APPID
  5
171EC
330
9
100
AcDbSymbolTableRecord
100
AcDbRegAppTableRecord
  2
ACAD_DSTYLE_DIMJOGGED_JOGANGLE_SYMBOL
 70
     0
  0
APPID
  5
171ED
330
9
100
AcDbSymbolTableRecord
100
AcDbRegAppTableRecord
  2
ACAD_DSTYLE_DIMJAG
 70
     0
  0
APPID
  5
171EE
330
9
100
AcDbSymbolTableRecord
100
AcDbRegAppTableRecord
  2
ACAD_DSTYLE_DIMTALN
 70
     0
  0
APPID
  5
171EF
330
9
100
AcDbSymbolTableRecord
100
AcDbRegAppTableRecord
  2
ACAD_DSTYLE_DIMBREAK
 70
     0
  0
ENDTAB
  0
TABLE
  2
DIMSTYLE
  5
A
330
0
100
AcDbSymbolTable
 70
     7
100
AcDbDimStyleTable
 71
     1
340
42D
  0
DIMSTYLE
105
42D
330
A
100
AcDbSymbolTableRecord
100
AcDbDimStyleTableRecord
  2
Three Quarter Inch Scale
 70
     0
  3
"
 41
0.75
 42
1.5
 43
2.0
 44
1.0
 73
     0
 74
     0
 77
     1
140
1.5
141
2.0
147
1.0
174
     1
271
     5
272
     5
277
     5
279
     2
340
11
341
15B
342
157
  0
DIMSTYLE
105
18244
330
A
100
AcDbSymbolTableRecord
100
AcDbDimStyleTableRecord
  2
Full Scale
 70
     0
  3
"
 41
0.046875
 42
0.09375
 43
0.125
 44
0.0625
 49
0.0625
 73
     0
 74
     0
 77
     1
140
0.125
141
0.0
147
0.0625
174
     1
179
     1
271
     5
272
     5
277
     5
279
     2
340
11
341
15B
342
157
1001
ACAD_DSTYLE_DIMJOGGED_JOGANGLE_SYMBOL
1070
   384
1040
0.7853981633974483
1001
ACAD_DSTYLE_DIMJAG
1070
   388
1040
1.5
1001
ACAD_DSTYLE_DIMTALN
1070
   392
1070
     0
  0
DIMSTYLE
105
18245
330
A
100
AcDbSymbolTableRecord
100
AcDbDimStyleTableRecord
  2
Half Scale
 70
     0
  3
"
 41
0.09375
 42
0.1875
 43
0.25
 44
0.125
 73
     0
 74
     0
 77
     1
140
0.25
141
0.25
147
0.125
174
     1
179
     1
271
     5
272
     5
277
     5
279
     2
340
11
341
15B
342
157
1001
ACAD_DSTYLE_DIMBREAK
1070
   391
1040
0.175
1001
ACAD_DSTYLE_DIMJAG
1070
   388
1040
1.5
1001
ACAD_DSTYLE_DIMTALN
1070
   392
1070
     0
  0
DIMSTYLE
105
18246
330
A
100
AcDbSymbolTableRecord
100
AcDbDimStyleTableRecord
  2
Inch Scale
 70
     0
  3
"
 41
0.5625
 42
1.125
 43
1.5
 44
0.75
 49
0.75
 73
     0
 74
     0
 77
     1
140
1.5
141
1.5
147
0.75
174
     1
179
     1
271
     5
272
     5
277
     5
279
     2
340
11
341
15B
342
157
1001
ACAD_DSTYLE_DIMJOGGED_JOGANGLE_SYMBOL
1070
   384
1040
0.7853981633974483
1001
ACAD_DSTYLE_DIMBREAK
1070
   391
1040
0.5
1001
ACAD_DSTYLE_DIMJAG
1070
   388
1040
1.5
1001
ACAD_DSTYLE_DIMTALN
1070
   392
1070
     0
  0
DIMSTYLE
105
18247
330
A
100
AcDbSymbolTableRecord
100
AcDbDimStyleTableRecord
  2
Inch & Half Scale
 70
     0
  3
"
 41
0.375
 42
0.75
 43
1.0
 44
0.5
 49
0.5
 73
     0
 74
     0
 77
     1
140
1.0
141
1.0
147
0.5
174
     1
271
     5
272
     5
277
     5
279
     2
340
11
341
15B
342
157
1001
ACAD_DSTYLE_DIMJOGGED_JOGANGLE_SYMBOL
1070
   384
1040
0.7853981633974483
1001
ACAD_DSTYLE_DIMJAG
1070
   388
1040
1.5
1001
ACAD_DSTYLE_DIMTALN
1070
   392
1070
     0
  0
DIMSTYLE
105
18248
330
A
100
AcDbSymbolTableRecord
100
AcDbDimStyleTableRecord
  2
FULL_SCALE
 70
     0
 41
0.046875
 42
0.09375
 43
0.125
 44
0.0625
 73
     0
 74
     0
 77
     1
140
0.125
141
0.125
147
0.0625
174
     1
277
     5
279
     2
340
11
1001
ACAD_DSTYLE_DIMJAG
1070
   388
1040
1.5
1001
ACAD_DSTYLE_DIMTALN
1070
   392
1070
     0
  0
ENDTAB
  0
TABLE
  2
BLOCK_RECORD
  5
1
330
0
100
AcDbSymbolTable
 70
     4
  0
BLOCK_RECORD
  5
1F
330
1
100
AcDbSymbolTableRecord
100
AcDbBlockTableRecord
  2
*Model_Space
340
22
 70
     0
280
     1
281
     0
  0
BLOCK_RECORD
  5
BAD2
330
1
100
AcDbSymbolTableRecord
100
AcDbBlockTableRecord
  2
*Paper_Space
340
BAD3
 70
     0
280
     1
281
     0
  0
BLOCK_RECORD
  5
157
330
1
100
AcDbSymbolTableRecord
100
AcDbBlockTableRecord
  2
_ArchTick
340
0
 70
     0
280
     1
281
     0
  0
BLOCK_RECORD
  5
15B
330
1
100
AcDbSymbolTableRecord
100
AcDbBlockTableRecord
  2
_Open30
340
0
 70
     0
280
     1
281
     0
  0
ENDTAB
  0
ENDSEC
  0
SECTION
  2
BLOCKS
  0
BLOCK
  5
20
330
1F
100
AcDbEntity
  8
0
100
AcDbBlockBegin
  2
*Model_Space
 70
     0
 10
0.0
 20
0.0
 30
0.0
  3
*Model_Space
  1

  0
ENDBLK
  5
21
330
1F
100
AcDbEntity
  8
0
100
AcDbBlockEnd
  0
BLOCK
  5
BAD4
330
BAD2
100
AcDbEntity
 67
     1
  8
0
100
AcDbBlockBegin
  2
*Paper_Space
 70
     0
 10
0.0
 20
0.0
 30
0.0
  3
*Paper_Space
  1

  0
ENDBLK
  5
BAD5
330
BAD2
100
AcDbEntity
 67
     1
  8
0
100
AcDbBlockEnd
  0
BLOCK
  5
159
330
157
100
AcDbEntity
  8
0
100
AcDbBlockBegin
  2
_ArchTick
 70
     0
 10
0.0
 20
0.0
 30
0.0
  3
_ArchTick
  1

  0
LWPOLYLINE
  5
158
330
157
100
AcDbEntity
  8
0
  6
ByBlock
 62
     0
100
AcDbPolyline
 90
        2
 70
     0
 43
0.15
 10
-0.5
 20
-0.5
 10
0.5
 20
0.5
  0
ENDBLK
  5
15A
330
157
100
AcDbEntity
  8
0
100
AcDbBlockEnd
  0
BLOCK
  5
15F
330
15B
100
AcDbEntity
  8
0
100
AcDbBlockBegin
  2
_Open30
 70
     0
 10
0.0
 20
0.0
 30
0.0
  3
_Open30
  1

  0
LINE
  5
15C
330
15B
100
AcDbEntity
  8
0
  6
ByBlock
 62
     0
370
    -2
100
AcDbLine
 10
-1.0
 20
0.26794919
 30
0.0
 11
0.0
 21
0.0
 31
0.0
  0
LINE
  5
15D
330
15B
100
AcDbEntity
  8
0
  6
ByBlock
 62
     0
370
    -2
100
AcDbLine
 10
0.0
 20
0.0
 30
0.0
 11
-1.0
 21
-0.26794919
 31
0.0
  0
LINE
  5
15E
330
15B
100
AcDbEntity
  8
0
  6
ByBlock
 62
     0
370
    -2
100
AcDbLine
 10
0.0
 20
0.0
 30
0.0
 11
-1.0
 21
0.0
 31
0.0
  0
ENDBLK
  5
160
330
15B
100
AcDbEntity
  8
0
100
AcDbBlockEnd
  0
ENDSEC
  0
SECTION
  2
ENTITIES
  0
MTEXT
  5
35F9
330
1F
100
AcDbEntity
  8
0
  6
Continuous
100
AcDbMText
 10
-190.6197349533861
 20
802.7717768792895
 30
0.0
 40
0.125
 41
0.0
 46
0.0
 71
     1
 72
     1
  1

 73
     1
 44
1.0
  0
LINE
  5
18685
330
1F
100
AcDbEntity
  8
0
100
AcDbLine
 10
2.062492815292841
 20
0.0
 30
0.0
 11
2.287668067971651
 21
0.0
 31
0.0
  0
LINE
  5
18686
330
1F
100
AcDbEntity
  8
0
100
AcDbLine
 10
0.4374928152928419
 20
0.0
 30
0.0
 11
0.2123175626142597
 21
0.0
 31
0.0
  0
LINE
  5
18687
330
1F
100
AcDbEntity
  8
0
100
AcDbLine
 10
0.4374928152928419
 20
0.1875
 30
0.0
 11
2.062492815292841
 21
0.1875
 31
0.0
  0
LINE
  5
18688
330
1F
100
AcDbEntity
  8
0
100
AcDbLine
 10
2.062492815292841
 20
0.0
 30
0.0
 11
2.062492815292841
 21
0.1875
 31
0.0
  0
LINE
  5
18689
330
1F
100
AcDbEntity
  8
0
100
AcDbLine
 10
0.4374928152928419
 20
0.1875
 30
0.0
 11
0.4374928152928419
 21
0.0
 31
0.0
  0
POLYLINE
  5
1868A
330
1F
100
AcDbEntity
  8
0
100
AcDb3dPolyline
 66
     1
 10
0.0
 20
0.0
 30
0.0
 70
     8
  0
VERTEX
  5
1868B
330
1868A
100
AcDbEntity
  8
0
100
AcDbVertex
100
AcDb3dPolylineVertex
 10
1.249992815292841
 20
1.25
 30
0.0
 70
    32
  0
VERTEX
  5
1868C
330
1868A
100
AcDbEntity
  8
0
100
AcDbVertex
100
AcDb3dPolylineVertex
 10
1.256152815292978
 20
1.249969999999848
 30
0.0
 70
    32
  0
VERTEX
  5
1868D
330
1868A
100
AcDbEntity
  8
0
100
AcDbVertex
100
AcDb3dPolylineVertex
 10
1.262302815292912
 20
1.249919999999974
 30
0.0
 70
    32
  0
VERTEX
  5
1868E
330
1868A
100
AcDbEntity
  8
0
100
AcDbVertex
100
AcDb3dPolylineVertex
 10
1.268462815292821
 20
1.2498700000001
 30
0.0
 70
    32
  0
VERTEX
  5
1868F
330
1868A
100
AcDbEntity
  8
0
100
AcDbVertex
100
AcDb3dPolylineVertex
 10
1.274612815292982
 20
1.249810000000024
 30
0.0
 70
    32
  0
VERTEX
  5
18690
330
1868A
100
AcDbEntity
  8
0
100
AcDbVertex
100
AcDb3dPolylineVertex
 10
1.280762815292916
 20
1.249739999999974
 30
0.0
 70
    32
  0
VERTEX
  5
18691
330
1868A
100
AcDbEntity
  8
0
100
AcDbVertex
100
AcDb3dPolylineVertex
 10
1.286912815292851
 20
1.249659999999948
 30
0.0
 70
    32
  0
VERTEX
  5
18692
330
1868A
100
AcDbEntity
  8
0
100
AcDbVertex
100
AcDb3dPolylineVertex
 10
1.293062815293012
 20
1.249569999999948
 30
0.0
 70
    32
  0
VERTEX
  5
18693
330
1868A
100
AcDbEntity
  8
0
100
AcDbVertex
100
AcDb3dPolylineVertex
 10
1.299212815292946
 20
1.249479999999948
 30
0.0
 70
    32
  0
VERTEX
  5
18694
330
1868A
100
AcDbEntity
  8
0
100
AcDbVertex
100
AcDb3dPolylineVertex
 10
1.305352815292906
 20
1.249369999999998
 30
0.0
 70
    32
  0
VERTEX
  5
18695
330
1868A
100
AcDbEntity
  8
0
100
AcDbVertex
100
AcDb3dPolylineVertex
 10
1.31150281529284
 20
1.249260000000049
 30
0.0
 70
    32
  0
VERTEX
  5
18696
330
1868A
100
AcDbEntity
  8
0
100
AcDbVertex
100
AcDb3dPolylineVertex
 10
1.317652815293001
 20
1.249139999999897
 30
0.0
 70
    32
  0
VERTEX
  5
18697
330
1868A
100
AcDbEntity
  8
0
100
AcDbVertex
100
AcDb3dPolylineVertex
 10
1.323792815292961
 20
1.249000000000023
 30
0.0
 70
    32
  0
VERTEX
  5
18698
330
1868A
100
AcDbEntity
  8
0
100
AcDbVertex
100
AcDb3dPolylineVertex
 10
1.329942815292895
 20
1.248859999999922
 30
0.0
 70
    32
  0
VERTEX
  5
18699
330
1868A
100
AcDbEntity
  8
0
100
AcDbVertex
100
AcDb3dPolylineVertex
 10
1.336082815292854
 20
1.248720000000048
 30
0.0
 70
    32
  0
VERTEX
  5
1869A
330
1868A
100
AcDbEntity
  8
0
100
AcDbVertex
100
AcDb3dPolylineVertex
 10
1.342222815292814
 20
1.248559999999997
 30
0.0
 70
    32
  0
VERTEX
  5
1869B
330
1868A
100
AcDbEntity
  8
0
100
AcDbVertex
100
AcDb3dPolylineVertex
 10
1.348362815293
 20
1.248389999999972
 30
0.0
 70
    32
  0
VERTEX
  5
1869C
330
1868A
100
AcDbEntity
  8
0
100
AcDbVertex
100
AcDb3dPolylineVertex
 10
1.35450281529296
 20
1.248219999999946
 30
0.0
 70
    32
  0
VERTEX
  5
1869D
330
1868A
100
AcDbEntity
  8
0
100
AcDbVertex
100
AcDb3dPolylineVertex
 10
1.360652815292894
 20
1.248039999999946
 30
0.0
 70
    32
  0
VERTEX
  5
1869E
330
1868A
100
AcDbEntity
  8
0
100
AcDbVertex
100
AcDb3dPolylineVertex
 10
1.366792815292853
 20
1.247839999999996
 30
0.0
 70
    32
  0
VERTEX
  5
1869F
330
1868A
100
AcDbEntity
  8
0
100
AcDbVertex
100
AcDb3dPolylineVertex
 10
1.37293281529304
 20
1.247640000000046
 30
0.0
 70
    32
  0
VERTEX
  5
186A0
330
1868A
100
AcDbEntity
  8
0
100
AcDbVertex
100
AcDb3dPolylineVertex
 10
1.379072815293
 20
1.247440000000096
 30
0.0
 70
    32
  0
VERTEX
  5
186A1
330
1868A
100
AcDbEntity
  8
0
100
AcDbVertex
100
AcDb3dPolylineVertex
 10
1.385202815292984
 20
1.24721999999997
 30
0.0
 70
    32
  0
VERTEX
  5
186A2
330
1868A
100
AcDbEntity
  8
0
100
AcDbVertex
100
AcDb3dPolylineVertex
 10
1.391342815292944
 20
1.246990000000096
 30
0.0
 70
    32
  0
VERTEX
  5
186A3
330
1868A
100
AcDbEntity
  8
0
100
AcDbVertex
100
AcDb3dPolylineVertex
 10
1.397482815292903
 20
1.246759999999994
 30
0.0
 70
    32
  0
VERTEX
  5
186A4
330
1868A
100
AcDbEntity
  8
0
100
AcDbVertex
100
AcDb3dPolylineVertex
 10
1.403622815292862
 20
1.246519999999918
 30
0.0
 70
    32
  0
VERTEX
  5
186A5
330
1868A
100
AcDbEntity
  8
0
100
AcDbVertex
100
AcDb3dPolylineVertex
 10
1.409762815292822
 20
1.246270000000095
 30
0.0
 70
    32
  0
VERTEX
  5
186A6
330
1868A
100
AcDbEntity
  8
0
100
AcDbVertex
100
AcDb3dPolylineVertex
 10
1.415902815293009
 20
1.246009999999841
 30
0.0
 70
    32
  0
VERTEX
  5
186A7
330
1868A
100
AcDbEntity
  8
0
100
AcDbVertex
100
AcDb3dPolylineVertex
 10
1.422042815292968
 20
1.245739999999841
 30
0.0
 70
    32
  0
VERTEX
  5
186A8
330
1868A
100
AcDbEntity
  8
0
100
AcDbVertex
100
AcDb3dPolylineVertex
 10
1.428172815292953
 20
1.245460000000093
 30
0.0
 70
    32
  0
VERTEX
  5
186A9
330
1868A
100
AcDbEntity
  8
0
100
AcDbVertex
100
AcDb3dPolylineVertex
 10
1.434312815292912
 20
1.245179999999891
 30
0.0
 70
    32
  0
VERTEX
  5
186AA
330
1868A
100
AcDbEntity
  8
0
100
AcDbVertex
100
AcDb3dPolylineVertex
 10
1.440452815292871
 20
1.244889999999941
 30
0.0
 70
    32
  0
VERTEX
  5
186AB
330
1868A
100
AcDbEntity
  8
0
100
AcDbVertex
100
AcDb3dPolylineVertex
 10
1.446592815292831
 20
1.244590000000016
 30
0.0
 70
    32
  0
VERTEX
  5
186AC
330
1868A
100
AcDbEntity
  8
0
100
AcDbVertex
100
AcDb3dPolylineVertex
 10
1.452732815293018
 20
1.244279999999889
 30
0.0
 70
    32
  0
VERTEX
  5
186AD
330
1868A
100
AcDbEntity
  8
0
100
AcDbVertex
100
AcDb3dPolylineVertex
 10
1.458872815292977
 20
1.243960000000015
 30
0.0
 70
    32
  0
VERTEX
  5
186AE
330
1868A
100
AcDbEntity
  8
0
100
AcDbVertex
100
AcDb3dPolylineVertex
 10
1.465012815292936
 20
1.243629999999939
 30
0.0
 70
    32
  0
VERTEX
  5
186AF
330
1868A
100
AcDbEntity
  8
0
100
AcDbVertex
100
AcDb3dPolylineVertex
 10
1.471152815292896
 20
1.24330000000009
 30
0.0
 70
    32
  0
VERTEX
  5
186B0
330
1868A
100
AcDbEntity
  8
0
100
AcDbVertex
100
AcDb3dPolylineVertex
 10
1.477292815292855
 20
1.242960000000039
 30
0.0
 70
    32
  0
VERTEX
  5
186B1
330
1868A
100
AcDbEntity
  8
0
100
AcDbVertex
100
AcDb3dPolylineVertex
 10
1.483432815292815
 20
1.242610000000013
 30
0.0
 70
    32
  0
VERTEX
  5
186B2
330
1868A
100
AcDbEntity
  8
0
100
AcDbVertex
100
AcDb3dPolylineVertex
 10
1.489572815293001
 20
1.242250000000012
 30
0.0
 70
    32
  0
VERTEX
  5
186B3
330
1868A
100
AcDbEntity
  8
0
100
AcDbVertex
100
AcDb3dPolylineVertex
 10
1.495712815292961
 20
1.241880000000037
 30
0.0
 70
    32
  0
VERTEX
  5
186B4
330
1868A
100
AcDbEntity
  8
0
100
AcDbVertex
100
AcDb3dPolylineVertex
 10
1.501862815292895
 20
1.241509999999834
 30
0.0
 70
    32
  0
VERTEX
  5
186B5
330
1868A
100
AcDbEntity
  8
0
100
AcDbVertex
100
AcDb3dPolylineVertex
 10
1.508002815292854
 20
1.241129999999884
 30
0.0
 70
    32
  0
VERTEX
  5
186B6
330
1868A
100
AcDbEntity
  8
0
100
AcDbVertex
100
AcDb3dPolylineVertex
 10
1.514142815292814
 20
1.240739999999959
 30
0.0
 70
    32
  0
VERTEX
  5
186B7
330
1868A
100
AcDbEntity
  8
0
100
AcDbVertex
100
AcDb3dPolylineVertex
 10
1.520292815292975
 20
1.240339999999832
 30
0.0
 70
    32
  0
VERTEX
  5
186B8
330
1868A
100
AcDbEntity
  8
0
100
AcDbVertex
100
AcDb3dPolylineVertex
 10
1.526432815292935
 20
1.239929999999958
 30
0.0
 70
    32
  0
VERTEX
  5
186B9
330
1868A
100
AcDbEntity
  8
0
100
AcDbVertex
100
AcDb3dPolylineVertex
 10
1.532582815292869
 20
1.239520000000084
 30
0.0
 70
    32
  0
VERTEX
  5
186BA
330
1868A
100
AcDbEntity
  8
0
100
AcDbVertex
100
AcDb3dPolylineVertex
 10
1.53873281529303
 20
1.239100000000007
 30
0.0
 70
    32
  0
VERTEX
  5
186BB
330
1868A
100
AcDbEntity
  8
0
100
AcDbVertex
100
AcDb3dPolylineVertex
 10
1.544882815292965
 20
1.238659999999981
 30
0.0
 70
    32
  0
VERTEX
  5
186BC
330
1868A
100
AcDbEntity
  8
0
100
AcDbVertex
100
AcDb3dPolylineVertex
 10
1.551032815292899
 20
1.23822999999993
 30
0.0
 70
    32
  0
VERTEX
  5
186BD
330
1868A
100
AcDbEntity
  8
0
100
AcDbVertex
100
AcDb3dPolylineVertex
 10
1.557182815292833
 20
1.237779999999929
 30
0.0
 70
    32
  0
VERTEX
  5
186BE
330
1868A
100
AcDbEntity
  8
0
100
AcDbVertex
100
AcDb3dPolylineVertex
 10
1.563332815292994
 20
1.237329999999928
 30
0.0
 70
    32
  0
VERTEX
  5
186BF
330
1868A
100
AcDbEntity
  8
0
100
AcDbVertex
100
AcDb3dPolylineVertex
 10
1.569482815292928
 20
1.236859999999978
 30
0.0
 70
    32
  0
VERTEX
  5
186C0
330
1868A
100
AcDbEntity
  8
0
100
AcDbVertex
100
AcDb3dPolylineVertex
 10
1.575632815292863
 20
1.236390000000028
 30
0.0
 70
    32
  0
VERTEX
  5
186C1
330
1868A
100
AcDbEntity
  8
0
100
AcDbVertex
100
AcDb3dPolylineVertex
 10
1.581792815292999
 20
1.235920000000078
 30
0.0
 70
    32
  0
VERTEX
  5
186C2
330
1868A
100
AcDbEntity
  8
0
100
AcDbVertex
100
AcDb3dPolylineVertex
 10
1.587952815292908
 20
1.235429999999951
 30
0.0
 70
    32
  0
VERTEX
  5
186C3
330
1868A
100
AcDbEntity
  8
0
100
AcDbVertex
100
AcDb3dPolylineVertex
 10
1.594102815292842
 20
1.234939999999824
 30
0.0
 70
    32
  0
VERTEX
  5
186C4
330
1868A
100
AcDbEntity
  8
0
100
AcDbVertex
100
AcDb3dPolylineVertex
 10
1.600262815292978
 20
1.234439999999949
 30
0.0
 70
    32
  0
VERTEX
  5
186C5
330
1868A
100
AcDbEntity
  8
0
100
AcDbVertex
100
AcDb3dPolylineVertex
 10
1.606422815292887
 20
1.233929999999872
 30
0.0
 70
    32
  0
VERTEX
  5
186C6
330
1868A
100
AcDbEntity
  8
0
100
AcDbVertex
100
AcDb3dPolylineVertex
 10
1.612592815292998
 20
1.233409999999821
 30
0.0
 70
    32
  0
VERTEX
  5
186C7
330
1868A
100
AcDbEntity
  8
0
100
AcDbVertex
100
AcDb3dPolylineVertex
 10
1.618752815292907
 20
1.232889999999997
 30
0.0
 70
    32
  0
VERTEX
  5
186C8
330
1868A
100
AcDbEntity
  8
0
100
AcDbVertex
100
AcDb3dPolylineVertex
 10
1.624922815293018
 20
1.232359999999971
 30
0.0
 70
    32
  0
VERTEX
  5
186C9
330
1868A
100
AcDbEntity
  8
0
100
AcDbVertex
100
AcDb3dPolylineVertex
 10
1.631082815292927
 20
1.23181999999997
 30
0.0
 70
    32
  0
VERTEX
  5
186CA
330
1868A
100
AcDbEntity
  8
0
100
AcDbVertex
100
AcDb3dPolylineVertex
 10
1.637252815293038
 20
1.231269999999994
 30
0.0
 70
    32
  0
VERTEX
  5
186CB
330
1868A
100
AcDbEntity
  8
0
100
AcDbVertex
100
AcDb3dPolylineVertex
 10
1.643422815292922
 20
1.230720000000019
 30
0.0
 70
    32
  0
VERTEX
  5
186CC
330
1868A
100
AcDbEntity
  8
0
100
AcDbVertex
100
AcDb3dPolylineVertex
 10
1.649592815293033
 20
1.230149999999866
 30
0.0
 70
    32
  0
VERTEX
  5
186CD
330
1868A
100
AcDbEntity
  8
0
100
AcDbVertex
100
AcDb3dPolylineVertex
 10
1.655772815292891
 20
1.229579999999941
 30
0.0
 70
    32
  0
VERTEX
  5
186CE
330
1868A
100
AcDbEntity
  8
0
100
AcDbVertex
100
AcDb3dPolylineVertex
 10
1.661952815292977
 20
1.229010000000016
 30
0.0
 70
    32
  0
VERTEX
  5
186CF
330
1868A
100
AcDbEntity
  8
0
100
AcDbVertex
100
AcDb3dPolylineVertex
 10
1.668122815292861
 20
1.228419999999914
 30
0.0
 70
    32
  0
VERTEX
  5
186D0
330
1868A
100
AcDbEntity
  8
0
100
AcDbVertex
100
AcDb3dPolylineVertex
 10
1.674302815292946
 20
1.227829999999812
 30
0.0
 70
    32
  0
VERTEX
  5
186D1
330
1868A
100
AcDbEntity
  8
0
100
AcDbVertex
100
AcDb3dPolylineVertex
 10
1.680492815293007
 20
1.227229999999963
 30
0.0
 70
    32
  0
VERTEX
  5
186D2
330
1868A
100
AcDbEntity
  8
0
100
AcDbVertex
100
AcDb3dPolylineVertex
 10
1.686672815292865
 20
1.226619999999911
 30
0.0
 70
    32
  0
VERTEX
  5
186D3
330
1868A
100
AcDbEntity
  8
0
100
AcDbVertex
100
AcDb3dPolylineVertex
 10
1.692862815292926
 20
1.22600999999986
 30
0.0
 70
    32
  0
VERTEX
  5
186D4
330
1868A
100
AcDbEntity
  8
0
100
AcDbVertex
100
AcDb3dPolylineVertex
 10
1.699052815292986
 20
1.225390000000061
 30
0.0
 70
    32
  0
VERTEX
  5
186D5
330
1868A
100
AcDbEntity
  8
0
100
AcDbVertex
100
AcDb3dPolylineVertex
 10
1.70524281529282
 20
1.22476000000006
 30
0.0
 70
    32
  0
VERTEX
  5
186D6
330
1868A
100
AcDbEntity
  8
0
100
AcDbVertex
100
AcDb3dPolylineVertex
 10
1.71143281529288
 20
1.224119999999857
 30
0.0
 70
    32
  0
VERTEX
  5
186D7
330
1868A
100
AcDbEntity
  8
0
100
AcDbVertex
100
AcDb3dPolylineVertex
 10
1.717622815292941
 20
1.223480000000108
 30
0.0
 70
    32
  0
VERTEX
  5
186D8
330
1868A
100
AcDbEntity
  8
0
100
AcDbVertex
100
AcDb3dPolylineVertex
 10
1.723822815292976
 20
1.222819999999956
 30
0.0
 70
    32
  0
VERTEX
  5
186D9
330
1868A
100
AcDbEntity
  8
0
100
AcDbVertex
100
AcDb3dPolylineVertex
 10
1.730022815293011
 20
1.222170000000005
 30
0.0
 70
    32
  0
VERTEX
  5
186DA
330
1868A
100
AcDbEntity
  8
0
100
AcDbVertex
100
AcDb3dPolylineVertex
 10
1.736232815293021
 20
1.221500000000105
 30
0.0
 70
    32
  0
VERTEX
  5
186DB
330
1868A
100
AcDbEntity
  8
0
100
AcDbVertex
100
AcDb3dPolylineVertex
 10
1.742432815292829
 20
1.220829999999978
 30
0.0
 70
    32
  0
VERTEX
  5
186DC
330
1868A
100
AcDbEntity
  8
0
100
AcDbVertex
100
AcDb3dPolylineVertex
 10
1.748642815292839
 20
1.220139999999901
 30
0.0
 70
    32
  0
VERTEX
  5
186DD
330
1868A
100
AcDbEntity
  8
0
100
AcDbVertex
100
AcDb3dPolylineVertex
 10
1.754852815292849
 20
1.219450000000051
 30
0.0
 70
    32
  0
VERTEX
  5
186DE
330
1868A
100
AcDbEntity
  8
0
100
AcDbVertex
100
AcDb3dPolylineVertex
 10
1.761062815292859
 20
1.21875
 30
0.0
 70
    32
  0
VERTEX
  5
186DF
330
1868A
100
AcDbEntity
  8
0
100
AcDbVertex
100
AcDb3dPolylineVertex
 10
1.767272815292869
 20
1.218039999999973
 30
0.0
 70
    32
  0
VERTEX
  5
186E0
330
1868A
100
AcDbEntity
  8
0
100
AcDbVertex
100
AcDb3dPolylineVertex
 10
1.773482815292879
 20
1.217319999999972
 30
0.0
 70
    32
  0
VERTEX
  5
186E1
330
1868A
100
AcDbEntity
  8
0
100
AcDbVertex
100
AcDb3dPolylineVertex
 10
1.779702815292864
 20
1.216589999999996
 30
0.0
 70
    32
  0
VERTEX
  5
186E2
330
1868A
100
AcDbEntity
  8
0
100
AcDbVertex
100
AcDb3dPolylineVertex
 10
1.785912815292874
 20
1.215850000000045
 30
0.0
 70
    32
  0
VERTEX
  5
186E3
330
1868A
100
AcDbEntity
  8
0
100
AcDbVertex
100
AcDb3dPolylineVertex
 10
1.792122815292884
 20
1.215089999999918
 30
0.0
 70
    32
  0
VERTEX
  5
186E4
330
1868A
100
AcDbEntity
  8
0
100
AcDbVertex
100
AcDb3dPolylineVertex
 10
1.798332815292894
 20
1.214330000000018
 30
0.0
 70
    32
  0
VERTEX
  5
186E5
330
1868A
100
AcDbEntity
  8
0
100
AcDbVertex
100
AcDb3dPolylineVertex
 10
1.804552815292879
 20
1.213539999999966
 30
0.0
 70
    32
  0
VERTEX
  5
186E6
330
1868A
100
AcDbEntity
  8
0
100
AcDbVertex
100
AcDb3dPolylineVertex
 10
1.810762815292889
 20
1.212750000000141
 30
0.0
 70
    32
  0
VERTEX
  5
186E7
330
1868A
100
AcDbEntity
  8
0
100
AcDbVertex
100
AcDb3dPolylineVertex
 10
1.816962815292924
 20
1.21194000000014
 30
0.0
 70
    32
  0
VERTEX
  5
186E8
330
1868A
100
AcDbEntity
  8
0
100
AcDbVertex
100
AcDb3dPolylineVertex
 10
1.823172815292934
 20
1.211109999999962
 30
0.0
 70
    32
  0
VERTEX
  5
186E9
330
1868A
100
AcDbEntity
  8
0
100
AcDbVertex
100
AcDb3dPolylineVertex
 10
1.829382815292944
 20
1.210270000000036
 30
0.0
 70
    32
  0
VERTEX
  5
186EA
330
1868A
100
AcDbEntity
  8
0
100
AcDbVertex
100
AcDb3dPolylineVertex
 10
1.83558281529298
 20
1.209409999999934
 30
0.0
 70
    32
  0
VERTEX
  5
186EB
330
1868A
100
AcDbEntity
  8
0
100
AcDbVertex
100
AcDb3dPolylineVertex
 10
1.841782815293015
 20
1.208529999999882
 30
0.0
 70
    32
  0
VERTEX
  5
186EC
330
1868A
100
AcDbEntity
  8
0
100
AcDbVertex
100
AcDb3dPolylineVertex
 10
1.847972815292848
 20
1.207640000000083
 30
0.0
 70
    32
  0
VERTEX
  5
186ED
330
1868A
100
AcDbEntity
  8
0
100
AcDbVertex
100
AcDb3dPolylineVertex
 10
1.854162815292909
 20
1.206729999999879
 30
0.0
 70
    32
  0
VERTEX
  5
186EE
330
1868A
100
AcDbEntity
  8
0
100
AcDbVertex
100
AcDb3dPolylineVertex
 10
1.860352815292969
 20
1.205789999999979
 30
0.0
 70
    32
  0
VERTEX
  5
186EF
330
1868A
100
AcDbEntity
  8
0
100
AcDbVertex
100
AcDb3dPolylineVertex
 10
1.86654281529303
 20
1.204839999999876
 30
0.0
 70
    32
  0
VERTEX
  5
186F0
330
1868A
100
AcDbEntity
  8
0
100
AcDbVertex
100
AcDb3dPolylineVertex
 10
1.872722815292888
 20
1.203869999999824
 30
0.0
 70
    32
  0
VERTEX
  5
186F1
330
1868A
100
AcDbEntity
  8
0
100
AcDbVertex
100
AcDb3dPolylineVertex
 10
1.878892815292999
 20
1.202879999999822
 30
0.0
 70
    32
  0
VERTEX
  5
186F2
330
1868A
100
AcDbEntity
  8
0
100
AcDbVertex
100
AcDb3dPolylineVertex
 10
1.885062815292883
 20
1.201869999999871
 30
0.0
 70
    32
  0
VERTEX
  5
186F3
330
1868A
100
AcDbEntity
  8
0
100
AcDbVertex
100
AcDb3dPolylineVertex
 10
1.891222815293019
 20
1.200829999999996
 30
0.0
 70
    32
  0
VERTEX
  5
186F4
330
1868A
100
AcDbEntity
  8
0
100
AcDbVertex
100
AcDb3dPolylineVertex
 10
1.897382815292928
 20
1.199769999999944
 30
0.0
 70
    32
  0
VERTEX
  5
186F5
330
1868A
100
AcDbEntity
  8
0
100
AcDbVertex
100
AcDb3dPolylineVertex
 10
1.903532815292862
 20
1.198689999999942
 30
0.0
 70
    32
  0
VERTEX
  5
186F6
330
1868A
100
AcDbEntity
  8
0
100
AcDbVertex
100
AcDb3dPolylineVertex
 10
1.909682815293024
 20
1.197580000000016
 30
0.0
 70
    32
  0
VERTEX
  5
186F7
330
1868A
100
AcDbEntity
  8
0
100
AcDbVertex
100
AcDb3dPolylineVertex
 10
1.915822815292983
 20
1.196449999999913
 30
0.0
 70
    32
  0
VERTEX
  5
186F8
330
1868A
100
AcDbEntity
  8
0
100
AcDbVertex
100
AcDb3dPolylineVertex
 10
1.921952815292968
 20
1.195299999999861
 30
0.0
 70
    32
  0
VERTEX
  5
186F9
330
1868A
100
AcDbEntity
  8
0
100
AcDbVertex
100
AcDb3dPolylineVertex
 10
1.928072815292978
 20
1.194120000000111
 30
0.0
 70
    32
  0
VERTEX
  5
186FA
330
1868A
100
AcDbEntity
  8
0
100
AcDbVertex
100
AcDb3dPolylineVertex
 10
1.934192815292988
 20
1.192909999999983
 30
0.0
 70
    32
  0
VERTEX
  5
186FB
330
1868A
100
AcDbEntity
  8
0
100
AcDbVertex
100
AcDb3dPolylineVertex
 10
1.940302815293023
 20
1.191679999999905
 30
0.0
 70
    32
  0
VERTEX
  5
186FC
330
1868A
100
AcDbEntity
  8
0
100
AcDbVertex
100
AcDb3dPolylineVertex
 10
1.946402815292856
 20
1.190409999999928
 30
0.0
 70
    32
  0
VERTEX
  5
186FD
330
1868A
100
AcDbEntity
  8
0
100
AcDbVertex
100
AcDb3dPolylineVertex
 10
1.952492815292941
 20
1.189129999999977
 30
0.0
 70
    32
  0
VERTEX
  5
186FE
330
1868A
100
AcDbEntity
  8
0
100
AcDbVertex
100
AcDb3dPolylineVertex
 10
1.958572815292825
 20
1.187809999999899
 30
0.0
 70
    32
  0
VERTEX
  5
186FF
330
1868A
100
AcDbEntity
  8
0
100
AcDbVertex
100
AcDb3dPolylineVertex
 10
1.964642815292961
 20
1.186459999999897
 30
0.0
 70
    32
  0
VERTEX
  5
18700
330
1868A
100
AcDbEntity
  8
0
100
AcDbVertex
100
AcDb3dPolylineVertex
 10
1.970702815292895
 20
1.18507999999997
 30
0.0
 70
    32
  0
VERTEX
  5
18701
330
1868A
100
AcDbEntity
  8
0
100
AcDbVertex
100
AcDb3dPolylineVertex
 10
1.976752815292854
 20
1.183669999999892
 30
0.0
 70
    32
  0
VERTEX
  5
18702
330
1868A
100
AcDbEntity
  8
0
100
AcDbVertex
100
AcDb3dPolylineVertex
 10
1.982802815292814
 20
1.18222999999989
 30
0.0
 70
    32
  0
VERTEX
  5
18703
330
1868A
100
AcDbEntity
  8
0
100
AcDbVertex
100
AcDb3dPolylineVertex
 10
1.988832815292823
 20
1.180759999999963
 30
0.0
 70
    32
  0
VERTEX
  5
18704
330
1868A
100
AcDbEntity
  8
0
100
AcDbVertex
100
AcDb3dPolylineVertex
 10
1.994852815292858
 20
1.179259999999885
 30
0.0
 70
    32
  0
VERTEX
  5
18705
330
1868A
100
AcDbEntity
  8
0
100
AcDbVertex
100
AcDb3dPolylineVertex
 10
2.000852815292944
 20
1.177720000000135
 30
0.0
 70
    32
  0
VERTEX
  5
18706
330
1868A
100
AcDbEntity
  8
0
100
AcDbVertex
100
AcDb3dPolylineVertex
 10
2.006852815293029
 20
1.176150000000006
 30
0.0
 70
    32
  0
VERTEX
  5
18707
330
1868A
100
AcDbEntity
  8
0
100
AcDbVertex
100
AcDb3dPolylineVertex
 10
2.012832815292938
 20
1.174539999999979
 30
0.0
 70
    32
  0
VERTEX
  5
18708
330
1868A
100
AcDbEntity
  8
0
100
AcDbVertex
100
AcDb3dPolylineVertex
 10
2.018802815292872
 20
1.172900000000026
 30
0.0
 70
    32
  0
VERTEX
  5
18709
330
1868A
100
AcDbEntity
  8
0
100
AcDbVertex
100
AcDb3dPolylineVertex
 10
2.024762815292831
 20
1.171229999999923
 30
0.0
 70
    32
  0
VERTEX
  5
1870A
330
1868A
100
AcDbEntity
  8
0
100
AcDbVertex
100
AcDb3dPolylineVertex
 10
2.030712815292815
 20
1.16951999999992
 30
0.0
 70
    32
  0
VERTEX
  5
1870B
330
1868A
100
AcDbEntity
  8
0
100
AcDbVertex
100
AcDb3dPolylineVertex
 10
2.03664281529285
 20
1.167770000000018
 30
0.0
 70
    32
  0
VERTEX
  5
1870C
330
1868A
100
AcDbEntity
  8
0
100
AcDbVertex
100
AcDb3dPolylineVertex
 10
2.04256281529291
 20
1.165989999999965
 30
0.0
 70
    32
  0
VERTEX
  5
1870D
330
1868A
100
AcDbEntity
  8
0
100
AcDbVertex
100
AcDb3dPolylineVertex
 10
2.048462815293021
 20
1.16415999999981
 30
0.0
 70
    32
  0
VERTEX
  5
1870E
330
1868A
100
AcDbEntity
  8
0
100
AcDbVertex
100
AcDb3dPolylineVertex
 10
2.054352815292929
 20
1.162299999999959
 30
0.0
 70
    32
  0
VERTEX
  5
1870F
330
1868A
100
AcDbEntity
  8
0
100
AcDbVertex
100
AcDb3dPolylineVertex
 10
2.060232815292863
 20
1.160399999999981
 30
0.0
 70
    32
  0
VERTEX
  5
18710
330
1868A
100
AcDbEntity
  8
0
100
AcDbVertex
100
AcDb3dPolylineVertex
 10
2.066092815292847
 20
1.158460000000104
 30
0.0
 70
    32
  0
VERTEX
  5
18711
330
1868A
100
AcDbEntity
  8
0
100
AcDbVertex
100
AcDb3dPolylineVertex
 10
2.071932815292882
 20
1.156480000000101
 30
0.0
 70
    32
  0
VERTEX
  5
18712
330
1868A
100
AcDbEntity
  8
0
100
AcDbVertex
100
AcDb3dPolylineVertex
 10
2.077762815292942
 20
1.154459999999971
 30
0.0
 70
    32
  0
VERTEX
  5
18713
330
1868A
100
AcDbEntity
  8
0
100
AcDbVertex
100
AcDb3dPolylineVertex
 10
2.083572815292825
 20
1.152399999999943
 30
0.0
 70
    32
  0
VERTEX
  5
18714
330
1868A
100
AcDbEntity
  8
0
100
AcDbVertex
100
AcDb3dPolylineVertex
 10
2.089372815292961
 20
1.15029000000004
 30
0.0
 70
    32
  0
VERTEX
  5
18715
330
1868A
100
AcDbEntity
  8
0
100
AcDbVertex
100
AcDb3dPolylineVertex
 10
2.095152815292919
 20
1.148140000000012
 30
0.0
 70
    32
  0
VERTEX
  5
18716
330
1868A
100
AcDbEntity
  8
0
100
AcDbVertex
100
AcDb3dPolylineVertex
 10
2.100912815292929
 20
1.145950000000084
 30
0.0
 70
    32
  0
VERTEX
  5
18717
330
1868A
100
AcDbEntity
  8
0
100
AcDbVertex
100
AcDb3dPolylineVertex
 10
2.106652815292989
 20
1.14372000000003
 30
0.0
 70
    32
  0
VERTEX
  5
18718
330
1868A
100
AcDbEntity
  8
0
100
AcDbVertex
100
AcDb3dPolylineVertex
 10
2.112382815292846
 20
1.141439999999874
 30
0.0
 70
    32
  0
VERTEX
  5
18719
330
1868A
100
AcDbEntity
  8
0
100
AcDbVertex
100
AcDb3dPolylineVertex
 10
2.118092815292982
 20
1.139110000000073
 30
0.0
 70
    32
  0
VERTEX
  5
1871A
330
1868A
100
AcDbEntity
  8
0
100
AcDbVertex
100
AcDb3dPolylineVertex
 10
2.12378281529294
 20
1.136739999999917
 30
0.0
 70
    32
  0
VERTEX
  5
1871B
330
1868A
100
AcDbEntity
  8
0
100
AcDbVertex
100
AcDb3dPolylineVertex
 10
2.12945281529295
 20
1.134329999999863
 30
0.0
 70
    32
  0
VERTEX
  5
1871C
330
1868A
100
AcDbEntity
  8
0
100
AcDbVertex
100
AcDb3dPolylineVertex
 10
2.135102815293009
 20
1.13185999999996
 30
0.0
 70
    32
  0
VERTEX
  5
1871D
330
1868A
100
AcDbEntity
  8
0
100
AcDbVertex
100
AcDb3dPolylineVertex
 10
2.140732815292892
 20
1.129349999999931
 30
0.0
 70
    32
  0
VERTEX
  5
1871E
330
1868A
100
AcDbEntity
  8
0
100
AcDbVertex
100
AcDb3dPolylineVertex
 10
2.146352815293028
 20
1.126790000000028
 30
0.0
 70
    32
  0
VERTEX
  5
1871F
330
1868A
100
AcDbEntity
  8
0
100
AcDbVertex
100
AcDb3dPolylineVertex
 10
2.151942815293011
 20
1.124180000000023
 30
0.0
 70
    32
  0
VERTEX
  5
18720
330
1868A
100
AcDbEntity
  8
0
100
AcDbVertex
100
AcDb3dPolylineVertex
 10
2.157512815292818
 20
1.121529999999893
 30
0.0
 70
    32
  0
VERTEX
  5
18721
330
1868A
100
AcDbEntity
  8
0
100
AcDbVertex
100
AcDb3dPolylineVertex
 10
2.163062815292903
 20
1.118820000000141
 30
0.0
 70
    32
  0
VERTEX
  5
18722
330
1868A
100
AcDbEntity
  8
0
100
AcDbVertex
100
AcDb3dPolylineVertex
 10
2.168592815293038
 20
1.116059999999833
 30
0.0
 70
    32
  0
VERTEX
  5
18723
330
1868A
100
AcDbEntity
  8
0
100
AcDbVertex
100
AcDb3dPolylineVertex
 10
2.174102815292997
 20
1.113249999999879
 30
0.0
 70
    32
  0
VERTEX
  5
18724
330
1868A
100
AcDbEntity
  8
0
100
AcDbVertex
100
AcDb3dPolylineVertex
 10
2.179592815293005
 20
1.110389999999824
 30
0.0
 70
    32
  0
VERTEX
  5
18725
330
1868A
100
AcDbEntity
  8
0
100
AcDbVertex
100
AcDb3dPolylineVertex
 10
2.185062815292837
 20
1.107480000000123
 30
0.0
 70
    32
  0
VERTEX
  5
18726
330
1868A
100
AcDbEntity
  8
0
100
AcDbVertex
100
AcDb3dPolylineVertex
 10
2.190502815292973
 20
1.104510000000118
 30
0.0
 70
    32
  0
VERTEX
  5
18727
330
1868A
100
AcDbEntity
  8
0
100
AcDbVertex
100
AcDb3dPolylineVertex
 10
2.195922815292931
 20
1.101490000000012
 30
0.0
 70
    32
  0
VERTEX
  5
18728
330
1868A
100
AcDbEntity
  8
0
100
AcDbVertex
100
AcDb3dPolylineVertex
 10
2.201312815292965
 20
1.098419999999805
 30
0.0
 70
    32
  0
VERTEX
  5
18729
330
1868A
100
AcDbEntity
  8
0
100
AcDbVertex
100
AcDb3dPolylineVertex
 10
2.206692815293024
 20
1.095289999999977
 30
0.0
 70
    32
  0
VERTEX
  5
1872A
330
1868A
100
AcDbEntity
  8
0
100
AcDbVertex
100
AcDb3dPolylineVertex
 10
2.212032815292957
 20
1.092110000000047
 30
0.0
 70
    32
  0
VERTEX
  5
1872B
330
1868A
100
AcDbEntity
  8
0
100
AcDbVertex
100
AcDb3dPolylineVertex
 10
2.21735281529294
 20
1.088880000000017
 30
0.0
 70
    32
  0
VERTEX
  5
1872C
330
1868A
100
AcDbEntity
  8
0
100
AcDbVertex
100
AcDb3dPolylineVertex
 10
2.222652815292974
 20
1.085599999999885
 30
0.0
 70
    32
  0
VERTEX
  5
1872D
330
1868A
100
AcDbEntity
  8
0
100
AcDbVertex
100
AcDb3dPolylineVertex
 10
2.227912815292881
 20
1.08226999999988
 30
0.0
 70
    32
  0
VERTEX
  5
1872E
330
1868A
100
AcDbEntity
  8
0
100
AcDbVertex
100
AcDb3dPolylineVertex
 10
2.233152815292839
 20
1.078880000000026
 30
0.0
 70
    32
  0
VERTEX
  5
1872F
330
1868A
100
AcDbEntity
  8
0
100
AcDbVertex
100
AcDb3dPolylineVertex
 10
2.238362815292873
 20
1.075440000000071
 30
0.0
 70
    32
  0
VERTEX
  5
18730
330
1868A
100
AcDbEntity
  8
0
100
AcDbVertex
100
AcDb3dPolylineVertex
 10
2.243542815292983
 20
1.07195999999999
 30
0.0
 70
    32
  0
VERTEX
  5
18731
330
1868A
100
AcDbEntity
  8
0
100
AcDbVertex
100
AcDb3dPolylineVertex
 10
2.248702815292915
 20
1.06842000000006
 30
0.0
 70
    32
  0
VERTEX
  5
18732
330
1868A
100
AcDbEntity
  8
0
100
AcDbVertex
100
AcDb3dPolylineVertex
 10
2.253812815292974
 20
1.064840000000003
 30
0.0
 70
    32
  0
VERTEX
  5
18733
330
1868A
100
AcDbEntity
  8
0
100
AcDbVertex
100
AcDb3dPolylineVertex
 10
2.258902815292856
 20
1.061200000000098
 30
0.0
 70
    32
  0
VERTEX
  5
18734
330
1868A
100
AcDbEntity
  8
0
100
AcDbVertex
100
AcDb3dPolylineVertex
 10
2.263962815292813
 20
1.057510000000092
 30
0.0
 70
    32
  0
VERTEX
  5
18735
330
1868A
100
AcDbEntity
  8
0
100
AcDbVertex
100
AcDb3dPolylineVertex
 10
2.268982815292872
 20
1.05377999999996
 30
0.0
 70
    32
  0
VERTEX
  5
18736
330
1868A
100
AcDbEntity
  8
0
100
AcDbVertex
100
AcDb3dPolylineVertex
 10
2.273972815293006
 20
1.049999999999954
 30
0.0
 70
    32
  0
VERTEX
  5
18737
330
1868A
100
AcDbEntity
  8
0
100
AcDbVertex
100
AcDb3dPolylineVertex
 10
2.278922815293014
 20
1.046170000000074
 30
0.0
 70
    32
  0
VERTEX
  5
18738
330
1868A
100
AcDbEntity
  8
0
100
AcDbVertex
100
AcDb3dPolylineVertex
 10
2.283842815292871
 20
1.042289999999866
 30
0.0
 70
    32
  0
VERTEX
  5
18739
330
1868A
100
AcDbEntity
  8
0
100
AcDbVertex
100
AcDb3dPolylineVertex
 10
2.288722815292828
 20
1.038360000000011
 30
0.0
 70
    32
  0
VERTEX
  5
1873A
330
1868A
100
AcDbEntity
  8
0
100
AcDbVertex
100
AcDb3dPolylineVertex
 10
2.293572815292861
 20
1.034380000000055
 30
0.0
 70
    32
  0
VERTEX
  5
1873B
330
1868A
100
AcDbEntity
  8
0
100
AcDbVertex
100
AcDb3dPolylineVertex
 10
2.298382815292995
 20
1.030359999999973
 30
0.0
 70
    32
  0
VERTEX
  5
1873C
330
1868A
100
AcDbEntity
  8
0
100
AcDbVertex
100
AcDb3dPolylineVertex
 10
2.303142815293028
 20
1.026290000000017
 30
0.0
 70
    32
  0
VERTEX
  5
1873D
330
1868A
100
AcDbEntity
  8
0
100
AcDbVertex
100
AcDb3dPolylineVertex
 10
2.30787281529291
 20
1.022179999999934
 30
0.0
 70
    32
  0
VERTEX
  5
1873E
330
1868A
100
AcDbEntity
  8
0
100
AcDbVertex
100
AcDb3dPolylineVertex
 10
2.312572815292867
 20
1.018010000000003
 30
0.0
 70
    32
  0
VERTEX
  5
1873F
330
1868A
100
AcDbEntity
  8
0
100
AcDbVertex
100
AcDb3dPolylineVertex
 10
2.31722281529295
 20
1.013809999999921
 30
0.0
 70
    32
  0
VERTEX
  5
18740
330
1868A
100
AcDbEntity
  8
0
100
AcDbVertex
100
AcDb3dPolylineVertex
 10
2.321822815292932
 20
1.00954999999999
 30
0.0
 70
    32
  0
VERTEX
  5
18741
330
1868A
100
AcDbEntity
  8
0
100
AcDbVertex
100
AcDb3dPolylineVertex
 10
2.32639281529299
 20
1.005249999999932
 30
0.0
 70
    32
  0
VERTEX
  5
18742
330
1868A
100
AcDbEntity
  8
0
100
AcDbVertex
100
AcDb3dPolylineVertex
 10
2.330912815292947
 20
1.000909999999976
 30
0.0
 70
    32
  0
VERTEX
  5
18743
330
1868A
100
AcDbEntity
  8
0
100
AcDbVertex
100
AcDb3dPolylineVertex
 10
2.335392815293005
 20
0.9965219999999135
 30
0.0
 70
    32
  0
VERTEX
  5
18744
330
1868A
100
AcDbEntity
  8
0
100
AcDbVertex
100
AcDb3dPolylineVertex
 10
2.339832815292936
 20
0.9920889999998507
 30
0.0
 70
    32
  0
VERTEX
  5
18745
330
1868A
100
AcDbEntity
  8
0
100
AcDbVertex
100
AcDb3dPolylineVertex
 10
2.344222815292994
 20
0.9876119999998991
 30
0.0
 70
    32
  0
VERTEX
  5
18746
330
1868A
100
AcDbEntity
  8
0
100
AcDbVertex
100
AcDb3dPolylineVertex
 10
2.348572815292925
 20
0.9830910000000585
 30
0.0
 70
    32
  0
VERTEX
  5
18747
330
1868A
100
AcDbEntity
  8
0
100
AcDbVertex
100
AcDb3dPolylineVertex
 10
2.352872815292982
 20
0.9785269999999854
 30
0.0
 70
    32
  0
VERTEX
  5
18748
330
1868A
100
AcDbEntity
  8
0
100
AcDbVertex
100
AcDb3dPolylineVertex
 10
2.357122815292939
 20
0.9739199999999073
 30
0.0
 70
    32
  0
VERTEX
  5
18749
330
1868A
100
AcDbEntity
  8
0
100
AcDbVertex
100
AcDb3dPolylineVertex
 10
2.361322815293021
 20
0.9692689999999402
 30
0.0
 70
    32
  0
VERTEX
  5
1874A
330
1868A
100
AcDbEntity
  8
0
100
AcDbVertex
100
AcDb3dPolylineVertex
 10
2.365482815292978
 20
0.9645759999998517
 30
0.0
 70
    32
  0
VERTEX
  5
1874B
330
1868A
100
AcDbEntity
  8
0
100
AcDbVertex
100
AcDb3dPolylineVertex
 10
2.369592815292833
 20
0.9598409999998693
 30
0.0
 70
    32
  0
VERTEX
  5
1874C
330
1868A
100
AcDbEntity
  8
0
100
AcDbVertex
100
AcDb3dPolylineVertex
 10
2.373642815292839
 20
0.955063999999993
 30
0.0
 70
    32
  0
VERTEX
  5
1874D
330
1868A
100
AcDbEntity
  8
0
100
AcDbVertex
100
AcDb3dPolylineVertex
 10
2.377652815292947
 20
0.9502449999999953
 30
0.0
 70
    32
  0
VERTEX
  5
1874E
330
1868A
100
AcDbEntity
  8
0
100
AcDbVertex
100
AcDb3dPolylineVertex
 10
2.381602815292978
 20
0.9453849999999874
 30
0.0
 70
    32
  0
VERTEX
  5
1874F
330
1868A
100
AcDbEntity
  8
0
100
AcDbVertex
100
AcDb3dPolylineVertex
 10
2.385502815292909
 20
0.9404829999998582
 30
0.0
 70
    32
  0
VERTEX
  5
18750
330
1868A
100
AcDbEntity
  8
0
100
AcDbVertex
100
AcDb3dPolylineVertex
 10
2.389352815292966
 20
0.93554099999983
 30
0.0
 70
    32
  0
VERTEX
  5
18751
330
1868A
100
AcDbEntity
  8
0
100
AcDbVertex
100
AcDb3dPolylineVertex
 10
2.393152815292921
 20
0.9305589999999028
 30
0.0
 70
    32
  0
VERTEX
  5
18752
330
1868A
100
AcDbEntity
  8
0
100
AcDbVertex
100
AcDb3dPolylineVertex
 10
2.396892815293028
 20
0.9255359999999654
 30
0.0
 70
    32
  0
VERTEX
  5
18753
330
1868A
100
AcDbEntity
  8
0
100
AcDbVertex
100
AcDb3dPolylineVertex
 10
2.400572815292832
 20
0.9204740000000128
 30
0.0
 70
    32
  0
VERTEX
  5
18754
330
1868A
100
AcDbEntity
  8
0
100
AcDbVertex
100
AcDb3dPolylineVertex
 10
2.40420281529299
 20
0.9153719999999339
 30
0.0
 70
    32
  0
VERTEX
  5
18755
330
1868A
100
AcDbEntity
  8
0
100
AcDbVertex
100
AcDb3dPolylineVertex
 10
2.407772815292844
 20
0.9102309999998396
 30
0.0
 70
    32
  0
VERTEX
  5
18756
330
1868A
100
AcDbEntity
  8
0
100
AcDbVertex
100
AcDb3dPolylineVertex
 10
2.411292815292824
 20
0.9050509999999576
 30
0.0
 70
    32
  0
VERTEX
  5
18757
330
1868A
100
AcDbEntity
  8
0
100
AcDbVertex
100
AcDb3dPolylineVertex
 10
2.414742815292981
 20
0.8998320000000603
 30
0.0
 70
    32
  0
VERTEX
  5
18758
330
1868A
100
AcDbEntity
  8
0
100
AcDbVertex
100
AcDb3dPolylineVertex
 10
2.418142815293037
 20
0.8945759999999154
 30
0.0
 70
    32
  0
VERTEX
  5
18759
330
1868A
100
AcDbEntity
  8
0
100
AcDbVertex
100
AcDb3dPolylineVertex
 10
2.421482815293018
 20
0.8892809999999826
 30
0.0
 70
    32
  0
VERTEX
  5
1875A
330
1868A
100
AcDbEntity
  8
0
100
AcDbVertex
100
AcDb3dPolylineVertex
 10
2.424762815292922
 20
0.8839479999999184
 30
0.0
 70
    32
  0
VERTEX
  5
1875B
330
1868A
100
AcDbEntity
  8
0
100
AcDbVertex
100
AcDb3dPolylineVertex
 10
2.427982815292978
 20
0.8785779999998339
 30
0.0
 70
    32
  0
VERTEX
  5
1875C
330
1868A
100
AcDbEntity
  8
0
100
AcDbVertex
100
AcDb3dPolylineVertex
 10
2.431132815292983
 20
0.8731720000000677
 30
0.0
 70
    32
  0
VERTEX
  5
1875D
330
1868A
100
AcDbEntity
  8
0
100
AcDbVertex
100
AcDb3dPolylineVertex
 10
2.434222815292912
 20
0.8677279999999427
 30
0.0
 70
    32
  0
VERTEX
  5
1875E
330
1868A
100
AcDbEntity
  8
0
100
AcDbVertex
100
AcDb3dPolylineVertex
 10
2.437252815292993
 20
0.8622479999999086
 30
0.0
 70
    32
  0
VERTEX
  5
1875F
330
1868A
100
AcDbEntity
  8
0
100
AcDbVertex
100
AcDb3dPolylineVertex
 10
2.440222815292997
 20
0.8567319999999654
 30
0.0
 70
    32
  0
VERTEX
  5
18760
330
1868A
100
AcDbEntity
  8
0
100
AcDbVertex
100
AcDb3dPolylineVertex
 10
2.443122815292952
 20
0.851180000000113
 30
0.0
 70
    32
  0
VERTEX
  5
18761
330
1868A
100
AcDbEntity
  8
0
100
AcDbVertex
100
AcDb3dPolylineVertex
 10
2.445952815292855
 20
0.8455920000001242
 30
0.0
 70
    32
  0
VERTEX
  5
18762
330
1868A
100
AcDbEntity
  8
0
100
AcDbVertex
100
AcDb3dPolylineVertex
 10
2.44872281529291
 20
0.8399699999999938
 30
0.0
 70
    32
  0
VERTEX
  5
18763
330
1868A
100
AcDbEntity
  8
0
100
AcDbVertex
100
AcDb3dPolylineVertex
 10
2.451422815292914
 20
0.8343150000000605
 30
0.0
 70
    32
  0
VERTEX
  5
18764
330
1868A
100
AcDbEntity
  8
0
100
AcDbVertex
100
AcDb3dPolylineVertex
 10
2.454062815292843
 20
0.8286269999998694
 30
0.0
 70
    32
  0
VERTEX
  5
18765
330
1868A
100
AcDbEntity
  8
0
100
AcDbVertex
100
AcDb3dPolylineVertex
 10
2.456632815292948
 20
0.8229069999999865
 30
0.0
 70
    32
  0
VERTEX
  5
18766
330
1868A
100
AcDbEntity
  8
0
100
AcDbVertex
100
AcDb3dPolylineVertex
 10
2.459132815293003
 20
0.8171560000000681
 30
0.0
 70
    32
  0
VERTEX
  5
18767
330
1868A
100
AcDbEntity
  8
0
100
AcDbVertex
100
AcDb3dPolylineVertex
 10
2.461562815293007
 20
0.8113769999999931
 30
0.0
 70
    32
  0
VERTEX
  5
18768
330
1868A
100
AcDbEntity
  8
0
100
AcDbVertex
100
AcDb3dPolylineVertex
 10
2.46392281529296
 20
0.8055679999999938
 30
0.0
 70
    32
  0
VERTEX
  5
18769
330
1868A
100
AcDbEntity
  8
0
100
AcDbVertex
100
AcDb3dPolylineVertex
 10
2.466212815292863
 20
0.7997319999999491
 30
0.0
 70
    32
  0
VERTEX
  5
1876A
330
1868A
100
AcDbEntity
  8
0
100
AcDbVertex
100
AcDb3dPolylineVertex
 10
2.468432815292942
 20
0.7938690000000861
 30
0.0
 70
    32
  0
VERTEX
  5
1876B
330
1868A
100
AcDbEntity
  8
0
100
AcDbVertex
100
AcDb3dPolylineVertex
 10
2.470582815292971
 20
0.7879809999999452
 30
0.0
 70
    32
  0
VERTEX
  5
1876C
330
1868A
100
AcDbEntity
  8
0
100
AcDbVertex
100
AcDb3dPolylineVertex
 10
2.472662815292949
 20
0.7820679999999812
 30
0.0
 70
    32
  0
VERTEX
  5
1876D
330
1868A
100
AcDbEntity
  8
0
100
AcDbVertex
100
AcDb3dPolylineVertex
 10
2.474672815292876
 20
0.7761319999999614
 30
0.0
 70
    32
  0
VERTEX
  5
1876E
330
1868A
100
AcDbEntity
  8
0
100
AcDbVertex
100
AcDb3dPolylineVertex
 10
2.47661281529298
 20
0.7701729999998861
 30
0.0
 70
    32
  0
VERTEX
  5
1876F
330
1868A
100
AcDbEntity
  8
0
100
AcDbVertex
100
AcDb3dPolylineVertex
 10
2.478472815292832
 20
0.7641920000000937
 30
0.0
 70
    32
  0
VERTEX
  5
18770
330
1868A
100
AcDbEntity
  8
0
100
AcDbVertex
100
AcDb3dPolylineVertex
 10
2.48026281529286
 20
0.7581909999998971
 30
0.0
 70
    32
  0
VERTEX
  5
18771
330
1868A
100
AcDbEntity
  8
0
100
AcDbVertex
100
AcDb3dPolylineVertex
 10
2.481972815292863
 20
0.7521699999999783
 30
0.0
 70
    32
  0
VERTEX
  5
18772
330
1868A
100
AcDbEntity
  8
0
100
AcDbVertex
100
AcDb3dPolylineVertex
 10
2.483612815292815
 20
0.7461299999999938
 30
0.0
 70
    32
  0
VERTEX
  5
18773
330
1868A
100
AcDbEntity
  8
0
100
AcDbVertex
100
AcDb3dPolylineVertex
 10
2.485182815292944
 20
0.7400729999999385
 30
0.0
 70
    32
  0
VERTEX
  5
18774
330
1868A
100
AcDbEntity
  8
0
100
AcDbVertex
100
AcDb3dPolylineVertex
 10
2.48667281529282
 20
0.7339990000000399
 30
0.0
 70
    32
  0
VERTEX
  5
18775
330
1868A
100
AcDbEntity
  8
0
100
AcDbVertex
100
AcDb3dPolylineVertex
 10
2.488092815292873
 20
0.7279100000000654
 30
0.0
 70
    32
  0
VERTEX
  5
18776
330
1868A
100
AcDbEntity
  8
0
100
AcDbVertex
100
AcDb3dPolylineVertex
 10
2.489422815292925
 20
0.7218050000001313
 30
0.0
 70
    32
  0
VERTEX
  5
18777
330
1868A
100
AcDbEntity
  8
0
100
AcDbVertex
100
AcDb3dPolylineVertex
 10
2.490682815292927
 20
0.7156880000000001
 30
0.0
 70
    32
  0
VERTEX
  5
18778
330
1868A
100
AcDbEntity
  8
0
100
AcDbVertex
100
AcDb3dPolylineVertex
 10
2.491872815292879
 20
0.7095570000001317
 30
0.0
 70
    32
  0
VERTEX
  5
18779
330
1868A
100
AcDbEntity
  8
0
100
AcDbVertex
100
AcDb3dPolylineVertex
 10
2.49297281529283
 20
0.70341499999995
 30
0.0
 70
    32
  0
VERTEX
  5
1877A
330
1868A
100
AcDbEntity
  8
0
100
AcDbVertex
100
AcDb3dPolylineVertex
 10
2.494002815292958
 20
0.6972630000000209
 30
0.0
 70
    32
  0
VERTEX
  5
1877B
330
1868A
100
AcDbEntity
  8
0
100
AcDbVertex
100
AcDb3dPolylineVertex
 10
2.494952815292833
 20
0.6911000000000059
 30
0.0
 70
    32
  0
VERTEX
  5
1877C
330
1868A
100
AcDbEntity
  8
0
100
AcDbVertex
100
AcDb3dPolylineVertex
 10
2.495812815292936
 20
0.684929000000011
 30
0.0
 70
    32
  0
VERTEX
  5
1877D
330
1868A
100
AcDbEntity
  8
0
100
AcDbVertex
100
AcDb3dPolylineVertex
 10
2.496602815292987
 20
0.6787509999999202
 30
0.0
 70
    32
  0
VERTEX
  5
1877E
330
1868A
100
AcDbEntity
  8
0
100
AcDbVertex
100
AcDb3dPolylineVertex
 10
2.497312815293014
 20
0.6725649999998496
 30
0.0
 70
    32
  0
VERTEX
  5
1877F
330
1868A
100
AcDbEntity
  8
0
100
AcDbVertex
100
AcDb3dPolylineVertex
 10
2.49793281529304
 20
0.6663739999999052
 30
0.0
 70
    32
  0
VERTEX
  5
18780
330
1868A
100
AcDbEntity
  8
0
100
AcDbVertex
100
AcDb3dPolylineVertex
 10
2.498482815293016
 20
0.660178999999971
 30
0.0
 70
    32
  0
VERTEX
  5
18781
330
1868A
100
AcDbEntity
  8
0
100
AcDbVertex
100
AcDb3dPolylineVertex
 10
2.498942815292991
 20
0.6539789999999357
 30
0.0
 70
    32
  0
VERTEX
  5
18782
330
1868A
100
AcDbEntity
  8
0
100
AcDbVertex
100
AcDb3dPolylineVertex
 10
2.499322815292941
 20
0.6477770000001329
 30
0.0
 70
    32
  0
VERTEX
  5
18783
330
1868A
100
AcDbEntity
  8
0
100
AcDbVertex
100
AcDb3dPolylineVertex
 10
2.499612815292891
 20
0.6415739999999915
 30
0.0
 70
    32
  0
VERTEX
  5
18784
330
1868A
100
AcDbEntity
  8
0
100
AcDbVertex
100
AcDb3dPolylineVertex
 10
2.499822815292816
 20
0.6353690000000825
 30
0.0
 70
    32
  0
VERTEX
  5
18785
330
1868A
100
AcDbEntity
  8
0
100
AcDbVertex
100
AcDb3dPolylineVertex
 10
2.499952815292942
 20
0.6291649999998299
 30
0.0
 70
    32
  0
VERTEX
  5
18786
330
1868A
100
AcDbEntity
  8
0
100
AcDbVertex
100
AcDb3dPolylineVertex
 10
2.499992815292841
 20
0.6229630000000271
 30
0.0
 70
    32
  0
VERTEX
  5
18787
330
1868A
100
AcDbEntity
  8
0
100
AcDbVertex
100
AcDb3dPolylineVertex
 10
2.499952815292942
 20
0.616762000000108
 30
0.0
 70
    32
  0
VERTEX
  5
18788
330
1868A
100
AcDbEntity
  8
0
100
AcDbVertex
100
AcDb3dPolylineVertex
 10
2.499822815292816
 20
0.6105649999999514
 30
0.0
 70
    32
  0
VERTEX
  5
18789
330
1868A
100
AcDbEntity
  8
0
100
AcDbVertex
100
AcDb3dPolylineVertex
 10
2.499602815292917
 20
0.6043720000000122
 30
0.0
 70
    32
  0
VERTEX
  5
1878A
330
1868A
100
AcDbEntity
  8
0
100
AcDbVertex
100
AcDb3dPolylineVertex
 10
2.499302815292992
 20
0.5981849999998304
 30
0.0
 70
    32
  0
VERTEX
  5
1878B
330
1868A
100
AcDbEntity
  8
0
100
AcDbVertex
100
AcDb3dPolylineVertex
 10
2.49891281529284
 20
0.592002999999977
 30
0.0
 70
    32
  0
VERTEX
  5
1878C
330
1868A
100
AcDbEntity
  8
0
100
AcDbVertex
100
AcDb3dPolylineVertex
 10
2.498432815292915
 20
0.5858290000001034
 30
0.0
 70
    32
  0
VERTEX
  5
1878D
330
1868A
100
AcDbEntity
  8
0
100
AcDbVertex
100
AcDb3dPolylineVertex
 10
2.49786281529299
 20
0.5796629999999823
 30
0.0
 70
    32
  0
VERTEX
  5
1878E
330
1868A
100
AcDbEntity
  8
0
100
AcDbVertex
100
AcDb3dPolylineVertex
 10
2.497212815293039
 20
0.573504999999841
 30
0.0
 70
    32
  0
VERTEX
  5
1878F
330
1868A
100
AcDbEntity
  8
0
100
AcDbVertex
100
AcDb3dPolylineVertex
 10
2.496482815292836
 20
0.5673569999999018
 30
0.0
 70
    32
  0
VERTEX
  5
18790
330
1868A
100
AcDbEntity
  8
0
100
AcDbVertex
100
AcDb3dPolylineVertex
 10
2.49566281529286
 20
0.5612179999998262
 30
0.0
 70
    32
  0
VERTEX
  5
18791
330
1868A
100
AcDbEntity
  8
0
100
AcDbVertex
100
AcDb3dPolylineVertex
 10
2.494762815292858
 20
0.5550889999999527
 30
0.0
 70
    32
  0
VERTEX
  5
18792
330
1868A
100
AcDbEntity
  8
0
100
AcDbVertex
100
AcDb3dPolylineVertex
 10
2.493782815292831
 20
0.5489720000000489
 30
0.0
 70
    32
  0
VERTEX
  5
18793
330
1868A
100
AcDbEntity
  8
0
100
AcDbVertex
100
AcDb3dPolylineVertex
 10
2.492722815293006
 20
0.5428660000000037
 30
0.0
 70
    32
  0
VERTEX
  5
18794
330
1868A
100
AcDbEntity
  8
0
100
AcDbVertex
100
AcDb3dPolylineVertex
 10
2.491582815292929
 20
0.5367719999999281
 30
0.0
 70
    32
  0
VERTEX
  5
18795
330
1868A
100
AcDbEntity
  8
0
100
AcDbVertex
100
AcDb3dPolylineVertex
 10
2.490362815292826
 20
0.5306909999999334
 30
0.0
 70
    32
  0
VERTEX
  5
18796
330
1868A
100
AcDbEntity
  8
0
100
AcDbVertex
100
AcDb3dPolylineVertex
 10
2.4890728152929
 20
0.5246240000001308
 30
0.0
 70
    32
  0
VERTEX
  5
18797
330
1868A
100
AcDbEntity
  8
0
100
AcDbVertex
100
AcDb3dPolylineVertex
 10
2.487702815292948
 20
0.5185710000000654
 30
0.0
 70
    32
  0
VERTEX
  5
18798
330
1868A
100
AcDbEntity
  8
0
100
AcDbVertex
100
AcDb3dPolylineVertex
 10
2.486262815292946
 20
0.5125319999999647
 30
0.0
 70
    32
  0
VERTEX
  5
18799
330
1868A
100
AcDbEntity
  8
0
100
AcDbVertex
100
AcDb3dPolylineVertex
 10
2.484742815292918
 20
0.5065089999998236
 30
0.0
 70
    32
  0
VERTEX
  5
1879A
330
1868A
100
AcDbEntity
  8
0
100
AcDbVertex
100
AcDb3dPolylineVertex
 10
2.483162815292814
 20
0.5005019999998695
 30
0.0
 70
    32
  0
VERTEX
  5
1879B
330
1868A
100
AcDbEntity
  8
0
100
AcDbVertex
100
AcDb3dPolylineVertex
 10
2.481502815292913
 20
0.4945119999999861
 30
0.0
 70
    32
  0
VERTEX
  5
1879C
330
1868A
100
AcDbEntity
  8
0
100
AcDbVertex
100
AcDb3dPolylineVertex
 10
2.47977281529296
 20
0.4885389999999461
 30
0.0
 70
    32
  0
VERTEX
  5
1879D
330
1868A
100
AcDbEntity
  8
0
100
AcDbVertex
100
AcDb3dPolylineVertex
 10
2.477982815292932
 20
0.4825839999998607
 30
0.0
 70
    32
  0
VERTEX
  5
1879E
330
1868A
100
AcDbEntity
  8
0
100
AcDbVertex
100
AcDb3dPolylineVertex
 10
2.476122815292853
 20
0.4766469999999572
 30
0.0
 70
    32
  0
VERTEX
  5
1879F
330
1868A
100
AcDbEntity
  8
0
100
AcDbVertex
100
AcDb3dPolylineVertex
 10
2.474192815292951
 20
0.4707290000001195
 30
0.0
 70
    32
  0
VERTEX
  5
187A0
330
1868A
100
AcDbEntity
  8
0
100
AcDbVertex
100
AcDb3dPolylineVertex
 10
2.472202815292973
 20
0.464832000000115
 30
0.0
 70
    32
  0
VERTEX
  5
187A1
330
1868A
100
AcDbEntity
  8
0
100
AcDbVertex
100
AcDb3dPolylineVertex
 10
2.470142815292945
 20
0.45895500000006
 30
0.0
 70
    32
  0
VERTEX
  5
187A2
330
1868A
100
AcDbEntity
  8
0
100
AcDbVertex
100
AcDb3dPolylineVertex
 10
2.46802281529284
 20
0.4530979999999545
 30
0.0
 70
    32
  0
VERTEX
  5
187A3
330
1868A
100
AcDbEntity
  8
0
100
AcDbVertex
100
AcDb3dPolylineVertex
 10
2.465842815292887
 20
0.4472639999999047
 30
0.0
 70
    32
  0
VERTEX
  5
187A4
330
1868A
100
AcDbEntity
  8
0
100
AcDbVertex
100
AcDb3dPolylineVertex
 10
2.463602815292858
 20
0.4414520000000266
 30
0.0
 70
    32
  0
VERTEX
  5
187A5
330
1868A
100
AcDbEntity
  8
0
100
AcDbVertex
100
AcDb3dPolylineVertex
 10
2.461302815292981
 20
0.4356619999998657
 30
0.0
 70
    32
  0
VERTEX
  5
187A6
330
1868A
100
AcDbEntity
  8
0
100
AcDbVertex
100
AcDb3dPolylineVertex
 10
2.458942815293028
 20
0.4298969999999827
 30
0.0
 70
    32
  0
VERTEX
  5
187A7
330
1868A
100
AcDbEntity
  8
0
100
AcDbVertex
100
AcDb3dPolylineVertex
 10
2.456522815292998
 20
0.4241549999999279
 30
0.0
 70
    32
  0
VERTEX
  5
187A8
330
1868A
100
AcDbEntity
  8
0
100
AcDbVertex
100
AcDb3dPolylineVertex
 10
2.454052815292868
 20
0.4184390000000349
 30
0.0
 70
    32
  0
VERTEX
  5
187A9
330
1868A
100
AcDbEntity
  8
0
100
AcDbVertex
100
AcDb3dPolylineVertex
 10
2.451532815292864
 20
0.4127479999999651
 30
0.0
 70
    32
  0
VERTEX
  5
187AA
330
1868A
100
AcDbEntity
  8
0
100
AcDbVertex
100
AcDb3dPolylineVertex
 10
2.448952815293012
 20
0.407083000000057
 30
0.0
 70
    32
  0
VERTEX
  5
187AB
330
1868A
100
AcDbEntity
  8
0
100
AcDbVertex
100
AcDb3dPolylineVertex
 10
2.44632281529283
 20
0.4014440000000832
 30
0.0
 70
    32
  0
VERTEX
  5
187AC
330
1868A
100
AcDbEntity
  8
0
100
AcDbVertex
100
AcDb3dPolylineVertex
 10
2.443642815293003
 20
0.3958330000000387
 30
0.0
 70
    32
  0
VERTEX
  5
187AD
330
1868A
100
AcDbEntity
  8
0
100
AcDbVertex
100
AcDb3dPolylineVertex
 10
2.440902815292872
 20
0.3902499999999236
 30
0.0
 70
    32
  0
VERTEX
  5
187AE
330
1868A
100
AcDbEntity
  8
0
100
AcDbVertex
100
AcDb3dPolylineVertex
 10
2.438122815292842
 20
0.3846960000000763
 30
0.0
 70
    32
  0
VERTEX
  5
187AF
330
1868A
100
AcDbEntity
  8
0
100
AcDbVertex
100
AcDb3dPolylineVertex
 10
2.435292815292939
 20
0.3791710000000421
 30
0.0
 70
    32
  0
VERTEX
  5
187B0
330
1868A
100
AcDbEntity
  8
0
100
AcDbVertex
100
AcDb3dPolylineVertex
 10
2.432422815292909
 20
0.373674999999821
 30
0.0
 70
    32
  0
VERTEX
  5
187B1
330
1868A
100
AcDbEntity
  8
0
100
AcDbVertex
100
AcDb3dPolylineVertex
 10
2.429502815293005
 20
0.3682109999999739
 30
0.0
 70
    32
  0
VERTEX
  5
187B2
330
1868A
100
AcDbEntity
  8
0
100
AcDbVertex
100
AcDb3dPolylineVertex
 10
2.426532815293001
 20
0.362775000000056
 30
0.0
 70
    32
  0
VERTEX
  5
187B3
330
1868A
100
AcDbEntity
  8
0
100
AcDbVertex
100
AcDb3dPolylineVertex
 10
2.423532815292844
 20
0.3573670000000675
 30
0.0
 70
    32
  0
VERTEX
  5
187B4
330
1868A
100
AcDbEntity
  8
0
100
AcDbVertex
100
AcDb3dPolylineVertex
 10
2.420492815293016
 20
0.3519850000000133
 30
0.0
 70
    32
  0
VERTEX
  5
187B5
330
1868A
100
AcDbEntity
  8
0
100
AcDbVertex
100
AcDb3dPolylineVertex
 10
2.417412815292834
 20
0.3466269999998985
 30
0.0
 70
    32
  0
VERTEX
  5
187B6
330
1868A
100
AcDbEntity
  8
0
100
AcDbVertex
100
AcDb3dPolylineVertex
 10
2.414302815292955
 20
0.3412909999999556
 30
0.0
 70
    32
  0
VERTEX
  5
187B7
330
1868A
100
AcDbEntity
  8
0
100
AcDbVertex
100
AcDb3dPolylineVertex
 10
2.4111728152929
 20
0.3359740000000784
 30
0.0
 70
    32
  0
VERTEX
  5
187B8
330
1868A
100
AcDbEntity
  8
0
100
AcDbVertex
100
AcDb3dPolylineVertex
 10
2.408002815292945
 20
0.3306760000000395
 30
0.0
 70
    32
  0
VERTEX
  5
187B9
330
1868A
100
AcDbEntity
  8
0
100
AcDbVertex
100
AcDb3dPolylineVertex
 10
2.404822815293016
 20
0.3253930000000764
 30
0.0
 70
    32
  0
VERTEX
  5
187BA
330
1868A
100
AcDbEntity
  8
0
100
AcDbVertex
100
AcDb3dPolylineVertex
 10
2.401612815292935
 20
0.3201249999999618
 30
0.0
 70
    32
  0
VERTEX
  5
187BB
330
1868A
100
AcDbEntity
  8
0
100
AcDbVertex
100
AcDb3dPolylineVertex
 10
2.398392815292879
 20
0.3148689999998169
 30
0.0
 70
    32
  0
VERTEX
  5
187BC
330
1868A
100
AcDbEntity
  8
0
100
AcDbVertex
100
AcDb3dPolylineVertex
 10
2.395152815292874
 20
0.3096230000001015
 30
0.0
 70
    32
  0
VERTEX
  5
187BD
330
1868A
100
AcDbEntity
  8
0
100
AcDbVertex
100
AcDb3dPolylineVertex
 10
2.391902815292894
 20
0.3043860000000222
 30
0.0
 70
    32
  0
VERTEX
  5
187BE
330
1868A
100
AcDbEntity
  8
0
100
AcDbVertex
100
AcDb3dPolylineVertex
 10
2.388642815292939
 20
0.2991549999999279
 30
0.0
 70
    32
  0
VERTEX
  5
187BF
330
1868A
100
AcDbEntity
  8
0
100
AcDbVertex
100
AcDb3dPolylineVertex
 10
2.385382815292985
 20
0.2939280000000508
 30
0.0
 70
    32
  0
VERTEX
  5
187C0
330
1868A
100
AcDbEntity
  8
0
100
AcDbVertex
100
AcDb3dPolylineVertex
 10
2.382112815292828
 20
0.2887040000000525
 30
0.0
 70
    32
  0
VERTEX
  5
187C1
330
1868A
100
AcDbEntity
  8
0
100
AcDbVertex
100
AcDb3dPolylineVertex
 10
2.378852815292873
 20
0.2834809999999379
 30
0.0
 70
    32
  0
VERTEX
  5
187C2
330
1868A
100
AcDbEntity
  8
0
100
AcDbVertex
100
AcDb3dPolylineVertex
 10
2.375582815292943
 20
0.2782560000000558
 30
0.0
 70
    32
  0
VERTEX
  5
187C3
330
1868A
100
AcDbEntity
  8
0
100
AcDbVertex
100
AcDb3dPolylineVertex
 10
2.372332815292963
 20
0.2730280000000675
 30
0.0
 70
    32
  0
VERTEX
  5
187C4
330
1868A
100
AcDbEntity
  8
0
100
AcDbVertex
100
AcDb3dPolylineVertex
 10
2.369082815292983
 20
0.2677960000000894
 30
0.0
 70
    32
  0
VERTEX
  5
187C5
330
1868A
100
AcDbEntity
  8
0
100
AcDbVertex
100
AcDb3dPolylineVertex
 10
2.365842815292978
 20
0.2625550000000203
 30
0.0
 70
    32
  0
VERTEX
  5
187C6
330
1868A
100
AcDbEntity
  8
0
100
AcDbVertex
100
AcDb3dPolylineVertex
 10
2.362612815292948
 20
0.2573059999999714
 30
0.0
 70
    32
  0
VERTEX
  5
187C7
330
1868A
100
AcDbEntity
  8
0
100
AcDbVertex
100
AcDb3dPolylineVertex
 10
2.359412815292841
 20
0.2520460000000639
 30
0.0
 70
    32
  0
VERTEX
  5
187C8
330
1868A
100
AcDbEntity
  8
0
100
AcDbVertex
100
AcDb3dPolylineVertex
 10
2.356222815292937
 20
0.2467739999999594
 30
0.0
 70
    32
  0
VERTEX
  5
187C9
330
1868A
100
AcDbEntity
  8
0
100
AcDbVertex
100
AcDb3dPolylineVertex
 10
2.353062815292958
 20
0.2414859999998953
 30
0.0
 70
    32
  0
VERTEX
  5
187CA
330
1868A
100
AcDbEntity
  8
0
100
AcDbVertex
100
AcDb3dPolylineVertex
 10
2.349922815292927
 20
0.2361820000000989
 30
0.0
 70
    32
  0
VERTEX
  5
187CB
330
1868A
100
AcDbEntity
  8
0
100
AcDbVertex
100
AcDb3dPolylineVertex
 10
2.346812815292821
 20
0.2308590000000095
 30
0.0
 70
    32
  0
VERTEX
  5
187CC
330
1868A
100
AcDbEntity
  8
0
100
AcDbVertex
100
AcDb3dPolylineVertex
 10
2.343742815292841
 20
0.2255150000000867
 30
0.0
 70
    32
  0
VERTEX
  5
187CD
330
1868A
100
AcDbEntity
  8
0
100
AcDbVertex
100
AcDb3dPolylineVertex
 10
2.340702815293013
 20
0.2201489999999922
 30
0.0
 70
    32
  0
VERTEX
  5
187CE
330
1868A
100
AcDbEntity
  8
0
100
AcDbVertex
100
AcDb3dPolylineVertex
 10
2.337692815292882
 20
0.2147580000000744
 30
0.0
 70
    32
  0
VERTEX
  5
187CF
330
1868A
100
AcDbEntity
  8
0
100
AcDbVertex
100
AcDb3dPolylineVertex
 10
2.334732815292852
 20
0.209342000000106
 30
0.0
 70
    32
  0
VERTEX
  5
187D0
330
1868A
100
AcDbEntity
  8
0
100
AcDbVertex
100
AcDb3dPolylineVertex
 10
2.331812815292948
 20
0.2038969999998699
 30
0.0
 70
    32
  0
VERTEX
  5
187D1
330
1868A
100
AcDbEntity
  8
0
100
AcDbVertex
100
AcDb3dPolylineVertex
 10
2.328942815292919
 20
0.1984239999999318
 30
0.0
 70
    32
  0
VERTEX
  5
187D2
330
1868A
100
AcDbEntity
  8
0
100
AcDbVertex
100
AcDb3dPolylineVertex
 10
2.32612281529299
 20
0.1929219999999532
 30
0.0
 70
    32
  0
VERTEX
  5
187D3
330
1868A
100
AcDbEntity
  8
0
100
AcDbVertex
100
AcDb3dPolylineVertex
 10
2.323372815292884
 20
0.1873889999999392
 30
0.0
 70
    32
  0
VERTEX
  5
187D4
330
1868A
100
AcDbEntity
  8
0
100
AcDbVertex
100
AcDb3dPolylineVertex
 10
2.320692815292829
 20
0.1818250000001171
 30
0.0
 70
    32
  0
VERTEX
  5
187D5
330
1868A
100
AcDbEntity
  8
0
100
AcDbVertex
100
AcDb3dPolylineVertex
 10
2.31807281529285
 20
0.1762289999999211
 30
0.0
 70
    32
  0
VERTEX
  5
187D6
330
1868A
100
AcDbEntity
  8
0
100
AcDbVertex
100
AcDb3dPolylineVertex
 10
2.315542815292872
 20
0.1706009999998059
 30
0.0
 70
    32
  0
VERTEX
  5
187D7
330
1868A
100
AcDbEntity
  8
0
100
AcDbVertex
100
AcDb3dPolylineVertex
 10
2.313092815292918
 20
0.1649390000000039
 30
0.0
 70
    32
  0
VERTEX
  5
187D8
330
1868A
100
AcDbEntity
  8
0
100
AcDbVertex
100
AcDb3dPolylineVertex
 10
2.310732815292965
 20
0.1592419999999493
 30
0.0
 70
    32
  0
VERTEX
  5
187D9
330
1868A
100
AcDbEntity
  8
0
100
AcDbVertex
100
AcDb3dPolylineVertex
 10
2.308462815293012
 20
0.1535109999999804
 30
0.0
 70
    32
  0
VERTEX
  5
187DA
330
1868A
100
AcDbEntity
  8
0
100
AcDbVertex
100
AcDb3dPolylineVertex
 10
2.306292815293033
 20
0.1477429999999913
 30
0.0
 70
    32
  0
VERTEX
  5
187DB
330
1868A
100
AcDbEntity
  8
0
100
AcDbVertex
100
AcDb3dPolylineVertex
 10
2.30424281529298
 20
0.1419329999998808
 30
0.0
 70
    32
  0
VERTEX
  5
187DC
330
1868A
100
AcDbEntity
  8
0
100
AcDbVertex
100
AcDb3dPolylineVertex
 10
2.302282815292926
 20
0.1360290000000077
 30
0.0
 70
    32
  0
VERTEX
  5
187DD
330
1868A
100
AcDbEntity
  8
0
100
AcDbVertex
100
AcDb3dPolylineVertex
 10
2.300452815292999
 20
0.1299539999999979
 30
0.0
 70
    32
  0
VERTEX
  5
187DE
330
1868A
100
AcDbEntity
  8
0
100
AcDbVertex
100
AcDb3dPolylineVertex
 10
2.298722815292819
 20
0.1236300000000483
 30
0.0
 70
    32
  0
VERTEX
  5
187DF
330
1868A
100
AcDbEntity
  8
0
100
AcDbVertex
100
AcDb3dPolylineVertex
 10
2.297112815293019
 20
0.1169789999999011
 30
0.0
 70
    32
  0
VERTEX
  5
187E0
330
1868A
100
AcDbEntity
  8
0
100
AcDbVertex
100
AcDb3dPolylineVertex
 10
2.295622815292915
 20
0.1099229999999807
 30
0.0
 70
    32
  0
VERTEX
  5
187E1
330
1868A
100
AcDbEntity
  8
0
100
AcDbVertex
100
AcDb3dPolylineVertex
 10
2.294252815292963
 20
0.1023850000001403
 30
0.0
 70
    32
  0
VERTEX
  5
187E2
330
1868A
100
AcDbEntity
  8
0
100
AcDbVertex
100
AcDb3dPolylineVertex
 10
2.293002815292936
 20
0.0942869000000428
 30
0.0
 70
    32
  0
VERTEX
  5
187E3
330
1868A
100
AcDbEntity
  8
0
100
AcDbVertex
100
AcDb3dPolylineVertex
 10
2.291872815292833
 20
0.0855504999999539
 30
0.0
 70
    32
  0
VERTEX
  5
187E4
330
1868A
100
AcDbEntity
  8
0
100
AcDbVertex
100
AcDb3dPolylineVertex
 10
2.290872815292857
 20
0.0760983999998644
 30
0.0
 70
    32
  0
VERTEX
  5
187E5
330
1868A
100
AcDbEntity
  8
0
100
AcDbVertex
100
AcDb3dPolylineVertex
 10
2.290002815293007
 20
0.0658527999999024
 30
0.0
 70
    32
  0
VERTEX
  5
187E6
330
1868A
100
AcDbEntity
  8
0
100
AcDbVertex
100
AcDb3dPolylineVertex
 10
2.289272815293031
 20
0.0547358999999688
 30
0.0
 70
    32
  0
VERTEX
  5
187E7
330
1868A
100
AcDbEntity
  8
0
100
AcDbVertex
100
AcDb3dPolylineVertex
 10
2.28866281529298
 20
0.0426699999998164
 30
0.0
 70
    32
  0
VERTEX
  5
187E8
330
1868A
100
AcDbEntity
  8
0
100
AcDbVertex
100
AcDb3dPolylineVertex
 10
2.288192815293029
 20
0.0295771999999488
 30
0.0
 70
    32
  0
VERTEX
  5
187E9
330
1868A
100
AcDbEntity
  8
0
100
AcDbVertex
100
AcDb3dPolylineVertex
 10
2.287862815292953
 20
0.0153798000001189
 30
0.0
 70
    32
  0
VERTEX
  5
187EA
330
1868A
100
AcDbEntity
  8
0
100
AcDbVertex
100
AcDb3dPolylineVertex
 10
2.287672815292978
 20
-0.0000000000122782
 30
0.0
 70
    32
  0
SEQEND
  5
187EB
330
1868A
100
AcDbEntity
  8
0
  0
POLYLINE
  5
187EC
330
1F
100
AcDbEntity
  8
0
100
AcDb3dPolyline
 66
     1
 10
0.0
 20
0.0
 30
0.0
 70
     8
  0
VERTEX
  5
187ED
330
187EC
100
AcDbEntity
  8
0
100
AcDbVertex
100
AcDb3dPolylineVertex
 10
1.249992815292841
 20
1.25
 30
0.0
 70
    32
  0
VERTEX
  5
187EE
330
187EC
100
AcDbEntity
  8
0
100
AcDbVertex
100
AcDb3dPolylineVertex
 10
1.243832815292932
 20
1.249969999999848
 30
0.0
 70
    32
  0
VERTEX
  5
187EF
330
187EC
100
AcDbEntity
  8
0
100
AcDbVertex
100
AcDb3dPolylineVertex
 10
1.237682815292998
 20
1.249919999999974
 30
0.0
 70
    32
  0
VERTEX
  5
187F0
330
187EC
100
AcDbEntity
  8
0
100
AcDbVertex
100
AcDb3dPolylineVertex
 10
1.231522815292862
 20
1.2498700000001
 30
0.0
 70
    32
  0
VERTEX
  5
187F1
330
187EC
100
AcDbEntity
  8
0
100
AcDbVertex
100
AcDb3dPolylineVertex
 10
1.225372815292928
 20
1.249810000000024
 30
0.0
 70
    32
  0
VERTEX
  5
187F2
330
187EC
100
AcDbEntity
  8
0
100
AcDbVertex
100
AcDb3dPolylineVertex
 10
1.219222815292994
 20
1.249739999999974
 30
0.0
 70
    32
  0
VERTEX
  5
187F3
330
187EC
100
AcDbEntity
  8
0
100
AcDbVertex
100
AcDb3dPolylineVertex
 10
1.213072815292832
 20
1.249659999999948
 30
0.0
 70
    32
  0
VERTEX
  5
187F4
330
187EC
100
AcDbEntity
  8
0
100
AcDbVertex
100
AcDb3dPolylineVertex
 10
1.206922815292898
 20
1.249569999999948
 30
0.0
 70
    32
  0
VERTEX
  5
187F5
330
187EC
100
AcDbEntity
  8
0
100
AcDbVertex
100
AcDb3dPolylineVertex
 10
1.200772815292964
 20
1.249479999999948
 30
0.0
 70
    32
  0
VERTEX
  5
187F6
330
187EC
100
AcDbEntity
  8
0
100
AcDbVertex
100
AcDb3dPolylineVertex
 10
1.194632815293005
 20
1.249369999999998
 30
0.0
 70
    32
  0
VERTEX
  5
187F7
330
187EC
100
AcDbEntity
  8
0
100
AcDbVertex
100
AcDb3dPolylineVertex
 10
1.188482815292843
 20
1.249260000000049
 30
0.0
 70
    32
  0
VERTEX
  5
187F8
330
187EC
100
AcDbEntity
  8
0
100
AcDbVertex
100
AcDb3dPolylineVertex
 10
1.182332815292909
 20
1.249139999999897
 30
0.0
 70
    32
  0
VERTEX
  5
187F9
330
187EC
100
AcDbEntity
  8
0
100
AcDbVertex
100
AcDb3dPolylineVertex
 10
1.176192815292949
 20
1.249000000000023
 30
0.0
 70
    32
  0
VERTEX
  5
187FA
330
187EC
100
AcDbEntity
  8
0
100
AcDbVertex
100
AcDb3dPolylineVertex
 10
1.170042815293015
 20
1.248859999999922
 30
0.0
 70
    32
  0
VERTEX
  5
187FB
330
187EC
100
AcDbEntity
  8
0
100
AcDbVertex
100
AcDb3dPolylineVertex
 10
1.163902815292829
 20
1.248720000000048
 30
0.0
 70
    32
  0
VERTEX
  5
187FC
330
187EC
100
AcDbEntity
  8
0
100
AcDbVertex
100
AcDb3dPolylineVertex
 10
1.157762815292869
 20
1.248559999999997
 30
0.0
 70
    32
  0
VERTEX
  5
187FD
330
187EC
100
AcDbEntity
  8
0
100
AcDbVertex
100
AcDb3dPolylineVertex
 10
1.15162281529291
 20
1.248389999999972
 30
0.0
 70
    32
  0
VERTEX
  5
187FE
330
187EC
100
AcDbEntity
  8
0
100
AcDbVertex
100
AcDb3dPolylineVertex
 10
1.14548281529295
 20
1.248219999999946
 30
0.0
 70
    32
  0
VERTEX
  5
187FF
330
187EC
100
AcDbEntity
  8
0
100
AcDbVertex
100
AcDb3dPolylineVertex
 10
1.139332815293016
 20
1.248039999999946
 30
0.0
 70
    32
  0
VERTEX
  5
18800
330
187EC
100
AcDbEntity
  8
0
100
AcDbVertex
100
AcDb3dPolylineVertex
 10
1.133192815292829
 20
1.247839999999996
 30
0.0
 70
    32
  0
VERTEX
  5
18801
330
187EC
100
AcDbEntity
  8
0
100
AcDbVertex
100
AcDb3dPolylineVertex
 10
1.12705281529287
 20
1.247640000000046
 30
0.0
 70
    32
  0
VERTEX
  5
18802
330
187EC
100
AcDbEntity
  8
0
100
AcDbVertex
100
AcDb3dPolylineVertex
 10
1.120912815292911
 20
1.247440000000096
 30
0.0
 70
    32
  0
VERTEX
  5
18803
330
187EC
100
AcDbEntity
  8
0
100
AcDbVertex
100
AcDb3dPolylineVertex
 10
1.114782815292926
 20
1.24721999999997
 30
0.0
 70
    32
  0
VERTEX
  5
18804
330
187EC
100
AcDbEntity
  8
0
100
AcDbVertex
100
AcDb3dPolylineVertex
 10
1.108642815292967
 20
1.246990000000096
 30
0.0
 70
    32
  0
VERTEX
  5
18805
330
187EC
100
AcDbEntity
  8
0
100
AcDbVertex
100
AcDb3dPolylineVertex
 10
1.102502815293007
 20
1.246759999999994
 30
0.0
 70
    32
  0
VERTEX
  5
18806
330
187EC
100
AcDbEntity
  8
0
100
AcDbVertex
100
AcDb3dPolylineVertex
 10
1.09636281529282
 20
1.246519999999918
 30
0.0
 70
    32
  0
VERTEX
  5
18807
330
187EC
100
AcDbEntity
  8
0
100
AcDbVertex
100
AcDb3dPolylineVertex
 10
1.090222815292861
 20
1.246270000000095
 30
0.0
 70
    32
  0
VERTEX
  5
18808
330
187EC
100
AcDbEntity
  8
0
100
AcDbVertex
100
AcDb3dPolylineVertex
 10
1.084082815292902
 20
1.246009999999841
 30
0.0
 70
    32
  0
VERTEX
  5
18809
330
187EC
100
AcDbEntity
  8
0
100
AcDbVertex
100
AcDb3dPolylineVertex
 10
1.077942815292942
 20
1.245739999999841
 30
0.0
 70
    32
  0
VERTEX
  5
1880A
330
187EC
100
AcDbEntity
  8
0
100
AcDbVertex
100
AcDb3dPolylineVertex
 10
1.071812815292958
 20
1.245460000000093
 30
0.0
 70
    32
  0
VERTEX
  5
1880B
330
187EC
100
AcDbEntity
  8
0
100
AcDbVertex
100
AcDb3dPolylineVertex
 10
1.065672815292998
 20
1.245179999999891
 30
0.0
 70
    32
  0
VERTEX
  5
1880C
330
187EC
100
AcDbEntity
  8
0
100
AcDbVertex
100
AcDb3dPolylineVertex
 10
1.059532815293039
 20
1.244889999999941
 30
0.0
 70
    32
  0
VERTEX
  5
1880D
330
187EC
100
AcDbEntity
  8
0
100
AcDbVertex
100
AcDb3dPolylineVertex
 10
1.053392815292852
 20
1.244590000000016
 30
0.0
 70
    32
  0
VERTEX
  5
1880E
330
187EC
100
AcDbEntity
  8
0
100
AcDbVertex
100
AcDb3dPolylineVertex
 10
1.047252815292893
 20
1.244279999999889
 30
0.0
 70
    32
  0
VERTEX
  5
1880F
330
187EC
100
AcDbEntity
  8
0
100
AcDbVertex
100
AcDb3dPolylineVertex
 10
1.041112815292933
 20
1.243960000000015
 30
0.0
 70
    32
  0
VERTEX
  5
18810
330
187EC
100
AcDbEntity
  8
0
100
AcDbVertex
100
AcDb3dPolylineVertex
 10
1.034972815292974
 20
1.243629999999939
 30
0.0
 70
    32
  0
VERTEX
  5
18811
330
187EC
100
AcDbEntity
  8
0
100
AcDbVertex
100
AcDb3dPolylineVertex
 10
1.028832815293014
 20
1.24330000000009
 30
0.0
 70
    32
  0
VERTEX
  5
18812
330
187EC
100
AcDbEntity
  8
0
100
AcDbVertex
100
AcDb3dPolylineVertex
 10
1.022692815292828
 20
1.242960000000039
 30
0.0
 70
    32
  0
VERTEX
  5
18813
330
187EC
100
AcDbEntity
  8
0
100
AcDbVertex
100
AcDb3dPolylineVertex
 10
1.016552815292868
 20
1.242610000000013
 30
0.0
 70
    32
  0
VERTEX
  5
18814
330
187EC
100
AcDbEntity
  8
0
100
AcDbVertex
100
AcDb3dPolylineVertex
 10
1.010412815292909
 20
1.242250000000012
 30
0.0
 70
    32
  0
VERTEX
  5
18815
330
187EC
100
AcDbEntity
  8
0
100
AcDbVertex
100
AcDb3dPolylineVertex
 10
1.004272815292949
 20
1.241880000000037
 30
0.0
 70
    32
  0
VERTEX
  5
18816
330
187EC
100
AcDbEntity
  8
0
100
AcDbVertex
100
AcDb3dPolylineVertex
 10
0.9981268152930056
 20
1.241509999999834
 30
0.0
 70
    32
  0
VERTEX
  5
18817
330
187EC
100
AcDbEntity
  8
0
100
AcDbVertex
100
AcDb3dPolylineVertex
 10
0.9919838152929401
 20
1.241129999999884
 30
0.0
 70
    32
  0
VERTEX
  5
18818
330
187EC
100
AcDbEntity
  8
0
100
AcDbVertex
100
AcDb3dPolylineVertex
 10
0.9858398152929908
 20
1.240739999999959
 30
0.0
 70
    32
  0
VERTEX
  5
18819
330
187EC
100
AcDbEntity
  8
0
100
AcDbVertex
100
AcDb3dPolylineVertex
 10
0.9796948152929303
 20
1.240339999999832
 30
0.0
 70
    32
  0
VERTEX
  5
1881A
330
187EC
100
AcDbEntity
  8
0
100
AcDbVertex
100
AcDb3dPolylineVertex
 10
0.973548815292986
 20
1.239929999999958
 30
0.0
 70
    32
  0
VERTEX
  5
1881B
330
187EC
100
AcDbEntity
  8
0
100
AcDbVertex
100
AcDb3dPolylineVertex
 10
0.9674028152928144
 20
1.239520000000084
 30
0.0
 70
    32
  0
VERTEX
  5
1881C
330
187EC
100
AcDbEntity
  8
0
100
AcDbVertex
100
AcDb3dPolylineVertex
 10
0.9612548152928752
 20
1.239100000000007
 30
0.0
 70
    32
  0
VERTEX
  5
1881D
330
187EC
100
AcDbEntity
  8
0
100
AcDbVertex
100
AcDb3dPolylineVertex
 10
0.955106815292936
 20
1.238659999999981
 30
0.0
 70
    32
  0
VERTEX
  5
1881E
330
187EC
100
AcDbEntity
  8
0
100
AcDbVertex
100
AcDb3dPolylineVertex
 10
0.9489568152930019
 20
1.23822999999993
 30
0.0
 70
    32
  0
VERTEX
  5
1881F
330
187EC
100
AcDbEntity
  8
0
100
AcDbVertex
100
AcDb3dPolylineVertex
 10
0.9428068152928403
 20
1.237779999999929
 30
0.0
 70
    32
  0
VERTEX
  5
18820
330
187EC
100
AcDbEntity
  8
0
100
AcDbVertex
100
AcDb3dPolylineVertex
 10
0.9366548152929112
 20
1.237329999999928
 30
0.0
 70
    32
  0
VERTEX
  5
18821
330
187EC
100
AcDbEntity
  8
0
100
AcDbVertex
100
AcDb3dPolylineVertex
 10
0.9305028152929821
 20
1.236859999999978
 30
0.0
 70
    32
  0
VERTEX
  5
18822
330
187EC
100
AcDbEntity
  8
0
100
AcDbVertex
100
AcDb3dPolylineVertex
 10
0.9243488152928307
 20
1.236390000000028
 30
0.0
 70
    32
  0
VERTEX
  5
18823
330
187EC
100
AcDbEntity
  8
0
100
AcDbVertex
100
AcDb3dPolylineVertex
 10
0.9181928152929117
 20
1.235920000000078
 30
0.0
 70
    32
  0
VERTEX
  5
18824
330
187EC
100
AcDbEntity
  8
0
100
AcDbVertex
100
AcDb3dPolylineVertex
 10
0.9120368152929927
 20
1.235429999999951
 30
0.0
 70
    32
  0
VERTEX
  5
18825
330
187EC
100
AcDbEntity
  8
0
100
AcDbVertex
100
AcDb3dPolylineVertex
 10
0.9058788152928514
 20
1.234939999999824
 30
0.0
 70
    32
  0
VERTEX
  5
18826
330
187EC
100
AcDbEntity
  8
0
100
AcDbVertex
100
AcDb3dPolylineVertex
 10
0.8997198152928262
 20
1.234439999999949
 30
0.0
 70
    32
  0
VERTEX
  5
18827
330
187EC
100
AcDbEntity
  8
0
100
AcDbVertex
100
AcDb3dPolylineVertex
 10
0.8935588152930336
 20
1.233929999999872
 30
0.0
 70
    32
  0
VERTEX
  5
18828
330
187EC
100
AcDbEntity
  8
0
100
AcDbVertex
100
AcDb3dPolylineVertex
 10
0.8873968152929023
 20
1.233409999999821
 30
0.0
 70
    32
  0
VERTEX
  5
18829
330
187EC
100
AcDbEntity
  8
0
100
AcDbVertex
100
AcDb3dPolylineVertex
 10
0.8812328152930035
 20
1.232889999999997
 30
0.0
 70
    32
  0
VERTEX
  5
1882A
330
187EC
100
AcDbEntity
  8
0
100
AcDbVertex
100
AcDb3dPolylineVertex
 10
0.8750668152928824
 20
1.232359999999971
 30
0.0
 70
    32
  0
VERTEX
  5
1882B
330
187EC
100
AcDbEntity
  8
0
100
AcDbVertex
100
AcDb3dPolylineVertex
 10
0.8688998152928775
 20
1.23181999999997
 30
0.0
 70
    32
  0
VERTEX
  5
1882C
330
187EC
100
AcDbEntity
  8
0
100
AcDbVertex
100
AcDb3dPolylineVertex
 10
0.8627308152928776
 20
1.231269999999994
 30
0.0
 70
    32
  0
VERTEX
  5
1882D
330
187EC
100
AcDbEntity
  8
0
100
AcDbVertex
100
AcDb3dPolylineVertex
 10
0.8565608152929939
 20
1.230720000000019
 30
0.0
 70
    32
  0
VERTEX
  5
1882E
330
187EC
100
AcDbEntity
  8
0
100
AcDbVertex
100
AcDb3dPolylineVertex
 10
0.8503878152930042
 20
1.230149999999866
 30
0.0
 70
    32
  0
VERTEX
  5
1882F
330
187EC
100
AcDbEntity
  8
0
100
AcDbVertex
100
AcDb3dPolylineVertex
 10
0.8442138152929032
 20
1.229579999999941
 30
0.0
 70
    32
  0
VERTEX
  5
18830
330
187EC
100
AcDbEntity
  8
0
100
AcDbVertex
100
AcDb3dPolylineVertex
 10
0.8380378152930347
 20
1.229010000000016
 30
0.0
 70
    32
  0
VERTEX
  5
18831
330
187EC
100
AcDbEntity
  8
0
100
AcDbVertex
100
AcDb3dPolylineVertex
 10
0.8318598152929439
 20
1.228419999999914
 30
0.0
 70
    32
  0
VERTEX
  5
18832
330
187EC
100
AcDbEntity
  8
0
100
AcDbVertex
100
AcDb3dPolylineVertex
 10
0.8256788152929743
 20
1.227829999999812
 30
0.0
 70
    32
  0
VERTEX
  5
18833
330
187EC
100
AcDbEntity
  8
0
100
AcDbVertex
100
AcDb3dPolylineVertex
 10
0.8194968152928936
 20
1.227229999999963
 30
0.0
 70
    32
  0
VERTEX
  5
18834
330
187EC
100
AcDbEntity
  8
0
100
AcDbVertex
100
AcDb3dPolylineVertex
 10
0.8133128152928179
 20
1.226619999999911
 30
0.0
 70
    32
  0
VERTEX
  5
18835
330
187EC
100
AcDbEntity
  8
0
100
AcDbVertex
100
AcDb3dPolylineVertex
 10
0.8071258152928635
 20
1.22600999999986
 30
0.0
 70
    32
  0
VERTEX
  5
18836
330
187EC
100
AcDbEntity
  8
0
100
AcDbVertex
100
AcDb3dPolylineVertex
 10
0.8009378152930253
 20
1.225390000000061
 30
0.0
 70
    32
  0
VERTEX
  5
18837
330
187EC
100
AcDbEntity
  8
0
100
AcDbVertex
100
AcDb3dPolylineVertex
 10
0.7947468152928537
 20
1.22476000000006
 30
0.0
 70
    32
  0
VERTEX
  5
18838
330
187EC
100
AcDbEntity
  8
0
100
AcDbVertex
100
AcDb3dPolylineVertex
 10
0.7885538152929144
 20
1.224119999999857
 30
0.0
 70
    32
  0
VERTEX
  5
18839
330
187EC
100
AcDbEntity
  8
0
100
AcDbVertex
100
AcDb3dPolylineVertex
 10
0.782357815292869
 20
1.223480000000108
 30
0.0
 70
    32
  0
VERTEX
  5
1883A
330
187EC
100
AcDbEntity
  8
0
100
AcDbVertex
100
AcDb3dPolylineVertex
 10
0.7761598152928287
 20
1.222819999999956
 30
0.0
 70
    32
  0
VERTEX
  5
1883B
330
187EC
100
AcDbEntity
  8
0
100
AcDbVertex
100
AcDb3dPolylineVertex
 10
0.7699598152930207
 20
1.222170000000005
 30
0.0
 70
    32
  0
VERTEX
  5
1883C
330
187EC
100
AcDbEntity
  8
0
100
AcDbVertex
100
AcDb3dPolylineVertex
 10
0.7637568152928793
 20
1.221500000000105
 30
0.0
 70
    32
  0
VERTEX
  5
1883D
330
187EC
100
AcDbEntity
  8
0
100
AcDbVertex
100
AcDb3dPolylineVertex
 10
0.7575508152928592
 20
1.220829999999978
 30
0.0
 70
    32
  0
VERTEX
  5
1883E
330
187EC
100
AcDbEntity
  8
0
100
AcDbVertex
100
AcDb3dPolylineVertex
 10
0.7513438152929553
 20
1.220139999999901
 30
0.0
 70
    32
  0
VERTEX
  5
1883F
330
187EC
100
AcDbEntity
  8
0
100
AcDbVertex
100
AcDb3dPolylineVertex
 10
0.745134815292829
 20
1.219450000000051
 30
0.0
 70
    32
  0
VERTEX
  5
18840
330
187EC
100
AcDbEntity
  8
0
100
AcDbVertex
100
AcDb3dPolylineVertex
 10
0.7389238152929352
 20
1.21875
 30
0.0
 70
    32
  0
VERTEX
  5
18841
330
187EC
100
AcDbEntity
  8
0
100
AcDbVertex
100
AcDb3dPolylineVertex
 10
0.7327118152929302
 20
1.218039999999973
 30
0.0
 70
    32
  0
VERTEX
  5
18842
330
187EC
100
AcDbEntity
  8
0
100
AcDbVertex
100
AcDb3dPolylineVertex
 10
0.7264998152929252
 20
1.217319999999972
 30
0.0
 70
    32
  0
VERTEX
  5
18843
330
187EC
100
AcDbEntity
  8
0
100
AcDbVertex
100
AcDb3dPolylineVertex
 10
0.7202868152930364
 20
1.216589999999996
 30
0.0
 70
    32
  0
VERTEX
  5
18844
330
187EC
100
AcDbEntity
  8
0
100
AcDbVertex
100
AcDb3dPolylineVertex
 10
0.7140738152929203
 20
1.215850000000045
 30
0.0
 70
    32
  0
VERTEX
  5
18845
330
187EC
100
AcDbEntity
  8
0
100
AcDbVertex
100
AcDb3dPolylineVertex
 10
0.7078608152930315
 20
1.215089999999918
 30
0.0
 70
    32
  0
VERTEX
  5
18846
330
187EC
100
AcDbEntity
  8
0
100
AcDbVertex
100
AcDb3dPolylineVertex
 10
0.7016488152930265
 20
1.214330000000018
 30
0.0
 70
    32
  0
VERTEX
  5
18847
330
187EC
100
AcDbEntity
  8
0
100
AcDbVertex
100
AcDb3dPolylineVertex
 10
0.6954378152929053
 20
1.213539999999966
 30
0.0
 70
    32
  0
VERTEX
  5
18848
330
187EC
100
AcDbEntity
  8
0
100
AcDbVertex
100
AcDb3dPolylineVertex
 10
0.6892268152930115
 20
1.212750000000141
 30
0.0
 70
    32
  0
VERTEX
  5
18849
330
187EC
100
AcDbEntity
  8
0
100
AcDbVertex
100
AcDb3dPolylineVertex
 10
0.6830188152929964
 20
1.21194000000014
 30
0.0
 70
    32
  0
VERTEX
  5
1884A
330
187EC
100
AcDbEntity
  8
0
100
AcDbVertex
100
AcDb3dPolylineVertex
 10
0.6768118152928651
 20
1.211109999999962
 30
0.0
 70
    32
  0
VERTEX
  5
1884B
330
187EC
100
AcDbEntity
  8
0
100
AcDbVertex
100
AcDb3dPolylineVertex
 10
0.6706078152928399
 20
1.210270000000036
 30
0.0
 70
    32
  0
VERTEX
  5
1884C
330
187EC
100
AcDbEntity
  8
0
100
AcDbVertex
100
AcDb3dPolylineVertex
 10
0.664405815293037
 20
1.209409999999934
 30
0.0
 70
    32
  0
VERTEX
  5
1884D
330
187EC
100
AcDbEntity
  8
0
100
AcDbVertex
100
AcDb3dPolylineVertex
 10
0.6582068152928855
 20
1.208529999999882
 30
0.0
 70
    32
  0
VERTEX
  5
1884E
330
187EC
100
AcDbEntity
  8
0
100
AcDbVertex
100
AcDb3dPolylineVertex
 10
0.6520108152928401
 20
1.207640000000083
 30
0.0
 70
    32
  0
VERTEX
  5
1884F
330
187EC
100
AcDbEntity
  8
0
100
AcDbVertex
100
AcDb3dPolylineVertex
 10
0.645818815293012
 20
1.206729999999879
 30
0.0
 70
    32
  0
VERTEX
  5
18850
330
187EC
100
AcDbEntity
  8
0
100
AcDbVertex
100
AcDb3dPolylineVertex
 10
0.6396308152929464
 20
1.205789999999979
 30
0.0
 70
    32
  0
VERTEX
  5
18851
330
187EC
100
AcDbEntity
  8
0
100
AcDbVertex
100
AcDb3dPolylineVertex
 10
0.633445815292987
 20
1.204839999999876
 30
0.0
 70
    32
  0
VERTEX
  5
18852
330
187EC
100
AcDbEntity
  8
0
100
AcDbVertex
100
AcDb3dPolylineVertex
 10
0.6272668152930124
 20
1.203869999999824
 30
0.0
 70
    32
  0
VERTEX
  5
18853
330
187EC
100
AcDbEntity
  8
0
100
AcDbVertex
100
AcDb3dPolylineVertex
 10
0.6210918152930276
 20
1.202879999999822
 30
0.0
 70
    32
  0
VERTEX
  5
18854
330
187EC
100
AcDbEntity
  8
0
100
AcDbVertex
100
AcDb3dPolylineVertex
 10
0.6149218152929166
 20
1.201869999999871
 30
0.0
 70
    32
  0
VERTEX
  5
18855
330
187EC
100
AcDbEntity
  8
0
100
AcDbVertex
100
AcDb3dPolylineVertex
 10
0.6087578152930178
 20
1.200829999999996
 30
0.0
 70
    32
  0
VERTEX
  5
18856
330
187EC
100
AcDbEntity
  8
0
100
AcDbVertex
100
AcDb3dPolylineVertex
 10
0.6025998152928765
 20
1.199769999999944
 30
0.0
 70
    32
  0
VERTEX
  5
18857
330
187EC
100
AcDbEntity
  8
0
100
AcDbVertex
100
AcDb3dPolylineVertex
 10
0.5964478152929474
 20
1.198689999999942
 30
0.0
 70
    32
  0
VERTEX
  5
18858
330
187EC
100
AcDbEntity
  8
0
100
AcDbVertex
100
AcDb3dPolylineVertex
 10
0.5903028152928869
 20
1.197580000000016
 30
0.0
 70
    32
  0
VERTEX
  5
18859
330
187EC
100
AcDbEntity
  8
0
100
AcDbVertex
100
AcDb3dPolylineVertex
 10
0.5841638152930387
 20
1.196449999999913
 30
0.0
 70
    32
  0
VERTEX
  5
1885A
330
187EC
100
AcDbEntity
  8
0
100
AcDbVertex
100
AcDb3dPolylineVertex
 10
0.5780328152929429
 20
1.195299999999861
 30
0.0
 70
    32
  0
VERTEX
  5
1885B
330
187EC
100
AcDbEntity
  8
0
100
AcDbVertex
100
AcDb3dPolylineVertex
 10
0.5719088152929431
 20
1.194120000000111
 30
0.0
 70
    32
  0
VERTEX
  5
1885C
330
187EC
100
AcDbEntity
  8
0
100
AcDbVertex
100
AcDb3dPolylineVertex
 10
0.5657928152929231
 20
1.192909999999983
 30
0.0
 70
    32
  0
VERTEX
  5
1885D
330
187EC
100
AcDbEntity
  8
0
100
AcDbVertex
100
AcDb3dPolylineVertex
 10
0.5596848152928829
 20
1.191679999999905
 30
0.0
 70
    32
  0
VERTEX
  5
1885E
330
187EC
100
AcDbEntity
  8
0
100
AcDbVertex
100
AcDb3dPolylineVertex
 10
0.5535858152929336
 20
1.190409999999928
 30
0.0
 70
    32
  0
VERTEX
  5
1885F
330
187EC
100
AcDbEntity
  8
0
100
AcDbVertex
100
AcDb3dPolylineVertex
 10
0.5474948152929642
 20
1.189129999999977
 30
0.0
 70
    32
  0
VERTEX
  5
18860
330
187EC
100
AcDbEntity
  8
0
100
AcDbVertex
100
AcDb3dPolylineVertex
 10
0.5414138152929695
 20
1.187809999999899
 30
0.0
 70
    32
  0
VERTEX
  5
18861
330
187EC
100
AcDbEntity
  8
0
100
AcDbVertex
100
AcDb3dPolylineVertex
 10
0.5353418152928385
 20
1.186459999999897
 30
0.0
 70
    32
  0
VERTEX
  5
18862
330
187EC
100
AcDbEntity
  8
0
100
AcDbVertex
100
AcDb3dPolylineVertex
 10
0.5292798152929095
 20
1.18507999999997
 30
0.0
 70
    32
  0
VERTEX
  5
18863
330
187EC
100
AcDbEntity
  8
0
100
AcDbVertex
100
AcDb3dPolylineVertex
 10
0.5232278152929553
 20
1.183669999999892
 30
0.0
 70
    32
  0
VERTEX
  5
18864
330
187EC
100
AcDbEntity
  8
0
100
AcDbVertex
100
AcDb3dPolylineVertex
 10
0.5171868152928596
 20
1.18222999999989
 30
0.0
 70
    32
  0
VERTEX
  5
18865
330
187EC
100
AcDbEntity
  8
0
100
AcDbVertex
100
AcDb3dPolylineVertex
 10
0.5111558152929661
 20
1.180759999999963
 30
0.0
 70
    32
  0
VERTEX
  5
18866
330
187EC
100
AcDbEntity
  8
0
100
AcDbVertex
100
AcDb3dPolylineVertex
 10
0.5051368152928149
 20
1.179259999999885
 30
0.0
 70
    32
  0
VERTEX
  5
18867
330
187EC
100
AcDbEntity
  8
0
100
AcDbVertex
100
AcDb3dPolylineVertex
 10
0.499128815292977
 20
1.177720000000135
 30
0.0
 70
    32
  0
VERTEX
  5
18868
330
187EC
100
AcDbEntity
  8
0
100
AcDbVertex
100
AcDb3dPolylineVertex
 10
0.4931328152928814
 20
1.176150000000006
 30
0.0
 70
    32
  0
VERTEX
  5
18869
330
187EC
100
AcDbEntity
  8
0
100
AcDbVertex
100
AcDb3dPolylineVertex
 10
0.4871488152929829
 20
1.174539999999979
 30
0.0
 70
    32
  0
VERTEX
  5
1886A
330
187EC
100
AcDbEntity
  8
0
100
AcDbVertex
100
AcDb3dPolylineVertex
 10
0.4811778152929378
 20
1.172900000000026
 30
0.0
 70
    32
  0
VERTEX
  5
1886B
330
187EC
100
AcDbEntity
  8
0
100
AcDbVertex
100
AcDb3dPolylineVertex
 10
0.4752188152928625
 20
1.171229999999923
 30
0.0
 70
    32
  0
VERTEX
  5
1886C
330
187EC
100
AcDbEntity
  8
0
100
AcDbVertex
100
AcDb3dPolylineVertex
 10
0.4692738152929792
 20
1.16951999999992
 30
0.0
 70
    32
  0
VERTEX
  5
1886D
330
187EC
100
AcDbEntity
  8
0
100
AcDbVertex
100
AcDb3dPolylineVertex
 10
0.4633418152929494
 20
1.167770000000018
 30
0.0
 70
    32
  0
VERTEX
  5
1886E
330
187EC
100
AcDbEntity
  8
0
100
AcDbVertex
100
AcDb3dPolylineVertex
 10
0.4574238152928843
 20
1.165989999999965
 30
0.0
 70
    32
  0
VERTEX
  5
1886F
330
187EC
100
AcDbEntity
  8
0
100
AcDbVertex
100
AcDb3dPolylineVertex
 10
0.4515198152930111
 20
1.16415999999981
 30
0.0
 70
    32
  0
VERTEX
  5
18870
330
187EC
100
AcDbEntity
  8
0
100
AcDbVertex
100
AcDb3dPolylineVertex
 10
0.4456298152928753
 20
1.162299999999959
 30
0.0
 70
    32
  0
VERTEX
  5
18871
330
187EC
100
AcDbEntity
  8
0
100
AcDbVertex
100
AcDb3dPolylineVertex
 10
0.4397558152929264
 20
1.160399999999981
 30
0.0
 70
    32
  0
VERTEX
  5
18872
330
187EC
100
AcDbEntity
  8
0
100
AcDbVertex
100
AcDb3dPolylineVertex
 10
0.4338958152929422
 20
1.158460000000104
 30
0.0
 70
    32
  0
VERTEX
  5
18873
330
187EC
100
AcDbEntity
  8
0
100
AcDbVertex
100
AcDb3dPolylineVertex
 10
0.4280518152929176
 20
1.156480000000101
 30
0.0
 70
    32
  0
VERTEX
  5
18874
330
187EC
100
AcDbEntity
  8
0
100
AcDbVertex
100
AcDb3dPolylineVertex
 10
0.4222238152928526
 20
1.154459999999971
 30
0.0
 70
    32
  0
VERTEX
  5
18875
330
187EC
100
AcDbEntity
  8
0
100
AcDbVertex
100
AcDb3dPolylineVertex
 10
0.4164118152929746
 20
1.152399999999943
 30
0.0
 70
    32
  0
VERTEX
  5
18876
330
187EC
100
AcDbEntity
  8
0
100
AcDbVertex
100
AcDb3dPolylineVertex
 10
0.4106158152928288
 20
1.15029000000004
 30
0.0
 70
    32
  0
VERTEX
  5
18877
330
187EC
100
AcDbEntity
  8
0
100
AcDbVertex
100
AcDb3dPolylineVertex
 10
0.4048368152929811
 20
1.148140000000012
 30
0.0
 70
    32
  0
VERTEX
  5
18878
330
187EC
100
AcDbEntity
  8
0
100
AcDbVertex
100
AcDb3dPolylineVertex
 10
0.3990748152929768
 20
1.145950000000084
 30
0.0
 70
    32
  0
VERTEX
  5
18879
330
187EC
100
AcDbEntity
  8
0
100
AcDbVertex
100
AcDb3dPolylineVertex
 10
0.3933308152929271
 20
1.14372000000003
 30
0.0
 70
    32
  0
VERTEX
  5
1887A
330
187EC
100
AcDbEntity
  8
0
100
AcDbVertex
100
AcDb3dPolylineVertex
 10
0.3876038152929482
 20
1.141439999999874
 30
0.0
 70
    32
  0
VERTEX
  5
1887B
330
187EC
100
AcDbEntity
  8
0
100
AcDbVertex
100
AcDb3dPolylineVertex
 10
0.3818958152930349
 20
1.139110000000073
 30
0.0
 70
    32
  0
VERTEX
  5
1887C
330
187EC
100
AcDbEntity
  8
0
100
AcDbVertex
100
AcDb3dPolylineVertex
 10
0.3762058152928489
 20
1.136739999999917
 30
0.0
 70
    32
  0
VERTEX
  5
1887D
330
187EC
100
AcDbEntity
  8
0
100
AcDbVertex
100
AcDb3dPolylineVertex
 10
0.3705348152929559
 20
1.134329999999863
 30
0.0
 70
    32
  0
VERTEX
  5
1887E
330
187EC
100
AcDbEntity
  8
0
100
AcDbVertex
100
AcDb3dPolylineVertex
 10
0.3648818152930175
 20
1.13185999999996
 30
0.0
 70
    32
  0
VERTEX
  5
1887F
330
187EC
100
AcDbEntity
  8
0
100
AcDbVertex
100
AcDb3dPolylineVertex
 10
0.3592498152929124
 20
1.129349999999931
 30
0.0
 70
    32
  0
VERTEX
  5
18880
330
187EC
100
AcDbEntity
  8
0
100
AcDbVertex
100
AcDb3dPolylineVertex
 10
0.353636815292873
 20
1.126790000000028
 30
0.0
 70
    32
  0
VERTEX
  5
18881
330
187EC
100
AcDbEntity
  8
0
100
AcDbVertex
100
AcDb3dPolylineVertex
 10
0.3480438152930105
 20
1.124180000000023
 30
0.0
 70
    32
  0
VERTEX
  5
18882
330
187EC
100
AcDbEntity
  8
0
100
AcDbVertex
100
AcDb3dPolylineVertex
 10
0.3424718152929813
 20
1.121529999999893
 30
0.0
 70
    32
  0
VERTEX
  5
18883
330
187EC
100
AcDbEntity
  8
0
100
AcDbVertex
100
AcDb3dPolylineVertex
 10
0.3369198152929016
 20
1.118820000000141
 30
0.0
 70
    32
  0
VERTEX
  5
18884
330
187EC
100
AcDbEntity
  8
0
100
AcDbVertex
100
AcDb3dPolylineVertex
 10
0.3313898152929937
 20
1.116059999999833
 30
0.0
 70
    32
  0
VERTEX
  5
18885
330
187EC
100
AcDbEntity
  8
0
100
AcDbVertex
100
AcDb3dPolylineVertex
 10
0.3258808152929191
 20
1.113249999999879
 30
0.0
 70
    32
  0
VERTEX
  5
18886
330
187EC
100
AcDbEntity
  8
0
100
AcDbVertex
100
AcDb3dPolylineVertex
 10
0.3203928152929052
 20
1.110389999999824
 30
0.0
 70
    32
  0
VERTEX
  5
18887
330
187EC
100
AcDbEntity
  8
0
100
AcDbVertex
100
AcDb3dPolylineVertex
 10
0.3149278152929469
 20
1.107480000000123
 30
0.0
 70
    32
  0
VERTEX
  5
18888
330
187EC
100
AcDbEntity
  8
0
100
AcDbVertex
100
AcDb3dPolylineVertex
 10
0.309484815292933
 20
1.104510000000118
 30
0.0
 70
    32
  0
VERTEX
  5
18889
330
187EC
100
AcDbEntity
  8
0
100
AcDbVertex
100
AcDb3dPolylineVertex
 10
0.3040648152929748
 20
1.101490000000012
 30
0.0
 70
    32
  0
VERTEX
  5
1888A
330
187EC
100
AcDbEntity
  8
0
100
AcDbVertex
100
AcDb3dPolylineVertex
 10
0.298668815292956
 20
1.098419999999805
 30
0.0
 70
    32
  0
VERTEX
  5
1888B
330
187EC
100
AcDbEntity
  8
0
100
AcDbVertex
100
AcDb3dPolylineVertex
 10
0.2932968152928765
 20
1.095289999999977
 30
0.0
 70
    32
  0
VERTEX
  5
1888C
330
187EC
100
AcDbEntity
  8
0
100
AcDbVertex
100
AcDb3dPolylineVertex
 10
0.2879498152928477
 20
1.092110000000047
 30
0.0
 70
    32
  0
VERTEX
  5
1888D
330
187EC
100
AcDbEntity
  8
0
100
AcDbVertex
100
AcDb3dPolylineVertex
 10
0.2826288152929805
 20
1.088880000000017
 30
0.0
 70
    32
  0
VERTEX
  5
1888E
330
187EC
100
AcDbEntity
  8
0
100
AcDbVertex
100
AcDb3dPolylineVertex
 10
0.2773348152929316
 20
1.085599999999885
 30
0.0
 70
    32
  0
VERTEX
  5
1888F
330
187EC
100
AcDbEntity
  8
0
100
AcDbVertex
100
AcDb3dPolylineVertex
 10
0.2720678152929281
 20
1.08226999999988
 30
0.0
 70
    32
  0
VERTEX
  5
18890
330
187EC
100
AcDbEntity
  8
0
100
AcDbVertex
100
AcDb3dPolylineVertex
 10
0.266828815292854
 20
1.078880000000026
 30
0.0
 70
    32
  0
VERTEX
  5
18891
330
187EC
100
AcDbEntity
  8
0
100
AcDbVertex
100
AcDb3dPolylineVertex
 10
0.2616188152928203
 20
1.075440000000071
 30
0.0
 70
    32
  0
VERTEX
  5
18892
330
187EC
100
AcDbEntity
  8
0
100
AcDbVertex
100
AcDb3dPolylineVertex
 10
0.256437815292827
 20
1.07195999999999
 30
0.0
 70
    32
  0
VERTEX
  5
18893
330
187EC
100
AcDbEntity
  8
0
100
AcDbVertex
100
AcDb3dPolylineVertex
 10
0.2512878152928692
 20
1.06842000000006
 30
0.0
 70
    32
  0
VERTEX
  5
18894
330
187EC
100
AcDbEntity
  8
0
100
AcDbVertex
100
AcDb3dPolylineVertex
 10
0.2461678152928357
 20
1.064840000000003
 30
0.0
 70
    32
  0
VERTEX
  5
18895
330
187EC
100
AcDbEntity
  8
0
100
AcDbVertex
100
AcDb3dPolylineVertex
 10
0.2410798152929487
 20
1.061200000000098
 30
0.0
 70
    32
  0
VERTEX
  5
18896
330
187EC
100
AcDbEntity
  8
0
100
AcDbVertex
100
AcDb3dPolylineVertex
 10
0.2360248152928648
 20
1.057510000000092
 30
0.0
 70
    32
  0
VERTEX
  5
18897
330
187EC
100
AcDbEntity
  8
0
100
AcDbVertex
100
AcDb3dPolylineVertex
 10
0.2310028152930386
 20
1.05377999999996
 30
0.0
 70
    32
  0
VERTEX
  5
18898
330
187EC
100
AcDbEntity
  8
0
100
AcDbVertex
100
AcDb3dPolylineVertex
 10
0.2260148152928991
 20
1.049999999999954
 30
0.0
 70
    32
  0
VERTEX
  5
18899
330
187EC
100
AcDbEntity
  8
0
100
AcDbVertex
100
AcDb3dPolylineVertex
 10
0.2210608152929012
 20
1.046170000000074
 30
0.0
 70
    32
  0
VERTEX
  5
1889A
330
187EC
100
AcDbEntity
  8
0
100
AcDbVertex
100
AcDb3dPolylineVertex
 10
0.2161428152930398
 20
1.042289999999866
 30
0.0
 70
    32
  0
VERTEX
  5
1889B
330
187EC
100
AcDbEntity
  8
0
100
AcDbVertex
100
AcDb3dPolylineVertex
 10
0.2112608152928601
 20
1.038360000000011
 30
0.0
 70
    32
  0
VERTEX
  5
1889C
330
187EC
100
AcDbEntity
  8
0
100
AcDbVertex
100
AcDb3dPolylineVertex
 10
0.2064148152928169
 20
1.034380000000055
 30
0.0
 70
    32
  0
VERTEX
  5
1889D
330
187EC
100
AcDbEntity
  8
0
100
AcDbVertex
100
AcDb3dPolylineVertex
 10
0.2016078152930163
 20
1.030359999999973
 30
0.0
 70
    32
  0
VERTEX
  5
1889E
330
187EC
100
AcDbEntity
  8
0
100
AcDbVertex
100
AcDb3dPolylineVertex
 10
0.1968388152928924
 20
1.026290000000017
 30
0.0
 70
    32
  0
VERTEX
  5
1889F
330
187EC
100
AcDbEntity
  8
0
100
AcDbVertex
100
AcDb3dPolylineVertex
 10
0.1921078152928999
 20
1.022179999999934
 30
0.0
 70
    32
  0
VERTEX
  5
188A0
330
187EC
100
AcDbEntity
  8
0
100
AcDbVertex
100
AcDb3dPolylineVertex
 10
0.1874178152929176
 20
1.018010000000003
 30
0.0
 70
    32
  0
VERTEX
  5
188A1
330
187EC
100
AcDbEntity
  8
0
100
AcDbVertex
100
AcDb3dPolylineVertex
 10
0.1827678152928342
 20
1.013809999999921
 30
0.0
 70
    32
  0
VERTEX
  5
188A2
330
187EC
100
AcDbEntity
  8
0
100
AcDbVertex
100
AcDb3dPolylineVertex
 10
0.1781588152929885
 20
1.00954999999999
 30
0.0
 70
    32
  0
VERTEX
  5
188A3
330
187EC
100
AcDbEntity
  8
0
100
AcDbVertex
100
AcDb3dPolylineVertex
 10
0.1735928152929205
 20
1.005249999999932
 30
0.0
 70
    32
  0
VERTEX
  5
188A4
330
187EC
100
AcDbEntity
  8
0
100
AcDbVertex
100
AcDb3dPolylineVertex
 10
0.1690688152929738
 20
1.000909999999976
 30
0.0
 70
    32
  0
VERTEX
  5
188A5
330
187EC
100
AcDbEntity
  8
0
100
AcDbVertex
100
AcDb3dPolylineVertex
 10
0.1645878152930322
 20
0.9965219999999135
 30
0.0
 70
    32
  0
VERTEX
  5
188A6
330
187EC
100
AcDbEntity
  8
0
100
AcDbVertex
100
AcDb3dPolylineVertex
 10
0.1601518152928634
 20
0.9920889999998507
 30
0.0
 70
    32
  0
VERTEX
  5
188A7
330
187EC
100
AcDbEntity
  8
0
100
AcDbVertex
100
AcDb3dPolylineVertex
 10
0.155760815292922
 20
0.9876119999998991
 30
0.0
 70
    32
  0
VERTEX
  5
188A8
330
187EC
100
AcDbEntity
  8
0
100
AcDbVertex
100
AcDb3dPolylineVertex
 10
0.1514148152929806
 20
0.9830910000000585
 30
0.0
 70
    32
  0
VERTEX
  5
188A9
330
187EC
100
AcDbEntity
  8
0
100
AcDbVertex
100
AcDb3dPolylineVertex
 10
0.1471158152930343
 20
0.9785269999999854
 30
0.0
 70
    32
  0
VERTEX
  5
188AA
330
187EC
100
AcDbEntity
  8
0
100
AcDbVertex
100
AcDb3dPolylineVertex
 10
0.1428638152928556
 20
0.9739199999999073
 30
0.0
 70
    32
  0
VERTEX
  5
188AB
330
187EC
100
AcDbEntity
  8
0
100
AcDbVertex
100
AcDb3dPolylineVertex
 10
0.1386588152928994
 20
0.9692689999999402
 30
0.0
 70
    32
  0
VERTEX
  5
188AC
330
187EC
100
AcDbEntity
  8
0
100
AcDbVertex
100
AcDb3dPolylineVertex
 10
0.1345038152928168
 20
0.9645759999998517
 30
0.0
 70
    32
  0
VERTEX
  5
188AD
330
187EC
100
AcDbEntity
  8
0
100
AcDbVertex
100
AcDb3dPolylineVertex
 10
0.1303978152929517
 20
0.9598409999998693
 30
0.0
 70
    32
  0
VERTEX
  5
188AE
330
187EC
100
AcDbEntity
  8
0
100
AcDbVertex
100
AcDb3dPolylineVertex
 10
0.1263408152928491
 20
0.955063999999993
 30
0.0
 70
    32
  0
VERTEX
  5
188AF
330
187EC
100
AcDbEntity
  8
0
100
AcDbVertex
100
AcDb3dPolylineVertex
 10
0.1223358152928426
 20
0.9502449999999953
 30
0.0
 70
    32
  0
VERTEX
  5
188B0
330
187EC
100
AcDbEntity
  8
0
100
AcDbVertex
100
AcDb3dPolylineVertex
 10
0.1183818152928211
 20
0.9453849999999874
 30
0.0
 70
    32
  0
VERTEX
  5
188B1
330
187EC
100
AcDbEntity
  8
0
100
AcDbVertex
100
AcDb3dPolylineVertex
 10
0.1144808152930068
 20
0.9404829999998582
 30
0.0
 70
    32
  0
VERTEX
  5
188B2
330
187EC
100
AcDbEntity
  8
0
100
AcDbVertex
100
AcDb3dPolylineVertex
 10
0.1106318152928338
 20
0.93554099999983
 30
0.0
 70
    32
  0
VERTEX
  5
188B3
330
187EC
100
AcDbEntity
  8
0
100
AcDbVertex
100
AcDb3dPolylineVertex
 10
0.1068368152929793
 20
0.9305589999999028
 30
0.0
 70
    32
  0
VERTEX
  5
188B4
330
187EC
100
AcDbEntity
  8
0
100
AcDbVertex
100
AcDb3dPolylineVertex
 10
0.1030968152928722
 20
0.9255359999999654
 30
0.0
 70
    32
  0
VERTEX
  5
188B5
330
187EC
100
AcDbEntity
  8
0
100
AcDbVertex
100
AcDb3dPolylineVertex
 10
0.099411615293036
 20
0.9204740000000128
 30
0.0
 70
    32
  0
VERTEX
  5
188B6
330
187EC
100
AcDbEntity
  8
0
100
AcDbVertex
100
AcDb3dPolylineVertex
 10
0.0957825152929104
 20
0.9153719999999339
 30
0.0
 70
    32
  0
VERTEX
  5
188B7
330
187EC
100
AcDbEntity
  8
0
100
AcDbVertex
100
AcDb3dPolylineVertex
 10
0.092210015292892
 20
0.9102309999998396
 30
0.0
 70
    32
  0
VERTEX
  5
188B8
330
187EC
100
AcDbEntity
  8
0
100
AcDbVertex
100
AcDb3dPolylineVertex
 10
0.0886950152930126
 20
0.9050509999999576
 30
0.0
 70
    32
  0
VERTEX
  5
188B9
330
187EC
100
AcDbEntity
  8
0
100
AcDbVertex
100
AcDb3dPolylineVertex
 10
0.0852381152928388
 20
0.8998320000000603
 30
0.0
 70
    32
  0
VERTEX
  5
188BA
330
187EC
100
AcDbEntity
  8
0
100
AcDbVertex
100
AcDb3dPolylineVertex
 10
0.0818401152930051
 20
0.8945759999999154
 30
0.0
 70
    32
  0
VERTEX
  5
188BB
330
187EC
100
AcDbEntity
  8
0
100
AcDbVertex
100
AcDb3dPolylineVertex
 10
0.0785018152930093
 20
0.8892809999999826
 30
0.0
 70
    32
  0
VERTEX
  5
188BC
330
187EC
100
AcDbEntity
  8
0
100
AcDbVertex
100
AcDb3dPolylineVertex
 10
0.0752237152930206
 20
0.8839479999999184
 30
0.0
 70
    32
  0
VERTEX
  5
188BD
330
187EC
100
AcDbEntity
  8
0
100
AcDbVertex
100
AcDb3dPolylineVertex
 10
0.072006815292923
 20
0.8785779999998339
 30
0.0
 70
    32
  0
VERTEX
  5
188BE
330
187EC
100
AcDbEntity
  8
0
100
AcDbVertex
100
AcDb3dPolylineVertex
 10
0.0688518152928168
 20
0.8731720000000677
 30
0.0
 70
    32
  0
VERTEX
  5
188BF
330
187EC
100
AcDbEntity
  8
0
100
AcDbVertex
100
AcDb3dPolylineVertex
 10
0.0657592152928714
 20
0.8677279999999427
 30
0.0
 70
    32
  0
VERTEX
  5
188C0
330
187EC
100
AcDbEntity
  8
0
100
AcDbVertex
100
AcDb3dPolylineVertex
 10
0.0627300152929706
 20
0.8622479999999086
 30
0.0
 70
    32
  0
VERTEX
  5
188C1
330
187EC
100
AcDbEntity
  8
0
100
AcDbVertex
100
AcDb3dPolylineVertex
 10
0.0597648152929082
 20
0.8567319999999654
 30
0.0
 70
    32
  0
VERTEX
  5
188C2
330
187EC
100
AcDbEntity
  8
0
100
AcDbVertex
100
AcDb3dPolylineVertex
 10
0.0568644152928641
 20
0.851180000000113
 30
0.0
 70
    32
  0
VERTEX
  5
188C3
330
187EC
100
AcDbEntity
  8
0
100
AcDbVertex
100
AcDb3dPolylineVertex
 10
0.0540295152929389
 20
0.8455920000001242
 30
0.0
 70
    32
  0
VERTEX
  5
188C4
330
187EC
100
AcDbEntity
  8
0
100
AcDbVertex
100
AcDb3dPolylineVertex
 10
0.051260615292847
 20
0.8399699999999938
 30
0.0
 70
    32
  0
VERTEX
  5
188C5
330
187EC
100
AcDbEntity
  8
0
100
AcDbVertex
100
AcDb3dPolylineVertex
 10
0.0485582152929851
 20
0.8343150000000605
 30
0.0
 70
    32
  0
VERTEX
  5
188C6
330
187EC
100
AcDbEntity
  8
0
100
AcDbVertex
100
AcDb3dPolylineVertex
 10
0.045923015292999
 20
0.8286269999998694
 30
0.0
 70
    32
  0
VERTEX
  5
188C7
330
187EC
100
AcDbEntity
  8
0
100
AcDbVertex
100
AcDb3dPolylineVertex
 10
0.0433554152929787
 20
0.8229069999999865
 30
0.0
 70
    32
  0
VERTEX
  5
188C8
330
187EC
100
AcDbEntity
  8
0
100
AcDbVertex
100
AcDb3dPolylineVertex
 10
0.040855915292866
 20
0.8171560000000681
 30
0.0
 70
    32
  0
VERTEX
  5
188C9
330
187EC
100
AcDbEntity
  8
0
100
AcDbVertex
100
AcDb3dPolylineVertex
 10
0.0384251152929096
 20
0.8113769999999931
 30
0.0
 70
    32
  0
VERTEX
  5
188CA
330
187EC
100
AcDbEntity
  8
0
100
AcDbVertex
100
AcDb3dPolylineVertex
 10
0.036063415292972
 20
0.8055679999999938
 30
0.0
 70
    32
  0
VERTEX
  5
188CB
330
187EC
100
AcDbEntity
  8
0
100
AcDbVertex
100
AcDb3dPolylineVertex
 10
0.0337715152929263
 20
0.7997319999999491
 30
0.0
 70
    32
  0
VERTEX
  5
188CC
330
187EC
100
AcDbEntity
  8
0
100
AcDbVertex
100
AcDb3dPolylineVertex
 10
0.0315498152928626
 20
0.7938690000000861
 30
0.0
 70
    32
  0
VERTEX
  5
188CD
330
187EC
100
AcDbEntity
  8
0
100
AcDbVertex
100
AcDb3dPolylineVertex
 10
0.0293989152930294
 20
0.7879809999999452
 30
0.0
 70
    32
  0
VERTEX
  5
188CE
330
187EC
100
AcDbEntity
  8
0
100
AcDbVertex
100
AcDb3dPolylineVertex
 10
0.0273193152929139
 20
0.7820679999999812
 30
0.0
 70
    32
  0
VERTEX
  5
188CF
330
187EC
100
AcDbEntity
  8
0
100
AcDbVertex
100
AcDb3dPolylineVertex
 10
0.0253115152929127
 20
0.7761319999999614
 30
0.0
 70
    32
  0
VERTEX
  5
188D0
330
187EC
100
AcDbEntity
  8
0
100
AcDbVertex
100
AcDb3dPolylineVertex
 10
0.0233761152928196
 20
0.7701729999998861
 30
0.0
 70
    32
  0
VERTEX
  5
188D1
330
187EC
100
AcDbEntity
  8
0
100
AcDbVertex
100
AcDb3dPolylineVertex
 10
0.021513515292952
 20
0.7641920000000937
 30
0.0
 70
    32
  0
VERTEX
  5
188D2
330
187EC
100
AcDbEntity
  8
0
100
AcDbVertex
100
AcDb3dPolylineVertex
 10
0.0197243152928763
 20
0.7581909999998971
 30
0.0
 70
    32
  0
VERTEX
  5
188D3
330
187EC
100
AcDbEntity
  8
0
100
AcDbVertex
100
AcDb3dPolylineVertex
 10
0.0180090152929893
 20
0.7521699999999783
 30
0.0
 70
    32
  0
VERTEX
  5
188D4
330
187EC
100
AcDbEntity
  8
0
100
AcDbVertex
100
AcDb3dPolylineVertex
 10
0.0163682152928573
 20
0.7461299999999938
 30
0.0
 70
    32
  0
VERTEX
  5
188D5
330
187EC
100
AcDbEntity
  8
0
100
AcDbVertex
100
AcDb3dPolylineVertex
 10
0.014802315293025
 20
0.7400729999999385
 30
0.0
 70
    32
  0
VERTEX
  5
188D6
330
187EC
100
AcDbEntity
  8
0
100
AcDbVertex
100
AcDb3dPolylineVertex
 10
0.0133119152928316
 20
0.7339990000000399
 30
0.0
 70
    32
  0
VERTEX
  5
188D7
330
187EC
100
AcDbEntity
  8
0
100
AcDbVertex
100
AcDb3dPolylineVertex
 10
0.0118976152929804
 20
0.7279100000000654
 30
0.0
 70
    32
  0
VERTEX
  5
188D8
330
187EC
100
AcDbEntity
  8
0
100
AcDbVertex
100
AcDb3dPolylineVertex
 10
0.0105598152928792
 20
0.7218050000001313
 30
0.0
 70
    32
  0
VERTEX
  5
188D9
330
187EC
100
AcDbEntity
  8
0
100
AcDbVertex
100
AcDb3dPolylineVertex
 10
0.0092990252928189
 20
0.7156880000000001
 30
0.0
 70
    32
  0
VERTEX
  5
188DA
330
187EC
100
AcDbEntity
  8
0
100
AcDbVertex
100
AcDb3dPolylineVertex
 10
0.0081158652928366
 20
0.7095570000001317
 30
0.0
 70
    32
  0
VERTEX
  5
188DB
330
187EC
100
AcDbEntity
  8
0
100
AcDbVertex
100
AcDb3dPolylineVertex
 10
0.0070108252929799
 20
0.70341499999995
 30
0.0
 70
    32
  0
VERTEX
  5
188DC
330
187EC
100
AcDbEntity
  8
0
100
AcDbVertex
100
AcDb3dPolylineVertex
 10
0.0059844252929793
 20
0.6972630000000209
 30
0.0
 70
    32
  0
VERTEX
  5
188DD
330
187EC
100
AcDbEntity
  8
0
100
AcDbVertex
100
AcDb3dPolylineVertex
 10
0.005037195292914
 20
0.6911000000000059
 30
0.0
 70
    32
  0
VERTEX
  5
188DE
330
187EC
100
AcDbEntity
  8
0
100
AcDbVertex
100
AcDb3dPolylineVertex
 10
0.0041696552929693
 20
0.684929000000011
 30
0.0
 70
    32
  0
VERTEX
  5
188DF
330
187EC
100
AcDbEntity
  8
0
100
AcDbVertex
100
AcDb3dPolylineVertex
 10
0.0033823252928755
 20
0.6787509999999202
 30
0.0
 70
    32
  0
VERTEX
  5
188E0
330
187EC
100
AcDbEntity
  8
0
100
AcDbVertex
100
AcDb3dPolylineVertex
 10
0.0026757452928337
 20
0.6725649999998496
 30
0.0
 70
    32
  0
VERTEX
  5
188E1
330
187EC
100
AcDbEntity
  8
0
100
AcDbVertex
100
AcDb3dPolylineVertex
 10
0.0020504352930288
 20
0.6663739999999052
 30
0.0
 70
    32
  0
VERTEX
  5
188E2
330
187EC
100
AcDbEntity
  8
0
100
AcDbVertex
100
AcDb3dPolylineVertex
 10
0.0015069152929641
 20
0.660178999999971
 30
0.0
 70
    32
  0
VERTEX
  5
188E3
330
187EC
100
AcDbEntity
  8
0
100
AcDbVertex
100
AcDb3dPolylineVertex
 10
0.0010457052928246
 20
0.6539789999999357
 30
0.0
 70
    32
  0
VERTEX
  5
188E4
330
187EC
100
AcDbEntity
  8
0
100
AcDbVertex
100
AcDb3dPolylineVertex
 10
0.0006673452930386
 20
0.6477770000001329
 30
0.0
 70
    32
  0
VERTEX
  5
188E5
330
187EC
100
AcDbEntity
  8
0
100
AcDbVertex
100
AcDb3dPolylineVertex
 10
0.0003723502929347
 20
0.6415739999999915
 30
0.0
 70
    32
  0
VERTEX
  5
188E6
330
187EC
100
AcDbEntity
  8
0
100
AcDbVertex
100
AcDb3dPolylineVertex
 10
0.0001612482928408
 20
0.6353690000000825
 30
0.0
 70
    32
  0
VERTEX
  5
188E7
330
187EC
100
AcDbEntity
  8
0
100
AcDbVertex
100
AcDb3dPolylineVertex
 10
0.000034562792905
 20
0.6291649999998299
 30
0.0
 70
    32
  0
VERTEX
  5
188E8
330
187EC
100
AcDbEntity
  8
0
100
AcDbVertex
100
AcDb3dPolylineVertex
 10
-0.0000071799518651
 20
0.6229630000000271
 30
0.0
 70
    32
  0
VERTEX
  5
188E9
330
187EC
100
AcDbEntity
  8
0
100
AcDbVertex
100
AcDb3dPolylineVertex
 10
0.000036544792863
 20
0.616762000000108
 30
0.0
 70
    32
  0
VERTEX
  5
188EA
330
187EC
100
AcDbEntity
  8
0
100
AcDbVertex
100
AcDb3dPolylineVertex
 10
0.0001662622930212
 20
0.6105649999999514
 30
0.0
 70
    32
  0
VERTEX
  5
188EB
330
187EC
100
AcDbEntity
  8
0
100
AcDbVertex
100
AcDb3dPolylineVertex
 10
0.0003824962929571
 20
0.6043720000000122
 30
0.0
 70
    32
  0
VERTEX
  5
188EC
330
187EC
100
AcDbEntity
  8
0
100
AcDbVertex
100
AcDb3dPolylineVertex
 10
0.0006857732930143
 20
0.5981849999998304
 30
0.0
 70
    32
  0
VERTEX
  5
188ED
330
187EC
100
AcDbEntity
  8
0
100
AcDbVertex
100
AcDb3dPolylineVertex
 10
0.0010766152929023
 20
0.592002999999977
 30
0.0
 70
    32
  0
VERTEX
  5
188EE
330
187EC
100
AcDbEntity
  8
0
100
AcDbVertex
100
AcDb3dPolylineVertex
 10
0.001555055292954
 20
0.5858290000001034
 30
0.0
 70
    32
  0
VERTEX
  5
188EF
330
187EC
100
AcDbEntity
  8
0
100
AcDbVertex
100
AcDb3dPolylineVertex
 10
0.0021200952930371
 20
0.5796629999999823
 30
0.0
 70
    32
  0
VERTEX
  5
188F0
330
187EC
100
AcDbEntity
  8
0
100
AcDbVertex
100
AcDb3dPolylineVertex
 10
0.0027705752929137
 20
0.573504999999841
 30
0.0
 70
    32
  0
VERTEX
  5
188F1
330
187EC
100
AcDbEntity
  8
0
100
AcDbVertex
100
AcDb3dPolylineVertex
 10
0.0035053652929378
 20
0.5673569999999018
 30
0.0
 70
    32
  0
VERTEX
  5
188F2
330
187EC
100
AcDbEntity
  8
0
100
AcDbVertex
100
AcDb3dPolylineVertex
 10
0.0043233152929929
 20
0.5612179999998262
 30
0.0
 70
    32
  0
VERTEX
  5
188F3
330
187EC
100
AcDbEntity
  8
0
100
AcDbVertex
100
AcDb3dPolylineVertex
 10
0.0052232852928569
 20
0.5550889999999527
 30
0.0
 70
    32
  0
VERTEX
  5
188F4
330
187EC
100
AcDbEntity
  8
0
100
AcDbVertex
100
AcDb3dPolylineVertex
 10
0.006204125292868
 20
0.5489720000000489
 30
0.0
 70
    32
  0
VERTEX
  5
188F5
330
187EC
100
AcDbEntity
  8
0
100
AcDbVertex
100
AcDb3dPolylineVertex
 10
0.0072646952930313
 20
0.5428660000000037
 30
0.0
 70
    32
  0
VERTEX
  5
188F6
330
187EC
100
AcDbEntity
  8
0
100
AcDbVertex
100
AcDb3dPolylineVertex
 10
0.0084038552928973
 20
0.5367719999999281
 30
0.0
 70
    32
  0
VERTEX
  5
188F7
330
187EC
100
AcDbEntity
  8
0
100
AcDbVertex
100
AcDb3dPolylineVertex
 10
0.0096204652929259
 20
0.5306909999999334
 30
0.0
 70
    32
  0
VERTEX
  5
188F8
330
187EC
100
AcDbEntity
  8
0
100
AcDbVertex
100
AcDb3dPolylineVertex
 10
0.0109134152930324
 20
0.5246240000001308
 30
0.0
 70
    32
  0
VERTEX
  5
188F9
330
187EC
100
AcDbEntity
  8
0
100
AcDbVertex
100
AcDb3dPolylineVertex
 10
0.0122814152929891
 20
0.5185710000000654
 30
0.0
 70
    32
  0
VERTEX
  5
188FA
330
187EC
100
AcDbEntity
  8
0
100
AcDbVertex
100
AcDb3dPolylineVertex
 10
0.0137235152928383
 20
0.5125319999999647
 30
0.0
 70
    32
  0
VERTEX
  5
188FB
330
187EC
100
AcDbEntity
  8
0
100
AcDbVertex
100
AcDb3dPolylineVertex
 10
0.015238415292913
 20
0.5065089999998236
 30
0.0
 70
    32
  0
VERTEX
  5
188FC
330
187EC
100
AcDbEntity
  8
0
100
AcDbVertex
100
AcDb3dPolylineVertex
 10
0.0168251152928747
 20
0.5005019999998695
 30
0.0
 70
    32
  0
VERTEX
  5
188FD
330
187EC
100
AcDbEntity
  8
0
100
AcDbVertex
100
AcDb3dPolylineVertex
 10
0.0184824152929082
 20
0.4945119999999861
 30
0.0
 70
    32
  0
VERTEX
  5
188FE
330
187EC
100
AcDbEntity
  8
0
100
AcDbVertex
100
AcDb3dPolylineVertex
 10
0.0202091152929711
 20
0.4885389999999461
 30
0.0
 70
    32
  0
VERTEX
  5
188FF
330
187EC
100
AcDbEntity
  8
0
100
AcDbVertex
100
AcDb3dPolylineVertex
 10
0.022004115292873
 20
0.4825839999998607
 30
0.0
 70
    32
  0
VERTEX
  5
18900
330
187EC
100
AcDbEntity
  8
0
100
AcDbVertex
100
AcDb3dPolylineVertex
 10
0.023866215293026
 20
0.4766469999999572
 30
0.0
 70
    32
  0
VERTEX
  5
18901
330
187EC
100
AcDbEntity
  8
0
100
AcDbVertex
100
AcDb3dPolylineVertex
 10
0.0257944152928644
 20
0.4707290000001195
 30
0.0
 70
    32
  0
VERTEX
  5
18902
330
187EC
100
AcDbEntity
  8
0
100
AcDbVertex
100
AcDb3dPolylineVertex
 10
0.0277874152929485
 20
0.464832000000115
 30
0.0
 70
    32
  0
VERTEX
  5
18903
330
187EC
100
AcDbEntity
  8
0
100
AcDbVertex
100
AcDb3dPolylineVertex
 10
0.0298441152928604
 20
0.45895500000006
 30
0.0
 70
    32
  0
VERTEX
  5
18904
330
187EC
100
AcDbEntity
  8
0
100
AcDbVertex
100
AcDb3dPolylineVertex
 10
0.0319635152929436
 20
0.4530979999999545
 30
0.0
 70
    32
  0
VERTEX
  5
18905
330
187EC
100
AcDbEntity
  8
0
100
AcDbVertex
100
AcDb3dPolylineVertex
 10
0.0341442152929972
 20
0.4472639999999047
 30
0.0
 70
    32
  0
VERTEX
  5
18906
330
187EC
100
AcDbEntity
  8
0
100
AcDbVertex
100
AcDb3dPolylineVertex
 10
0.0363853152929892
 20
0.4414520000000266
 30
0.0
 70
    32
  0
VERTEX
  5
18907
330
187EC
100
AcDbEntity
  8
0
100
AcDbVertex
100
AcDb3dPolylineVertex
 10
0.0386855152930252
 20
0.4356619999998657
 30
0.0
 70
    32
  0
VERTEX
  5
18908
330
187EC
100
AcDbEntity
  8
0
100
AcDbVertex
100
AcDb3dPolylineVertex
 10
0.0410437152929149
 20
0.4298969999999827
 30
0.0
 70
    32
  0
VERTEX
  5
18909
330
187EC
100
AcDbEntity
  8
0
100
AcDbVertex
100
AcDb3dPolylineVertex
 10
0.043458715292843
 20
0.4241549999999279
 30
0.0
 70
    32
  0
VERTEX
  5
1890A
330
187EC
100
AcDbEntity
  8
0
100
AcDbVertex
100
AcDb3dPolylineVertex
 10
0.0459295152929258
 20
0.4184390000000349
 30
0.0
 70
    32
  0
VERTEX
  5
1890B
330
187EC
100
AcDbEntity
  8
0
100
AcDbVertex
100
AcDb3dPolylineVertex
 10
0.0484549152928935
 20
0.4127479999999651
 30
0.0
 70
    32
  0
VERTEX
  5
1890C
330
187EC
100
AcDbEntity
  8
0
100
AcDbVertex
100
AcDb3dPolylineVertex
 10
0.051033715292931
 20
0.407083000000057
 30
0.0
 70
    32
  0
VERTEX
  5
1890D
330
187EC
100
AcDbEntity
  8
0
100
AcDbVertex
100
AcDb3dPolylineVertex
 10
0.0536648152928478
 20
0.4014440000000832
 30
0.0
 70
    32
  0
VERTEX
  5
1890E
330
187EC
100
AcDbEntity
  8
0
100
AcDbVertex
100
AcDb3dPolylineVertex
 10
0.0563470152928289
 20
0.3958330000000387
 30
0.0
 70
    32
  0
VERTEX
  5
1890F
330
187EC
100
AcDbEntity
  8
0
100
AcDbVertex
100
AcDb3dPolylineVertex
 10
0.0590792152929112
 20
0.3902499999999236
 30
0.0
 70
    32
  0
VERTEX
  5
18910
330
187EC
100
AcDbEntity
  8
0
100
AcDbVertex
100
AcDb3dPolylineVertex
 10
0.061860315292904
 20
0.3846960000000763
 30
0.0
 70
    32
  0
VERTEX
  5
18911
330
187EC
100
AcDbEntity
  8
0
100
AcDbVertex
100
AcDb3dPolylineVertex
 10
0.0646891152929925
 20
0.3791710000000421
 30
0.0
 70
    32
  0
VERTEX
  5
18912
330
187EC
100
AcDbEntity
  8
0
100
AcDbVertex
100
AcDb3dPolylineVertex
 10
0.067564515292986
 20
0.373674999999821
 30
0.0
 70
    32
  0
VERTEX
  5
18913
330
187EC
100
AcDbEntity
  8
0
100
AcDbVertex
100
AcDb3dPolylineVertex
 10
0.0704852152929902
 20
0.3682109999999739
 30
0.0
 70
    32
  0
VERTEX
  5
18914
330
187EC
100
AcDbEntity
  8
0
100
AcDbVertex
100
AcDb3dPolylineVertex
 10
0.0734491152929309
 20
0.362775000000056
 30
0.0
 70
    32
  0
VERTEX
  5
18915
330
187EC
100
AcDbEntity
  8
0
100
AcDbVertex
100
AcDb3dPolylineVertex
 10
0.0764534152928604
 20
0.3573670000000675
 30
0.0
 70
    32
  0
VERTEX
  5
18916
330
187EC
100
AcDbEntity
  8
0
100
AcDbVertex
100
AcDb3dPolylineVertex
 10
0.0794951152929002
 20
0.3519850000000133
 30
0.0
 70
    32
  0
VERTEX
  5
18917
330
187EC
100
AcDbEntity
  8
0
100
AcDbVertex
100
AcDb3dPolylineVertex
 10
0.0825714152928754
 20
0.3466269999998985
 30
0.0
 70
    32
  0
VERTEX
  5
18918
330
187EC
100
AcDbEntity
  8
0
100
AcDbVertex
100
AcDb3dPolylineVertex
 10
0.0856794152929865
 20
0.3412909999999556
 30
0.0
 70
    32
  0
VERTEX
  5
18919
330
187EC
100
AcDbEntity
  8
0
100
AcDbVertex
100
AcDb3dPolylineVertex
 10
0.0888162152929795
 20
0.3359740000000784
 30
0.0
 70
    32
  0
VERTEX
  5
1891A
330
187EC
100
AcDbEntity
  8
0
100
AcDbVertex
100
AcDb3dPolylineVertex
 10
0.0919790152929068
 20
0.3306760000000395
 30
0.0
 70
    32
  0
VERTEX
  5
1891B
330
187EC
100
AcDbEntity
  8
0
100
AcDbVertex
100
AcDb3dPolylineVertex
 10
0.0951648152928897
 20
0.3253930000000764
 30
0.0
 70
    32
  0
VERTEX
  5
1891C
330
187EC
100
AcDbEntity
  8
0
100
AcDbVertex
100
AcDb3dPolylineVertex
 10
0.0983707152929014
 20
0.3201249999999618
 30
0.0
 70
    32
  0
VERTEX
  5
1891D
330
187EC
100
AcDbEntity
  8
0
100
AcDbVertex
100
AcDb3dPolylineVertex
 10
0.1015938152929152
 20
0.3148689999998169
 30
0.0
 70
    32
  0
VERTEX
  5
1891E
330
187EC
100
AcDbEntity
  8
0
100
AcDbVertex
100
AcDb3dPolylineVertex
 10
0.1048318152929255
 20
0.3096230000001015
 30
0.0
 70
    32
  0
VERTEX
  5
1891F
330
187EC
100
AcDbEntity
  8
0
100
AcDbVertex
100
AcDb3dPolylineVertex
 10
0.1080808152930217
 20
0.3043860000000222
 30
0.0
 70
    32
  0
VERTEX
  5
18920
330
187EC
100
AcDbEntity
  8
0
100
AcDbVertex
100
AcDb3dPolylineVertex
 10
0.1113388152929815
 20
0.2991549999999279
 30
0.0
 70
    32
  0
VERTEX
  5
18921
330
187EC
100
AcDbEntity
  8
0
100
AcDbVertex
100
AcDb3dPolylineVertex
 10
0.1146028152929261
 20
0.2939280000000508
 30
0.0
 70
    32
  0
VERTEX
  5
18922
330
187EC
100
AcDbEntity
  8
0
100
AcDbVertex
100
AcDb3dPolylineVertex
 10
0.1178688152928657
 20
0.2887040000000525
 30
0.0
 70
    32
  0
VERTEX
  5
18923
330
187EC
100
AcDbEntity
  8
0
100
AcDbVertex
100
AcDb3dPolylineVertex
 10
0.1211358152929165
 20
0.2834809999999379
 30
0.0
 70
    32
  0
VERTEX
  5
18924
330
187EC
100
AcDbEntity
  8
0
100
AcDbVertex
100
AcDb3dPolylineVertex
 10
0.1243998152928611
 20
0.2782560000000558
 30
0.0
 70
    32
  0
VERTEX
  5
18925
330
187EC
100
AcDbEntity
  8
0
100
AcDbVertex
100
AcDb3dPolylineVertex
 10
0.1276578152928209
 20
0.2730280000000675
 30
0.0
 70
    32
  0
VERTEX
  5
18926
330
187EC
100
AcDbEntity
  8
0
100
AcDbVertex
100
AcDb3dPolylineVertex
 10
0.1309068152929171
 20
0.2677960000000894
 30
0.0
 70
    32
  0
VERTEX
  5
18927
330
187EC
100
AcDbEntity
  8
0
100
AcDbVertex
100
AcDb3dPolylineVertex
 10
0.1341448152929274
 20
0.2625550000000203
 30
0.0
 70
    32
  0
VERTEX
  5
18928
330
187EC
100
AcDbEntity
  8
0
100
AcDbVertex
100
AcDb3dPolylineVertex
 10
0.1373678152928619
 20
0.2573059999999714
 30
0.0
 70
    32
  0
VERTEX
  5
18929
330
187EC
100
AcDbEntity
  8
0
100
AcDbVertex
100
AcDb3dPolylineVertex
 10
0.140573815292953
 20
0.2520460000000639
 30
0.0
 70
    32
  0
VERTEX
  5
1892A
330
187EC
100
AcDbEntity
  8
0
100
AcDbVertex
100
AcDb3dPolylineVertex
 10
0.1437598152928672
 20
0.2467739999999594
 30
0.0
 70
    32
  0
VERTEX
  5
1892B
330
187EC
100
AcDbEntity
  8
0
100
AcDbVertex
100
AcDb3dPolylineVertex
 10
0.1469228152929531
 20
0.2414859999998953
 30
0.0
 70
    32
  0
VERTEX
  5
1892C
330
187EC
100
AcDbEntity
  8
0
100
AcDbVertex
100
AcDb3dPolylineVertex
 10
0.1500608152929885
 20
0.2361820000000989
 30
0.0
 70
    32
  0
VERTEX
  5
1892D
330
187EC
100
AcDbEntity
  8
0
100
AcDbVertex
100
AcDb3dPolylineVertex
 10
0.1531688152928723
 20
0.2308590000000095
 30
0.0
 70
    32
  0
VERTEX
  5
1892E
330
187EC
100
AcDbEntity
  8
0
100
AcDbVertex
100
AcDb3dPolylineVertex
 10
0.156245815292948
 20
0.2255150000000867
 30
0.0
 70
    32
  0
VERTEX
  5
1892F
330
187EC
100
AcDbEntity
  8
0
100
AcDbVertex
100
AcDb3dPolylineVertex
 10
0.1592878152929984
 20
0.2201489999999922
 30
0.0
 70
    32
  0
VERTEX
  5
18930
330
187EC
100
AcDbEntity
  8
0
100
AcDbVertex
100
AcDb3dPolylineVertex
 10
0.1622918152929174
 20
0.2147580000000744
 30
0.0
 70
    32
  0
VERTEX
  5
18931
330
187EC
100
AcDbEntity
  8
0
100
AcDbVertex
100
AcDb3dPolylineVertex
 10
0.1652568152928211
 20
0.209342000000106
 30
0.0
 70
    32
  0
VERTEX
  5
18932
330
187EC
100
AcDbEntity
  8
0
100
AcDbVertex
100
AcDb3dPolylineVertex
 10
0.168175815292841
 20
0.2038969999998699
 30
0.0
 70
    32
  0
VERTEX
  5
18933
330
187EC
100
AcDbEntity
  8
0
100
AcDbVertex
100
AcDb3dPolylineVertex
 10
0.1710458152928709
 20
0.1984239999999318
 30
0.0
 70
    32
  0
VERTEX
  5
18934
330
187EC
100
AcDbEntity
  8
0
100
AcDbVertex
100
AcDb3dPolylineVertex
 10
0.173858815292931
 20
0.1929219999999532
 30
0.0
 70
    32
  0
VERTEX
  5
18935
330
187EC
100
AcDbEntity
  8
0
100
AcDbVertex
100
AcDb3dPolylineVertex
 10
0.1766118152929152
 20
0.1873889999999392
 30
0.0
 70
    32
  0
VERTEX
  5
18936
330
187EC
100
AcDbEntity
  8
0
100
AcDbVertex
100
AcDb3dPolylineVertex
 10
0.1792968152928438
 20
0.1818250000001171
 30
0.0
 70
    32
  0
VERTEX
  5
18937
330
187EC
100
AcDbEntity
  8
0
100
AcDbVertex
100
AcDb3dPolylineVertex
 10
0.1819098152929541
 20
0.1762289999999211
 30
0.0
 70
    32
  0
VERTEX
  5
18938
330
187EC
100
AcDbEntity
  8
0
100
AcDbVertex
100
AcDb3dPolylineVertex
 10
0.1844438152929228
 20
0.1706009999998059
 30
0.0
 70
    32
  0
VERTEX
  5
18939
330
187EC
100
AcDbEntity
  8
0
100
AcDbVertex
100
AcDb3dPolylineVertex
 10
0.1868948152929874
 20
0.1649390000000039
 30
0.0
 70
    32
  0
VERTEX
  5
1893A
330
187EC
100
AcDbEntity
  8
0
100
AcDbVertex
100
AcDb3dPolylineVertex
 10
0.1892558152928245
 20
0.1592419999999493
 30
0.0
 70
    32
  0
VERTEX
  5
1893B
330
187EC
100
AcDbEntity
  8
0
100
AcDbVertex
100
AcDb3dPolylineVertex
 10
0.1915218152930151
 20
0.1535109999999804
 30
0.0
 70
    32
  0
VERTEX
  5
1893C
330
187EC
100
AcDbEntity
  8
0
100
AcDbVertex
100
AcDb3dPolylineVertex
 10
0.1936878152930035
 20
0.1477429999999913
 30
0.0
 70
    32
  0
VERTEX
  5
1893D
330
187EC
100
AcDbEntity
  8
0
100
AcDbVertex
100
AcDb3dPolylineVertex
 10
0.1957478152930321
 20
0.1419329999998808
 30
0.0
 70
    32
  0
VERTEX
  5
1893E
330
187EC
100
AcDbEntity
  8
0
100
AcDbVertex
100
AcDb3dPolylineVertex
 10
0.1976988152929948
 20
0.1360290000000077
 30
0.0
 70
    32
  0
VERTEX
  5
1893F
330
187EC
100
AcDbEntity
  8
0
100
AcDbVertex
100
AcDb3dPolylineVertex
 10
0.1995378152930129
 20
0.1299539999999979
 30
0.0
 70
    32
  0
VERTEX
  5
18940
330
187EC
100
AcDbEntity
  8
0
100
AcDbVertex
100
AcDb3dPolylineVertex
 10
0.2012628152928642
 20
0.1236300000000483
 30
0.0
 70
    32
  0
VERTEX
  5
18941
330
187EC
100
AcDbEntity
  8
0
100
AcDbVertex
100
AcDb3dPolylineVertex
 10
0.202872815292892
 20
0.1169789999999011
 30
0.0
 70
    32
  0
VERTEX
  5
18942
330
187EC
100
AcDbEntity
  8
0
100
AcDbVertex
100
AcDb3dPolylineVertex
 10
0.2043648152929904
 20
0.1099229999999807
 30
0.0
 70
    32
  0
VERTEX
  5
18943
330
187EC
100
AcDbEntity
  8
0
100
AcDbVertex
100
AcDb3dPolylineVertex
 10
0.2057358152928259
 20
0.1023850000001403
 30
0.0
 70
    32
  0
VERTEX
  5
18944
330
187EC
100
AcDbEntity
  8
0
100
AcDbVertex
100
AcDb3dPolylineVertex
 10
0.2069858152928532
 20
0.0942869000000428
 30
0.0
 70
    32
  0
VERTEX
  5
18945
330
187EC
100
AcDbEntity
  8
0
100
AcDbVertex
100
AcDb3dPolylineVertex
 10
0.208110815292855
 20
0.0855504999999539
 30
0.0
 70
    32
  0
VERTEX
  5
18946
330
187EC
100
AcDbEntity
  8
0
100
AcDbVertex
100
AcDb3dPolylineVertex
 10
0.2091088152928364
 20
0.0760983999998644
 30
0.0
 70
    32
  0
VERTEX
  5
18947
330
187EC
100
AcDbEntity
  8
0
100
AcDbVertex
100
AcDb3dPolylineVertex
 10
0.2099778152930298
 20
0.0658527999999024
 30
0.0
 70
    32
  0
VERTEX
  5
18948
330
187EC
100
AcDbEntity
  8
0
100
AcDbVertex
100
AcDb3dPolylineVertex
 10
0.2107168152928693
 20
0.0547358999999688
 30
0.0
 70
    32
  0
VERTEX
  5
18949
330
187EC
100
AcDbEntity
  8
0
100
AcDbVertex
100
AcDb3dPolylineVertex
 10
0.2113218152928198
 20
0.0426699999998164
 30
0.0
 70
    32
  0
VERTEX
  5
1894A
330
187EC
100
AcDbEntity
  8
0
100
AcDbVertex
100
AcDb3dPolylineVertex
 10
0.2117918152929974
 20
0.0295771999999488
 30
0.0
 70
    32
  0
VERTEX
  5
1894B
330
187EC
100
AcDbEntity
  8
0
100
AcDbVertex
100
AcDb3dPolylineVertex
 10
0.2121248152929525
 20
0.0153798000001189
 30
0.0
 70
    32
  0
VERTEX
  5
1894C
330
187EC
100
AcDbEntity
  8
0
100
AcDbVertex
100
AcDb3dPolylineVertex
 10
0.2123178152930336
 20
-0.0000000000122782
 30
0.0
 70
    32
  0
SEQEND
  5
1894D
330
187EC
100
AcDbEntity
  8
0
  0
MTEXT
  5
1894E
330
1F
100
AcDbEntity
  8
0
100
AcDbMText
 10
3.374986246973833
 20
1.001455824147797
 30
0.0
 40
0.125
 41
3.1939
 46
0.0
 71
     1
 72
     5
  1
Hand Rail\PTL-3559\P1-1/4" x 2-1/2"\P800.66.TAGUE
 73
     1
 44
1.0
  0
VIEWPORT
  5
BADA
330
BAD2
100
AcDbEntity
 67
     1
  8
0
100
AcDbViewport
 10
5.483957147193814
 20
4.151353503331956
 30
0.0
 40
16.39242694558117
 41
8.28990997955629
 68
     1
 69
     1
 12
5.483957147193814
 22
4.151353503331956
 13
0.0
 23
0.0
 14
0.5
 24
0.5
 15
0.5
 25
0.5
 16
0.0
 26
0.0
 36
1.0
 17
0.0
 27
0.0
 37
0.0
 42
50.0
 43
0.0
 44
0.0
 45
8.28990997955629
 50
0.0
 51
0.0
 72
   100
 90
    32800
  1

281
     0
 71
     1
 74
     0
110
0.0
120
0.0
130
0.0
111
1.0
121
0.0
131
0.0
112
0.0
122
1.0
132
0.0
 79
     0
146
0.0
170
     0
 61
     5
348
1718D
292
     1
282
     1
141
0.0
142
0.0
 63
   250
421
  3355443
  0
VIEWPORT
  5
BADD
330
BAD2
100
AcDbEntity
 67
     1
  8
0
100
AcDbViewport
 10
5.249999629487193
 20
4.016674180763468
 30
0.0
 40
10.44245679893058
 41
7.881380513199989
 68
     2
 69
     2
 12
-384.4856750438264
 22
840.9822994475991
 13
0.0
 23
0.0
 14
0.5
 24
0.5
 15
0.5
 25
0.5
 16
0.0
 26
0.0
 36
1.0
 17
0.0
 27
0.0
 37
0.0
 42
50.0
 43
0.0
 44
0.0
 45
7.881380552080734
 50
0.0
 51
0.0
 72
   100
 90
    32832
  1

281
     0
 71
     1
 74
     0
110
0.0
120
0.0
130
0.0
111
1.0
121
0.0
131
0.0
112
0.0
122
1.0
132
0.0
 79
     0
146
0.0
170
     0
 61
     5
348
1718D
292
     1
282
     1
141
0.0
142
0.0
 63
   250
421
  3355443
  0
ENDSEC
  0
SECTION
  2
OBJECTS
  0
DICTIONARY
  5
C
330
0
100
AcDbDictionary
281
     1
  3
ACAD_CIP_PREVIOUS_PRODUCT_INFO
350
171C0
  3
ACAD_COLOR
350
4CDF
  3
ACAD_DETAILVIEWSTYLE
350
171B6
  3
ACAD_GROUP
350
D
  3
ACAD_LAYOUT
350
1A
  3
ACAD_MATERIAL
350
4CDE
  3
ACAD_MLEADERSTYLE
350
171B2
  3
ACAD_MLINESTYLE
350
17
  3
ACAD_PLOTSETTINGS
350
19
  3
ACAD_PLOTSTYLENAME
350
E
  3
ACAD_SCALELIST
350
171A0
  3
ACAD_SECTIONVIEWSTYLE
350
171B4
  3
ACAD_TABLESTYLE
350
4CE0
  3
ACAD_VISUALSTYLE
350
17187
  3
AcadDim
350
237
  3
ACDB_RECOMPOSE_DATA
350
18951
  3
AcDbVariableDictionary
350
73
  3
AEC_PROPERTY_SET_DEFS
350
17200
  3
ASE_INDEX_DICTIONARY
350
DE7
  0
DICTIONARY
  5
4D73
330
2
100
AcDbDictionary
280
     1
281
     1
  3
ACAD_LAYERSTATES
360
4D74
  0
DICTIONARY
  5
171D0
330
10
100
AcDbDictionary
280
     1
281
     1
  3
ADSK_XREC_LAYER_RECONCILED
360
171D1
  0
XRECORD
  5
171C0
102
{ACAD_REACTORS
330
C
102
}
330
C
100
AcDbXrecord
280
     1
300
ACDLT
300
2018
300
ACDLT_F_S
  0
DICTIONARY
  5
4CDF
102
{ACAD_REACTORS
330
C
102
}
330
C
100
AcDbDictionary
281
     1
  0
DICTIONARY
  5
171B6
102
{ACAD_REACTORS
330
C
102
}
330
C
100
AcDbDictionary
281
     1
  3
Imperial24
350
171B7
  0
DICTIONARY
  5
D
102
{ACAD_REACTORS
330
C
102
}
330
C
100
AcDbDictionary
281
     1
  0
DICTIONARY
  5
1A
102
{ACAD_REACTORS
330
C
102
}
330
C
100
AcDbDictionary
281
     1
  3
Layout1
350
BAD3
  3
Model
350
22
  0
DICTIONARY
  5
4CDE
102
{ACAD_REACTORS
330
C
102
}
330
C
100
AcDbDictionary
281
     1
  3
ByBlock
350
17177
  3
ByLayer
350
1716F
  3
Global
350
1717F
  0
DICTIONARY
  5
171B2
102
{ACAD_REACTORS
330
C
102
}
330
C
100
AcDbDictionary
281
     1
  3
Standard
350
171B3
  0
DICTIONARY
  5
17
102
{ACAD_REACTORS
330
C
102
}
330
C
100
AcDbDictionary
281
     1
  3
Standard
350
18
  0
DICTIONARY
  5
19
102
{ACAD_REACTORS
330
C
102
}
330
C
100
AcDbDictionary
281
     1
  0
ACDBDICTIONARYWDFLT
  5
E
102
{ACAD_REACTORS
330
C
102
}
330
C
100
AcDbDictionary
281
     1
  3
Normal
350
F
100
AcDbDictionaryWithDefault
340
F
  0
DICTIONARY
  5
171A0
102
{ACAD_REACTORS
330
C
102
}
330
C
100
AcDbDictionary
281
     1
  3
A0
350
171A1
  3
A1
350
171A2
  3
A2
350
171A3
  3
A3
350
171A4
  3
A4
350
171A5
  3
A5
350
171A6
  3
A6
350
171A7
  3
A7
350
171A8
  3
A8
350
171A9
  3
A9
350
171AA
  3
B0
350
171AB
  3
B1
350
171AC
  3
B2
350
171AD
  3
B3
350
171AE
  3
B4
350
171AF
  3
B5
350
171B0
  3
B6
350
171B1
  0
DICTIONARY
  5
171B4
102
{ACAD_REACTORS
330
C
102
}
330
C
100
AcDbDictionary
281
     1
  3
Imperial24
350
171B5
  0
DICTIONARY
  5
4CE0
102
{ACAD_REACTORS
330
C
102
}
330
C
100
AcDbDictionary
281
     1
  3
Standard
350
4CE1
  0
DICTIONARY
  5
17187
102
{ACAD_REACTORS
330
C
102
}
330
C
100
AcDbDictionary
281
     1
  3
2dWireframe
350
1718D
  3
3dWireframe
350
171F0
  3
Basic
350
1718C
  3
Brighten
350
17193
  3
ColorChange
350
17197
  3
Conceptual
350
17190
  3
Dim
350
17192
  3
EdgeColorOff
350
1719F
  3
Facepattern
350
17196
  3
Flat
350
17188
  3
FlatWithEdges
350
17189
  3
Gouraud
350
1718A
  3
GouraudWithEdges
350
1718B
  3
Hidden
350
1718F
  3
JitterOff
350
1719D
  3
Linepattern
350
17195
  3
OverhangOff
350
1719E
  3
Realistic
350
17191
  3
Shaded
350
1719C
  3
Shaded with edges
350
1719B
  3
Shades of Gray
350
17198
  3
Sketchy
350
17199
  3
Thicken
350
17194
  3
Wireframe
350
1718E
  3
X-Ray
350
1719A
  0
XRECORD
  5
237
102
{ACAD_REACTORS
330
C
102
}
330
C
100
AcDbXrecord
280
     1
 90
   990106
  3

 60
     0
 61
     0
 62
     1
 63
     3
 64
     0
 65
     0
 66
     0
 67
     3
 68
     1
 69
     0
 70
     0
 71
     0
 72
     0
 40
0.0
170
     0
  0
XRECORD
  5
18951
102
{ACAD_REACTORS
330
C
102
}
330
C
100
AcDbXrecord
280
     1
 90
        1
330
4CE1
  0
DICTIONARY
  5
73
102
{ACAD_REACTORS
330
C
102
}
330
C
100
AcDbDictionary
281
     1
  3
CANNOSCALE
350
17217
  3
CMLEADERSTYLE
350
17213
  3
CTABLESTYLE
350
4CE6
  3
CVIEWDETAILSTYLE
350
17214
  3
CVIEWSECTIONSTYLE
350
17215
  3
DIMASSOC
350
BBB0
  3
LAYEREVAL
350
17219
  3
LAYERNOTIFY
350
1721A
  3
LIGHTINGUNITS
350
17218
  3
MSLTSCALE
350
17216
  3
PROJECTNAME
350
BBB1
  3
SORTENTS
350
74
  0
DICTIONARY
  5
17200
102
{ACAD_REACTORS
330
C
102
}
330
C
100
AcDbDictionary
281
     1
  0
DICTIONARY
  5
DE7
102
{ACAD_REACTORS
330
C
102
}
330
C
100
AcDbDictionary
281
     1
  3
ASEBlockHierarchyIndexRecord
350
DE9
1001
DCO15
1040
1441350633.74
  0
DICTIONARY
  5
4D74
102
{ACAD_REACTORS
330
4D73
102
}
330
4D73
100
AcDbDictionary
281
     1
  0
XRECORD
  5
171D1
102
{ACAD_REACTORS
330
171D0
102
}
330
171D0
100
AcDbXrecord
280
     1
290
     1
  0
ACDBDETAILVIEWSTYLE
  5
171B7
102
{ACAD_REACTORS
330
171B6
102
}
330
171B6
100
AcDbModelDocViewStyle
 70
     0
  3
Imperial24
290
     1
300
Imperial24
 90
        0
100
AcDbDetailViewStyle
 70
     0
 71
     0
 90
        3
 71
     1
340
11
 62
   256
 40
0.24
340
0
 62
   256
 40
0.24
300

 40
0.36
280
     3
 71
     2
340
16
 90
       25
 62
   256
 71
     3
340
11
 62
   256
 40
0.24
 90
        1
 40
0.75
 90
        1
300
%<\AcVar ViewType \f "%tc1">% %<\AcVar ViewDetailId>%\PSCALE %<\AcVar ViewScale \f "%sn">%
 71
     4
340
16
 90
       25
 62
   256
340
16
 90
       25
 62
   256
280
     0
  0
LAYOUT
  5
BAD3
102
{ACAD_XDICTIONARY
360
BAE2
102
}
102
{ACAD_REACTORS
330
1A
102
}
330
1A
100
AcDbPlotSettings
  1

  2
none_device
  4
Letter_(8.50_x_11.00_Inches)
  6

 40
6.349999904632568
 41
6.349999904632568
 42
6.350006103515625
 43
6.350006103515625
 44
215.8999938964844
 45
279.3999938964844
 46
0.0
 47
0.0
 48
0.0
 49
0.0
140
0.0
141
0.0
142
1.0
143
1.0
 70
   688
 72
     0
 73
     1
 74
     5
  7
HP LaserJet 1100
 75
    16
147
1.0
 76
     0
 77
     2
 78
   300
148
0.0
149
0.0
100
AcDbLayout
  1
Layout1
 70
     1
 71
     1
 10
-0.2500002402958907
 20
-0.2499999962453767
 11
10.74999951940821
 21
8.249999763458731
 12
0.0
 22
0.0
 32
0.0
 14
0.0287712300219028
 24
0.0759839241634737
 34
0.0
 15
10.47122802895248
 25
7.957364437363462
 35
0.0
146
0.0
 13
0.0
 23
0.0
 33
0.0
 16
1.0
 26
0.0
 36
0.0
 17
0.0
 27
1.0
 37
0.0
 76
     0
330
BAD2
331
BADA
1001
ACAD_PSEXT
1000
None
1000
None
1000
Not applicable
1000
The layout will not be plotted unless a new plotter configuration name is selected.
1070
     0
  0
LAYOUT
  5
22
102
{ACAD_REACTORS
330
1A
102
}
330
1A
100
AcDbPlotSettings
  1

  2
none_device
  4
ANSI_A_(8.50_x_11.00_Inches)
  6

 40
6.349999904632568
 41
19.04999923706055
 42
6.350006103515625
 43
19.04998779296875
 44
215.8999938964844
 45
279.3999938964844
 46
0.0
 47
0.0
 48
0.0
 49
0.0
140
0.0
141
0.0
142
1.0
143
2.584895464708373
 70
 11952
 72
     0
 73
     1
 74
     0
  7

 75
     0
147
0.3868628397755418
 76
     0
 77
     2
 78
   300
148
0.0
149
0.0
100
AcDbLayout
  1
Model
 70
     1
 71
     0
 10
0.0
 20
0.0
 11
12.0
 21
9.0
 12
0.0
 22
0.0
 32
0.0
 14
0.0
 24
0.0
 34
0.0
 15
0.0
 25
0.0
 35
0.0
146
0.0
 13
0.0
 23
0.0
 33
0.0
 16
1.0
 26
0.0
 36
0.0
 17
0.0
 27
1.0
 37
0.0
 76
     0
330
1F
331
16E58
  0
MATERIAL
  5
17177
102
{ACAD_XDICTIONARY
360
17178
102
}
102
{ACAD_REACTORS
330
4CDE
102
}
330
4CDE
100
AcDbMaterial
  1
ByBlock
 72
     0
 43
0.0208333333333333
 43
0.0
 43
0.0
 43
0.0
 43
0.0
 43
0.0208333333333333
 43
0.0
 43
0.0
 43
0.0
 43
0.0
 43
1.0
 43
0.0
 43
0.0
 43
0.0
 43
0.0
 43
1.0
 77
     0
 47
0.0208333333333333
 47
0.0
 47
0.0
 47
0.0
 47
0.0
 47
0.0208333333333333
 47
0.0
 47
0.0
 47
0.0
 47
0.0
 47
1.0
 47
0.0
 47
0.0
 47
0.0
 47
0.0
 47
1.0
171
     0
 49
0.0208333333333333
 49
0.0
 49
0.0
 49
0.0
 49
0.0
 49
0.0208333333333333
 49
0.0
 49
0.0
 49
0.0
 49
0.0
 49
1.0
 49
0.0
 49
0.0
 49
0.0
 49
0.0
 49
1.0
175
     0
142
0.0208333333333333
142
0.0
142
0.0
142
0.0
142
0.0
142
0.0208333333333333
142
0.0
142
0.0
142
0.0
142
0.0
142
1.0
142
0.0
142
0.0
142
0.0
142
0.0
142
1.0
179
     0
144
0.0208333333333333
144
0.0
144
0.0
144
0.0
144
0.0
144
0.0208333333333333
144
0.0
144
0.0
144
0.0
144
0.0
144
1.0
144
0.0
144
0.0
144
0.0
144
0.0
144
1.0
147
0.0208333333333333
147
0.0
147
0.0
147
0.0
147
0.0
147
0.0208333333333333
147
0.0
147
0.0
147
0.0
147
0.0
147
1.0
147
0.0
147
0.0
147
0.0
147
0.0
147
1.0
  0
MATERIAL
  5
1716F
102
{ACAD_XDICTIONARY
360
17170
102
}
102
{ACAD_REACTORS
330
4CDE
102
}
330
4CDE
100
AcDbMaterial
  1
ByLayer
 72
     0
 43
0.0208333333333333
 43
0.0
 43
0.0
 43
0.0
 43
0.0
 43
0.0208333333333333
 43
0.0
 43
0.0
 43
0.0
 43
0.0
 43
1.0
 43
0.0
 43
0.0
 43
0.0
 43
0.0
 43
1.0
 77
     0
 47
0.0208333333333333
 47
0.0
 47
0.0
 47
0.0
 47
0.0
 47
0.0208333333333333
 47
0.0
 47
0.0
 47
0.0
 47
0.0
 47
1.0
 47
0.0
 47
0.0
 47
0.0
 47
0.0
 47
1.0
171
     0
 49
0.0208333333333333
 49
0.0
 49
0.0
 49
0.0
 49
0.0
 49
0.0208333333333333
 49
0.0
 49
0.0
 49
0.0
 49
0.0
 49
1.0
 49
0.0
 49
0.0
 49
0.0
 49
0.0
 49
1.0
175
     0
142
0.0208333333333333
142
0.0
142
0.0
142
0.0
142
0.0
142
0.0208333333333333
142
0.0
142
0.0
142
0.0
142
0.0
142
1.0
142
0.0
142
0.0
142
0.0
142
0.0
142
1.0
179
     0
144
0.0208333333333333
144
0.0
144
0.0
144
0.0
144
0.0
144
0.0208333333333333
144
0.0
144
0.0
144
0.0
144
0.0
144
1.0
144
0.0
144
0.0
144
0.0
144
0.0
144
1.0
147
0.0208333333333333
147
0.0
147
0.0
147
0.0
147
0.0
147
0.0208333333333333
147
0.0
147
0.0
147
0.0
147
0.0
147
1.0
147
0.0
147
0.0
147
0.0
147
0.0
147
1.0
  0
MATERIAL
  5
1717F
102
{ACAD_XDICTIONARY
360
17180
102
}
102
{ACAD_REACTORS
330
4CDE
102
}
330
4CDE
100
AcDbMaterial
  1
Global
 72
     0
 43
0.0208333333333333
 43
0.0
 43
0.0
 43
0.0
 43
0.0
 43
0.0208333333333333
 43
0.0
 43
0.0
 43
0.0
 43
0.0
 43
1.0
 43
0.0
 43
0.0
 43
0.0
 43
0.0
 43
1.0
 77
     0
 47
0.0208333333333333
 47
0.0
 47
0.0
 47
0.0
 47
0.0
 47
0.0208333333333333
 47
0.0
 47
0.0
 47
0.0
 47
0.0
 47
1.0
 47
0.0
 47
0.0
 47
0.0
 47
0.0
 47
1.0
171
     0
 49
0.0208333333333333
 49
0.0
 49
0.0
 49
0.0
 49
0.0
 49
0.0208333333333333
 49
0.0
 49
0.0
 49
0.0
 49
0.0
 49
1.0
 49
0.0
 49
0.0
 49
0.0
 49
0.0
 49
1.0
175
     0
142
0.0208333333333333
142
0.0
142
0.0
142
0.0
142
0.0
142
0.0208333333333333
142
0.0
142
0.0
142
0.0
142
0.0
142
1.0
142
0.0
142
0.0
142
0.0
142
0.0
142
1.0
179
     0
144
0.0208333333333333
144
0.0
144
0.0
144
0.0
144
0.0
144
0.0208333333333333
144
0.0
144
0.0
144
0.0
144
0.0
144
1.0
144
0.0
144
0.0
144
0.0
144
0.0
144
1.0
147
0.0208333333333333
147
0.0
147
0.0
147
0.0
147
0.0
147
0.0208333333333333
147
0.0
147
0.0
147
0.0
147
0.0
147
1.0
147
0.0
147
0.0
147
0.0
147
0.0
147
1.0
  0
MLEADERSTYLE
  5
171B3
102
{ACAD_REACTORS
330
171B2
102
}
330
171B2
100
AcDbMLeaderStyle
179
     2
170
     2
171
     1
172
     0
 90
        2
 40
0.0
 41
0.0
173
     1
 91
-1056964608
340
14
 92
       -2
290
     1
 42
0.09
291
     1
 43
0.36
  3
Standard
 44
0.18
300

342
11
174
     1
178
     6
175
     1
176
     0
 93
-1056964608
 45
0.18
292
     0
297
     0
 46
0.18
 94
-1056964608
 47
1.0
 49
1.0
140
1.0
293
     1
141
0.0
294
     1
177
     0
142
1.0
295
     1
296
     0
143
0.125
271
     0
272
     9
273
     9
298
     1
  0
MLINESTYLE
  5
18
102
{ACAD_REACTORS
330
17
102
}
330
17
100
AcDbMlineStyle
  2
STANDARD
 70
     0
  3

 62
   256
 51
90.0
 52
90.0
 71
     2
 49
0.5
 62
   256
  6
BYLAYER
 49
-0.5
 62
   256
  6
BYLAYER
  0
ACDBPLACEHOLDER
  5
F
102
{ACAD_REACTORS
330
E
102
}
330
E
  0
SCALE
  5
171A1
102
{ACAD_REACTORS
330
171A0
102
}
330
171A0
100
AcDbScale
 70
     0
300
1:1
140
1.0
141
1.0
290
     1
  0
SCALE
  5
171A2
102
{ACAD_REACTORS
330
171A0
102
}
330
171A0
100
AcDbScale
 70
     0
300
1/128" = 1'-0"
140
0.0078125
141
12.0
290
     0
  0
SCALE
  5
171A3
102
{ACAD_REACTORS
330
171A0
102
}
330
171A0
100
AcDbScale
 70
     0
300
1/64" = 1'-0"
140
0.015625
141
12.0
290
     0
  0
SCALE
  5
171A4
102
{ACAD_REACTORS
330
171A0
102
}
330
171A0
100
AcDbScale
 70
     0
300
1/32" = 1'-0"
140
0.03125
141
12.0
290
     0
  0
SCALE
  5
171A5
102
{ACAD_REACTORS
330
171A0
102
}
330
171A0
100
AcDbScale
 70
     0
300
1/16" = 1'-0"
140
0.0625
141
12.0
290
     0
  0
SCALE
  5
171A6
102
{ACAD_REACTORS
330
171A0
102
}
330
171A0
100
AcDbScale
 70
     0
300
3/32" = 1'-0"
140
0.09375
141
12.0
290
     0
  0
SCALE
  5
171A7
102
{ACAD_REACTORS
330
171A0
102
}
330
171A0
100
AcDbScale
 70
     0
300
1/8" = 1'-0"
140
0.125
141
12.0
290
     0
  0
SCALE
  5
171A8
102
{ACAD_REACTORS
330
171A0
102
}
330
171A0
100
AcDbScale
 70
     0
300
3/16" = 1'-0"
140
0.1875
141
12.0
290
     0
  0
SCALE
  5
171A9
102
{ACAD_REACTORS
330
171A0
102
}
330
171A0
100
AcDbScale
 70
     0
300
1/4" = 1'-0"
140
0.25
141
12.0
290
     0
  0
SCALE
  5
171AA
102
{ACAD_REACTORS
330
171A0
102
}
330
171A0
100
AcDbScale
 70
     0
300
3/8" = 1'-0"
140
0.375
141
12.0
290
     0
  0
SCALE
  5
171AB
102
{ACAD_REACTORS
330
171A0
102
}
330
171A0
100
AcDbScale
 70
     0
300
1/2" = 1'-0"
140
0.5
141
12.0
290
     0
  0
SCALE
  5
171AC
102
{ACAD_REACTORS
330
171A0
102
}
330
171A0
100
AcDbScale
 70
     0
300
3/4" = 1'-0"
140
0.75
141
12.0
290
     0
  0
SCALE
  5
171AD
102
{ACAD_REACTORS
330
171A0
102
}
330
171A0
100
AcDbScale
 70
     0
300
1" = 1'-0"
140
1.0
141
12.0
290
     0
  0
SCALE
  5
171AE
102
{ACAD_REACTORS
330
171A0
102
}
330
171A0
100
AcDbScale
 70
     0
300
1-1/2" = 1'-0"
140
1.5
141
12.0
290
     0
  0
SCALE
  5
171AF
102
{ACAD_REACTORS
330
171A0
102
}
330
171A0
100
AcDbScale
 70
     0
300
3" = 1'-0"
140
3.0
141
12.0
290
     0
  0
SCALE
  5
171B0
102
{ACAD_REACTORS
330
171A0
102
}
330
171A0
100
AcDbScale
 70
     0
300
6" = 1'-0"
140
6.0
141
12.0
290
     0
  0
SCALE
  5
171B1
102
{ACAD_REACTORS
330
171A0
102
}
330
171A0
100
AcDbScale
 70
     0
300
1'-0" = 1'-0"
140
12.0
141
12.0
290
     0
  0
ACDBSECTIONVIEWSTYLE
  5
171B5
102
{ACAD_REACTORS
330
171B4
102
}
330
171B4
100
AcDbModelDocViewStyle
 70
     0
  3
Imperial24
290
     1
300
Imperial24
 90
        0
100
AcDbSectionViewStyle
 70
     0
 71
     0
 90
       78
 71
     1
340
11
 62
   256
 40
0.24
340
0
340
0
 62
   256
 40
0.24
300
I, O, Q, S, X, Z
 40
0.48
 90
        3
 40
0.18
 90
        1
 71
     2
340
16
 90
       25
 62
   256
340
16
 90
       50
 62
   256
 40
0.24
 40
0.0
 40
0.24
 71
     3
340
11
 62
   256
 40
0.24
 90
        1
 40
0.75
 90
        1
300
%<\AcVar ViewType \f "%tc1">% %<\AcVar ViewSectionStartId>%-%<\AcVar ViewSectionEndId>%\PSCALE %<\AcVar ViewScale \f "%sn">%
 71
     4
 62
   256
 62
   257
300
ANSI31
 40
1.0
 90
        0
290
     0
290
     0
 90
        6
 40
0.0
 40
1.570796326794896
 40
0.2617993877991494
 40
1.308996938995747
 40
-0.2617993877991494
 40
1.832595714594046
  0
TABLESTYLE
  5
4CE1
102
{ACAD_XDICTIONARY
360
1894F
102
}
102
{ACAD_REACTORS
330
4CE0
102
}
330
4CE0
100
AcDbTableStyle
280
     0
  3
Standard
 70
     0
 71
     0
 40
0.06
 41
0.06
280
     0
281
     0
  7
Standard
140
0.18
170
     2
 62
     0
 63
     7
283
     0
 90
        4
 91
        0
  1

274
    -2
284
     1
 64
     0
275
    -2
285
     1
 65
     0
276
    -2
286
     1
 66
     0
277
    -2
287
     1
 67
     0
278
    -2
288
     1
 68
     0
279
    -2
289
     1
 69
     0
  7
Standard
140
0.25
170
     5
 62
     0
 63
     7
283
     0
 90
        4
 91
        0
  1

274
    -2
284
     1
 64
     0
275
    -2
285
     1
 65
     0
276
    -2
286
     1
 66
     0
277
    -2
287
     1
 67
     0
278
    -2
288
     1
 68
     0
279
    -2
289
     1
 69
     0
  7
Standard
140
0.18
170
     5
 62
     0
 63
     7
283
     0
 90
        4
 91
        0
  1

274
    -2
284
     1
 64
     0
275
    -2
285
     1
 65
     0
276
    -2
286
     1
 66
     0
277
    -2
287
     1
 67
     0
278
    -2
288
     1
 68
     0
279
    -2
289
     1
 69
     0
  0
VISUALSTYLE
  5
1718D
102
{ACAD_REACTORS
330
17187
102
}
330
17187
100
AcDbVisualStyle
  2
2dWireframe
 70
     4
177
     3
291
     0
 70
    58
 90
        0
176
     1
 90
        2
176
     1
 90
        0
176
     1
 90
        0
176
     1
 40
0.6
176
     1
 40
30.0
176
     1
 62
     7
420
 16777215
176
     1
 90
        1
176
     1
 90
        4
176
     1
 62
     7
176
     1
 62
   257
176
     1
 90
        1
176
     1
 90
        1
176
     1
 40
1.0
176
     1
 90
        0
176
     1
 62
   257
176
     1
 40
1.0
176
     1
 90
        1
176
     1
 90
        6
176
     1
 90
        2
176
     1
 62
     7
176
     1
 90
        5
176
     1
 90
        0
176
     1
 90
        0
176
     1
290
     0
176
     1
 90
        1
176
     1
 40
0.0
176
     1
 90
        0
176
     1
290
     1
176
     1
290
     1
176
     1
290
     0
176
     1
290
     0
176
     1
290
     0
176
     1
290
     0
176
     1
290
     0
176
     1
290
     0
176
     1
290
     0
176
     1
 90
       50
176
     1
 40
0.0
176
     1
 40
1.0
176
     1
 90
        0
176
     1
 62
    18
420
        0
176
     1
 90
       50
176
     1
 90
        3
176
     1
 62
     5
420
      255
176
     1
290
     0
176
     1
 90
       50
176
     1
 90
       50
176
     1
 90
       50
176
     1
290
     0
176
     1
 90
       50
176
     1
 62
   256
176
     0
 40
1.0
176
     0
 90
        2
176
     1
  1
strokes_ogs.tif
176
     1
290
     0
176
     1
 40
1.0
176
     1
 40
1.0
176
     1
  0
VISUALSTYLE
  5
171F0
102
{ACAD_REACTORS
330
17187
102
}
330
17187
100
AcDbVisualStyle
  2
3dWireframe
 70
     5
177
     3
291
     0
 70
    58
 90
        0
176
     1
 90
        2
176
     1
 90
        0
176
     1
 90
        0
176
     1
 40
0.6
176
     1
 40
30.0
176
     1
 62
     7
176
     1
 90
        1
176
     1
 90
        4
176
     1
 62
     7
176
     1
 62
   257
176
     1
 90
        1
176
     1
 90
        1
176
     1
 40
1.0
176
     1
 90
        0
176
     1
 62
   257
176
     1
 40
1.0
176
     1
 90
        1
176
     1
 90
        6
176
     1
 90
        2
176
     1
 62
     7
176
     1
 90
        5
176
     1
 90
        0
176
     1
 90
        0
176
     1
290
     0
176
     1
 90
        1
176
     1
 40
0.0
176
     1
 90
        0
176
     1
290
     0
176
     1
290
     1
176
     1
290
     1
176
     1
290
     0
176
     1
290
     0
176
     1
290
     0
176
     1
290
     0
176
     1
290
     0
176
     1
290
     0
176
     1
 90
       50
176
     1
 40
0.0
176
     1
 40
1.0
176
     1
 90
        0
176
     1
 62
    18
420
        0
176
     1
 90
       50
176
     1
 90
        3
176
     1
 62
     5
420
      255
176
     1
290
     0
176
     1
 90
       50
176
     1
 90
       50
176
     1
 90
       50
176
     1
290
     0
176
     1
 90
       50
176
     1
 62
   256
176
     0
 40
1.0
176
     0
 90
        2
176
     1
  1
strokes_ogs.tif
176
     1
290
     0
176
     1
 40
1.0
176
     1
 40
1.0
176
     1
  0
VISUALSTYLE
  5
1718C
102
{ACAD_REACTORS
330
17187
102
}
330
17187
100
AcDbVisualStyle
  2
Basic
 70
     7
177
     3
291
     1
 70
    58
 90
        1
176
     1
 90
        0
176
     1
 90
        1
176
     1
 90
        0
176
     1
 40
0.6
176
     1
 40
30.0
176
     1
 62
     7
420
 16777215
176
     1
 90
        0
176
     1
 90
        4
176
     1
 62
     7
176
     1
 62
   257
176
     1
 90
        1
176
     1
 90
        1
176
     1
 40
1.0
176
     1
 90
        8
176
     1
 62
     7
176
     1
 40
1.0
176
     1
 90
        1
176
     1
 90
        6
176
     1
 90
        2
176
     1
 62
     7
176
     1
 90
        5
176
     1
 90
        0
176
     1
 90
        0
176
     1
290
     0
176
     1
 90
        1
176
     1
 40
0.0
176
     1
 90
        0
176
     1
290
     0
176
     1
290
     1
176
     1
290
     1
176
     1
290
     0
176
     1
290
     0
176
     1
290
     0
176
     1
290
     0
176
     1
290
     0
176
     1
290
     0
176
     1
 90
       50
176
     1
 40
0.0
176
     1
 40
1.0
176
     1
 90
        0
176
     1
 62
    18
420
        0
176
     1
 90
       50
176
     1
 90
        3
176
     1
 62
     5
420
      255
176
     1
290
     0
176
     1
 90
       50
176
     1
 90
       50
176
     1
 90
       50
176
     1
290
     0
176
     1
 90
       50
176
     1
 62
   256
176
     0
 40
1.0
176
     0
 90
        2
176
     1
  1
strokes_ogs.tif
176
     1
290
     0
176
     1
 40
1.0
176
     1
 40
1.0
176
     1
  0
VISUALSTYLE
  5
17193
102
{ACAD_REACTORS
330
17187
102
}
330
17187
100
AcDbVisualStyle
  2
Brighten
 70
    12
177
     3
291
     1
 70
    58
 90
        2
176
     1
 90
        2
176
     1
 90
        0
176
     1
 90
        0
176
     1
 40
0.6
176
     1
 40
30.0
176
     1
 62
     7
420
 16777215
176
     1
 90
        1
176
     1
 90
        4
176
     1
 62
     7
176
     1
 62
   257
176
     1
 90
        1
176
     1
 90
        1
176
     1
 40
1.0
176
     1
 90
        8
176
     1
 62
     7
176
     1
 40
1.0
176
     1
 90
        1
176
     1
 90
        6
176
     1
 90
        2
176
     1
 62
     7
176
     1
 90
        5
176
     1
 90
        0
176
     1
 90
        0
176
     1
290
     0
176
     1
 90
        1
176
     1
 40
50.0
176
     1
 90
        0
176
     1
290
     0
176
     1
290
     1
176
     1
290
     1
176
     1
290
     0
176
     1
290
     0
176
     1
290
     0
176
     1
290
     0
176
     1
290
     0
176
     1
290
     0
176
     1
 90
       50
176
     1
 40
0.0
176
     1
 40
1.0
176
     1
 90
        0
176
     1
 62
    18
420
        0
176
     1
 90
       50
176
     1
 90
        3
176
     1
 62
     5
420
      255
176
     1
290
     0
176
     1
 90
       50
176
     1
 90
       50
176
     1
 90
       50
176
     1
290
     0
176
     1
 90
       50
176
     1
 62
   256
176
     0
 40
1.0
176
     0
 90
        2
176
     1
  1
strokes_ogs.tif
176
     1
290
     0
176
     1
 40
1.0
176
     1
 40
1.0
176
     1
  0
VISUALSTYLE
  5
17197
102
{ACAD_REACTORS
330
17187
102
}
330
17187
100
AcDbVisualStyle
  2
ColorChange
 70
    16
177
     3
291
     1
 70
    58
 90
        2
176
     1
 90
        2
176
     1
 90
        3
176
     1
 90
        0
176
     1
 40
0.6
176
     1
 40
30.0
176
     1
 62
     8
420
  8421504
176
     1
 90
        1
176
     1
 90
        4
176
     1
 62
     7
176
     1
 62
   257
176
     1
 90
        1
176
     1
 90
        1
176
     1
 40
1.0
176
     1
 90
        8
176
     1
 62
     8
420
  8421504
176
     1
 40
1.0
176
     1
 90
        1
176
     1
 90
        6
176
     1
 90
        2
176
     1
 62
     7
176
     1
 90
        5
176
     1
 90
        0
176
     1
 90
        0
176
     1
290
     0
176
     1
 90
        1
176
     1
 40
0.0
176
     1
 90
        0
176
     1
290
     0
176
     1
290
     1
176
     1
290
     1
176
     1
290
     0
176
     1
290
     0
176
     1
290
     0
176
     1
290
     0
176
     1
290
     0
176
     1
290
     0
176
     1
 90
       50
176
     1
 40
0.0
176
     1
 40
1.0
176
     1
 90
        0
176
     1
 62
    18
420
        0
176
     1
 90
       50
176
     1
 90
        3
176
     1
 62
     5
420
      255
176
     1
290
     0
176
     1
 90
       50
176
     1
 90
       50
176
     1
 90
       50
176
     1
290
     0
176
     1
 90
       50
176
     1
 62
   256
176
     0
 40
1.0
176
     0
 90
        2
176
     1
  1
strokes_ogs.tif
176
     1
290
     0
176
     1
 40
1.0
176
     1
 40
1.0
176
     1
  0
VISUALSTYLE
  5
17190
102
{ACAD_REACTORS
330
17187
102
}
330
17187
100
AcDbVisualStyle
  2
Conceptual
 70
     9
177
     3
291
     0
 70
    58
 90
        3
176
     1
 90
        2
176
     1
 90
        0
176
     1
 90
        0
176
     1
 40
0.6
176
     1
 40
30.0
176
     1
 62
     7
420
 16777215
176
     1
 90
        2
176
     1
 90
        2
176
     1
 62
     7
176
     1
 62
   257
176
     1
 90
        1
176
     1
 90
        1
176
     1
 40
179.0
176
     1
 90
        8
176
     1
 62
     7
176
     1
 40
1.0
176
     1
 90
        1
176
     1
 90
        6
176
     1
 90
        2
176
     1
 62
     7
176
     1
 90
        3
176
     1
 90
        0
176
     1
 90
        0
176
     1
290
     0
176
     1
 90
        1
176
     1
 40
0.0
176
     1
 90
        0
176
     1
290
     0
176
     1
290
     1
176
     1
290
     1
176
     1
290
     0
176
     1
290
     0
176
     1
290
     0
176
     1
290
     0
176
     1
290
     0
176
     1
290
     0
176
     1
 90
       50
176
     1
 40
0.0
176
     1
 40
1.0
176
     1
 90
        0
176
     1
 62
    18
420
        0
176
     1
 90
       50
176
     1
 90
        3
176
     1
 62
     5
420
      255
176
     1
290
     0
176
     1
 90
       50
176
     1
 90
       50
176
     1
 90
       50
176
     1
290
     0
176
     1
 90
       50
176
     1
 62
   256
176
     0
 40
1.0
176
     0
 90
        2
176
     1
  1
strokes_ogs.tif
176
     1
290
     0
176
     1
 40
1.0
176
     1
 40
1.0
176
     1
  0
VISUALSTYLE
  5
17192
102
{ACAD_REACTORS
330
17187
102
}
330
17187
100
AcDbVisualStyle
  2
Dim
 70
    11
177
     3
291
     1
 70
    58
 90
        2
176
     1
 90
        2
176
     1
 90
        0
176
     1
 90
        0
176
     1
 40
0.6
176
     1
 40
30.0
176
     1
 62
     7
420
 16777215
176
     1
 90
        1
176
     1
 90
        4
176
     1
 62
     7
176
     1
 62
   257
176
     1
 90
        1
176
     1
 90
        1
176
     1
 40
1.0
176
     1
 90
        8
176
     1
 62
     7
176
     1
 40
1.0
176
     1
 90
        1
176
     1
 90
        6
176
     1
 90
        2
176
     1
 62
     7
176
     1
 90
        5
176
     1
 90
        0
176
     1
 90
        0
176
     1
290
     0
176
     1
 90
        1
176
     1
 40
-50.0
176
     1
 90
        0
176
     1
290
     0
176
     1
290
     1
176
     1
290
     1
176
     1
290
     0
176
     1
290
     0
176
     1
290
     0
176
     1
290
     0
176
     1
290
     0
176
     1
290
     0
176
     1
 90
       50
176
     1
 40
0.0
176
     1
 40
1.0
176
     1
 90
        0
176
     1
 62
    18
420
        0
176
     1
 90
       50
176
     1
 90
        3
176
     1
 62
     5
420
      255
176
     1
290
     0
176
     1
 90
       50
176
     1
 90
       50
176
     1
 90
       50
176
     1
290
     0
176
     1
 90
       50
176
     1
 62
   256
176
     0
 40
1.0
176
     0
 90
        2
176
     1
  1
strokes_ogs.tif
176
     1
290
     0
176
     1
 40
1.0
176
     1
 40
1.0
176
     1
  0
VISUALSTYLE
  5
1719F
102
{ACAD_REACTORS
330
17187
102
}
330
17187
100
AcDbVisualStyle
  2
EdgeColorOff
 70
    22
177
     3
291
     1
 70
    58
 90
        2
176
     0
 90
        2
176
     0
 90
        0
176
     0
 90
        0
176
     0
 40
0.6
176
     0
 40
30.0
176
     0
 62
     7
420
 16777215
176
     0
 90
        1
176
     0
 90
        4
176
     0
 62
     7
176
     0
 62
   257
176
     0
 90
        1
176
     0
 90
        1
176
     0
 40
1.0
176
     0
 90
        8
176
     2
 62
     7
176
     0
 40
1.0
176
     0
 90
        1
176
     0
 90
        6
176
     0
 90
        2
176
     0
 62
     7
176
     0
 90
        5
176
     0
 90
        0
176
     0
 90
        0
176
     0
290
     0
176
     0
 90
        1
176
     0
 40
0.0
176
     0
 90
        0
176
     0
290
     0
176
     0
290
     1
176
     0
290
     1
176
     0
290
     0
176
     0
290
     0
176
     0
290
     0
176
     0
290
     0
176
     0
290
     0
176
     0
290
     0
176
     0
 90
       50
176
     0
 40
0.0
176
     0
 40
1.0
176
     0
 90
        0
176
     0
 62
    18
420
        0
176
     0
 90
       50
176
     0
 90
        3
176
     0
 62
     5
420
      255
176
     0
290
     0
176
     0
 90
       50
176
     0
 90
       50
176
     0
 90
       50
176
     0
290
     0
176
     0
 90
       50
176
     0
 62
   256
176
     0
 40
1.0
176
     0
 90
        2
176
     0
  1
strokes_ogs.tif
176
     0
290
     0
176
     0
 40
1.0
176
     0
 40
1.0
176
     0
  0
VISUALSTYLE
  5
17196
102
{ACAD_REACTORS
330
17187
102
}
330
17187
100
AcDbVisualStyle
  2
Facepattern
 70
    15
177
     3
291
     1
 70
    58
 90
        2
176
     1
 90
        2
176
     1
 90
        0
176
     1
 90
        0
176
     1
 40
0.6
176
     1
 40
30.0
176
     1
 62
     7
420
 16777215
176
     1
 90
        1
176
     1
 90
        4
176
     1
 62
     7
176
     1
 62
   257
176
     1
 90
        1
176
     1
 90
        1
176
     1
 40
1.0
176
     1
 90
        8
176
     1
 62
     7
176
     1
 40
1.0
176
     1
 90
        1
176
     1
 90
        6
176
     1
 90
        2
176
     1
 62
     7
176
     1
 90
        5
176
     1
 90
        0
176
     1
 90
        0
176
     1
290
     0
176
     1
 90
        1
176
     1
 40
0.0
176
     1
 90
        0
176
     1
290
     0
176
     1
290
     1
176
     1
290
     1
176
     1
290
     0
176
     1
290
     0
176
     1
290
     0
176
     1
290
     0
176
     1
290
     0
176
     1
290
     0
176
     1
 90
       50
176
     1
 40
0.0
176
     1
 40
1.0
176
     1
 90
        0
176
     1
 62
    18
420
        0
176
     1
 90
       50
176
     1
 90
        3
176
     1
 62
     5
420
      255
176
     1
290
     0
176
     1
 90
       50
176
     1
 90
       50
176
     1
 90
       50
176
     1
290
     0
176
     1
 90
       50
176
     1
 62
   256
176
     0
 40
1.0
176
     0
 90
        2
176
     1
  1
strokes_ogs.tif
176
     1
290
     0
176
     1
 40
1.0
176
     1
 40
1.0
176
     1
  0
VISUALSTYLE
  5
17188
102
{ACAD_REACTORS
330
17187
102
}
330
17187
100
AcDbVisualStyle
  2
Flat
 70
     0
177
     3
291
     1
 70
    58
 90
        2
176
     1
 90
        1
176
     1
 90
        1
176
     1
 90
        2
176
     1
 40
0.6
176
     1
 40
30.0
176
     1
 62
     7
420
 16777215
176
     1
 90
        0
176
     1
 90
        0
176
     1
 62
     7
176
     1
 62
   257
176
     1
 90
        1
176
     1
 90
        1
176
     1
 40
1.0
176
     1
 90
        8
176
     1
 62
     7
176
     1
 40
1.0
176
     1
 90
        1
176
     1
 90
        6
176
     1
 90
        2
176
     1
 62
     7
176
     1
 90
        5
176
     1
 90
        0
176
     1
 90
        0
176
     1
290
     0
176
     1
 90
       13
176
     1
 40
0.0
176
     1
 90
        0
176
     1
290
     0
176
     1
290
     1
176
     1
290
     1
176
     1
290
     0
176
     1
290
     0
176
     1
290
     0
176
     1
290
     0
176
     1
290
     0
176
     1
290
     0
176
     1
 90
       50
176
     1
 40
0.0
176
     1
 40
1.0
176
     1
 90
        0
176
     1
 62
    18
420
        0
176
     1
 90
       50
176
     1
 90
        3
176
     1
 62
     5
420
      255
176
     1
290
     0
176
     1
 90
       50
176
     1
 90
       50
176
     1
 90
       50
176
     1
290
     0
176
     1
 90
       50
176
     1
 62
   256
176
     0
 40
1.0
176
     0
 90
        2
176
     1
  1
strokes_ogs.tif
176
     1
290
     0
176
     1
 40
1.0
176
     1
 40
1.0
176
     1
  0
VISUALSTYLE
  5
17189
102
{ACAD_REACTORS
330
17187
102
}
330
17187
100
AcDbVisualStyle
  2
FlatWithEdges
 70
     1
177
     3
291
     1
 70
    58
 90
        2
176
     1
 90
        1
176
     1
 90
        1
176
     1
 90
        2
176
     1
 40
0.6
176
     1
 40
30.0
176
     1
 62
     7
420
 16777215
176
     1
 90
        1
176
     1
 90
        0
176
     1
 62
     7
176
     1
 62
   257
176
     1
 90
        1
176
     1
 90
        1
176
     1
 40
1.0
176
     1
 90
        0
176
     1
 62
   257
176
     1
 40
1.0
176
     1
 90
        1
176
     1
 90
        6
176
     1
 90
        2
176
     1
 62
     7
176
     1
 90
        5
176
     1
 90
        0
176
     1
 90
        0
176
     1
290
     0
176
     1
 90
       13
176
     1
 40
0.0
176
     1
 90
        0
176
     1
290
     0
176
     1
290
     1
176
     1
290
     1
176
     1
290
     0
176
     1
290
     0
176
     1
290
     0
176
     1
290
     0
176
     1
290
     0
176
     1
290
     0
176
     1
 90
       50
176
     1
 40
0.0
176
     1
 40
1.0
176
     1
 90
        0
176
     1
 62
    18
420
        0
176
     1
 90
       50
176
     1
 90
        3
176
     1
 62
     5
420
      255
176
     1
290
     0
176
     1
 90
       50
176
     1
 90
       50
176
     1
 90
       50
176
     1
290
     0
176
     1
 90
       50
176
     1
 62
   256
176
     0
 40
1.0
176
     0
 90
        2
176
     1
  1
strokes_ogs.tif
176
     1
290
     0
176
     1
 40
1.0
176
     1
 40
1.0
176
     1
  0
VISUALSTYLE
  5
1718A
102
{ACAD_REACTORS
330
17187
102
}
330
17187
100
AcDbVisualStyle
  2
Gouraud
 70
     2
177
     3
291
     1
 70
    58
 90
        2
176
     1
 90
        2
176
     1
 90
        1
176
     1
 90
        2
176
     1
 40
0.6
176
     1
 40
30.0
176
     1
 62
     7
420
 16777215
176
     1
 90
        0
176
     1
 90
        0
176
     1
 62
     7
176
     1
 62
   257
176
     1
 90
        1
176
     1
 90
        1
176
     1
 40
1.0
176
     1
 90
        0
176
     1
 62
     7
176
     1
 40
1.0
176
     1
 90
        1
176
     1
 90
        6
176
     1
 90
        2
176
     1
 62
     7
176
     1
 90
        5
176
     1
 90
        0
176
     1
 90
        0
176
     1
290
     0
176
     1
 90
       13
176
     1
 40
0.0
176
     1
 90
        0
176
     1
290
     0
176
     1
290
     1
176
     1
290
     1
176
     1
290
     0
176
     1
290
     0
176
     1
290
     0
176
     1
290
     0
176
     1
290
     0
176
     1
290
     0
176
     1
 90
       50
176
     1
 40
0.0
176
     1
 40
1.0
176
     1
 90
        0
176
     1
 62
    18
420
        0
176
     1
 90
       50
176
     1
 90
        3
176
     1
 62
     5
420
      255
176
     1
290
     0
176
     1
 90
       50
176
     1
 90
       50
176
     1
 90
       50
176
     1
290
     0
176
     1
 90
       50
176
     1
 62
   256
176
     0
 40
1.0
176
     0
 90
        2
176
     1
  1
strokes_ogs.tif
176
     1
290
     0
176
     1
 40
1.0
176
     1
 40
1.0
176
     1
  0
VISUALSTYLE
  5
1718B
102
{ACAD_REACTORS
330
17187
102
}
330
17187
100
AcDbVisualStyle
  2
GouraudWithEdges
 70
     3
177
     3
291
     1
 70
    58
 90
        2
176
     1
 90
        2
176
     1
 90
        1
176
     1
 90
        2
176
     1
 40
0.6
176
     1
 40
30.0
176
     1
 62
     7
420
 16777215
176
     1
 90
        1
176
     1
 90
        0
176
     1
 62
     7
176
     1
 62
   257
176
     1
 90
        1
176
     1
 90
        1
176
     1
 40
1.0
176
     1
 90
        0
176
     1
 62
   257
176
     1
 40
1.0
176
     1
 90
        1
176
     1
 90
        6
176
     1
 90
        2
176
     1
 62
     7
176
     1
 90
        5
176
     1
 90
        0
176
     1
 90
        0
176
     1
290
     0
176
     1
 90
       13
176
     1
 40
0.0
176
     1
 90
        0
176
     1
290
     0
176
     1
290
     1
176
     1
290
     1
176
     1
290
     0
176
     1
290
     0
176
     1
290
     0
176
     1
290
     0
176
     1
290
     0
176
     1
290
     0
176
     1
 90
       50
176
     1
 40
0.0
176
     1
 40
1.0
176
     1
 90
        0
176
     1
 62
    18
420
        0
176
     1
 90
       50
176
     1
 90
        3
176
     1
 62
     5
420
      255
176
     1
290
     0
176
     1
 90
       50
176
     1
 90
       50
176
     1
 90
       50
176
     1
290
     0
176
     1
 90
       50
176
     1
 62
   256
176
     0
 40
1.0
176
     0
 90
        2
176
     1
  1
strokes_ogs.tif
176
     1
290
     0
176
     1
 40
1.0
176
     1
 40
1.0
176
     1
  0
VISUALSTYLE
  5
1718F
102
{ACAD_REACTORS
330
17187
102
}
330
17187
100
AcDbVisualStyle
  2
Hidden
 70
     6
177
     3
291
     0
 70
    58
 90
        1
176
     1
 90
        2
176
     1
 90
        2
176
     1
 90
        0
176
     1
 40
0.6
176
     1
 40
30.0
176
     1
 62
     7
420
 16777215
176
     1
 90
        2
176
     1
 90
        2
176
     1
 62
     7
176
     1
 62
   257
176
     1
 90
        2
176
     1
 90
        1
176
     1
 40
40.0
176
     1
 90
        0
176
     1
 62
   257
176
     1
 40
1.0
176
     1
 90
        1
176
     1
 90
        6
176
     1
 90
        2
176
     1
 62
     7
176
     1
 90
        3
176
     1
 90
        0
176
     1
 90
        0
176
     1
290
     0
176
     1
 90
        1
176
     1
 40
0.0
176
     1
 90
        0
176
     1
290
     0
176
     1
290
     1
176
     1
290
     1
176
     1
290
     0
176
     1
290
     0
176
     1
290
     0
176
     1
290
     0
176
     1
290
     0
176
     1
290
     0
176
     1
 90
       50
176
     1
 40
0.0
176
     1
 40
1.0
176
     1
 90
        0
176
     1
 62
    18
420
        0
176
     1
 90
       50
176
     1
 90
        3
176
     1
 62
     5
420
      255
176
     1
290
     0
176
     1
 90
       50
176
     1
 90
       50
176
     1
 90
       50
176
     1
290
     0
176
     1
 90
       50
176
     1
 62
   256
176
     0
 40
1.0
176
     0
 90
        2
176
     1
  1
strokes_ogs.tif
176
     1
290
     0
176
     1
 40
1.0
176
     1
 40
1.0
176
     1
  0
VISUALSTYLE
  5
1719D
102
{ACAD_REACTORS
330
17187
102
}
330
17187
100
AcDbVisualStyle
  2
JitterOff
 70
    20
177
     3
291
     1
 70
    58
 90
        2
176
     0
 90
        2
176
     0
 90
        0
176
     0
 90
        0
176
     0
 40
0.6
176
     0
 40
30.0
176
     0
 62
     7
420
 16777215
176
     0
 90
        1
176
     0
 90
        4
176
     0
 62
     7
176
     0
 62
   257
176
     0
 90
        1
176
     0
 90
        1
176
     0
 40
1.0
176
     0
 90
       10
176
     2
 62
     7
176
     0
 40
1.0
176
     0
 90
        1
176
     0
 90
        6
176
     0
 90
        2
176
     0
 62
     7
176
     0
 90
        5
176
     0
 90
        0
176
     0
 90
        0
176
     0
290
     0
176
     0
 90
        1
176
     0
 40
0.0
176
     0
 90
        0
176
     0
290
     0
176
     0
290
     1
176
     0
290
     1
176
     0
290
     0
176
     0
290
     0
176
     0
290
     0
176
     0
290
     0
176
     0
290
     0
176
     0
290
     0
176
     0
 90
       50
176
     0
 40
0.0
176
     0
 40
1.0
176
     0
 90
        0
176
     0
 62
    18
420
        0
176
     0
 90
       50
176
     0
 90
        3
176
     0
 62
     5
420
      255
176
     0
290
     0
176
     0
 90
       50
176
     0
 90
       50
176
     0
 90
       50
176
     0
290
     0
176
     0
 90
       50
176
     0
 62
   256
176
     0
 40
1.0
176
     0
 90
        2
176
     0
  1
strokes_ogs.tif
176
     0
290
     0
176
     0
 40
1.0
176
     0
 40
1.0
176
     0
  0
VISUALSTYLE
  5
17195
102
{ACAD_REACTORS
330
17187
102
}
330
17187
100
AcDbVisualStyle
  2
Linepattern
 70
    14
177
     3
291
     1
 70
    58
 90
        2
176
     1
 90
        2
176
     1
 90
        0
176
     1
 90
        0
176
     1
 40
0.6
176
     1
 40
30.0
176
     1
 62
     7
420
 16777215
176
     1
 90
        1
176
     1
 90
        4
176
     1
 62
     7
176
     1
 62
   257
176
     1
 90
        7
176
     1
 90
        7
176
     1
 40
1.0
176
     1
 90
        8
176
     1
 62
     7
176
     1
 40
1.0
176
     1
 90
        1
176
     1
 90
        6
176
     1
 90
        2
176
     1
 62
     7
176
     1
 90
        5
176
     1
 90
        0
176
     1
 90
        0
176
     1
290
     0
176
     1
 90
        1
176
     1
 40
0.0
176
     1
 90
        0
176
     1
290
     0
176
     1
290
     1
176
     1
290
     1
176
     1
290
     0
176
     1
290
     0
176
     1
290
     0
176
     1
290
     0
176
     1
290
     0
176
     1
290
     0
176
     1
 90
       50
176
     1
 40
0.0
176
     1
 40
1.0
176
     1
 90
        0
176
     1
 62
    18
420
        0
176
     1
 90
       50
176
     1
 90
        3
176
     1
 62
     5
420
      255
176
     1
290
     0
176
     1
 90
       50
176
     1
 90
       50
176
     1
 90
       50
176
     1
290
     0
176
     1
 90
       50
176
     1
 62
   256
176
     0
 40
1.0
176
     0
 90
        2
176
     1
  1
strokes_ogs.tif
176
     1
290
     0
176
     1
 40
1.0
176
     1
 40
1.0
176
     1
  0
VISUALSTYLE
  5
1719E
102
{ACAD_REACTORS
330
17187
102
}
330
17187
100
AcDbVisualStyle
  2
OverhangOff
 70
    21
177
     3
291
     1
 70
    58
 90
        2
176
     0
 90
        2
176
     0
 90
        0
176
     0
 90
        0
176
     0
 40
0.6
176
     0
 40
30.0
176
     0
 62
     7
420
 16777215
176
     0
 90
        1
176
     0
 90
        4
176
     0
 62
     7
176
     0
 62
   257
176
     0
 90
        1
176
     0
 90
        1
176
     0
 40
1.0
176
     0
 90
        9
176
     2
 62
     7
176
     0
 40
1.0
176
     0
 90
        1
176
     0
 90
        6
176
     0
 90
        2
176
     0
 62
     7
176
     0
 90
        5
176
     0
 90
        0
176
     0
 90
        0
176
     0
290
     0
176
     0
 90
        1
176
     0
 40
0.0
176
     0
 90
        0
176
     0
290
     0
176
     0
290
     1
176
     0
290
     1
176
     0
290
     0
176
     0
290
     0
176
     0
290
     0
176
     0
290
     0
176
     0
290
     0
176
     0
290
     0
176
     0
 90
       50
176
     0
 40
0.0
176
     0
 40
1.0
176
     0
 90
        0
176
     0
 62
    18
420
        0
176
     0
 90
       50
176
     0
 90
        3
176
     0
 62
     5
420
      255
176
     0
290
     0
176
     0
 90
       50
176
     0
 90
       50
176
     0
 90
       50
176
     0
290
     0
176
     0
 90
       50
176
     0
 62
   256
176
     0
 40
1.0
176
     0
 90
        2
176
     0
  1
strokes_ogs.tif
176
     0
290
     0
176
     0
 40
1.0
176
     0
 40
1.0
176
     0
  0
VISUALSTYLE
  5
17191
102
{ACAD_REACTORS
330
17187
102
}
330
17187
100
AcDbVisualStyle
  2
Realistic
 70
     8
177
     3
291
     0
 70
    58
 90
        2
176
     1
 90
        3
176
     1
 90
        0
176
     1
 90
        2
176
     1
 40
0.6
176
     1
 40
30.0
176
     1
 62
     7
420
 16777215
176
     1
 90
        0
176
     1
 90
        0
176
     1
 62
     7
176
     1
 62
   257
176
     1
 90
        1
176
     1
 90
        1
176
     1
 40
1.0
176
     1
 90
        8
176
     1
 62
   257
176
     1
 40
1.0
176
     1
 90
        1
176
     1
 90
        6
176
     1
 90
        2
176
     1
 62
     7
176
     1
 90
        3
176
     1
 90
        0
176
     1
 90
        0
176
     1
290
     0
176
     1
 90
       13
176
     1
 40
0.0
176
     1
 90
        0
176
     1
290
     0
176
     1
290
     1
176
     1
290
     1
176
     1
290
     0
176
     1
290
     0
176
     1
290
     0
176
     1
290
     0
176
     1
290
     0
176
     1
290
     0
176
     1
 90
       50
176
     1
 40
0.0
176
     1
 40
1.0
176
     1
 90
        0
176
     1
 62
    18
420
        0
176
     1
 90
       50
176
     1
 90
        3
176
     1
 62
     5
420
      255
176
     1
290
     0
176
     1
 90
       50
176
     1
 90
       50
176
     1
 90
       50
176
     1
290
     0
176
     1
 90
       50
176
     1
 62
   256
176
     0
 40
1.0
176
     0
 90
        2
176
     1
  1
strokes_ogs.tif
176
     1
290
     0
176
     1
 40
1.0
176
     1
 40
1.0
176
     1
  0
VISUALSTYLE
  5
1719C
102
{ACAD_REACTORS
330
17187
102
}
330
17187
100
AcDbVisualStyle
  2
Shaded
 70
    27
177
     3
291
     0
 70
    58
 90
        2
176
     1
 90
        2
176
     1
 90
        1
176
     1
 90
        2
176
     1
 40
0.6
176
     1
 40
30.0
176
     1
 62
     7
420
 16777215
176
     1
 90
        0
176
     1
 90
        4
176
     1
 62
     7
176
     1
 62
   257
176
     1
 90
        1
176
     1
 90
        1
176
     1
 40
1.0
176
     1
 90
        8
176
     1
 62
   257
176
     1
 40
1.0
176
     1
 90
        1
176
     1
 90
        6
176
     1
 90
        2
176
     1
 62
     8
420
  7895160
176
     1
 90
        3
176
     1
 90
        0
176
     1
 90
        0
176
     1
290
     0
176
     1
 90
        5
176
     1
 40
0.0
176
     1
 90
        0
176
     1
290
     0
176
     1
290
     1
176
     1
290
     1
176
     1
290
     0
176
     1
290
     0
176
     1
290
     0
176
     1
290
     0
176
     1
290
     0
176
     1
290
     0
176
     1
 90
       50
176
     1
 40
0.0
176
     1
 40
1.0
176
     1
 90
        0
176
     1
 62
    18
420
        0
176
     1
 90
       50
176
     1
 90
        3
176
     1
 62
     5
420
      255
176
     1
290
     0
176
     1
 90
       50
176
     1
 90
       50
176
     1
 90
       50
176
     1
290
     0
176
     1
 90
       50
176
     1
 62
   256
176
     0
 40
1.0
176
     0
 90
        2
176
     1
  1
strokes_ogs.tif
176
     1
290
     0
176
     1
 40
1.0
176
     1
 40
1.0
176
     1
  0
VISUALSTYLE
  5
1719B
102
{ACAD_REACTORS
330
17187
102
}
330
17187
100
AcDbVisualStyle
  2
Shaded with edges
 70
    26
177
     3
291
     0
 70
    58
 90
        2
176
     1
 90
        2
176
     1
 90
        1
176
     1
 90
        2
176
     1
 40
0.6
176
     1
 40
30.0
176
     1
 62
     7
420
 16777215
176
     1
 90
        1
176
     1
 90
        2
176
     1
 62
     7
176
     1
 62
   257
176
     1
 90
        2
176
     1
 90
        1
176
     1
 40
1.0
176
     1
 90
        8
176
     1
 62
   257
176
     1
 40
1.0
176
     1
 90
        1
176
     1
 90
        6
176
     1
 90
        2
176
     1
 62
     7
176
     1
 90
        3
176
     1
 90
        0
176
     1
 90
        0
176
     1
290
     0
176
     1
 90
        5
176
     1
 40
0.0
176
     1
 90
        0
176
     1
290
     0
176
     1
290
     1
176
     1
290
     1
176
     1
290
     0
176
     1
290
     0
176
     1
290
     0
176
     1
290
     0
176
     1
290
     0
176
     1
290
     0
176
     1
 90
       50
176
     1
 40
0.0
176
     1
 40
1.0
176
     1
 90
        0
176
     1
 62
    18
420
        0
176
     1
 90
       50
176
     1
 90
        3
176
     1
 62
     5
420
      255
176
     1
290
     0
176
     1
 90
       50
176
     1
 90
       50
176
     1
 90
       50
176
     1
290
     0
176
     1
 90
       50
176
     1
 62
   256
176
     0
 40
1.0
176
     0
 90
        2
176
     1
  1
strokes_ogs.tif
176
     1
290
     0
176
     1
 40
1.0
176
     1
 40
1.0
176
     1
  0
VISUALSTYLE
  5
17198
102
{ACAD_REACTORS
330
17187
102
}
330
17187
100
AcDbVisualStyle
  2
Shades of Gray
 70
    23
177
     3
291
     0
 70
    58
 90
        2
176
     1
 90
        2
176
     1
 90
        3
176
     1
 90
        0
176
     1
 40
0.6
176
     1
 40
30.0
176
     1
 62
     7
420
 16777215
176
     1
 90
        2
176
     1
 90
        2
176
     1
 62
     7
176
     1
 62
     7
176
     1
 90
        1
176
     1
 90
        1
176
     1
 40
40.0
176
     1
 90
        8
176
     1
 62
     7
176
     1
 40
1.0
176
     1
 90
        1
176
     1
 90
        6
176
     1
 90
        2
176
     1
 62
     7
176
     1
 90
        3
176
     1
 90
        0
176
     1
 90
        0
176
     1
290
     0
176
     1
 90
        1
176
     1
 40
0.0
176
     1
 90
        0
176
     1
290
     0
176
     1
290
     1
176
     1
290
     1
176
     1
290
     0
176
     1
290
     0
176
     1
290
     0
176
     1
290
     0
176
     1
290
     0
176
     1
290
     0
176
     1
 90
       50
176
     1
 40
0.0
176
     1
 40
1.0
176
     1
 90
        0
176
     1
 62
    18
420
        0
176
     1
 90
       50
176
     1
 90
        3
176
     1
 62
     5
420
      255
176
     1
290
     0
176
     1
 90
       50
176
     1
 90
       50
176
     1
 90
       50
176
     1
290
     0
176
     1
 90
       50
176
     1
 62
   256
176
     0
 40
1.0
176
     0
 90
        2
176
     1
  1
strokes_ogs.tif
176
     1
290
     0
176
     1
 40
1.0
176
     1
 40
1.0
176
     1
  0
VISUALSTYLE
  5
17199
102
{ACAD_REACTORS
330
17187
102
}
330
17187
100
AcDbVisualStyle
  2
Sketchy
 70
    24
177
     3
291
     0
 70
    58
 90
        1
176
     1
 90
        2
176
     1
 90
        2
176
     1
 90
        0
176
     1
 40
0.6
176
     1
 40
30.0
176
     1
 62
     7
420
 16777215
176
     1
 90
        2
176
     1
 90
        2
176
     1
 62
     7
176
     1
 62
     7
176
     1
 90
        1
176
     1
 90
        1
176
     1
 40
40.0
176
     1
 90
       11
176
     1
 62
     7
176
     1
 40
1.0
176
     1
 90
        1
176
     1
 90
        6
176
     1
 90
        2
176
     1
 62
     7
176
     1
 90
        6
176
     1
 90
        0
176
     1
 90
        0
176
     1
290
     0
176
     1
 90
        1
176
     1
 40
0.0
176
     1
 90
        0
176
     1
290
     0
176
     1
290
     1
176
     1
290
     1
176
     1
290
     0
176
     1
290
     0
176
     1
290
     0
176
     1
290
     0
176
     1
290
     0
176
     1
290
     0
176
     1
 90
       50
176
     1
 40
0.0
176
     1
 40
1.0
176
     1
 90
        0
176
     1
 62
    18
420
        0
176
     1
 90
       50
176
     1
 90
        3
176
     1
 62
     5
420
      255
176
     1
290
     0
176
     1
 90
       50
176
     1
 90
       50
176
     1
 90
       50
176
     1
290
     0
176
     1
 90
       50
176
     1
 62
   256
176
     0
 40
1.0
176
     0
 90
        2
176
     1
  1
strokes_ogs.tif
176
     1
290
     0
176
     1
 40
1.0
176
     1
 40
1.0
176
     1
  0
VISUALSTYLE
  5
17194
102
{ACAD_REACTORS
330
17187
102
}
330
17187
100
AcDbVisualStyle
  2
Thicken
 70
    13
177
     3
291
     1
 70
    58
 90
        2
176
     1
 90
        2
176
     1
 90
        0
176
     1
 90
        0
176
     1
 40
0.6
176
     1
 40
30.0
176
     1
 62
     7
420
 16777215
176
     1
 90
        1
176
     1
 90
        4
176
     1
 62
     7
176
     1
 62
   257
176
     1
 90
        1
176
     1
 90
        1
176
     1
 40
1.0
176
     1
 90
       12
176
     1
 62
     7
176
     1
 40
1.0
176
     1
 90
        1
176
     1
 90
        6
176
     1
 90
        2
176
     1
 62
     7
176
     1
 90
        5
176
     1
 90
        0
176
     1
 90
        0
176
     1
290
     0
176
     1
 90
        1
176
     1
 40
0.0
176
     1
 90
        0
176
     1
290
     0
176
     1
290
     1
176
     1
290
     1
176
     1
290
     0
176
     1
290
     0
176
     1
290
     0
176
     1
290
     0
176
     1
290
     0
176
     1
290
     0
176
     1
 90
       50
176
     1
 40
0.0
176
     1
 40
1.0
176
     1
 90
        0
176
     1
 62
    18
420
        0
176
     1
 90
       50
176
     1
 90
        3
176
     1
 62
     5
420
      255
176
     1
290
     0
176
     1
 90
       50
176
     1
 90
       50
176
     1
 90
       50
176
     1
290
     0
176
     1
 90
       50
176
     1
 62
   256
176
     0
 40
1.0
176
     0
 90
        2
176
     1
  1
strokes_ogs.tif
176
     1
290
     0
176
     1
 40
1.0
176
     1
 40
1.0
176
     1
  0
VISUALSTYLE
  5
1718E
102
{ACAD_REACTORS
330
17187
102
}
330
17187
100
AcDbVisualStyle
  2
Wireframe
 70
     5
177
     3
291
     0
 70
    58
 90
        0
176
     1
 90
        2
176
     1
 90
        0
176
     1
 90
        0
176
     1
 40
0.6
176
     1
 40
30.0
176
     1
 62
     7
420
 16777215
176
     1
 90
        1
176
     1
 90
        4
176
     1
 62
     7
176
     1
 62
   257
176
     1
 90
        1
176
     1
 90
        1
176
     1
 40
1.0
176
     1
 90
        0
176
     1
 62
   257
176
     1
 40
1.0
176
     1
 90
        1
176
     1
 90
        6
176
     1
 90
        2
176
     1
 62
     7
176
     1
 90
        3
176
     1
 90
        0
176
     1
 90
        0
176
     1
290
     0
176
     1
 90
        1
176
     1
 40
0.0
176
     1
 90
        0
176
     1
290
     0
176
     1
290
     1
176
     1
290
     1
176
     1
290
     0
176
     1
290
     0
176
     1
290
     0
176
     1
290
     0
176
     1
290
     0
176
     1
290
     0
176
     1
 90
       50
176
     1
 40
0.0
176
     1
 40
1.0
176
     1
 90
        0
176
     1
 62
    18
420
        0
176
     1
 90
       50
176
     1
 90
        3
176
     1
 62
     5
420
      255
176
     1
290
     0
176
     1
 90
       50
176
     1
 90
       50
176
     1
 90
       50
176
     1
290
     0
176
     1
 90
       50
176
     1
 62
   256
176
     0
 40
1.0
176
     0
 90
        2
176
     1
  1
strokes_ogs.tif
176
     1
290
     0
176
     1
 40
1.0
176
     1
 40
1.0
176
     1
  0
VISUALSTYLE
  5
1719A
102
{ACAD_REACTORS
330
17187
102
}
330
17187
100
AcDbVisualStyle
  2
X-Ray
 70
    25
177
     3
291
     0
 70
    58
 90
        2
176
     1
 90
        2
176
     1
 90
        1
176
     1
 90
        1
176
     1
 40
0.5
176
     1
 40
30.0
176
     1
 62
     7
420
 16777215
176
     1
 90
        1
176
     1
 90
        0
176
     1
 62
     7
176
     1
 62
   257
176
     1
 90
        1
176
     1
 90
        1
176
     1
 40
1.0
176
     1
 90
        8
176
     1
 62
     7
176
     1
 40
1.0
176
     1
 90
        1
176
     1
 90
        6
176
     1
 90
        2
176
     1
 62
     7
176
     1
 90
        3
176
     1
 90
        0
176
     1
 90
        0
176
     1
290
     0
176
     1
 90
       13
176
     1
 40
0.0
176
     1
 90
        0
176
     1
290
     0
176
     1
290
     1
176
     1
290
     1
176
     1
290
     0
176
     1
290
     0
176
     1
290
     0
176
     1
290
     0
176
     1
290
     0
176
     1
290
     0
176
     1
 90
       50
176
     1
 40
0.0
176
     1
 40
1.0
176
     1
 90
        0
176
     1
 62
    18
420
        0
176
     1
 90
       50
176
     1
 90
        3
176
     1
 62
     5
420
      255
176
     1
290
     0
176
     1
 90
       50
176
     1
 90
       50
176
     1
 90
       50
176
     1
290
     0
176
     1
 90
       50
176
     1
 62
   256
176
     0
 40
1.0
176
     0
 90
        2
176
     1
  1
strokes_ogs.tif
176
     1
290
     0
176
     1
 40
1.0
176
     1
 40
1.0
176
     1
  0
DICTIONARYVAR
  5
17217
102
{ACAD_REACTORS
330
73
102
}
330
73
100
DictionaryVariables
280
     0
  1
1:1
  0
DICTIONARYVAR
  5
17213
102
{ACAD_REACTORS
330
73
102
}
330
73
100
DictionaryVariables
280
     0
  1
STANDARD
  0
DICTIONARYVAR
  5
4CE6
102
{ACAD_REACTORS
330
73
102
}
330
73
100
DictionaryVariables
280
     0
  1
STANDARD
  0
DICTIONARYVAR
  5
17214
102
{ACAD_REACTORS
330
73
102
}
330
73
100
DictionaryVariables
280
     0
  1
Imperial24
  0
DICTIONARYVAR
  5
17215
102
{ACAD_REACTORS
330
73
102
}
330
73
100
DictionaryVariables
280
     0
  1
Imperial24
  0
DICTIONARYVAR
  5
BBB0
102
{ACAD_REACTORS
330
73
102
}
330
73
100
DictionaryVariables
280
     0
  1
1
  0
DICTIONARYVAR
  5
17219
102
{ACAD_REACTORS
330
73
102
}
330
73
100
DictionaryVariables
280
     0
  1
1
  0
DICTIONARYVAR
  5
1721A
102
{ACAD_REACTORS
330
73
102
}
330
73
100
DictionaryVariables
280
     0
  1
15
  0
DICTIONARYVAR
  5
17218
102
{ACAD_REACTORS
330
73
102
}
330
73
100
DictionaryVariables
280
     0
  1
0
  0
DICTIONARYVAR
  5
17216
102
{ACAD_REACTORS
330
73
102
}
330
73
100
DictionaryVariables
280
     0
  1
0
  0
DICTIONARYVAR
  5
BBB1
102
{ACAD_REACTORS
330
73
102
}
330
73
100
DictionaryVariables
280
     0
  1

  0
DICTIONARYVAR
  5
74
102
{ACAD_REACTORS
330
73
102
}
330
73
100
DictionaryVariables
280
     0
  1
96
  0
XRECORD
  5
DE9
102
{ACAD_REACTORS
330
DE7
102
}
330
DE7
100
AcDbXrecord
280
     1
  0
DICTIONARY
  5
BAE2
330
BAD3
100
AcDbDictionary
280
     1
281
     1
  0
DICTIONARY
  5
17178
330
17177
100
AcDbDictionary
280
     1
281
     1
  3
BUMPTILE
360
1717A
  3
DIFFUSETILE
360
17179
  3
OPACITYTILE
360
1717D
  3
REFLECTIONTILE
360
1717C
  3
REFRACTIONTILE
360
1717E
  3
SPECULARTILE
360
1717B
  0
DICTIONARY
  5
17170
330
1716F
100
AcDbDictionary
280
     1
281
     1
  3
BUMPTILE
360
17172
  3
DIFFUSETILE
360
17171
  3
OPACITYTILE
360
17175
  3
REFLECTIONTILE
360
17174
  3
REFRACTIONTILE
360
17176
  3
SPECULARTILE
360
17173
  0
DICTIONARY
  5
17180
330
1717F
100
AcDbDictionary
280
     1
281
     1
  3
BUMPTILE
360
17182
  3
DIFFUSETILE
360
17181
  3
OPACITYTILE
360
17185
  3
REFLECTIONTILE
360
17184
  3
REFRACTIONTILE
360
17186
  3
SPECULARTILE
360
17183
  0
DICTIONARY
  5
1894F
330
4CE1
100
AcDbDictionary
280
     1
281
     1
  3
ACAD_ROUNDTRIP_2008_TABLESTYLE_CELLSTYLEMAP
360
18950
  0
XRECORD
  5
1717A
102
{ACAD_REACTORS
330
17178
102
}
330
17178
100
AcDbXrecord
280
     1
270
     1
271
     1
  0
XRECORD
  5
17179
102
{ACAD_REACTORS
330
17178
102
}
330
17178
100
AcDbXrecord
280
     1
270
     1
271
     1
  0
XRECORD
  5
1717D
102
{ACAD_REACTORS
330
17178
102
}
330
17178
100
AcDbXrecord
280
     1
270
     1
271
     1
  0
XRECORD
  5
1717C
102
{ACAD_REACTORS
330
17178
102
}
330
17178
100
AcDbXrecord
280
     1
270
     1
271
     1
  0
XRECORD
  5
1717E
102
{ACAD_REACTORS
330
17178
102
}
330
17178
100
AcDbXrecord
280
     1
270
     1
271
     1
  0
XRECORD
  5
1717B
102
{ACAD_REACTORS
330
17178
102
}
330
17178
100
AcDbXrecord
280
     1
270
     1
271
     1
  0
XRECORD
  5
17172
102
{ACAD_REACTORS
330
17170
102
}
330
17170
100
AcDbXrecord
280
     1
270
     1
271
     1
  0
XRECORD
  5
17171
102
{ACAD_REACTORS
330
17170
102
}
330
17170
100
AcDbXrecord
280
     1
270
     1
271
     1
  0
XRECORD
  5
17175
102
{ACAD_REACTORS
330
17170
102
}
330
17170
100
AcDbXrecord
280
     1
270
     1
271
     1
  0
XRECORD
  5
17174
102
{ACAD_REACTORS
330
17170
102
}
330
17170
100
AcDbXrecord
280
     1
270
     1
271
     1
  0
XRECORD
  5
17176
102
{ACAD_REACTORS
330
17170
102
}
330
17170
100
AcDbXrecord
280
     1
270
     1
271
     1
  0
XRECORD
  5
17173
102
{ACAD_REACTORS
330
17170
102
}
330
17170
100
AcDbXrecord
280
     1
270
     1
271
     1
  0
XRECORD
  5
17182
102
{ACAD_REACTORS
330
17180
102
}
330
17180
100
AcDbXrecord
280
     1
270
     1
271
     1
  0
XRECORD
  5
17181
102
{ACAD_REACTORS
330
17180
102
}
330
17180
100
AcDbXrecord
280
     1
270
     1
271
     1
  0
XRECORD
  5
17185
102
{ACAD_REACTORS
330
17180
102
}
330
17180
100
AcDbXrecord
280
     1
270
     1
271
     1
  0
XRECORD
  5
17184
102
{ACAD_REACTORS
330
17180
102
}
330
17180
100
AcDbXrecord
280
     1
270
     1
271
     1
  0
XRECORD
  5
17186
102
{ACAD_REACTORS
330
17180
102
}
330
17180
100
AcDbXrecord
280
     1
270
     1
271
     1
  0
XRECORD
  5
17183
102
{ACAD_REACTORS
330
17180
102
}
330
17180
100
AcDbXrecord
280
     1
270
     1
271
     1
  0
CELLSTYLEMAP
  5
18950
102
{ACAD_REACTORS
330
1894F
102
}
330
1894F
100
AcDbCellStyleMap
 90
        3
300
CELLSTYLE
  1
TABLEFORMAT_BEGIN
 90
        5
170
     1
 91
        0
 92
    32768
 62
   257
 93
        1
300
CONTENTFORMAT
  1
CONTENTFORMAT_BEGIN
 90
        0
 91
        0
 92
        4
 93
        0
300

 40
0.0
140
1.0
 94
        5
 62
     0
340
11
144
0.25
309
CONTENTFORMAT_END
171
     0
 94
        6
 95
        1
302
GRIDFORMAT
  1
GRIDFORMAT_BEGIN
 90
        0
 91
        1
 62
     0
 92
       -2
340
0
 93
        0
 40
0.045
309
GRIDFORMAT_END
 95
        2
302
GRIDFORMAT
  1
GRIDFORMAT_BEGIN
 90
        0
 91
        1
 62
     0
 92
       -2
340
0
 93
        0
 40
0.045
309
GRIDFORMAT_END
 95
        4
302
GRIDFORMAT
  1
GRIDFORMAT_BEGIN
 90
        0
 91
        1
 62
     0
 92
       -2
340
0
 93
        0
 40
0.045
309
GRIDFORMAT_END
 95
        8
302
GRIDFORMAT
  1
GRIDFORMAT_BEGIN
 90
        0
 91
        1
 62
     0
 92
       -2
340
0
 93
        0
 40
0.045
309
GRIDFORMAT_END
 95
       16
302
GRIDFORMAT
  1
GRIDFORMAT_BEGIN
 90
        0
 91
        1
 62
     0
 92
       -2
340
0
 93
        0
 40
0.045
309
GRIDFORMAT_END
 95
       32
302
GRIDFORMAT
  1
GRIDFORMAT_BEGIN
 90
        0
 91
        1
 62
     0
 92
       -2
340
0
 93
        0
 40
0.045
309
GRIDFORMAT_END
309
TABLEFORMAT_END
  1
CELLSTYLE_BEGIN
 90
        1
 91
        1
300
_TITLE
309
CELLSTYLE_END
300
CELLSTYLE
  1
TABLEFORMAT_BEGIN
 90
        5
170
     1
 91
        0
 92
        0
 62
   257
 93
        1
300
CONTENTFORMAT
  1
CONTENTFORMAT_BEGIN
 90
        0
 91
        0
 92
        4
 93
        0
300

 40
0.0
140
1.0
 94
        5
 62
     0
340
11
144
0.18
309
CONTENTFORMAT_END
171
     0
 94
        6
 95
        1
302
GRIDFORMAT
  1
GRIDFORMAT_BEGIN
 90
        0
 91
        1
 62
     0
 92
       -2
340
0
 93
        0
 40
0.045
309
GRIDFORMAT_END
 95
        2
302
GRIDFORMAT
  1
GRIDFORMAT_BEGIN
 90
        0
 91
        1
 62
     0
 92
       -2
340
0
 93
        0
 40
0.045
309
GRIDFORMAT_END
 95
        4
302
GRIDFORMAT
  1
GRIDFORMAT_BEGIN
 90
        0
 91
        1
 62
     0
 92
       -2
340
0
 93
        0
 40
0.045
309
GRIDFORMAT_END
 95
        8
302
GRIDFORMAT
  1
GRIDFORMAT_BEGIN
 90
        0
 91
        1
 62
     0
 92
       -2
340
0
 93
        0
 40
0.045
309
GRIDFORMAT_END
 95
       16
302
GRIDFORMAT
  1
GRIDFORMAT_BEGIN
 90
        0
 91
        1
 62
     0
 92
       -2
340
0
 93
        0
 40
0.045
309
GRIDFORMAT_END
 95
       32
302
GRIDFORMAT
  1
GRIDFORMAT_BEGIN
 90
        0
 91
        1
 62
     0
 92
       -2
340
0
 93
        0
 40
0.045
309
GRIDFORMAT_END
309
TABLEFORMAT_END
  1
CELLSTYLE_BEGIN
 90
        2
 91
        1
300
_HEADER
309
CELLSTYLE_END
300
CELLSTYLE
  1
TABLEFORMAT_BEGIN
 90
        5
170
     1
 91
        0
 92
        0
 62
   257
 93
        1
300
CONTENTFORMAT
  1
CONTENTFORMAT_BEGIN
 90
        0
 91
        0
 92
        4
 93
        0
300

 40
0.0
140
1.0
 94
        2
 62
     0
340
11
144
0.18
309
CONTENTFORMAT_END
171
     0
 94
        6
 95
        1
302
GRIDFORMAT
  1
GRIDFORMAT_BEGIN
 90
        0
 91
        1
 62
     0
 92
       -2
340
0
 93
        0
 40
0.045
309
GRIDFORMAT_END
 95
        2
302
GRIDFORMAT
  1
GRIDFORMAT_BEGIN
 90
        0
 91
        1
 62
     0
 92
       -2
340
0
 93
        0
 40
0.045
309
GRIDFORMAT_END
 95
        4
302
GRIDFORMAT
  1
GRIDFORMAT_BEGIN
 90
        0
 91
        1
 62
     0
 92
       -2
340
0
 93
        0
 40
0.045
309
GRIDFORMAT_END
 95
        8
302
GRIDFORMAT
  1
GRIDFORMAT_BEGIN
 90
        0
 91
        1
 62
     0
 92
       -2
340
0
 93
        0
 40
0.045
309
GRIDFORMAT_END
 95
       16
302
GRIDFORMAT
  1
GRIDFORMAT_BEGIN
 90
        0
 91
        1
 62
     0
 92
       -2
340
0
 93
        0
 40
0.045
309
GRIDFORMAT_END
 95
       32
302
GRIDFORMAT
  1
GRIDFORMAT_BEGIN
 90
        0
 91
        1
 62
     0
 92
       -2
340
0
 93
        0
 40
0.045
309
GRIDFORMAT_END
309
TABLEFORMAT_END
  1
CELLSTYLE_BEGIN
 90
        3
 91
        2
300
_DATA
309
CELLSTYLE_END
  0
ENDSEC
  0
SECTION
  2
ACDSDATA
 70
     2
 71
     8
  0
ACDSSCHEMA
 90
        0
  1
AcDb_Thumbnail_Schema
  2
AcDbDs::ID
280
    10
 91
        8
  2
Thumbnail_Data
280
    15
 91
        0
101
ACDSRECORD
 95
        0
 90
        1
  2
AcDbDs::TreatedAsObjectData
280
     1
291
     1
101
ACDSRECORD
 95
        0
 90
        2
  2
AcDbDs::Legacy
280
     1
291
     1
101
ACDSRECORD
  1
AcDbDs::ID
 90
        3
  2
AcDs:Indexable
280
     1
291
     1
101
ACDSRECORD
  1
AcDbDs::ID
 90
        4
  2
AcDbDs::HandleAttribute
280
     7
282
     1
  0
ACDSSCHEMA
 90
        1
  1
AcDbDs::TreatedAsObjectDataSchema
  2
AcDbDs::TreatedAsObjectData
280
     1
 91
        0
  0
ACDSSCHEMA
 90
        2
  1
AcDbDs::LegacySchema
  2
AcDbDs::Legacy
280
     1
 91
        0
  0
ACDSSCHEMA
 90
        3
  1
AcDbDs::IndexedPropertySchema
  2
AcDs:Indexable
280
     1
 91
        0
  0
ACDSSCHEMA
 90
        4
  1
AcDbDs::HandleAttributeSchema
  2
AcDbDs::HandleAttribute
280
     7
 91
        1
284
     1
  0
ACDSRECORD
 90
        0
  2
AcDbDs::ID
280
    10
320
BAD3
  2
Thumbnail_Data
280
    15
 94
     1253
310
89504E470D0A1A0A0000000D4948445200000100000000C508030000008CFEDCE700000300504C5445FFFFFFFFFFFFFFFFFF0000000000000000000000000000000000000000000000000000330000660000990000CC0000FF0033000033330033660033990033CC0033FF0066000066330066660066990066CC0066FF0099
310
000099330099660099990099CC0099FF00CC0000CC3300CC6600CC9900CCCC00CCFF00FF0000FF3300FF6600FF9900FFCC00FFFF3300003300333300663300993300CC3300FF3333003333333333663333993333CC3333FF3366003366333366663366993366CC3366FF3399003399333399663399993399CC3399FF33CC00
310
33CC3333CC6633CC9933CCCC33CCFF33FF0033FF3333FF6633FF9933FFCC33FFFF6600006600336600666600996600CC6600FF6633006633336633666633996633CC6633FF6666006666336666666666996666CC6666FF6699006699336699666699996699CC6699FF66CC0066CC3366CC6666CC9966CCCC66CCFF66FF0066
310
FF3366FF6666FF9966FFCC66FFFF9900009900339900669900999900CC9900FF9933009933339933669933999933CC9933FF9966009966339966669966999966CC9966FF9999009999339999669999999999CC9999FF99CC0099CC3399CC6699CC9999CCCC99CCFF99FF0099FF3399FF6699FF9999FFCC99FFFFCC0000CC00
310
33CC0066CC0099CC00CCCC00FFCC3300CC3333CC3366CC3399CC33CCCC33FFCC6600CC6633CC6666CC6699CC66CCCC66FFCC9900CC9933CC9966CC9999CC99CCCC99FFCCCC00CCCC33CCCC66CCCC99CCCCCCCCCCFFCCFF00CCFF33CCFF66CCFF99CCFFCCCCFFFFFF0000FF0033FF0066FF0099FF00CCFF00FFFF3300FF3333
310
FF3366FF3399FF33CCFF33FFFF6600FF6633FF6666FF6699FF66CCFF66FFFF9900FF9933FF9966FF9999FF99CCFF99FFFFCC00FFCC33FFCC66FFCC99FFCCCCFFCCFFFFFF00FFFF33FFFF66FFFF99FFFFCCFFFFFF0000000D0D0D1A1A1A2828283535354343435050505D5D5D6B6B6B787878868686939393A1A1A1AEAEAEBB
310
BBBBC9C9C9D6D6D6E4E4E4F1F1F1FFFFFF000000000000000000000000000000000000000000000000000000000000AD4AB4E4000001A04944415478DAEDDC498E83400C0550DFFF98B5CE2122751689E8EE4C52B0C37F5EB0A2047A58D480A93A85479D2A3700000000E002B07EC51FA7AFFBF1652D1E011C3EB60061C90F
310
000000000000000000000080CB74180000000000000000000000000022000A000000000000C85D130400000000000000000000004026C0EE0512F70BB81300B6170F0698B0FAD00CD02F000000000000007401ACF071C084B1702740FC5C60C47CC85C00000000FBD60700000000000000000000000000C0048002006024C0
310
DAA9900200000035724D10000000000004033CB73332000000BE1DA0BF4AAC17E0FF1C786D9F7800EFDFCE0200A015A07B597000C00A0768CE810900AD493002A033098600F4094C0168130000000000BD0080FE8150DBEF4363DE010560064001000000000000000000000000C087AEB8C737CF179F87EDF50100000000C0
310
B55B0400000000000000000000000080A3032C00000000000000000000000000000000000000D900050000000000000000000000000011000500000000006E00D26203F0CCD9DB8EF4002D6E32203300000000E0E7901CF10067D741BCD95D2FB4660000000049454E44AE426082
  0
ACDSRECORD
 90
        0
  2
AcDbDs::ID
280
    10
320
22
  2
Thumbnail_Data
280
    15
 94
     1584
310
89504E470D0A1A0A0000000D49484452000001000000008108030000001837949D00000300504C5445000000FFFFFF0000000000000000000000000000000000000000000000000000000000330000660000990000CC0000FF0033000033330033660033990033CC0033FF0066000066330066660066990066CC0066FF0099
310
000099330099660099990099CC0099FF00CC0000CC3300CC6600CC9900CCCC00CCFF00FF0000FF3300FF6600FF9900FFCC00FFFF3300003300333300663300993300CC3300FF3333003333333333663333993333CC3333FF3366003366333366663366993366CC3366FF3399003399333399663399993399CC3399FF33CC00
310
33CC3333CC6633CC9933CCCC33CCFF33FF0033FF3333FF6633FF9933FFCC33FFFF6600006600336600666600996600CC6600FF6633006633336633666633996633CC6633FF6666006666336666666666996666CC6666FF6699006699336699666699996699CC6699FF66CC0066CC3366CC6666CC9966CCCC66CCFF66FF0066
310
FF3366FF6666FF9966FFCC66FFFF9900009900339900669900999900CC9900FF9933009933339933669933999933CC9933FF9966009966339966669966999966CC9966FF9999009999339999669999999999CC9999FF99CC0099CC3399CC6699CC9999CCCC99CCFF99FF0099FF3399FF6699FF9999FFCC99FFFFCC0000CC00
310
33CC0066CC0099CC00CCCC00FFCC3300CC3333CC3366CC3399CC33CCCC33FFCC6600CC6633CC6666CC6699CC66CCCC66FFCC9900CC9933CC9966CC9999CC99CCCC99FFCCCC00CCCC33CCCC66CCCC99CCCCCCCCCCFFCCFF00CCFF33CCFF66CCFF99CCFFCCCCFFFFFF0000FF0033FF0066FF0099FF00CCFF00FFFF3300FF3333
310
FF3366FF3399FF33CCFF33FFFF6600FF6633FF6666FF6699FF66CCFF66FFFF9900FF9933FF9966FF9999FF99CCFF99FFFFCC00FFCC33FFCC66FFCC99FFCCCCFFCCFFFFFF00FFFF33FFFF66FFFF99FFFFCCFFFFFF0000000D0D0D1A1A1A2828283535354343435050505D5D5D6B6B6B787878868686939393A1A1A1AEAEAEBB
310
BBBBC9C9C9D6D6D6E4E4E4F1F1F1FFFFFF0000000000000000000000000000000000000000000000000000000000003AE5ACE9000002534944415478DAED9DD19283300845F3FFFF7BDF7766554CD46EED26B1C0BDBCD54C154E482060A7A50C162C5208A5B19C0BC34B6B1928BC37313184FBA66584F0B149A918FCD3982C
310
0C7ACC888FA07B1603BBC1B0A8162F3CCEC86B82E44AB3D5748DE139D59C4240DA870980C390ED6E0D3CAF902F04A079A82B552000DCF6FB21C00E00948F1600011000011000854101502A2C003A0E7F49196F35A1A7F5F1581424B75F0004C024F6335CCF4E8C26F1BCE909D3259FA368A89704C62B1BEE4D1130AEFE892A
310
B30340F7D771BA9D45534CC20B3FB782BD6A85626F9ED94506008BCDBF269B3BD845120F5826BE06B0FAC03400E36E8B3262099C3C60BBC80260F380C7F6004700A2074201100001E84E036CA7435555995C5A71E401B0BB60FF80538ACC00A04A000801D87180D903D0E480540080ED0854E58424009407080037806AF96F
310
6580D783403A00A842C01E04D663F0693021803D0D6C67187F0D660B835501F008E07A30D71ED0A6C0385EBE1ACC761A3427AF3D1FAF07150605400072ED01750508B6DD9D1A665B0B05B900B4C75F1C73003439D1B83681A754B8D400EA7877680FB27840D3205B1B84D63DCBE7016F002C0CD22F01DB04D77C17158D3D1D
310
1E5A28521814000110000110000110000110004E0228022000D404C80180FC1723EC3F9A42907B0A8000088000F80F81D102C1443DC1EAFDA108A070134011006A022802C04D400004407B800008C0F509E143899A098D521C610F03980920F071700880C8058101000255C62F54ED0610EE1FE7C60240F8D6502F802200D1
310
00DC4C6CEE7EBF48241289E4CBF203743E42B64F7D48370000000049454E44AE4260823D0000000049454E44AE42608200088000F202985AE690BFB4901EC0BCF035EE4F6D608E84A2288AA2288AA2288AA21CEA07CDEE63408D7D4D280000000049454E44AE4260820049454E44AE4260829F55053CAF1BDC39100A6F247C
310
A6E6E7983F5F597CDB5018C3F4E4A122EC80391A3A1342082184104208218410420821841052832F0774F797F08111A50000000049454E44AE426082
  0
ENDSEC
  0
EOF
