  0
SECTION
  2
HEADER
  9
$ACADVER
  1
AC1009
  9
$INSBASE
 10
0.0
 20
0.0
 30
0.0
  9
$EXTMIN
 10
-388.7796370829787
 20
836.95067923417014
 30
0.0
  9
$EXTMAX
 10
-384.014298745546
 20
839.57567923417025
 30
0.0
  9
$LIMMIN
 10
0.0
 20
0.0
  9
$LIMMAX
 10
1500.0
 20
1500.0
  9
$ORTHOMODE
 70
     0
  9
$REGENMODE
 70
     1
  9
$FILLMODE
 70
     1
  9
$QTEXTMODE
 70
     0
  9
$MIRRTEXT
 70
     1
  9
$DRAGMODE
 70
     2
  9
$LTSCALE
 40
1.0
  9
$OSMODE
 70
    37
  9
$ATTMODE
 70
     1
  9
$TEXTSIZE
 40
1.5
  9
$TRACEWID
 40
0.05
  9
$TEXTSTYLE
  7
STANDARD
  9
$CLAYER
  8
0
  9
$CELTYPE
  6
BYLAYER
  9
$CECOLOR
 62
   256
  9
$DIMSCALE
 40
1.0
  9
$DIMASZ
 40
0.75
  9
$DIMEXO
 40
1.5
  9
$DIMDLI
 40
2.0
  9
$DIMRND
 40
0.0
  9
$DIMDLE
 40
0.0
  9
$DIMEXE
 40
1.0
  9
$DIMTP
 40
0.0
  9
$DIMTM
 40
0.0
  9
$DIMTXT
 40
1.5
  9
$DIMCEN
 40
2.0
  9
$DIMTSZ
 40
0.0
  9
$DIMTOL
 70
     0
  9
$DIMLIM
 70
     0
  9
$DIMTIH
 70
     0
  9
$DIMTOH
 70
     0
  9
$DIMSE1
 70
     0
  9
$DIMSE2
 70
     0
  9
$DIMTAD
 70
     1
  9
$DIMZIN
 70
     0
  9
$DIMBLK
  1
ARCHTICK
  9
$DIMASO
 70
     1
  9
$DIMSHO
 70
     1
  9
$DIMPOST
  1
"
  9
$DIMAPOST
  1

  9
$DIMALT
 70
     0
  9
$DIMALTD
 70
     2
  9
$DIMALTF
 40
25.399999999999999
  9
$DIMLFAC
 40
1.0
  9
$DIMTOFL
 70
     0
  9
$DIMTVP
 40
0.0
  9
$DIMTIX
 70
     1
  9
$DIMSOXD
 70
     0
  9
$DIMSAH
 70
     0
  9
$DIMBLK1
  1

  9
$DIMBLK2
  1

  9
$DIMSTYLE
  2
THREE_QUARTER_INCH_SCALE
  9
$DIMCLRD
 70
     0
  9
$DIMCLRE
 70
     0
  9
$DIMCLRT
 70
     0
  9
$DIMTFAC
 40
1.0
  9
$DIMGAP
 40
1.0
  9
$LUNITS
 70
     2
  9
$LUPREC
 70
     4
  9
$SKETCHINC
 40
0.1
  9
$FILLETRAD
 40
0.0
  9
$AUNITS
 70
     0
  9
$AUPREC
 70
     0
  9
$MENU
  1
.
  9
$ELEVATION
 40
0.0
  9
$PELEVATION
 40
0.0
  9
$THICKNESS
 40
0.0
  9
$LIMCHECK
 70
     0
  9
$BLIPMODE
 70
     0
  9
$CHAMFERA
 40
0.5
  9
$CHAMFERB
 40
0.5
  9
$SKPOLY
 70
     0
  9
$TDCREATE
 40
2452089.395738773
  9
$TDUPDATE
 40
2453613.3148629172
  9
$TDINDWG
 40
0.9887471759000001
  9
$TDUSRTIMER
 40
0.9887470023
  9
$USRTIMER
 70
     1
  9
$ANGBASE
 50
0.0
  9
$ANGDIR
 70
     0
  9
$PDMODE
 70
     0
  9
$PDSIZE
 40
10.0
  9
$PLINEWID
 40
0.0
  9
$COORDS
 70
     1
  9
$SPLFRAME
 70
     0
  9
$SPLINETYPE
 70
     6
  9
$SPLINESEGS
 70
     8
  9
$ATTDIA
 70
     0
  9
$ATTREQ
 70
     1
  9
$HANDLING
 70
     1
  9
$HANDSEED
  5
CFFD
  9
$SURFTAB1
 70
     6
  9
$SURFTAB2
 70
     6
  9
$SURFTYPE
 70
     6
  9
$SURFU
 70
     6
  9
$SURFV
 70
     6
  9
$UCSNAME
  2

  9
$UCSORG
 10
0.0
 20
0.0
 30
0.0
  9
$UCSXDIR
 10
1.0
 20
0.0
 30
0.0
  9
$UCSYDIR
 10
0.0
 20
1.0
 30
0.0
  9
$PUCSNAME
  2

  9
$PUCSORG
 10
0.0
 20
0.0
 30
0.0
  9
$PUCSXDIR
 10
1.0
 20
0.0
 30
0.0
  9
$PUCSYDIR
 10
0.0
 20
1.0
 30
0.0
  9
$USERI1
 70
     0
  9
$USERI2
 70
     0
  9
$USERI3
 70
     0
  9
$USERI4
 70
     0
  9
$USERI5
 70
     0
  9
$USERR1
 40
0.0
  9
$USERR2
 40
0.0
  9
$USERR3
 40
0.0
  9
$USERR4
 40
0.0
  9
$USERR5
 40
0.0
  9
$WORLDVIEW
 70
     1
  9
$SHADEDGE
 70
     3
  9
$SHADEDIF
 70
    70
  9
$TILEMODE
 70
     0
  9
$MAXACTVP
 70
    64
  9
$PLIMCHECK
 70
     0
  9
$PEXTMIN
 10
0.0282895744820628
 20
0.0759353784799721
 30
-0.0015258207003583
  9
$PEXTMAX
 10
10.47170975585299
 20
7.9577863512286546
 30
0.0000000349246037
  9
$PLIMMIN
 10
-0.1682389550263349
 20
-0.2033427855578579
  9
$PLIMMAX
 10
10.754640548407011
 20
8.2370640492290015
  9
$UNITMODE
 70
     0
  9
$VISRETAIN
 70
     1
  9
$PLINEGEN
 70
     0
  9
$PSLTSCALE
 70
     1
  0
ENDSEC
  0
SECTION
  2
TABLES
  0
TABLE
  2
VPORT
 70
     1
  0
VPORT
  2
*ACTIVE
 70
     0
 10
0.0
 20
0.0
 11
1.0
 21
1.0
 12
-386.52380251144001
 22
838.09204166179234
 13
0.0
 23
0.0
 14
0.5
 24
0.5
 15
0.5
 25
0.5
 16
0.0
 26
0.0
 36
1.0
 17
0.0
 27
0.0
 37
0.0
 40
3.930952126162941
 41
2.0226628895184122
 42
50.0
 43
0.0
 44
0.0
 50
0.0
 51
0.0
 71
     0
 72
   100
 73
     1
 74
     2
 75
     0
 76
     0
 77
     0
 78
     0
  0
ENDTAB
  0
TABLE
  2
LTYPE
 70
     1
  0
LTYPE
  2
CONTINUOUS
 70
     0
  3
Solid line
 72
    65
 73
     0
 40
0.0
  0
ENDTAB
  0
TABLE
  2
LAYER
 70
    10
  0
LAYER
  2
0
 70
     0
 62
     7
  6
CONTINUOUS
  0
LAYER
  2
DEFPOINTS
 70
     0
 62
     7
  6
CONTINUOUS
  0
LAYER
  2
FRAME_200
 70
     0
 62
     8
  6
CONTINUOUS
  0
LAYER
  2
FRAME_070
 70
     0
 62
     5
  6
CONTINUOUS
  0
LAYER
  2
FRAME_050
 70
     0
 62
     6
  6
CONTINUOUS
  0
LAYER
  2
TITLE_BLOCK
 70
     0
 62
     7
  6
CONTINUOUS
  0
LAYER
  2
FRAME_025
 70
     0
 62
     7
  6
CONTINUOUS
  0
LAYER
  2
VIEWPORT
 70
     0
 62
     7
  6
CONTINUOUS
  0
LAYER
  2
PROF
 70
     0
 62
     7
  6
CONTINUOUS
  0
LAYER
  2
PROFILE
 70
     0
 62
     7
  6
CONTINUOUS
  0
ENDTAB
  0
TABLE
  2
STYLE
 70
     2
  0
STYLE
  2
STANDARD
 70
     0
 40
0.0
 41
1.0
 50
0.0
 71
     0
 42
1.5
  3
txt
  4

  0
STYLE
  2
ISO_PROPORTIONAL
 70
     0
 40
0.0
 41
1.0
 50
0.0
 71
     0
 42
2.5
  3
isocp.shx
  4

  0
ENDTAB
  0
TABLE
  2
VIEW
 70
     0
  0
ENDTAB
  0
TABLE
  2
UCS
 70
     0
  0
ENDTAB
  0
TABLE
  2
APPID
 70
     6
  0
APPID
  2
ACAD
 70
     0
  0
APPID
  2
DCO15
 70
     0
  0
APPID
  2
ACAD_EXEMPT_FROM_CAD_STANDARDS
 70
     0
  0
APPID
  2
ACAD_PSEXT
 70
     0
  0
APPID
  2
CONTENTBLOCKDESCRIPTION
 70
     0
  0
APPID
  2
CONTENTBLOCKICON
 70
     0
  0
ENDTAB
  0
TABLE
  2
DIMSTYLE
 70
    10
  0
DIMSTYLE
  2
FULL_SCALE
 70
     0
  3
"
  4

  5

  6

  7

 40
1.0
 41
0.046875
 42
0.09375
 43
0.125
 44
0.0625
 45
0.0
 46
0.0
 47
0.0
 48
0.0
140
0.125
141
0.125
142
0.0
143
25.399999999999999
144
1.0
145
0.0
146
1.0
147
0.0625
 71
     0
 72
     0
 73
     0
 74
     0
 75
     0
 76
     0
 77
     1
 78
     0
170
     0
171
     2
172
     0
173
     0
174
     1
175
     0
176
     0
177
     0
178
     0
  0
DIMSTYLE
  2
HALF_SCALE
 70
     0
  3
"
  4

  5

  6

  7

 40
1.0
 41
0.09375
 42
0.1875
 43
0.25
 44
0.125
 45
0.0
 46
0.0
 47
0.0
 48
0.0
140
0.25
141
0.25
142
0.0
143
25.399999999999999
144
1.0
145
0.0
146
1.0
147
0.125
 71
     0
 72
     0
 73
     0
 74
     0
 75
     0
 76
     0
 77
     1
 78
     0
170
     0
171
     2
172
     0
173
     0
174
     1
175
     0
176
     0
177
     0
178
     0
  0
DIMSTYLE
  2
INCH_SCALE
 70
     0
  3
"
  4

  5

  6

  7

 40
1.0
 41
0.5625
 42
1.125
 43
1.5
 44
0.75
 45
0.0
 46
0.0
 47
0.0
 48
0.0
140
1.125
141
1.5
142
0.0
143
25.399999999999999
144
1.0
145
0.0
146
1.0
147
0.75
 71
     0
 72
     0
 73
     0
 74
     0
 75
     0
 76
     0
 77
     1
 78
     0
170
     0
171
     2
172
     0
173
     0
174
     1
175
     0
176
     0
177
     0
178
     0
  0
DIMSTYLE
  2
THREE_QUARTER_INCH_SCALE
 70
     0
  3
"
  4

  5

  6

  7

 40
1.0
 41
0.75
 42
1.5
 43
2.0
 44
1.0
 45
0.0
 46
0.0
 47
0.0
 48
0.0
140
1.5
141
2.0
142
0.0
143
25.399999999999999
144
1.0
145
0.0
146
1.0
147
1.0
 71
     0
 72
     0
 73
     0
 74
     0
 75
     0
 76
     0
 77
     1
 78
     0
170
     0
171
     2
172
     0
173
     0
174
     1
175
     0
176
     0
177
     0
178
     0
  0
DIMSTYLE
  2
ZHALF_INCH_SCALE
 70
     0
  3
"
  4

  5

  6

  7

 40
1.0
 41
1.125
 42
2.25
 43
3.0
 44
1.5
 45
0.0
 46
0.0
 47
0.0
 48
0.0
140
2.25
141
3.0
142
0.0
143
25.399999999999999
144
1.0
145
0.0
146
1.0
147
1.5
 71
     0
 72
     0
 73
     0
 74
     0
 75
     0
 76
     0
 77
     1
 78
     0
170
     0
171
     2
172
     0
173
     0
174
     1
175
     0
176
     0
177
     0
178
     0
  0
DIMSTYLE
  2
FULL_SCALE0
 70
     0
  3
"
  4

  5
ARCHTICK
  6

  7

 40
1.0
 41
0.046875
 42
0.09375
 43
0.125
 44
0.0625
 45
0.0
 46
0.0
 47
0.0
 48
0.0
140
0.125
141
0.125
142
0.0
143
25.399999999999999
144
1.0
145
0.0
146
1.0
147
0.0625
 71
     0
 72
     0
 73
     0
 74
     0
 75
     0
 76
     0
 77
     1
 78
     0
170
     0
171
     2
172
     0
173
     0
174
     1
175
     0
176
     0
177
     0
178
     0
  0
DIMSTYLE
  2
HALF_SCALE0
 70
     0
  3
"
  4

  5
ARCHTICK
  6

  7

 40
1.0
 41
0.09375
 42
0.1875
 43
0.25
 44
0.125
 45
0.0
 46
0.0
 47
0.0
 48
0.0
140
0.25
141
0.25
142
0.0
143
25.399999999999999
144
1.0
145
0.0
146
1.0
147
0.125
 71
     0
 72
     0
 73
     0
 74
     0
 75
     0
 76
     0
 77
     1
 78
     0
170
     0
171
     2
172
     0
173
     0
174
     1
175
     0
176
     0
177
     0
178
     0
  0
DIMSTYLE
  2
INCH_SCALE0
 70
     0
  3
"
  4

  5
ARCHTICK
  6

  7

 40
1.0
 41
0.5625
 42
1.125
 43
1.5
 44
0.75
 45
0.0
 46
0.0
 47
0.0
 48
0.0
140
1.125
141
1.5
142
0.0
143
25.399999999999999
144
1.0
145
0.0
146
1.0
147
0.75
 71
     0
 72
     0
 73
     0
 74
     0
 75
     0
 76
     0
 77
     1
 78
     0
170
     0
171
     2
172
     0
173
     0
174
     1
175
     0
176
     0
177
     0
178
     0
  0
DIMSTYLE
  2
THREE_QUARTER_INCH_SCALE0
 70
     0
  3
"
  4

  5
ARCHTICK
  6

  7

 40
1.0
 41
0.75
 42
1.5
 43
2.0
 44
1.0
 45
0.0
 46
0.0
 47
0.0
 48
0.0
140
1.5
141
2.0
142
0.0
143
25.399999999999999
144
1.0
145
0.0
146
1.0
147
1.0
 71
     0
 72
     0
 73
     0
 74
     0
 75
     0
 76
     0
 77
     1
 78
     0
170
     0
171
     2
172
     0
173
     0
174
     1
175
     0
176
     0
177
     0
178
     0
  0
DIMSTYLE
  2
ZHALF_INCH_SCALE0
 70
     0
  3
"
  4

  5
ARCHTICK
  6

  7

 40
1.0
 41
1.125
 42
2.25
 43
3.0
 44
1.5
 45
0.0
 46
0.0
 47
0.0
 48
0.0
140
2.25
141
3.0
142
0.0
143
25.399999999999999
144
1.0
145
0.0
146
1.0
147
1.5
 71
     0
 72
     0
 73
     0
 74
     0
 75
     0
 76
     0
 77
     1
 78
     0
170
     0
171
     2
172
     0
173
     0
174
     1
175
     0
176
     0
177
     0
178
     0
  0
ENDTAB
  0
ENDSEC
  0
SECTION
  2
BLOCKS
  0
BLOCK
  8
0
  2
$MODEL_SPACE
 70
     0
 10
0.0
 20
0.0
 30
0.0
  3
$MODEL_SPACE
  1

  0
ENDBLK
  5
C9DC
  8
0
  0
BLOCK
 67
     1
  8
0
  2
$PAPER_SPACE
 70
     0
 10
0.0
 20
0.0
 30
0.0
  3
$PAPER_SPACE
  1

  0
ENDBLK
  5
C9D8
 67
     1
  8
0
  0
BLOCK
  8
0
  2
_ARCHTICK
 70
     0
 10
0.0
 20
0.0
 30
0.0
  3
_ARCHTICK
  1

  0
POLYLINE
  5
158
  8
0
  6
BYBLOCK
 62
     0
 66
     1
 10
0.0
 20
0.0
 30
0.0
 40
0.15
 41
0.15
  0
VERTEX
  5
CDA0
  8
0
  6
BYBLOCK
 62
     0
 10
-0.5
 20
-0.5
 30
0.0
  0
VERTEX
  5
CDA1
  8
0
  6
BYBLOCK
 62
     0
 10
0.5
 20
0.5
 30
0.0
  0
SEQEND
  5
CDA2
  8
0
  6
BYBLOCK
 62
     0
  0
ENDBLK
  5
15A
  8
0
  0
BLOCK
  8
0
  2
_OPEN30
 70
     0
 10
0.0
 20
0.0
 30
0.0
  3
_OPEN30
  1

  0
LINE
  5
15C
  8
0
  6
BYBLOCK
 62
     0
 10
-1.0
 20
0.26794919
 30
0.0
 11
0.0
 21
0.0
 31
0.0
  0
LINE
  5
15D
  8
0
  6
BYBLOCK
 62
     0
 10
0.0
 20
0.0
 30
0.0
 11
-1.0
 21
-0.26794919
 31
0.0
  0
LINE
  5
15E
  8
0
  6
BYBLOCK
 62
     0
 10
0.0
 20
0.0
 30
0.0
 11
-1.0
 21
0.0
 31
0.0
  0
ENDBLK
  5
160
  8
0
  0
BLOCK
  8
0
  2
ISO_A2_TITLE_BLOCK
 70
     2
 10
0.0
 20
0.0
 30
0.0
  3
ISO_A2_TITLE_BLOCK
  1

  0
LINE
  5
BDD
  8
FRAME_050
 10
299.5
 20
12.5
 30
0.0
 11
297.0
 21
7.5
 31
0.0
  0
LINE
  5
BDE
  8
FRAME_050
 10
294.5
 20
12.5
 30
0.0
 11
299.5
 21
12.5
 31
0.0
  0
LINE
  5
BDF
  8
FRAME_050
 10
247.0
 20
5.0
 30
0.0
 11
347.0
 21
5.0
 31
0.0
  0
LINE
  5
BE0
  8
FRAME_070
 10
584.0
 20
410.0
 30
0.0
 11
10.0
 21
410.0
 31
0.0
  0
LINE
  5
BE1
  8
FRAME_070
 10
10.0
 20
10.0
 30
0.0
 11
584.0
 21
10.0
 31
0.0
  0
LINE
  5
BE2
  8
FRAME_050
 10
12.5
 20
207.5
 30
0.0
 11
7.5
 21
210.0
 31
0.0
  0
LINE
  5
BE3
  8
FRAME_050
 10
12.5
 20
212.5
 30
0.0
 11
12.5
 21
207.5
 31
0.0
  0
LINE
  5
BE4
  8
FRAME_070
 10
10.0
 20
410.0
 30
0.0
 11
10.0
 21
10.0
 31
0.0
  0
LINE
  5
BE5
  8
FRAME_200
 10
0.0
 20
0.0
 30
0.0
 11
0.0
 21
10.0
 31
0.0
  0
LINE
  5
BE6
  8
FRAME_200
 10
0.0
 20
0.0
 30
0.0
 11
10.0
 21
0.0
 31
0.0
  0
TEXT
  5
BE7
  8
FRAME_050
 10
5.9000000000000004
 20
35.0
 30
0.0
 40
4.0
  1
H
  7
ISO_PROPORTIONAL
 72
     4
 11
7.5
 21
37.0
 31
0.0
  0
LINE
  5
BE8
  8
FRAME_050
 10
10.0
 20
60.0
 30
0.0
 11
5.0
 21
60.0
 31
0.0
  0
LINE
  5
BE9
  8
FRAME_050
 10
81.75
 20
5.0
 30
0.0
 11
81.75
 21
10.0
 31
0.0
  0
TEXT
  5
BEA
  8
FRAME_050
 10
44.874999999999993
 20
5.5
 30
0.0
 40
4.0
  1
1
  7
ISO_PROPORTIONAL
 72
     4
 11
45.875
 21
7.5
 31
0.0
  0
TEXT
  5
BEB
  8
FRAME_050
 10
6.0035533905932743
 20
85.0
 30
0.0
 40
4.0
  1
G
  7
ISO_PROPORTIONAL
 72
     4
 11
7.5
 21
87.0
 31
0.0
  0
LINE
  5
BEC
  8
FRAME_050
 10
10.0
 20
110.0
 30
0.0
 11
5.0
 21
110.0
 31
0.0
  0
TEXT
  5
BED
  8
FRAME_050
 10
6.0999999999999988
 20
135.0
 30
0.0
 40
4.0
  1
F
  7
ISO_PROPORTIONAL
 72
     4
 11
7.5
 21
137.0
 31
0.0
  0
LINE
  5
BEE
  8
FRAME_050
 10
10.0
 20
160.0
 30
0.0
 11
5.0
 21
160.0
 31
0.0
  0
TEXT
  5
BEF
  8
FRAME_050
 10
6.0999999999999988
 20
185.0
 30
0.0
 40
4.0
  1
E
  7
ISO_PROPORTIONAL
 72
     4
 11
7.5
 21
187.0
 31
0.0
  0
LINE
  5
BF0
  8
FRAME_050
 10
153.5
 20
5.0
 30
0.0
 11
153.5
 21
10.0
 31
0.0
  0
TEXT
  5
BF1
  8
FRAME_050
 10
116.1556692913386
 20
5.3996062992125982
 30
0.0
 40
4.0
  1
2
  7
ISO_PROPORTIONAL
 72
     4
 11
117.625
 21
7.5
 31
0.0
  0
TEXT
  5
BF2
  8
FRAME_050
 10
187.89215728752529
 20
5.5828427124746138
 30
0.0
 40
4.0
  1
3
  7
ISO_PROPORTIONAL
 72
     4
 11
189.375
 21
7.5
 31
0.0
  0
LINE
  5
BF3
  8
FRAME_050
 10
225.25
 20
5.0
 30
0.0
 11
225.25
 21
10.0
 31
0.0
  0
LINE
  5
BF4
  8
FRAME_050
 10
297.0
 20
7.5
 30
0.0
 11
294.5
 21
12.5
 31
0.0
  0
LINE
  5
BF5
  8
FRAME_050
 10
287.0
 20
5.0
 30
0.0
 11
287.0
 21
10.0
 31
0.0
  0
LINE
  5
BF6
  8
FRAME_050
 10
277.0
 20
5.0
 30
0.0
 11
277.0
 21
10.0
 31
0.0
  0
LINE
  5
BF7
  8
FRAME_050
 10
267.0
 20
5.0
 30
0.0
 11
267.0
 21
10.0
 31
0.0
  0
LINE
  5
BF8
  8
FRAME_050
 10
257.0
 20
5.0
 30
0.0
 11
257.0
 21
10.0
 31
0.0
  0
LINE
  5
BF9
  8
FRAME_050
 10
247.0
 20
5.0
 30
0.0
 11
247.0
 21
10.0
 31
0.0
  0
LINE
  5
BFA
  8
FRAME_050
 10
297.0
 20
10.0
 30
0.0
 11
297.0
 21
5.0
 31
0.0
  0
LINE
  5
BFB
  8
FRAME_050
 10
297.0
 20
10.0
 30
0.0
 11
297.0
 21
15.0
 31
0.0
  0
LINE
  5
BFC
  8
FRAME_050
 10
5.0
 20
210.0
 30
0.0
 11
15.0
 21
210.0
 31
0.0
  0
LINE
  5
BFD
  8
FRAME_050
 10
7.5
 20
210.0
 30
0.0
 11
12.5
 21
212.5
 31
0.0
  0
TEXT
  5
BFE
  8
FRAME_050
 10
5.7860912703473977
 20
235.0
 30
0.0
 40
4.0
  1
D
  7
ISO_PROPORTIONAL
 72
     4
 11
7.5
 21
237.0
 31
0.0
  0
LINE
  5
BFF
  8
FRAME_050
 10
10.0
 20
260.0
 30
0.0
 11
5.0
 21
260.0
 31
0.0
  0
TEXT
  5
C00
  8
FRAME_050
 10
6.1931980515339466
 20
285.0
 30
0.0
 40
4.0
  1
C
  7
ISO_PROPORTIONAL
 72
     4
 11
7.5
 21
287.0
 31
0.0
  0
LINE
  5
C01
  8
FRAME_050
 10
10.0
 20
310.0
 30
0.0
 11
5.0
 21
310.0
 31
0.0
  0
TEXT
  5
C02
  8
FRAME_050
 10
5.8999999999999959
 20
335.0
 30
0.0
 40
4.0
  1
B
  7
ISO_PROPORTIONAL
 72
     4
 11
7.5
 21
337.0
 31
0.0
  0
LINE
  5
C03
  8
FRAME_050
 10
10.0
 20
360.0
 30
0.0
 11
5.0
 21
360.0
 31
0.0
  0
TEXT
  5
C04
  8
FRAME_050
 10
5.6999999999999993
 20
385.0
 30
0.0
 40
4.0
  1
A
  7
ISO_PROPORTIONAL
 72
     4
 11
7.5
 21
387.0
 31
0.0
  0
LINE
  5
C05
  8
FRAME_200
 10
10.0
 20
420.0
 30
0.0
 11
0.0
 21
420.0
 31
0.0
  0
LINE
  5
C06
  8
FRAME_200
 10
0.0
 20
420.0
 30
0.0
 11
0.0
 21
410.0
 31
0.0
  0
TEXT
  5
C07
  8
FRAME_050
 10
44.874999999999993
 20
410.5
 30
0.0
 40
4.0
  1
1
  7
ISO_PROPORTIONAL
 72
     4
 11
45.875
 21
412.5
 31
0.0
  0
LINE
  5
C08
  8
FRAME_050
 10
81.75
 20
410.0
 30
0.0
 11
81.75
 21
415.0
 31
0.0
  0
TEXT
  5
C09
  8
FRAME_050
 10
116.1556692913386
 20
410.39960629921262
 30
0.0
 40
4.0
  1
2
  7
ISO_PROPORTIONAL
 72
     4
 11
117.625
 21
412.5
 31
0.0
  0
LINE
  5
C0A
  8
FRAME_050
 10
153.5
 20
410.0
 30
0.0
 11
153.5
 21
415.0
 31
0.0
  0
TEXT
  5
C0B
  8
FRAME_050
 10
187.89215728752529
 20
410.58284271247459
 30
0.0
 40
4.0
  1
3
  7
ISO_PROPORTIONAL
 72
     4
 11
189.375
 21
412.5
 31
0.0
  0
LINE
  5
C0C
  8
FRAME_050
 10
297.0
 20
405.0
 30
0.0
 11
297.0
 21
415.0
 31
0.0
  0
LINE
  5
C0D
  8
FRAME_050
 10
225.25
 20
410.0
 30
0.0
 11
225.25
 21
415.0
 31
0.0
  0
TEXT
  5
C0E
  8
FRAME_050
 10
259.52499999999998
 20
410.5
 30
0.0
 40
4.0
  1
4
  7
ISO_PROPORTIONAL
 72
     4
 11
261.125
 21
412.5
 31
0.0
  0
LINE
  5
C0F
  8
FRAME_070
 10
584.0
 20
10.0
 30
0.0
 11
584.0
 21
410.0
 31
0.0
  0
ATTDEF
  5
C10
  8
FRAME_025
 10
473.0
 20
31.75
 30
0.0
 40
2.5
  1
XXX - 00/00/00
  7
ISO_PROPORTIONAL
 11
473.0
 21
33.0
 31
0.0
  3
Approved by - Date
  2
APPROVED_BY_DATE
 70
     8
 74
     2
  0
TEXT
  5
C11
  8
FRAME_025
 10
448.0
 20
41.749999999999993
 30
0.0
 40
2.5
  1
Title/Name, designation, material, dimension etc
  7
ISO_PROPORTIONAL
 11
448.0
 21
43.0
 31
0.0
 73
     2
  0
TEXT
  5
C12
  8
FRAME_025
 10
473.0
 20
35.75
 30
0.0
 40
2.5
  1
Approved by - date
  7
ISO_PROPORTIONAL
 11
473.0
 21
37.0
 31
0.0
 73
     2
  0
LINE
  5
C13
  8
FRAME_070
 10
414.0
 20
46.0
 30
0.0
 11
584.0
 21
46.0
 31
0.0
  0
LINE
  5
C14
  8
FRAME_070
 10
414.0
 20
40.0
 30
0.0
 11
584.0
 21
40.0
 31
0.0
  0
LINE
  5
C15
  8
FRAME_070
 10
414.0
 20
30.0
 30
0.0
 11
584.0
 21
30.0
 31
0.0
  0
LINE
  5
C16
  8
FRAME_050
 10
368.75
 20
5.0
 30
0.0
 11
368.75
 21
10.0
 31
0.0
  0
LINE
  5
C17
  8
FRAME_050
 10
337.0
 20
5.0
 30
0.0
 11
337.0
 21
10.0
 31
0.0
  0
LINE
  5
C18
  8
FRAME_050
 10
327.0
 20
5.0
 30
0.0
 11
327.0
 21
10.0
 31
0.0
  0
LINE
  5
C19
  8
FRAME_050
 10
317.0
 20
5.0
 30
0.0
 11
317.0
 21
10.0
 31
0.0
  0
LINE
  5
C1A
  8
FRAME_050
 10
307.0
 20
5.0
 30
0.0
 11
307.0
 21
10.0
 31
0.0
  0
LINE
  5
C1B
  8
FRAME_050
 10
347.0
 20
5.0
 30
0.0
 11
347.0
 21
10.0
 31
0.0
  0
LINE
  5
C1C
  8
FRAME_050
 10
440.5
 20
5.0
 30
0.0
 11
440.5
 21
10.0
 31
0.0
  0
TEXT
  5
C1D
  8
FRAME_050
 10
403.24547244094481
 20
5.4102362204724406
 30
0.0
 40
4.0
  1
6
  7
ISO_PROPORTIONAL
 72
     4
 11
404.62499999999989
 21
7.5
 31
0.0
  0
TEXT
  5
C1E
  8
FRAME_050
 10
474.97499999999991
 20
5.5
 30
0.0
 40
4.0
  1
7
  7
ISO_PROPORTIONAL
 72
     4
 11
476.37499999999989
 21
7.5
 31
0.0
  0
TEXT
  5
C1F
  8
FRAME_025
 10
431.0
 20
41.749999999999993
 30
0.0
 40
2.5
  1
Quantity
  7
ISO_PROPORTIONAL
 11
431.0
 21
43.0
 31
0.0
 73
     2
  0
TEXT
  5
C20
  8
FRAME_025
 10
416.0
 20
41.749999999999993
 30
0.0
 40
2.5
  1
Itemref
  7
ISO_PROPORTIONAL
 11
416.0
 21
43.0
 31
0.0
 73
     2
  0
LINE
  5
C21
  8
FRAME_070
 10
414.0
 20
40.0
 30
0.0
 11
414.0
 21
46.0
 31
0.0
  0
LINE
  5
C22
  8
FRAME_070
 10
429.0
 20
40.0
 30
0.0
 11
429.0
 21
46.0
 31
0.0
  0
LINE
  5
C23
  8
FRAME_070
 10
414.0
 20
10.0
 30
0.0
 11
414.0
 21
40.0
 31
0.0
  0
ATTDEF
  5
C24
  8
FRAME_025
 10
416.0
 20
31.75
 30
0.0
 40
2.5
  1
XXX
  7
ISO_PROPORTIONAL
 11
416.0
 21
33.0
 31
0.0
  3
Designed by
  2
DESIGNED_BY
 70
     8
 74
     2
  0
TEXT
  5
C25
  8
FRAME_025
 10
416.0
 20
35.75
 30
0.0
 40
2.5
  1
Designed by
  7
ISO_PROPORTIONAL
 11
416.0
 21
37.0
 31
0.0
 73
     2
  0
LINE
  5
C26
  8
FRAME_070
 10
446.0
 20
40.0
 30
0.0
 11
446.0
 21
46.0
 31
0.0
  0
ATTDEF
  5
C27
  8
FRAME_025
 10
448.0
 20
31.75
 30
0.0
 40
2.5
  1
XXX
  7
ISO_PROPORTIONAL
 11
448.0
 21
33.0
 31
0.0
  3
Checked by
  2
CHECKED_BY
 70
     8
 74
     2
  0
TEXT
  5
C28
  8
FRAME_025
 10
448.0
 20
35.75
 30
0.0
 40
2.5
  1
Checked by
  7
ISO_PROPORTIONAL
 11
448.0
 21
37.0
 31
0.0
 73
     2
  0
ATTDEF
  5
C29
  8
FRAME_050
 10
444.74999999999989
 20
17.5
 30
0.0
 40
5.0
  1
XXX
  7
ISO_PROPORTIONAL
 72
     4
 11
451.49999999999989
 21
20.0
 31
0.0
  3
Owner
  2
OWNER
 70
     8
  0
LINE
  5
C2A
  8
FRAME_070
 10
446.0
 20
30.0
 30
0.0
 11
446.0
 21
40.0
 31
0.0
  0
LINE
  5
C2B
  8
FRAME_070
 10
471.0
 20
30.0
 30
0.0
 11
471.0
 21
40.0
 31
0.0
  0
LINE
  5
C2C
  8
FRAME_070
 10
489.0
 20
20.0
 30
0.0
 11
584.0
 21
20.0
 31
0.0
  0
LINE
  5
C2D
  8
FRAME_050
 10
512.25
 20
5.0
 30
0.0
 11
512.25
 21
10.0
 31
0.0
  0
TEXT
  5
C2E
  8
FRAME_050
 10
546.72499999999991
 20
5.5
 30
0.0
 40
4.0
  1
8
  7
ISO_PROPORTIONAL
 72
     4
 11
548.125
 21
7.5
 31
0.0
  0
ATTDEF
  5
C2F
  8
FRAME_050
 10
517.64999999999986
 20
13.5
 30
0.0
 40
3.0
  1
X
  7
ISO_PROPORTIONAL
 72
     4
 11
519.0
 21
15.0
 31
0.0
  3
Drawing number
  2
DRAWING_NUMBER
 70
     8
  0
ATTDEF
  5
C30
  8
FRAME_050
 10
529.75
 20
22.5
 30
0.0
 40
5.0
  1
XXX
  7
ISO_PROPORTIONAL
 72
     4
 11
536.5
 21
25.0
 31
0.0
  3
Title / Name
  2
TITLE
 70
     8
  0
LINE
  5
C31
  8
FRAME_070
 10
489.0
 20
10.0
 30
0.0
 11
489.0
 21
30.0
 31
0.0
  0
ATTDEF
  5
C32
  8
FRAME_025
 10
511.0
 20
31.75
 30
0.0
 40
2.5
  1
XXX
  7
ISO_PROPORTIONAL
 11
511.0
 21
33.0
 31
0.0
  3
Filename
  2
FILENAME
 70
     8
 74
     2
  0
TEXT
  5
C33
  8
FRAME_025
 10
511.0
 20
35.75
 30
0.0
 40
2.5
  1
Filename
  7
ISO_PROPORTIONAL
 11
511.0
 21
37.0
 31
0.0
 73
     2
  0
LINE
  5
C34
  8
FRAME_070
 10
509.0
 20
30.0
 30
0.0
 11
509.0
 21
40.0
 31
0.0
  0
TEXT
  5
C35
  8
FRAME_025
 10
536.0
 20
41.749999999999993
 30
0.0
 40
2.5
  1
Article No./Reference
  7
ISO_PROPORTIONAL
 11
536.0
 21
43.0
 31
0.0
 73
     2
  0
LINE
  5
C36
  8
FRAME_070
 10
534.0
 20
40.0
 30
0.0
 11
534.0
 21
46.0
 31
0.0
  0
ATTDEF
  5
C37
  8
FRAME_025
 10
551.0
 20
11.75
 30
0.0
 40
2.5
  1
0
  7
ISO_PROPORTIONAL
 11
551.0
 21
13.0
 31
0.0
  3
Edition
  2
EDITION
 70
     8
 74
     2
  0
TEXT
  5
C38
  8
FRAME_025
 10
551.0
 20
15.75
 30
0.0
 40
2.5
  1
Edition
  7
ISO_PROPORTIONAL
 11
551.0
 21
17.0
 31
0.0
 73
     2
  0
LINE
  5
C39
  8
FRAME_070
 10
549.0
 20
10.0
 30
0.0
 11
549.0
 21
20.0
 31
0.0
  0
ATTDEF
  5
C3A
  8
FRAME_025
 10
536.0
 20
31.75
 30
0.0
 40
2.5
  1
00/00/00
  7
ISO_PROPORTIONAL
 11
536.0
 21
33.0
 31
0.0
  3
Date
  2
DATE
 70
     8
 74
     2
  0
TEXT
  5
C3B
  8
FRAME_025
 10
536.0
 20
35.75
 30
0.0
 40
2.5
  1
Date
  7
ISO_PROPORTIONAL
 11
536.0
 21
37.0
 31
0.0
 73
     2
  0
LINE
  5
C3C
  8
FRAME_070
 10
534.0
 20
30.0
 30
0.0
 11
534.0
 21
40.0
 31
0.0
  0
ATTDEF
  5
C3D
  8
FRAME_025
 10
566.0
 20
11.75
 30
0.0
 40
2.5
  1
1/1
  7
ISO_PROPORTIONAL
 11
566.0
 21
13.0
 31
0.0
  3
Sheet
  2
SHEET
 70
     8
 74
     2
  0
TEXT
  5
C3E
  8
FRAME_025
 10
566.0
 20
15.75
 30
0.0
 40
2.5
  1
Sheet
  7
ISO_PROPORTIONAL
 11
566.0
 21
17.0
 31
0.0
 73
     2
  0
LINE
  5
C3F
  8
FRAME_070
 10
564.0
 20
10.0
 30
0.0
 11
564.0
 21
20.0
 31
0.0
  0
ATTDEF
  5
C40
  8
FRAME_025
 10
566.0
 20
31.75
 30
0.0
 40
2.5
  1
1:1
  7
ISO_PROPORTIONAL
 11
566.0
 21
33.0
 31
0.0
  3
Scale
  2
SCALE
 70
     8
 74
     2
  0
TEXT
  5
C41
  8
FRAME_025
 10
566.0
 20
35.75
 30
0.0
 40
2.5
  1
Scale
  7
ISO_PROPORTIONAL
 11
566.0
 21
37.0
 31
0.0
 73
     2
  0
LINE
  5
C42
  8
FRAME_070
 10
564.0
 20
30.0
 30
0.0
 11
564.0
 21
40.0
 31
0.0
  0
LINE
  5
C43
  8
FRAME_200
 10
594.0
 20
0.0
 30
0.0
 11
594.0
 21
10.0
 31
0.0
  0
LINE
  5
C44
  8
FRAME_200
 10
594.0
 20
0.0
 30
0.0
 11
584.0
 21
0.0
 31
0.0
  0
TEXT
  5
C45
  8
FRAME_050
 10
584.89999999999998
 20
35.0
 30
0.0
 40
4.0
  1
H
  7
ISO_PROPORTIONAL
 72
     4
 11
586.5
 21
37.0
 31
0.0
  0
LINE
  5
C46
  8
FRAME_050
 10
589.0
 20
60.0
 30
0.0
 11
584.0
 21
60.0
 31
0.0
  0
TEXT
  5
C47
  8
FRAME_050
 10
585.0035533905932
 20
85.0
 30
0.0
 40
4.0
  1
G
  7
ISO_PROPORTIONAL
 72
     4
 11
586.5
 21
87.0
 31
0.0
  0
LINE
  5
C48
  8
FRAME_050
 10
589.0
 20
110.0
 30
0.0
 11
584.0
 21
110.0
 31
0.0
  0
TEXT
  5
C49
  8
FRAME_050
 10
585.09999999999991
 20
135.0
 30
0.0
 40
4.0
  1
F
  7
ISO_PROPORTIONAL
 72
     4
 11
586.5
 21
137.0
 31
0.0
  0
LINE
  5
C4A
  8
FRAME_050
 10
589.0
 20
160.0
 30
0.0
 11
584.0
 21
160.0
 31
0.0
  0
TEXT
  5
C4B
  8
FRAME_050
 10
585.09999999999991
 20
185.0
 30
0.0
 40
4.0
  1
E
  7
ISO_PROPORTIONAL
 72
     4
 11
586.5
 21
187.0
 31
0.0
  0
LINE
  5
C4C
  8
FRAME_070
 10
414.0
 20
404.0
 30
0.0
 11
584.0
 21
404.0
 31
0.0
  0
TEXT
  5
C4D
  8
FRAME_050
 10
331.39215728752538
 20
410.58284271247459
 30
0.0
 40
4.0
  1
5
  7
ISO_PROPORTIONAL
 72
     4
 11
332.875
 21
412.5
 31
0.0
  0
LINE
  5
C4E
  8
FRAME_050
 10
368.75
 20
410.0
 30
0.0
 11
368.75
 21
415.0
 31
0.0
  0
TEXT
  5
C4F
  8
FRAME_025
 10
428.0
 20
405.75
 30
0.0
 40
2.5
  1
Revision note
  7
ISO_PROPORTIONAL
 11
428.0
 21
407.0
 31
0.0
 73
     2
  0
TEXT
  5
C50
  8
FRAME_025
 10
416.0
 20
405.75
 30
0.0
 40
2.5
  1
RevNo
  7
ISO_PROPORTIONAL
 11
416.0
 21
407.0
 31
0.0
 73
     2
  0
LINE
  5
C51
  8
FRAME_070
 10
426.0
 20
404.0
 30
0.0
 11
426.0
 21
410.0
 31
0.0
  0
LINE
  5
C52
  8
FRAME_070
 10
414.0
 20
404.0
 30
0.0
 11
414.0
 21
410.0
 31
0.0
  0
TEXT
  5
C53
  8
FRAME_050
 10
403.24547244094481
 20
410.41023622047243
 30
0.0
 40
4.0
  1
6
  7
ISO_PROPORTIONAL
 72
     4
 11
404.62499999999989
 21
412.5
 31
0.0
  0
LINE
  5
C54
  8
FRAME_050
 10
440.5
 20
410.0
 30
0.0
 11
440.5
 21
415.0
 31
0.0
  0
TEXT
  5
C55
  8
FRAME_050
 10
474.97499999999991
 20
410.5
 30
0.0
 40
4.0
  1
7
  7
ISO_PROPORTIONAL
 72
     4
 11
476.37499999999989
 21
412.5
 31
0.0
  0
LINE
  5
C56
  8
FRAME_050
 10
579.0
 20
210.0
 30
0.0
 11
589.0
 21
210.0
 31
0.0
  0
TEXT
  5
C57
  8
FRAME_050
 10
584.78609127034736
 20
235.0
 30
0.0
 40
4.0
  1
D
  7
ISO_PROPORTIONAL
 72
     4
 11
586.5
 21
237.0
 31
0.0
  0
LINE
  5
C58
  8
FRAME_050
 10
589.0
 20
260.0
 30
0.0
 11
584.0
 21
260.0
 31
0.0
  0
TEXT
  5
C59
  8
FRAME_050
 10
585.19319805153395
 20
285.0
 30
0.0
 40
4.0
  1
C
  7
ISO_PROPORTIONAL
 72
     4
 11
586.5
 21
287.0
 31
0.0
  0
LINE
  5
C5A
  8
FRAME_050
 10
589.0
 20
310.0
 30
0.0
 11
584.0
 21
310.0
 31
0.0
  0
TEXT
  5
C5B
  8
FRAME_050
 10
584.89999999999998
 20
335.0
 30
0.0
 40
4.0
  1
B
  7
ISO_PROPORTIONAL
 72
     4
 11
586.5
 21
337.0
 31
0.0
  0
TEXT
  5
C5C
  8
FRAME_025
 10
571.08299391850551
 20
405.75
 30
0.0
 40
2.5
  1
Checked
  7
ISO_PROPORTIONAL
 11
571.08299391850551
 21
407.0
 31
0.0
 73
     2
  0
TEXT
  5
C5D
  8
FRAME_025
 10
555.36099797283521
 20
405.75
 30
0.0
 40
2.5
  1
Signature
  7
ISO_PROPORTIONAL
 11
555.36099797283521
 21
407.0
 31
0.0
 73
     2
  0
TEXT
  5
C5E
  8
FRAME_025
 10
537.0
 20
405.75
 30
0.0
 40
2.5
  1
Date
  7
ISO_PROPORTIONAL
 11
537.0
 21
407.0
 31
0.0
 73
     2
  0
LINE
  5
C5F
  8
FRAME_070
 10
570.0
 20
404.0
 30
0.0
 11
570.0
 21
410.0
 31
0.0
  0
LINE
  5
C60
  8
FRAME_070
 10
555.0
 20
404.0
 30
0.0
 11
555.0
 21
410.0
 31
0.0
  0
LINE
  5
C61
  8
FRAME_070
 10
535.0
 20
404.0
 30
0.0
 11
535.0
 21
410.0
 31
0.0
  0
LINE
  5
C62
  8
FRAME_050
 10
512.25
 20
410.0
 30
0.0
 11
512.25
 21
415.0
 31
0.0
  0
TEXT
  5
C63
  8
FRAME_050
 10
546.72499999999991
 20
410.5
 30
0.0
 40
4.0
  1
8
  7
ISO_PROPORTIONAL
 72
     4
 11
548.125
 21
412.5
 31
0.0
  0
LINE
  5
C64
  8
FRAME_050
 10
589.0
 20
360.0
 30
0.0
 11
584.0
 21
360.0
 31
0.0
  0
TEXT
  5
C65
  8
FRAME_050
 10
584.70000000000005
 20
385.0
 30
0.0
 40
4.0
  1
A
  7
ISO_PROPORTIONAL
 72
     4
 11
586.5
 21
387.0
 31
0.0
  0
LINE
  5
C66
  8
FRAME_200
 10
594.0
 20
420.0
 30
0.0
 11
584.0
 21
420.0
 31
0.0
  0
LINE
  5
C67
  8
FRAME_200
 10
594.0
 20
410.0
 30
0.0
 11
594.0
 21
420.0
 31
0.0
  0
ENDBLK
  5
C69
  8
0
  0
BLOCK
  8
0
  2
WOBB001END
 70
     0
 10
0.0
 20
0.0
 30
0.0
  3
WOBB001END
  1

  0
LINE
  5
4D66
  8
0
  6
CONTINUOUS
 10
0.0
 20
0.0
 30
0.0
 11
0.8749999999999998
 21
0.0
 31
0.0
  0
ARC
  5
4D67
  8
0
  6
CONTINUOUS
 10
0.0331648379439287
 20
-0.5087238935900234
 30
0.0
 40
0.8790130605592325
 50
284.06490243660443
 51
312.19222981924361
  0
ARC
  5
4D68
  8
0
  6
CONTINUOUS
 10
0.2841534338796767
 20
-1.510548310625538
 30
0.0
 40
0.1537731892806598
 50
104.0649024366044
 51
179.4721730735024
  0
LINE
  5
4D69
  8
0
  6
CONTINUOUS
 10
0.0
 20
0.0
 30
0.0
 11
-0.0000000000000003
 21
-1.7501564476661911
 31
0.0
  0
ARC
  5
4D6A
  8
0
  6
CONTINUOUS
 10
0.1404622019506122
 20
-1.630313718354619
 30
0.0
 40
0.1198427293115722
 50
275.0
 51
85.000000000000057
  0
LINE
  5
4D6B
  8
0
  6
CONTINUOUS
 10
-0.0000000000000003
 20
-1.7501564476661911
 30
0.0
 11
0.1456946485130855
 21
-1.7501564476661911
 31
0.0
  0
LINE
  5
4D6C
  8
0
  6
CONTINUOUS
 10
0.1377603739254348
 20
-1.7508506067459131
 30
0.0
 11
0.150907184036669
 21
-1.7497004098996509
 31
0.0
  0
LINE
  5
4D6D
  8
0
  6
CONTINUOUS
 10
0.1303867696719884
 20
-1.5091317231818231
 30
0.0
 11
0.1509071840366689
 21
-1.510927026809586
 31
0.0
  0
LINE
  5
4D6E
  8
0
  6
CONTINUOUS
 10
0.8749999999999998
 20
0.0
 30
0.0
 11
0.8749999999999996
 21
-0.8649327026588228
 31
0.0
  0
LINE
  5
4D6F
  8
0
  6
CONTINUOUS
 10
0.727014513830997
 20
-0.872688293355061
 30
0.0
 11
0.727014513830997
 21
-0.9264923397184784
 31
0.0
  0
ARC
  5
4D70
  8
0
  6
CONTINUOUS
 10
0.41187090827646
 20
-0.9264923397184784
 30
0.0
 40
0.3151436055545369
 50
312.19222981924361
 51
0.0
  0
LINE
  5
4D71
  8
0
  6
CONTINUOUS
 10
0.727014513830997
 20
-0.872688293355061
 30
0.0
 11
0.8749999999999996
 21
-0.8649327026588228
 31
0.0
  0
ENDBLK
  5
4D72
  8
0
  0
BLOCK
  8
0
  2
A$C0A61123B
 70
     0
 10
0.0
 20
0.0
 30
0.0
  3
A$C0A61123B
  1

  0
LINE
  5
C0AD
  8
PROF
  6
CONTINUOUS
 10
4.9012016798694162
 20
13.325025853350891
 30
0.0000000000000002
 11
4.9012016798694162
 21
12.88585218805485
 31
0.0000000000000003
  0
INSERT
  5
C0AE
  8
0
  2
*U7
 10
0.0
 20
0.0
 30
0.0
  0
LINE
  5
C0AF
  8
PROF
 10
4.519857503186925
 20
12.72227734589444
 30
0.0000000000000001
 11
4.519857503186925
 21
12.88585218805485
 31
0.0000000000000001
  0
LINE
  5
C0B0
  8
PROF
  6
CONTINUOUS
 10
3.6306271195888362
 20
13.325025853350891
 30
0.0000000000000002
 11
4.9012016798694162
 21
13.325025853350891
 31
0.0000000000000002
  0
LINE
  5
C0B1
  8
PROF
 10
1.9750295148747341
 20
10.37671325491794
 30
0.0000000000000002
 11
1.9750295148747341
 21
10.11391186758919
 31
0.0000000000000002
  0
LINE
  5
C0B2
  8
PROF
 10
1.6079673357556299
 20
10.11391186758919
 30
0.0000000000000001
 11
1.9750295148747341
 21
10.11391186758919
 31
0.0000000000000001
  0
LINE
  5
C0B3
  8
PROF
 10
1.9750295148747341
 20
10.11391186758919
 30
0.0000000000000001
 11
1.944958486898144
 21
10.11391186758919
 31
0.0000000000000001
  0
LINE
  5
C0B4
  8
PROF
 10
1.9750295148747341
 20
10.11391186758919
 30
0.0000000000000001
 11
1.944958486898144
 21
10.11391186758919
 31
0.0000000000000001
  0
LINE
  5
C0B5
  8
PROF
 10
0.3222605517169654
 20
7.5247473351056451
 30
-0.0000000000000002
 11
-0.0000008570117416
 21
7.5247473351056451
 31
0.0
  0
LINE
  5
C0B6
  8
PROF
 10
-0.0000008570117416
 20
7.5247473351056451
 30
0.0
 11
-0.0000008570117416
 21
9.1943336957369848
 31
0.0
  0
POLYLINE
  5
C0B7
  8
PROF
 66
     1
 10
0.0
 20
0.0
 30
0.0000000000000001
 70
     4
 75
     6
  0
VERTEX
  5
C0B8
  8
PROF
 10
1.6079673357556299
 20
10.11391186758919
 30
0.0000000000000001
 70
    16
  0
VERTEX
  5
C0B9
  8
PROF
 10
1.6079673357556299
 20
10.11391186758919
 30
0.0000000000000001
 70
     8
  0
VERTEX
  5
C0BA
  8
PROF
 10
1.6468132326485809
 20
10.02198069336111
 30
0.0000000000000001
 70
     8
  0
VERTEX
  5
C0BB
  8
PROF
 10
1.67335966680929
 20
9.9344134163010231
 30
0.0000000000000001
 70
     8
  0
VERTEX
  5
C0BC
  8
PROF
 10
1.6890086400463229
 20
9.8512576644480951
 30
0.0000000000000001
 70
     8
  0
VERTEX
  5
C0BD
  8
PROF
 10
1.6951621541682571
 20
9.7725610658417281
 30
0.0000000000000001
 70
     8
  0
VERTEX
  5
C0BE
  8
PROF
 10
1.693222210983605
 20
9.6983712485214237
 30
0.0000000000000001
 70
     8
  0
VERTEX
  5
C0BF
  8
PROF
 10
1.6845908123009961
 20
9.6287358405263603
 30
0.0000000000000001
 70
     8
  0
VERTEX
  5
C0C0
  8
PROF
 10
1.670669959928885
 20
9.5637024698960431
 30
0.0000000000000001
 70
     8
  0
VERTEX
  5
C0C1
  8
PROF
 10
1.6528616556759621
 20
9.5033187646697552
 30
0.0000000000000001
 70
     8
  0
VERTEX
  5
C0C2
  8
PROF
 10
1.632356299273054
 20
9.4475843259650691
 30
0.0000000000000001
 70
     8
  0
VERTEX
  5
C0C3
  8
PROF
 10
1.609497882140658
 20
9.3963066472123273
 30
0.0000000000000001
 70
     8
  0
VERTEX
  5
C0C4
  8
PROF
 10
1.584418793621637
 20
9.3492451949202842
 30
0.0000000000000001
 70
     8
  0
VERTEX
  5
C0C5
  8
PROF
 10
1.5572514230587431
 20
9.3061594355972357
 30
0.0000000000000001
 70
     8
  0
VERTEX
  5
C0C6
  8
PROF
 10
1.5281281597949601
 20
9.2668088357519274
 30
0.0000000000000001
 70
     8
  0
VERTEX
  5
C0C7
  8
PROF
 10
1.497181393172978
 20
9.2309528618929981
 30
0.0000000000000001
 70
     8
  0
VERTEX
  5
C0C8
  8
PROF
 10
1.4645435125357249
 20
9.1983509805288541
 30
0.0000000000000001
 70
     8
  0
VERTEX
  5
C0C9
  8
PROF
 10
1.4303469072260091
 20
9.1687626581682462
 30
0.0000000000000001
 70
     8
  0
VERTEX
  5
C0CA
  8
PROF
 10
1.394736033257401
 20
9.1419547918675335
 30
0.0000000000000001
 70
     8
  0
VERTEX
  5
C0CB
  8
PROF
 10
1.3579036133264131
 20
9.1177240008747713
 30
0.0000000000000001
 70
     8
  0
VERTEX
  5
C0CC
  8
PROF
 10
1.3200544368004321
 20
9.0958743349860924
 30
0.0000000000000001
 70
     8
  0
VERTEX
  5
C0CD
  8
PROF
 10
1.281393293046676
 20
9.0762098439975034
 30
0.0000000000000001
 70
     8
  0
VERTEX
  5
C0CE
  8
PROF
 10
1.2421249714324161
 20
9.0585345777049042
 30
0.0000000000000001
 70
     8
  0
VERTEX
  5
C0CF
  8
PROF
 10
1.202454261324986
 20
9.0426525859044187
 30
0.0000000000000001
 70
     8
  0
VERTEX
  5
C0D0
  8
PROF
 10
1.162585952091659
 20
9.0283679183919503
 30
0.0000000000000001
 70
     8
  0
VERTEX
  5
C0D1
  8
PROF
 10
1.1227248330997091
 20
9.0154846249635021
 30
0.0000000000000001
 70
     8
  0
VERTEX
  5
C0D2
  8
PROF
 10
1.0829726247361
 20
9.0034643862466055
 30
0.0000000000000001
 70
     8
  0
VERTEX
  5
C0D3
  8
PROF
 10
1.043018771466222
 20
8.9903994061946833
 30
0.0000000000000001
 70
     8
  0
VERTEX
  5
C0D4
  8
PROF
 10
1.002449648775211
 20
8.9740395195925622
 30
0.0000000000000001
 70
     8
  0
VERTEX
  5
C0D5
  8
PROF
 10
0.9608516321480919
 20
8.9521345612251935
 30
0.0000000000000001
 70
     8
  0
VERTEX
  5
C0D6
  8
PROF
 10
0.9178110970699435
 20
8.9224343658775052
 30
0.0000000000000001
 70
     8
  0
VERTEX
  5
C0D7
  8
PROF
 10
0.8729144190259033
 20
8.8826887683343312
 30
0.0000000000000001
 70
     8
  0
VERTEX
  5
C0D8
  8
PROF
 10
0.8257479735009949
 20
8.8306476033806121
 30
0.0000000000000001
 70
     8
  0
VERTEX
  5
C0D9
  8
PROF
 10
0.7758981359802988
 20
8.764060705801171
 30
0.0000000000000001
 70
     8
  0
VERTEX
  5
C0DA
  8
PROF
 10
1.7292019016096549
 20
9.8629858761255491
 30
0.0000000000000001
 70
    16
  0
VERTEX
  5
C0DB
  8
PROF
 10
1.679373123114088
 20
9.4532143012734213
 30
0.0000000000000001
 70
    16
  0
VERTEX
  5
C0DC
  8
PROF
 10
1.4455611507419801
 20
9.1391837193732481
 30
0.0000000000000001
 70
    16
  0
VERTEX
  5
C0DD
  8
PROF
 10
1.1204637172738201
 20
9.0026267702428413
 30
0.0000000000000001
 70
    16
  0
VERTEX
  5
C0DE
  8
PROF
 10
0.9127765582653638
 20
8.9630202230383702
 30
0.0000000000000001
 70
    16
  0
VERTEX
  5
C0DF
  8
PROF
 10
0.7758981359802988
 20
8.764060705801171
 30
0.0000000000000001
 70
    16
  0
SEQEND
  5
C0E0
  8
PROF
  0
ARC
  5
C0E1
  8
PROF
 10
0.733429816733235
 20
8.4849506952165257
 30
0.0000000000000001
 40
0.2823224329524727
 50
269.73652020831901
 51
81.348449993176914
  0
LINE
  5
C0E2
  8
PROF
  6
CONTINUOUS
 10
-0.0000008570117416
 20
9.1943336957369848
 30
-0.0000000000000001
 11
3.6306271195888362
 21
13.325025853350891
 31
0.0000000000000002
  0
POLYLINE
  5
C0E3
  8
PROF
 66
     1
 10
0.0
 20
0.0
 30
0.0000000000000001
 70
     4
 75
     6
  0
VERTEX
  5
C0E4
  8
PROF
 10
4.519857503186925
 20
12.72227734589444
 30
0.0000000000000001
 70
    16
  0
VERTEX
  5
C0E5
  8
PROF
 10
4.519857503186925
 20
12.72227734589444
 30
0.0000000000000001
 70
     8
  0
VERTEX
  5
C0E6
  8
PROF
 10
4.4467035366886289
 20
12.741128108778071
 30
0.0000000000000001
 70
     8
  0
VERTEX
  5
C0E7
  8
PROF
 10
4.3786645761268801
 20
12.754675269913941
 30
0.0000000000000001
 70
     8
  0
VERTEX
  5
C0E8
  8
PROF
 10
4.3154364111440469
 20
12.76334314092332
 30
0.0000000000000001
 70
     8
  0
VERTEX
  5
C0E9
  8
PROF
 10
4.256714831382566
 20
12.76755603342724
 30
0.0000000000000001
 70
     8
  0
VERTEX
  5
C0EA
  8
PROF
 10
4.2021956264849791
 20
12.76773825904672
 30
0.0000000000000001
 70
     8
  0
VERTEX
  5
C0EB
  8
PROF
 10
4.1515745860935436
 20
12.764314129403139
 30
0.0000000000000001
 70
     8
  0
VERTEX
  5
C0EC
  8
PROF
 10
4.1045474998508649
 20
12.75770795611743
 30
0.0000000000000001
 70
     8
  0
VERTEX
  5
C0ED
  8
PROF
 10
4.0608101573993149
 20
12.748344050810831
 30
0.0000000000000001
 70
     8
  0
VERTEX
  5
C0EE
  8
PROF
 10
4.0200583483813261
 20
12.736646725104491
 30
0.0000000000000001
 70
     8
  0
VERTEX
  5
C0EF
  8
PROF
 10
3.981987862439381
 20
12.72304029061945
 30
0.0000000000000001
 70
     8
  0
VERTEX
  5
C0F0
  8
PROF
 10
3.946294489215858
 20
12.707949058976959
 30
0.0000000000000001
 70
     8
  0
VERTEX
  5
C0F1
  8
PROF
 10
3.912674018353242
 20
12.691797341798059
 30
0.0000000000000001
 70
     8
  0
VERTEX
  5
C0F2
  8
PROF
 10
3.8808638350742499
 20
12.67494295718654
 30
0.0000000000000001
 70
     8
  0
VERTEX
  5
C0F3
  8
PROF
 10
3.850767706922738
 20
12.65747774917668
 30
0.0000000000000001
 70
     8
  0
VERTEX
  5
C0F4
  8
PROF
 10
3.8223309970228438
 20
12.639427068285499
 30
0.0000000000000001
 70
     8
  0
VERTEX
  5
C0F5
  8
PROF
 10
3.795499068498712
 20
12.62081626503004
 30
0.0000000000000001
 70
     8
  0
VERTEX
  5
C0F6
  8
PROF
 10
3.7702172844744819
 20
12.601670689926999
 30
0.0000000000000001
 70
     8
  0
VERTEX
  5
C0F7
  8
PROF
 10
3.7464310080743521
 20
12.58201569349364
 30
0.0000000000000001
 70
     8
  0
VERTEX
  5
C0F8
  8
PROF
 10
3.7240856024224609
 20
12.56187662624666
 30
0.0000000000000001
 70
     8
  0
VERTEX
  5
C0F9
  8
PROF
 10
3.7031264306428961
 20
12.541278838703191
 30
0.0000000000000001
 70
     8
  0
VERTEX
  5
C0FA
  8
PROF
 10
3.683498855859908
 20
12.520247681380051
 30
0.0000000000000001
 70
     8
  0
VERTEX
  5
C0FB
  8
PROF
 10
3.665148241197528
 20
12.49880850479428
 30
0.0000000000000001
 70
     8
  0
VERTEX
  5
C0FC
  8
PROF
 10
3.648019949779949
 20
12.47698665946279
 30
0.0000000000000001
 70
     8
  0
VERTEX
  5
C0FD
  8
PROF
 10
3.6320593447313159
 20
12.45480749590263
 30
0.0000000000000001
 70
     8
  0
VERTEX
  5
C0FE
  8
PROF
 10
3.617189584886658
 20
12.43223790353807
 30
0.0000000000000001
 70
     8
  0
VERTEX
  5
C0FF
  8
PROF
 10
3.6032450119242849
 20
12.40901092742285
 30
0.0000000000000001
 70
     8
  0
VERTEX
  5
C100
  8
PROF
 10
3.590037763233453
 20
12.38480115151844
 30
0.0000000000000001
 70
     8
  0
VERTEX
  5
C101
  8
PROF
 10
3.5773799762033032
 20
12.35928315978594
 30
0.0000000000000001
 70
     8
  0
VERTEX
  5
C102
  8
PROF
 10
3.5650837882230899
 20
12.33213153618658
 30
0.0000000000000001
 70
     8
  0
VERTEX
  5
C103
  8
PROF
 10
3.552961336681959
 20
12.303020864681571
 30
0.0000000000000001
 70
     8
  0
VERTEX
  5
C104
  8
PROF
 10
3.540824758969165
 20
12.271625729232371
 30
0.0000000000000001
 70
     8
  0
VERTEX
  5
C105
  8
PROF
 10
3.528486192473848
 20
12.23762071379997
 30
0.0000000000000001
 70
     8
  0
VERTEX
  5
C106
  8
PROF
 10
3.5157577745852659
 20
12.200680402345711
 30
0.0000000000000001
 70
     8
  0
VERTEX
  5
C107
  8
PROF
 10
3.502451642692618
 20
12.16047937883093
 30
0.0000000000000001
 70
     8
  0
VERTEX
  5
C108
  8
PROF
 10
3.4883799341851041
 20
12.116692227216619
 30
0.0000000000000001
 70
     8
  0
VERTEX
  5
C109
  8
PROF
 10
3.4733547864519201
 20
12.06899353146423
 30
0.0000000000000001
 70
     8
  0
VERTEX
  5
C10A
  8
PROF
 10
3.45723654619428
 20
12.0172095445447
 30
0.0000000000000001
 70
     8
  0
VERTEX
  5
C10B
  8
PROF
 10
3.440078397361388
 20
11.961773195467799
 30
0.0000000000000001
 70
     8
  0
VERTEX
  5
C10C
  8
PROF
 10
3.4219817332145781
 20
11.90326908225302
 30
0.0000000000000001
 70
     8
  0
VERTEX
  5
C10D
  8
PROF
 10
3.4030479470150099
 20
11.842281802919951
 30
0.0000000000000001
 70
     8
  0
VERTEX
  5
C10E
  8
PROF
 10
3.383378432024017
 20
11.779395955487979
 30
0.0000000000000001
 70
     8
  0
VERTEX
  5
C10F
  8
PROF
 10
3.36307458150287
 20
11.7151961379768
 30
0.0000000000000001
 70
     8
  0
VERTEX
  5
C110
  8
PROF
 10
3.342237788712735
 20
11.650266948405831
 30
0.0000000000000001
 70
     8
  0
VERTEX
  5
C111
  8
PROF
 10
3.3209694469149991
 20
11.58519298479461
 30
0.0000000000000001
 70
     8
  0
VERTEX
  5
C112
  8
PROF
 10
3.299370949370767
 20
11.52055884516254
 30
0.0000000000000001
 70
     8
  0
VERTEX
  5
C113
  8
PROF
 10
3.277543689341428
 20
11.456949127529461
 30
0.0000000000000001
 70
     8
  0
VERTEX
  5
C114
  8
PROF
 10
3.2555890600881399
 20
11.3949484299145
 30
0.0000000000000001
 70
     8
  0
VERTEX
  5
C115
  8
PROF
 10
3.2336084548721811
 20
11.335141350337491
 30
0.0000000000000001
 70
     8
  0
VERTEX
  5
C116
  8
PROF
 10
3.2116715641212181
 20
11.277995447977769
 30
0.0000000000000001
 70
     8
  0
VERTEX
  5
C117
  8
PROF
 10
3.1897212669278461
 20
11.22351012665467
 30
0.0000000000000001
 70
     8
  0
VERTEX
  5
C118
  8
PROF
 10
3.1676687395512881
 20
11.17156775134765
 30
0.0000000000000001
 70
     8
  0
VERTEX
  5
C119
  8
PROF
 10
3.1454251582505321
 20
11.12205068703588
 30
0.0000000000000001
 70
     8
  0
VERTEX
  5
C11A
  8
PROF
 10
3.122901699284625
 20
11.07484129869874
 30
0.0000000000000001
 70
     8
  0
VERTEX
  5
C11B
  8
PROF
 10
3.1000095389127278
 20
11.02982195131551
 30
0.0000000000000001
 70
     8
  0
VERTEX
  5
C11C
  8
PROF
 10
3.07665985339389
 20
10.986875009865679
 30
0.0000000000000001
 70
     8
  0
VERTEX
  5
C11D
  8
PROF
 10
3.0527638189871591
 20
10.9458828393283
 30
0.0000000000000001
 70
     8
  0
VERTEX
  5
C11E
  8
PROF
 10
3.0282326119516361
 20
10.90672780468298
 30
0.0000000000000001
 70
     8
  0
VERTEX
  5
C11F
  8
PROF
 10
3.0029774085463701
 20
10.869292270908771
 30
0.0000000000000001
 70
     8
  0
VERTEX
  5
C120
  8
PROF
 10
2.9769093850304089
 20
10.833458602985161
 30
0.0000000000000001
 70
     8
  0
VERTEX
  5
C121
  8
PROF
 10
2.9499397176628559
 20
10.799109165891419
 30
0.0000000000000001
 70
     8
  0
VERTEX
  5
C122
  8
PROF
 10
2.922000609840437
 20
10.76614363969508
 30
0.0000000000000001
 70
     8
  0
VERTEX
  5
C123
  8
PROF
 10
2.8931083735102998
 20
10.7345309648158
 30
0.0000000000000001
 70
     8
  0
VERTEX
  5
C124
  8
PROF
 10
2.8633003477572729
 20
10.70425739676193
 30
0.0000000000000001
 70
     8
  0
VERTEX
  5
C125
  8
PROF
 10
2.8326138716660689
 20
10.67530919104115
 30
0.0000000000000001
 70
     8
  0
VERTEX
  5
C126
  8
PROF
 10
2.801086284321626
 20
10.647672603161711
 30
0.0000000000000001
 70
     8
  0
VERTEX
  5
C127
  8
PROF
 10
2.7687549248087162
 20
10.62133388863162
 30
0.0000000000000001
 70
     8
  0
VERTEX
  5
C128
  8
PROF
 10
2.7356571322120531
 20
10.5962793029588
 30
0.0000000000000001
 70
     8
  0
VERTEX
  5
C129
  8
PROF
 10
2.7018302456165202
 20
10.572495101651381
 30
0.0000000000000001
 70
     8
  0
VERTEX
  5
C12A
  8
PROF
 10
2.6673116041068838
 20
10.54996754021726
 30
0.0000000000000001
 70
     8
  0
VERTEX
  5
C12B
  8
PROF
 10
2.6321385467680321
 20
10.528682874164581
 30
0.0000000000000001
 70
     8
  0
VERTEX
  5
C12C
  8
PROF
 10
2.5963484126846179
 20
10.508627359001251
 30
0.0000000000000001
 70
     8
  0
VERTEX
  5
C12D
  8
PROF
 10
2.5599785409415841
 20
10.489787250235279
 30
0.0000000000000001
 70
     8
  0
VERTEX
  5
C12E
  8
PROF
 10
2.522998630314361
 20
10.472162234281081
 30
0.0000000000000001
 70
     8
  0
VERTEX
  5
C12F
  8
PROF
 10
2.4851078183409072
 20
10.455805721177621
 30
0.0000000000000001
 70
     8
  0
VERTEX
  5
C130
  8
PROF
 10
2.4459376022498982
 20
10.44078455187036
 30
0.0000000000000001
 70
     8
  0
VERTEX
  5
C131
  8
PROF
 10
2.4051194792701249
 20
10.42716556730465
 30
0.0000000000000001
 70
     8
  0
VERTEX
  5
C132
  8
PROF
 10
2.3622849466301541
 20
10.415015608425851
 30
0.0000000000000001
 70
     8
  0
VERTEX
  5
C133
  8
PROF
 10
2.317065501558714
 20
10.40440151617929
 30
0.0000000000000001
 70
     8
  0
VERTEX
  5
C134
  8
PROF
 10
2.2690926412844301
 20
10.395390131510339
 30
0.0000000000000001
 70
     8
  0
VERTEX
  5
C135
  8
PROF
 10
2.2179978630360879
 20
10.388048295364451
 30
0.0000000000000001
 70
     8
  0
VERTEX
  5
C136
  8
PROF
 10
2.1634126640422551
 20
10.38244284868688
 30
0.0000000000000001
 70
     8
  0
VERTEX
  5
C137
  8
PROF
 10
2.1049685415316031
 20
10.37864063242295
 30
0.0000000000000001
 70
     8
  0
VERTEX
  5
C138
  8
PROF
 10
2.0422969927328709
 20
10.37670848751816
 30
0.0000000000000001
 70
     8
  0
VERTEX
  5
C139
  8
PROF
 10
1.9750295148747341
 20
10.37671325491794
 30
0.0000000000000001
 70
     8
  0
VERTEX
  5
C13A
  8
PROF
 10
4.2166060115107484
 20
12.80885334975255
 30
0.0000000000000001
 70
    16
  0
VERTEX
  5
C13B
  8
PROF
 10
3.8702254102732909
 20
12.707065515763929
 30
0.0000000000000001
 70
    16
  0
VERTEX
  5
C13C
  8
PROF
 10
3.605346156896871
 20
12.46277472098552
 30
0.0000000000000001
 70
    16
  0
VERTEX
  5
C13D
  8
PROF
 10
3.500746030527238
 20
12.170680575709749
 30
0.0000000000000001
 70
    16
  0
VERTEX
  5
C13E
  8
PROF
 10
3.231798439705698
 20
11.26846416496107
 30
0.0000000000000001
 70
    16
  0
VERTEX
  5
C13F
  8
PROF
 10
2.9737109398832882
 20
10.76631086647069
 30
0.0000000000000001
 70
    16
  0
VERTEX
  5
C140
  8
PROF
 10
2.5729961067384002
 20
10.460947364504699
 30
0.0000000000000001
 70
    16
  0
VERTEX
  5
C141
  8
PROF
 10
2.2537826214546031
 20
10.372731239449759
 30
0.0000000000000001
 70
    16
  0
VERTEX
  5
C142
  8
PROF
 10
1.9750295148747341
 20
10.37671325491794
 30
0.0000000000000001
 70
    16
  0
SEQEND
  5
C143
  8
PROF
  0
LINE
  5
C144
  8
PROF
 10
4.9012016798694162
 20
12.88585218805485
 30
0.0000000000000003
 11
4.519857503186925
 21
12.88585218805485
 31
0.0000000000000003
  0
LINE
  5
C145
  8
PROF
 10
0.7321315362267457
 20
8.2026312473991556
 30
0.0000000000000006
 11
0.7321315362267457
 21
8.0511853963434952
 31
0.0000000000000006
  0
ARC
  5
C146
  8
PROF
 10
0.7977322214551919
 20
7.577333933202679
 30
0.0000000000000006
 40
0.4783708383912013
 50
97.882010168942557
 51
186.31119505698641
  0
LINE
  5
C147
  8
FRAME_050
 10
7.8016377197432121
 20
17.99371054969447
 30
0.0
 11
7.8016377197432121
 21
0.0000000000002274
 31
0.0
  0
ENDBLK
  5
C149
  8
0
  0
BLOCK
  8
0
  2
*U7
 70
     1
 10
0.0
 20
0.0
 30
0.0
  3
*U7
  1

  0
TEXT
  5
C8C3
  8
0
 10
3.5177832928899071
 20
10.38601584255777
 30
0.0
 40
0.125
  1
Crown Moulding
  0
TEXT
  5
C8C4
  8
0
 10
3.5223876585106431
 20
10.17717091304435
 30
0.0
 40
0.125
  1
TL-AB509
  0
TEXT
  5
C8C5
  8
0
 10
3.5074661032582561
 20
9.9667059289606801
 30
0.0
 40
0.125
  1
1-5/16" x 7-9/16"
  0
TEXT
  5
C8C6
  8
0
 10
3.519403347460166
 20
9.7562409448770051
 30
0.0
 40
0.125
  1
800.66.TAGUE
  0
ENDBLK
  5
C8C8
  8
0
  0
BLOCK
  8
0
  2
*U8
 70
     1
 10
0.0
 20
0.0
 30
0.0
  3
*U8
  1

  0
TEXT
  5
C8CA
  8
0
 10
5.3066868277875692
 20
1.767659498411035
 30
0.0
 40
0.125
  1
Back Band
  0
TEXT
  5
C8CB
  8
0
 10
5.3153839628489603
 20
1.55881456889762
 30
0.0
 40
0.125
  1
TL-1
  0
TEXT
  5
C8CC
  8
0
 10
5.3004624075965721
 20
1.3483495848139451
 30
0.0
 40
0.125
  1
1-3/8" x 1-9/16"
  0
TEXT
  5
C8CD
  8
0
 10
5.3123996517984811
 20
1.1378846007302701
 30
0.0
 40
0.125
  1
800.66.TAGUE
  0
ENDBLK
  5
C8CF
  8
0
  0
BLOCK
  8
0
  2
*U9
 70
     1
 10
0.0
 20
0.0
 30
0.0
  3
*U9
  1

  0
TEXT
  5
C8D1
  8
0
 10
-385.7580743253551
 20
838.2627455404056
 30
0.0
 40
0.125
  1
Back Band
  0
TEXT
  5
C8D2
  8
0
 10
-385.74937719029373
 20
838.05390061089247
 30
0.0
 40
0.125
  1
TL-1
  0
TEXT
  5
C8D3
  8
0
 10
-385.76429874554611
 20
837.84343562680851
 30
0.0
 40
0.125
  1
1-3/8" x 1-9/16"
  0
TEXT
  5
C8D4
  8
0
 10
-385.75236150134418
 20
837.63297064272513
 30
0.0
 40
0.125
  1
800.66.TAGUE
  0
ENDBLK
  5
C8D6
  8
0
  0
BLOCK
  8
0
  2
*U15
 70
     1
 10
0.0
 20
0.0
 30
0.0
  3
*U15
  1

  0
TEXT
  5
CDB0
  8
0
 10
1.801309719190612
 20
0.7422271098238867
 30
0.0
 40
0.125
  1
Solid Crown
  0
TEXT
  5
CDB1
  8
0
 10
1.801309719190612
 20
0.5338937764905534
 30
0.0
 40
0.125
  1
TL-2182
  0
TEXT
  5
CDB2
  8
0
 10
1.801309719190612
 20
0.32556044315722
 30
0.0
 40
0.125
  1
1-1/32" x 1-5/16"
  0
TEXT
  5
CDB3
  8
0
 10
1.801309719190612
 20
0.1172271098238866
 30
0.0
 40
0.125
  1
800.66.TAGUE
  0
ENDBLK
  5
CDB5
  8
0
  0
BLOCK
  8
0
  2
*U16
 70
     1
 10
0.0
 20
0.0
 30
0.0
  3
*U16
  1

  0
TEXT
  5
CDB7
  8
0
 10
1.625113436446326
 20
0.9370028111704301
 30
0.0
 40
0.125
  1
Solid Crown
  0
TEXT
  5
CDB8
  8
0
 10
1.625113436446326
 20
0.7286694778370969
 30
0.0
 40
0.125
  1
TL-2157
  0
TEXT
  5
CDB9
  8
0
 10
1.625113436446326
 20
0.5203361445037635
 30
0.0
 40
0.125
  1
1-9/32" x 2"
  0
TEXT
  5
CDBA
  8
0
 10
1.625113436446326
 20
0.31200281117043
 30
0.0
 40
0.125
  1
800.66.TAGUE
  0
ENDBLK
  5
CDBC
  8
0
  0
BLOCK
  8
0
  2
*U17
 70
     1
 10
0.0
 20
0.0
 30
0.0
  3
*U17
  1

  0
TEXT
  5
CDBE
  8
0
 10
1.920486779030625
 20
0.9014428381942138
 30
0.0
 40
0.125
  1
Solid Crown
  0
TEXT
  5
CDBF
  8
0
 10
1.920486779030625
 20
0.6931095048608807
 30
0.0
 40
0.125
  1
TL-2188
  0
TEXT
  5
CDC0
  8
0
 10
1.920486779030625
 20
0.4847761715275473
 30
0.0
 40
0.125
  1
1-5/8" x 2"
  0
TEXT
  5
CDC1
  8
0
 10
1.920486779030625
 20
0.2764428381942139
 30
0.0
 40
0.125
  1
800.66.TAGUE
  0
ENDBLK
  5
CDC3
  8
0
  0
BLOCK
  8
0
  2
*U18
 70
     1
 10
0.0
 20
0.0
 30
0.0
  3
*U18
  1

  0
TEXT
  5
CDC5
  8
0
 10
1.746815334566576
 20
0.7356822575717957
 30
0.0
 40
0.125
  1
Solid Crown
  0
TEXT
  5
CDC6
  8
0
 10
1.746815334566576
 20
0.5273489242384624
 30
0.0
 40
0.125
  1
TL-2235
  0
TEXT
  5
CDC7
  8
0
 10
1.746815334566576
 20
0.319015590905129
 30
0.0
 40
0.125
  1
11/16" x 15/16"
  0
TEXT
  5
CDC8
  8
0
 10
1.746815334566576
 20
0.1106822575717956
 30
0.0
 40
0.125
  1
800.66.TAGUE
  0
ENDBLK
  5
CDCA
  8
0
  0
BLOCK
  8
0
  2
*U19
 70
     1
 10
0.0
 20
0.0
 30
0.0
  3
*U19
  1

  0
TEXT
  5
CDCC
  8
0
 10
2.0509945988744671
 20
1.365453408895575
 30
0.0
 40
0.125
  1
Solid Crown
  0
TEXT
  5
CDCD
  8
0
 10
2.0509945988744671
 20
1.1571200755622419
 30
0.0
 40
0.125
  1
TL-339
  0
TEXT
  5
CDCE
  8
0
 10
2.0509945988744671
 20
0.948786742228909
 30
0.0
 40
0.125
  1
1-5/8" x 2-5/8"
  0
TEXT
  5
CDCF
  8
0
 10
2.0509945988744671
 20
0.7404534088955757
 30
0.0
 40
0.125
  1
800.66.TAGUE
  0
ENDBLK
  5
CDD1
  8
0
  0
BLOCK
  8
0
  2
*U20
 70
     1
 10
0.0
 20
0.0
 30
0.0
  3
*U20
  1

  0
TEXT
  5
CDD3
  8
0
 10
-386.72864090953669
 20
838.31613274124015
 30
0.0
 40
0.125
  1
Solid Crown
  0
TEXT
  5
CDD4
  8
0
 10
-386.72864090953669
 20
838.10779940790667
 30
0.0
 40
0.125
  1
TL-339
  0
TEXT
  5
CDD5
  8
0
 10
-386.72864090953669
 20
837.89946607457352
 30
0.0
 40
0.125
  1
1-5/8" x 2-5/8"
  0
TEXT
  5
CDD6
  8
0
 10
-386.72864090953669
 20
837.69113274124004
 30
0.0
 40
0.125
  1
800.66.TAGUE
  0
ENDBLK
  5
CDD8
  8
0
  0
ENDSEC
  0
SECTION
  2
ENTITIES
  0
LINE
  5
CD97
  8
0
 10
-388.48313858653671
 20
836.95067923417014
 30
0.0
 11
-388.7796370829787
 21
836.95067923417014
 31
0.0
  0
LINE
  5
CD98
  8
0
 10
-388.7796370829787
 20
836.95067923417014
 30
0.0
 11
-388.7796370829787
 21
839.57567923417025
 31
0.0
  0
LINE
  5
CD99
  8
0
 10
-388.7796370829787
 20
839.57567923417025
 30
0.0
 11
-387.14889535254792
 21
839.57567923417025
 31
0.0
  0
LINE
  5
CD9A
  8
0
 10
-387.14889535254792
 20
839.57567923417025
 30
0.0
 11
-387.14889535254792
 21
839.15600839279455
 31
0.0
  0
LINE
  5
CD9B
  8
0
 10
-388.18664009009473
 20
837.74887672684292
 30
0.0
 11
-388.18664009009473
 21
837.49378268330884
 31
0.0
  0
LINE
  5
CD9C
  8
0
 10
-388.18664009009473
 20
837.49378268330884
 30
0.0
 11
-388.29296373776612
 21
837.46445896478838
 31
0.0
  0
POLYLINE
  8
0
  5
CDD9
  66
     1
 10
0.000000
 20
0.000000
 30
0.000000
  70
     8
  0
VERTEX
  8
0
  5
CDDA
 10
-388.293
 20
837.464
 30
0.000000
  70
    32
  0
VERTEX
  8
0
  5
CDDB
 10
-388.293
 20
837.462
 30
0.000000
  70
    32
  0
VERTEX
  8
0
  5
CDDC
 10
-388.293
 20
837.460
 30
0.000000
  70
    32
  0
VERTEX
  8
0
  5
CDDD
 10
-388.293
 20
837.458
 30
0.000000
  70
    32
  0
VERTEX
  8
0
  5
CDDE
 10
-388.293
 20
837.455
 30
0.000000
  70
    32
  0
VERTEX
  8
0
  5
CDDF
 10
-388.293
 20
837.453
 30
0.000000
  70
    32
  0
VERTEX
  8
0
  5
CDE0
 10
-388.294
 20
837.451
 30
0.000000
  70
    32
  0
VERTEX
  8
0
  5
CDE1
 10
-388.294
 20
837.449
 30
0.000000
  70
    32
  0
VERTEX
  8
0
  5
CDE2
 10
-388.294
 20
837.447
 30
0.000000
  70
    32
  0
VERTEX
  8
0
  5
CDE3
 10
-388.294
 20
837.444
 30
0.000000
  70
    32
  0
VERTEX
  8
0
  5
CDE4
 10
-388.294
 20
837.442
 30
0.000000
  70
    32
  0
VERTEX
  8
0
  5
CDE5
 10
-388.294
 20
837.440
 30
0.000000
  70
    32
  0
VERTEX
  8
0
  5
CDE6
 10
-388.294
 20
837.438
 30
0.000000
  70
    32
  0
VERTEX
  8
0
  5
CDE7
 10
-388.294
 20
837.435
 30
0.000000
  70
    32
  0
VERTEX
  8
0
  5
CDE8
 10
-388.294
 20
837.433
 30
0.000000
  70
    32
  0
VERTEX
  8
0
  5
CDE9
 10
-388.294
 20
837.431
 30
0.000000
  70
    32
  0
VERTEX
  8
0
  5
CDEA
 10
-388.294
 20
837.429
 30
0.000000
  70
    32
  0
VERTEX
  8
0
  5
CDEB
 10
-388.294
 20
837.426
 30
0.000000
  70
    32
  0
VERTEX
  8
0
  5
CDEC
 10
-388.294
 20
837.424
 30
0.000000
  70
    32
  0
VERTEX
  8
0
  5
CDED
 10
-388.295
 20
837.422
 30
0.000000
  70
    32
  0
VERTEX
  8
0
  5
CDEE
 10
-388.295
 20
837.420
 30
0.000000
  70
    32
  0
VERTEX
  8
0
  5
CDEF
 10
-388.295
 20
837.417
 30
0.000000
  70
    32
  0
VERTEX
  8
0
  5
CDF0
 10
-388.295
 20
837.415
 30
0.000000
  70
    32
  0
VERTEX
  8
0
  5
CDF1
 10
-388.295
 20
837.413
 30
0.000000
  70
    32
  0
VERTEX
  8
0
  5
CDF2
 10
-388.295
 20
837.411
 30
0.000000
  70
    32
  0
VERTEX
  8
0
  5
CDF3
 10
-388.295
 20
837.408
 30
0.000000
  70
    32
  0
VERTEX
  8
0
  5
CDF4
 10
-388.295
 20
837.406
 30
0.000000
  70
    32
  0
VERTEX
  8
0
  5
CDF5
 10
-388.295
 20
837.404
 30
0.000000
  70
    32
  0
VERTEX
  8
0
  5
CDF6
 10
-388.295
 20
837.402
 30
0.000000
  70
    32
  0
VERTEX
  8
0
  5
CDF7
 10
-388.295
 20
837.399
 30
0.000000
  70
    32
  0
VERTEX
  8
0
  5
CDF8
 10
-388.296
 20
837.397
 30
0.000000
  70
    32
  0
VERTEX
  8
0
  5
CDF9
 10
-388.296
 20
837.395
 30
0.000000
  70
    32
  0
VERTEX
  8
0
  5
CDFA
 10
-388.296
 20
837.393
 30
0.000000
  70
    32
  0
VERTEX
  8
0
  5
CDFB
 10
-388.296
 20
837.390
 30
0.000000
  70
    32
  0
VERTEX
  8
0
  5
CDFC
 10
-388.296
 20
837.388
 30
0.000000
  70
    32
  0
VERTEX
  8
0
  5
CDFD
 10
-388.296
 20
837.386
 30
0.000000
  70
    32
  0
VERTEX
  8
0
  5
CDFE
 10
-388.296
 20
837.384
 30
0.000000
  70
    32
  0
VERTEX
  8
0
  5
CDFF
 10
-388.297
 20
837.381
 30
0.000000
  70
    32
  0
VERTEX
  8
0
  5
CE00
 10
-388.297
 20
837.379
 30
0.000000
  70
    32
  0
VERTEX
  8
0
  5
CE01
 10
-388.297
 20
837.377
 30
0.000000
  70
    32
  0
VERTEX
  8
0
  5
CE02
 10
-388.297
 20
837.375
 30
0.000000
  70
    32
  0
VERTEX
  8
0
  5
CE03
 10
-388.297
 20
837.372
 30
0.000000
  70
    32
  0
VERTEX
  8
0
  5
CE04
 10
-388.297
 20
837.370
 30
0.000000
  70
    32
  0
VERTEX
  8
0
  5
CE05
 10
-388.298
 20
837.368
 30
0.000000
  70
    32
  0
VERTEX
  8
0
  5
CE06
 10
-388.298
 20
837.366
 30
0.000000
  70
    32
  0
VERTEX
  8
0
  5
CE07
 10
-388.298
 20
837.363
 30
0.000000
  70
    32
  0
VERTEX
  8
0
  5
CE08
 10
-388.298
 20
837.361
 30
0.000000
  70
    32
  0
VERTEX
  8
0
  5
CE09
 10
-388.299
 20
837.359
 30
0.000000
  70
    32
  0
VERTEX
  8
0
  5
CE0A
 10
-388.299
 20
837.357
 30
0.000000
  70
    32
  0
VERTEX
  8
0
  5
CE0B
 10
-388.299
 20
837.355
 30
0.000000
  70
    32
  0
VERTEX
  8
0
  5
CE0C
 10
-388.299
 20
837.352
 30
0.000000
  70
    32
  0
VERTEX
  8
0
  5
CE0D
 10
-388.300
 20
837.350
 30
0.000000
  70
    32
  0
VERTEX
  8
0
  5
CE0E
 10
-388.300
 20
837.348
 30
0.000000
  70
    32
  0
VERTEX
  8
0
  5
CE0F
 10
-388.300
 20
837.346
 30
0.000000
  70
    32
  0
VERTEX
  8
0
  5
CE10
 10
-388.301
 20
837.343
 30
0.000000
  70
    32
  0
VERTEX
  8
0
  5
CE11
 10
-388.301
 20
837.341
 30
0.000000
  70
    32
  0
VERTEX
  8
0
  5
CE12
 10
-388.301
 20
837.339
 30
0.000000
  70
    32
  0
VERTEX
  8
0
  5
CE13
 10
-388.302
 20
837.337
 30
0.000000
  70
    32
  0
VERTEX
  8
0
  5
CE14
 10
-388.302
 20
837.335
 30
0.000000
  70
    32
  0
VERTEX
  8
0
  5
CE15
 10
-388.303
 20
837.332
 30
0.000000
  70
    32
  0
VERTEX
  8
0
  5
CE16
 10
-388.303
 20
837.330
 30
0.000000
  70
    32
  0
VERTEX
  8
0
  5
CE17
 10
-388.304
 20
837.328
 30
0.000000
  70
    32
  0
VERTEX
  8
0
  5
CE18
 10
-388.304
 20
837.326
 30
0.000000
  70
    32
  0
VERTEX
  8
0
  5
CE19
 10
-388.305
 20
837.324
 30
0.000000
  70
    32
  0
VERTEX
  8
0
  5
CE1A
 10
-388.305
 20
837.321
 30
0.000000
  70
    32
  0
VERTEX
  8
0
  5
CE1B
 10
-388.306
 20
837.319
 30
0.000000
  70
    32
  0
VERTEX
  8
0
  5
CE1C
 10
-388.306
 20
837.317
 30
0.000000
  70
    32
  0
VERTEX
  8
0
  5
CE1D
 10
-388.307
 20
837.315
 30
0.000000
  70
    32
  0
VERTEX
  8
0
  5
CE1E
 10
-388.307
 20
837.313
 30
0.000000
  70
    32
  0
VERTEX
  8
0
  5
CE1F
 10
-388.308
 20
837.310
 30
0.000000
  70
    32
  0
VERTEX
  8
0
  5
CE20
 10
-388.308
 20
837.308
 30
0.000000
  70
    32
  0
VERTEX
  8
0
  5
CE21
 10
-388.309
 20
837.306
 30
0.000000
  70
    32
  0
VERTEX
  8
0
  5
CE22
 10
-388.310
 20
837.304
 30
0.000000
  70
    32
  0
VERTEX
  8
0
  5
CE23
 10
-388.310
 20
837.302
 30
0.000000
  70
    32
  0
VERTEX
  8
0
  5
CE24
 10
-388.311
 20
837.300
 30
0.000000
  70
    32
  0
VERTEX
  8
0
  5
CE25
 10
-388.312
 20
837.297
 30
0.000000
  70
    32
  0
VERTEX
  8
0
  5
CE26
 10
-388.313
 20
837.295
 30
0.000000
  70
    32
  0
VERTEX
  8
0
  5
CE27
 10
-388.313
 20
837.293
 30
0.000000
  70
    32
  0
VERTEX
  8
0
  5
CE28
 10
-388.314
 20
837.291
 30
0.000000
  70
    32
  0
VERTEX
  8
0
  5
CE29
 10
-388.315
 20
837.289
 30
0.000000
  70
    32
  0
VERTEX
  8
0
  5
CE2A
 10
-388.316
 20
837.287
 30
0.000000
  70
    32
  0
VERTEX
  8
0
  5
CE2B
 10
-388.317
 20
837.285
 30
0.000000
  70
    32
  0
VERTEX
  8
0
  5
CE2C
 10
-388.317
 20
837.282
 30
0.000000
  70
    32
  0
VERTEX
  8
0
  5
CE2D
 10
-388.318
 20
837.280
 30
0.000000
  70
    32
  0
VERTEX
  8
0
  5
CE2E
 10
-388.319
 20
837.278
 30
0.000000
  70
    32
  0
VERTEX
  8
0
  5
CE2F
 10
-388.320
 20
837.276
 30
0.000000
  70
    32
  0
VERTEX
  8
0
  5
CE30
 10
-388.321
 20
837.274
 30
0.000000
  70
    32
  0
VERTEX
  8
0
  5
CE31
 10
-388.322
 20
837.272
 30
0.000000
  70
    32
  0
VERTEX
  8
0
  5
CE32
 10
-388.323
 20
837.270
 30
0.000000
  70
    32
  0
VERTEX
  8
0
  5
CE33
 10
-388.324
 20
837.268
 30
0.000000
  70
    32
  0
VERTEX
  8
0
  5
CE34
 10
-388.325
 20
837.266
 30
0.000000
  70
    32
  0
VERTEX
  8
0
  5
CE35
 10
-388.326
 20
837.264
 30
0.000000
  70
    32
  0
VERTEX
  8
0
  5
CE36
 10
-388.327
 20
837.262
 30
0.000000
  70
    32
  0
VERTEX
  8
0
  5
CE37
 10
-388.328
 20
837.260
 30
0.000000
  70
    32
  0
VERTEX
  8
0
  5
CE38
 10
-388.329
 20
837.258
 30
0.000000
  70
    32
  0
VERTEX
  8
0
  5
CE39
 10
-388.330
 20
837.256
 30
0.000000
  70
    32
  0
VERTEX
  8
0
  5
CE3A
 10
-388.332
 20
837.254
 30
0.000000
  70
    32
  0
VERTEX
  8
0
  5
CE3B
 10
-388.333
 20
837.252
 30
0.000000
  70
    32
  0
VERTEX
  8
0
  5
CE3C
 10
-388.334
 20
837.250
 30
0.000000
  70
    32
  0
VERTEX
  8
0
  5
CE3D
 10
-388.335
 20
837.249
 30
0.000000
  70
    32
  0
VERTEX
  8
0
  5
CE3E
 10
-388.336
 20
837.247
 30
0.000000
  70
    32
  0
VERTEX
  8
0
  5
CE3F
 10
-388.338
 20
837.245
 30
0.000000
  70
    32
  0
VERTEX
  8
0
  5
CE40
 10
-388.339
 20
837.243
 30
0.000000
  70
    32
  0
VERTEX
  8
0
  5
CE41
 10
-388.340
 20
837.241
 30
0.000000
  70
    32
  0
VERTEX
  8
0
  5
CE42
 10
-388.342
 20
837.239
 30
0.000000
  70
    32
  0
VERTEX
  8
0
  5
CE43
 10
-388.343
 20
837.238
 30
0.000000
  70
    32
  0
VERTEX
  8
0
  5
CE44
 10
-388.344
 20
837.236
 30
0.000000
  70
    32
  0
VERTEX
  8
0
  5
CE45
 10
-388.346
 20
837.234
 30
0.000000
  70
    32
  0
VERTEX
  8
0
  5
CE46
 10
-388.347
 20
837.232
 30
0.000000
  70
    32
  0
VERTEX
  8
0
  5
CE47
 10
-388.348
 20
837.231
 30
0.000000
  70
    32
  0
VERTEX
  8
0
  5
CE48
 10
-388.350
 20
837.229
 30
0.000000
  70
    32
  0
VERTEX
  8
0
  5
CE49
 10
-388.351
 20
837.227
 30
0.000000
  70
    32
  0
VERTEX
  8
0
  5
CE4A
 10
-388.353
 20
837.226
 30
0.000000
  70
    32
  0
VERTEX
  8
0
  5
CE4B
 10
-388.354
 20
837.224
 30
0.000000
  70
    32
  0
VERTEX
  8
0
  5
CE4C
 10
-388.356
 20
837.222
 30
0.000000
  70
    32
  0
VERTEX
  8
0
  5
CE4D
 10
-388.357
 20
837.221
 30
0.000000
  70
    32
  0
VERTEX
  8
0
  5
CE4E
 10
-388.359
 20
837.219
 30
0.000000
  70
    32
  0
VERTEX
  8
0
  5
CE4F
 10
-388.360
 20
837.218
 30
0.000000
  70
    32
  0
VERTEX
  8
0
  5
CE50
 10
-388.362
 20
837.216
 30
0.000000
  70
    32
  0
VERTEX
  8
0
  5
CE51
 10
-388.364
 20
837.214
 30
0.000000
  70
    32
  0
VERTEX
  8
0
  5
CE52
 10
-388.365
 20
837.213
 30
0.000000
  70
    32
  0
VERTEX
  8
0
  5
CE53
 10
-388.367
 20
837.211
 30
0.000000
  70
    32
  0
VERTEX
  8
0
  5
CE54
 10
-388.368
 20
837.210
 30
0.000000
  70
    32
  0
VERTEX
  8
0
  5
CE55
 10
-388.370
 20
837.208
 30
0.000000
  70
    32
  0
VERTEX
  8
0
  5
CE56
 10
-388.372
 20
837.207
 30
0.000000
  70
    32
  0
VERTEX
  8
0
  5
CE57
 10
-388.373
 20
837.205
 30
0.000000
  70
    32
  0
VERTEX
  8
0
  5
CE58
 10
-388.375
 20
837.204
 30
0.000000
  70
    32
  0
VERTEX
  8
0
  5
CE59
 10
-388.377
 20
837.202
 30
0.000000
  70
    32
  0
VERTEX
  8
0
  5
CE5A
 10
-388.378
 20
837.201
 30
0.000000
  70
    32
  0
VERTEX
  8
0
  5
CE5B
 10
-388.380
 20
837.199
 30
0.000000
  70
    32
  0
VERTEX
  8
0
  5
CE5C
 10
-388.382
 20
837.198
 30
0.000000
  70
    32
  0
VERTEX
  8
0
  5
CE5D
 10
-388.383
 20
837.196
 30
0.000000
  70
    32
  0
VERTEX
  8
0
  5
CE5E
 10
-388.385
 20
837.195
 30
0.000000
  70
    32
  0
VERTEX
  8
0
  5
CE5F
 10
-388.387
 20
837.193
 30
0.000000
  70
    32
  0
VERTEX
  8
0
  5
CE60
 10
-388.389
 20
837.192
 30
0.000000
  70
    32
  0
VERTEX
  8
0
  5
CE61
 10
-388.390
 20
837.190
 30
0.000000
  70
    32
  0
VERTEX
  8
0
  5
CE62
 10
-388.392
 20
837.189
 30
0.000000
  70
    32
  0
VERTEX
  8
0
  5
CE63
 10
-388.394
 20
837.187
 30
0.000000
  70
    32
  0
VERTEX
  8
0
  5
CE64
 10
-388.395
 20
837.186
 30
0.000000
  70
    32
  0
VERTEX
  8
0
  5
CE65
 10
-388.397
 20
837.184
 30
0.000000
  70
    32
  0
VERTEX
  8
0
  5
CE66
 10
-388.399
 20
837.183
 30
0.000000
  70
    32
  0
VERTEX
  8
0
  5
CE67
 10
-388.401
 20
837.181
 30
0.000000
  70
    32
  0
VERTEX
  8
0
  5
CE68
 10
-388.402
 20
837.179
 30
0.000000
  70
    32
  0
VERTEX
  8
0
  5
CE69
 10
-388.404
 20
837.178
 30
0.000000
  70
    32
  0
VERTEX
  8
0
  5
CE6A
 10
-388.406
 20
837.176
 30
0.000000
  70
    32
  0
VERTEX
  8
0
  5
CE6B
 10
-388.408
 20
837.175
 30
0.000000
  70
    32
  0
VERTEX
  8
0
  5
CE6C
 10
-388.409
 20
837.173
 30
0.000000
  70
    32
  0
VERTEX
  8
0
  5
CE6D
 10
-388.411
 20
837.172
 30
0.000000
  70
    32
  0
VERTEX
  8
0
  5
CE6E
 10
-388.413
 20
837.170
 30
0.000000
  70
    32
  0
VERTEX
  8
0
  5
CE6F
 10
-388.414
 20
837.169
 30
0.000000
  70
    32
  0
VERTEX
  8
0
  5
CE70
 10
-388.416
 20
837.167
 30
0.000000
  70
    32
  0
VERTEX
  8
0
  5
CE71
 10
-388.418
 20
837.165
 30
0.000000
  70
    32
  0
VERTEX
  8
0
  5
CE72
 10
-388.419
 20
837.164
 30
0.000000
  70
    32
  0
VERTEX
  8
0
  5
CE73
 10
-388.421
 20
837.162
 30
0.000000
  70
    32
  0
VERTEX
  8
0
  5
CE74
 10
-388.423
 20
837.161
 30
0.000000
  70
    32
  0
VERTEX
  8
0
  5
CE75
 10
-388.424
 20
837.159
 30
0.000000
  70
    32
  0
VERTEX
  8
0
  5
CE76
 10
-388.426
 20
837.157
 30
0.000000
  70
    32
  0
VERTEX
  8
0
  5
CE77
 10
-388.428
 20
837.156
 30
0.000000
  70
    32
  0
VERTEX
  8
0
  5
CE78
 10
-388.429
 20
837.154
 30
0.000000
  70
    32
  0
VERTEX
  8
0
  5
CE79
 10
-388.431
 20
837.152
 30
0.000000
  70
    32
  0
VERTEX
  8
0
  5
CE7A
 10
-388.432
 20
837.151
 30
0.000000
  70
    32
  0
VERTEX
  8
0
  5
CE7B
 10
-388.434
 20
837.149
 30
0.000000
  70
    32
  0
VERTEX
  8
0
  5
CE7C
 10
-388.436
 20
837.147
 30
0.000000
  70
    32
  0
VERTEX
  8
0
  5
CE7D
 10
-388.437
 20
837.146
 30
0.000000
  70
    32
  0
VERTEX
  8
0
  5
CE7E
 10
-388.439
 20
837.144
 30
0.000000
  70
    32
  0
VERTEX
  8
0
  5
CE7F
 10
-388.440
 20
837.142
 30
0.000000
  70
    32
  0
VERTEX
  8
0
  5
CE80
 10
-388.442
 20
837.141
 30
0.000000
  70
    32
  0
VERTEX
  8
0
  5
CE81
 10
-388.443
 20
837.139
 30
0.000000
  70
    32
  0
VERTEX
  8
0
  5
CE82
 10
-388.445
 20
837.137
 30
0.000000
  70
    32
  0
VERTEX
  8
0
  5
CE83
 10
-388.446
 20
837.135
 30
0.000000
  70
    32
  0
VERTEX
  8
0
  5
CE84
 10
-388.447
 20
837.134
 30
0.000000
  70
    32
  0
VERTEX
  8
0
  5
CE85
 10
-388.449
 20
837.132
 30
0.000000
  70
    32
  0
VERTEX
  8
0
  5
CE86
 10
-388.450
 20
837.130
 30
0.000000
  70
    32
  0
VERTEX
  8
0
  5
CE87
 10
-388.452
 20
837.128
 30
0.000000
  70
    32
  0
VERTEX
  8
0
  5
CE88
 10
-388.453
 20
837.127
 30
0.000000
  70
    32
  0
VERTEX
  8
0
  5
CE89
 10
-388.454
 20
837.125
 30
0.000000
  70
    32
  0
VERTEX
  8
0
  5
CE8A
 10
-388.455
 20
837.123
 30
0.000000
  70
    32
  0
VERTEX
  8
0
  5
CE8B
 10
-388.457
 20
837.121
 30
0.000000
  70
    32
  0
VERTEX
  8
0
  5
CE8C
 10
-388.458
 20
837.119
 30
0.000000
  70
    32
  0
VERTEX
  8
0
  5
CE8D
 10
-388.459
 20
837.117
 30
0.000000
  70
    32
  0
VERTEX
  8
0
  5
CE8E
 10
-388.460
 20
837.116
 30
0.000000
  70
    32
  0
VERTEX
  8
0
  5
CE8F
 10
-388.461
 20
837.114
 30
0.000000
  70
    32
  0
VERTEX
  8
0
  5
CE90
 10
-388.463
 20
837.112
 30
0.000000
  70
    32
  0
VERTEX
  8
0
  5
CE91
 10
-388.464
 20
837.110
 30
0.000000
  70
    32
  0
VERTEX
  8
0
  5
CE92
 10
-388.465
 20
837.108
 30
0.000000
  70
    32
  0
VERTEX
  8
0
  5
CE93
 10
-388.466
 20
837.106
 30
0.000000
  70
    32
  0
VERTEX
  8
0
  5
CE94
 10
-388.467
 20
837.104
 30
0.000000
  70
    32
  0
VERTEX
  8
0
  5
CE95
 10
-388.468
 20
837.102
 30
0.000000
  70
    32
  0
VERTEX
  8
0
  5
CE96
 10
-388.469
 20
837.100
 30
0.000000
  70
    32
  0
VERTEX
  8
0
  5
CE97
 10
-388.469
 20
837.098
 30
0.000000
  70
    32
  0
VERTEX
  8
0
  5
CE98
 10
-388.470
 20
837.096
 30
0.000000
  70
    32
  0
VERTEX
  8
0
  5
CE99
 10
-388.471
 20
837.094
 30
0.000000
  70
    32
  0
VERTEX
  8
0
  5
CE9A
 10
-388.472
 20
837.092
 30
0.000000
  70
    32
  0
VERTEX
  8
0
  5
CE9B
 10
-388.473
 20
837.090
 30
0.000000
  70
    32
  0
VERTEX
  8
0
  5
CE9C
 10
-388.473
 20
837.088
 30
0.000000
  70
    32
  0
VERTEX
  8
0
  5
CE9D
 10
-388.474
 20
837.086
 30
0.000000
  70
    32
  0
VERTEX
  8
0
  5
CE9E
 10
-388.475
 20
837.084
 30
0.000000
  70
    32
  0
VERTEX
  8
0
  5
CE9F
 10
-388.475
 20
837.082
 30
0.000000
  70
    32
  0
VERTEX
  8
0
  5
CEA0
 10
-388.476
 20
837.080
 30
0.000000
  70
    32
  0
VERTEX
  8
0
  5
CEA1
 10
-388.476
 20
837.078
 30
0.000000
  70
    32
  0
VERTEX
  8
0
  5
CEA2
 10
-388.477
 20
837.075
 30
0.000000
  70
    32
  0
VERTEX
  8
0
  5
CEA3
 10
-388.478
 20
837.073
 30
0.000000
  70
    32
  0
VERTEX
  8
0
  5
CEA4
 10
-388.478
 20
837.071
 30
0.000000
  70
    32
  0
VERTEX
  8
0
  5
CEA5
 10
-388.478
 20
837.069
 30
0.000000
  70
    32
  0
VERTEX
  8
0
  5
CEA6
 10
-388.479
 20
837.067
 30
0.000000
  70
    32
  0
VERTEX
  8
0
  5
CEA7
 10
-388.479
 20
837.065
 30
0.000000
  70
    32
  0
VERTEX
  8
0
  5
CEA8
 10
-388.480
 20
837.062
 30
0.000000
  70
    32
  0
VERTEX
  8
0
  5
CEA9
 10
-388.480
 20
837.060
 30
0.000000
  70
    32
  0
VERTEX
  8
0
  5
CEAA
 10
-388.480
 20
837.058
 30
0.000000
  70
    32
  0
VERTEX
  8
0
  5
CEAB
 10
-388.481
 20
837.056
 30
0.000000
  70
    32
  0
VERTEX
  8
0
  5
CEAC
 10
-388.481
 20
837.054
 30
0.000000
  70
    32
  0
VERTEX
  8
0
  5
CEAD
 10
-388.481
 20
837.051
 30
0.000000
  70
    32
  0
VERTEX
  8
0
  5
CEAE
 10
-388.482
 20
837.049
 30
0.000000
  70
    32
  0
VERTEX
  8
0
  5
CEAF
 10
-388.482
 20
837.047
 30
0.000000
  70
    32
  0
VERTEX
  8
0
  5
CEB0
 10
-388.482
 20
837.045
 30
0.000000
  70
    32
  0
VERTEX
  8
0
  5
CEB1
 10
-388.482
 20
837.042
 30
0.000000
  70
    32
  0
VERTEX
  8
0
  5
CEB2
 10
-388.482
 20
837.040
 30
0.000000
  70
    32
  0
VERTEX
  8
0
  5
CEB3
 10
-388.483
 20
837.038
 30
0.000000
  70
    32
  0
VERTEX
  8
0
  5
CEB4
 10
-388.483
 20
837.036
 30
0.000000
  70
    32
  0
VERTEX
  8
0
  5
CEB5
 10
-388.483
 20
837.033
 30
0.000000
  70
    32
  0
VERTEX
  8
0
  5
CEB6
 10
-388.483
 20
837.031
 30
0.000000
  70
    32
  0
VERTEX
  8
0
  5
CEB7
 10
-388.483
 20
837.029
 30
0.000000
  70
    32
  0
VERTEX
  8
0
  5
CEB8
 10
-388.483
 20
837.026
 30
0.000000
  70
    32
  0
VERTEX
  8
0
  5
CEB9
 10
-388.483
 20
837.024
 30
0.000000
  70
    32
  0
VERTEX
  8
0
  5
CEBA
 10
-388.483
 20
837.022
 30
0.000000
  70
    32
  0
VERTEX
  8
0
  5
CEBB
 10
-388.483
 20
837.020
 30
0.000000
  70
    32
  0
VERTEX
  8
0
  5
CEBC
 10
-388.483
 20
837.017
 30
0.000000
  70
    32
  0
VERTEX
  8
0
  5
CEBD
 10
-388.483
 20
837.015
 30
0.000000
  70
    32
  0
VERTEX
  8
0
  5
CEBE
 10
-388.483
 20
837.013
 30
0.000000
  70
    32
  0
VERTEX
  8
0
  5
CEBF
 10
-388.483
 20
837.010
 30
0.000000
  70
    32
  0
VERTEX
  8
0
  5
CEC0
 10
-388.483
 20
837.008
 30
0.000000
  70
    32
  0
VERTEX
  8
0
  5
CEC1
 10
-388.483
 20
837.006
 30
0.000000
  70
    32
  0
VERTEX
  8
0
  5
CEC2
 10
-388.483
 20
837.003
 30
0.000000
  70
    32
  0
VERTEX
  8
0
  5
CEC3
 10
-388.483
 20
837.001
 30
0.000000
  70
    32
  0
VERTEX
  8
0
  5
CEC4
 10
-388.483
 20
836.999
 30
0.000000
  70
    32
  0
VERTEX
  8
0
  5
CEC5
 10
-388.483
 20
836.996
 30
0.000000
  70
    32
  0
VERTEX
  8
0
  5
CEC6
 10
-388.483
 20
836.994
 30
0.000000
  70
    32
  0
VERTEX
  8
0
  5
CEC7
 10
-388.483
 20
836.992
 30
0.000000
  70
    32
  0
VERTEX
  8
0
  5
CEC8
 10
-388.483
 20
836.990
 30
0.000000
  70
    32
  0
VERTEX
  8
0
  5
CEC9
 10
-388.483
 20
836.987
 30
0.000000
  70
    32
  0
VERTEX
  8
0
  5
CECA
 10
-388.483
 20
836.985
 30
0.000000
  70
    32
  0
VERTEX
  8
0
  5
CECB
 10
-388.483
 20
836.983
 30
0.000000
  70
    32
  0
VERTEX
  8
0
  5
CECC
 10
-388.483
 20
836.980
 30
0.000000
  70
    32
  0
VERTEX
  8
0
  5
CECD
 10
-388.483
 20
836.978
 30
0.000000
  70
    32
  0
VERTEX
  8
0
  5
CECE
 10
-388.483
 20
836.976
 30
0.000000
  70
    32
  0
VERTEX
  8
0
  5
CECF
 10
-388.483
 20
836.973
 30
0.000000
  70
    32
  0
VERTEX
  8
0
  5
CED0
 10
-388.483
 20
836.971
 30
0.000000
  70
    32
  0
VERTEX
  8
0
  5
CED1
 10
-388.483
 20
836.969
 30
0.000000
  70
    32
  0
VERTEX
  8
0
  5
CED2
 10
-388.483
 20
836.967
 30
0.000000
  70
    32
  0
VERTEX
  8
0
  5
CED3
 10
-388.483
 20
836.964
 30
0.000000
  70
    32
  0
VERTEX
  8
0
  5
CED4
 10
-388.483
 20
836.962
 30
0.000000
  70
    32
  0
VERTEX
  8
0
  5
CED5
 10
-388.483
 20
836.960
 30
0.000000
  70
    32
  0
VERTEX
  8
0
  5
CED6
 10
-388.483
 20
836.957
 30
0.000000
  70
    32
  0
VERTEX
  8
0
  5
CED7
 10
-388.483
 20
836.955
 30
0.000000
  70
    32
  0
VERTEX
  8
0
  5
CED8
 10
-388.483
 20
836.953
 30
0.000000
  70
    32
  0
VERTEX
  8
0
  5
CED9
 10
-388.483
 20
836.951
 30
0.000000
  70
    32
  0
SEQEND
  8
0
  5
CEDA
  0
POLYLINE
  8
0
  5
CEDB
  66
     1
 10
0.000000
 20
0.000000
 30
0.000000
  70
     8
  0
VERTEX
  8
0
  5
CEDC
 10
-387.149
 20
839.156
 30
0.000000
  70
    32
  0
VERTEX
  8
0
  5
CEDD
 10
-387.155
 20
839.155
 30
0.000000
  70
    32
  0
VERTEX
  8
0
  5
CEDE
 10
-387.162
 20
839.155
 30
0.000000
  70
    32
  0
VERTEX
  8
0
  5
CEDF
 10
-387.168
 20
839.154
 30
0.000000
  70
    32
  0
VERTEX
  8
0
  5
CEE0
 10
-387.175
 20
839.153
 30
0.000000
  70
    32
  0
VERTEX
  8
0
  5
CEE1
 10
-387.182
 20
839.153
 30
0.000000
  70
    32
  0
VERTEX
  8
0
  5
CEE2
 10
-387.188
 20
839.152
 30
0.000000
  70
    32
  0
VERTEX
  8
0
  5
CEE3
 10
-387.195
 20
839.151
 30
0.000000
  70
    32
  0
VERTEX
  8
0
  5
CEE4
 10
-387.201
 20
839.150
 30
0.000000
  70
    32
  0
VERTEX
  8
0
  5
CEE5
 10
-387.208
 20
839.149
 30
0.000000
  70
    32
  0
VERTEX
  8
0
  5
CEE6
 10
-387.214
 20
839.148
 30
0.000000
  70
    32
  0
VERTEX
  8
0
  5
CEE7
 10
-387.221
 20
839.147
 30
0.000000
  70
    32
  0
VERTEX
  8
0
  5
CEE8
 10
-387.228
 20
839.146
 30
0.000000
  70
    32
  0
VERTEX
  8
0
  5
CEE9
 10
-387.234
 20
839.145
 30
0.000000
  70
    32
  0
VERTEX
  8
0
  5
CEEA
 10
-387.241
 20
839.143
 30
0.000000
  70
    32
  0
VERTEX
  8
0
  5
CEEB
 10
-387.247
 20
839.142
 30
0.000000
  70
    32
  0
VERTEX
  8
0
  5
CEEC
 10
-387.254
 20
839.141
 30
0.000000
  70
    32
  0
VERTEX
  8
0
  5
CEED
 10
-387.260
 20
839.139
 30
0.000000
  70
    32
  0
VERTEX
  8
0
  5
CEEE
 10
-387.267
 20
839.138
 30
0.000000
  70
    32
  0
VERTEX
  8
0
  5
CEEF
 10
-387.273
 20
839.136
 30
0.000000
  70
    32
  0
VERTEX
  8
0
  5
CEF0
 10
-387.280
 20
839.135
 30
0.000000
  70
    32
  0
VERTEX
  8
0
  5
CEF1
 10
-387.286
 20
839.133
 30
0.000000
  70
    32
  0
VERTEX
  8
0
  5
CEF2
 10
-387.293
 20
839.131
 30
0.000000
  70
    32
  0
VERTEX
  8
0
  5
CEF3
 10
-387.299
 20
839.130
 30
0.000000
  70
    32
  0
VERTEX
  8
0
  5
CEF4
 10
-387.305
 20
839.128
 30
0.000000
  70
    32
  0
VERTEX
  8
0
  5
CEF5
 10
-387.312
 20
839.126
 30
0.000000
  70
    32
  0
VERTEX
  8
0
  5
CEF6
 10
-387.318
 20
839.124
 30
0.000000
  70
    32
  0
VERTEX
  8
0
  5
CEF7
 10
-387.324
 20
839.122
 30
0.000000
  70
    32
  0
VERTEX
  8
0
  5
CEF8
 10
-387.331
 20
839.120
 30
0.000000
  70
    32
  0
VERTEX
  8
0
  5
CEF9
 10
-387.337
 20
839.117
 30
0.000000
  70
    32
  0
VERTEX
  8
0
  5
CEFA
 10
-387.343
 20
839.115
 30
0.000000
  70
    32
  0
VERTEX
  8
0
  5
CEFB
 10
-387.349
 20
839.113
 30
0.000000
  70
    32
  0
VERTEX
  8
0
  5
CEFC
 10
-387.355
 20
839.110
 30
0.000000
  70
    32
  0
VERTEX
  8
0
  5
CEFD
 10
-387.361
 20
839.108
 30
0.000000
  70
    32
  0
VERTEX
  8
0
  5
CEFE
 10
-387.367
 20
839.105
 30
0.000000
  70
    32
  0
VERTEX
  8
0
  5
CEFF
 10
-387.373
 20
839.102
 30
0.000000
  70
    32
  0
VERTEX
  8
0
  5
CF00
 10
-387.379
 20
839.100
 30
0.000000
  70
    32
  0
VERTEX
  8
0
  5
CF01
 10
-387.385
 20
839.097
 30
0.000000
  70
    32
  0
VERTEX
  8
0
  5
CF02
 10
-387.391
 20
839.094
 30
0.000000
  70
    32
  0
VERTEX
  8
0
  5
CF03
 10
-387.397
 20
839.091
 30
0.000000
  70
    32
  0
VERTEX
  8
0
  5
CF04
 10
-387.403
 20
839.088
 30
0.000000
  70
    32
  0
VERTEX
  8
0
  5
CF05
 10
-387.408
 20
839.085
 30
0.000000
  70
    32
  0
VERTEX
  8
0
  5
CF06
 10
-387.414
 20
839.081
 30
0.000000
  70
    32
  0
VERTEX
  8
0
  5
CF07
 10
-387.419
 20
839.078
 30
0.000000
  70
    32
  0
VERTEX
  8
0
  5
CF08
 10
-387.425
 20
839.074
 30
0.000000
  70
    32
  0
VERTEX
  8
0
  5
CF09
 10
-387.430
 20
839.071
 30
0.000000
  70
    32
  0
VERTEX
  8
0
  5
CF0A
 10
-387.436
 20
839.067
 30
0.000000
  70
    32
  0
VERTEX
  8
0
  5
CF0B
 10
-387.441
 20
839.063
 30
0.000000
  70
    32
  0
VERTEX
  8
0
  5
CF0C
 10
-387.446
 20
839.060
 30
0.000000
  70
    32
  0
VERTEX
  8
0
  5
CF0D
 10
-387.452
 20
839.056
 30
0.000000
  70
    32
  0
VERTEX
  8
0
  5
CF0E
 10
-387.457
 20
839.052
 30
0.000000
  70
    32
  0
VERTEX
  8
0
  5
CF0F
 10
-387.462
 20
839.047
 30
0.000000
  70
    32
  0
VERTEX
  8
0
  5
CF10
 10
-387.467
 20
839.043
 30
0.000000
  70
    32
  0
VERTEX
  8
0
  5
CF11
 10
-387.472
 20
839.039
 30
0.000000
  70
    32
  0
VERTEX
  8
0
  5
CF12
 10
-387.477
 20
839.035
 30
0.000000
  70
    32
  0
VERTEX
  8
0
  5
CF13
 10
-387.482
 20
839.030
 30
0.000000
  70
    32
  0
VERTEX
  8
0
  5
CF14
 10
-387.486
 20
839.026
 30
0.000000
  70
    32
  0
VERTEX
  8
0
  5
CF15
 10
-387.491
 20
839.021
 30
0.000000
  70
    32
  0
VERTEX
  8
0
  5
CF16
 10
-387.496
 20
839.017
 30
0.000000
  70
    32
  0
VERTEX
  8
0
  5
CF17
 10
-387.500
 20
839.012
 30
0.000000
  70
    32
  0
VERTEX
  8
0
  5
CF18
 10
-387.505
 20
839.007
 30
0.000000
  70
    32
  0
VERTEX
  8
0
  5
CF19
 10
-387.509
 20
839.002
 30
0.000000
  70
    32
  0
VERTEX
  8
0
  5
CF1A
 10
-387.514
 20
838.997
 30
0.000000
  70
    32
  0
VERTEX
  8
0
  5
CF1B
 10
-387.518
 20
838.992
 30
0.000000
  70
    32
  0
VERTEX
  8
0
  5
CF1C
 10
-387.523
 20
838.987
 30
0.000000
  70
    32
  0
VERTEX
  8
0
  5
CF1D
 10
-387.527
 20
838.982
 30
0.000000
  70
    32
  0
VERTEX
  8
0
  5
CF1E
 10
-387.531
 20
838.977
 30
0.000000
  70
    32
  0
VERTEX
  8
0
  5
CF1F
 10
-387.535
 20
838.972
 30
0.000000
  70
    32
  0
VERTEX
  8
0
  5
CF20
 10
-387.539
 20
838.967
 30
0.000000
  70
    32
  0
VERTEX
  8
0
  5
CF21
 10
-387.543
 20
838.962
 30
0.000000
  70
    32
  0
VERTEX
  8
0
  5
CF22
 10
-387.547
 20
838.956
 30
0.000000
  70
    32
  0
VERTEX
  8
0
  5
CF23
 10
-387.551
 20
838.951
 30
0.000000
  70
    32
  0
VERTEX
  8
0
  5
CF24
 10
-387.555
 20
838.946
 30
0.000000
  70
    32
  0
VERTEX
  8
0
  5
CF25
 10
-387.559
 20
838.940
 30
0.000000
  70
    32
  0
VERTEX
  8
0
  5
CF26
 10
-387.563
 20
838.935
 30
0.000000
  70
    32
  0
VERTEX
  8
0
  5
CF27
 10
-387.567
 20
838.929
 30
0.000000
  70
    32
  0
VERTEX
  8
0
  5
CF28
 10
-387.570
 20
838.924
 30
0.000000
  70
    32
  0
VERTEX
  8
0
  5
CF29
 10
-387.574
 20
838.918
 30
0.000000
  70
    32
  0
VERTEX
  8
0
  5
CF2A
 10
-387.578
 20
838.912
 30
0.000000
  70
    32
  0
VERTEX
  8
0
  5
CF2B
 10
-387.581
 20
838.907
 30
0.000000
  70
    32
  0
VERTEX
  8
0
  5
CF2C
 10
-387.585
 20
838.901
 30
0.000000
  70
    32
  0
VERTEX
  8
0
  5
CF2D
 10
-387.588
 20
838.895
 30
0.000000
  70
    32
  0
VERTEX
  8
0
  5
CF2E
 10
-387.591
 20
838.890
 30
0.000000
  70
    32
  0
VERTEX
  8
0
  5
CF2F
 10
-387.595
 20
838.884
 30
0.000000
  70
    32
  0
VERTEX
  8
0
  5
CF30
 10
-387.598
 20
838.878
 30
0.000000
  70
    32
  0
VERTEX
  8
0
  5
CF31
 10
-387.601
 20
838.872
 30
0.000000
  70
    32
  0
VERTEX
  8
0
  5
CF32
 10
-387.604
 20
838.866
 30
0.000000
  70
    32
  0
VERTEX
  8
0
  5
CF33
 10
-387.607
 20
838.861
 30
0.000000
  70
    32
  0
VERTEX
  8
0
  5
CF34
 10
-387.610
 20
838.855
 30
0.000000
  70
    32
  0
VERTEX
  8
0
  5
CF35
 10
-387.614
 20
838.849
 30
0.000000
  70
    32
  0
VERTEX
  8
0
  5
CF36
 10
-387.616
 20
838.843
 30
0.000000
  70
    32
  0
VERTEX
  8
0
  5
CF37
 10
-387.619
 20
838.837
 30
0.000000
  70
    32
  0
VERTEX
  8
0
  5
CF38
 10
-387.622
 20
838.831
 30
0.000000
  70
    32
  0
VERTEX
  8
0
  5
CF39
 10
-387.625
 20
838.825
 30
0.000000
  70
    32
  0
VERTEX
  8
0
  5
CF3A
 10
-387.628
 20
838.819
 30
0.000000
  70
    32
  0
VERTEX
  8
0
  5
CF3B
 10
-387.631
 20
838.813
 30
0.000000
  70
    32
  0
VERTEX
  8
0
  5
CF3C
 10
-387.633
 20
838.807
 30
0.000000
  70
    32
  0
VERTEX
  8
0
  5
CF3D
 10
-387.636
 20
838.801
 30
0.000000
  70
    32
  0
VERTEX
  8
0
  5
CF3E
 10
-387.639
 20
838.795
 30
0.000000
  70
    32
  0
VERTEX
  8
0
  5
CF3F
 10
-387.641
 20
838.789
 30
0.000000
  70
    32
  0
VERTEX
  8
0
  5
CF40
 10
-387.644
 20
838.783
 30
0.000000
  70
    32
  0
VERTEX
  8
0
  5
CF41
 10
-387.646
 20
838.777
 30
0.000000
  70
    32
  0
VERTEX
  8
0
  5
CF42
 10
-387.649
 20
838.771
 30
0.000000
  70
    32
  0
VERTEX
  8
0
  5
CF43
 10
-387.651
 20
838.765
 30
0.000000
  70
    32
  0
VERTEX
  8
0
  5
CF44
 10
-387.654
 20
838.759
 30
0.000000
  70
    32
  0
VERTEX
  8
0
  5
CF45
 10
-387.656
 20
838.753
 30
0.000000
  70
    32
  0
VERTEX
  8
0
  5
CF46
 10
-387.658
 20
838.747
 30
0.000000
  70
    32
  0
VERTEX
  8
0
  5
CF47
 10
-387.661
 20
838.740
 30
0.000000
  70
    32
  0
VERTEX
  8
0
  5
CF48
 10
-387.663
 20
838.734
 30
0.000000
  70
    32
  0
VERTEX
  8
0
  5
CF49
 10
-387.665
 20
838.728
 30
0.000000
  70
    32
  0
VERTEX
  8
0
  5
CF4A
 10
-387.667
 20
838.722
 30
0.000000
  70
    32
  0
VERTEX
  8
0
  5
CF4B
 10
-387.669
 20
838.716
 30
0.000000
  70
    32
  0
VERTEX
  8
0
  5
CF4C
 10
-387.671
 20
838.710
 30
0.000000
  70
    32
  0
VERTEX
  8
0
  5
CF4D
 10
-387.673
 20
838.703
 30
0.000000
  70
    32
  0
VERTEX
  8
0
  5
CF4E
 10
-387.676
 20
838.697
 30
0.000000
  70
    32
  0
VERTEX
  8
0
  5
CF4F
 10
-387.678
 20
838.691
 30
0.000000
  70
    32
  0
VERTEX
  8
0
  5
CF50
 10
-387.679
 20
838.685
 30
0.000000
  70
    32
  0
VERTEX
  8
0
  5
CF51
 10
-387.681
 20
838.678
 30
0.000000
  70
    32
  0
VERTEX
  8
0
  5
CF52
 10
-387.683
 20
838.672
 30
0.000000
  70
    32
  0
VERTEX
  8
0
  5
CF53
 10
-387.685
 20
838.666
 30
0.000000
  70
    32
  0
VERTEX
  8
0
  5
CF54
 10
-387.687
 20
838.660
 30
0.000000
  70
    32
  0
VERTEX
  8
0
  5
CF55
 10
-387.689
 20
838.653
 30
0.000000
  70
    32
  0
VERTEX
  8
0
  5
CF56
 10
-387.691
 20
838.647
 30
0.000000
  70
    32
  0
VERTEX
  8
0
  5
CF57
 10
-387.693
 20
838.641
 30
0.000000
  70
    32
  0
VERTEX
  8
0
  5
CF58
 10
-387.694
 20
838.634
 30
0.000000
  70
    32
  0
VERTEX
  8
0
  5
CF59
 10
-387.696
 20
838.628
 30
0.000000
  70
    32
  0
VERTEX
  8
0
  5
CF5A
 10
-387.698
 20
838.622
 30
0.000000
  70
    32
  0
VERTEX
  8
0
  5
CF5B
 10
-387.699
 20
838.616
 30
0.000000
  70
    32
  0
VERTEX
  8
0
  5
CF5C
 10
-387.701
 20
838.609
 30
0.000000
  70
    32
  0
VERTEX
  8
0
  5
CF5D
 10
-387.703
 20
838.603
 30
0.000000
  70
    32
  0
VERTEX
  8
0
  5
CF5E
 10
-387.704
 20
838.597
 30
0.000000
  70
    32
  0
VERTEX
  8
0
  5
CF5F
 10
-387.706
 20
838.590
 30
0.000000
  70
    32
  0
VERTEX
  8
0
  5
CF60
 10
-387.707
 20
838.584
 30
0.000000
  70
    32
  0
VERTEX
  8
0
  5
CF61
 10
-387.709
 20
838.577
 30
0.000000
  70
    32
  0
VERTEX
  8
0
  5
CF62
 10
-387.710
 20
838.571
 30
0.000000
  70
    32
  0
VERTEX
  8
0
  5
CF63
 10
-387.712
 20
838.565
 30
0.000000
  70
    32
  0
VERTEX
  8
0
  5
CF64
 10
-387.714
 20
838.558
 30
0.000000
  70
    32
  0
VERTEX
  8
0
  5
CF65
 10
-387.715
 20
838.552
 30
0.000000
  70
    32
  0
VERTEX
  8
0
  5
CF66
 10
-387.716
 20
838.546
 30
0.000000
  70
    32
  0
VERTEX
  8
0
  5
CF67
 10
-387.718
 20
838.539
 30
0.000000
  70
    32
  0
VERTEX
  8
0
  5
CF68
 10
-387.719
 20
838.533
 30
0.000000
  70
    32
  0
VERTEX
  8
0
  5
CF69
 10
-387.721
 20
838.527
 30
0.000000
  70
    32
  0
VERTEX
  8
0
  5
CF6A
 10
-387.722
 20
838.520
 30
0.000000
  70
    32
  0
VERTEX
  8
0
  5
CF6B
 10
-387.724
 20
838.514
 30
0.000000
  70
    32
  0
VERTEX
  8
0
  5
CF6C
 10
-387.725
 20
838.507
 30
0.000000
  70
    32
  0
VERTEX
  8
0
  5
CF6D
 10
-387.726
 20
838.501
 30
0.000000
  70
    32
  0
VERTEX
  8
0
  5
CF6E
 10
-387.728
 20
838.495
 30
0.000000
  70
    32
  0
VERTEX
  8
0
  5
CF6F
 10
-387.729
 20
838.488
 30
0.000000
  70
    32
  0
VERTEX
  8
0
  5
CF70
 10
-387.730
 20
838.482
 30
0.000000
  70
    32
  0
VERTEX
  8
0
  5
CF71
 10
-387.732
 20
838.475
 30
0.000000
  70
    32
  0
VERTEX
  8
0
  5
CF72
 10
-387.733
 20
838.469
 30
0.000000
  70
    32
  0
VERTEX
  8
0
  5
CF73
 10
-387.734
 20
838.463
 30
0.000000
  70
    32
  0
VERTEX
  8
0
  5
CF74
 10
-387.736
 20
838.456
 30
0.000000
  70
    32
  0
VERTEX
  8
0
  5
CF75
 10
-387.737
 20
838.450
 30
0.000000
  70
    32
  0
VERTEX
  8
0
  5
CF76
 10
-387.738
 20
838.443
 30
0.000000
  70
    32
  0
VERTEX
  8
0
  5
CF77
 10
-387.740
 20
838.437
 30
0.000000
  70
    32
  0
VERTEX
  8
0
  5
CF78
 10
-387.741
 20
838.431
 30
0.000000
  70
    32
  0
VERTEX
  8
0
  5
CF79
 10
-387.742
 20
838.424
 30
0.000000
  70
    32
  0
VERTEX
  8
0
  5
CF7A
 10
-387.744
 20
838.418
 30
0.000000
  70
    32
  0
VERTEX
  8
0
  5
CF7B
 10
-387.745
 20
838.411
 30
0.000000
  70
    32
  0
VERTEX
  8
0
  5
CF7C
 10
-387.746
 20
838.405
 30
0.000000
  70
    32
  0
VERTEX
  8
0
  5
CF7D
 10
-387.748
 20
838.399
 30
0.000000
  70
    32
  0
VERTEX
  8
0
  5
CF7E
 10
-387.749
 20
838.392
 30
0.000000
  70
    32
  0
VERTEX
  8
0
  5
CF7F
 10
-387.750
 20
838.386
 30
0.000000
  70
    32
  0
VERTEX
  8
0
  5
CF80
 10
-387.751
 20
838.379
 30
0.000000
  70
    32
  0
VERTEX
  8
0
  5
CF81
 10
-387.753
 20
838.373
 30
0.000000
  70
    32
  0
VERTEX
  8
0
  5
CF82
 10
-387.754
 20
838.366
 30
0.000000
  70
    32
  0
VERTEX
  8
0
  5
CF83
 10
-387.756
 20
838.360
 30
0.000000
  70
    32
  0
VERTEX
  8
0
  5
CF84
 10
-387.757
 20
838.354
 30
0.000000
  70
    32
  0
VERTEX
  8
0
  5
CF85
 10
-387.758
 20
838.347
 30
0.000000
  70
    32
  0
VERTEX
  8
0
  5
CF86
 10
-387.760
 20
838.341
 30
0.000000
  70
    32
  0
VERTEX
  8
0
  5
CF87
 10
-387.761
 20
838.334
 30
0.000000
  70
    32
  0
VERTEX
  8
0
  5
CF88
 10
-387.762
 20
838.328
 30
0.000000
  70
    32
  0
VERTEX
  8
0
  5
CF89
 10
-387.764
 20
838.322
 30
0.000000
  70
    32
  0
VERTEX
  8
0
  5
CF8A
 10
-387.765
 20
838.315
 30
0.000000
  70
    32
  0
VERTEX
  8
0
  5
CF8B
 10
-387.767
 20
838.309
 30
0.000000
  70
    32
  0
VERTEX
  8
0
  5
CF8C
 10
-387.768
 20
838.302
 30
0.000000
  70
    32
  0
VERTEX
  8
0
  5
CF8D
 10
-387.770
 20
838.296
 30
0.000000
  70
    32
  0
VERTEX
  8
0
  5
CF8E
 10
-387.771
 20
838.290
 30
0.000000
  70
    32
  0
VERTEX
  8
0
  5
CF8F
 10
-387.773
 20
838.283
 30
0.000000
  70
    32
  0
VERTEX
  8
0
  5
CF90
 10
-387.774
 20
838.277
 30
0.000000
  70
    32
  0
VERTEX
  8
0
  5
CF91
 10
-387.776
 20
838.271
 30
0.000000
  70
    32
  0
VERTEX
  8
0
  5
CF92
 10
-387.777
 20
838.264
 30
0.000000
  70
    32
  0
VERTEX
  8
0
  5
CF93
 10
-387.779
 20
838.258
 30
0.000000
  70
    32
  0
VERTEX
  8
0
  5
CF94
 10
-387.780
 20
838.252
 30
0.000000
  70
    32
  0
VERTEX
  8
0
  5
CF95
 10
-387.782
 20
838.245
 30
0.000000
  70
    32
  0
VERTEX
  8
0
  5
CF96
 10
-387.784
 20
838.239
 30
0.000000
  70
    32
  0
VERTEX
  8
0
  5
CF97
 10
-387.785
 20
838.232
 30
0.000000
  70
    32
  0
VERTEX
  8
0
  5
CF98
 10
-387.787
 20
838.226
 30
0.000000
  70
    32
  0
VERTEX
  8
0
  5
CF99
 10
-387.789
 20
838.220
 30
0.000000
  70
    32
  0
VERTEX
  8
0
  5
CF9A
 10
-387.790
 20
838.213
 30
0.000000
  70
    32
  0
VERTEX
  8
0
  5
CF9B
 10
-387.792
 20
838.207
 30
0.000000
  70
    32
  0
VERTEX
  8
0
  5
CF9C
 10
-387.794
 20
838.201
 30
0.000000
  70
    32
  0
VERTEX
  8
0
  5
CF9D
 10
-387.796
 20
838.194
 30
0.000000
  70
    32
  0
VERTEX
  8
0
  5
CF9E
 10
-387.798
 20
838.188
 30
0.000000
  70
    32
  0
VERTEX
  8
0
  5
CF9F
 10
-387.799
 20
838.182
 30
0.000000
  70
    32
  0
VERTEX
  8
0
  5
CFA0
 10
-387.801
 20
838.176
 30
0.000000
  70
    32
  0
VERTEX
  8
0
  5
CFA1
 10
-387.803
 20
838.169
 30
0.000000
  70
    32
  0
VERTEX
  8
0
  5
CFA2
 10
-387.805
 20
838.163
 30
0.000000
  70
    32
  0
VERTEX
  8
0
  5
CFA3
 10
-387.807
 20
838.157
 30
0.000000
  70
    32
  0
VERTEX
  8
0
  5
CFA4
 10
-387.809
 20
838.151
 30
0.000000
  70
    32
  0
VERTEX
  8
0
  5
CFA5
 10
-387.811
 20
838.144
 30
0.000000
  70
    32
  0
VERTEX
  8
0
  5
CFA6
 10
-387.814
 20
838.138
 30
0.000000
  70
    32
  0
VERTEX
  8
0
  5
CFA7
 10
-387.816
 20
838.132
 30
0.000000
  70
    32
  0
VERTEX
  8
0
  5
CFA8
 10
-387.818
 20
838.126
 30
0.000000
  70
    32
  0
VERTEX
  8
0
  5
CFA9
 10
-387.820
 20
838.120
 30
0.000000
  70
    32
  0
VERTEX
  8
0
  5
CFAA
 10
-387.822
 20
838.113
 30
0.000000
  70
    32
  0
VERTEX
  8
0
  5
CFAB
 10
-387.825
 20
838.107
 30
0.000000
  70
    32
  0
VERTEX
  8
0
  5
CFAC
 10
-387.827
 20
838.101
 30
0.000000
  70
    32
  0
VERTEX
  8
0
  5
CFAD
 10
-387.829
 20
838.095
 30
0.000000
  70
    32
  0
VERTEX
  8
0
  5
CFAE
 10
-387.832
 20
838.089
 30
0.000000
  70
    32
  0
VERTEX
  8
0
  5
CFAF
 10
-387.834
 20
838.083
 30
0.000000
  70
    32
  0
VERTEX
  8
0
  5
CFB0
 10
-387.837
 20
838.077
 30
0.000000
  70
    32
  0
VERTEX
  8
0
  5
CFB1
 10
-387.839
 20
838.071
 30
0.000000
  70
    32
  0
VERTEX
  8
0
  5
CFB2
 10
-387.842
 20
838.065
 30
0.000000
  70
    32
  0
VERTEX
  8
0
  5
CFB3
 10
-387.845
 20
838.059
 30
0.000000
  70
    32
  0
VERTEX
  8
0
  5
CFB4
 10
-387.847
 20
838.053
 30
0.000000
  70
    32
  0
VERTEX
  8
0
  5
CFB5
 10
-387.850
 20
838.047
 30
0.000000
  70
    32
  0
VERTEX
  8
0
  5
CFB6
 10
-387.853
 20
838.041
 30
0.000000
  70
    32
  0
VERTEX
  8
0
  5
CFB7
 10
-387.856
 20
838.035
 30
0.000000
  70
    32
  0
VERTEX
  8
0
  5
CFB8
 10
-387.859
 20
838.029
 30
0.000000
  70
    32
  0
VERTEX
  8
0
  5
CFB9
 10
-387.862
 20
838.023
 30
0.000000
  70
    32
  0
VERTEX
  8
0
  5
CFBA
 10
-387.865
 20
838.017
 30
0.000000
  70
    32
  0
VERTEX
  8
0
  5
CFBB
 10
-387.868
 20
838.011
 30
0.000000
  70
    32
  0
VERTEX
  8
0
  5
CFBC
 10
-387.871
 20
838.006
 30
0.000000
  70
    32
  0
VERTEX
  8
0
  5
CFBD
 10
-387.874
 20
838.000
 30
0.000000
  70
    32
  0
VERTEX
  8
0
  5
CFBE
 10
-387.877
 20
837.994
 30
0.000000
  70
    32
  0
VERTEX
  8
0
  5
CFBF
 10
-387.881
 20
837.988
 30
0.000000
  70
    32
  0
VERTEX
  8
0
  5
CFC0
 10
-387.884
 20
837.983
 30
0.000000
  70
    32
  0
VERTEX
  8
0
  5
CFC1
 10
-387.887
 20
837.977
 30
0.000000
  70
    32
  0
VERTEX
  8
0
  5
CFC2
 10
-387.891
 20
837.971
 30
0.000000
  70
    32
  0
VERTEX
  8
0
  5
CFC3
 10
-387.894
 20
837.966
 30
0.000000
  70
    32
  0
VERTEX
  8
0
  5
CFC4
 10
-387.898
 20
837.960
 30
0.000000
  70
    32
  0
VERTEX
  8
0
  5
CFC5
 10
-387.902
 20
837.955
 30
0.000000
  70
    32
  0
VERTEX
  8
0
  5
CFC6
 10
-387.905
 20
837.949
 30
0.000000
  70
    32
  0
VERTEX
  8
0
  5
CFC7
 10
-387.909
 20
837.944
 30
0.000000
  70
    32
  0
VERTEX
  8
0
  5
CFC8
 10
-387.913
 20
837.938
 30
0.000000
  70
    32
  0
VERTEX
  8
0
  5
CFC9
 10
-387.917
 20
837.933
 30
0.000000
  70
    32
  0
VERTEX
  8
0
  5
CFCA
 10
-387.921
 20
837.927
 30
0.000000
  70
    32
  0
VERTEX
  8
0
  5
CFCB
 10
-387.925
 20
837.922
 30
0.000000
  70
    32
  0
VERTEX
  8
0
  5
CFCC
 10
-387.929
 20
837.917
 30
0.000000
  70
    32
  0
VERTEX
  8
0
  5
CFCD
 10
-387.933
 20
837.912
 30
0.000000
  70
    32
  0
VERTEX
  8
0
  5
CFCE
 10
-387.937
 20
837.906
 30
0.000000
  70
    32
  0
VERTEX
  8
0
  5
CFCF
 10
-387.942
 20
837.901
 30
0.000000
  70
    32
  0
VERTEX
  8
0
  5
CFD0
 10
-387.946
 20
837.896
 30
0.000000
  70
    32
  0
VERTEX
  8
0
  5
CFD1
 10
-387.951
 20
837.891
 30
0.000000
  70
    32
  0
VERTEX
  8
0
  5
CFD2
 10
-387.955
 20
837.886
 30
0.000000
  70
    32
  0
VERTEX
  8
0
  5
CFD3
 10
-387.960
 20
837.881
 30
0.000000
  70
    32
  0
VERTEX
  8
0
  5
CFD4
 10
-387.964
 20
837.876
 30
0.000000
  70
    32
  0
VERTEX
  8
0
  5
CFD5
 10
-387.969
 20
837.871
 30
0.000000
  70
    32
  0
VERTEX
  8
0
  5
CFD6
 10
-387.974
 20
837.866
 30
0.000000
  70
    32
  0
VERTEX
  8
0
  5
CFD7
 10
-387.979
 20
837.861
 30
0.000000
  70
    32
  0
VERTEX
  8
0
  5
CFD8
 10
-387.984
 20
837.856
 30
0.000000
  70
    32
  0
VERTEX
  8
0
  5
CFD9
 10
-387.989
 20
837.852
 30
0.000000
  70
    32
  0
VERTEX
  8
0
  5
CFDA
 10
-387.994
 20
837.847
 30
0.000000
  70
    32
  0
VERTEX
  8
0
  5
CFDB
 10
-387.999
 20
837.843
 30
0.000000
  70
    32
  0
VERTEX
  8
0
  5
CFDC
 10
-388.004
 20
837.838
 30
0.000000
  70
    32
  0
VERTEX
  8
0
  5
CFDD
 10
-388.009
 20
837.834
 30
0.000000
  70
    32
  0
VERTEX
  8
0
  5
CFDE
 10
-388.014
 20
837.829
 30
0.000000
  70
    32
  0
VERTEX
  8
0
  5
CFDF
 10
-388.020
 20
837.825
 30
0.000000
  70
    32
  0
VERTEX
  8
0
  5
CFE0
 10
-388.025
 20
837.821
 30
0.000000
  70
    32
  0
VERTEX
  8
0
  5
CFE1
 10
-388.030
 20
837.817
 30
0.000000
  70
    32
  0
VERTEX
  8
0
  5
CFE2
 10
-388.036
 20
837.813
 30
0.000000
  70
    32
  0
VERTEX
  8
0
  5
CFE3
 10
-388.041
 20
837.809
 30
0.000000
  70
    32
  0
VERTEX
  8
0
  5
CFE4
 10
-388.047
 20
837.805
 30
0.000000
  70
    32
  0
VERTEX
  8
0
  5
CFE5
 10
-388.053
 20
837.802
 30
0.000000
  70
    32
  0
VERTEX
  8
0
  5
CFE6
 10
-388.058
 20
837.798
 30
0.000000
  70
    32
  0
VERTEX
  8
0
  5
CFE7
 10
-388.064
 20
837.794
 30
0.000000
  70
    32
  0
VERTEX
  8
0
  5
CFE8
 10
-388.070
 20
837.791
 30
0.000000
  70
    32
  0
VERTEX
  8
0
  5
CFE9
 10
-388.076
 20
837.788
 30
0.000000
  70
    32
  0
VERTEX
  8
0
  5
CFEA
 10
-388.081
 20
837.785
 30
0.000000
  70
    32
  0
VERTEX
  8
0
  5
CFEB
 10
-388.087
 20
837.781
 30
0.000000
  70
    32
  0
VERTEX
  8
0
  5
CFEC
 10
-388.093
 20
837.778
 30
0.000000
  70
    32
  0
VERTEX
  8
0
  5
CFED
 10
-388.099
 20
837.776
 30
0.000000
  70
    32
  0
VERTEX
  8
0
  5
CFEE
 10
-388.105
 20
837.773
 30
0.000000
  70
    32
  0
VERTEX
  8
0
  5
CFEF
 10
-388.111
 20
837.770
 30
0.000000
  70
    32
  0
VERTEX
  8
0
  5
CFF0
 10
-388.117
 20
837.768
 30
0.000000
  70
    32
  0
VERTEX
  8
0
  5
CFF1
 10
-388.123
 20
837.765
 30
0.000000
  70
    32
  0
VERTEX
  8
0
  5
CFF2
 10
-388.130
 20
837.763
 30
0.000000
  70
    32
  0
VERTEX
  8
0
  5
CFF3
 10
-388.136
 20
837.761
 30
0.000000
  70
    32
  0
VERTEX
  8
0
  5
CFF4
 10
-388.142
 20
837.759
 30
0.000000
  70
    32
  0
VERTEX
  8
0
  5
CFF5
 10
-388.148
 20
837.757
 30
0.000000
  70
    32
  0
VERTEX
  8
0
  5
CFF6
 10
-388.155
 20
837.755
 30
0.000000
  70
    32
  0
VERTEX
  8
0
  5
CFF7
 10
-388.161
 20
837.754
 30
0.000000
  70
    32
  0
VERTEX
  8
0
  5
CFF8
 10
-388.167
 20
837.752
 30
0.000000
  70
    32
  0
VERTEX
  8
0
  5
CFF9
 10
-388.174
 20
837.751
 30
0.000000
  70
    32
  0
VERTEX
  8
0
  5
CFFA
 10
-388.180
 20
837.750
 30
0.000000
  70
    32
  0
VERTEX
  8
0
  5
CFFB
 10
-388.187
 20
837.749
 30
0.000000
  70
    32
  0
SEQEND
  8
0
  5
CFFC
  0
INSERT
  5
CD9F
  8
0
  2
*U20
 10
0.0
 20
0.0
 30
0.0
  0
VIEWPORT
  5
BADA
 67
     1
  8
0
 10
5.249999665167528
 20
4.016860864854312
 30
0.0
 40
16.259362384438411
 41
8.0158201110956853
 68
     1
 69
     1
1001
ACAD
1000
MVIEW
1002
{
1070
    16
1010
0.0
1020
0.0
1030
0.0
1010
0.0
1020
0.0
1030
1.0
1040
0.0
1040
8.0158201110956853
1040
5.249999665167528
1040
4.016860864854312
1040
50.0
1040
0.0
1040
0.0
1070
     0
1070
   100
1070
     1
1070
     1
1070
     0
1070
     0
1070
     0
1070
     0
1040
0.0
1040
0.0
1040
0.0
1040
0.5
1040
0.5
1040
0.5
1040
0.5
1070
     0
1002
{
1002
}
1002
}
  0
VIEWPORT
  5
BADD
 67
     1
  8
0
 10
5.249999629487192
 20
4.0166741807634683
 30
0.0
 40
10.44245679893058
 41
7.8813805131999892
 68
     2
 69
     2
1001
ACAD
1000
MVIEW
1002
{
1070
    16
1010
0.0
1020
0.0
1030
0.0
1010
0.0
1020
0.0
1030
1.0
1040
0.0
1040
7.8813805190370463
1040
-387.20985136692838
1040
838.2226040800208
1040
50.0
1040
0.0
1040
0.0
1070
     0
1070
   100
1070
     1
1070
     2
1070
     0
1070
     0
1070
     0
1070
     0
1040
0.0
1040
0.0
1040
0.0
1040
0.5
1040
0.5
1040
0.5
1040
0.5
1070
     0
1002
{
1002
}
1002
}
  0
ENDSEC
  0
EOF
