  0
SECTION
  2
HEADER
  9
$ACADVER
  1
AC1009
  9
$INSBASE
 10
0.0
 20
0.0
 30
0.0
  9
$EXTMIN
 10
-390.21280206415412
 20
834.65667183693085
 30
0.0
  9
$EXTMAX
 10
-380.21353317307199
 20
845.38586254496488
 30
0.0
  9
$LIMMIN
 10
0.0
 20
0.0
  9
$LIMMAX
 10
1500.0
 20
1500.0
  9
$ORTHOMODE
 70
     0
  9
$REGENMODE
 70
     1
  9
$FILLMODE
 70
     1
  9
$QTEXTMODE
 70
     0
  9
$MIRRTEXT
 70
     1
  9
$DRAGMODE
 70
     2
  9
$LTSCALE
 40
1.0
  9
$OSMODE
 70
    37
  9
$ATTMODE
 70
     1
  9
$TEXTSIZE
 40
1.5
  9
$TRACEWID
 40
0.05
  9
$TEXTSTYLE
  7
STANDARD
  9
$CLAYER
  8
0
  9
$CELTYPE
  6
BYLAYER
  9
$CECOLOR
 62
   256
  9
$DIMSCALE
 40
1.0
  9
$DIMASZ
 40
0.75
  9
$DIMEXO
 40
1.5
  9
$DIMDLI
 40
2.0
  9
$DIMRND
 40
0.0
  9
$DIMDLE
 40
0.0
  9
$DIMEXE
 40
1.0
  9
$DIMTP
 40
0.0
  9
$DIMTM
 40
0.0
  9
$DIMTXT
 40
1.5
  9
$DIMCEN
 40
2.0
  9
$DIMTSZ
 40
0.0
  9
$DIMTOL
 70
     0
  9
$DIMLIM
 70
     0
  9
$DIMTIH
 70
     0
  9
$DIMTOH
 70
     0
  9
$DIMSE1
 70
     0
  9
$DIMSE2
 70
     0
  9
$DIMTAD
 70
     1
  9
$DIMZIN
 70
     0
  9
$DIMBLK
  1
ARCHTICK
  9
$DIMASO
 70
     1
  9
$DIMSHO
 70
     1
  9
$DIMPOST
  1
"
  9
$DIMAPOST
  1

  9
$DIMALT
 70
     0
  9
$DIMALTD
 70
     2
  9
$DIMALTF
 40
25.399999999999999
  9
$DIMLFAC
 40
1.0
  9
$DIMTOFL
 70
     0
  9
$DIMTVP
 40
0.0
  9
$DIMTIX
 70
     1
  9
$DIMSOXD
 70
     0
  9
$DIMSAH
 70
     0
  9
$DIMBLK1
  1

  9
$DIMBLK2
  1

  9
$DIMSTYLE
  2
THREE_QUARTER_INCH_SCALE
  9
$DIMCLRD
 70
     0
  9
$DIMCLRE
 70
     0
  9
$DIMCLRT
 70
     0
  9
$DIMTFAC
 40
1.0
  9
$DIMGAP
 40
1.0
  9
$LUNITS
 70
     2
  9
$LUPREC
 70
     4
  9
$SKETCHINC
 40
0.1
  9
$FILLETRAD
 40
0.0
  9
$AUNITS
 70
     0
  9
$AUPREC
 70
     0
  9
$MENU
  1
.
  9
$ELEVATION
 40
0.0
  9
$PELEVATION
 40
0.0
  9
$THICKNESS
 40
0.0
  9
$LIMCHECK
 70
     0
  9
$BLIPMODE
 70
     0
  9
$CHAMFERA
 40
0.5
  9
$CHAMFERB
 40
0.5
  9
$SKPOLY
 70
     0
  9
$TDCREATE
 40
2452089.395738773
  9
$TDUPDATE
 40
2453612.4686944792
  9
$TDINDWG
 40
1.1500686111
  9
$TDUSRTIMER
 40
1.1500682523000001
  9
$USRTIMER
 70
     1
  9
$ANGBASE
 50
0.0
  9
$ANGDIR
 70
     0
  9
$PDMODE
 70
     0
  9
$PDSIZE
 40
10.0
  9
$PLINEWID
 40
0.0
  9
$COORDS
 70
     1
  9
$SPLFRAME
 70
     0
  9
$SPLINETYPE
 70
     6
  9
$SPLINESEGS
 70
     8
  9
$ATTDIA
 70
     0
  9
$ATTREQ
 70
     1
  9
$HANDLING
 70
     1
  9
$HANDSEED
  5
24933
  9
$SURFTAB1
 70
     6
  9
$SURFTAB2
 70
     6
  9
$SURFTYPE
 70
     6
  9
$SURFU
 70
     6
  9
$SURFV
 70
     6
  9
$UCSNAME
  2

  9
$UCSORG
 10
0.0
 20
0.0
 30
0.0
  9
$UCSXDIR
 10
1.0
 20
0.0
 30
0.0
  9
$UCSYDIR
 10
0.0
 20
1.0
 30
0.0
  9
$PUCSNAME
  2

  9
$PUCSORG
 10
0.0
 20
0.0
 30
0.0
  9
$PUCSXDIR
 10
1.0
 20
0.0
 30
0.0
  9
$PUCSYDIR
 10
0.0
 20
1.0
 30
0.0
  9
$USERI1
 70
     0
  9
$USERI2
 70
     0
  9
$USERI3
 70
     0
  9
$USERI4
 70
     0
  9
$USERI5
 70
     0
  9
$USERR1
 40
0.0
  9
$USERR2
 40
0.0
  9
$USERR3
 40
0.0
  9
$USERR4
 40
0.0
  9
$USERR5
 40
0.0
  9
$WORLDVIEW
 70
     1
  9
$SHADEDGE
 70
     3
  9
$SHADEDIF
 70
    70
  9
$TILEMODE
 70
     0
  9
$MAXACTVP
 70
    64
  9
$PLIMCHECK
 70
     0
  9
$PEXTMIN
 10
0.0280982296770773
 20
0.0758747945053777
 30
-0.0000000000000058
  9
$PEXTMAX
 10
10.47163505903136
 20
7.9578465084694647
 30
0.0000000000000104
  9
$PLIMMIN
 10
-0.1682389550263349
 20
-0.2033427855578579
  9
$PLIMMAX
 10
10.754640548407011
 20
8.2370640492290015
  9
$UNITMODE
 70
     0
  9
$VISRETAIN
 70
     1
  9
$PLINEGEN
 70
     0
  9
$PSLTSCALE
 70
     1
  0
ENDSEC
  0
SECTION
  2
TABLES
  0
TABLE
  2
VPORT
 70
     1
  0
VPORT
  2
*ACTIVE
 70
     0
 10
0.0
 20
0.0
 11
1.0
 21
1.0
 12
-386.52380251144001
 22
838.09204166179234
 13
0.0
 23
0.0
 14
0.5
 24
0.5
 15
0.5
 25
0.5
 16
0.0
 26
0.0
 36
1.0
 17
0.0
 27
0.0
 37
0.0
 40
3.930952126162941
 41
2.0226628895184122
 42
50.0
 43
0.0
 44
0.0
 50
0.0
 51
0.0
 71
     0
 72
   100
 73
     1
 74
     2
 75
     0
 76
     0
 77
     0
 78
     0
  0
ENDTAB
  0
TABLE
  2
LTYPE
 70
     2
  0
LTYPE
  2
CONTINUOUS
 70
     0
  3
Solid line
 72
    65
 73
     0
 40
0.0
  0
ENDTAB
  0
TABLE
  2
LAYER
 70
    10
  0
LAYER
  2
0
 70
     0
 62
     7
  6
CONTINUOUS
  0
LAYER
  2
DEFPOINTS
 70
     0
 62
     7
  6
CONTINUOUS
  0
LAYER
  2
FRAME_200
 70
     0
 62
     8
  6
CONTINUOUS
  0
LAYER
  2
FRAME_070
 70
     0
 62
     5
  6
CONTINUOUS
  0
LAYER
  2
FRAME_050
 70
     0
 62
     6
  6
CONTINUOUS
  0
LAYER
  2
TITLE_BLOCK
 70
     0
 62
     7
  6
CONTINUOUS
  0
LAYER
  2
FRAME_025
 70
     0
 62
     7
  6
CONTINUOUS
  0
LAYER
  2
VIEWPORT
 70
     0
 62
     7
  6
CONTINUOUS
  0
LAYER
  2
PROF
 70
     0
 62
     7
  6
CONTINUOUS
  0
LAYER
  2
PROFILE
 70
     0
 62
     7
  6
CONTINUOUS
  0
ENDTAB
  0
TABLE
  2
STYLE
 70
     2
  0
STYLE
  2
STANDARD
 70
     0
 40
0.0
 41
1.0
 50
0.0
 71
     0
 42
1.5
  3
txt
  4

  0
STYLE
  2
ISO_PROPORTIONAL
 70
     0
 40
0.0
 41
1.0
 50
0.0
 71
     0
 42
2.5
  3
isocp.shx
  4

  0
ENDTAB
  0
TABLE
  2
VIEW
 70
     3
  0
ENDTAB
  0
TABLE
  2
UCS
 70
     0
  0
ENDTAB
  0
TABLE
  2
APPID
 70
     6
  0
APPID
  2
ACAD
 70
     0
  0
APPID
  2
DCO15
 70
     0
  0
APPID
  2
ACAD_EXEMPT_FROM_CAD_STANDARDS
 70
     0
  0
APPID
  2
ACAD_PSEXT
 70
     0
  0
APPID
  2
CONTENTBLOCKDESCRIPTION
 70
     0
  0
APPID
  2
CONTENTBLOCKICON
 70
     0
  0
ENDTAB
  0
TABLE
  2
DIMSTYLE
 70
    11
  0
DIMSTYLE
  2
FULL_SCALE
 70
     0
  3
"
  4

  5

  6

  7

 40
1.0
 41
0.046875
 42
0.09375
 43
0.125
 44
0.0625
 45
0.0
 46
0.0
 47
0.0
 48
0.0
140
0.125
141
0.125
142
0.0
143
25.399999999999999
144
1.0
145
0.0
146
1.0
147
0.0625
 71
     0
 72
     0
 73
     0
 74
     0
 75
     0
 76
     0
 77
     1
 78
     0
170
     0
171
     2
172
     0
173
     0
174
     1
175
     0
176
     0
177
     0
178
     0
  0
DIMSTYLE
  2
HALF_SCALE
 70
     0
  3
"
  4

  5

  6

  7

 40
1.0
 41
0.09375
 42
0.1875
 43
0.25
 44
0.125
 45
0.0
 46
0.0
 47
0.0
 48
0.0
140
0.25
141
0.25
142
0.0
143
25.399999999999999
144
1.0
145
0.0
146
1.0
147
0.125
 71
     0
 72
     0
 73
     0
 74
     0
 75
     0
 76
     0
 77
     1
 78
     0
170
     0
171
     2
172
     0
173
     0
174
     1
175
     0
176
     0
177
     0
178
     0
  0
DIMSTYLE
  2
INCH_SCALE
 70
     0
  3
"
  4

  5

  6

  7

 40
1.0
 41
0.5625
 42
1.125
 43
1.5
 44
0.75
 45
0.0
 46
0.0
 47
0.0
 48
0.0
140
1.125
141
1.5
142
0.0
143
25.399999999999999
144
1.0
145
0.0
146
1.0
147
0.75
 71
     0
 72
     0
 73
     0
 74
     0
 75
     0
 76
     0
 77
     1
 78
     0
170
     0
171
     2
172
     0
173
     0
174
     1
175
     0
176
     0
177
     0
178
     0
  0
DIMSTYLE
  2
THREE_QUARTER_INCH_SCALE
 70
     0
  3
"
  4

  5

  6

  7

 40
1.0
 41
0.75
 42
1.5
 43
2.0
 44
1.0
 45
0.0
 46
0.0
 47
0.0
 48
0.0
140
1.5
141
2.0
142
0.0
143
25.399999999999999
144
1.0
145
0.0
146
1.0
147
1.0
 71
     0
 72
     0
 73
     0
 74
     0
 75
     0
 76
     0
 77
     1
 78
     0
170
     0
171
     2
172
     0
173
     0
174
     1
175
     0
176
     0
177
     0
178
     0
  0
DIMSTYLE
  2
ZHALF_INCH_SCALE
 70
     0
  3
"
  4

  5

  6

  7

 40
1.0
 41
1.125
 42
2.25
 43
3.0
 44
1.5
 45
0.0
 46
0.0
 47
0.0
 48
0.0
140
2.25
141
3.0
142
0.0
143
25.399999999999999
144
1.0
145
0.0
146
1.0
147
1.5
 71
     0
 72
     0
 73
     0
 74
     0
 75
     0
 76
     0
 77
     1
 78
     0
170
     0
171
     2
172
     0
173
     0
174
     1
175
     0
176
     0
177
     0
178
     0
  0
DIMSTYLE
  2
FULL_SCALE0
 70
     0
  3
"
  4

  5
ARCHTICK
  6

  7

 40
1.0
 41
0.046875
 42
0.09375
 43
0.125
 44
0.0625
 45
0.0
 46
0.0
 47
0.0
 48
0.0
140
0.125
141
0.125
142
0.0
143
25.399999999999999
144
1.0
145
0.0
146
1.0
147
0.0625
 71
     0
 72
     0
 73
     0
 74
     0
 75
     0
 76
     0
 77
     1
 78
     0
170
     0
171
     2
172
     0
173
     0
174
     1
175
     0
176
     0
177
     0
178
     0
  0
DIMSTYLE
  2
HALF_SCALE0
 70
     0
  3
"
  4

  5
ARCHTICK
  6

  7

 40
1.0
 41
0.09375
 42
0.1875
 43
0.25
 44
0.125
 45
0.0
 46
0.0
 47
0.0
 48
0.0
140
0.25
141
0.25
142
0.0
143
25.399999999999999
144
1.0
145
0.0
146
1.0
147
0.125
 71
     0
 72
     0
 73
     0
 74
     0
 75
     0
 76
     0
 77
     1
 78
     0
170
     0
171
     2
172
     0
173
     0
174
     1
175
     0
176
     0
177
     0
178
     0
  0
DIMSTYLE
  2
INCH_SCALE0
 70
     0
  3
"
  4

  5
ARCHTICK
  6

  7

 40
1.0
 41
0.5625
 42
1.125
 43
1.5
 44
0.75
 45
0.0
 46
0.0
 47
0.0
 48
0.0
140
1.125
141
1.5
142
0.0
143
25.399999999999999
144
1.0
145
0.0
146
1.0
147
0.75
 71
     0
 72
     0
 73
     0
 74
     0
 75
     0
 76
     0
 77
     1
 78
     0
170
     0
171
     2
172
     0
173
     0
174
     1
175
     0
176
     0
177
     0
178
     0
  0
DIMSTYLE
  2
THREE_QUARTER_INCH_SCALE0
 70
     0
  3
"
  4

  5
ARCHTICK
  6

  7

 40
1.0
 41
0.75
 42
1.5
 43
2.0
 44
1.0
 45
0.0
 46
0.0
 47
0.0
 48
0.0
140
1.5
141
2.0
142
0.0
143
25.399999999999999
144
1.0
145
0.0
146
1.0
147
1.0
 71
     0
 72
     0
 73
     0
 74
     0
 75
     0
 76
     0
 77
     1
 78
     0
170
     0
171
     2
172
     0
173
     0
174
     1
175
     0
176
     0
177
     0
178
     0
  0
DIMSTYLE
  2
ZHALF_INCH_SCALE0
 70
     0
  3
"
  4

  5
ARCHTICK
  6

  7

 40
1.0
 41
1.125
 42
2.25
 43
3.0
 44
1.5
 45
0.0
 46
0.0
 47
0.0
 48
0.0
140
2.25
141
3.0
142
0.0
143
25.399999999999999
144
1.0
145
0.0
146
1.0
147
1.5
 71
     0
 72
     0
 73
     0
 74
     0
 75
     0
 76
     0
 77
     1
 78
     0
170
     0
171
     2
172
     0
173
     0
174
     1
175
     0
176
     0
177
     0
178
     0
  0
ENDTAB
  0
ENDSEC
  0
SECTION
  2
BLOCKS
  0
BLOCK
  8
0
  2
$MODEL_SPACE
 70
     0
 10
0.0
 20
0.0
 30
0.0
  3
$MODEL_SPACE
  1

  0
ENDBLK
  5
C9DC
  8
0
  0
BLOCK
 67
     1
  8
0
  2
$PAPER_SPACE
 70
     0
 10
0.0
 20
0.0
 30
0.0
  3
$PAPER_SPACE
  1

  0
ENDBLK
  5
C9D8
 67
     1
  8
0
  0
BLOCK
  8
0
  2
_ARCHTICK
 70
     0
 10
0.0
 20
0.0
 30
0.0
  3
_ARCHTICK
  1

  0
POLYLINE
  5
158
  8
0
  6
BYBLOCK
 62
     0
 66
     1
 10
0.0
 20
0.0
 30
0.0
 40
0.15
 41
0.15
  0
VERTEX
  5
23FF2
  8
0
  6
BYBLOCK
 62
     0
 10
-0.5
 20
-0.5
 30
0.0
  0
VERTEX
  5
23FF3
  8
0
  6
BYBLOCK
 62
     0
 10
0.5
 20
0.5
 30
0.0
  0
SEQEND
  5
23FF4
  8
0
  6
BYBLOCK
 62
     0
  0
ENDBLK
  5
15A
  8
0
  0
BLOCK
  8
0
  2
_OPEN30
 70
     0
 10
0.0
 20
0.0
 30
0.0
  3
_OPEN30
  1

  0
LINE
  5
15C
  8
0
  6
BYBLOCK
 62
     0
 10
-1.0
 20
0.26794919
 30
0.0
 11
0.0
 21
0.0
 31
0.0
  0
LINE
  5
15D
  8
0
  6
BYBLOCK
 62
     0
 10
0.0
 20
0.0
 30
0.0
 11
-1.0
 21
-0.26794919
 31
0.0
  0
LINE
  5
15E
  8
0
  6
BYBLOCK
 62
     0
 10
0.0
 20
0.0
 30
0.0
 11
-1.0
 21
0.0
 31
0.0
  0
ENDBLK
  5
160
  8
0
  0
BLOCK
  8
0
  2
ISO_A2_TITLE_BLOCK
 70
     2
 10
0.0
 20
0.0
 30
0.0
  3
ISO_A2_TITLE_BLOCK
  1

  0
LINE
  5
BDD
  8
FRAME_050
 10
299.5
 20
12.5
 30
0.0
 11
297.0
 21
7.5
 31
0.0
  0
LINE
  5
BDE
  8
FRAME_050
 10
294.5
 20
12.5
 30
0.0
 11
299.5
 21
12.5
 31
0.0
  0
LINE
  5
BDF
  8
FRAME_050
 10
247.0
 20
5.0
 30
0.0
 11
347.0
 21
5.0
 31
0.0
  0
LINE
  5
BE0
  8
FRAME_070
 10
584.0
 20
410.0
 30
0.0
 11
10.0
 21
410.0
 31
0.0
  0
LINE
  5
BE1
  8
FRAME_070
 10
10.0
 20
10.0
 30
0.0
 11
584.0
 21
10.0
 31
0.0
  0
LINE
  5
BE2
  8
FRAME_050
 10
12.5
 20
207.5
 30
0.0
 11
7.5
 21
210.0
 31
0.0
  0
LINE
  5
BE3
  8
FRAME_050
 10
12.5
 20
212.5
 30
0.0
 11
12.5
 21
207.5
 31
0.0
  0
LINE
  5
BE4
  8
FRAME_070
 10
10.0
 20
410.0
 30
0.0
 11
10.0
 21
10.0
 31
0.0
  0
LINE
  5
BE5
  8
FRAME_200
 10
0.0
 20
0.0
 30
0.0
 11
0.0
 21
10.0
 31
0.0
  0
LINE
  5
BE6
  8
FRAME_200
 10
0.0
 20
0.0
 30
0.0
 11
10.0
 21
0.0
 31
0.0
  0
TEXT
  5
BE7
  8
FRAME_050
 10
5.9000000000000004
 20
35.0
 30
0.0
 40
4.0
  1
H
  7
ISO_PROPORTIONAL
 72
     4
 11
7.5
 21
37.0
 31
0.0
  0
LINE
  5
BE8
  8
FRAME_050
 10
10.0
 20
60.0
 30
0.0
 11
5.0
 21
60.0
 31
0.0
  0
LINE
  5
BE9
  8
FRAME_050
 10
81.75
 20
5.0
 30
0.0
 11
81.75
 21
10.0
 31
0.0
  0
TEXT
  5
BEA
  8
FRAME_050
 10
44.874999999999993
 20
5.5
 30
0.0
 40
4.0
  1
1
  7
ISO_PROPORTIONAL
 72
     4
 11
45.875
 21
7.5
 31
0.0
  0
TEXT
  5
BEB
  8
FRAME_050
 10
6.0035533905932743
 20
85.0
 30
0.0
 40
4.0
  1
G
  7
ISO_PROPORTIONAL
 72
     4
 11
7.5
 21
87.0
 31
0.0
  0
LINE
  5
BEC
  8
FRAME_050
 10
10.0
 20
110.0
 30
0.0
 11
5.0
 21
110.0
 31
0.0
  0
TEXT
  5
BED
  8
FRAME_050
 10
6.0999999999999988
 20
135.0
 30
0.0
 40
4.0
  1
F
  7
ISO_PROPORTIONAL
 72
     4
 11
7.5
 21
137.0
 31
0.0
  0
LINE
  5
BEE
  8
FRAME_050
 10
10.0
 20
160.0
 30
0.0
 11
5.0
 21
160.0
 31
0.0
  0
TEXT
  5
BEF
  8
FRAME_050
 10
6.0999999999999988
 20
185.0
 30
0.0
 40
4.0
  1
E
  7
ISO_PROPORTIONAL
 72
     4
 11
7.5
 21
187.0
 31
0.0
  0
LINE
  5
BF0
  8
FRAME_050
 10
153.5
 20
5.0
 30
0.0
 11
153.5
 21
10.0
 31
0.0
  0
TEXT
  5
BF1
  8
FRAME_050
 10
116.1556692913386
 20
5.3996062992125982
 30
0.0
 40
4.0
  1
2
  7
ISO_PROPORTIONAL
 72
     4
 11
117.625
 21
7.5
 31
0.0
  0
TEXT
  5
BF2
  8
FRAME_050
 10
187.89215728752529
 20
5.5828427124746138
 30
0.0
 40
4.0
  1
3
  7
ISO_PROPORTIONAL
 72
     4
 11
189.375
 21
7.5
 31
0.0
  0
LINE
  5
BF3
  8
FRAME_050
 10
225.25
 20
5.0
 30
0.0
 11
225.25
 21
10.0
 31
0.0
  0
LINE
  5
BF4
  8
FRAME_050
 10
297.0
 20
7.5
 30
0.0
 11
294.5
 21
12.5
 31
0.0
  0
LINE
  5
BF5
  8
FRAME_050
 10
287.0
 20
5.0
 30
0.0
 11
287.0
 21
10.0
 31
0.0
  0
LINE
  5
BF6
  8
FRAME_050
 10
277.0
 20
5.0
 30
0.0
 11
277.0
 21
10.0
 31
0.0
  0
LINE
  5
BF7
  8
FRAME_050
 10
267.0
 20
5.0
 30
0.0
 11
267.0
 21
10.0
 31
0.0
  0
LINE
  5
BF8
  8
FRAME_050
 10
257.0
 20
5.0
 30
0.0
 11
257.0
 21
10.0
 31
0.0
  0
LINE
  5
BF9
  8
FRAME_050
 10
247.0
 20
5.0
 30
0.0
 11
247.0
 21
10.0
 31
0.0
  0
LINE
  5
BFA
  8
FRAME_050
 10
297.0
 20
10.0
 30
0.0
 11
297.0
 21
5.0
 31
0.0
  0
LINE
  5
BFB
  8
FRAME_050
 10
297.0
 20
10.0
 30
0.0
 11
297.0
 21
15.0
 31
0.0
  0
LINE
  5
BFC
  8
FRAME_050
 10
5.0
 20
210.0
 30
0.0
 11
15.0
 21
210.0
 31
0.0
  0
LINE
  5
BFD
  8
FRAME_050
 10
7.5
 20
210.0
 30
0.0
 11
12.5
 21
212.5
 31
0.0
  0
TEXT
  5
BFE
  8
FRAME_050
 10
5.7860912703473977
 20
235.0
 30
0.0
 40
4.0
  1
D
  7
ISO_PROPORTIONAL
 72
     4
 11
7.5
 21
237.0
 31
0.0
  0
LINE
  5
BFF
  8
FRAME_050
 10
10.0
 20
260.0
 30
0.0
 11
5.0
 21
260.0
 31
0.0
  0
TEXT
  5
C00
  8
FRAME_050
 10
6.1931980515339466
 20
285.0
 30
0.0
 40
4.0
  1
C
  7
ISO_PROPORTIONAL
 72
     4
 11
7.5
 21
287.0
 31
0.0
  0
LINE
  5
C01
  8
FRAME_050
 10
10.0
 20
310.0
 30
0.0
 11
5.0
 21
310.0
 31
0.0
  0
TEXT
  5
C02
  8
FRAME_050
 10
5.8999999999999959
 20
335.0
 30
0.0
 40
4.0
  1
B
  7
ISO_PROPORTIONAL
 72
     4
 11
7.5
 21
337.0
 31
0.0
  0
LINE
  5
C03
  8
FRAME_050
 10
10.0
 20
360.0
 30
0.0
 11
5.0
 21
360.0
 31
0.0
  0
TEXT
  5
C04
  8
FRAME_050
 10
5.6999999999999993
 20
385.0
 30
0.0
 40
4.0
  1
A
  7
ISO_PROPORTIONAL
 72
     4
 11
7.5
 21
387.0
 31
0.0
  0
LINE
  5
C05
  8
FRAME_200
 10
10.0
 20
420.0
 30
0.0
 11
0.0
 21
420.0
 31
0.0
  0
LINE
  5
C06
  8
FRAME_200
 10
0.0
 20
420.0
 30
0.0
 11
0.0
 21
410.0
 31
0.0
  0
TEXT
  5
C07
  8
FRAME_050
 10
44.874999999999993
 20
410.5
 30
0.0
 40
4.0
  1
1
  7
ISO_PROPORTIONAL
 72
     4
 11
45.875
 21
412.5
 31
0.0
  0
LINE
  5
C08
  8
FRAME_050
 10
81.75
 20
410.0
 30
0.0
 11
81.75
 21
415.0
 31
0.0
  0
TEXT
  5
C09
  8
FRAME_050
 10
116.1556692913386
 20
410.39960629921262
 30
0.0
 40
4.0
  1
2
  7
ISO_PROPORTIONAL
 72
     4
 11
117.625
 21
412.5
 31
0.0
  0
LINE
  5
C0A
  8
FRAME_050
 10
153.5
 20
410.0
 30
0.0
 11
153.5
 21
415.0
 31
0.0
  0
TEXT
  5
C0B
  8
FRAME_050
 10
187.89215728752529
 20
410.58284271247459
 30
0.0
 40
4.0
  1
3
  7
ISO_PROPORTIONAL
 72
     4
 11
189.375
 21
412.5
 31
0.0
  0
LINE
  5
C0C
  8
FRAME_050
 10
297.0
 20
405.0
 30
0.0
 11
297.0
 21
415.0
 31
0.0
  0
LINE
  5
C0D
  8
FRAME_050
 10
225.25
 20
410.0
 30
0.0
 11
225.25
 21
415.0
 31
0.0
  0
TEXT
  5
C0E
  8
FRAME_050
 10
259.52499999999998
 20
410.5
 30
0.0
 40
4.0
  1
4
  7
ISO_PROPORTIONAL
 72
     4
 11
261.125
 21
412.5
 31
0.0
  0
LINE
  5
C0F
  8
FRAME_070
 10
584.0
 20
10.0
 30
0.0
 11
584.0
 21
410.0
 31
0.0
  0
ATTDEF
  5
C10
  8
FRAME_025
 10
473.0
 20
31.75
 30
0.0
 40
2.5
  1
XXX - 00/00/00
  7
ISO_PROPORTIONAL
 11
473.0
 21
33.0
 31
0.0
  3
Approved by - Date
  2
APPROVED_BY_DATE
 70
     8
 74
     2
  0
TEXT
  5
C11
  8
FRAME_025
 10
448.0
 20
41.749999999999993
 30
0.0
 40
2.5
  1
Title/Name, designation, material, dimension etc
  7
ISO_PROPORTIONAL
 11
448.0
 21
43.0
 31
0.0
 73
     2
  0
TEXT
  5
C12
  8
FRAME_025
 10
473.0
 20
35.75
 30
0.0
 40
2.5
  1
Approved by - date
  7
ISO_PROPORTIONAL
 11
473.0
 21
37.0
 31
0.0
 73
     2
  0
LINE
  5
C13
  8
FRAME_070
 10
414.0
 20
46.0
 30
0.0
 11
584.0
 21
46.0
 31
0.0
  0
LINE
  5
C14
  8
FRAME_070
 10
414.0
 20
40.0
 30
0.0
 11
584.0
 21
40.0
 31
0.0
  0
LINE
  5
C15
  8
FRAME_070
 10
414.0
 20
30.0
 30
0.0
 11
584.0
 21
30.0
 31
0.0
  0
LINE
  5
C16
  8
FRAME_050
 10
368.75
 20
5.0
 30
0.0
 11
368.75
 21
10.0
 31
0.0
  0
LINE
  5
C17
  8
FRAME_050
 10
337.0
 20
5.0
 30
0.0
 11
337.0
 21
10.0
 31
0.0
  0
LINE
  5
C18
  8
FRAME_050
 10
327.0
 20
5.0
 30
0.0
 11
327.0
 21
10.0
 31
0.0
  0
LINE
  5
C19
  8
FRAME_050
 10
317.0
 20
5.0
 30
0.0
 11
317.0
 21
10.0
 31
0.0
  0
LINE
  5
C1A
  8
FRAME_050
 10
307.0
 20
5.0
 30
0.0
 11
307.0
 21
10.0
 31
0.0
  0
LINE
  5
C1B
  8
FRAME_050
 10
347.0
 20
5.0
 30
0.0
 11
347.0
 21
10.0
 31
0.0
  0
LINE
  5
C1C
  8
FRAME_050
 10
440.5
 20
5.0
 30
0.0
 11
440.5
 21
10.0
 31
0.0
  0
TEXT
  5
C1D
  8
FRAME_050
 10
403.24547244094481
 20
5.4102362204724406
 30
0.0
 40
4.0
  1
6
  7
ISO_PROPORTIONAL
 72
     4
 11
404.62499999999989
 21
7.5
 31
0.0
  0
TEXT
  5
C1E
  8
FRAME_050
 10
474.97499999999991
 20
5.5
 30
0.0
 40
4.0
  1
7
  7
ISO_PROPORTIONAL
 72
     4
 11
476.37499999999989
 21
7.5
 31
0.0
  0
TEXT
  5
C1F
  8
FRAME_025
 10
431.0
 20
41.749999999999993
 30
0.0
 40
2.5
  1
Quantity
  7
ISO_PROPORTIONAL
 11
431.0
 21
43.0
 31
0.0
 73
     2
  0
TEXT
  5
C20
  8
FRAME_025
 10
416.0
 20
41.749999999999993
 30
0.0
 40
2.5
  1
Itemref
  7
ISO_PROPORTIONAL
 11
416.0
 21
43.0
 31
0.0
 73
     2
  0
LINE
  5
C21
  8
FRAME_070
 10
414.0
 20
40.0
 30
0.0
 11
414.0
 21
46.0
 31
0.0
  0
LINE
  5
C22
  8
FRAME_070
 10
429.0
 20
40.0
 30
0.0
 11
429.0
 21
46.0
 31
0.0
  0
LINE
  5
C23
  8
FRAME_070
 10
414.0
 20
10.0
 30
0.0
 11
414.0
 21
40.0
 31
0.0
  0
ATTDEF
  5
C24
  8
FRAME_025
 10
416.0
 20
31.75
 30
0.0
 40
2.5
  1
XXX
  7
ISO_PROPORTIONAL
 11
416.0
 21
33.0
 31
0.0
  3
Designed by
  2
DESIGNED_BY
 70
     8
 74
     2
  0
TEXT
  5
C25
  8
FRAME_025
 10
416.0
 20
35.75
 30
0.0
 40
2.5
  1
Designed by
  7
ISO_PROPORTIONAL
 11
416.0
 21
37.0
 31
0.0
 73
     2
  0
LINE
  5
C26
  8
FRAME_070
 10
446.0
 20
40.0
 30
0.0
 11
446.0
 21
46.0
 31
0.0
  0
ATTDEF
  5
C27
  8
FRAME_025
 10
448.0
 20
31.75
 30
0.0
 40
2.5
  1
XXX
  7
ISO_PROPORTIONAL
 11
448.0
 21
33.0
 31
0.0
  3
Checked by
  2
CHECKED_BY
 70
     8
 74
     2
  0
TEXT
  5
C28
  8
FRAME_025
 10
448.0
 20
35.75
 30
0.0
 40
2.5
  1
Checked by
  7
ISO_PROPORTIONAL
 11
448.0
 21
37.0
 31
0.0
 73
     2
  0
ATTDEF
  5
C29
  8
FRAME_050
 10
444.74999999999989
 20
17.5
 30
0.0
 40
5.0
  1
XXX
  7
ISO_PROPORTIONAL
 72
     4
 11
451.49999999999989
 21
20.0
 31
0.0
  3
Owner
  2
OWNER
 70
     8
  0
LINE
  5
C2A
  8
FRAME_070
 10
446.0
 20
30.0
 30
0.0
 11
446.0
 21
40.0
 31
0.0
  0
LINE
  5
C2B
  8
FRAME_070
 10
471.0
 20
30.0
 30
0.0
 11
471.0
 21
40.0
 31
0.0
  0
LINE
  5
C2C
  8
FRAME_070
 10
489.0
 20
20.0
 30
0.0
 11
584.0
 21
20.0
 31
0.0
  0
LINE
  5
C2D
  8
FRAME_050
 10
512.25
 20
5.0
 30
0.0
 11
512.25
 21
10.0
 31
0.0
  0
TEXT
  5
C2E
  8
FRAME_050
 10
546.72499999999991
 20
5.5
 30
0.0
 40
4.0
  1
8
  7
ISO_PROPORTIONAL
 72
     4
 11
548.125
 21
7.5
 31
0.0
  0
ATTDEF
  5
C2F
  8
FRAME_050
 10
517.64999999999986
 20
13.5
 30
0.0
 40
3.0
  1
X
  7
ISO_PROPORTIONAL
 72
     4
 11
519.0
 21
15.0
 31
0.0
  3
Drawing number
  2
DRAWING_NUMBER
 70
     8
  0
ATTDEF
  5
C30
  8
FRAME_050
 10
529.75
 20
22.5
 30
0.0
 40
5.0
  1
XXX
  7
ISO_PROPORTIONAL
 72
     4
 11
536.5
 21
25.0
 31
0.0
  3
Title / Name
  2
TITLE
 70
     8
  0
LINE
  5
C31
  8
FRAME_070
 10
489.0
 20
10.0
 30
0.0
 11
489.0
 21
30.0
 31
0.0
  0
ATTDEF
  5
C32
  8
FRAME_025
 10
511.0
 20
31.75
 30
0.0
 40
2.5
  1
XXX
  7
ISO_PROPORTIONAL
 11
511.0
 21
33.0
 31
0.0
  3
Filename
  2
FILENAME
 70
     8
 74
     2
  0
TEXT
  5
C33
  8
FRAME_025
 10
511.0
 20
35.75
 30
0.0
 40
2.5
  1
Filename
  7
ISO_PROPORTIONAL
 11
511.0
 21
37.0
 31
0.0
 73
     2
  0
LINE
  5
C34
  8
FRAME_070
 10
509.0
 20
30.0
 30
0.0
 11
509.0
 21
40.0
 31
0.0
  0
TEXT
  5
C35
  8
FRAME_025
 10
536.0
 20
41.749999999999993
 30
0.0
 40
2.5
  1
Article No./Reference
  7
ISO_PROPORTIONAL
 11
536.0
 21
43.0
 31
0.0
 73
     2
  0
LINE
  5
C36
  8
FRAME_070
 10
534.0
 20
40.0
 30
0.0
 11
534.0
 21
46.0
 31
0.0
  0
ATTDEF
  5
C37
  8
FRAME_025
 10
551.0
 20
11.75
 30
0.0
 40
2.5
  1
0
  7
ISO_PROPORTIONAL
 11
551.0
 21
13.0
 31
0.0
  3
Edition
  2
EDITION
 70
     8
 74
     2
  0
TEXT
  5
C38
  8
FRAME_025
 10
551.0
 20
15.75
 30
0.0
 40
2.5
  1
Edition
  7
ISO_PROPORTIONAL
 11
551.0
 21
17.0
 31
0.0
 73
     2
  0
LINE
  5
C39
  8
FRAME_070
 10
549.0
 20
10.0
 30
0.0
 11
549.0
 21
20.0
 31
0.0
  0
ATTDEF
  5
C3A
  8
FRAME_025
 10
536.0
 20
31.75
 30
0.0
 40
2.5
  1
00/00/00
  7
ISO_PROPORTIONAL
 11
536.0
 21
33.0
 31
0.0
  3
Date
  2
DATE
 70
     8
 74
     2
  0
TEXT
  5
C3B
  8
FRAME_025
 10
536.0
 20
35.75
 30
0.0
 40
2.5
  1
Date
  7
ISO_PROPORTIONAL
 11
536.0
 21
37.0
 31
0.0
 73
     2
  0
LINE
  5
C3C
  8
FRAME_070
 10
534.0
 20
30.0
 30
0.0
 11
534.0
 21
40.0
 31
0.0
  0
ATTDEF
  5
C3D
  8
FRAME_025
 10
566.0
 20
11.75
 30
0.0
 40
2.5
  1
1/1
  7
ISO_PROPORTIONAL
 11
566.0
 21
13.0
 31
0.0
  3
Sheet
  2
SHEET
 70
     8
 74
     2
  0
TEXT
  5
C3E
  8
FRAME_025
 10
566.0
 20
15.75
 30
0.0
 40
2.5
  1
Sheet
  7
ISO_PROPORTIONAL
 11
566.0
 21
17.0
 31
0.0
 73
     2
  0
LINE
  5
C3F
  8
FRAME_070
 10
564.0
 20
10.0
 30
0.0
 11
564.0
 21
20.0
 31
0.0
  0
ATTDEF
  5
C40
  8
FRAME_025
 10
566.0
 20
31.75
 30
0.0
 40
2.5
  1
1:1
  7
ISO_PROPORTIONAL
 11
566.0
 21
33.0
 31
0.0
  3
Scale
  2
SCALE
 70
     8
 74
     2
  0
TEXT
  5
C41
  8
FRAME_025
 10
566.0
 20
35.75
 30
0.0
 40
2.5
  1
Scale
  7
ISO_PROPORTIONAL
 11
566.0
 21
37.0
 31
0.0
 73
     2
  0
LINE
  5
C42
  8
FRAME_070
 10
564.0
 20
30.0
 30
0.0
 11
564.0
 21
40.0
 31
0.0
  0
LINE
  5
C43
  8
FRAME_200
 10
594.0
 20
0.0
 30
0.0
 11
594.0
 21
10.0
 31
0.0
  0
LINE
  5
C44
  8
FRAME_200
 10
594.0
 20
0.0
 30
0.0
 11
584.0
 21
0.0
 31
0.0
  0
TEXT
  5
C45
  8
FRAME_050
 10
584.89999999999998
 20
35.0
 30
0.0
 40
4.0
  1
H
  7
ISO_PROPORTIONAL
 72
     4
 11
586.5
 21
37.0
 31
0.0
  0
LINE
  5
C46
  8
FRAME_050
 10
589.0
 20
60.0
 30
0.0
 11
584.0
 21
60.0
 31
0.0
  0
TEXT
  5
C47
  8
FRAME_050
 10
585.0035533905932
 20
85.0
 30
0.0
 40
4.0
  1
G
  7
ISO_PROPORTIONAL
 72
     4
 11
586.5
 21
87.0
 31
0.0
  0
LINE
  5
C48
  8
FRAME_050
 10
589.0
 20
110.0
 30
0.0
 11
584.0
 21
110.0
 31
0.0
  0
TEXT
  5
C49
  8
FRAME_050
 10
585.09999999999991
 20
135.0
 30
0.0
 40
4.0
  1
F
  7
ISO_PROPORTIONAL
 72
     4
 11
586.5
 21
137.0
 31
0.0
  0
LINE
  5
C4A
  8
FRAME_050
 10
589.0
 20
160.0
 30
0.0
 11
584.0
 21
160.0
 31
0.0
  0
TEXT
  5
C4B
  8
FRAME_050
 10
585.09999999999991
 20
185.0
 30
0.0
 40
4.0
  1
E
  7
ISO_PROPORTIONAL
 72
     4
 11
586.5
 21
187.0
 31
0.0
  0
LINE
  5
C4C
  8
FRAME_070
 10
414.0
 20
404.0
 30
0.0
 11
584.0
 21
404.0
 31
0.0
  0
TEXT
  5
C4D
  8
FRAME_050
 10
331.39215728752538
 20
410.58284271247459
 30
0.0
 40
4.0
  1
5
  7
ISO_PROPORTIONAL
 72
     4
 11
332.875
 21
412.5
 31
0.0
  0
LINE
  5
C4E
  8
FRAME_050
 10
368.75
 20
410.0
 30
0.0
 11
368.75
 21
415.0
 31
0.0
  0
TEXT
  5
C4F
  8
FRAME_025
 10
428.0
 20
405.75
 30
0.0
 40
2.5
  1
Revision note
  7
ISO_PROPORTIONAL
 11
428.0
 21
407.0
 31
0.0
 73
     2
  0
TEXT
  5
C50
  8
FRAME_025
 10
416.0
 20
405.75
 30
0.0
 40
2.5
  1
RevNo
  7
ISO_PROPORTIONAL
 11
416.0
 21
407.0
 31
0.0
 73
     2
  0
LINE
  5
C51
  8
FRAME_070
 10
426.0
 20
404.0
 30
0.0
 11
426.0
 21
410.0
 31
0.0
  0
LINE
  5
C52
  8
FRAME_070
 10
414.0
 20
404.0
 30
0.0
 11
414.0
 21
410.0
 31
0.0
  0
TEXT
  5
C53
  8
FRAME_050
 10
403.24547244094481
 20
410.41023622047243
 30
0.0
 40
4.0
  1
6
  7
ISO_PROPORTIONAL
 72
     4
 11
404.62499999999989
 21
412.5
 31
0.0
  0
LINE
  5
C54
  8
FRAME_050
 10
440.5
 20
410.0
 30
0.0
 11
440.5
 21
415.0
 31
0.0
  0
TEXT
  5
C55
  8
FRAME_050
 10
474.97499999999991
 20
410.5
 30
0.0
 40
4.0
  1
7
  7
ISO_PROPORTIONAL
 72
     4
 11
476.37499999999989
 21
412.5
 31
0.0
  0
LINE
  5
C56
  8
FRAME_050
 10
579.0
 20
210.0
 30
0.0
 11
589.0
 21
210.0
 31
0.0
  0
TEXT
  5
C57
  8
FRAME_050
 10
584.78609127034736
 20
235.0
 30
0.0
 40
4.0
  1
D
  7
ISO_PROPORTIONAL
 72
     4
 11
586.5
 21
237.0
 31
0.0
  0
LINE
  5
C58
  8
FRAME_050
 10
589.0
 20
260.0
 30
0.0
 11
584.0
 21
260.0
 31
0.0
  0
TEXT
  5
C59
  8
FRAME_050
 10
585.19319805153395
 20
285.0
 30
0.0
 40
4.0
  1
C
  7
ISO_PROPORTIONAL
 72
     4
 11
586.5
 21
287.0
 31
0.0
  0
LINE
  5
C5A
  8
FRAME_050
 10
589.0
 20
310.0
 30
0.0
 11
584.0
 21
310.0
 31
0.0
  0
TEXT
  5
C5B
  8
FRAME_050
 10
584.89999999999998
 20
335.0
 30
0.0
 40
4.0
  1
B
  7
ISO_PROPORTIONAL
 72
     4
 11
586.5
 21
337.0
 31
0.0
  0
TEXT
  5
C5C
  8
FRAME_025
 10
571.08299391850551
 20
405.75
 30
0.0
 40
2.5
  1
Checked
  7
ISO_PROPORTIONAL
 11
571.08299391850551
 21
407.0
 31
0.0
 73
     2
  0
TEXT
  5
C5D
  8
FRAME_025
 10
555.36099797283521
 20
405.75
 30
0.0
 40
2.5
  1
Signature
  7
ISO_PROPORTIONAL
 11
555.36099797283521
 21
407.0
 31
0.0
 73
     2
  0
TEXT
  5
C5E
  8
FRAME_025
 10
537.0
 20
405.75
 30
0.0
 40
2.5
  1
Date
  7
ISO_PROPORTIONAL
 11
537.0
 21
407.0
 31
0.0
 73
     2
  0
LINE
  5
C5F
  8
FRAME_070
 10
570.0
 20
404.0
 30
0.0
 11
570.0
 21
410.0
 31
0.0
  0
LINE
  5
C60
  8
FRAME_070
 10
555.0
 20
404.0
 30
0.0
 11
555.0
 21
410.0
 31
0.0
  0
LINE
  5
C61
  8
FRAME_070
 10
535.0
 20
404.0
 30
0.0
 11
535.0
 21
410.0
 31
0.0
  0
LINE
  5
C62
  8
FRAME_050
 10
512.25
 20
410.0
 30
0.0
 11
512.25
 21
415.0
 31
0.0
  0
TEXT
  5
C63
  8
FRAME_050
 10
546.72499999999991
 20
410.5
 30
0.0
 40
4.0
  1
8
  7
ISO_PROPORTIONAL
 72
     4
 11
548.125
 21
412.5
 31
0.0
  0
LINE
  5
C64
  8
FRAME_050
 10
589.0
 20
360.0
 30
0.0
 11
584.0
 21
360.0
 31
0.0
  0
TEXT
  5
C65
  8
FRAME_050
 10
584.70000000000005
 20
385.0
 30
0.0
 40
4.0
  1
A
  7
ISO_PROPORTIONAL
 72
     4
 11
586.5
 21
387.0
 31
0.0
  0
LINE
  5
C66
  8
FRAME_200
 10
594.0
 20
420.0
 30
0.0
 11
584.0
 21
420.0
 31
0.0
  0
LINE
  5
C67
  8
FRAME_200
 10
594.0
 20
410.0
 30
0.0
 11
594.0
 21
420.0
 31
0.0
  0
ENDBLK
  5
C69
  8
0
  0
BLOCK
  8
0
  2
WOBB001END
 70
     0
 10
0.0
 20
0.0
 30
0.0
  3
WOBB001END
  1

  0
LINE
  5
4D66
  8
0
  6
CONTINUOUS
 10
0.0
 20
0.0
 30
0.0
 11
0.8749999999999998
 21
0.0
 31
0.0
  0
ARC
  5
4D67
  8
0
  6
CONTINUOUS
 10
0.0331648379439287
 20
-0.5087238935900234
 30
0.0
 40
0.8790130605592325
 50
284.06490243660443
 51
312.19222981924361
  0
ARC
  5
4D68
  8
0
  6
CONTINUOUS
 10
0.2841534338796767
 20
-1.510548310625538
 30
0.0
 40
0.1537731892806598
 50
104.0649024366044
 51
179.4721730735024
  0
LINE
  5
4D69
  8
0
  6
CONTINUOUS
 10
0.0
 20
0.0
 30
0.0
 11
-0.0000000000000003
 21
-1.7501564476661911
 31
0.0
  0
ARC
  5
4D6A
  8
0
  6
CONTINUOUS
 10
0.1404622019506122
 20
-1.630313718354619
 30
0.0
 40
0.1198427293115722
 50
275.0
 51
85.000000000000057
  0
LINE
  5
4D6B
  8
0
  6
CONTINUOUS
 10
-0.0000000000000003
 20
-1.7501564476661911
 30
0.0
 11
0.1456946485130855
 21
-1.7501564476661911
 31
0.0
  0
LINE
  5
4D6C
  8
0
  6
CONTINUOUS
 10
0.1377603739254348
 20
-1.7508506067459131
 30
0.0
 11
0.150907184036669
 21
-1.7497004098996509
 31
0.0
  0
LINE
  5
4D6D
  8
0
  6
CONTINUOUS
 10
0.1303867696719884
 20
-1.5091317231818231
 30
0.0
 11
0.1509071840366689
 21
-1.510927026809586
 31
0.0
  0
LINE
  5
4D6E
  8
0
  6
CONTINUOUS
 10
0.8749999999999998
 20
0.0
 30
0.0
 11
0.8749999999999996
 21
-0.8649327026588228
 31
0.0
  0
LINE
  5
4D6F
  8
0
  6
CONTINUOUS
 10
0.727014513830997
 20
-0.872688293355061
 30
0.0
 11
0.727014513830997
 21
-0.9264923397184784
 31
0.0
  0
ARC
  5
4D70
  8
0
  6
CONTINUOUS
 10
0.41187090827646
 20
-0.9264923397184784
 30
0.0
 40
0.3151436055545369
 50
312.19222981924361
 51
0.0
  0
LINE
  5
4D71
  8
0
  6
CONTINUOUS
 10
0.727014513830997
 20
-0.872688293355061
 30
0.0
 11
0.8749999999999996
 21
-0.8649327026588228
 31
0.0
  0
ENDBLK
  5
4D72
  8
0
  0
BLOCK
  8
0
  2
A$C0A61123B
 70
     0
 10
0.0
 20
0.0
 30
0.0
  3
A$C0A61123B
  1

  0
LINE
  5
C0AD
  8
PROF
  6
CONTINUOUS
 10
4.9012016798694162
 20
13.325025853350891
 30
0.0000000000000002
 11
4.9012016798694162
 21
12.88585218805485
 31
0.0000000000000003
  0
INSERT
  5
C0AE
  8
0
  2
*U7
 10
0.0
 20
0.0
 30
0.0
  0
LINE
  5
C0AF
  8
PROF
 10
4.519857503186925
 20
12.72227734589444
 30
0.0000000000000001
 11
4.519857503186925
 21
12.88585218805485
 31
0.0000000000000001
  0
LINE
  5
C0B0
  8
PROF
  6
CONTINUOUS
 10
3.6306271195888362
 20
13.325025853350891
 30
0.0000000000000002
 11
4.9012016798694162
 21
13.325025853350891
 31
0.0000000000000002
  0
LINE
  5
C0B1
  8
PROF
 10
1.9750295148747341
 20
10.37671325491794
 30
0.0000000000000002
 11
1.9750295148747341
 21
10.11391186758919
 31
0.0000000000000002
  0
LINE
  5
C0B2
  8
PROF
 10
1.6079673357556299
 20
10.11391186758919
 30
0.0000000000000001
 11
1.9750295148747341
 21
10.11391186758919
 31
0.0000000000000001
  0
LINE
  5
C0B3
  8
PROF
 10
1.9750295148747341
 20
10.11391186758919
 30
0.0000000000000001
 11
1.944958486898144
 21
10.11391186758919
 31
0.0000000000000001
  0
LINE
  5
C0B4
  8
PROF
 10
1.9750295148747341
 20
10.11391186758919
 30
0.0000000000000001
 11
1.944958486898144
 21
10.11391186758919
 31
0.0000000000000001
  0
LINE
  5
C0B5
  8
PROF
 10
0.3222605517169654
 20
7.5247473351056451
 30
-0.0000000000000002
 11
-0.0000008570117416
 21
7.5247473351056451
 31
0.0
  0
LINE
  5
C0B6
  8
PROF
 10
-0.0000008570117416
 20
7.5247473351056451
 30
0.0
 11
-0.0000008570117416
 21
9.1943336957369848
 31
0.0
  0
POLYLINE
  5
C0B7
  8
PROF
 66
     1
 10
0.0
 20
0.0
 30
0.0000000000000001
 70
     4
 75
     6
  0
VERTEX
  5
C0B8
  8
PROF
 10
1.6079673357556299
 20
10.11391186758919
 30
0.0000000000000001
 70
    16
  0
VERTEX
  5
C0B9
  8
PROF
 10
1.6079673357556299
 20
10.11391186758919
 30
0.0000000000000001
 70
     8
  0
VERTEX
  5
C0BA
  8
PROF
 10
1.6468132326485809
 20
10.02198069336111
 30
0.0000000000000001
 70
     8
  0
VERTEX
  5
C0BB
  8
PROF
 10
1.67335966680929
 20
9.9344134163010231
 30
0.0000000000000001
 70
     8
  0
VERTEX
  5
C0BC
  8
PROF
 10
1.6890086400463229
 20
9.8512576644480951
 30
0.0000000000000001
 70
     8
  0
VERTEX
  5
C0BD
  8
PROF
 10
1.6951621541682571
 20
9.7725610658417281
 30
0.0000000000000001
 70
     8
  0
VERTEX
  5
C0BE
  8
PROF
 10
1.693222210983605
 20
9.6983712485214237
 30
0.0000000000000001
 70
     8
  0
VERTEX
  5
C0BF
  8
PROF
 10
1.6845908123009961
 20
9.6287358405263603
 30
0.0000000000000001
 70
     8
  0
VERTEX
  5
C0C0
  8
PROF
 10
1.670669959928885
 20
9.5637024698960431
 30
0.0000000000000001
 70
     8
  0
VERTEX
  5
C0C1
  8
PROF
 10
1.6528616556759621
 20
9.5033187646697552
 30
0.0000000000000001
 70
     8
  0
VERTEX
  5
C0C2
  8
PROF
 10
1.632356299273054
 20
9.4475843259650691
 30
0.0000000000000001
 70
     8
  0
VERTEX
  5
C0C3
  8
PROF
 10
1.609497882140658
 20
9.3963066472123273
 30
0.0000000000000001
 70
     8
  0
VERTEX
  5
C0C4
  8
PROF
 10
1.584418793621637
 20
9.3492451949202842
 30
0.0000000000000001
 70
     8
  0
VERTEX
  5
C0C5
  8
PROF
 10
1.5572514230587431
 20
9.3061594355972357
 30
0.0000000000000001
 70
     8
  0
VERTEX
  5
C0C6
  8
PROF
 10
1.5281281597949601
 20
9.2668088357519274
 30
0.0000000000000001
 70
     8
  0
VERTEX
  5
C0C7
  8
PROF
 10
1.497181393172978
 20
9.2309528618929981
 30
0.0000000000000001
 70
     8
  0
VERTEX
  5
C0C8
  8
PROF
 10
1.4645435125357249
 20
9.1983509805288541
 30
0.0000000000000001
 70
     8
  0
VERTEX
  5
C0C9
  8
PROF
 10
1.4303469072260091
 20
9.1687626581682462
 30
0.0000000000000001
 70
     8
  0
VERTEX
  5
C0CA
  8
PROF
 10
1.394736033257401
 20
9.1419547918675335
 30
0.0000000000000001
 70
     8
  0
VERTEX
  5
C0CB
  8
PROF
 10
1.3579036133264131
 20
9.1177240008747713
 30
0.0000000000000001
 70
     8
  0
VERTEX
  5
C0CC
  8
PROF
 10
1.3200544368004321
 20
9.0958743349860924
 30
0.0000000000000001
 70
     8
  0
VERTEX
  5
C0CD
  8
PROF
 10
1.281393293046676
 20
9.0762098439975034
 30
0.0000000000000001
 70
     8
  0
VERTEX
  5
C0CE
  8
PROF
 10
1.2421249714324161
 20
9.0585345777049042
 30
0.0000000000000001
 70
     8
  0
VERTEX
  5
C0CF
  8
PROF
 10
1.202454261324986
 20
9.0426525859044187
 30
0.0000000000000001
 70
     8
  0
VERTEX
  5
C0D0
  8
PROF
 10
1.162585952091659
 20
9.0283679183919503
 30
0.0000000000000001
 70
     8
  0
VERTEX
  5
C0D1
  8
PROF
 10
1.1227248330997091
 20
9.0154846249635021
 30
0.0000000000000001
 70
     8
  0
VERTEX
  5
C0D2
  8
PROF
 10
1.0829726247361
 20
9.0034643862466055
 30
0.0000000000000001
 70
     8
  0
VERTEX
  5
C0D3
  8
PROF
 10
1.043018771466222
 20
8.9903994061946833
 30
0.0000000000000001
 70
     8
  0
VERTEX
  5
C0D4
  8
PROF
 10
1.002449648775211
 20
8.9740395195925622
 30
0.0000000000000001
 70
     8
  0
VERTEX
  5
C0D5
  8
PROF
 10
0.9608516321480919
 20
8.9521345612251935
 30
0.0000000000000001
 70
     8
  0
VERTEX
  5
C0D6
  8
PROF
 10
0.9178110970699435
 20
8.9224343658775052
 30
0.0000000000000001
 70
     8
  0
VERTEX
  5
C0D7
  8
PROF
 10
0.8729144190259033
 20
8.8826887683343312
 30
0.0000000000000001
 70
     8
  0
VERTEX
  5
C0D8
  8
PROF
 10
0.8257479735009949
 20
8.8306476033806121
 30
0.0000000000000001
 70
     8
  0
VERTEX
  5
C0D9
  8
PROF
 10
0.7758981359802988
 20
8.764060705801171
 30
0.0000000000000001
 70
     8
  0
VERTEX
  5
C0DA
  8
PROF
 10
1.7292019016096549
 20
9.8629858761255491
 30
0.0000000000000001
 70
    16
  0
VERTEX
  5
C0DB
  8
PROF
 10
1.679373123114088
 20
9.4532143012734213
 30
0.0000000000000001
 70
    16
  0
VERTEX
  5
C0DC
  8
PROF
 10
1.4455611507419801
 20
9.1391837193732481
 30
0.0000000000000001
 70
    16
  0
VERTEX
  5
C0DD
  8
PROF
 10
1.1204637172738201
 20
9.0026267702428413
 30
0.0000000000000001
 70
    16
  0
VERTEX
  5
C0DE
  8
PROF
 10
0.9127765582653638
 20
8.9630202230383702
 30
0.0000000000000001
 70
    16
  0
VERTEX
  5
C0DF
  8
PROF
 10
0.7758981359802988
 20
8.764060705801171
 30
0.0000000000000001
 70
    16
  0
SEQEND
  5
C0E0
  8
PROF
  0
ARC
  5
C0E1
  8
PROF
 10
0.733429816733235
 20
8.4849506952165257
 30
0.0000000000000001
 40
0.2823224329524727
 50
269.73652020831901
 51
81.348449993176914
  0
LINE
  5
C0E2
  8
PROF
  6
CONTINUOUS
 10
-0.0000008570117416
 20
9.1943336957369848
 30
-0.0000000000000001
 11
3.6306271195888362
 21
13.325025853350891
 31
0.0000000000000002
  0
POLYLINE
  5
C0E3
  8
PROF
 66
     1
 10
0.0
 20
0.0
 30
0.0000000000000001
 70
     4
 75
     6
  0
VERTEX
  5
C0E4
  8
PROF
 10
4.519857503186925
 20
12.72227734589444
 30
0.0000000000000001
 70
    16
  0
VERTEX
  5
C0E5
  8
PROF
 10
4.519857503186925
 20
12.72227734589444
 30
0.0000000000000001
 70
     8
  0
VERTEX
  5
C0E6
  8
PROF
 10
4.4467035366886289
 20
12.741128108778071
 30
0.0000000000000001
 70
     8
  0
VERTEX
  5
C0E7
  8
PROF
 10
4.3786645761268801
 20
12.754675269913941
 30
0.0000000000000001
 70
     8
  0
VERTEX
  5
C0E8
  8
PROF
 10
4.3154364111440469
 20
12.76334314092332
 30
0.0000000000000001
 70
     8
  0
VERTEX
  5
C0E9
  8
PROF
 10
4.256714831382566
 20
12.76755603342724
 30
0.0000000000000001
 70
     8
  0
VERTEX
  5
C0EA
  8
PROF
 10
4.2021956264849791
 20
12.76773825904672
 30
0.0000000000000001
 70
     8
  0
VERTEX
  5
C0EB
  8
PROF
 10
4.1515745860935436
 20
12.764314129403139
 30
0.0000000000000001
 70
     8
  0
VERTEX
  5
C0EC
  8
PROF
 10
4.1045474998508649
 20
12.75770795611743
 30
0.0000000000000001
 70
     8
  0
VERTEX
  5
C0ED
  8
PROF
 10
4.0608101573993149
 20
12.748344050810831
 30
0.0000000000000001
 70
     8
  0
VERTEX
  5
C0EE
  8
PROF
 10
4.0200583483813261
 20
12.736646725104491
 30
0.0000000000000001
 70
     8
  0
VERTEX
  5
C0EF
  8
PROF
 10
3.981987862439381
 20
12.72304029061945
 30
0.0000000000000001
 70
     8
  0
VERTEX
  5
C0F0
  8
PROF
 10
3.946294489215858
 20
12.707949058976959
 30
0.0000000000000001
 70
     8
  0
VERTEX
  5
C0F1
  8
PROF
 10
3.912674018353242
 20
12.691797341798059
 30
0.0000000000000001
 70
     8
  0
VERTEX
  5
C0F2
  8
PROF
 10
3.8808638350742499
 20
12.67494295718654
 30
0.0000000000000001
 70
     8
  0
VERTEX
  5
C0F3
  8
PROF
 10
3.850767706922738
 20
12.65747774917668
 30
0.0000000000000001
 70
     8
  0
VERTEX
  5
C0F4
  8
PROF
 10
3.8223309970228438
 20
12.639427068285499
 30
0.0000000000000001
 70
     8
  0
VERTEX
  5
C0F5
  8
PROF
 10
3.795499068498712
 20
12.62081626503004
 30
0.0000000000000001
 70
     8
  0
VERTEX
  5
C0F6
  8
PROF
 10
3.7702172844744819
 20
12.601670689926999
 30
0.0000000000000001
 70
     8
  0
VERTEX
  5
C0F7
  8
PROF
 10
3.7464310080743521
 20
12.58201569349364
 30
0.0000000000000001
 70
     8
  0
VERTEX
  5
C0F8
  8
PROF
 10
3.7240856024224609
 20
12.56187662624666
 30
0.0000000000000001
 70
     8
  0
VERTEX
  5
C0F9
  8
PROF
 10
3.7031264306428961
 20
12.541278838703191
 30
0.0000000000000001
 70
     8
  0
VERTEX
  5
C0FA
  8
PROF
 10
3.683498855859908
 20
12.520247681380051
 30
0.0000000000000001
 70
     8
  0
VERTEX
  5
C0FB
  8
PROF
 10
3.665148241197528
 20
12.49880850479428
 30
0.0000000000000001
 70
     8
  0
VERTEX
  5
C0FC
  8
PROF
 10
3.648019949779949
 20
12.47698665946279
 30
0.0000000000000001
 70
     8
  0
VERTEX
  5
C0FD
  8
PROF
 10
3.6320593447313159
 20
12.45480749590263
 30
0.0000000000000001
 70
     8
  0
VERTEX
  5
C0FE
  8
PROF
 10
3.617189584886658
 20
12.43223790353807
 30
0.0000000000000001
 70
     8
  0
VERTEX
  5
C0FF
  8
PROF
 10
3.6032450119242849
 20
12.40901092742285
 30
0.0000000000000001
 70
     8
  0
VERTEX
  5
C100
  8
PROF
 10
3.590037763233453
 20
12.38480115151844
 30
0.0000000000000001
 70
     8
  0
VERTEX
  5
C101
  8
PROF
 10
3.5773799762033032
 20
12.35928315978594
 30
0.0000000000000001
 70
     8
  0
VERTEX
  5
C102
  8
PROF
 10
3.5650837882230899
 20
12.33213153618658
 30
0.0000000000000001
 70
     8
  0
VERTEX
  5
C103
  8
PROF
 10
3.552961336681959
 20
12.303020864681571
 30
0.0000000000000001
 70
     8
  0
VERTEX
  5
C104
  8
PROF
 10
3.540824758969165
 20
12.271625729232371
 30
0.0000000000000001
 70
     8
  0
VERTEX
  5
C105
  8
PROF
 10
3.528486192473848
 20
12.23762071379997
 30
0.0000000000000001
 70
     8
  0
VERTEX
  5
C106
  8
PROF
 10
3.5157577745852659
 20
12.200680402345711
 30
0.0000000000000001
 70
     8
  0
VERTEX
  5
C107
  8
PROF
 10
3.502451642692618
 20
12.16047937883093
 30
0.0000000000000001
 70
     8
  0
VERTEX
  5
C108
  8
PROF
 10
3.4883799341851041
 20
12.116692227216619
 30
0.0000000000000001
 70
     8
  0
VERTEX
  5
C109
  8
PROF
 10
3.4733547864519201
 20
12.06899353146423
 30
0.0000000000000001
 70
     8
  0
VERTEX
  5
C10A
  8
PROF
 10
3.45723654619428
 20
12.0172095445447
 30
0.0000000000000001
 70
     8
  0
VERTEX
  5
C10B
  8
PROF
 10
3.440078397361388
 20
11.961773195467799
 30
0.0000000000000001
 70
     8
  0
VERTEX
  5
C10C
  8
PROF
 10
3.4219817332145781
 20
11.90326908225302
 30
0.0000000000000001
 70
     8
  0
VERTEX
  5
C10D
  8
PROF
 10
3.4030479470150099
 20
11.842281802919951
 30
0.0000000000000001
 70
     8
  0
VERTEX
  5
C10E
  8
PROF
 10
3.383378432024017
 20
11.779395955487979
 30
0.0000000000000001
 70
     8
  0
VERTEX
  5
C10F
  8
PROF
 10
3.36307458150287
 20
11.7151961379768
 30
0.0000000000000001
 70
     8
  0
VERTEX
  5
C110
  8
PROF
 10
3.342237788712735
 20
11.650266948405831
 30
0.0000000000000001
 70
     8
  0
VERTEX
  5
C111
  8
PROF
 10
3.3209694469149991
 20
11.58519298479461
 30
0.0000000000000001
 70
     8
  0
VERTEX
  5
C112
  8
PROF
 10
3.299370949370767
 20
11.52055884516254
 30
0.0000000000000001
 70
     8
  0
VERTEX
  5
C113
  8
PROF
 10
3.277543689341428
 20
11.456949127529461
 30
0.0000000000000001
 70
     8
  0
VERTEX
  5
C114
  8
PROF
 10
3.2555890600881399
 20
11.3949484299145
 30
0.0000000000000001
 70
     8
  0
VERTEX
  5
C115
  8
PROF
 10
3.2336084548721811
 20
11.335141350337491
 30
0.0000000000000001
 70
     8
  0
VERTEX
  5
C116
  8
PROF
 10
3.2116715641212181
 20
11.277995447977769
 30
0.0000000000000001
 70
     8
  0
VERTEX
  5
C117
  8
PROF
 10
3.1897212669278461
 20
11.22351012665467
 30
0.0000000000000001
 70
     8
  0
VERTEX
  5
C118
  8
PROF
 10
3.1676687395512881
 20
11.17156775134765
 30
0.0000000000000001
 70
     8
  0
VERTEX
  5
C119
  8
PROF
 10
3.1454251582505321
 20
11.12205068703588
 30
0.0000000000000001
 70
     8
  0
VERTEX
  5
C11A
  8
PROF
 10
3.122901699284625
 20
11.07484129869874
 30
0.0000000000000001
 70
     8
  0
VERTEX
  5
C11B
  8
PROF
 10
3.1000095389127278
 20
11.02982195131551
 30
0.0000000000000001
 70
     8
  0
VERTEX
  5
C11C
  8
PROF
 10
3.07665985339389
 20
10.986875009865679
 30
0.0000000000000001
 70
     8
  0
VERTEX
  5
C11D
  8
PROF
 10
3.0527638189871591
 20
10.9458828393283
 30
0.0000000000000001
 70
     8
  0
VERTEX
  5
C11E
  8
PROF
 10
3.0282326119516361
 20
10.90672780468298
 30
0.0000000000000001
 70
     8
  0
VERTEX
  5
C11F
  8
PROF
 10
3.0029774085463701
 20
10.869292270908771
 30
0.0000000000000001
 70
     8
  0
VERTEX
  5
C120
  8
PROF
 10
2.9769093850304089
 20
10.833458602985161
 30
0.0000000000000001
 70
     8
  0
VERTEX
  5
C121
  8
PROF
 10
2.9499397176628559
 20
10.799109165891419
 30
0.0000000000000001
 70
     8
  0
VERTEX
  5
C122
  8
PROF
 10
2.922000609840437
 20
10.76614363969508
 30
0.0000000000000001
 70
     8
  0
VERTEX
  5
C123
  8
PROF
 10
2.8931083735102998
 20
10.7345309648158
 30
0.0000000000000001
 70
     8
  0
VERTEX
  5
C124
  8
PROF
 10
2.8633003477572729
 20
10.70425739676193
 30
0.0000000000000001
 70
     8
  0
VERTEX
  5
C125
  8
PROF
 10
2.8326138716660689
 20
10.67530919104115
 30
0.0000000000000001
 70
     8
  0
VERTEX
  5
C126
  8
PROF
 10
2.801086284321626
 20
10.647672603161711
 30
0.0000000000000001
 70
     8
  0
VERTEX
  5
C127
  8
PROF
 10
2.7687549248087162
 20
10.62133388863162
 30
0.0000000000000001
 70
     8
  0
VERTEX
  5
C128
  8
PROF
 10
2.7356571322120531
 20
10.5962793029588
 30
0.0000000000000001
 70
     8
  0
VERTEX
  5
C129
  8
PROF
 10
2.7018302456165202
 20
10.572495101651381
 30
0.0000000000000001
 70
     8
  0
VERTEX
  5
C12A
  8
PROF
 10
2.6673116041068838
 20
10.54996754021726
 30
0.0000000000000001
 70
     8
  0
VERTEX
  5
C12B
  8
PROF
 10
2.6321385467680321
 20
10.528682874164581
 30
0.0000000000000001
 70
     8
  0
VERTEX
  5
C12C
  8
PROF
 10
2.5963484126846179
 20
10.508627359001251
 30
0.0000000000000001
 70
     8
  0
VERTEX
  5
C12D
  8
PROF
 10
2.5599785409415841
 20
10.489787250235279
 30
0.0000000000000001
 70
     8
  0
VERTEX
  5
C12E
  8
PROF
 10
2.522998630314361
 20
10.472162234281081
 30
0.0000000000000001
 70
     8
  0
VERTEX
  5
C12F
  8
PROF
 10
2.4851078183409072
 20
10.455805721177621
 30
0.0000000000000001
 70
     8
  0
VERTEX
  5
C130
  8
PROF
 10
2.4459376022498982
 20
10.44078455187036
 30
0.0000000000000001
 70
     8
  0
VERTEX
  5
C131
  8
PROF
 10
2.4051194792701249
 20
10.42716556730465
 30
0.0000000000000001
 70
     8
  0
VERTEX
  5
C132
  8
PROF
 10
2.3622849466301541
 20
10.415015608425851
 30
0.0000000000000001
 70
     8
  0
VERTEX
  5
C133
  8
PROF
 10
2.317065501558714
 20
10.40440151617929
 30
0.0000000000000001
 70
     8
  0
VERTEX
  5
C134
  8
PROF
 10
2.2690926412844301
 20
10.395390131510339
 30
0.0000000000000001
 70
     8
  0
VERTEX
  5
C135
  8
PROF
 10
2.2179978630360879
 20
10.388048295364451
 30
0.0000000000000001
 70
     8
  0
VERTEX
  5
C136
  8
PROF
 10
2.1634126640422551
 20
10.38244284868688
 30
0.0000000000000001
 70
     8
  0
VERTEX
  5
C137
  8
PROF
 10
2.1049685415316031
 20
10.37864063242295
 30
0.0000000000000001
 70
     8
  0
VERTEX
  5
C138
  8
PROF
 10
2.0422969927328709
 20
10.37670848751816
 30
0.0000000000000001
 70
     8
  0
VERTEX
  5
C139
  8
PROF
 10
1.9750295148747341
 20
10.37671325491794
 30
0.0000000000000001
 70
     8
  0
VERTEX
  5
C13A
  8
PROF
 10
4.2166060115107484
 20
12.80885334975255
 30
0.0000000000000001
 70
    16
  0
VERTEX
  5
C13B
  8
PROF
 10
3.8702254102732909
 20
12.707065515763929
 30
0.0000000000000001
 70
    16
  0
VERTEX
  5
C13C
  8
PROF
 10
3.605346156896871
 20
12.46277472098552
 30
0.0000000000000001
 70
    16
  0
VERTEX
  5
C13D
  8
PROF
 10
3.500746030527238
 20
12.170680575709749
 30
0.0000000000000001
 70
    16
  0
VERTEX
  5
C13E
  8
PROF
 10
3.231798439705698
 20
11.26846416496107
 30
0.0000000000000001
 70
    16
  0
VERTEX
  5
C13F
  8
PROF
 10
2.9737109398832882
 20
10.76631086647069
 30
0.0000000000000001
 70
    16
  0
VERTEX
  5
C140
  8
PROF
 10
2.5729961067384002
 20
10.460947364504699
 30
0.0000000000000001
 70
    16
  0
VERTEX
  5
C141
  8
PROF
 10
2.2537826214546031
 20
10.372731239449759
 30
0.0000000000000001
 70
    16
  0
VERTEX
  5
C142
  8
PROF
 10
1.9750295148747341
 20
10.37671325491794
 30
0.0000000000000001
 70
    16
  0
SEQEND
  5
C143
  8
PROF
  0
LINE
  5
C144
  8
PROF
 10
4.9012016798694162
 20
12.88585218805485
 30
0.0000000000000003
 11
4.519857503186925
 21
12.88585218805485
 31
0.0000000000000003
  0
LINE
  5
C145
  8
PROF
 10
0.7321315362267457
 20
8.2026312473991556
 30
0.0000000000000006
 11
0.7321315362267457
 21
8.0511853963434952
 31
0.0000000000000006
  0
ARC
  5
C146
  8
PROF
 10
0.7977322214551919
 20
7.577333933202679
 30
0.0000000000000006
 40
0.4783708383912013
 50
97.882010168942557
 51
186.31119505698641
  0
LINE
  5
C147
  8
FRAME_050
 10
7.8016377197432121
 20
17.99371054969447
 30
0.0
 11
7.8016377197432121
 21
0.0000000000002274
 31
0.0
  0
ENDBLK
  5
C149
  8
0
  0
BLOCK
  8
0
  2
*U7
 70
     1
 10
0.0
 20
0.0
 30
0.0
  3
*U7
  1

  0
TEXT
  5
C8C3
  8
0
 10
3.5177832928899071
 20
10.38601584255777
 30
0.0
 40
0.125
  1
Crown Moulding
  0
TEXT
  5
C8C4
  8
0
 10
3.5223876585106431
 20
10.17717091304435
 30
0.0
 40
0.125
  1
TL-AB509
  0
TEXT
  5
C8C5
  8
0
 10
3.5074661032582561
 20
9.9667059289606801
 30
0.0
 40
0.125
  1
1-5/16" x 7-9/16"
  0
TEXT
  5
C8C6
  8
0
 10
3.519403347460166
 20
9.7562409448770051
 30
0.0
 40
0.125
  1
800.66.TAGUE
  0
ENDBLK
  5
C8C8
  8
0
  0
BLOCK
  8
0
  2
*U8
 70
     1
 10
0.0
 20
0.0
 30
0.0
  3
*U8
  1

  0
TEXT
  5
C8CA
  8
0
 10
5.3066868277875692
 20
1.767659498411035
 30
0.0
 40
0.125
  1
Back Band
  0
TEXT
  5
C8CB
  8
0
 10
5.3153839628489603
 20
1.55881456889762
 30
0.0
 40
0.125
  1
TL-1
  0
TEXT
  5
C8CC
  8
0
 10
5.3004624075965721
 20
1.3483495848139451
 30
0.0
 40
0.125
  1
1-3/8" x 1-9/16"
  0
TEXT
  5
C8CD
  8
0
 10
5.3123996517984811
 20
1.1378846007302701
 30
0.0
 40
0.125
  1
800.66.TAGUE
  0
ENDBLK
  5
C8CF
  8
0
  0
BLOCK
  8
0
  2
*U9
 70
     1
 10
0.0
 20
0.0
 30
0.0
  3
*U9
  1

  0
TEXT
  5
C8D1
  8
0
 10
-385.7580743253551
 20
838.2627455404056
 30
0.0
 40
0.125
  1
Back Band
  0
TEXT
  5
C8D2
  8
0
 10
-385.74937719029373
 20
838.05390061089247
 30
0.0
 40
0.125
  1
TL-1
  0
TEXT
  5
C8D3
  8
0
 10
-385.76429874554611
 20
837.84343562680851
 30
0.0
 40
0.125
  1
1-3/8" x 1-9/16"
  0
TEXT
  5
C8D4
  8
0
 10
-385.75236150134418
 20
837.63297064272513
 30
0.0
 40
0.125
  1
800.66.TAGUE
  0
ENDBLK
  5
C8D6
  8
0
  0
BLOCK
  8
0
  2
*D21
 70
     1
 10
0.0
 20
0.0
 30
0.0
  3
*D21
  1

  0
LINE
  5
CDAB
  8
0
 62
     0
 10
-346.64573732984462
 20
509.42191863586828
 30
0.0
 11
-346.03266106471222
 21
509.42191863586828
 31
0.0
  0
LINE
  5
CDAC
  8
0
 62
     0
 10
-347.59461414974379
 20
507.61166709199199
 30
0.0
 11
-346.03266106471222
 21
507.61166709199199
 31
0.0
  0
LINE
  5
CDAD
  8
0
 62
     0
 10
-346.09516106471222
 20
509.42191863586828
 30
0.0
 11
-346.09516106471222
 21
507.61166709199199
 31
0.0
  0
INSERT
  5
CDAE
  8
0
 62
     0
  2
_ARCHTICK
 10
-346.09516106471222
 20
509.42191863586828
 30
0.0
 41
0.046875
 42
0.046875
 43
0.046875
 50
90.0
  0
INSERT
  5
CDAF
  8
0
 62
     0
  2
_ARCHTICK
 10
-346.09516106471222
 20
507.61166709199199
 30
0.0
 41
0.046875
 42
0.046875
 43
0.046875
 50
270.0
  0
INSERT
  5
CDB0
  8
0
  2
*U196
 10
0.0
 20
0.0
 30
0.0
  0
POINT
  5
CDB1
  8
DEFPOINTS
 62
     0
 10
-346.73948732984462
 20
509.42191863586828
 30
0.0
  0
POINT
  5
CDB2
  8
DEFPOINTS
 62
     0
 10
-347.68836414974379
 20
507.61166709199199
 30
0.0
  0
POINT
  5
CDB3
  8
DEFPOINTS
 62
     0
 10
-346.09516106471222
 20
507.61166709199199
 30
0.0
  0
ENDBLK
  5
CDB4
  8
0
  0
BLOCK
  8
0
  2
*D23
 70
     1
 10
0.0
 20
0.0
 30
0.0
  3
*D23
  1

  0
LINE
  5
CDEB
  8
0
 62
     0
 10
-387.02714157709249
 20
839.57969957928674
 30
0.0
 11
-386.41406531196009
 21
839.57969957928674
 31
0.0
  0
LINE
  5
CDEC
  8
0
 62
     0
 10
-387.97601839699172
 20
837.76944803541039
 30
0.0
 11
-386.41406531196009
 21
837.76944803541039
 31
0.0
  0
LINE
  5
CDED
  8
0
 62
     0
 10
-386.47656531196009
 20
839.57969957928674
 30
0.0
 11
-386.47656531196009
 21
837.76944803541039
 31
0.0
  0
INSERT
  5
CDEE
  8
0
 62
     0
  2
_ARCHTICK
 10
-386.47656531196009
 20
839.57969957928674
 30
0.0
 41
0.046875
 42
0.046875
 43
0.046875
 50
90.0
  0
INSERT
  5
CDEF
  8
0
 62
     0
  2
_ARCHTICK
 10
-386.47656531196009
 20
837.76944803541039
 30
0.0
 41
0.046875
 42
0.046875
 43
0.046875
 50
270.0
  0
INSERT
  5
CDF0
  8
0
  2
*U198
 10
0.0
 20
0.0
 30
0.0
  0
POINT
  5
CDF1
  8
DEFPOINTS
 62
     0
 10
-387.12089157709249
 20
839.57969957928674
 30
0.0
  0
POINT
  5
CDF2
  8
DEFPOINTS
 62
     0
 10
-388.06976839699172
 20
837.76944803541039
 30
0.0
  0
POINT
  5
CDF3
  8
DEFPOINTS
 62
     0
 10
-386.47656531196009
 20
837.76944803541039
 30
0.0
  0
ENDBLK
  5
CDEA
  8
0
  0
BLOCK
  8
0
  2
*D79
 70
     1
 10
0.0
 20
0.0
 30
0.0
  3
*D79
  1

  0
LINE
  5
11681
  8
0
 62
     0
 10
-365.81818307486373
 20
427.35429858331162
 30
0.0
 11
-366.93955544547038
 21
427.35429858331162
 31
0.0
  0
LINE
  5
11682
  8
0
 62
     0
 10
-365.81818307486373
 20
425.60429858331167
 30
0.0
 11
-366.93955544547038
 21
425.60429858331167
 31
0.0
  0
LINE
  5
11683
  8
0
 62
     0
 10
-366.87705544547038
 20
427.35429858331162
 30
0.0
 11
-366.87705544547038
 21
425.60429858331167
 31
0.0
  0
INSERT
  5
11684
  8
0
 62
     0
  2
_ARCHTICK
 10
-366.87705544547038
 20
427.35429858331162
 30
0.0
 41
0.046875
 42
0.046875
 43
0.046875
 50
90.0
  0
INSERT
  5
11685
  8
0
 62
     0
  2
_ARCHTICK
 10
-366.87705544547038
 20
425.60429858331167
 30
0.0
 41
0.046875
 42
0.046875
 43
0.046875
 50
270.0
  0
INSERT
  5
11686
  8
0
  2
*U247
 10
0.0
 20
0.0
 30
0.0
  0
POINT
  5
11687
  8
DEFPOINTS
 62
     0
 10
-365.72443307486373
 20
427.35429858331162
 30
0.0
  0
POINT
  5
11688
  8
DEFPOINTS
 62
     0
 10
-365.72443307486373
 20
425.60429858331167
 30
0.0
  0
POINT
  5
11689
  8
DEFPOINTS
 62
     0
 10
-366.87705544547038
 20
425.60429858331167
 30
0.0
  0
ENDBLK
  5
1168A
  8
0
  0
BLOCK
  8
0
  2
*D80
 70
     1
 10
0.0
 20
0.0
 30
0.0
  3
*D80
  1

  0
LINE
  5
1168D
  8
0
 62
     0
 10
-364.54417472031452
 20
426.21180552517308
 30
0.0
 11
-364.54417472031452
 21
424.99659347863422
 31
0.0
  0
LINE
  5
1168E
  8
0
 62
     0
 10
-363.66917472031452
 20
426.21180552517308
 30
0.0
 11
-363.66917472031452
 21
424.99659347863422
 31
0.0
  0
LINE
  5
1168F
  8
0
 62
     0
 10
-364.54417472031452
 20
425.05909347863428
 30
0.0
 11
-363.66917472031452
 21
425.05909347863428
 31
0.0
  0
INSERT
  5
11690
  8
0
 62
     0
  2
_ARCHTICK
 10
-364.54417472031452
 20
425.05909347863428
 30
0.0
 41
0.046875
 42
0.046875
 43
0.046875
 50
180.0
  0
INSERT
  5
11691
  8
0
 62
     0
  2
_ARCHTICK
 10
-363.66917472031452
 20
425.05909347863428
 30
0.0
 41
0.046875
 42
0.046875
 43
0.046875
  0
INSERT
  5
11692
  8
0
  2
*U248
 10
0.0
 20
0.0
 30
0.0
  0
POINT
  5
11693
  8
DEFPOINTS
 62
     0
 10
-364.54417472031452
 20
426.30555552517302
 30
0.0
  0
POINT
  5
11694
  8
DEFPOINTS
 62
     0
 10
-363.66917472031452
 20
426.30555552517302
 30
0.0
  0
POINT
  5
11695
  8
DEFPOINTS
 62
     0
 10
-363.66917472031452
 20
425.05909347863428
 30
0.0
  0
ENDBLK
  5
11696
  8
0
  0
BLOCK
  8
0
  2
*D81
 70
     1
 10
0.0
 20
0.0
 30
0.0
  3
*D81
  1

  0
LINE
  5
11699
  8
0
 62
     0
 10
-363.88792472031452
 20
427.24305552517302
 30
0.0
 11
-362.93745003010213
 21
427.24305552517302
 31
0.0
  0
LINE
  5
1169A
  8
0
 62
     0
 10
-364.0129247203148
 20
425.72929858331162
 30
0.0
 11
-362.93745003010213
 21
425.72929858331162
 31
0.0
  0
LINE
  5
1169B
  8
0
 62
     0
 10
-362.99995003010213
 20
427.24305552517302
 30
0.0
 11
-362.99995003010213
 21
425.72929858331162
 31
0.0
  0
INSERT
  5
1169C
  8
0
 62
     0
  2
_ARCHTICK
 10
-362.99995003010213
 20
427.24305552517302
 30
0.0
 41
0.046875
 42
0.046875
 43
0.046875
 50
90.0
  0
INSERT
  5
1169D
  8
0
 62
     0
  2
_ARCHTICK
 10
-362.99995003010213
 20
425.72929858331162
 30
0.0
 41
0.046875
 42
0.046875
 43
0.046875
 50
270.0
  0
INSERT
  5
1169E
  8
0
  2
*U249
 10
0.0
 20
0.0
 30
0.0
  0
POINT
  5
1169F
  8
DEFPOINTS
 62
     0
 10
-363.98167472031452
 20
427.24305552517302
 30
0.0
  0
POINT
  5
116A0
  8
DEFPOINTS
 62
     0
 10
-364.1066747203148
 20
425.72929858331162
 30
0.0
  0
POINT
  5
116A1
  8
DEFPOINTS
 62
     0
 10
-362.99995003010213
 20
425.72929858331162
 30
0.0
  0
ENDBLK
  5
116A2
  8
0
  0
BLOCK
  8
0
  2
*D83
 70
     1
 10
0.0
 20
0.0
 30
0.0
  3
*D83
  1

  0
LINE
  5
11701
  8
0
 62
     0
 10
-386.76054169220339
 20
839.74518098663441
 30
0.0
 11
-387.88191406281021
 21
839.74518098663441
 31
0.0
  0
LINE
  5
11702
  8
0
 62
     0
 10
-386.76054169220339
 20
837.99518098663441
 30
0.0
 11
-387.88191406281021
 21
837.99518098663441
 31
0.0
  0
LINE
  5
11703
  8
0
 62
     0
 10
-387.81941406281021
 20
839.74518098663441
 30
0.0
 11
-387.81941406281021
 21
837.99518098663441
 31
0.0
  0
INSERT
  5
11704
  8
0
 62
     0
  2
_ARCHTICK
 10
-387.81941406281021
 20
839.74518098663441
 30
0.0
 41
0.046875
 42
0.046875
 43
0.046875
 50
90.0
  0
INSERT
  5
11705
  8
0
 62
     0
  2
_ARCHTICK
 10
-387.81941406281021
 20
837.99518098663441
 30
0.0
 41
0.046875
 42
0.046875
 43
0.046875
 50
270.0
  0
INSERT
  5
11706
  8
0
  2
*U250
 10
0.0
 20
0.0
 30
0.0
  0
POINT
  5
11707
  8
DEFPOINTS
 62
     0
 10
-386.66679169220339
 20
839.74518098663441
 30
0.0
  0
POINT
  5
11708
  8
DEFPOINTS
 62
     0
 10
-386.66679169220339
 20
837.99518098663441
 30
0.0
  0
POINT
  5
11709
  8
DEFPOINTS
 62
     0
 10
-387.81941406281021
 20
837.99518098663441
 30
0.0
  0
ENDBLK
  5
116E8
  8
0
  0
BLOCK
  8
0
  2
*D84
 70
     1
 10
0.0
 20
0.0
 30
0.0
  3
*D84
  1

  0
LINE
  5
1170A
  8
0
 62
     0
 10
-385.48653333765429
 20
838.60268792849581
 30
0.0
 11
-385.48653333765429
 21
837.3874758819569
 31
0.0
  0
LINE
  5
1170B
  8
0
 62
     0
 10
-384.61153333765429
 20
838.60268792849581
 30
0.0
 11
-384.61153333765429
 21
837.3874758819569
 31
0.0
  0
LINE
  5
1170C
  8
0
 62
     0
 10
-385.48653333765429
 20
837.44997588195702
 30
0.0
 11
-384.61153333765429
 21
837.44997588195702
 31
0.0
  0
INSERT
  5
1170D
  8
0
 62
     0
  2
_ARCHTICK
 10
-385.48653333765429
 20
837.44997588195702
 30
0.0
 41
0.046875
 42
0.046875
 43
0.046875
 50
180.0
  0
INSERT
  5
1170E
  8
0
 62
     0
  2
_ARCHTICK
 10
-384.61153333765429
 20
837.44997588195702
 30
0.0
 41
0.046875
 42
0.046875
 43
0.046875
  0
INSERT
  5
1170F
  8
0
  2
*U251
 10
0.0
 20
0.0
 30
0.0
  0
POINT
  5
11710
  8
DEFPOINTS
 62
     0
 10
-385.48653333765429
 20
838.6964379284957
 30
0.0
  0
POINT
  5
11711
  8
DEFPOINTS
 62
     0
 10
-384.61153333765429
 20
838.6964379284957
 30
0.0
  0
POINT
  5
11712
  8
DEFPOINTS
 62
     0
 10
-384.61153333765429
 20
837.44997588195702
 30
0.0
  0
ENDBLK
  5
116F4
  8
0
  0
BLOCK
  8
0
  2
*D85
 70
     1
 10
0.0
 20
0.0
 30
0.0
  3
*D85
  1

  0
LINE
  5
11713
  8
0
 62
     0
 10
-384.83028333765429
 20
839.63393792849581
 30
0.0
 11
-383.87980864744191
 21
839.63393792849581
 31
0.0
  0
LINE
  5
11714
  8
0
 62
     0
 10
-384.95528333765452
 20
838.1201809866343
 30
0.0
 11
-383.87980864744191
 21
838.1201809866343
 31
0.0
  0
LINE
  5
11715
  8
0
 62
     0
 10
-383.94230864744191
 20
839.63393792849581
 30
0.0
 11
-383.94230864744191
 21
838.1201809866343
 31
0.0
  0
INSERT
  5
11716
  8
0
 62
     0
  2
_ARCHTICK
 10
-383.94230864744191
 20
839.63393792849581
 30
0.0
 41
0.046875
 42
0.046875
 43
0.046875
 50
90.0
  0
INSERT
  5
11717
  8
0
 62
     0
  2
_ARCHTICK
 10
-383.94230864744191
 20
838.1201809866343
 30
0.0
 41
0.046875
 42
0.046875
 43
0.046875
 50
270.0
  0
INSERT
  5
11718
  8
0
  2
*U252
 10
0.0
 20
0.0
 30
0.0
  0
POINT
  5
11719
  8
DEFPOINTS
 62
     0
 10
-384.92403333765429
 20
839.63393792849581
 30
0.0
  0
POINT
  5
1171A
  8
DEFPOINTS
 62
     0
 10
-385.04903333765452
 20
838.1201809866343
 30
0.0
  0
POINT
  5
1171B
  8
DEFPOINTS
 62
     0
 10
-383.94230864744191
 20
838.1201809866343
 30
0.0
  0
ENDBLK
  5
11700
  8
0
  0
BLOCK
  8
0
  2
*D87
 70
     1
 10
0.0
 20
0.0
 30
0.0
  3
*D87
  1

  0
LINE
  5
11B0C
  8
0
 62
     0
 10
-321.4967715029747
 20
426.11559169813472
 30
0.0
 11
-323.04650060770268
 21
426.11559169813472
 31
0.0
  0
LINE
  5
11B0D
  8
0
 62
     0
 10
-321.4967715029747
 20
424.36559169813472
 30
0.0
 11
-323.04650060770268
 21
424.36559169813472
 31
0.0
  0
LINE
  5
11B0E
  8
0
 62
     0
 10
-322.98400060770268
 20
426.11559169813472
 30
0.0
 11
-322.98400060770268
 21
424.36559169813472
 31
0.0
  0
INSERT
  5
11B0F
  8
0
 62
     0
  2
_ARCHTICK
 10
-322.98400060770268
 20
426.11559169813472
 30
0.0
 41
0.046875
 42
0.046875
 43
0.046875
 50
90.0
  0
INSERT
  5
11B10
  8
0
 62
     0
  2
_ARCHTICK
 10
-322.98400060770268
 20
424.36559169813472
 30
0.0
 41
0.046875
 42
0.046875
 43
0.046875
 50
270.0
  0
INSERT
  5
11B11
  8
0
  2
*U253
 10
0.0
 20
0.0
 30
0.0
  0
POINT
  5
11B12
  8
DEFPOINTS
 62
     0
 10
-321.4030215029747
 20
426.11559169813472
 30
0.0
  0
POINT
  5
11B13
  8
DEFPOINTS
 62
     0
 10
-321.4030215029747
 20
424.36559169813472
 30
0.0
  0
POINT
  5
11B14
  8
DEFPOINTS
 62
     0
 10
-322.98400060770268
 20
424.36559169813472
 30
0.0
  0
ENDBLK
  5
11B15
  8
0
  0
BLOCK
  8
0
  2
*D88
 70
     1
 10
0.0
 20
0.0
 30
0.0
  3
*D88
  1

  0
LINE
  5
11B18
  8
0
 62
     0
 10
-319.28256169396042
 20
425.92809169813472
 30
0.0
 11
-318.41048055355549
 21
425.92809169813472
 31
0.0
  0
LINE
  5
11B19
  8
0
 62
     0
 10
-319.28256169396042
 20
424.55309169813472
 30
0.0
 11
-318.41048055355549
 21
424.55309169813472
 31
0.0
  0
LINE
  5
11B1A
  8
0
 62
     0
 10
-318.47298055355549
 20
425.92809169813472
 30
0.0
 11
-318.47298055355549
 21
424.55309169813472
 31
0.0
  0
INSERT
  5
11B1B
  8
0
 62
     0
  2
_ARCHTICK
 10
-318.47298055355549
 20
425.92809169813472
 30
0.0
 41
0.046875
 42
0.046875
 43
0.046875
 50
90.0
  0
INSERT
  5
11B1C
  8
0
 62
     0
  2
_ARCHTICK
 10
-318.47298055355549
 20
424.55309169813472
 30
0.0
 41
0.046875
 42
0.046875
 43
0.046875
 50
270.0
  0
INSERT
  5
11B1D
  8
0
  2
*U254
 10
0.0
 20
0.0
 30
0.0
  0
POINT
  5
11B1E
  8
DEFPOINTS
 62
     0
 10
-319.37631169396042
 20
425.92809169813472
 30
0.0
  0
POINT
  5
11B1F
  8
DEFPOINTS
 62
     0
 10
-319.37631169396042
 20
424.55309169813472
 30
0.0
  0
POINT
  5
11B20
  8
DEFPOINTS
 62
     0
 10
-318.47298055355549
 20
424.55309169813472
 30
0.0
  0
ENDBLK
  5
11B21
  8
0
  0
BLOCK
  8
0
  2
*D90
 70
     1
 10
0.0
 20
0.0
 30
0.0
  3
*D90
  1

  0
LINE
  5
11B82
  8
0
 62
     0
 10
-385.93155206415412
 20
839.89288512488679
 30
0.0
 11
-387.48128116888211
 21
839.89288512488679
 31
0.0
  0
LINE
  5
11B83
  8
0
 62
     0
 10
-385.93155206415412
 20
838.14288512488679
 30
0.0
 11
-387.48128116888211
 21
838.14288512488679
 31
0.0
  0
LINE
  5
11B84
  8
0
 62
     0
 10
-387.41878116888211
 20
839.89288512488679
 30
0.0
 11
-387.41878116888211
 21
838.14288512488679
 31
0.0
  0
INSERT
  5
11B85
  8
0
 62
     0
  2
_ARCHTICK
 10
-387.41878116888211
 20
839.89288512488679
 30
0.0
 41
0.046875
 42
0.046875
 43
0.046875
 50
90.0
  0
INSERT
  5
11B86
  8
0
 62
     0
  2
_ARCHTICK
 10
-387.41878116888211
 20
838.14288512488679
 30
0.0
 41
0.046875
 42
0.046875
 43
0.046875
 50
270.0
  0
INSERT
  5
11B87
  8
0
  2
*U255
 10
0.0
 20
0.0
 30
0.0
  0
POINT
  5
11B88
  8
DEFPOINTS
 62
     0
 10
-385.83780206415412
 20
839.89288512488679
 30
0.0
  0
POINT
  5
11B89
  8
DEFPOINTS
 62
     0
 10
-385.83780206415412
 20
838.14288512488679
 30
0.0
  0
POINT
  5
11B8A
  8
DEFPOINTS
 62
     0
 10
-387.41878116888211
 20
838.14288512488679
 30
0.0
  0
ENDBLK
  5
11B75
  8
0
  0
BLOCK
  8
0
  2
*D91
 70
     1
 10
0.0
 20
0.0
 30
0.0
  3
*D91
  1

  0
LINE
  5
11B8B
  8
0
 62
     0
 10
-383.71734225513978
 20
839.70538512488679
 30
0.0
 11
-382.84526111473491
 21
839.70538512488679
 31
0.0
  0
LINE
  5
11B8C
  8
0
 62
     0
 10
-383.71734225513978
 20
838.33038512488679
 30
0.0
 11
-382.84526111473491
 21
838.33038512488679
 31
0.0
  0
LINE
  5
11B8D
  8
0
 62
     0
 10
-382.90776111473491
 20
839.70538512488679
 30
0.0
 11
-382.90776111473491
 21
838.33038512488679
 31
0.0
  0
INSERT
  5
11B8E
  8
0
 62
     0
  2
_ARCHTICK
 10
-382.90776111473491
 20
839.70538512488679
 30
0.0
 41
0.046875
 42
0.046875
 43
0.046875
 50
90.0
  0
INSERT
  5
11B8F
  8
0
 62
     0
  2
_ARCHTICK
 10
-382.90776111473491
 20
838.33038512488679
 30
0.0
 41
0.046875
 42
0.046875
 43
0.046875
 50
270.0
  0
INSERT
  5
11B90
  8
0
  2
*U256
 10
0.0
 20
0.0
 30
0.0
  0
POINT
  5
11B91
  8
DEFPOINTS
 62
     0
 10
-383.81109225513978
 20
839.70538512488679
 30
0.0
  0
POINT
  5
11B92
  8
DEFPOINTS
 62
     0
 10
-383.81109225513978
 20
838.33038512488679
 30
0.0
  0
POINT
  5
11B93
  8
DEFPOINTS
 62
     0
 10
-382.90776111473491
 20
838.33038512488679
 30
0.0
  0
ENDBLK
  5
11B81
  8
0
  0
BLOCK
  8
0
  2
*D128
 70
     1
 10
0.0
 20
0.0
 30
0.0
  3
*D128
  1

  0
LINE
  5
17AED
  8
0
 62
     0
 10
-265.85715049456587
 20
274.42038345687388
 30
0.0
 11
-266.22047975343469
 21
274.42038345687388
 31
0.0
  0
LINE
  5
17AEE
  8
0
 62
     0
 10
-265.52696349978612
 20
273.09820699771632
 30
0.0
 11
-266.22047975343469
 21
273.09820699771632
 31
0.0
  0
LINE
  5
17AEF
  8
0
 62
     0
 10
-266.15797975343457
 20
274.42038345687388
 30
0.0
 11
-266.15797975343457
 21
273.09820699771632
 31
0.0
  0
INSERT
  5
17AF0
  8
0
 62
     0
  2
_ARCHTICK
 10
-266.15797975343457
 20
274.42038345687388
 30
0.0
 41
0.046875
 42
0.046875
 43
0.046875
 50
90.0
  0
INSERT
  5
17AF1
  8
0
 62
     0
  2
_ARCHTICK
 10
-266.15797975343457
 20
273.09820699771632
 30
0.0
 41
0.046875
 42
0.046875
 43
0.046875
 50
270.0
  0
INSERT
  5
17AF2
  8
0
  2
*U291
 10
0.0
 20
0.0
 30
0.0
  0
POINT
  5
17AF3
  8
DEFPOINTS
 62
     0
 10
-265.76340049456587
 20
274.42038345687388
 30
0.0
  0
POINT
  5
17AF4
  8
DEFPOINTS
 62
     0
 10
-265.43321349978612
 20
273.09820699771632
 30
0.0
  0
POINT
  5
17AF5
  8
DEFPOINTS
 62
     0
 10
-266.15797975343457
 20
273.09820699771632
 30
0.0
  0
ENDBLK
  5
17AF6
  8
0
  0
BLOCK
  8
0
  2
*D129
 70
     1
 10
0.0
 20
0.0
 30
0.0
  3
*D129
  1

  0
LINE
  5
17AF9
  8
0
 62
     0
 10
-265.76340049456587
 20
274.32663345687388
 30
0.0
 11
-265.76340049456587
 21
273.69679522729513
 31
0.0
  0
LINE
  5
17AFA
  8
0
 62
     0
 10
-265.43321349978612
 20
274.32663345687388
 30
0.0
 11
-265.43321349978612
 21
273.69679522729513
 31
0.0
  0
LINE
  5
17AFB
  8
0
 62
     0
 10
-265.76340049456587
 20
273.75929522729513
 30
0.0
 11
-265.81027549456587
 21
273.75929522729513
 31
0.0
  0
LINE
  5
17AFC
  8
0
 62
     0
 10
-265.43321349978612
 20
273.75929522729513
 30
0.0
 11
-265.38633849978612
 21
273.75929522729513
 31
0.0
  0
INSERT
  5
17AFD
  8
0
 62
     0
  2
_ARCHTICK
 10
-265.76340049456587
 20
273.75929522729513
 30
0.0
 41
0.046875
 42
0.046875
 43
0.046875
  0
INSERT
  5
17AFE
  8
0
 62
     0
  2
_ARCHTICK
 10
-265.43321349978612
 20
273.75929522729513
 30
0.0
 41
0.046875
 42
0.046875
 43
0.046875
 50
180.0
  0
INSERT
  5
17AFF
  8
0
  2
*U292
 10
0.0
 20
0.0
 30
0.0
  0
POINT
  5
17B00
  8
DEFPOINTS
 62
     0
 10
-265.76340049456587
 20
274.42038345687388
 30
0.0
  0
POINT
  5
17B01
  8
DEFPOINTS
 62
     0
 10
-265.43321349978612
 20
274.42038345687388
 30
0.0
  0
POINT
  5
17B02
  8
DEFPOINTS
 62
     0
 10
-265.43321349978612
 20
273.75929522729513
 30
0.0
  0
ENDBLK
  5
17B03
  8
0
  0
BLOCK
  8
0
  2
*D131
 70
     1
 10
0.0
 20
0.0
 30
0.0
  3
*D131
  1

  0
LINE
  5
17B39
  8
0
 62
     0
 10
-387.65429506319202
 20
839.30724886751887
 30
0.0
 11
-388.01762432206078
 21
839.30724886751887
 31
0.0
  0
LINE
  5
17B3A
  8
0
 62
     0
 10
-387.32410806841222
 20
837.98507240836125
 30
0.0
 11
-388.01762432206078
 21
837.98507240836125
 31
0.0
  0
LINE
  5
17B3B
  8
0
 62
     0
 10
-387.95512432206078
 20
839.30724886751887
 30
0.0
 11
-387.95512432206078
 21
837.98507240836125
 31
0.0
  0
INSERT
  5
17B3C
  8
0
 62
     0
  2
_ARCHTICK
 10
-387.95512432206078
 20
839.30724886751887
 30
0.0
 41
0.046875
 42
0.046875
 43
0.046875
 50
90.0
  0
INSERT
  5
17B3D
  8
0
 62
     0
  2
_ARCHTICK
 10
-387.95512432206078
 20
837.98507240836125
 30
0.0
 41
0.046875
 42
0.046875
 43
0.046875
 50
270.0
  0
INSERT
  5
17B3E
  8
0
  2
*U294
 10
0.0
 20
0.0
 30
0.0
  0
POINT
  5
17B3F
  8
DEFPOINTS
 62
     0
 10
-387.56054506319202
 20
839.30724886751887
 30
0.0
  0
POINT
  5
17B40
  8
DEFPOINTS
 62
     0
 10
-387.23035806841222
 20
837.98507240836125
 30
0.0
  0
POINT
  5
17B41
  8
DEFPOINTS
 62
     0
 10
-387.95512432206078
 20
837.98507240836125
 30
0.0
  0
ENDBLK
  5
17B2B
  8
0
  0
BLOCK
  8
0
  2
*D132
 70
     1
 10
0.0
 20
0.0
 30
0.0
  3
*D132
  1

  0
LINE
  5
17B42
  8
0
 62
     0
 10
-387.56054506319202
 20
839.21349886751898
 30
0.0
 11
-387.56054506319202
 21
838.58366063794006
 31
0.0
  0
LINE
  5
17B43
  8
0
 62
     0
 10
-387.23035806841222
 20
839.21349886751898
 30
0.0
 11
-387.23035806841222
 21
838.58366063794006
 31
0.0
  0
LINE
  5
17B44
  8
0
 62
     0
 10
-387.56054506319202
 20
838.64616063794017
 30
0.0
 11
-387.60742006319202
 21
838.64616063794017
 31
0.0
  0
LINE
  5
17B45
  8
0
 62
     0
 10
-387.23035806841222
 20
838.64616063794017
 30
0.0
 11
-387.18348306841222
 21
838.64616063794017
 31
0.0
  0
INSERT
  5
17B46
  8
0
 62
     0
  2
_ARCHTICK
 10
-387.56054506319202
 20
838.64616063794017
 30
0.0
 41
0.046875
 42
0.046875
 43
0.046875
  0
INSERT
  5
17B47
  8
0
 62
     0
  2
_ARCHTICK
 10
-387.23035806841222
 20
838.64616063794017
 30
0.0
 41
0.046875
 42
0.046875
 43
0.046875
 50
180.0
  0
INSERT
  5
17B48
  8
0
  2
*U295
 10
0.0
 20
0.0
 30
0.0
  0
POINT
  5
17B49
  8
DEFPOINTS
 62
     0
 10
-387.56054506319202
 20
839.30724886751887
 30
0.0
  0
POINT
  5
17B4A
  8
DEFPOINTS
 62
     0
 10
-387.23035806841222
 20
839.30724886751887
 30
0.0
  0
POINT
  5
17B4B
  8
DEFPOINTS
 62
     0
 10
-387.23035806841222
 20
838.64616063794017
 30
0.0
  0
ENDBLK
  5
17B38
  8
0
  0
BLOCK
  8
0
  2
A$C1CC21CB1
 70
     0
 10
0.0
 20
0.0
 30
0.0
  3
A$C1CC21CB1
  1

  0
INSERT
  5
1E519
  8
0
  2
*U324
 10
0.0
 20
0.0
 30
0.0
  0
LINE
  5
1E51A
  8
0
 10
3.7500010114733291
 20
5.3952929104353577
 30
0.0
 11
3.7500010114733291
 21
4.3952929104353577
 31
0.0
  0
LINE
  5
1E51B
  8
0
 10
2.9518088400019451
 20
5.2313952928747929
 30
0.0
 11
3.1320282060082709
 21
5.3952929104353577
 31
0.0
  0
LINE
  5
1E51C
  8
0
 10
0.6179738169383882
 20
5.3952929104353577
 30
0.0
 11
0.7981931829447149
 21
5.2313952928747929
 31
0.0
  0
LINE
  5
1E51D
  8
0
 10
0.00000101147333
 20
4.3952929104353577
 30
0.0
 11
0.00000101147333
 21
5.3952929104353577
 31
0.0
  0
LINE
  5
1E51E
  8
0
 10
3.7500010114733291
 20
3.7500004431210239
 30
0.0
 11
3.7500010114733291
 21
0.0000004431210243
 31
0.0
  0
LINE
  5
1E51F
  8
0
 10
0.00000101147333
 20
0.0000004431210243
 30
0.0
 11
0.00000101147333
 21
3.7500004431210239
 31
0.0
  0
LINE
  5
1E520
  8
0
 10
2.0845209646054168
 20
5.2620610554768907
 30
0.0
 11
2.1726683896605432
 21
5.2620610554768907
 31
0.0
  0
LINE
  5
1E521
  8
0
 10
1.6654810583412989
 20
5.2620610554768907
 30
0.0
 11
1.5773336332861161
 21
5.2620610554768907
 31
0.0
  0
LINE
  5
1E522
  8
0
 10
0.6179738169383882
 20
5.3952929104353577
 30
0.0
 11
0.00000101147333
 21
5.3952929104353577
 31
0.0
  0
LINE
  5
1E523
  8
0
 10
3.7500010114733291
 20
5.3952929104353577
 30
0.0
 11
3.1320282060082709
 21
5.3952929104353577
 31
0.0
  0
LINE
  5
1E524
  8
0
 10
0.00000101147333
 20
4.3952929104353577
 30
0.0
 11
3.7500010114733291
 21
4.3952929104353577
 31
0.0
  0
LINE
  5
1E525
  8
0
 10
3.7500010114733291
 20
3.7500004431210239
 30
0.0
 11
0.00000101147333
 21
3.7500004431210239
 31
0.0
  0
LINE
  5
1E526
  8
0
 10
0.00000101147333
 20
0.0000004431210243
 30
0.0
 11
3.7500010114733291
 21
0.0000004431210243
 31
0.0
  0
ARC
  5
1E527
  8
0
  6
CONTINUOUS
 10
1.8514532601610649
 20
5.1591324902699114
 30
0.0
 40
0.2125557559448135
 50
83.639495236247939
 51
151.0371343670412
  0
POLYLINE
  8
0
  5
244AD
  66
     1
 10
0.000000
 20
0.000000
 30
0.000000
  70
     8
  0
VERTEX
  8
0
  5
244AE
 10
1.57733
 20
5.26206
 30
0.000000
  70
    32
  0
VERTEX
  8
0
  5
244AF
 10
1.57610
 20
5.26009
 30
0.000000
  70
    32
  0
VERTEX
  8
0
  5
244B0
 10
1.57484
 20
5.25813
 30
0.000000
  70
    32
  0
VERTEX
  8
0
  5
244B1
 10
1.57356
 20
5.25618
 30
0.000000
  70
    32
  0
VERTEX
  8
0
  5
244B2
 10
1.57226
 20
5.25425
 30
0.000000
  70
    32
  0
VERTEX
  8
0
  5
244B3
 10
1.57095
 20
5.25233
 30
0.000000
  70
    32
  0
VERTEX
  8
0
  5
244B4
 10
1.56961
 20
5.25043
 30
0.000000
  70
    32
  0
VERTEX
  8
0
  5
244B5
 10
1.56826
 20
5.24854
 30
0.000000
  70
    32
  0
VERTEX
  8
0
  5
244B6
 10
1.56689
 20
5.24666
 30
0.000000
  70
    32
  0
VERTEX
  8
0
  5
244B7
 10
1.56550
 20
5.24479
 30
0.000000
  70
    32
  0
VERTEX
  8
0
  5
244B8
 10
1.56409
 20
5.24294
 30
0.000000
  70
    32
  0
VERTEX
  8
0
  5
244B9
 10
1.56267
 20
5.24110
 30
0.000000
  70
    32
  0
VERTEX
  8
0
  5
244BA
 10
1.56122
 20
5.23927
 30
0.000000
  70
    32
  0
VERTEX
  8
0
  5
244BB
 10
1.55977
 20
5.23745
 30
0.000000
  70
    32
  0
VERTEX
  8
0
  5
244BC
 10
1.55829
 20
5.23565
 30
0.000000
  70
    32
  0
VERTEX
  8
0
  5
244BD
 10
1.55680
 20
5.23386
 30
0.000000
  70
    32
  0
VERTEX
  8
0
  5
244BE
 10
1.55529
 20
5.23208
 30
0.000000
  70
    32
  0
VERTEX
  8
0
  5
244BF
 10
1.55377
 20
5.23031
 30
0.000000
  70
    32
  0
VERTEX
  8
0
  5
244C0
 10
1.55223
 20
5.22855
 30
0.000000
  70
    32
  0
VERTEX
  8
0
  5
244C1
 10
1.55068
 20
5.22680
 30
0.000000
  70
    32
  0
VERTEX
  8
0
  5
244C2
 10
1.54911
 20
5.22506
 30
0.000000
  70
    32
  0
VERTEX
  8
0
  5
244C3
 10
1.54753
 20
5.22333
 30
0.000000
  70
    32
  0
VERTEX
  8
0
  5
244C4
 10
1.54593
 20
5.22162
 30
0.000000
  70
    32
  0
VERTEX
  8
0
  5
244C5
 10
1.54432
 20
5.21991
 30
0.000000
  70
    32
  0
VERTEX
  8
0
  5
244C6
 10
1.54270
 20
5.21822
 30
0.000000
  70
    32
  0
VERTEX
  8
0
  5
244C7
 10
1.54106
 20
5.21653
 30
0.000000
  70
    32
  0
VERTEX
  8
0
  5
244C8
 10
1.53941
 20
5.21485
 30
0.000000
  70
    32
  0
VERTEX
  8
0
  5
244C9
 10
1.53775
 20
5.21319
 30
0.000000
  70
    32
  0
VERTEX
  8
0
  5
244CA
 10
1.53607
 20
5.21153
 30
0.000000
  70
    32
  0
VERTEX
  8
0
  5
244CB
 10
1.53438
 20
5.20988
 30
0.000000
  70
    32
  0
VERTEX
  8
0
  5
244CC
 10
1.53268
 20
5.20824
 30
0.000000
  70
    32
  0
VERTEX
  8
0
  5
244CD
 10
1.53097
 20
5.20661
 30
0.000000
  70
    32
  0
VERTEX
  8
0
  5
244CE
 10
1.52925
 20
5.20499
 30
0.000000
  70
    32
  0
VERTEX
  8
0
  5
244CF
 10
1.52751
 20
5.20338
 30
0.000000
  70
    32
  0
VERTEX
  8
0
  5
244D0
 10
1.52576
 20
5.20178
 30
0.000000
  70
    32
  0
VERTEX
  8
0
  5
244D1
 10
1.52400
 20
5.20020
 30
0.000000
  70
    32
  0
VERTEX
  8
0
  5
244D2
 10
1.52223
 20
5.19862
 30
0.000000
  70
    32
  0
VERTEX
  8
0
  5
244D3
 10
1.52045
 20
5.19706
 30
0.000000
  70
    32
  0
VERTEX
  8
0
  5
244D4
 10
1.51865
 20
5.19552
 30
0.000000
  70
    32
  0
VERTEX
  8
0
  5
244D5
 10
1.51684
 20
5.19399
 30
0.000000
  70
    32
  0
VERTEX
  8
0
  5
244D6
 10
1.51502
 20
5.19248
 30
0.000000
  70
    32
  0
VERTEX
  8
0
  5
244D7
 10
1.51318
 20
5.19098
 30
0.000000
  70
    32
  0
VERTEX
  8
0
  5
244D8
 10
1.51134
 20
5.18950
 30
0.000000
  70
    32
  0
VERTEX
  8
0
  5
244D9
 10
1.50948
 20
5.18804
 30
0.000000
  70
    32
  0
VERTEX
  8
0
  5
244DA
 10
1.50761
 20
5.18659
 30
0.000000
  70
    32
  0
VERTEX
  8
0
  5
244DB
 10
1.50572
 20
5.18517
 30
0.000000
  70
    32
  0
VERTEX
  8
0
  5
244DC
 10
1.50383
 20
5.18376
 30
0.000000
  70
    32
  0
VERTEX
  8
0
  5
244DD
 10
1.50192
 20
5.18238
 30
0.000000
  70
    32
  0
VERTEX
  8
0
  5
244DE
 10
1.50000
 20
5.18102
 30
0.000000
  70
    32
  0
VERTEX
  8
0
  5
244DF
 10
1.49806
 20
5.17968
 30
0.000000
  70
    32
  0
VERTEX
  8
0
  5
244E0
 10
1.49612
 20
5.17836
 30
0.000000
  70
    32
  0
VERTEX
  8
0
  5
244E1
 10
1.49416
 20
5.17706
 30
0.000000
  70
    32
  0
VERTEX
  8
0
  5
244E2
 10
1.49219
 20
5.17579
 30
0.000000
  70
    32
  0
VERTEX
  8
0
  5
244E3
 10
1.49020
 20
5.17454
 30
0.000000
  70
    32
  0
VERTEX
  8
0
  5
244E4
 10
1.48821
 20
5.17332
 30
0.000000
  70
    32
  0
VERTEX
  8
0
  5
244E5
 10
1.48620
 20
5.17213
 30
0.000000
  70
    32
  0
VERTEX
  8
0
  5
244E6
 10
1.48417
 20
5.17096
 30
0.000000
  70
    32
  0
VERTEX
  8
0
  5
244E7
 10
1.48214
 20
5.16982
 30
0.000000
  70
    32
  0
VERTEX
  8
0
  5
244E8
 10
1.48009
 20
5.16871
 30
0.000000
  70
    32
  0
VERTEX
  8
0
  5
244E9
 10
1.47803
 20
5.16762
 30
0.000000
  70
    32
  0
VERTEX
  8
0
  5
244EA
 10
1.47595
 20
5.16657
 30
0.000000
  70
    32
  0
VERTEX
  8
0
  5
244EB
 10
1.47387
 20
5.16554
 30
0.000000
  70
    32
  0
VERTEX
  8
0
  5
244EC
 10
1.47177
 20
5.16455
 30
0.000000
  70
    32
  0
VERTEX
  8
0
  5
244ED
 10
1.46965
 20
5.16359
 30
0.000000
  70
    32
  0
VERTEX
  8
0
  5
244EE
 10
1.46753
 20
5.16266
 30
0.000000
  70
    32
  0
VERTEX
  8
0
  5
244EF
 10
1.46539
 20
5.16176
 30
0.000000
  70
    32
  0
VERTEX
  8
0
  5
244F0
 10
1.46323
 20
5.16090
 30
0.000000
  70
    32
  0
VERTEX
  8
0
  5
244F1
 10
1.46107
 20
5.16007
 30
0.000000
  70
    32
  0
VERTEX
  8
0
  5
244F2
 10
1.45889
 20
5.15927
 30
0.000000
  70
    32
  0
VERTEX
  8
0
  5
244F3
 10
1.45670
 20
5.15851
 30
0.000000
  70
    32
  0
VERTEX
  8
0
  5
244F4
 10
1.45449
 20
5.15779
 30
0.000000
  70
    32
  0
VERTEX
  8
0
  5
244F5
 10
1.45227
 20
5.15710
 30
0.000000
  70
    32
  0
VERTEX
  8
0
  5
244F6
 10
1.45004
 20
5.15645
 30
0.000000
  70
    32
  0
VERTEX
  8
0
  5
244F7
 10
1.44780
 20
5.15583
 30
0.000000
  70
    32
  0
VERTEX
  8
0
  5
244F8
 10
1.44555
 20
5.15525
 30
0.000000
  70
    32
  0
VERTEX
  8
0
  5
244F9
 10
1.44329
 20
5.15470
 30
0.000000
  70
    32
  0
VERTEX
  8
0
  5
244FA
 10
1.44102
 20
5.15418
 30
0.000000
  70
    32
  0
VERTEX
  8
0
  5
244FB
 10
1.43874
 20
5.15370
 30
0.000000
  70
    32
  0
VERTEX
  8
0
  5
244FC
 10
1.43645
 20
5.15325
 30
0.000000
  70
    32
  0
VERTEX
  8
0
  5
244FD
 10
1.43415
 20
5.15284
 30
0.000000
  70
    32
  0
VERTEX
  8
0
  5
244FE
 10
1.43184
 20
5.15245
 30
0.000000
  70
    32
  0
VERTEX
  8
0
  5
244FF
 10
1.42953
 20
5.15211
 30
0.000000
  70
    32
  0
VERTEX
  8
0
  5
24500
 10
1.42720
 20
5.15179
 30
0.000000
  70
    32
  0
VERTEX
  8
0
  5
24501
 10
1.42487
 20
5.15150
 30
0.000000
  70
    32
  0
VERTEX
  8
0
  5
24502
 10
1.42254
 20
5.15125
 30
0.000000
  70
    32
  0
VERTEX
  8
0
  5
24503
 10
1.42020
 20
5.15103
 30
0.000000
  70
    32
  0
VERTEX
  8
0
  5
24504
 10
1.41785
 20
5.15084
 30
0.000000
  70
    32
  0
VERTEX
  8
0
  5
24505
 10
1.41550
 20
5.15068
 30
0.000000
  70
    32
  0
VERTEX
  8
0
  5
24506
 10
1.41314
 20
5.15056
 30
0.000000
  70
    32
  0
VERTEX
  8
0
  5
24507
 10
1.41078
 20
5.15046
 30
0.000000
  70
    32
  0
VERTEX
  8
0
  5
24508
 10
1.40842
 20
5.15040
 30
0.000000
  70
    32
  0
VERTEX
  8
0
  5
24509
 10
1.40606
 20
5.15036
 30
0.000000
  70
    32
  0
VERTEX
  8
0
  5
2450A
 10
1.40369
 20
5.15036
 30
0.000000
  70
    32
  0
VERTEX
  8
0
  5
2450B
 10
1.40132
 20
5.15038
 30
0.000000
  70
    32
  0
VERTEX
  8
0
  5
2450C
 10
1.39894
 20
5.15044
 30
0.000000
  70
    32
  0
VERTEX
  8
0
  5
2450D
 10
1.39657
 20
5.15052
 30
0.000000
  70
    32
  0
VERTEX
  8
0
  5
2450E
 10
1.39420
 20
5.15064
 30
0.000000
  70
    32
  0
VERTEX
  8
0
  5
2450F
 10
1.39182
 20
5.15078
 30
0.000000
  70
    32
  0
VERTEX
  8
0
  5
24510
 10
1.38945
 20
5.15095
 30
0.000000
  70
    32
  0
VERTEX
  8
0
  5
24511
 10
1.38707
 20
5.15115
 30
0.000000
  70
    32
  0
VERTEX
  8
0
  5
24512
 10
1.38470
 20
5.15138
 30
0.000000
  70
    32
  0
VERTEX
  8
0
  5
24513
 10
1.38233
 20
5.15164
 30
0.000000
  70
    32
  0
VERTEX
  8
0
  5
24514
 10
1.37996
 20
5.15192
 30
0.000000
  70
    32
  0
VERTEX
  8
0
  5
24515
 10
1.37759
 20
5.15224
 30
0.000000
  70
    32
  0
VERTEX
  8
0
  5
24516
 10
1.37523
 20
5.15258
 30
0.000000
  70
    32
  0
VERTEX
  8
0
  5
24517
 10
1.37287
 20
5.15294
 30
0.000000
  70
    32
  0
VERTEX
  8
0
  5
24518
 10
1.37051
 20
5.15334
 30
0.000000
  70
    32
  0
VERTEX
  8
0
  5
24519
 10
1.36816
 20
5.15376
 30
0.000000
  70
    32
  0
VERTEX
  8
0
  5
2451A
 10
1.36581
 20
5.15420
 30
0.000000
  70
    32
  0
VERTEX
  8
0
  5
2451B
 10
1.36347
 20
5.15467
 30
0.000000
  70
    32
  0
VERTEX
  8
0
  5
2451C
 10
1.36114
 20
5.15517
 30
0.000000
  70
    32
  0
VERTEX
  8
0
  5
2451D
 10
1.35881
 20
5.15570
 30
0.000000
  70
    32
  0
VERTEX
  8
0
  5
2451E
 10
1.35648
 20
5.15625
 30
0.000000
  70
    32
  0
VERTEX
  8
0
  5
2451F
 10
1.35417
 20
5.15682
 30
0.000000
  70
    32
  0
VERTEX
  8
0
  5
24520
 10
1.35186
 20
5.15743
 30
0.000000
  70
    32
  0
VERTEX
  8
0
  5
24521
 10
1.34955
 20
5.15806
 30
0.000000
  70
    32
  0
VERTEX
  8
0
  5
24522
 10
1.34726
 20
5.15871
 30
0.000000
  70
    32
  0
VERTEX
  8
0
  5
24523
 10
1.34497
 20
5.15939
 30
0.000000
  70
    32
  0
VERTEX
  8
0
  5
24524
 10
1.34270
 20
5.16009
 30
0.000000
  70
    32
  0
VERTEX
  8
0
  5
24525
 10
1.34043
 20
5.16082
 30
0.000000
  70
    32
  0
VERTEX
  8
0
  5
24526
 10
1.33817
 20
5.16158
 30
0.000000
  70
    32
  0
VERTEX
  8
0
  5
24527
 10
1.33592
 20
5.16236
 30
0.000000
  70
    32
  0
VERTEX
  8
0
  5
24528
 10
1.33368
 20
5.16316
 30
0.000000
  70
    32
  0
VERTEX
  8
0
  5
24529
 10
1.33146
 20
5.16399
 30
0.000000
  70
    32
  0
VERTEX
  8
0
  5
2452A
 10
1.32924
 20
5.16485
 30
0.000000
  70
    32
  0
VERTEX
  8
0
  5
2452B
 10
1.32704
 20
5.16573
 30
0.000000
  70
    32
  0
VERTEX
  8
0
  5
2452C
 10
1.32484
 20
5.16663
 30
0.000000
  70
    32
  0
VERTEX
  8
0
  5
2452D
 10
1.32266
 20
5.16756
 30
0.000000
  70
    32
  0
VERTEX
  8
0
  5
2452E
 10
1.32049
 20
5.16851
 30
0.000000
  70
    32
  0
VERTEX
  8
0
  5
2452F
 10
1.31834
 20
5.16949
 30
0.000000
  70
    32
  0
VERTEX
  8
0
  5
24530
 10
1.31620
 20
5.17049
 30
0.000000
  70
    32
  0
VERTEX
  8
0
  5
24531
 10
1.31407
 20
5.17151
 30
0.000000
  70
    32
  0
VERTEX
  8
0
  5
24532
 10
1.31195
 20
5.17256
 30
0.000000
  70
    32
  0
VERTEX
  8
0
  5
24533
 10
1.30986
 20
5.17364
 30
0.000000
  70
    32
  0
VERTEX
  8
0
  5
24534
 10
1.30777
 20
5.17473
 30
0.000000
  70
    32
  0
VERTEX
  8
0
  5
24535
 10
1.30570
 20
5.17586
 30
0.000000
  70
    32
  0
VERTEX
  8
0
  5
24536
 10
1.30365
 20
5.17700
 30
0.000000
  70
    32
  0
VERTEX
  8
0
  5
24537
 10
1.30161
 20
5.17817
 30
0.000000
  70
    32
  0
VERTEX
  8
0
  5
24538
 10
1.29959
 20
5.17936
 30
0.000000
  70
    32
  0
VERTEX
  8
0
  5
24539
 10
1.29759
 20
5.18057
 30
0.000000
  70
    32
  0
VERTEX
  8
0
  5
2453A
 10
1.29560
 20
5.18181
 30
0.000000
  70
    32
  0
VERTEX
  8
0
  5
2453B
 10
1.29363
 20
5.18307
 30
0.000000
  70
    32
  0
VERTEX
  8
0
  5
2453C
 10
1.29168
 20
5.18436
 30
0.000000
  70
    32
  0
VERTEX
  8
0
  5
2453D
 10
1.28975
 20
5.18567
 30
0.000000
  70
    32
  0
VERTEX
  8
0
  5
2453E
 10
1.28783
 20
5.18700
 30
0.000000
  70
    32
  0
VERTEX
  8
0
  5
2453F
 10
1.28594
 20
5.18835
 30
0.000000
  70
    32
  0
VERTEX
  8
0
  5
24540
 10
1.28406
 20
5.18973
 30
0.000000
  70
    32
  0
VERTEX
  8
0
  5
24541
 10
1.28221
 20
5.19112
 30
0.000000
  70
    32
  0
VERTEX
  8
0
  5
24542
 10
1.28037
 20
5.19255
 30
0.000000
  70
    32
  0
VERTEX
  8
0
  5
24543
 10
1.27856
 20
5.19399
 30
0.000000
  70
    32
  0
VERTEX
  8
0
  5
24544
 10
1.27677
 20
5.19545
 30
0.000000
  70
    32
  0
VERTEX
  8
0
  5
24545
 10
1.27500
 20
5.19694
 30
0.000000
  70
    32
  0
VERTEX
  8
0
  5
24546
 10
1.27325
 20
5.19845
 30
0.000000
  70
    32
  0
VERTEX
  8
0
  5
24547
 10
1.27152
 20
5.19998
 30
0.000000
  70
    32
  0
VERTEX
  8
0
  5
24548
 10
1.26981
 20
5.20154
 30
0.000000
  70
    32
  0
VERTEX
  8
0
  5
24549
 10
1.26813
 20
5.20311
 30
0.000000
  70
    32
  0
VERTEX
  8
0
  5
2454A
 10
1.26647
 20
5.20471
 30
0.000000
  70
    32
  0
VERTEX
  8
0
  5
2454B
 10
1.26483
 20
5.20632
 30
0.000000
  70
    32
  0
VERTEX
  8
0
  5
2454C
 10
1.26320
 20
5.20796
 30
0.000000
  70
    32
  0
VERTEX
  8
0
  5
2454D
 10
1.26160
 20
5.20961
 30
0.000000
  70
    32
  0
VERTEX
  8
0
  5
2454E
 10
1.26001
 20
5.21128
 30
0.000000
  70
    32
  0
VERTEX
  8
0
  5
2454F
 10
1.25844
 20
5.21297
 30
0.000000
  70
    32
  0
VERTEX
  8
0
  5
24550
 10
1.25689
 20
5.21467
 30
0.000000
  70
    32
  0
VERTEX
  8
0
  5
24551
 10
1.25535
 20
5.21639
 30
0.000000
  70
    32
  0
VERTEX
  8
0
  5
24552
 10
1.25383
 20
5.21813
 30
0.000000
  70
    32
  0
VERTEX
  8
0
  5
24553
 10
1.25232
 20
5.21988
 30
0.000000
  70
    32
  0
VERTEX
  8
0
  5
24554
 10
1.25083
 20
5.22164
 30
0.000000
  70
    32
  0
VERTEX
  8
0
  5
24555
 10
1.24935
 20
5.22342
 30
0.000000
  70
    32
  0
VERTEX
  8
0
  5
24556
 10
1.24788
 20
5.22521
 30
0.000000
  70
    32
  0
VERTEX
  8
0
  5
24557
 10
1.24642
 20
5.22702
 30
0.000000
  70
    32
  0
VERTEX
  8
0
  5
24558
 10
1.24498
 20
5.22883
 30
0.000000
  70
    32
  0
VERTEX
  8
0
  5
24559
 10
1.24354
 20
5.23066
 30
0.000000
  70
    32
  0
VERTEX
  8
0
  5
2455A
 10
1.24212
 20
5.23249
 30
0.000000
  70
    32
  0
VERTEX
  8
0
  5
2455B
 10
1.24070
 20
5.23434
 30
0.000000
  70
    32
  0
VERTEX
  8
0
  5
2455C
 10
1.23930
 20
5.23620
 30
0.000000
  70
    32
  0
VERTEX
  8
0
  5
2455D
 10
1.23790
 20
5.23806
 30
0.000000
  70
    32
  0
VERTEX
  8
0
  5
2455E
 10
1.23651
 20
5.23993
 30
0.000000
  70
    32
  0
VERTEX
  8
0
  5
2455F
 10
1.23512
 20
5.24181
 30
0.000000
  70
    32
  0
VERTEX
  8
0
  5
24560
 10
1.23374
 20
5.24370
 30
0.000000
  70
    32
  0
VERTEX
  8
0
  5
24561
 10
1.23237
 20
5.24559
 30
0.000000
  70
    32
  0
VERTEX
  8
0
  5
24562
 10
1.23099
 20
5.24749
 30
0.000000
  70
    32
  0
VERTEX
  8
0
  5
24563
 10
1.22963
 20
5.24940
 30
0.000000
  70
    32
  0
VERTEX
  8
0
  5
24564
 10
1.22826
 20
5.25130
 30
0.000000
  70
    32
  0
VERTEX
  8
0
  5
24565
 10
1.22690
 20
5.25322
 30
0.000000
  70
    32
  0
VERTEX
  8
0
  5
24566
 10
1.22554
 20
5.25513
 30
0.000000
  70
    32
  0
VERTEX
  8
0
  5
24567
 10
1.22418
 20
5.25705
 30
0.000000
  70
    32
  0
VERTEX
  8
0
  5
24568
 10
1.22282
 20
5.25896
 30
0.000000
  70
    32
  0
VERTEX
  8
0
  5
24569
 10
1.22146
 20
5.26088
 30
0.000000
  70
    32
  0
VERTEX
  8
0
  5
2456A
 10
1.22010
 20
5.26281
 30
0.000000
  70
    32
  0
VERTEX
  8
0
  5
2456B
 10
1.21874
 20
5.26473
 30
0.000000
  70
    32
  0
VERTEX
  8
0
  5
2456C
 10
1.21738
 20
5.26665
 30
0.000000
  70
    32
  0
VERTEX
  8
0
  5
2456D
 10
1.21601
 20
5.26856
 30
0.000000
  70
    32
  0
VERTEX
  8
0
  5
2456E
 10
1.21464
 20
5.27048
 30
0.000000
  70
    32
  0
VERTEX
  8
0
  5
2456F
 10
1.21326
 20
5.27239
 30
0.000000
  70
    32
  0
VERTEX
  8
0
  5
24570
 10
1.21188
 20
5.27431
 30
0.000000
  70
    32
  0
VERTEX
  8
0
  5
24571
 10
1.21049
 20
5.27621
 30
0.000000
  70
    32
  0
VERTEX
  8
0
  5
24572
 10
1.20910
 20
5.27812
 30
0.000000
  70
    32
  0
VERTEX
  8
0
  5
24573
 10
1.20770
 20
5.28001
 30
0.000000
  70
    32
  0
VERTEX
  8
0
  5
24574
 10
1.20629
 20
5.28190
 30
0.000000
  70
    32
  0
VERTEX
  8
0
  5
24575
 10
1.20487
 20
5.28379
 30
0.000000
  70
    32
  0
VERTEX
  8
0
  5
24576
 10
1.20344
 20
5.28567
 30
0.000000
  70
    32
  0
VERTEX
  8
0
  5
24577
 10
1.20201
 20
5.28754
 30
0.000000
  70
    32
  0
VERTEX
  8
0
  5
24578
 10
1.20056
 20
5.28940
 30
0.000000
  70
    32
  0
VERTEX
  8
0
  5
24579
 10
1.19910
 20
5.29126
 30
0.000000
  70
    32
  0
VERTEX
  8
0
  5
2457A
 10
1.19763
 20
5.29311
 30
0.000000
  70
    32
  0
VERTEX
  8
0
  5
2457B
 10
1.19614
 20
5.29494
 30
0.000000
  70
    32
  0
VERTEX
  8
0
  5
2457C
 10
1.19465
 20
5.29677
 30
0.000000
  70
    32
  0
VERTEX
  8
0
  5
2457D
 10
1.19314
 20
5.29858
 30
0.000000
  70
    32
  0
VERTEX
  8
0
  5
2457E
 10
1.19161
 20
5.30038
 30
0.000000
  70
    32
  0
VERTEX
  8
0
  5
2457F
 10
1.19008
 20
5.30218
 30
0.000000
  70
    32
  0
VERTEX
  8
0
  5
24580
 10
1.18853
 20
5.30396
 30
0.000000
  70
    32
  0
VERTEX
  8
0
  5
24581
 10
1.18697
 20
5.30573
 30
0.000000
  70
    32
  0
VERTEX
  8
0
  5
24582
 10
1.18539
 20
5.30748
 30
0.000000
  70
    32
  0
VERTEX
  8
0
  5
24583
 10
1.18381
 20
5.30923
 30
0.000000
  70
    32
  0
VERTEX
  8
0
  5
24584
 10
1.18221
 20
5.31096
 30
0.000000
  70
    32
  0
VERTEX
  8
0
  5
24585
 10
1.18059
 20
5.31268
 30
0.000000
  70
    32
  0
VERTEX
  8
0
  5
24586
 10
1.17897
 20
5.31439
 30
0.000000
  70
    32
  0
VERTEX
  8
0
  5
24587
 10
1.17733
 20
5.31608
 30
0.000000
  70
    32
  0
VERTEX
  8
0
  5
24588
 10
1.17568
 20
5.31776
 30
0.000000
  70
    32
  0
VERTEX
  8
0
  5
24589
 10
1.17401
 20
5.31943
 30
0.000000
  70
    32
  0
VERTEX
  8
0
  5
2458A
 10
1.17234
 20
5.32108
 30
0.000000
  70
    32
  0
VERTEX
  8
0
  5
2458B
 10
1.17064
 20
5.32272
 30
0.000000
  70
    32
  0
VERTEX
  8
0
  5
2458C
 10
1.16894
 20
5.32434
 30
0.000000
  70
    32
  0
VERTEX
  8
0
  5
2458D
 10
1.16723
 20
5.32595
 30
0.000000
  70
    32
  0
VERTEX
  8
0
  5
2458E
 10
1.16550
 20
5.32754
 30
0.000000
  70
    32
  0
VERTEX
  8
0
  5
2458F
 10
1.16375
 20
5.32912
 30
0.000000
  70
    32
  0
VERTEX
  8
0
  5
24590
 10
1.16200
 20
5.33068
 30
0.000000
  70
    32
  0
VERTEX
  8
0
  5
24591
 10
1.16023
 20
5.33222
 30
0.000000
  70
    32
  0
VERTEX
  8
0
  5
24592
 10
1.15845
 20
5.33375
 30
0.000000
  70
    32
  0
VERTEX
  8
0
  5
24593
 10
1.15666
 20
5.33527
 30
0.000000
  70
    32
  0
VERTEX
  8
0
  5
24594
 10
1.15485
 20
5.33676
 30
0.000000
  70
    32
  0
VERTEX
  8
0
  5
24595
 10
1.15303
 20
5.33824
 30
0.000000
  70
    32
  0
VERTEX
  8
0
  5
24596
 10
1.15120
 20
5.33970
 30
0.000000
  70
    32
  0
VERTEX
  8
0
  5
24597
 10
1.14936
 20
5.34114
 30
0.000000
  70
    32
  0
VERTEX
  8
0
  5
24598
 10
1.14750
 20
5.34257
 30
0.000000
  70
    32
  0
VERTEX
  8
0
  5
24599
 10
1.14563
 20
5.34398
 30
0.000000
  70
    32
  0
VERTEX
  8
0
  5
2459A
 10
1.14375
 20
5.34536
 30
0.000000
  70
    32
  0
VERTEX
  8
0
  5
2459B
 10
1.14185
 20
5.34673
 30
0.000000
  70
    32
  0
VERTEX
  8
0
  5
2459C
 10
1.13994
 20
5.34809
 30
0.000000
  70
    32
  0
VERTEX
  8
0
  5
2459D
 10
1.13802
 20
5.34942
 30
0.000000
  70
    32
  0
VERTEX
  8
0
  5
2459E
 10
1.13609
 20
5.35073
 30
0.000000
  70
    32
  0
VERTEX
  8
0
  5
2459F
 10
1.13414
 20
5.35202
 30
0.000000
  70
    32
  0
VERTEX
  8
0
  5
245A0
 10
1.13218
 20
5.35329
 30
0.000000
  70
    32
  0
VERTEX
  8
0
  5
245A1
 10
1.13021
 20
5.35454
 30
0.000000
  70
    32
  0
VERTEX
  8
0
  5
245A2
 10
1.12822
 20
5.35578
 30
0.000000
  70
    32
  0
VERTEX
  8
0
  5
245A3
 10
1.12622
 20
5.35699
 30
0.000000
  70
    32
  0
VERTEX
  8
0
  5
245A4
 10
1.12421
 20
5.35817
 30
0.000000
  70
    32
  0
VERTEX
  8
0
  5
245A5
 10
1.12219
 20
5.35934
 30
0.000000
  70
    32
  0
VERTEX
  8
0
  5
245A6
 10
1.12015
 20
5.36049
 30
0.000000
  70
    32
  0
VERTEX
  8
0
  5
245A7
 10
1.11810
 20
5.36161
 30
0.000000
  70
    32
  0
VERTEX
  8
0
  5
245A8
 10
1.11604
 20
5.36271
 30
0.000000
  70
    32
  0
VERTEX
  8
0
  5
245A9
 10
1.11397
 20
5.36379
 30
0.000000
  70
    32
  0
VERTEX
  8
0
  5
245AA
 10
1.11188
 20
5.36485
 30
0.000000
  70
    32
  0
VERTEX
  8
0
  5
245AB
 10
1.10978
 20
5.36588
 30
0.000000
  70
    32
  0
VERTEX
  8
0
  5
245AC
 10
1.10767
 20
5.36689
 30
0.000000
  70
    32
  0
VERTEX
  8
0
  5
245AD
 10
1.10554
 20
5.36788
 30
0.000000
  70
    32
  0
VERTEX
  8
0
  5
245AE
 10
1.10341
 20
5.36884
 30
0.000000
  70
    32
  0
VERTEX
  8
0
  5
245AF
 10
1.10126
 20
5.36978
 30
0.000000
  70
    32
  0
VERTEX
  8
0
  5
245B0
 10
1.09910
 20
5.37070
 30
0.000000
  70
    32
  0
VERTEX
  8
0
  5
245B1
 10
1.09694
 20
5.37159
 30
0.000000
  70
    32
  0
VERTEX
  8
0
  5
245B2
 10
1.09476
 20
5.37246
 30
0.000000
  70
    32
  0
VERTEX
  8
0
  5
245B3
 10
1.09257
 20
5.37331
 30
0.000000
  70
    32
  0
VERTEX
  8
0
  5
245B4
 10
1.09037
 20
5.37414
 30
0.000000
  70
    32
  0
VERTEX
  8
0
  5
245B5
 10
1.08816
 20
5.37494
 30
0.000000
  70
    32
  0
VERTEX
  8
0
  5
245B6
 10
1.08594
 20
5.37571
 30
0.000000
  70
    32
  0
VERTEX
  8
0
  5
245B7
 10
1.08372
 20
5.37647
 30
0.000000
  70
    32
  0
VERTEX
  8
0
  5
245B8
 10
1.08148
 20
5.37720
 30
0.000000
  70
    32
  0
VERTEX
  8
0
  5
245B9
 10
1.07924
 20
5.37790
 30
0.000000
  70
    32
  0
VERTEX
  8
0
  5
245BA
 10
1.07699
 20
5.37858
 30
0.000000
  70
    32
  0
VERTEX
  8
0
  5
245BB
 10
1.07473
 20
5.37924
 30
0.000000
  70
    32
  0
VERTEX
  8
0
  5
245BC
 10
1.07246
 20
5.37987
 30
0.000000
  70
    32
  0
VERTEX
  8
0
  5
245BD
 10
1.07019
 20
5.38048
 30
0.000000
  70
    32
  0
VERTEX
  8
0
  5
245BE
 10
1.06790
 20
5.38107
 30
0.000000
  70
    32
  0
VERTEX
  8
0
  5
245BF
 10
1.06562
 20
5.38163
 30
0.000000
  70
    32
  0
VERTEX
  8
0
  5
245C0
 10
1.06332
 20
5.38217
 30
0.000000
  70
    32
  0
VERTEX
  8
0
  5
245C1
 10
1.06102
 20
5.38268
 30
0.000000
  70
    32
  0
VERTEX
  8
0
  5
245C2
 10
1.05872
 20
5.38317
 30
0.000000
  70
    32
  0
VERTEX
  8
0
  5
245C3
 10
1.05640
 20
5.38363
 30
0.000000
  70
    32
  0
VERTEX
  8
0
  5
245C4
 10
1.05409
 20
5.38407
 30
0.000000
  70
    32
  0
VERTEX
  8
0
  5
245C5
 10
1.05176
 20
5.38449
 30
0.000000
  70
    32
  0
VERTEX
  8
0
  5
245C6
 10
1.04944
 20
5.38488
 30
0.000000
  70
    32
  0
VERTEX
  8
0
  5
245C7
 10
1.04711
 20
5.38525
 30
0.000000
  70
    32
  0
VERTEX
  8
0
  5
245C8
 10
1.04477
 20
5.38559
 30
0.000000
  70
    32
  0
VERTEX
  8
0
  5
245C9
 10
1.04243
 20
5.38590
 30
0.000000
  70
    32
  0
VERTEX
  8
0
  5
245CA
 10
1.04009
 20
5.38619
 30
0.000000
  70
    32
  0
VERTEX
  8
0
  5
245CB
 10
1.03774
 20
5.38646
 30
0.000000
  70
    32
  0
VERTEX
  8
0
  5
245CC
 10
1.03540
 20
5.38670
 30
0.000000
  70
    32
  0
VERTEX
  8
0
  5
245CD
 10
1.03304
 20
5.38692
 30
0.000000
  70
    32
  0
VERTEX
  8
0
  5
245CE
 10
1.03069
 20
5.38711
 30
0.000000
  70
    32
  0
VERTEX
  8
0
  5
245CF
 10
1.02833
 20
5.38727
 30
0.000000
  70
    32
  0
VERTEX
  8
0
  5
245D0
 10
1.02598
 20
5.38741
 30
0.000000
  70
    32
  0
VERTEX
  8
0
  5
245D1
 10
1.02362
 20
5.38753
 30
0.000000
  70
    32
  0
VERTEX
  8
0
  5
245D2
 10
1.02126
 20
5.38762
 30
0.000000
  70
    32
  0
VERTEX
  8
0
  5
245D3
 10
1.01890
 20
5.38768
 30
0.000000
  70
    32
  0
VERTEX
  8
0
  5
245D4
 10
1.01653
 20
5.38772
 30
0.000000
  70
    32
  0
VERTEX
  8
0
  5
245D5
 10
1.01417
 20
5.38773
 30
0.000000
  70
    32
  0
VERTEX
  8
0
  5
245D6
 10
1.01181
 20
5.38772
 30
0.000000
  70
    32
  0
VERTEX
  8
0
  5
245D7
 10
1.00945
 20
5.38768
 30
0.000000
  70
    32
  0
VERTEX
  8
0
  5
245D8
 10
1.00708
 20
5.38761
 30
0.000000
  70
    32
  0
VERTEX
  8
0
  5
245D9
 10
1.00472
 20
5.38752
 30
0.000000
  70
    32
  0
VERTEX
  8
0
  5
245DA
 10
1.00236
 20
5.38741
 30
0.000000
  70
    32
  0
VERTEX
  8
0
  5
245DB
 10
1.00001
 20
5.38727
 30
0.000000
  70
    32
  0
VERTEX
  8
0
  5
245DC
 10
0.997649
 20
5.38710
 30
0.000000
  70
    32
  0
VERTEX
  8
0
  5
245DD
 10
0.995295
 20
5.38690
 30
0.000000
  70
    32
  0
VERTEX
  8
0
  5
245DE
 10
0.992943
 20
5.38668
 30
0.000000
  70
    32
  0
VERTEX
  8
0
  5
245DF
 10
0.990594
 20
5.38644
 30
0.000000
  70
    32
  0
VERTEX
  8
0
  5
245E0
 10
0.988249
 20
5.38617
 30
0.000000
  70
    32
  0
VERTEX
  8
0
  5
245E1
 10
0.985907
 20
5.38587
 30
0.000000
  70
    32
  0
VERTEX
  8
0
  5
245E2
 10
0.983569
 20
5.38554
 30
0.000000
  70
    32
  0
VERTEX
  8
0
  5
245E3
 10
0.981235
 20
5.38520
 30
0.000000
  70
    32
  0
VERTEX
  8
0
  5
245E4
 10
0.978906
 20
5.38482
 30
0.000000
  70
    32
  0
VERTEX
  8
0
  5
245E5
 10
0.976581
 20
5.38442
 30
0.000000
  70
    32
  0
VERTEX
  8
0
  5
245E6
 10
0.974263
 20
5.38399
 30
0.000000
  70
    32
  0
VERTEX
  8
0
  5
245E7
 10
0.971949
 20
5.38354
 30
0.000000
  70
    32
  0
VERTEX
  8
0
  5
245E8
 10
0.969642
 20
5.38306
 30
0.000000
  70
    32
  0
VERTEX
  8
0
  5
245E9
 10
0.967341
 20
5.38255
 30
0.000000
  70
    32
  0
VERTEX
  8
0
  5
245EA
 10
0.965047
 20
5.38202
 30
0.000000
  70
    32
  0
VERTEX
  8
0
  5
245EB
 10
0.962760
 20
5.38147
 30
0.000000
  70
    32
  0
VERTEX
  8
0
  5
245EC
 10
0.960480
 20
5.38088
 30
0.000000
  70
    32
  0
VERTEX
  8
0
  5
245ED
 10
0.958208
 20
5.38027
 30
0.000000
  70
    32
  0
VERTEX
  8
0
  5
245EE
 10
0.955943
 20
5.37964
 30
0.000000
  70
    32
  0
VERTEX
  8
0
  5
245EF
 10
0.953688
 20
5.37898
 30
0.000000
  70
    32
  0
VERTEX
  8
0
  5
245F0
 10
0.951441
 20
5.37829
 30
0.000000
  70
    32
  0
VERTEX
  8
0
  5
245F1
 10
0.949203
 20
5.37758
 30
0.000000
  70
    32
  0
VERTEX
  8
0
  5
245F2
 10
0.946974
 20
5.37684
 30
0.000000
  70
    32
  0
VERTEX
  8
0
  5
245F3
 10
0.944756
 20
5.37607
 30
0.000000
  70
    32
  0
VERTEX
  8
0
  5
245F4
 10
0.942547
 20
5.37528
 30
0.000000
  70
    32
  0
VERTEX
  8
0
  5
245F5
 10
0.940349
 20
5.37446
 30
0.000000
  70
    32
  0
VERTEX
  8
0
  5
245F6
 10
0.938162
 20
5.37362
 30
0.000000
  70
    32
  0
VERTEX
  8
0
  5
245F7
 10
0.935986
 20
5.37275
 30
0.000000
  70
    32
  0
VERTEX
  8
0
  5
245F8
 10
0.933821
 20
5.37186
 30
0.000000
  70
    32
  0
VERTEX
  8
0
  5
245F9
 10
0.931669
 20
5.37093
 30
0.000000
  70
    32
  0
VERTEX
  8
0
  5
245FA
 10
0.929528
 20
5.36999
 30
0.000000
  70
    32
  0
VERTEX
  8
0
  5
245FB
 10
0.927400
 20
5.36901
 30
0.000000
  70
    32
  0
VERTEX
  8
0
  5
245FC
 10
0.925285
 20
5.36801
 30
0.000000
  70
    32
  0
VERTEX
  8
0
  5
245FD
 10
0.923183
 20
5.36699
 30
0.000000
  70
    32
  0
VERTEX
  8
0
  5
245FE
 10
0.921095
 20
5.36594
 30
0.000000
  70
    32
  0
VERTEX
  8
0
  5
245FF
 10
0.919021
 20
5.36486
 30
0.000000
  70
    32
  0
VERTEX
  8
0
  5
24600
 10
0.916960
 20
5.36375
 30
0.000000
  70
    32
  0
VERTEX
  8
0
  5
24601
 10
0.914915
 20
5.36262
 30
0.000000
  70
    32
  0
VERTEX
  8
0
  5
24602
 10
0.912884
 20
5.36147
 30
0.000000
  70
    32
  0
VERTEX
  8
0
  5
24603
 10
0.910867
 20
5.36028
 30
0.000000
  70
    32
  0
VERTEX
  8
0
  5
24604
 10
0.908865
 20
5.35908
 30
0.000000
  70
    32
  0
VERTEX
  8
0
  5
24605
 10
0.906878
 20
5.35785
 30
0.000000
  70
    32
  0
VERTEX
  8
0
  5
24606
 10
0.904905
 20
5.35659
 30
0.000000
  70
    32
  0
VERTEX
  8
0
  5
24607
 10
0.902947
 20
5.35532
 30
0.000000
  70
    32
  0
VERTEX
  8
0
  5
24608
 10
0.901003
 20
5.35402
 30
0.000000
  70
    32
  0
VERTEX
  8
0
  5
24609
 10
0.899074
 20
5.35269
 30
0.000000
  70
    32
  0
VERTEX
  8
0
  5
2460A
 10
0.897160
 20
5.35135
 30
0.000000
  70
    32
  0
VERTEX
  8
0
  5
2460B
 10
0.895260
 20
5.34998
 30
0.000000
  70
    32
  0
VERTEX
  8
0
  5
2460C
 10
0.893375
 20
5.34859
 30
0.000000
  70
    32
  0
VERTEX
  8
0
  5
2460D
 10
0.891505
 20
5.34718
 30
0.000000
  70
    32
  0
VERTEX
  8
0
  5
2460E
 10
0.889649
 20
5.34575
 30
0.000000
  70
    32
  0
VERTEX
  8
0
  5
2460F
 10
0.887808
 20
5.34430
 30
0.000000
  70
    32
  0
VERTEX
  8
0
  5
24610
 10
0.885982
 20
5.34283
 30
0.000000
  70
    32
  0
VERTEX
  8
0
  5
24611
 10
0.884170
 20
5.34134
 30
0.000000
  70
    32
  0
VERTEX
  8
0
  5
24612
 10
0.882373
 20
5.33983
 30
0.000000
  70
    32
  0
VERTEX
  8
0
  5
24613
 10
0.880591
 20
5.33831
 30
0.000000
  70
    32
  0
VERTEX
  8
0
  5
24614
 10
0.878824
 20
5.33676
 30
0.000000
  70
    32
  0
VERTEX
  8
0
  5
24615
 10
0.877071
 20
5.33520
 30
0.000000
  70
    32
  0
VERTEX
  8
0
  5
24616
 10
0.875334
 20
5.33362
 30
0.000000
  70
    32
  0
VERTEX
  8
0
  5
24617
 10
0.873611
 20
5.33203
 30
0.000000
  70
    32
  0
VERTEX
  8
0
  5
24618
 10
0.871902
 20
5.33042
 30
0.000000
  70
    32
  0
VERTEX
  8
0
  5
24619
 10
0.870209
 20
5.32879
 30
0.000000
  70
    32
  0
VERTEX
  8
0
  5
2461A
 10
0.868530
 20
5.32715
 30
0.000000
  70
    32
  0
VERTEX
  8
0
  5
2461B
 10
0.866866
 20
5.32549
 30
0.000000
  70
    32
  0
VERTEX
  8
0
  5
2461C
 10
0.865217
 20
5.32382
 30
0.000000
  70
    32
  0
VERTEX
  8
0
  5
2461D
 10
0.863583
 20
5.32213
 30
0.000000
  70
    32
  0
VERTEX
  8
0
  5
2461E
 10
0.861964
 20
5.32043
 30
0.000000
  70
    32
  0
VERTEX
  8
0
  5
2461F
 10
0.860360
 20
5.31872
 30
0.000000
  70
    32
  0
VERTEX
  8
0
  5
24620
 10
0.858770
 20
5.31699
 30
0.000000
  70
    32
  0
VERTEX
  8
0
  5
24621
 10
0.857196
 20
5.31525
 30
0.000000
  70
    32
  0
VERTEX
  8
0
  5
24622
 10
0.855636
 20
5.31350
 30
0.000000
  70
    32
  0
VERTEX
  8
0
  5
24623
 10
0.854091
 20
5.31174
 30
0.000000
  70
    32
  0
VERTEX
  8
0
  5
24624
 10
0.852561
 20
5.30997
 30
0.000000
  70
    32
  0
VERTEX
  8
0
  5
24625
 10
0.851046
 20
5.30819
 30
0.000000
  70
    32
  0
VERTEX
  8
0
  5
24626
 10
0.849546
 20
5.30639
 30
0.000000
  70
    32
  0
VERTEX
  8
0
  5
24627
 10
0.848060
 20
5.30459
 30
0.000000
  70
    32
  0
VERTEX
  8
0
  5
24628
 10
0.846587
 20
5.30277
 30
0.000000
  70
    32
  0
VERTEX
  8
0
  5
24629
 10
0.845128
 20
5.30095
 30
0.000000
  70
    32
  0
VERTEX
  8
0
  5
2462A
 10
0.843681
 20
5.29912
 30
0.000000
  70
    32
  0
VERTEX
  8
0
  5
2462B
 10
0.842247
 20
5.29728
 30
0.000000
  70
    32
  0
VERTEX
  8
0
  5
2462C
 10
0.840826
 20
5.29543
 30
0.000000
  70
    32
  0
VERTEX
  8
0
  5
2462D
 10
0.839416
 20
5.29357
 30
0.000000
  70
    32
  0
VERTEX
  8
0
  5
2462E
 10
0.838018
 20
5.29170
 30
0.000000
  70
    32
  0
VERTEX
  8
0
  5
2462F
 10
0.836630
 20
5.28983
 30
0.000000
  70
    32
  0
VERTEX
  8
0
  5
24630
 10
0.835253
 20
5.28795
 30
0.000000
  70
    32
  0
VERTEX
  8
0
  5
24631
 10
0.833887
 20
5.28606
 30
0.000000
  70
    32
  0
VERTEX
  8
0
  5
24632
 10
0.832530
 20
5.28416
 30
0.000000
  70
    32
  0
VERTEX
  8
0
  5
24633
 10
0.831182
 20
5.28226
 30
0.000000
  70
    32
  0
VERTEX
  8
0
  5
24634
 10
0.829844
 20
5.28035
 30
0.000000
  70
    32
  0
VERTEX
  8
0
  5
24635
 10
0.828515
 20
5.27843
 30
0.000000
  70
    32
  0
VERTEX
  8
0
  5
24636
 10
0.827193
 20
5.27651
 30
0.000000
  70
    32
  0
VERTEX
  8
0
  5
24637
 10
0.825880
 20
5.27459
 30
0.000000
  70
    32
  0
VERTEX
  8
0
  5
24638
 10
0.824574
 20
5.27265
 30
0.000000
  70
    32
  0
VERTEX
  8
0
  5
24639
 10
0.823275
 20
5.27072
 30
0.000000
  70
    32
  0
VERTEX
  8
0
  5
2463A
 10
0.821983
 20
5.26878
 30
0.000000
  70
    32
  0
VERTEX
  8
0
  5
2463B
 10
0.820697
 20
5.26683
 30
0.000000
  70
    32
  0
VERTEX
  8
0
  5
2463C
 10
0.819417
 20
5.26488
 30
0.000000
  70
    32
  0
VERTEX
  8
0
  5
2463D
 10
0.818143
 20
5.26293
 30
0.000000
  70
    32
  0
VERTEX
  8
0
  5
2463E
 10
0.816874
 20
5.26097
 30
0.000000
  70
    32
  0
VERTEX
  8
0
  5
2463F
 10
0.815610
 20
5.25901
 30
0.000000
  70
    32
  0
VERTEX
  8
0
  5
24640
 10
0.814350
 20
5.25705
 30
0.000000
  70
    32
  0
VERTEX
  8
0
  5
24641
 10
0.813094
 20
5.25508
 30
0.000000
  70
    32
  0
VERTEX
  8
0
  5
24642
 10
0.811841
 20
5.25311
 30
0.000000
  70
    32
  0
VERTEX
  8
0
  5
24643
 10
0.810592
 20
5.25114
 30
0.000000
  70
    32
  0
VERTEX
  8
0
  5
24644
 10
0.809346
 20
5.24917
 30
0.000000
  70
    32
  0
VERTEX
  8
0
  5
24645
 10
0.808102
 20
5.24720
 30
0.000000
  70
    32
  0
VERTEX
  8
0
  5
24646
 10
0.806861
 20
5.24522
 30
0.000000
  70
    32
  0
VERTEX
  8
0
  5
24647
 10
0.805620
 20
5.24325
 30
0.000000
  70
    32
  0
VERTEX
  8
0
  5
24648
 10
0.804382
 20
5.24127
 30
0.000000
  70
    32
  0
VERTEX
  8
0
  5
24649
 10
0.803144
 20
5.23930
 30
0.000000
  70
    32
  0
VERTEX
  8
0
  5
2464A
 10
0.801906
 20
5.23732
 30
0.000000
  70
    32
  0
VERTEX
  8
0
  5
2464B
 10
0.800669
 20
5.23535
 30
0.000000
  70
    32
  0
VERTEX
  8
0
  5
2464C
 10
0.799431
 20
5.23337
 30
0.000000
  70
    32
  0
VERTEX
  8
0
  5
2464D
 10
0.798193
 20
5.23140
 30
0.000000
  70
    32
  0
SEQEND
  8
0
  5
2464E
  0
ARC
  5
1E529
  8
0
  6
CONTINUOUS
 10
1.898548762785651
 20
5.1591324902699114
 30
0.0
 40
0.2125557559448135
 50
28.962865632958739
 51
96.360504763752061
  0
CIRCLE
  5
1E52A
  8
0
  6
CONTINUOUS
 10
1.8750010114733291
 20
1.8750004431210241
 30
0.0
 40
0.2095199531320588
  0
CIRCLE
  5
1E52B
  8
0
  6
CONTINUOUS
 10
1.8750010114733291
 20
1.8750004431210241
 30
0.0
 40
0.2976673781872137
  0
POLYLINE
  8
0
  5
2464F
  66
     1
 10
0.000000
 20
0.000000
 30
0.000000
  70
     8
  0
VERTEX
  8
0
  5
24650
 10
2.17267
 20
5.26206
 30
0.000000
  70
    32
  0
VERTEX
  8
0
  5
24651
 10
2.17391
 20
5.26009
 30
0.000000
  70
    32
  0
VERTEX
  8
0
  5
24652
 10
2.17516
 20
5.25813
 30
0.000000
  70
    32
  0
VERTEX
  8
0
  5
24653
 10
2.17644
 20
5.25618
 30
0.000000
  70
    32
  0
VERTEX
  8
0
  5
24654
 10
2.17774
 20
5.25425
 30
0.000000
  70
    32
  0
VERTEX
  8
0
  5
24655
 10
2.17906
 20
5.25233
 30
0.000000
  70
    32
  0
VERTEX
  8
0
  5
24656
 10
2.18039
 20
5.25043
 30
0.000000
  70
    32
  0
VERTEX
  8
0
  5
24657
 10
2.18174
 20
5.24854
 30
0.000000
  70
    32
  0
VERTEX
  8
0
  5
24658
 10
2.18312
 20
5.24666
 30
0.000000
  70
    32
  0
VERTEX
  8
0
  5
24659
 10
2.18451
 20
5.24479
 30
0.000000
  70
    32
  0
VERTEX
  8
0
  5
2465A
 10
2.18591
 20
5.24294
 30
0.000000
  70
    32
  0
VERTEX
  8
0
  5
2465B
 10
2.18734
 20
5.24110
 30
0.000000
  70
    32
  0
VERTEX
  8
0
  5
2465C
 10
2.18878
 20
5.23927
 30
0.000000
  70
    32
  0
VERTEX
  8
0
  5
2465D
 10
2.19024
 20
5.23745
 30
0.000000
  70
    32
  0
VERTEX
  8
0
  5
2465E
 10
2.19171
 20
5.23565
 30
0.000000
  70
    32
  0
VERTEX
  8
0
  5
2465F
 10
2.19320
 20
5.23386
 30
0.000000
  70
    32
  0
VERTEX
  8
0
  5
24660
 10
2.19471
 20
5.23208
 30
0.000000
  70
    32
  0
VERTEX
  8
0
  5
24661
 10
2.19623
 20
5.23031
 30
0.000000
  70
    32
  0
VERTEX
  8
0
  5
24662
 10
2.19777
 20
5.22855
 30
0.000000
  70
    32
  0
VERTEX
  8
0
  5
24663
 10
2.19932
 20
5.22680
 30
0.000000
  70
    32
  0
VERTEX
  8
0
  5
24664
 10
2.20089
 20
5.22506
 30
0.000000
  70
    32
  0
VERTEX
  8
0
  5
24665
 10
2.20247
 20
5.22333
 30
0.000000
  70
    32
  0
VERTEX
  8
0
  5
24666
 10
2.20407
 20
5.22162
 30
0.000000
  70
    32
  0
VERTEX
  8
0
  5
24667
 10
2.20568
 20
5.21991
 30
0.000000
  70
    32
  0
VERTEX
  8
0
  5
24668
 10
2.20730
 20
5.21822
 30
0.000000
  70
    32
  0
VERTEX
  8
0
  5
24669
 10
2.20894
 20
5.21653
 30
0.000000
  70
    32
  0
VERTEX
  8
0
  5
2466A
 10
2.21059
 20
5.21485
 30
0.000000
  70
    32
  0
VERTEX
  8
0
  5
2466B
 10
2.21225
 20
5.21319
 30
0.000000
  70
    32
  0
VERTEX
  8
0
  5
2466C
 10
2.21393
 20
5.21153
 30
0.000000
  70
    32
  0
VERTEX
  8
0
  5
2466D
 10
2.21562
 20
5.20988
 30
0.000000
  70
    32
  0
VERTEX
  8
0
  5
2466E
 10
2.21732
 20
5.20824
 30
0.000000
  70
    32
  0
VERTEX
  8
0
  5
2466F
 10
2.21903
 20
5.20661
 30
0.000000
  70
    32
  0
VERTEX
  8
0
  5
24670
 10
2.22075
 20
5.20499
 30
0.000000
  70
    32
  0
VERTEX
  8
0
  5
24671
 10
2.22249
 20
5.20338
 30
0.000000
  70
    32
  0
VERTEX
  8
0
  5
24672
 10
2.22424
 20
5.20178
 30
0.000000
  70
    32
  0
VERTEX
  8
0
  5
24673
 10
2.22600
 20
5.20020
 30
0.000000
  70
    32
  0
VERTEX
  8
0
  5
24674
 10
2.22777
 20
5.19862
 30
0.000000
  70
    32
  0
VERTEX
  8
0
  5
24675
 10
2.22956
 20
5.19706
 30
0.000000
  70
    32
  0
VERTEX
  8
0
  5
24676
 10
2.23135
 20
5.19552
 30
0.000000
  70
    32
  0
VERTEX
  8
0
  5
24677
 10
2.23316
 20
5.19399
 30
0.000000
  70
    32
  0
VERTEX
  8
0
  5
24678
 10
2.23498
 20
5.19248
 30
0.000000
  70
    32
  0
VERTEX
  8
0
  5
24679
 10
2.23682
 20
5.19098
 30
0.000000
  70
    32
  0
VERTEX
  8
0
  5
2467A
 10
2.23866
 20
5.18950
 30
0.000000
  70
    32
  0
VERTEX
  8
0
  5
2467B
 10
2.24052
 20
5.18804
 30
0.000000
  70
    32
  0
VERTEX
  8
0
  5
2467C
 10
2.24239
 20
5.18659
 30
0.000000
  70
    32
  0
VERTEX
  8
0
  5
2467D
 10
2.24428
 20
5.18517
 30
0.000000
  70
    32
  0
VERTEX
  8
0
  5
2467E
 10
2.24617
 20
5.18376
 30
0.000000
  70
    32
  0
VERTEX
  8
0
  5
2467F
 10
2.24808
 20
5.18238
 30
0.000000
  70
    32
  0
VERTEX
  8
0
  5
24680
 10
2.25000
 20
5.18102
 30
0.000000
  70
    32
  0
VERTEX
  8
0
  5
24681
 10
2.25194
 20
5.17968
 30
0.000000
  70
    32
  0
VERTEX
  8
0
  5
24682
 10
2.25388
 20
5.17836
 30
0.000000
  70
    32
  0
VERTEX
  8
0
  5
24683
 10
2.25584
 20
5.17706
 30
0.000000
  70
    32
  0
VERTEX
  8
0
  5
24684
 10
2.25781
 20
5.17579
 30
0.000000
  70
    32
  0
VERTEX
  8
0
  5
24685
 10
2.25980
 20
5.17454
 30
0.000000
  70
    32
  0
VERTEX
  8
0
  5
24686
 10
2.26180
 20
5.17332
 30
0.000000
  70
    32
  0
VERTEX
  8
0
  5
24687
 10
2.26381
 20
5.17213
 30
0.000000
  70
    32
  0
VERTEX
  8
0
  5
24688
 10
2.26583
 20
5.17096
 30
0.000000
  70
    32
  0
VERTEX
  8
0
  5
24689
 10
2.26786
 20
5.16982
 30
0.000000
  70
    32
  0
VERTEX
  8
0
  5
2468A
 10
2.26991
 20
5.16871
 30
0.000000
  70
    32
  0
VERTEX
  8
0
  5
2468B
 10
2.27197
 20
5.16762
 30
0.000000
  70
    32
  0
VERTEX
  8
0
  5
2468C
 10
2.27405
 20
5.16657
 30
0.000000
  70
    32
  0
VERTEX
  8
0
  5
2468D
 10
2.27614
 20
5.16554
 30
0.000000
  70
    32
  0
VERTEX
  8
0
  5
2468E
 10
2.27824
 20
5.16455
 30
0.000000
  70
    32
  0
VERTEX
  8
0
  5
2468F
 10
2.28035
 20
5.16359
 30
0.000000
  70
    32
  0
VERTEX
  8
0
  5
24690
 10
2.28248
 20
5.16266
 30
0.000000
  70
    32
  0
VERTEX
  8
0
  5
24691
 10
2.28462
 20
5.16176
 30
0.000000
  70
    32
  0
VERTEX
  8
0
  5
24692
 10
2.28677
 20
5.16090
 30
0.000000
  70
    32
  0
VERTEX
  8
0
  5
24693
 10
2.28893
 20
5.16007
 30
0.000000
  70
    32
  0
VERTEX
  8
0
  5
24694
 10
2.29111
 20
5.15927
 30
0.000000
  70
    32
  0
VERTEX
  8
0
  5
24695
 10
2.29331
 20
5.15851
 30
0.000000
  70
    32
  0
VERTEX
  8
0
  5
24696
 10
2.29551
 20
5.15779
 30
0.000000
  70
    32
  0
VERTEX
  8
0
  5
24697
 10
2.29773
 20
5.15710
 30
0.000000
  70
    32
  0
VERTEX
  8
0
  5
24698
 10
2.29996
 20
5.15645
 30
0.000000
  70
    32
  0
VERTEX
  8
0
  5
24699
 10
2.30220
 20
5.15583
 30
0.000000
  70
    32
  0
VERTEX
  8
0
  5
2469A
 10
2.30445
 20
5.15525
 30
0.000000
  70
    32
  0
VERTEX
  8
0
  5
2469B
 10
2.30671
 20
5.15470
 30
0.000000
  70
    32
  0
VERTEX
  8
0
  5
2469C
 10
2.30898
 20
5.15418
 30
0.000000
  70
    32
  0
VERTEX
  8
0
  5
2469D
 10
2.31126
 20
5.15370
 30
0.000000
  70
    32
  0
VERTEX
  8
0
  5
2469E
 10
2.31356
 20
5.15325
 30
0.000000
  70
    32
  0
VERTEX
  8
0
  5
2469F
 10
2.31585
 20
5.15284
 30
0.000000
  70
    32
  0
VERTEX
  8
0
  5
246A0
 10
2.31816
 20
5.15245
 30
0.000000
  70
    32
  0
VERTEX
  8
0
  5
246A1
 10
2.32048
 20
5.15211
 30
0.000000
  70
    32
  0
VERTEX
  8
0
  5
246A2
 10
2.32280
 20
5.15179
 30
0.000000
  70
    32
  0
VERTEX
  8
0
  5
246A3
 10
2.32513
 20
5.15150
 30
0.000000
  70
    32
  0
VERTEX
  8
0
  5
246A4
 10
2.32746
 20
5.15125
 30
0.000000
  70
    32
  0
VERTEX
  8
0
  5
246A5
 10
2.32980
 20
5.15103
 30
0.000000
  70
    32
  0
VERTEX
  8
0
  5
246A6
 10
2.33215
 20
5.15084
 30
0.000000
  70
    32
  0
VERTEX
  8
0
  5
246A7
 10
2.33450
 20
5.15068
 30
0.000000
  70
    32
  0
VERTEX
  8
0
  5
246A8
 10
2.33686
 20
5.15056
 30
0.000000
  70
    32
  0
VERTEX
  8
0
  5
246A9
 10
2.33922
 20
5.15046
 30
0.000000
  70
    32
  0
VERTEX
  8
0
  5
246AA
 10
2.34158
 20
5.15040
 30
0.000000
  70
    32
  0
VERTEX
  8
0
  5
246AB
 10
2.34395
 20
5.15036
 30
0.000000
  70
    32
  0
VERTEX
  8
0
  5
246AC
 10
2.34632
 20
5.15036
 30
0.000000
  70
    32
  0
VERTEX
  8
0
  5
246AD
 10
2.34869
 20
5.15038
 30
0.000000
  70
    32
  0
VERTEX
  8
0
  5
246AE
 10
2.35106
 20
5.15044
 30
0.000000
  70
    32
  0
VERTEX
  8
0
  5
246AF
 10
2.35343
 20
5.15052
 30
0.000000
  70
    32
  0
VERTEX
  8
0
  5
246B0
 10
2.35581
 20
5.15064
 30
0.000000
  70
    32
  0
VERTEX
  8
0
  5
246B1
 10
2.35818
 20
5.15078
 30
0.000000
  70
    32
  0
VERTEX
  8
0
  5
246B2
 10
2.36056
 20
5.15095
 30
0.000000
  70
    32
  0
VERTEX
  8
0
  5
246B3
 10
2.36293
 20
5.15115
 30
0.000000
  70
    32
  0
VERTEX
  8
0
  5
246B4
 10
2.36530
 20
5.15138
 30
0.000000
  70
    32
  0
VERTEX
  8
0
  5
246B5
 10
2.36767
 20
5.15164
 30
0.000000
  70
    32
  0
VERTEX
  8
0
  5
246B6
 10
2.37004
 20
5.15192
 30
0.000000
  70
    32
  0
VERTEX
  8
0
  5
246B7
 10
2.37241
 20
5.15224
 30
0.000000
  70
    32
  0
VERTEX
  8
0
  5
246B8
 10
2.37477
 20
5.15258
 30
0.000000
  70
    32
  0
VERTEX
  8
0
  5
246B9
 10
2.37713
 20
5.15294
 30
0.000000
  70
    32
  0
VERTEX
  8
0
  5
246BA
 10
2.37949
 20
5.15334
 30
0.000000
  70
    32
  0
VERTEX
  8
0
  5
246BB
 10
2.38184
 20
5.15376
 30
0.000000
  70
    32
  0
VERTEX
  8
0
  5
246BC
 10
2.38419
 20
5.15420
 30
0.000000
  70
    32
  0
VERTEX
  8
0
  5
246BD
 10
2.38653
 20
5.15467
 30
0.000000
  70
    32
  0
VERTEX
  8
0
  5
246BE
 10
2.38887
 20
5.15517
 30
0.000000
  70
    32
  0
VERTEX
  8
0
  5
246BF
 10
2.39120
 20
5.15570
 30
0.000000
  70
    32
  0
VERTEX
  8
0
  5
246C0
 10
2.39352
 20
5.15625
 30
0.000000
  70
    32
  0
VERTEX
  8
0
  5
246C1
 10
2.39584
 20
5.15682
 30
0.000000
  70
    32
  0
VERTEX
  8
0
  5
246C2
 10
2.39815
 20
5.15743
 30
0.000000
  70
    32
  0
VERTEX
  8
0
  5
246C3
 10
2.40045
 20
5.15806
 30
0.000000
  70
    32
  0
VERTEX
  8
0
  5
246C4
 10
2.40274
 20
5.15871
 30
0.000000
  70
    32
  0
VERTEX
  8
0
  5
246C5
 10
2.40503
 20
5.15939
 30
0.000000
  70
    32
  0
VERTEX
  8
0
  5
246C6
 10
2.40730
 20
5.16009
 30
0.000000
  70
    32
  0
VERTEX
  8
0
  5
246C7
 10
2.40957
 20
5.16082
 30
0.000000
  70
    32
  0
VERTEX
  8
0
  5
246C8
 10
2.41183
 20
5.16158
 30
0.000000
  70
    32
  0
VERTEX
  8
0
  5
246C9
 10
2.41408
 20
5.16236
 30
0.000000
  70
    32
  0
VERTEX
  8
0
  5
246CA
 10
2.41632
 20
5.16316
 30
0.000000
  70
    32
  0
VERTEX
  8
0
  5
246CB
 10
2.41854
 20
5.16399
 30
0.000000
  70
    32
  0
VERTEX
  8
0
  5
246CC
 10
2.42076
 20
5.16485
 30
0.000000
  70
    32
  0
VERTEX
  8
0
  5
246CD
 10
2.42297
 20
5.16573
 30
0.000000
  70
    32
  0
VERTEX
  8
0
  5
246CE
 10
2.42516
 20
5.16663
 30
0.000000
  70
    32
  0
VERTEX
  8
0
  5
246CF
 10
2.42734
 20
5.16756
 30
0.000000
  70
    32
  0
VERTEX
  8
0
  5
246D0
 10
2.42951
 20
5.16851
 30
0.000000
  70
    32
  0
VERTEX
  8
0
  5
246D1
 10
2.43166
 20
5.16949
 30
0.000000
  70
    32
  0
VERTEX
  8
0
  5
246D2
 10
2.43381
 20
5.17049
 30
0.000000
  70
    32
  0
VERTEX
  8
0
  5
246D3
 10
2.43593
 20
5.17151
 30
0.000000
  70
    32
  0
VERTEX
  8
0
  5
246D4
 10
2.43805
 20
5.17256
 30
0.000000
  70
    32
  0
VERTEX
  8
0
  5
246D5
 10
2.44015
 20
5.17364
 30
0.000000
  70
    32
  0
VERTEX
  8
0
  5
246D6
 10
2.44223
 20
5.17473
 30
0.000000
  70
    32
  0
VERTEX
  8
0
  5
246D7
 10
2.44430
 20
5.17586
 30
0.000000
  70
    32
  0
VERTEX
  8
0
  5
246D8
 10
2.44635
 20
5.17700
 30
0.000000
  70
    32
  0
VERTEX
  8
0
  5
246D9
 10
2.44839
 20
5.17817
 30
0.000000
  70
    32
  0
VERTEX
  8
0
  5
246DA
 10
2.45041
 20
5.17936
 30
0.000000
  70
    32
  0
VERTEX
  8
0
  5
246DB
 10
2.45242
 20
5.18057
 30
0.000000
  70
    32
  0
VERTEX
  8
0
  5
246DC
 10
2.45440
 20
5.18181
 30
0.000000
  70
    32
  0
VERTEX
  8
0
  5
246DD
 10
2.45637
 20
5.18307
 30
0.000000
  70
    32
  0
VERTEX
  8
0
  5
246DE
 10
2.45832
 20
5.18436
 30
0.000000
  70
    32
  0
VERTEX
  8
0
  5
246DF
 10
2.46025
 20
5.18567
 30
0.000000
  70
    32
  0
VERTEX
  8
0
  5
246E0
 10
2.46217
 20
5.18700
 30
0.000000
  70
    32
  0
VERTEX
  8
0
  5
246E1
 10
2.46406
 20
5.18835
 30
0.000000
  70
    32
  0
VERTEX
  8
0
  5
246E2
 10
2.46594
 20
5.18973
 30
0.000000
  70
    32
  0
VERTEX
  8
0
  5
246E3
 10
2.46779
 20
5.19112
 30
0.000000
  70
    32
  0
VERTEX
  8
0
  5
246E4
 10
2.46963
 20
5.19255
 30
0.000000
  70
    32
  0
VERTEX
  8
0
  5
246E5
 10
2.47144
 20
5.19399
 30
0.000000
  70
    32
  0
VERTEX
  8
0
  5
246E6
 10
2.47323
 20
5.19545
 30
0.000000
  70
    32
  0
VERTEX
  8
0
  5
246E7
 10
2.47501
 20
5.19694
 30
0.000000
  70
    32
  0
VERTEX
  8
0
  5
246E8
 10
2.47675
 20
5.19845
 30
0.000000
  70
    32
  0
VERTEX
  8
0
  5
246E9
 10
2.47848
 20
5.19998
 30
0.000000
  70
    32
  0
VERTEX
  8
0
  5
246EA
 10
2.48019
 20
5.20154
 30
0.000000
  70
    32
  0
VERTEX
  8
0
  5
246EB
 10
2.48187
 20
5.20311
 30
0.000000
  70
    32
  0
VERTEX
  8
0
  5
246EC
 10
2.48353
 20
5.20471
 30
0.000000
  70
    32
  0
VERTEX
  8
0
  5
246ED
 10
2.48518
 20
5.20632
 30
0.000000
  70
    32
  0
VERTEX
  8
0
  5
246EE
 10
2.48680
 20
5.20796
 30
0.000000
  70
    32
  0
VERTEX
  8
0
  5
246EF
 10
2.48841
 20
5.20961
 30
0.000000
  70
    32
  0
VERTEX
  8
0
  5
246F0
 10
2.48999
 20
5.21128
 30
0.000000
  70
    32
  0
VERTEX
  8
0
  5
246F1
 10
2.49156
 20
5.21297
 30
0.000000
  70
    32
  0
VERTEX
  8
0
  5
246F2
 10
2.49311
 20
5.21467
 30
0.000000
  70
    32
  0
VERTEX
  8
0
  5
246F3
 10
2.49465
 20
5.21639
 30
0.000000
  70
    32
  0
VERTEX
  8
0
  5
246F4
 10
2.49617
 20
5.21813
 30
0.000000
  70
    32
  0
VERTEX
  8
0
  5
246F5
 10
2.49768
 20
5.21988
 30
0.000000
  70
    32
  0
VERTEX
  8
0
  5
246F6
 10
2.49917
 20
5.22164
 30
0.000000
  70
    32
  0
VERTEX
  8
0
  5
246F7
 10
2.50066
 20
5.22342
 30
0.000000
  70
    32
  0
VERTEX
  8
0
  5
246F8
 10
2.50212
 20
5.22521
 30
0.000000
  70
    32
  0
VERTEX
  8
0
  5
246F9
 10
2.50358
 20
5.22702
 30
0.000000
  70
    32
  0
VERTEX
  8
0
  5
246FA
 10
2.50502
 20
5.22883
 30
0.000000
  70
    32
  0
VERTEX
  8
0
  5
246FB
 10
2.50646
 20
5.23066
 30
0.000000
  70
    32
  0
VERTEX
  8
0
  5
246FC
 10
2.50788
 20
5.23249
 30
0.000000
  70
    32
  0
VERTEX
  8
0
  5
246FD
 10
2.50930
 20
5.23434
 30
0.000000
  70
    32
  0
VERTEX
  8
0
  5
246FE
 10
2.51070
 20
5.23620
 30
0.000000
  70
    32
  0
VERTEX
  8
0
  5
246FF
 10
2.51210
 20
5.23806
 30
0.000000
  70
    32
  0
VERTEX
  8
0
  5
24700
 10
2.51350
 20
5.23993
 30
0.000000
  70
    32
  0
VERTEX
  8
0
  5
24701
 10
2.51488
 20
5.24181
 30
0.000000
  70
    32
  0
VERTEX
  8
0
  5
24702
 10
2.51626
 20
5.24370
 30
0.000000
  70
    32
  0
VERTEX
  8
0
  5
24703
 10
2.51764
 20
5.24559
 30
0.000000
  70
    32
  0
VERTEX
  8
0
  5
24704
 10
2.51901
 20
5.24749
 30
0.000000
  70
    32
  0
VERTEX
  8
0
  5
24705
 10
2.52037
 20
5.24940
 30
0.000000
  70
    32
  0
VERTEX
  8
0
  5
24706
 10
2.52174
 20
5.25130
 30
0.000000
  70
    32
  0
VERTEX
  8
0
  5
24707
 10
2.52310
 20
5.25322
 30
0.000000
  70
    32
  0
VERTEX
  8
0
  5
24708
 10
2.52446
 20
5.25513
 30
0.000000
  70
    32
  0
VERTEX
  8
0
  5
24709
 10
2.52582
 20
5.25705
 30
0.000000
  70
    32
  0
VERTEX
  8
0
  5
2470A
 10
2.52718
 20
5.25896
 30
0.000000
  70
    32
  0
VERTEX
  8
0
  5
2470B
 10
2.52854
 20
5.26088
 30
0.000000
  70
    32
  0
VERTEX
  8
0
  5
2470C
 10
2.52990
 20
5.26281
 30
0.000000
  70
    32
  0
VERTEX
  8
0
  5
2470D
 10
2.53126
 20
5.26473
 30
0.000000
  70
    32
  0
VERTEX
  8
0
  5
2470E
 10
2.53263
 20
5.26665
 30
0.000000
  70
    32
  0
VERTEX
  8
0
  5
2470F
 10
2.53399
 20
5.26856
 30
0.000000
  70
    32
  0
VERTEX
  8
0
  5
24710
 10
2.53537
 20
5.27048
 30
0.000000
  70
    32
  0
VERTEX
  8
0
  5
24711
 10
2.53674
 20
5.27239
 30
0.000000
  70
    32
  0
VERTEX
  8
0
  5
24712
 10
2.53812
 20
5.27431
 30
0.000000
  70
    32
  0
VERTEX
  8
0
  5
24713
 10
2.53951
 20
5.27621
 30
0.000000
  70
    32
  0
VERTEX
  8
0
  5
24714
 10
2.54090
 20
5.27812
 30
0.000000
  70
    32
  0
VERTEX
  8
0
  5
24715
 10
2.54231
 20
5.28001
 30
0.000000
  70
    32
  0
VERTEX
  8
0
  5
24716
 10
2.54371
 20
5.28190
 30
0.000000
  70
    32
  0
VERTEX
  8
0
  5
24717
 10
2.54513
 20
5.28379
 30
0.000000
  70
    32
  0
VERTEX
  8
0
  5
24718
 10
2.54656
 20
5.28567
 30
0.000000
  70
    32
  0
VERTEX
  8
0
  5
24719
 10
2.54800
 20
5.28754
 30
0.000000
  70
    32
  0
VERTEX
  8
0
  5
2471A
 10
2.54944
 20
5.28940
 30
0.000000
  70
    32
  0
VERTEX
  8
0
  5
2471B
 10
2.55090
 20
5.29126
 30
0.000000
  70
    32
  0
VERTEX
  8
0
  5
2471C
 10
2.55237
 20
5.29311
 30
0.000000
  70
    32
  0
VERTEX
  8
0
  5
2471D
 10
2.55386
 20
5.29494
 30
0.000000
  70
    32
  0
VERTEX
  8
0
  5
2471E
 10
2.55536
 20
5.29677
 30
0.000000
  70
    32
  0
VERTEX
  8
0
  5
2471F
 10
2.55686
 20
5.29858
 30
0.000000
  70
    32
  0
VERTEX
  8
0
  5
24720
 10
2.55839
 20
5.30038
 30
0.000000
  70
    32
  0
VERTEX
  8
0
  5
24721
 10
2.55992
 20
5.30218
 30
0.000000
  70
    32
  0
VERTEX
  8
0
  5
24722
 10
2.56147
 20
5.30396
 30
0.000000
  70
    32
  0
VERTEX
  8
0
  5
24723
 10
2.56303
 20
5.30573
 30
0.000000
  70
    32
  0
VERTEX
  8
0
  5
24724
 10
2.56461
 20
5.30748
 30
0.000000
  70
    32
  0
VERTEX
  8
0
  5
24725
 10
2.56619
 20
5.30923
 30
0.000000
  70
    32
  0
VERTEX
  8
0
  5
24726
 10
2.56779
 20
5.31096
 30
0.000000
  70
    32
  0
VERTEX
  8
0
  5
24727
 10
2.56941
 20
5.31268
 30
0.000000
  70
    32
  0
VERTEX
  8
0
  5
24728
 10
2.57103
 20
5.31439
 30
0.000000
  70
    32
  0
VERTEX
  8
0
  5
24729
 10
2.57267
 20
5.31608
 30
0.000000
  70
    32
  0
VERTEX
  8
0
  5
2472A
 10
2.57432
 20
5.31776
 30
0.000000
  70
    32
  0
VERTEX
  8
0
  5
2472B
 10
2.57599
 20
5.31943
 30
0.000000
  70
    32
  0
VERTEX
  8
0
  5
2472C
 10
2.57767
 20
5.32108
 30
0.000000
  70
    32
  0
VERTEX
  8
0
  5
2472D
 10
2.57936
 20
5.32272
 30
0.000000
  70
    32
  0
VERTEX
  8
0
  5
2472E
 10
2.58106
 20
5.32434
 30
0.000000
  70
    32
  0
VERTEX
  8
0
  5
2472F
 10
2.58278
 20
5.32595
 30
0.000000
  70
    32
  0
VERTEX
  8
0
  5
24730
 10
2.58451
 20
5.32754
 30
0.000000
  70
    32
  0
VERTEX
  8
0
  5
24731
 10
2.58625
 20
5.32912
 30
0.000000
  70
    32
  0
VERTEX
  8
0
  5
24732
 10
2.58800
 20
5.33068
 30
0.000000
  70
    32
  0
VERTEX
  8
0
  5
24733
 10
2.58977
 20
5.33222
 30
0.000000
  70
    32
  0
VERTEX
  8
0
  5
24734
 10
2.59155
 20
5.33375
 30
0.000000
  70
    32
  0
VERTEX
  8
0
  5
24735
 10
2.59334
 20
5.33527
 30
0.000000
  70
    32
  0
VERTEX
  8
0
  5
24736
 10
2.59515
 20
5.33676
 30
0.000000
  70
    32
  0
VERTEX
  8
0
  5
24737
 10
2.59697
 20
5.33824
 30
0.000000
  70
    32
  0
VERTEX
  8
0
  5
24738
 10
2.59880
 20
5.33970
 30
0.000000
  70
    32
  0
VERTEX
  8
0
  5
24739
 10
2.60065
 20
5.34114
 30
0.000000
  70
    32
  0
VERTEX
  8
0
  5
2473A
 10
2.60250
 20
5.34257
 30
0.000000
  70
    32
  0
VERTEX
  8
0
  5
2473B
 10
2.60437
 20
5.34398
 30
0.000000
  70
    32
  0
VERTEX
  8
0
  5
2473C
 10
2.60626
 20
5.34536
 30
0.000000
  70
    32
  0
VERTEX
  8
0
  5
2473D
 10
2.60815
 20
5.34673
 30
0.000000
  70
    32
  0
VERTEX
  8
0
  5
2473E
 10
2.61006
 20
5.34809
 30
0.000000
  70
    32
  0
VERTEX
  8
0
  5
2473F
 10
2.61198
 20
5.34942
 30
0.000000
  70
    32
  0
VERTEX
  8
0
  5
24740
 10
2.61392
 20
5.35073
 30
0.000000
  70
    32
  0
VERTEX
  8
0
  5
24741
 10
2.61586
 20
5.35202
 30
0.000000
  70
    32
  0
VERTEX
  8
0
  5
24742
 10
2.61782
 20
5.35329
 30
0.000000
  70
    32
  0
VERTEX
  8
0
  5
24743
 10
2.61980
 20
5.35454
 30
0.000000
  70
    32
  0
VERTEX
  8
0
  5
24744
 10
2.62178
 20
5.35578
 30
0.000000
  70
    32
  0
VERTEX
  8
0
  5
24745
 10
2.62378
 20
5.35699
 30
0.000000
  70
    32
  0
VERTEX
  8
0
  5
24746
 10
2.62579
 20
5.35817
 30
0.000000
  70
    32
  0
VERTEX
  8
0
  5
24747
 10
2.62781
 20
5.35934
 30
0.000000
  70
    32
  0
VERTEX
  8
0
  5
24748
 10
2.62985
 20
5.36049
 30
0.000000
  70
    32
  0
VERTEX
  8
0
  5
24749
 10
2.63190
 20
5.36161
 30
0.000000
  70
    32
  0
VERTEX
  8
0
  5
2474A
 10
2.63396
 20
5.36271
 30
0.000000
  70
    32
  0
VERTEX
  8
0
  5
2474B
 10
2.63604
 20
5.36379
 30
0.000000
  70
    32
  0
VERTEX
  8
0
  5
2474C
 10
2.63812
 20
5.36485
 30
0.000000
  70
    32
  0
VERTEX
  8
0
  5
2474D
 10
2.64022
 20
5.36588
 30
0.000000
  70
    32
  0
VERTEX
  8
0
  5
2474E
 10
2.64234
 20
5.36689
 30
0.000000
  70
    32
  0
VERTEX
  8
0
  5
2474F
 10
2.64446
 20
5.36788
 30
0.000000
  70
    32
  0
VERTEX
  8
0
  5
24750
 10
2.64659
 20
5.36884
 30
0.000000
  70
    32
  0
VERTEX
  8
0
  5
24751
 10
2.64874
 20
5.36978
 30
0.000000
  70
    32
  0
VERTEX
  8
0
  5
24752
 10
2.65090
 20
5.37070
 30
0.000000
  70
    32
  0
VERTEX
  8
0
  5
24753
 10
2.65307
 20
5.37159
 30
0.000000
  70
    32
  0
VERTEX
  8
0
  5
24754
 10
2.65525
 20
5.37246
 30
0.000000
  70
    32
  0
VERTEX
  8
0
  5
24755
 10
2.65743
 20
5.37331
 30
0.000000
  70
    32
  0
VERTEX
  8
0
  5
24756
 10
2.65963
 20
5.37414
 30
0.000000
  70
    32
  0
VERTEX
  8
0
  5
24757
 10
2.66184
 20
5.37494
 30
0.000000
  70
    32
  0
VERTEX
  8
0
  5
24758
 10
2.66406
 20
5.37571
 30
0.000000
  70
    32
  0
VERTEX
  8
0
  5
24759
 10
2.66628
 20
5.37647
 30
0.000000
  70
    32
  0
VERTEX
  8
0
  5
2475A
 10
2.66852
 20
5.37720
 30
0.000000
  70
    32
  0
VERTEX
  8
0
  5
2475B
 10
2.67076
 20
5.37790
 30
0.000000
  70
    32
  0
VERTEX
  8
0
  5
2475C
 10
2.67302
 20
5.37858
 30
0.000000
  70
    32
  0
VERTEX
  8
0
  5
2475D
 10
2.67527
 20
5.37924
 30
0.000000
  70
    32
  0
VERTEX
  8
0
  5
2475E
 10
2.67754
 20
5.37987
 30
0.000000
  70
    32
  0
VERTEX
  8
0
  5
2475F
 10
2.67982
 20
5.38048
 30
0.000000
  70
    32
  0
VERTEX
  8
0
  5
24760
 10
2.68210
 20
5.38107
 30
0.000000
  70
    32
  0
VERTEX
  8
0
  5
24761
 10
2.68439
 20
5.38163
 30
0.000000
  70
    32
  0
VERTEX
  8
0
  5
24762
 10
2.68668
 20
5.38217
 30
0.000000
  70
    32
  0
VERTEX
  8
0
  5
24763
 10
2.68898
 20
5.38268
 30
0.000000
  70
    32
  0
VERTEX
  8
0
  5
24764
 10
2.69129
 20
5.38317
 30
0.000000
  70
    32
  0
VERTEX
  8
0
  5
24765
 10
2.69360
 20
5.38363
 30
0.000000
  70
    32
  0
VERTEX
  8
0
  5
24766
 10
2.69592
 20
5.38407
 30
0.000000
  70
    32
  0
VERTEX
  8
0
  5
24767
 10
2.69824
 20
5.38449
 30
0.000000
  70
    32
  0
VERTEX
  8
0
  5
24768
 10
2.70056
 20
5.38488
 30
0.000000
  70
    32
  0
VERTEX
  8
0
  5
24769
 10
2.70290
 20
5.38525
 30
0.000000
  70
    32
  0
VERTEX
  8
0
  5
2476A
 10
2.70523
 20
5.38559
 30
0.000000
  70
    32
  0
VERTEX
  8
0
  5
2476B
 10
2.70757
 20
5.38590
 30
0.000000
  70
    32
  0
VERTEX
  8
0
  5
2476C
 10
2.70991
 20
5.38619
 30
0.000000
  70
    32
  0
VERTEX
  8
0
  5
2476D
 10
2.71226
 20
5.38646
 30
0.000000
  70
    32
  0
VERTEX
  8
0
  5
2476E
 10
2.71461
 20
5.38670
 30
0.000000
  70
    32
  0
VERTEX
  8
0
  5
2476F
 10
2.71696
 20
5.38692
 30
0.000000
  70
    32
  0
VERTEX
  8
0
  5
24770
 10
2.71931
 20
5.38711
 30
0.000000
  70
    32
  0
VERTEX
  8
0
  5
24771
 10
2.72167
 20
5.38727
 30
0.000000
  70
    32
  0
VERTEX
  8
0
  5
24772
 10
2.72403
 20
5.38741
 30
0.000000
  70
    32
  0
VERTEX
  8
0
  5
24773
 10
2.72638
 20
5.38753
 30
0.000000
  70
    32
  0
VERTEX
  8
0
  5
24774
 10
2.72874
 20
5.38762
 30
0.000000
  70
    32
  0
VERTEX
  8
0
  5
24775
 10
2.73111
 20
5.38768
 30
0.000000
  70
    32
  0
VERTEX
  8
0
  5
24776
 10
2.73347
 20
5.38772
 30
0.000000
  70
    32
  0
VERTEX
  8
0
  5
24777
 10
2.73583
 20
5.38773
 30
0.000000
  70
    32
  0
VERTEX
  8
0
  5
24778
 10
2.73819
 20
5.38772
 30
0.000000
  70
    32
  0
VERTEX
  8
0
  5
24779
 10
2.74056
 20
5.38768
 30
0.000000
  70
    32
  0
VERTEX
  8
0
  5
2477A
 10
2.74292
 20
5.38761
 30
0.000000
  70
    32
  0
VERTEX
  8
0
  5
2477B
 10
2.74528
 20
5.38752
 30
0.000000
  70
    32
  0
VERTEX
  8
0
  5
2477C
 10
2.74764
 20
5.38741
 30
0.000000
  70
    32
  0
VERTEX
  8
0
  5
2477D
 10
2.75000
 20
5.38727
 30
0.000000
  70
    32
  0
VERTEX
  8
0
  5
2477E
 10
2.75235
 20
5.38710
 30
0.000000
  70
    32
  0
VERTEX
  8
0
  5
2477F
 10
2.75471
 20
5.38690
 30
0.000000
  70
    32
  0
VERTEX
  8
0
  5
24780
 10
2.75706
 20
5.38668
 30
0.000000
  70
    32
  0
VERTEX
  8
0
  5
24781
 10
2.75941
 20
5.38644
 30
0.000000
  70
    32
  0
VERTEX
  8
0
  5
24782
 10
2.76175
 20
5.38617
 30
0.000000
  70
    32
  0
VERTEX
  8
0
  5
24783
 10
2.76410
 20
5.38587
 30
0.000000
  70
    32
  0
VERTEX
  8
0
  5
24784
 10
2.76643
 20
5.38554
 30
0.000000
  70
    32
  0
VERTEX
  8
0
  5
24785
 10
2.76877
 20
5.38520
 30
0.000000
  70
    32
  0
VERTEX
  8
0
  5
24786
 10
2.77110
 20
5.38482
 30
0.000000
  70
    32
  0
VERTEX
  8
0
  5
24787
 10
2.77342
 20
5.38442
 30
0.000000
  70
    32
  0
VERTEX
  8
0
  5
24788
 10
2.77574
 20
5.38399
 30
0.000000
  70
    32
  0
VERTEX
  8
0
  5
24789
 10
2.77805
 20
5.38354
 30
0.000000
  70
    32
  0
VERTEX
  8
0
  5
2478A
 10
2.78036
 20
5.38306
 30
0.000000
  70
    32
  0
VERTEX
  8
0
  5
2478B
 10
2.78266
 20
5.38255
 30
0.000000
  70
    32
  0
VERTEX
  8
0
  5
2478C
 10
2.78496
 20
5.38202
 30
0.000000
  70
    32
  0
VERTEX
  8
0
  5
2478D
 10
2.78724
 20
5.38147
 30
0.000000
  70
    32
  0
VERTEX
  8
0
  5
2478E
 10
2.78952
 20
5.38088
 30
0.000000
  70
    32
  0
VERTEX
  8
0
  5
2478F
 10
2.79179
 20
5.38027
 30
0.000000
  70
    32
  0
VERTEX
  8
0
  5
24790
 10
2.79406
 20
5.37964
 30
0.000000
  70
    32
  0
VERTEX
  8
0
  5
24791
 10
2.79631
 20
5.37898
 30
0.000000
  70
    32
  0
VERTEX
  8
0
  5
24792
 10
2.79856
 20
5.37829
 30
0.000000
  70
    32
  0
VERTEX
  8
0
  5
24793
 10
2.80080
 20
5.37758
 30
0.000000
  70
    32
  0
VERTEX
  8
0
  5
24794
 10
2.80303
 20
5.37684
 30
0.000000
  70
    32
  0
VERTEX
  8
0
  5
24795
 10
2.80525
 20
5.37607
 30
0.000000
  70
    32
  0
VERTEX
  8
0
  5
24796
 10
2.80745
 20
5.37528
 30
0.000000
  70
    32
  0
VERTEX
  8
0
  5
24797
 10
2.80965
 20
5.37446
 30
0.000000
  70
    32
  0
VERTEX
  8
0
  5
24798
 10
2.81184
 20
5.37362
 30
0.000000
  70
    32
  0
VERTEX
  8
0
  5
24799
 10
2.81402
 20
5.37275
 30
0.000000
  70
    32
  0
VERTEX
  8
0
  5
2479A
 10
2.81618
 20
5.37186
 30
0.000000
  70
    32
  0
VERTEX
  8
0
  5
2479B
 10
2.81833
 20
5.37093
 30
0.000000
  70
    32
  0
VERTEX
  8
0
  5
2479C
 10
2.82047
 20
5.36999
 30
0.000000
  70
    32
  0
VERTEX
  8
0
  5
2479D
 10
2.82260
 20
5.36901
 30
0.000000
  70
    32
  0
VERTEX
  8
0
  5
2479E
 10
2.82472
 20
5.36801
 30
0.000000
  70
    32
  0
VERTEX
  8
0
  5
2479F
 10
2.82682
 20
5.36699
 30
0.000000
  70
    32
  0
VERTEX
  8
0
  5
247A0
 10
2.82891
 20
5.36594
 30
0.000000
  70
    32
  0
VERTEX
  8
0
  5
247A1
 10
2.83098
 20
5.36486
 30
0.000000
  70
    32
  0
VERTEX
  8
0
  5
247A2
 10
2.83304
 20
5.36375
 30
0.000000
  70
    32
  0
VERTEX
  8
0
  5
247A3
 10
2.83509
 20
5.36262
 30
0.000000
  70
    32
  0
VERTEX
  8
0
  5
247A4
 10
2.83712
 20
5.36147
 30
0.000000
  70
    32
  0
VERTEX
  8
0
  5
247A5
 10
2.83913
 20
5.36028
 30
0.000000
  70
    32
  0
VERTEX
  8
0
  5
247A6
 10
2.84114
 20
5.35908
 30
0.000000
  70
    32
  0
VERTEX
  8
0
  5
247A7
 10
2.84312
 20
5.35785
 30
0.000000
  70
    32
  0
VERTEX
  8
0
  5
247A8
 10
2.84510
 20
5.35659
 30
0.000000
  70
    32
  0
VERTEX
  8
0
  5
247A9
 10
2.84706
 20
5.35532
 30
0.000000
  70
    32
  0
VERTEX
  8
0
  5
247AA
 10
2.84900
 20
5.35402
 30
0.000000
  70
    32
  0
VERTEX
  8
0
  5
247AB
 10
2.85093
 20
5.35269
 30
0.000000
  70
    32
  0
VERTEX
  8
0
  5
247AC
 10
2.85284
 20
5.35135
 30
0.000000
  70
    32
  0
VERTEX
  8
0
  5
247AD
 10
2.85474
 20
5.34998
 30
0.000000
  70
    32
  0
VERTEX
  8
0
  5
247AE
 10
2.85663
 20
5.34859
 30
0.000000
  70
    32
  0
VERTEX
  8
0
  5
247AF
 10
2.85850
 20
5.34718
 30
0.000000
  70
    32
  0
VERTEX
  8
0
  5
247B0
 10
2.86035
 20
5.34575
 30
0.000000
  70
    32
  0
VERTEX
  8
0
  5
247B1
 10
2.86219
 20
5.34430
 30
0.000000
  70
    32
  0
VERTEX
  8
0
  5
247B2
 10
2.86402
 20
5.34283
 30
0.000000
  70
    32
  0
VERTEX
  8
0
  5
247B3
 10
2.86583
 20
5.34134
 30
0.000000
  70
    32
  0
VERTEX
  8
0
  5
247B4
 10
2.86763
 20
5.33983
 30
0.000000
  70
    32
  0
VERTEX
  8
0
  5
247B5
 10
2.86941
 20
5.33831
 30
0.000000
  70
    32
  0
VERTEX
  8
0
  5
247B6
 10
2.87118
 20
5.33676
 30
0.000000
  70
    32
  0
VERTEX
  8
0
  5
247B7
 10
2.87293
 20
5.33520
 30
0.000000
  70
    32
  0
VERTEX
  8
0
  5
247B8
 10
2.87467
 20
5.33362
 30
0.000000
  70
    32
  0
VERTEX
  8
0
  5
247B9
 10
2.87639
 20
5.33203
 30
0.000000
  70
    32
  0
VERTEX
  8
0
  5
247BA
 10
2.87810
 20
5.33042
 30
0.000000
  70
    32
  0
VERTEX
  8
0
  5
247BB
 10
2.87979
 20
5.32879
 30
0.000000
  70
    32
  0
VERTEX
  8
0
  5
247BC
 10
2.88147
 20
5.32715
 30
0.000000
  70
    32
  0
VERTEX
  8
0
  5
247BD
 10
2.88314
 20
5.32549
 30
0.000000
  70
    32
  0
VERTEX
  8
0
  5
247BE
 10
2.88478
 20
5.32382
 30
0.000000
  70
    32
  0
VERTEX
  8
0
  5
247BF
 10
2.88642
 20
5.32213
 30
0.000000
  70
    32
  0
VERTEX
  8
0
  5
247C0
 10
2.88804
 20
5.32043
 30
0.000000
  70
    32
  0
VERTEX
  8
0
  5
247C1
 10
2.88964
 20
5.31872
 30
0.000000
  70
    32
  0
VERTEX
  8
0
  5
247C2
 10
2.89123
 20
5.31699
 30
0.000000
  70
    32
  0
VERTEX
  8
0
  5
247C3
 10
2.89281
 20
5.31525
 30
0.000000
  70
    32
  0
VERTEX
  8
0
  5
247C4
 10
2.89437
 20
5.31350
 30
0.000000
  70
    32
  0
VERTEX
  8
0
  5
247C5
 10
2.89591
 20
5.31174
 30
0.000000
  70
    32
  0
VERTEX
  8
0
  5
247C6
 10
2.89744
 20
5.30997
 30
0.000000
  70
    32
  0
VERTEX
  8
0
  5
247C7
 10
2.89896
 20
5.30819
 30
0.000000
  70
    32
  0
VERTEX
  8
0
  5
247C8
 10
2.90046
 20
5.30639
 30
0.000000
  70
    32
  0
VERTEX
  8
0
  5
247C9
 10
2.90194
 20
5.30459
 30
0.000000
  70
    32
  0
VERTEX
  8
0
  5
247CA
 10
2.90342
 20
5.30277
 30
0.000000
  70
    32
  0
VERTEX
  8
0
  5
247CB
 10
2.90487
 20
5.30095
 30
0.000000
  70
    32
  0
VERTEX
  8
0
  5
247CC
 10
2.90632
 20
5.29912
 30
0.000000
  70
    32
  0
VERTEX
  8
0
  5
247CD
 10
2.90775
 20
5.29728
 30
0.000000
  70
    32
  0
VERTEX
  8
0
  5
247CE
 10
2.90918
 20
5.29543
 30
0.000000
  70
    32
  0
VERTEX
  8
0
  5
247CF
 10
2.91059
 20
5.29357
 30
0.000000
  70
    32
  0
VERTEX
  8
0
  5
247D0
 10
2.91198
 20
5.29170
 30
0.000000
  70
    32
  0
VERTEX
  8
0
  5
247D1
 10
2.91337
 20
5.28983
 30
0.000000
  70
    32
  0
VERTEX
  8
0
  5
247D2
 10
2.91475
 20
5.28795
 30
0.000000
  70
    32
  0
VERTEX
  8
0
  5
247D3
 10
2.91612
 20
5.28606
 30
0.000000
  70
    32
  0
VERTEX
  8
0
  5
247D4
 10
2.91747
 20
5.28416
 30
0.000000
  70
    32
  0
VERTEX
  8
0
  5
247D5
 10
2.91882
 20
5.28226
 30
0.000000
  70
    32
  0
VERTEX
  8
0
  5
247D6
 10
2.92016
 20
5.28035
 30
0.000000
  70
    32
  0
VERTEX
  8
0
  5
247D7
 10
2.92149
 20
5.27843
 30
0.000000
  70
    32
  0
VERTEX
  8
0
  5
247D8
 10
2.92281
 20
5.27651
 30
0.000000
  70
    32
  0
VERTEX
  8
0
  5
247D9
 10
2.92412
 20
5.27459
 30
0.000000
  70
    32
  0
VERTEX
  8
0
  5
247DA
 10
2.92543
 20
5.27265
 30
0.000000
  70
    32
  0
VERTEX
  8
0
  5
247DB
 10
2.92673
 20
5.27072
 30
0.000000
  70
    32
  0
VERTEX
  8
0
  5
247DC
 10
2.92802
 20
5.26878
 30
0.000000
  70
    32
  0
VERTEX
  8
0
  5
247DD
 10
2.92930
 20
5.26683
 30
0.000000
  70
    32
  0
VERTEX
  8
0
  5
247DE
 10
2.93058
 20
5.26488
 30
0.000000
  70
    32
  0
VERTEX
  8
0
  5
247DF
 10
2.93186
 20
5.26293
 30
0.000000
  70
    32
  0
VERTEX
  8
0
  5
247E0
 10
2.93313
 20
5.26097
 30
0.000000
  70
    32
  0
VERTEX
  8
0
  5
247E1
 10
2.93439
 20
5.25901
 30
0.000000
  70
    32
  0
VERTEX
  8
0
  5
247E2
 10
2.93565
 20
5.25705
 30
0.000000
  70
    32
  0
VERTEX
  8
0
  5
247E3
 10
2.93691
 20
5.25508
 30
0.000000
  70
    32
  0
VERTEX
  8
0
  5
247E4
 10
2.93816
 20
5.25311
 30
0.000000
  70
    32
  0
VERTEX
  8
0
  5
247E5
 10
2.93941
 20
5.25114
 30
0.000000
  70
    32
  0
VERTEX
  8
0
  5
247E6
 10
2.94066
 20
5.24917
 30
0.000000
  70
    32
  0
VERTEX
  8
0
  5
247E7
 10
2.94190
 20
5.24720
 30
0.000000
  70
    32
  0
VERTEX
  8
0
  5
247E8
 10
2.94314
 20
5.24522
 30
0.000000
  70
    32
  0
VERTEX
  8
0
  5
247E9
 10
2.94438
 20
5.24325
 30
0.000000
  70
    32
  0
VERTEX
  8
0
  5
247EA
 10
2.94562
 20
5.24127
 30
0.000000
  70
    32
  0
VERTEX
  8
0
  5
247EB
 10
2.94686
 20
5.23930
 30
0.000000
  70
    32
  0
VERTEX
  8
0
  5
247EC
 10
2.94810
 20
5.23732
 30
0.000000
  70
    32
  0
VERTEX
  8
0
  5
247ED
 10
2.94933
 20
5.23535
 30
0.000000
  70
    32
  0
VERTEX
  8
0
  5
247EE
 10
2.95057
 20
5.23337
 30
0.000000
  70
    32
  0
VERTEX
  8
0
  5
247EF
 10
2.95181
 20
5.23140
 30
0.000000
  70
    32
  0
SEQEND
  8
0
  5
247F0
  0
CIRCLE
  5
1E52D
  8
0
  6
CONTINUOUS
 10
1.8750010114733291
 20
1.8750004431210241
 30
0.0
 40
1.0772443959364579
  0
CIRCLE
  5
1E52E
  8
0
  6
CONTINUOUS
 10
1.8750010114733291
 20
1.8750004431210241
 30
0.0
 40
1.264068073711244
  0
ENDBLK
  5
1E530
  8
0
  0
BLOCK
  8
0
  2
A$C29D16843
 70
     0
 10
0.0
 20
0.0
 30
0.0
  3
A$C29D16843
  1

  0
INSERT
  5
21EC1
  8
0
  2
*U338
 10
0.0
 20
0.0
 30
0.0
  0
LINE
  5
21EC2
  8
0
 10
2.874677533607894
 20
0.5321649452647819
 30
0.0
 11
2.961024944995529
 21
0.5321649452647819
 31
0.0
  0
LINE
  5
21EC3
  8
0
 10
2.87467753360795
 20
0.3749997669987408
 30
0.0
 11
2.874677533607894
 21
0.5321649452647819
 31
0.0
  0
LINE
  5
21EC4
  8
0
 10
0.0000001380173558
 20
-0.0000002330012592
 30
0.0
 11
0.0000001380173558
 21
1.8697641788479871
 31
0.0
  0
LINE
  5
21EC5
  8
0
 10
2.437677533607939
 20
-0.0000002330012592
 30
0.0
 11
0.0000001380173558
 21
-0.0000002330012592
 31
0.0
  0
LINE
  5
21EC6
  8
0
 10
0.0000001380173558
 20
1.8697641788479871
 30
0.0
 11
3.0473723563831072
 21
1.6031536561971791
 31
0.0
  0
ARC
  5
21EC7
  8
0
  6
CONTINUOUS
 62
     7
 10
2.8436775336079441
 20
-0.0310002330012083
 30
0.0
 40
0.4071817775883397
 50
85.633671235746462
 51
175.63367123574321
  0
ARC
  5
21EC8
  8
0
  6
CONTINUOUS
 10
2.961024944995529
 20
1.0711401382865511
 30
0.0
 40
0.5389751930218452
 50
270.0
 51
80.781108736766626
  0
ENDBLK
  5
21ECA
  8
0
  0
BLOCK
  8
0
  2
*U185
 70
     1
 10
0.0
 20
0.0
 30
0.0
  3
*U185
  1

  0
TEXT
  5
24001
  8
0
 10
2.0520856342580478
 20
1.4053520973297959
 30
0.0
 40
0.125
  1
Exterior Casing
  0
TEXT
  5
24002
  8
0
 10
2.0520856342580478
 20
1.1970187639964629
 30
0.0
 40
0.125
  1
TL-180
  0
TEXT
  5
24003
  8
0
 10
2.0520856342580478
 20
0.9886854306631298
 30
0.0
 40
0.125
  1
1-1/4" x 2"
  0
TEXT
  5
24004
  8
0
 10
2.0520856342580478
 20
0.7803520973297964
 30
0.0
 40
0.125
  1
800.66.TAGUE
  0
ENDBLK
  5
24006
  8
0
  0
BLOCK
  8
0
  2
*U186
 70
     1
 10
0.0
 20
0.0
 30
0.0
  3
*U186
  1

  0
TEXT
  5
24008
  8
0
 10
1.875832532300876
 20
1.1538771312937111
 30
0.0
 40
0.125
  1
Exterior Casing
  0
TEXT
  5
24009
  8
0
 10
1.875832532300876
 20
0.9455437979603782
 30
0.0
 40
0.125
  1
TL-544
  0
TEXT
  5
2400A
  8
0
 10
1.875832532300876
 20
0.7372104646270449
 30
0.0
 40
0.125
  1
1-1/8" x 1-9/16"
  0
TEXT
  5
2400B
  8
0
 10
1.875832532300876
 20
0.5288771312937115
 30
0.0
 40
0.125
  1
800.66.TAGUE
  0
ENDBLK
  5
2400D
  8
0
  0
BLOCK
  8
0
  2
*U187
 70
     1
 10
0.0
 20
0.0
 30
0.0
  3
*U187
  1

  0
TEXT
  5
2400F
  8
0
 10
2.2653468102219558
 20
1.612015904330746
 30
0.0
 40
0.125
  1
Exterior Casing
  0
TEXT
  5
24010
  8
0
 10
2.2653468102219558
 20
1.403682570997413
 30
0.0
 40
0.125
  1
TL-2023
  0
TEXT
  5
24011
  8
0
 10
2.2653468102219558
 20
1.19534923766408
 30
0.0
 40
0.125
  1
1-13/16" x 3" 
  0
TEXT
  5
24012
  8
0
 10
2.2653468102219558
 20
0.9870159043307467
 30
0.0
 40
0.125
  1
800.66.TAGUE
  0
ENDBLK
  5
24014
  8
0
  0
BLOCK
  8
0
  2
*U188
 70
     1
 10
0.0
 20
0.0
 30
0.0
  3
*U188
  1

  0
TEXT
  5
24016
  8
0
 10
2.0898675486657221
 20
0.9145072342178082
 30
0.0
 40
0.125
  1
Exterior Casing
  0
TEXT
  5
24017
  8
0
 10
2.0898675486657221
 20
0.706173900884475
 30
0.0
 40
0.125
  1
TL-2087
  0
TEXT
  5
24018
  8
0
 10
2.0898675486657221
 20
0.4978405675511416
 30
0.0
 40
0.125
  1
7/8" x 1-7/16"
  0
TEXT
  5
24019
  8
0
 10
2.0898675486657221
 20
0.2895072342178082
 30
0.0
 40
0.125
  1
800.66.TAGUE
  0
ENDBLK
  5
2401B
  8
0
  0
BLOCK
  8
0
  2
*U189
 70
     1
 10
0.0
 20
0.0
 30
0.0
  3
*U189
  1

  0
TEXT
  5
2401D
  8
0
 10
2.1806631076311191
 20
0.8419101546792263
 30
0.0
 40
0.125
  1
Exterior Casing
  0
TEXT
  5
2401E
  8
0
 10
2.1806631076311191
 20
0.6335768213458931
 30
0.0
 40
0.125
  1
TL-2158
  0
TEXT
  5
2401F
  8
0
 10
2.1806631076311191
 20
0.4252434880125597
 30
0.0
 40
0.125
  1
1-1/16" x 1-5/16"
  0
TEXT
  5
24020
  8
0
 10
2.1806631076311191
 20
0.2169101546792262
 30
0.0
 40
0.125
  1
800.66.TAGUE
  0
ENDBLK
  5
24022
  8
0
  0
BLOCK
  8
0
  2
*U190
 70
     1
 10
0.0
 20
0.0
 30
0.0
  3
*U190
  1

  0
TEXT
  5
24024
  8
0
 10
2.2408536425556909
 20
1.2992247915469759
 30
0.0
 40
0.125
  1
Exterior Casing
  0
TEXT
  5
24025
  8
0
 10
2.2408536425556909
 20
1.090891458213642
 30
0.0
 40
0.125
  1
TL-2174
  0
TEXT
  5
24026
  8
0
 10
2.2408536425556909
 20
0.8825581248803095
 30
0.0
 40
0.125
  1
1-3/8" x 1-7/16"
  0
TEXT
  5
24027
  8
0
 10
2.2408536425556909
 20
0.6742247915469762
 30
0.0
 40
0.125
  1
800.66.TAGUE
  0
ENDBLK
  5
24029
  8
0
  0
BLOCK
  8
0
  2
*U191
 70
     1
 10
0.0
 20
0.0
 30
0.0
  3
*U191
  1

  0
TEXT
  5
2402B
  8
0
 10
2.8048346441314029
 20
1.129982283289336
 30
0.0
 40
0.125
  1
Exterior Casing
  0
TEXT
  5
2402C
  8
0
 10
2.8048346441314029
 20
0.9216489499560037
 30
0.0
 40
0.125
  1
TL-2175
  0
TEXT
  5
2402D
  8
0
 10
2.8048346441314029
 20
0.7133156166226704
 30
0.0
 40
0.125
  1
1-9/32" x 1-29/32"
  0
TEXT
  5
2402E
  8
0
 10
2.8048346441314029
 20
0.504982283289337
 30
0.0
 40
0.125
  1
800.66.TAGUE
  0
ENDBLK
  5
24030
  8
0
  0
BLOCK
  8
0
  2
*U192
 70
     1
 10
0.0
 20
0.0
 30
0.0
  3
*U192
  1

  0
TEXT
  5
24032
  8
0
 10
2.5484960182450891
 20
0.679430053902138
 30
0.0
 40
0.125
  1
Exterior Casing
  0
TEXT
  5
24033
  8
0
 10
2.5484960182450891
 20
0.4710967205688046
 30
0.0
 40
0.125
  1
TL-2176
  0
TEXT
  5
24034
  8
0
 10
2.5484960182450891
 20
0.2627633872354712
 30
0.0
 40
0.125
  1
19/32" x 1-5/8"
  0
TEXT
  5
24035
  8
0
 10
2.5484960182450891
 20
0.0544300539021379
 30
0.0
 40
0.125
  1
800.66.TAGUE
  0
ENDBLK
  5
24037
  8
0
  0
BLOCK
  8
0
  2
*U193
 70
     1
 10
0.0
 20
0.0
 30
0.0
  3
*U193
  1

  0
TEXT
  5
24039
  8
0
 10
2.105732231568993
 20
0.7255830389262883
 30
0.0
 40
0.125
  1
Exterior Casing
  0
TEXT
  5
2403A
  8
0
 10
2.105732231568993
 20
0.5172497055929551
 30
0.0
 40
0.125
  1
TL-2108
  0
TEXT
  5
2403B
  8
0
 10
2.105732231568993
 20
0.3089163722596217
 30
0.0
 40
0.125
  1
15/16" x 1-1/16"
  0
TEXT
  5
2403C
  8
0
 10
2.105732231568993
 20
0.1005830389262883
 30
0.0
 40
0.125
  1
800.66.TAGUE
  0
ENDBLK
  5
2403E
  8
0
  0
BLOCK
  8
0
  2
*U194
 70
     1
 10
0.0
 20
0.0
 30
0.0
  3
*U194
  1

  0
TEXT
  5
24040
  8
0
 10
0.0469294570366401
 20
0.67943073463357
 30
0.0
 40
0.125
  1
Exterior Casing
  0
TEXT
  5
24041
  8
0
 10
0.0469294570366401
 20
0.4710974013002366
 30
0.0
 40
0.125
  1
TL-2206
  0
TEXT
  5
24042
  8
0
 10
0.0469294570366401
 20
0.2627640679669033
 30
0.0
 40
0.125
  1
1-3/32" x 1-23/32"
  0
TEXT
  5
24043
  8
0
 10
0.0469294570366401
 20
0.05443073463357
 30
0.0
 40
0.125
  1
800.66.TAGUE
  0
ENDBLK
  5
24045
  8
0
  0
BLOCK
  8
0
  2
*U195
 70
     1
 10
0.0
 20
0.0
 30
0.0
  3
*U195
  1

  0
TEXT
  5
24047
  8
0
 10
0.0449853036485593
 20
0.6794309447934666
 30
0.0
 40
0.125
  1
Exterior Casing
  0
TEXT
  5
24048
  8
0
 10
0.0449853036485593
 20
0.4710976114601333
 30
0.0
 40
0.125
  1
TL-2207
  0
TEXT
  5
24049
  8
0
 10
0.0449853036485593
 20
0.2627642781267999
 30
0.0
 40
0.125
  1
1-1/8" x 2-15/16"
  0
TEXT
  5
2404A
  8
0
 10
0.0449853036485593
 20
0.0544309447934666
 30
0.0
 40
0.125
  1
800.66.TAGUE
  0
ENDBLK
  5
2404C
  8
0
  0
BLOCK
  8
0
  2
*U196
 70
     1
 10
0.0
 20
0.0
 30
0.0
  3
*U196
  1

  0
TEXT
  5
2404E
  8
0
 62
     0
 10
-346.15979271546257
 20
508.16262619726342
 30
0.0
 40
0.125
  1
Cutter
 50
90.0
  0
ENDBLK
  5
24050
  8
0
  0
BLOCK
  8
0
  2
*U197
 70
     1
 10
0.0
 20
0.0
 30
0.0
  3
*U197
  1

  0
TEXT
  5
24052
  8
0
 10
3.5112004937425918
 20
2.3236705000861089
 30
0.0
 40
0.125
  1
Exterior Casing
  0
TEXT
  5
24053
  8
0
 10
3.5112004937425918
 20
2.1153371667527749
 30
0.0
 40
0.125
  1
TL-2242
  0
TEXT
  5
24054
  8
0
 10
3.5112004937425918
 20
1.9070038334194419
 30
0.0
 40
0.125
  1
2" x 4-1/2"
  0
TEXT
  5
24055
  8
0
 10
3.5112004937425918
 20
1.6986705000861091
 30
0.0
 40
0.125
  1
800.66.TAGUE
  0
ENDBLK
  5
24057
  8
0
  0
BLOCK
  8
0
  2
*U198
 70
     1
 10
0.0
 20
0.0
 30
0.0
  3
*U198
  1

  0
TEXT
  5
24059
  8
0
 62
     0
 10
-386.5390653119602
 20
838.32040714068194
 30
0.0
 40
0.125
  1
Cutter
 50
90.0
  0
ENDBLK
  5
2405B
  8
0
  0
BLOCK
  8
0
  2
*U199
 70
     1
 10
0.0
 20
0.0
 30
0.0
  3
*U199
  1

  0
TEXT
  5
2405D
  8
0
 10
1.983241637717696
 20
1.2297917133489591
 30
0.0
 40
0.125
  1
Exterior Casing
  0
TEXT
  5
2405E
  8
0
 10
1.983241637717696
 20
1.0214583800156249
 30
0.0
 40
0.125
  1
TL-2254
  0
TEXT
  5
2405F
  8
0
 10
1.983241637717696
 20
0.8131250466822924
 30
0.0
 40
0.125
  1
1-1/4" x 1-3/4"
  0
TEXT
  5
24060
  8
0
 10
1.983241637717696
 20
0.6047917133489591
 30
0.0
 40
0.125
  1
800.66.TAGUE
  0
ENDBLK
  5
24062
  8
0
  0
BLOCK
  8
0
  2
*U200
 70
     1
 10
0.0
 20
0.0
 30
0.0
  3
*U200
  1

  0
TEXT
  5
24064
  8
0
 10
2.2285402119240412
 20
3.7215677387475798
 30
0.0
 40
0.125
  1
Exterior Jamb
  0
TEXT
  5
24065
  8
0
 10
2.2285402119240412
 20
3.5132344054142468
 30
0.0
 40
0.125
  1
TL-2126
  0
TEXT
  5
24066
  8
0
 10
2.2285402119240412
 20
3.3049010720809142
 30
0.0
 40
0.125
  1
1-1/4" x 6-5/8"
  0
TEXT
  5
24067
  8
0
 10
2.2285402119240412
 20
3.0965677387475798
 30
0.0
 40
0.125
  1
800.66.TAGUE
  0
ENDBLK
  5
24069
  8
0
  0
BLOCK
  8
0
  2
*U201
 70
     1
 10
0.0
 20
0.0
 30
0.0
  3
*U201
  1

  0
TEXT
  5
2406B
  8
0
 10
2.025590122046196
 20
3.8877018206065941
 30
0.0
 40
0.125
  1
Exterior Jamb
  0
TEXT
  5
2406C
  8
0
 10
2.025590122046196
 20
3.6793684872732602
 30
0.0
 40
0.125
  1
TL-2127
  0
TEXT
  5
2406D
  8
0
 10
2.025590122046196
 20
3.4710351539399271
 30
0.0
 40
0.125
  1
1-1/4" x 6-5/8"
  0
TEXT
  5
2406E
  8
0
 10
2.025590122046196
 20
3.2627018206065941
 30
0.0
 40
0.125
  1
800.66.TAGUE
  0
ENDBLK
  5
24070
  8
0
  0
BLOCK
  8
0
  2
*U202
 70
     1
 10
0.0
 20
0.0
 30
0.0
  3
*U202
  1

  0
TEXT
  5
24072
  8
0
 10
1.8279899277385421
 20
2.0085009357213721
 30
0.0
 40
0.125
  1
Fluting
  0
TEXT
  5
24073
  8
0
 10
1.8279899277385421
 20
1.800167602388038
 30
0.0
 40
0.125
  1
TL-123
  0
TEXT
  5
24074
  8
0
 10
1.8279899277385421
 20
1.5918342690547049
 30
0.0
 40
0.125
  1
3/4" x 3-1/2"
  0
TEXT
  5
24075
  8
0
 10
1.8279899277385421
 20
1.3835009357213719
 30
0.0
 40
0.125
  1
800.66.TAGUE
  0
ENDBLK
  5
24077
  8
0
  0
BLOCK
  8
0
  2
*U203
 70
     1
 10
0.0
 20
0.0
 30
0.0
  3
*U203
  1

  0
TEXT
  5
24079
  8
0
 10
1.9710461263608181
 20
3.9608870512416838
 30
0.0
 40
0.125
  1
Fluting
  0
TEXT
  5
2407A
  8
0
 10
1.9710461263608181
 20
3.7525537179083499
 30
0.0
 40
0.125
  1
TL-343
  0
TEXT
  5
2407B
  8
0
 10
1.9710461263608181
 20
3.5442203845750169
 30
0.0
 40
0.125
  1
7/8" x 7-3/16"
  0
TEXT
  5
2407C
  8
0
 10
1.9710461263608181
 20
3.3358870512416838
 30
0.0
 40
0.125
  1
800.66.TAGUE
  0
ENDBLK
  5
2407E
  8
0
  0
BLOCK
  8
0
  2
*U204
 70
     1
 10
0.0
 20
0.0
 30
0.0
  3
*U204
  1

  0
TEXT
  5
24080
  8
0
 10
1.4662897697170929
 20
3.8395028676267202
 30
0.0
 40
0.125
  1
Fluting
  0
TEXT
  5
24081
  8
0
 10
1.4662897697170929
 20
3.6311695342933858
 30
0.0
 40
0.125
  1
TL-2183
  0
TEXT
  5
24082
  8
0
 10
1.4662897697170929
 20
3.4228362009600528
 30
0.0
 40
0.125
  1
3/4" x 7-1/4"
  0
TEXT
  5
24083
  8
0
 10
1.4662897697170929
 20
3.2145028676267202
 30
0.0
 40
0.125
  1
800.66.TAGUE
  0
ENDBLK
  5
24085
  8
0
  0
BLOCK
  8
0
  2
*U205
 70
     1
 10
0.0
 20
0.0
 30
0.0
  3
*U205
  1

  0
TEXT
  5
24087
  8
0
 10
2.0951853732560148
 20
2.6676693683394879
 30
0.0
 40
0.125
  1
Fluting
  0
TEXT
  5
24088
  8
0
 10
2.0951853732560148
 20
2.4593360350061548
 30
0.0
 40
0.125
  1
TL-2276
  0
TEXT
  5
24089
  8
0
 10
2.0951853732560148
 20
2.2510027016728218
 30
0.0
 40
0.125
  1
11/16" x 3"
  0
TEXT
  5
2408A
  8
0
 10
2.0951853732560148
 20
2.0426693683394879
 30
0.0
 40
0.125
  1
800.66.TAGUE
  0
ENDBLK
  5
2408C
  8
0
  0
BLOCK
  8
0
  2
*U206
 70
     1
 10
0.0
 20
0.0
 30
0.0
  3
*U206
  1

  0
TEXT
  5
2408E
  8
0
 10
2.4586482925877808
 20
1.0775582798773931
 30
0.0
 40
0.125
  1
Full Round
  0
TEXT
  5
2408F
  8
0
 10
2.4586482925877808
 20
0.8692249465440607
 30
0.0
 40
0.125
  1
TL-232
  0
TEXT
  5
24090
  8
0
 10
2.4586482925877808
 20
0.6608916132107274
 30
0.0
 40
0.125
  1
1-7/16" x 1-7/16"
  0
TEXT
  5
24091
  8
0
 10
2.4586482925877808
 20
0.452558279877394
 30
0.0
 40
0.125
  1
800.66.TAGUE
  0
ENDBLK
  5
24093
  8
0
  0
BLOCK
  8
0
  2
*U207
 70
     1
 10
0.0
 20
0.0
 30
0.0
  3
*U207
  1

  0
TEXT
  5
24095
  8
0
 10
2.339763263951113
 20
0.912090443150646
 30
0.0
 40
0.125
  1
Full Round
  0
TEXT
  5
24096
  8
0
 10
2.339763263951113
 20
0.7037571098173128
 30
0.0
 40
0.125
  1
TL-233
  0
TEXT
  5
24097
  8
0
 10
2.339763263951113
 20
0.4954237764839795
 30
0.0
 40
0.125
  1
1-3/16" x 1-3/16"
  0
TEXT
  5
24098
  8
0
 10
2.339763263951113
 20
0.287090443150646
 30
0.0
 40
0.125
  1
800.66.TAGUE
  0
ENDBLK
  5
2409A
  8
0
  0
BLOCK
  8
0
  2
*U208
 70
     1
 10
0.0
 20
0.0
 30
0.0
  3
*U208
  1

  0
TEXT
  5
2409C
  8
0
 10
2.2927598682417729
 20
0.8643692839127652
 30
0.0
 40
0.125
  1
Full Round
  0
TEXT
  5
2409D
  8
0
 10
2.2927598682417729
 20
0.6560359505794321
 30
0.0
 40
0.125
  1
TL-234
  0
TEXT
  5
2409E
  8
0
 10
2.2927598682417729
 20
0.4477026172460987
 30
0.0
 40
0.125
  1
1-1/16" x 1-1/16"
  0
TEXT
  5
2409F
  8
0
 10
2.2927598682417729
 20
0.2393692839127652
 30
0.0
 40
0.125
  1
800.66.TAGUE
  0
ENDBLK
  5
240A1
  8
0
  0
BLOCK
  8
0
  2
*U209
 70
     1
 10
0.0
 20
0.0
 30
0.0
  3
*U209
  1

  0
TEXT
  5
240A3
  8
0
 10
2.0765905058337921
 20
1.0252762384561711
 30
0.0
 40
0.125
  1
Glass Bead
  0
TEXT
  5
240A4
  8
0
 10
2.0765905058337921
 20
0.8169429051228387
 30
0.0
 40
0.125
  1
TL-145
  0
TEXT
  5
240A5
  8
0
 10
2.0765905058337921
 20
0.6086095717895054
 30
0.0
 40
0.125
  1
11/16" x 3/4"
  0
TEXT
  5
240A6
  8
0
 10
2.0765905058337921
 20
0.400276238456172
 30
0.0
 40
0.125
  1
800.66.TAGUE
  0
ENDBLK
  5
240A8
  8
0
  0
BLOCK
  8
0
  2
*U210
 70
     1
 10
0.0
 20
0.0
 30
0.0
  3
*U210
  1

  0
TEXT
  5
240AA
  8
0
 10
1.468683703905185
 20
0.7455079879047162
 30
0.0
 40
0.125
  1
Glass Bead
  0
TEXT
  5
240AB
  8
0
 10
1.468683703905185
 20
0.537174654571383
 30
0.0
 40
0.125
  1
TL-147
  0
TEXT
  5
240AC
  8
0
 10
1.468683703905185
 20
0.3288413212380496
 30
0.0
 40
0.125
  1
1/2" x 9/16"
  0
TEXT
  5
240AD
  8
0
 10
1.468683703905185
 20
0.1205079879047162
 30
0.0
 40
0.125
  1
800.66.TAGUE
  0
ENDBLK
  5
240AF
  8
0
  0
BLOCK
  8
0
  2
*U211
 70
     1
 10
0.0
 20
0.0
 30
0.0
  3
*U211
  1

  0
TEXT
  5
240B1
  8
0
 10
1.584020839760341
 20
0.6794303041602916
 30
0.0
 40
0.125
  1
Glass Bead
  0
TEXT
  5
240B2
  8
0
 10
1.584020839760341
 20
0.4710969708269583
 30
0.0
 40
0.125
  1
TL-152
  0
TEXT
  5
240B3
  8
0
 10
1.584020839760341
 20
0.262763637493625
 30
0.0
 40
0.125
  1
3/8" x 11/16"
  0
TEXT
  5
240B4
  8
0
 10
1.584020839760341
 20
0.0544303041602916
 30
0.0
 40
0.125
  1
800.66.TAGUE
  0
ENDBLK
  5
240B6
  8
0
  0
BLOCK
  8
0
  2
*U212
 70
     1
 10
0.0
 20
0.0
 30
0.0
  3
*U212
  1

  0
TEXT
  5
240B8
  8
0
 10
1.3526095965341931
 20
0.7381811042487243
 30
0.0
 40
0.125
  1
Glass Bead
  0
TEXT
  5
240B9
  8
0
 10
1.3526095965341931
 20
0.5298477709153912
 30
0.0
 40
0.125
  1
TL-2142
  0
TEXT
  5
240BA
  8
0
 10
1.3526095965341931
 20
0.3215144375820577
 30
0.0
 40
0.125
  1
11/32" x 29/32"
  0
TEXT
  5
240BB
  8
0
 10
1.3526095965341931
 20
0.1131811042487243
 30
0.0
 40
0.125
  1
800.66.TAGUE
  0
ENDBLK
  5
240BD
  8
0
  0
BLOCK
  8
0
  2
*U213
 70
     1
 10
0.0
 20
0.0
 30
0.0
  3
*U213
  1

  0
TEXT
  5
240BF
  8
0
 10
1.3435544091540801
 20
0.6794309539541246
 30
0.0
 40
0.125
  1
Glass Bead
  0
TEXT
  5
240C0
  8
0
 10
1.3435544091540801
 20
0.4710976206207913
 30
0.0
 40
0.125
  1
TL-2149
  0
TEXT
  5
240C1
  8
0
 10
1.3435544091540801
 20
0.2627642872874579
 30
0.0
 40
0.125
  1
3/8" x 1/2"
  0
TEXT
  5
240C2
  8
0
 10
1.3435544091540801
 20
0.0544309539541246
 30
0.0
 40
0.125
  1
800.66.TAGUE
  0
ENDBLK
  5
240C4
  8
0
  0
BLOCK
  8
0
  2
*U214
 70
     1
 10
0.0
 20
0.0
 30
0.0
  3
*U214
  1

  0
TEXT
  5
240C6
  8
0
 10
1.488844305553698
 20
0.6807937379744545
 30
0.0
 40
0.125
  1
Glass Bead
  0
TEXT
  5
240C7
  8
0
 10
1.488844305553698
 20
0.4724604046411212
 30
0.0
 40
0.125
  1
TL-2155
  0
TEXT
  5
240C8
  8
0
 10
1.488844305553698
 20
0.2641270713077878
 30
0.0
 40
0.125
  1
1/2" x 13/16"
  0
TEXT
  5
240C9
  8
0
 10
1.488844305553698
 20
0.0557937379744544
 30
0.0
 40
0.125
  1
800.66.TAGUE
  0
ENDBLK
  5
240CB
  8
0
  0
BLOCK
  8
0
  2
*U215
 70
     1
 10
0.0
 20
0.0
 30
0.0
  3
*U215
  1

  0
TEXT
  5
240CD
  8
0
 10
1.52304343587059
 20
0.6794307504626432
 30
0.0
 40
0.125
  1
Glass Bead
  0
TEXT
  5
240CE
  8
0
 10
1.52304343587059
 20
0.4710974171293099
 30
0.0
 40
0.125
  1
TL-2218
  0
TEXT
  5
240CF
  8
0
 10
1.52304343587059
 20
0.2627640837959765
 30
0.0
 40
0.125
  1
1/4" x 5/8"
  0
TEXT
  5
240D0
  8
0
 10
1.52304343587059
 20
0.0544307504626431
 30
0.0
 40
0.125
  1
800.66.TAGUE
  0
ENDBLK
  5
240D2
  8
0
  0
BLOCK
  8
0
  2
*U216
 70
     1
 10
0.0
 20
0.0
 30
0.0
  3
*U216
  1

  0
TEXT
  5
240D4
  8
0
 10
2.8235364504146778
 20
0.7161662597191026
 30
0.0
 40
0.125
  1
Half Round
  0
TEXT
  5
240D5
  8
0
 10
2.8235364504146778
 20
0.5078329263857692
 30
0.0
 40
0.125
  1
TL-6
  0
TEXT
  5
240D6
  8
0
 10
2.8235364504146778
 20
0.2994995930524358
 30
0.0
 40
0.125
  1
7/8" x 1-3/4"
  0
TEXT
  5
240D7
  8
0
 10
2.8235364504146778
 20
0.0911662597191025
 30
0.0
 40
0.125
  1
800.66.TAGUE
  0
ENDBLK
  5
240D9
  8
0
  0
BLOCK
  8
0
  2
*U217
 70
     1
 10
0.0
 20
0.0
 30
0.0
  3
*U217
  1

  0
TEXT
  5
240DB
  8
0
 10
2.8316039409763221
 20
0.7222806133900122
 30
0.0
 40
0.125
  1
Half Round
  0
TEXT
  5
240DC
  8
0
 10
2.8316039409763221
 20
0.5139472800566788
 30
0.0
 40
0.125
  1
TL-7
  0
TEXT
  5
240DD
  8
0
 10
2.8316039409763221
 20
0.3056139467233454
 30
0.0
 40
0.125
  1
1" x 2"
  0
TEXT
  5
240DE
  8
0
 10
2.8316039409763221
 20
0.0972806133900122
 30
0.0
 40
0.125
  1
800.66.TAGUE
  0
ENDBLK
  5
240E0
  8
0
  0
BLOCK
  8
0
  2
*U218
 70
     1
 10
0.0
 20
0.0
 30
0.0
  3
*U218
  1

  0
TEXT
  5
240E2
  8
0
 10
4.3092556456276148
 20
0.8292621657587915
 30
0.0
 40
0.125
  1
Half Round
  0
TEXT
  5
240E3
  8
0
 10
4.3092556456276148
 20
0.6209288324254582
 30
0.0
 40
0.125
  1
TL-8
  0
TEXT
  5
240E4
  8
0
 10
4.3092556456276148
 20
0.4125954990921248
 30
0.0
 40
0.125
  1
1-1/2" x 3"
  0
TEXT
  5
240E5
  8
0
 10
4.3092556456276148
 20
0.2042621657587915
 30
0.0
 40
0.125
  1
800.66.TAGUE
  0
ENDBLK
  5
240E7
  8
0
  0
BLOCK
  8
0
  2
*U219
 70
     1
 10
0.0
 20
0.0
 30
0.0
  3
*U219
  1

  0
TEXT
  5
240E9
  8
0
 10
2.524104426630799
 20
0.6794299200373644
 30
0.0
 40
0.125
  1
Half Round
  0
TEXT
  5
240EA
  8
0
 10
2.524104426630799
 20
0.471096586704031
 30
0.0
 40
0.125
  1
TL-116
  0
TEXT
  5
240EB
  8
0
 10
2.524104426630799
 20
0.2627632533706976
 30
0.0
 40
0.125
  1
3/4" x 1-1/2"
  0
TEXT
  5
240EC
  8
0
 10
2.524104426630799
 20
0.0544299200373644
 30
0.0
 40
0.125
  1
800.66.TAGUE
  0
ENDBLK
  5
240EE
  8
0
  0
BLOCK
  8
0
  2
*U220
 70
     1
 10
0.0
 20
0.0
 30
0.0
  3
*U220
  1

  0
TEXT
  5
240F0
  8
0
 10
2.4691699319003528
 20
0.6794301275302815
 30
0.0
 40
0.125
  1
Half Round
  0
TEXT
  5
240F1
  8
0
 10
2.4691699319003528
 20
0.4710967941969481
 30
0.0
 40
0.125
  1
TL-119
  0
TEXT
  5
240F2
  8
0
 10
2.4691699319003528
 20
0.2627634608636147
 30
0.0
 40
0.125
  1
5/8" x 1-1/4"
  0
TEXT
  5
240F3
  8
0
 10
2.4691699319003528
 20
0.0544301275302814
 30
0.0
 40
0.125
  1
800.66.TAGUE
  0
ENDBLK
  5
240F5
  8
0
  0
BLOCK
  8
0
  2
*U221
 70
     1
 10
0.0
 20
0.0
 30
0.0
  3
*U221
  1

  0
TEXT
  5
240F7
  8
0
 10
1.96218194837894
 20
0.679429735423696
 30
0.0
 40
0.125
  1
Half Round
  0
TEXT
  5
240F8
  8
0
 10
1.96218194837894
 20
0.4710964020903626
 30
0.0
 40
0.125
  1
TL-120
  0
TEXT
  5
240F9
  8
0
 10
1.96218194837894
 20
0.2627630687570293
 30
0.0
 40
0.125
  1
1/2" x 1"
  0
TEXT
  5
240FA
  8
0
 10
1.96218194837894
 20
0.054429735423696
 30
0.0
 40
0.125
  1
800.66.TAGUE
  0
ENDBLK
  5
240FC
  8
0
  0
BLOCK
  8
0
  2
*U222
 70
     1
 10
0.0
 20
0.0
 30
0.0
  3
*U222
  1

  0
TEXT
  5
240FE
  8
0
 10
1.51989036816559
 20
0.679429754589819
 30
0.0
 40
0.125
  1
Half Round
  0
TEXT
  5
240FF
  8
0
 10
1.51989036816559
 20
0.4710964212564856
 30
0.0
 40
0.125
  1
TL-122
  0
TEXT
  5
24100
  8
0
 10
1.51989036816559
 20
0.2627630879231522
 30
0.0
 40
0.125
  1
11/32" x 11/16"
  0
TEXT
  5
24101
  8
0
 10
1.51989036816559
 20
0.0544297545898189
 30
0.0
 40
0.125
  1
800.66.TAGUE
  0
ENDBLK
  5
24103
  8
0
  0
BLOCK
  8
0
  2
*U223
 70
     1
 10
0.0
 20
0.0
 30
0.0
  3
*U223
  1

  0
TEXT
  5
24105
  8
0
 10
1.332760358760481
 20
0.6794306489528026
 30
0.0
 40
0.125
  1
Half Round
  0
TEXT
  5
24106
  8
0
 10
1.332760358760481
 20
0.4710973156194692
 30
0.0
 40
0.125
  1
TL-124
  0
TEXT
  5
24107
  8
0
 10
1.332760358760481
 20
0.2627639822861358
 30
0.0
 40
0.125
  1
1/4" x 1/2"
  0
TEXT
  5
24108
  8
0
 10
1.332760358760481
 20
0.0544306489528026
 30
0.0
 40
0.125
  1
800.66.TAGUE
  0
ENDBLK
  5
2410A
  8
0
  0
BLOCK
  8
0
  2
*U224
 70
     1
 10
0.0
 20
0.0
 30
0.0
  3
*U224
  1

  0
TEXT
  5
2410C
  8
0
 10
2.6263646070054838
 20
2.827461056571678
 30
0.0
 40
0.125
  1
Hand Rail
  0
TEXT
  5
2410D
  8
0
 10
2.6263646070054838
 20
2.6191277232383441
 30
0.0
 40
0.125
  1
TL-14
  0
TEXT
  5
2410E
  8
0
 10
2.6263646070054838
 20
2.410794389905011
 30
0.0
 40
0.125
  1
1-5/8" x 5-1/4"
  0
TEXT
  5
2410F
  8
0
 10
2.6263646070054838
 20
2.202461056571678
 30
0.0
 40
0.125
  1
800.66.TAGUE
  0
ENDBLK
  5
24111
  8
0
  0
BLOCK
  8
0
  2
*U225
 70
     1
 10
0.0
 20
0.0
 30
0.0
  3
*U225
  1

  0
TEXT
  5
24113
  8
0
 10
2.2830209502855041
 20
2.755934710444194
 30
0.0
 40
0.125
  1
Hand Rail
  0
TEXT
  5
24114
  8
0
 10
2.2830209502855041
 20
2.5476013771108601
 30
0.0
 40
0.125
  1
TL-15
  0
TEXT
  5
24115
  8
0
 10
2.2830209502855041
 20
2.3392680437775271
 30
0.0
 40
0.125
  1
1-3/8" x 5-1/2"
  0
TEXT
  5
24116
  8
0
 10
2.2830209502855041
 20
2.130934710444194
 30
0.0
 40
0.125
  1
800.66.TAGUE
  0
ENDBLK
  5
24118
  8
0
  0
BLOCK
  8
0
  2
*U226
 70
     1
 10
0.0
 20
0.0
 30
0.0
  3
*U226
  1

  0
TEXT
  5
2411A
  8
0
 10
3.5100871080940119
 20
1.046126857764647
 30
0.0
 40
0.125
  1
Hand Rail
  0
TEXT
  5
2411B
  8
0
 10
3.5100871080940119
 20
0.8377935244313146
 30
0.0
 40
0.125
  1
TL-96
  0
TEXT
  5
2411C
  8
0
 10
3.5100871080940119
 20
0.6294601910979814
 30
0.0
 40
0.125
  1
1-1/4" x 2-1/4"
  0
TEXT
  5
2411D
  8
0
 10
3.5100871080940119
 20
0.4211268577646479
 30
0.0
 40
0.125
  1
800.66.TAGUE
  0
ENDBLK
  5
2411F
  8
0
  0
BLOCK
  8
0
  2
*U227
 70
     1
 10
0.0
 20
0.0
 30
0.0
  3
*U227
  1

  0
TEXT
  5
24121
  8
0
 10
2.3417636350062589
 20
4.2171919217870482
 30
0.0
 40
0.125
  1
Hand Rail
  0
TEXT
  5
24122
  8
0
 10
2.3417636350062589
 20
4.0088585884537151
 30
0.0
 40
0.125
  1
TL-117
  0
TEXT
  5
24123
  8
0
 10
2.3417636350062589
 20
3.8005252551203812
 30
0.0
 40
0.125
  1
1-1/4" x 8-1/8"
  0
TEXT
  5
24124
  8
0
 10
2.3417636350062589
 20
3.5921919217870482
 30
0.0
 40
0.125
  1
800.66.TAGUE
  0
ENDBLK
  5
24126
  8
0
  0
BLOCK
  8
0
  2
*U228
 70
     1
 10
0.0
 20
0.0
 30
0.0
  3
*U228
  1

  0
TEXT
  5
24128
  8
0
 10
2.7125232555794119
 20
1.098442957172892
 30
0.0
 40
0.125
  1
Hand Rail
  0
TEXT
  5
24129
  8
0
 10
2.7125232555794119
 20
0.8901096238395592
 30
0.0
 40
0.125
  1
TL-231
  0
TEXT
  5
2412A
  8
0
 10
2.7125232555794119
 20
0.6817762905062259
 30
0.0
 40
0.125
  1
1-1/2" x 1-11/16"
  0
TEXT
  5
2412B
  8
0
 10
2.7125232555794119
 20
0.4734429571728925
 30
0.0
 40
0.125
  1
800.66.TAGUE
  0
ENDBLK
  5
2412D
  8
0
  0
BLOCK
  8
0
  2
*U229
 70
     1
 10
0.0
 20
0.0
 30
0.0
  3
*U229
  1

  0
TEXT
  5
2412F
  8
0
 10
2.960252587020249
 20
0.6772989443436474
 30
0.0
 40
0.125
  1
Lattice
  0
TEXT
  5
24130
  8
0
 10
2.960252587020249
 20
0.468965611010314
 30
0.0
 40
0.125
  1
TL-266
  0
TEXT
  5
24131
  8
0
 10
2.960252587020249
 20
0.2606322776769806
 30
0.0
 40
0.125
  1
1/4" x 1-5/8"
  0
TEXT
  5
24132
  8
0
 10
2.960252587020249
 20
0.0522989443436472
 30
0.0
 40
0.125
  1
800.66.TAGUE
  0
ENDBLK
  5
24134
  8
0
  0
BLOCK
  8
0
  2
*U230
 70
     1
 10
0.0
 20
0.0
 30
0.0
  3
*U230
  1

  0
TEXT
  5
24136
  8
0
 10
2.5177643903332401
 20
0.6772985360157691
 30
0.0
 40
0.125
  1
Lattice
  0
TEXT
  5
24137
  8
0
 10
2.5177643903332401
 20
0.4689652026824358
 30
0.0
 40
0.125
  1
TL-267
  0
TEXT
  5
24138
  8
0
 10
2.5177643903332401
 20
0.2606318693491024
 30
0.0
 40
0.125
  1
1/4" x 1-3/8"
  0
TEXT
  5
24139
  8
0
 10
2.5177643903332401
 20
0.0522985360157691
 30
0.0
 40
0.125
  1
800.66.TAGUE
  0
ENDBLK
  5
2413B
  8
0
  0
BLOCK
  8
0
  2
*U231
 70
     1
 10
0.0
 20
0.0
 30
0.0
  3
*U231
  1

  0
TEXT
  5
2413D
  8
0
 10
2.3872073702682419
 20
0.6772987437404936
 30
0.0
 40
0.125
  1
Lattice
  0
TEXT
  5
2413E
  8
0
 10
2.3872073702682419
 20
0.4689654104071603
 30
0.0
 40
0.125
  1
TL-268
  0
TEXT
  5
2413F
  8
0
 10
2.3872073702682419
 20
0.260632077073827
 30
0.0
 40
0.125
  1
1/4" x 1-1/8"
  0
TEXT
  5
24140
  8
0
 10
2.3872073702682419
 20
0.0522987437404936
 30
0.0
 40
0.125
  1
800.66.TAGUE
  0
ENDBLK
  5
24142
  8
0
  0
BLOCK
  8
0
  2
*U232
 70
     1
 10
0.0
 20
0.0
 30
0.0
  3
*U232
  1

  0
TEXT
  5
24144
  8
0
 10
1.7198452767448771
 20
0.6772982915522335
 30
0.0
 40
0.125
  1
Lattice
  0
TEXT
  5
24145
  8
0
 10
1.7198452767448771
 20
0.4689649582189002
 30
0.0
 40
0.125
  1
TL-269
  0
TEXT
  5
24146
  8
0
 10
1.7198452767448771
 20
0.2606316248855668
 30
0.0
 40
0.125
  1
1/4" x 3/4"
  0
TEXT
  5
24147
  8
0
 10
1.7198452767448771
 20
0.0522982915522334
 30
0.0
 40
0.125
  1
800.66.TAGUE
  0
ENDBLK
  5
24149
  8
0
  0
BLOCK
  8
0
  2
*U233
 70
     1
 10
0.0
 20
0.0
 30
0.0
  3
*U233
  1

  0
TEXT
  5
2414B
  8
0
 10
2.0085733028087129
 20
0.6772989387914095
 30
0.0
 40
0.125
  1
Lattice
  0
TEXT
  5
2414C
  8
0
 10
2.0085733028087129
 20
0.4689656054580762
 30
0.0
 40
0.125
  1
TL-270
  0
TEXT
  5
2414D
  8
0
 10
2.0085733028087129
 20
0.2606322721247428
 30
0.0
 40
0.125
  1
1/4" x 7/8"
  0
TEXT
  5
2414E
  8
0
 10
2.0085733028087129
 20
0.0522989387914095
 30
0.0
 40
0.125
  1
800.66.TAGUE
  0
ENDBLK
  5
24150
  8
0
  0
BLOCK
  8
0
  2
*U234
 70
     1
 10
0.0
 20
0.0
 30
0.0
  3
*U234
  1

  0
TEXT
  5
24152
  8
0
 10
2.940701223973178
 20
0.6772980715210224
 30
0.0
 40
0.125
  1
Lattice
  0
TEXT
  5
24153
  8
0
 10
2.940701223973178
 20
0.4689647381876891
 30
0.0
 40
0.125
  1
TL-962
  0
TEXT
  5
24154
  8
0
 10
2.940701223973178
 20
0.2606314048543558
 30
0.0
 40
0.125
  1
1/4" x 2"
  0
TEXT
  5
24155
  8
0
 10
2.940701223973178
 20
0.0522980715210224
 30
0.0
 40
0.125
  1
800.66.TAGUE
  0
ENDBLK
  5
24157
  8
0
  0
BLOCK
  8
0
  2
*U235
 70
     1
 10
0.0
 20
0.0
 30
0.0
  3
*U235
  1

  0
TEXT
  5
24159
  8
0
 10
1.983768624240724
 20
1.1498699559202801
 30
0.0
 40
0.125
  1
Lip Moulding
  0
TEXT
  5
2415A
  8
0
 10
1.983768624240724
 20
0.9415366225869473
 30
0.0
 40
0.125
  1
TL-18
  0
TEXT
  5
2415B
  8
0
 10
1.983768624240724
 20
0.7332032892536139
 30
0.0
 40
0.125
  1
3/4" x 1-15/16"
  0
TEXT
  5
2415C
  8
0
 10
1.983768624240724
 20
0.5248699559202806
 30
0.0
 40
0.125
  1
800.66.TAGUE
  0
ENDBLK
  5
2415E
  8
0
  0
BLOCK
  8
0
  2
*U236
 70
     1
 10
0.0
 20
0.0
 30
0.0
  3
*U236
  1

  0
TEXT
  5
24160
  8
0
 10
2.2853728967398861
 20
1.2855052394233999
 30
0.0
 40
0.125
  1
Lip Moulding
  0
TEXT
  5
24161
  8
0
 10
2.2853728967398861
 20
1.0771719060900671
 30
0.0
 40
0.125
  1
TL-530
  0
TEXT
  5
24162
  8
0
 10
2.2853728967398861
 20
0.8688385727567342
 30
0.0
 40
0.125
  1
5/8" x 1-5/8"
  0
TEXT
  5
24163
  8
0
 10
2.2853728967398861
 20
0.6605052394234008
 30
0.0
 40
0.125
  1
800.66.TAGUE
  0
ENDBLK
  5
24165
  8
0
  0
BLOCK
  8
0
  2
*U237
 70
     1
 10
0.0
 20
0.0
 30
0.0
  3
*U237
  1

  0
TEXT
  5
24167
  8
0
 10
2.269200201813987
 20
1.1997502285778401
 30
0.0
 40
0.125
  1
Lip Moulding
  0
TEXT
  5
24168
  8
0
 10
2.269200201813987
 20
0.9914168952445077
 30
0.0
 40
0.125
  1
TL-532
  0
TEXT
  5
24169
  8
0
 10
2.269200201813987
 20
0.7830835619111745
 30
0.0
 40
0.125
  1
3/4" x 1-3/4"
  0
TEXT
  5
2416A
  8
0
 10
2.269200201813987
 20
0.574750228577841
 30
0.0
 40
0.125
  1
800.66.TAGUE
  0
ENDBLK
  5
2416C
  8
0
  0
BLOCK
  8
0
  2
*U238
 70
     1
 10
0.0
 20
0.0
 30
0.0
  3
*U238
  1

  0
TEXT
  5
2416E
  8
0
 10
1.8892783014391621
 20
1.241449235052527
 30
0.0
 40
0.125
  1
Lip Moulding
  0
TEXT
  5
2416F
  8
0
 10
1.8892783014391621
 20
1.033115901719194
 30
0.0
 40
0.125
  1
TL-2169
  0
TEXT
  5
24170
  8
0
 10
1.8892783014391621
 20
0.8247825683858613
 30
0.0
 40
0.125
  1
11/16" x 1-7/8"
  0
TEXT
  5
24171
  8
0
 10
1.8892783014391621
 20
0.6164492350525279
 30
0.0
 40
0.125
  1
800.66.TAGUE
  0
ENDBLK
  5
24173
  8
0
  0
BLOCK
  8
0
  2
*U239
 70
     1
 10
0.0
 20
0.0
 30
0.0
  3
*U239
  1

  0
TEXT
  5
24175
  8
0
 10
1.620143794977025
 20
1.0038028284741349
 30
0.0
 40
0.125
  1
Lip Moulding
  0
TEXT
  5
24176
  8
0
 10
1.620143794977025
 20
0.7954694951408026
 30
0.0
 40
0.125
  1
TL-2179
  0
TEXT
  5
24177
  8
0
 10
1.620143794977025
 20
0.5871361618074693
 30
0.0
 40
0.125
  1
3/4" x 1-1/4"
  0
TEXT
  5
24178
  8
0
 10
1.620143794977025
 20
0.3788028284741358
 30
0.0
 40
0.125
  1
800.66.TAGUE
  0
ENDBLK
  5
2417A
  8
0
  0
BLOCK
  8
0
  2
*U240
 70
     1
 10
0.0
 20
0.0
 30
0.0
  3
*U240
  1

  0
TEXT
  5
2417C
  8
0
 10
1.9163743563030939
 20
1.019442403193352
 30
0.0
 40
0.125
  1
Lip Moulding
  0
TEXT
  5
2417D
  8
0
 10
1.9163743563030939
 20
0.811109069860019
 30
0.0
 40
0.125
  1
TL-2181
  0
TEXT
  5
2417E
  8
0
 10
1.9163743563030939
 20
0.6027757365266857
 30
0.0
 40
0.125
  1
3/4" x 1-11/16"
  0
TEXT
  5
2417F
  8
0
 10
1.9163743563030939
 20
0.3944424031933522
 30
0.0
 40
0.125
  1
800.66.TAGUE
  0
ENDBLK
  5
24181
  8
0
  0
BLOCK
  8
0
  2
*U241
 70
     1
 10
0.0
 20
0.0
 30
0.0
  3
*U241
  1

  0
TEXT
  5
24183
  8
0
 10
2.0010341316657332
 20
0.9876257387668374
 30
0.0
 40
0.125
  1
Lip Moulding
  0
TEXT
  5
24184
  8
0
 10
2.0010341316657332
 20
0.7792924054335043
 30
0.0
 40
0.125
  1
TL-2211
  0
TEXT
  5
24185
  8
0
 10
2.0010341316657332
 20
0.5709590721001709
 30
0.0
 40
0.125
  1
1" x 1-15/32"
  0
TEXT
  5
24186
  8
0
 10
2.0010341316657332
 20
0.3626257387668375
 30
0.0
 40
0.125
  1
800.66.TAGUE
  0
ENDBLK
  5
24188
  8
0
  0
BLOCK
  8
0
  2
*U242
 70
     1
 10
0.0
 20
0.0
 30
0.0
  3
*U242
  1

  0
TEXT
  5
2418A
  8
0
 10
1.9547841412725111
 20
1.2443911534714971
 30
0.0
 40
0.125
  1
Lip Mldg
  0
TEXT
  5
2418B
  8
0
 10
1.9547841412725111
 20
1.0360578201381629
 30
0.0
 40
0.125
  1
TL-2302
  0
TEXT
  5
2418C
  8
0
 10
1.9547841412725111
 20
0.8277244868048304
 30
0.0
 40
0.125
  1
13/16" x 1-3/4"
  0
TEXT
  5
2418D
  8
0
 10
1.9547841412725111
 20
0.6193911534714971
 30
0.0
 40
0.125
  1
800.66.TAGUE
  0
ENDBLK
  5
2418F
  8
0
  0
BLOCK
  8
0
  2
*U243
 70
     1
 10
0.0
 20
0.0
 30
0.0
  3
*U243
  1

  0
TEXT
  5
24191
  8
0
 10
1.971391504344296
 20
2.3593485866246051
 30
0.0
 40
0.125
  1
Mantle Moulding
  0
TEXT
  5
24192
  8
0
 10
1.971391504344296
 20
2.1510152532912721
 30
0.0
 40
0.125
  1
TL-9
  0
TEXT
  5
24193
  8
0
 10
1.971391504344296
 20
1.942681919957939
 30
0.0
 40
0.125
  1
1-5/8" x 5-1/8"
  0
TEXT
  5
24194
  8
0
 10
1.971391504344296
 20
1.7343485866246049
 30
0.0
 40
0.125
  1
800.66.TAGUE
  0
ENDBLK
  5
24196
  8
0
  0
BLOCK
  8
0
  2
*U244
 70
     1
 10
0.0
 20
0.0
 30
0.0
  3
*U244
  1

  0
TEXT
  5
24198
  8
0
 10
1.824484143033146
 20
2.7467482000251939
 30
0.0
 40
0.125
  1
Mantle Moulding
  0
TEXT
  5
24199
  8
0
 10
1.824484143033146
 20
2.5384148666918609
 30
0.0
 40
0.125
  1
TL-10
  0
TEXT
  5
2419A
  8
0
 10
1.824484143033146
 20
2.3300815333585279
 30
0.0
 40
0.125
  1
1-3/8" x 5"
  0
TEXT
  5
2419B
  8
0
 10
1.824484143033146
 20
2.1217482000251939
 30
0.0
 40
0.125
  1
800.66.TAGUE
  0
ENDBLK
  5
2419D
  8
0
  0
BLOCK
  8
0
  2
*U245
 70
     1
 10
0.0
 20
0.0
 30
0.0
  3
*U245
  1

  0
TEXT
  5
2419F
  8
0
 10
1.778440342841463
 20
0.6794305349126262
 30
0.0
 40
0.125
  1
Mantle Shelf
  0
TEXT
  5
241A0
  8
0
 10
1.778440342841463
 20
0.4710972015792928
 30
0.0
 40
0.125
  1
TL-2184
  0
TEXT
  5
241A1
  8
0
 10
1.778440342841463
 20
0.2627638682459594
 30
0.0
 40
0.125
  1
1-1/4" x 5-1/2"
  0
TEXT
  5
241A2
  8
0
 10
1.778440342841463
 20
0.0544305349126262
 30
0.0
 40
0.125
  1
800.66.TAGUE
  0
ENDBLK
  5
241A4
  8
0
  0
BLOCK
  8
0
  2
*U246
 70
     1
 10
0.0
 20
0.0
 30
0.0
  3
*U246
  1

  0
TEXT
  5
241A6
  8
0
 10
2.009611089016857
 20
0.679430549910876
 30
0.0
 40
0.125
  1
Mantle Shelf
  0
TEXT
  5
241A7
  8
0
 10
2.009611089016857
 20
0.4710972165775426
 30
0.0
 40
0.125
  1
TL-2185
  0
TEXT
  5
241A8
  8
0
 10
2.009611089016857
 20
0.2627638832442092
 30
0.0
 40
0.125
  1
1-1/2" x 5-1/2"
  0
TEXT
  5
241A9
  8
0
 10
2.009611089016857
 20
0.0544305499108759
 30
0.0
 40
0.125
  1
800.66.TAGUE
  0
ENDBLK
  5
241AB
  8
0
  0
BLOCK
  8
0
  2
*U247
 70
     1
 10
0.0
 20
0.0
 30
0.0
  3
*U247
  1

  0
TEXT
  5
241AD
  8
0
 62
     0
 10
-367.02425303528412
 20
426.35429858331162
 30
0.0
 40
0.125
  1
1
 50
90.0
  0
TEXT
  5
241AE
  8
0
 62
     0
 10
-367.10758636861738
 20
426.43763191664488
 30
0.0
 40
0.125
  1
3
 50
90.0
  0
LINE
  5
241AF
  8
0
 62
     0
 10
-367.08675303528412
 20
426.43763191664488
 30
0.0
 11
-367.08675303528412
 21
426.52096524997819
 31
0.0
  0
TEXT
  5
241B0
  8
0
 62
     0
 10
-366.9409197019508
 20
426.43763191664488
 30
0.0
 40
0.125
  1
4
 50
90.0
  0
TEXT
  5
241B1
  8
0
 62
     0
 10
-367.02425303528412
 20
426.56263191664482
 30
0.0
 40
0.125
  1
"
 50
90.0
  0
ENDBLK
  5
241B3
  8
0
  0
BLOCK
  8
0
  2
*U248
 70
     1
 10
0.0
 20
0.0
 30
0.0
  3
*U248
  1

  0
TEXT
  5
241B5
  8
0
 62
     0
 10
-364.19000805364777
 20
425.28877174148101
 30
0.0
 40
0.125
  1
7
  0
LINE
  5
241B6
  8
0
 62
     0
 10
-364.19000805364777
 20
425.2679384081477
 30
0.0
 11
-364.10667472031452
 21
425.2679384081477
 31
0.0
  0
TEXT
  5
241B7
  8
0
 62
     0
 10
-364.19000805364777
 20
425.12210507481433
 30
0.0
 40
0.125
  1
8
  0
TEXT
  5
241B8
  8
0
 62
     0
 10
-364.06500805364777
 20
425.2054384081477
 30
0.0
 40
0.125
  1
"
  0
ENDBLK
  5
241BA
  8
0
  0
BLOCK
  8
0
  2
*U249
 70
     1
 10
0.0
 20
0.0
 30
0.0
  3
*U249
  1

  0
TEXT
  5
241BC
  8
0
 62
     0
 10
-363.14629495961572
 20
426.36117705424232
 30
0.0
 40
0.125
  1
1
 50
90.0
  0
TEXT
  5
241BD
  8
0
 62
     0
 10
-363.22962829294897
 20
426.46534372090889
 30
0.0
 40
0.125
  1
1
 50
90.0
  0
LINE
  5
241BE
  8
0
 62
     0
 10
-363.20879495961572
 20
426.44451038757558
 30
0.0
 11
-363.20879495961572
 21
426.52784372090889
 31
0.0
  0
TEXT
  5
241BF
  8
0
 62
     0
 10
-363.06296162628229
 20
426.44451038757558
 30
0.0
 40
0.125
  1
2
 50
90.0
  0
TEXT
  5
241C0
  8
0
 62
     0
 10
-363.14629495961572
 20
426.56951038757558
 30
0.0
 40
0.125
  1
"
 50
90.0
  0
ENDBLK
  5
241C2
  8
0
  0
BLOCK
  8
0
  2
*U250
 70
     1
 10
0.0
 20
0.0
 30
0.0
  3
*U250
  1

  0
TEXT
  5
241C4
  8
0
 62
     0
 10
-387.96524739614358
 20
838.7451809866343
 30
0.0
 40
0.125
  1
1
 50
90.0
  0
TEXT
  5
241C5
  8
0
 62
     0
 10
-388.0485807294769
 20
838.82851431996767
 30
0.0
 40
0.125
  1
3
 50
90.0
  0
LINE
  5
241C6
  8
0
 62
     0
 10
-388.02774739614358
 20
838.82851431996767
 30
0.0
 11
-388.02774739614358
 21
838.91184765330104
 31
0.0
  0
TEXT
  5
241C7
  8
0
 62
     0
 10
-387.88191406281032
 20
838.82851431996767
 30
0.0
 40
0.125
  1
4
 50
90.0
  0
TEXT
  5
241C8
  8
0
 62
     0
 10
-387.96524739614358
 20
838.95351431996755
 30
0.0
 40
0.125
  1
"
 50
90.0
  0
ENDBLK
  5
241CA
  8
0
  0
BLOCK
  8
0
  2
*U251
 70
     1
 10
0.0
 20
0.0
 30
0.0
  3
*U251
  1

  0
TEXT
  5
241CC
  8
0
 62
     0
 10
-385.13236667098761
 20
837.67914254862364
 30
0.0
 40
0.125
  1
7
  0
LINE
  5
241CD
  8
0
 62
     0
 10
-385.13236667098761
 20
837.65830921529016
 30
0.0
 11
-385.04903333765429
 21
837.65830921529016
 31
0.0
  0
TEXT
  5
241CE
  8
0
 62
     0
 10
-385.13236667098761
 20
837.51247588195702
 30
0.0
 40
0.125
  1
8
  0
TEXT
  5
241CF
  8
0
 62
     0
 10
-385.00736667098761
 20
837.59580921529039
 30
0.0
 40
0.125
  1
"
  0
ENDBLK
  5
241D1
  8
0
  0
BLOCK
  8
0
  2
*U252
 70
     1
 10
0.0
 20
0.0
 30
0.0
  3
*U252
  1

  0
TEXT
  5
241D3
  8
0
 62
     0
 10
-384.08814198077528
 20
838.75205945756488
 30
0.0
 40
0.125
  1
1
 50
90.0
  0
TEXT
  5
241D4
  8
0
 62
     0
 10
-384.1714753141087
 20
838.85622612423163
 30
0.0
 40
0.125
  1
1
 50
90.0
  0
LINE
  5
241D5
  8
0
 62
     0
 10
-384.15064198077539
 20
838.83539279089825
 30
0.0
 11
-384.15064198077539
 21
838.91872612423185
 31
0.0
  0
TEXT
  5
241D6
  8
0
 62
     0
 10
-384.00480864744202
 20
838.83539279089825
 30
0.0
 40
0.125
  1
2
 50
90.0
  0
TEXT
  5
241D7
  8
0
 62
     0
 10
-384.08814198077528
 20
838.96039279089837
 30
0.0
 40
0.125
  1
"
 50
90.0
  0
ENDBLK
  5
241D9
  8
0
  0
BLOCK
  8
0
  2
*U253
 70
     1
 10
0.0
 20
0.0
 30
0.0
  3
*U253
  1

  0
TEXT
  5
241DB
  8
0
 62
     0
 10
-323.13119819751643
 20
425.11559169813461
 30
0.0
 40
0.125
  1
1
 50
90.0
  0
TEXT
  5
241DC
  8
0
 62
     0
 10
-323.2145315308498
 20
425.19892503146798
 30
0.0
 40
0.125
  1
3
 50
90.0
  0
LINE
  5
241DD
  8
0
 62
     0
 10
-323.19369819751643
 20
425.19892503146798
 30
0.0
 11
-323.19369819751643
 21
425.28225836480118
 31
0.0
  0
TEXT
  5
241DE
  8
0
 62
     0
 10
-323.04786486418311
 20
425.19892503146798
 30
0.0
 40
0.125
  1
4
 50
90.0
  0
TEXT
  5
241DF
  8
0
 62
     0
 10
-323.13119819751643
 20
425.32392503146792
 30
0.0
 40
0.125
  1
"
 50
90.0
  0
ENDBLK
  5
241E1
  8
0
  0
BLOCK
  8
0
  2
*U254
 70
     1
 10
0.0
 20
0.0
 30
0.0
  3
*U254
  1

  0
TEXT
  5
241E3
  8
0
 62
     0
 10
-318.6214997668344
 20
425.11559169813461
 30
0.0
 40
0.125
  1
1
 50
90.0
  0
TEXT
  5
241E4
  8
0
 62
     0
 10
-318.70483310016772
 20
425.19892503146798
 30
0.0
 40
0.125
  1
3
 50
90.0
  0
LINE
  5
241E5
  8
0
 62
     0
 10
-318.6839997668344
 20
425.19892503146798
 30
0.0
 11
-318.6839997668344
 21
425.28225836480118
 31
0.0
  0
TEXT
  5
241E6
  8
0
 62
     0
 10
-318.53816643350109
 20
425.19892503146798
 30
0.0
 40
0.125
  1
8
 50
90.0
  0
TEXT
  5
241E7
  8
0
 62
     0
 10
-318.6214997668344
 20
425.32392503146792
 30
0.0
 40
0.125
  1
"
 50
90.0
  0
ENDBLK
  5
241E9
  8
0
  0
BLOCK
  8
0
  2
*U255
 70
     1
 10
0.0
 20
0.0
 30
0.0
  3
*U255
  1

  0
TEXT
  5
241EB
  8
0
 62
     0
 10
-387.56461450221548
 20
838.89288512488679
 30
0.0
 40
0.125
  1
1
 50
90.0
  0
TEXT
  5
241EC
  8
0
 62
     0
 10
-387.64794783554891
 20
838.97621845822005
 30
0.0
 40
0.125
  1
3
 50
90.0
  0
LINE
  5
241ED
  8
0
 62
     0
 10
-387.62711450221559
 20
838.97621845822005
 30
0.0
 11
-387.62711450221559
 21
839.05955179155353
 31
0.0
  0
TEXT
  5
241EE
  8
0
 62
     0
 10
-387.48128116888222
 20
838.97621845822005
 30
0.0
 40
0.125
  1
4
 50
90.0
  0
TEXT
  5
241EF
  8
0
 62
     0
 10
-387.56461450221548
 20
839.10121845822005
 30
0.0
 40
0.125
  1
"
 50
90.0
  0
ENDBLK
  5
241F1
  8
0
  0
BLOCK
  8
0
  2
*U256
 70
     1
 10
0.0
 20
0.0
 30
0.0
  3
*U256
  1

  0
TEXT
  5
241F3
  8
0
 62
     0
 10
-383.05359444806828
 20
838.89288512488679
 30
0.0
 40
0.125
  1
1
 50
90.0
  0
TEXT
  5
241F4
  8
0
 62
     0
 10
-383.13692778140171
 20
838.97621845822005
 30
0.0
 40
0.125
  1
3
 50
90.0
  0
LINE
  5
241F5
  8
0
 62
     0
 10
-383.1160944480684
 20
838.97621845822005
 30
0.0
 11
-383.1160944480684
 21
839.05955179155353
 31
0.0
  0
TEXT
  5
241F6
  8
0
 62
     0
 10
-382.97026111473502
 20
838.97621845822005
 30
0.0
 40
0.125
  1
8
 50
90.0
  0
TEXT
  5
241F7
  8
0
 62
     0
 10
-383.05359444806828
 20
839.10121845822005
 30
0.0
 40
0.125
  1
"
 50
90.0
  0
ENDBLK
  5
241F9
  8
0
  0
BLOCK
  8
0
  2
*U257
 70
     1
 10
0.0
 20
0.0
 30
0.0
  3
*U257
  1

  0
TEXT
  5
241FB
  8
0
 10
1.872123119890716
 20
0.7588046473348414
 30
0.0
 40
0.125
  1
Nosing & Cove
  0
TEXT
  5
241FC
  8
0
 10
1.872123119890716
 20
0.5504713140015081
 30
0.0
 40
0.125
  1
TL-20
  0
TEXT
  5
241FD
  8
0
 10
1.872123119890716
 20
0.3421379806681747
 30
0.0
 40
0.125
  1
3/4" x 1-5/16"
  0
TEXT
  5
241FE
  8
0
 10
1.872123119890716
 20
0.1338046473348413
 30
0.0
 40
0.125
  1
800.66.TAGUE
  0
ENDBLK
  5
24200
  8
0
  0
BLOCK
  8
0
  2
*U258
 70
     1
 10
0.0
 20
0.0
 30
0.0
  3
*U258
  1

  0
TEXT
  5
24202
  8
0
 10
1.914126813415123
 20
0.8585704022782466
 30
0.0
 40
0.125
  1
Nosing & Cove
  0
TEXT
  5
24203
  8
0
 10
1.914126813415123
 20
0.6502370689449134
 30
0.0
 40
0.125
  1
TL-21
  0
TEXT
  5
24204
  8
0
 10
1.914126813415123
 20
0.44190373561158
 30
0.0
 40
0.125
  1
1-1/8" x 1-3/4"
  0
TEXT
  5
24205
  8
0
 10
1.914126813415123
 20
0.2335704022782465
 30
0.0
 40
0.125
  1
800.66.TAGUE
  0
ENDBLK
  5
24207
  8
0
  0
BLOCK
  8
0
  2
*U259
 70
     1
 10
0.0
 20
0.0
 30
0.0
  3
*U259
  1

  0
TEXT
  5
24209
  8
0
 10
2.1633643582791811
 20
1.2559710060997979
 30
0.0
 40
0.125
  1
Nosing & Cove
  0
TEXT
  5
2420A
  8
0
 10
2.1633643582791811
 20
1.0476376727664649
 30
0.0
 40
0.125
  1
TL-22
  0
TEXT
  5
2420B
  8
0
 10
2.1633643582791811
 20
0.839304339433132
 30
0.0
 40
0.125
  1
1-5/16" x 2-1/4"
  0
TEXT
  5
2420C
  8
0
 10
2.1633643582791811
 20
0.6309710060997987
 30
0.0
 40
0.125
  1
800.66.TAGUE
  0
ENDBLK
  5
2420E
  8
0
  0
BLOCK
  8
0
  2
*U260
 70
     1
 10
0.0
 20
0.0
 30
0.0
  3
*U260
  1

  0
TEXT
  5
24210
  8
0
 10
1.1386258441601731
 20
1.192489029325315
 30
0.0
 40
0.125
  1
Nosing & Cove
  0
TEXT
  5
24211
  8
0
 10
1.1386258441601731
 20
0.9841556959919824
 30
0.0
 40
0.125
  1
TL-2256
  0
TEXT
  5
24212
  8
0
 10
1.1386258441601731
 20
0.7758223626586491
 30
0.0
 40
0.125
  1
5/8" x 1-1/2"
  0
TEXT
  5
24213
  8
0
 10
1.1386258441601731
 20
0.5674890293253158
 30
0.0
 40
0.125
  1
800.66.TAGUE
  0
ENDBLK
  5
24215
  8
0
  0
BLOCK
  8
0
  2
*U261
 70
     1
 10
0.0
 20
0.0
 30
0.0
  3
*U261
  1

  0
TEXT
  5
24217
  8
0
 10
0.8465252202594228
 20
0.679429976342135
 30
0.0
 40
0.125
  1
Nosing & Cove
  0
TEXT
  5
24218
  8
0
 10
0.8465252202594228
 20
0.4710966430088017
 30
0.0
 40
0.125
  1
TL-2257
  0
TEXT
  5
24219
  8
0
 10
0.8465252202594228
 20
0.2627633096754684
 30
0.0
 40
0.125
  1
5/16" x 1/2"
  0
TEXT
  5
2421A
  8
0
 10
0.8465252202594228
 20
0.054429976342135
 30
0.0
 40
0.125
  1
800.66.TAGUE
  0
ENDBLK
  5
2421C
  8
0
  0
BLOCK
  8
0
  2
*U262
 70
     1
 10
0.0
 20
0.0
 30
0.0
  3
*U262
  1

  0
TEXT
  5
2421E
  8
0
 10
2.3806405474079488
 20
1.3133539302667709
 30
0.0
 40
0.125
  1
Ogee
  0
TEXT
  5
2421F
  8
0
 10
2.3806405474079488
 20
1.1050205969334379
 30
0.0
 40
0.125
  1
TL-16
  0
TEXT
  5
24220
  8
0
 10
2.3806405474079488
 20
0.8966872636001046
 30
0.0
 40
0.125
  1
1-3/8" x 2"
  0
TEXT
  5
24221
  8
0
 10
2.3806405474079488
 20
0.6883539302667714
 30
0.0
 40
0.125
  1
800.66.TAGUE
  0
ENDBLK
  5
24223
  8
0
  0
BLOCK
  8
0
  2
*U263
 70
     1
 10
0.0
 20
0.0
 30
0.0
  3
*U263
  1

  0
TEXT
  5
24236
  8
0
 10
2.7261344289668719
 20
1.6601320963039821
 30
0.0
 40
0.125
  1
Ogee
  0
TEXT
  5
24237
  8
0
 10
2.7261344289668719
 20
1.451798762970649
 30
0.0
 40
0.125
  1
TL-17
  0
TEXT
  5
24238
  8
0
 10
2.7261344289668719
 20
1.2434654296373151
 30
0.0
 40
0.125
  1
2-5/16" x 1-7/8"
  0
TEXT
  5
24239
  8
0
 10
2.7261344289668719
 20
1.0351320963039821
 30
0.0
 40
0.125
  1
800.66.TAGUE
  0
ENDBLK
  5
2423B
  8
0
  0
BLOCK
  8
0
  2
*U264
 70
     1
 10
0.0
 20
0.0
 30
0.0
  3
*U264
  1

  0
TEXT
  5
2423D
  8
0
 10
1.8303727118446309
 20
0.9120296408366357
 30
0.0
 40
0.125
  1
Ogee
  0
TEXT
  5
2423E
  8
0
 10
1.8303727118446309
 20
0.7036963075033026
 30
0.0
 40
0.125
  1
TL-166
  0
TEXT
  5
2423F
  8
0
 10
1.8303727118446309
 20
0.4953629741699692
 30
0.0
 40
0.125
  1
11/16" x 1-1/4"
  0
TEXT
  5
24240
  8
0
 10
1.8303727118446309
 20
0.2870296408366357
 30
0.0
 40
0.125
  1
800.66.TAGUE
  0
ENDBLK
  5
24242
  8
0
  0
BLOCK
  8
0
  2
*U265
 70
     1
 10
0.0
 20
0.0
 30
0.0
  3
*U265
  1

  0
TEXT
  5
24244
  8
0
 10
1.573032674973148
 20
0.835411988577448
 30
0.0
 40
0.125
  1
Ogee
  0
TEXT
  5
24245
  8
0
 10
1.573032674973148
 20
0.6270786552441149
 30
0.0
 40
0.125
  1
TL-167
  0
TEXT
  5
24246
  8
0
 10
1.573032674973148
 20
0.4187453219107815
 30
0.0
 40
0.125
  1
11/16" x 7/8"
  0
TEXT
  5
24247
  8
0
 10
1.573032674973148
 20
0.210411988577448
 30
0.0
 40
0.125
  1
800.66.TAGUE
  0
ENDBLK
  5
24249
  8
0
  0
BLOCK
  8
0
  2
*U266
 70
     1
 10
0.0
 20
0.0
 30
0.0
  3
*U266
  1

  0
TEXT
  5
2424B
  8
0
 10
1.814825501310565
 20
1.0878383681827011
 30
0.0
 40
0.125
  1
Ogee Moulding
  0
TEXT
  5
2424C
  8
0
 10
1.814825501310565
 20
0.8795050348493685
 30
0.0
 40
0.125
  1
TL-2240
  0
TEXT
  5
2424D
  8
0
 10
1.814825501310565
 20
0.6711717015160352
 30
0.0
 40
0.125
  1
25/32" x 13/16"
  0
TEXT
  5
2424E
  8
0
 10
1.814825501310565
 20
0.4628383681827018
 30
0.0
 40
0.125
  1
800.66.TAGUE
  0
ENDBLK
  5
24250
  8
0
  0
BLOCK
  8
0
  2
*U267
 70
     1
 10
0.0
 20
0.0
 30
0.0
  3
*U267
  1

  0
TEXT
  5
24252
  8
0
 10
2.966704883543116
 20
1.2733224952305591
 30
0.0
 40
0.125
  1
Ogee Moulding
  0
TEXT
  5
24253
  8
0
 10
2.966704883543116
 20
1.0649891618972249
 30
0.0
 40
0.125
  1
TL-2255
  0
TEXT
  5
24254
  8
0
 10
2.966704883543116
 20
0.8566558285638924
 30
0.0
 40
0.125
  1
1-1/2" x 2-1/8"
  0
TEXT
  5
24255
  8
0
 10
2.966704883543116
 20
0.6483224952305591
 30
0.0
 40
0.125
  1
800.66.TAGUE
  0
ENDBLK
  5
24257
  8
0
  0
BLOCK
  8
0
  2
*U268
 70
     1
 10
0.0
 20
0.0
 30
0.0
  3
*U268
  1

  0
TEXT
  5
24259
  8
0
 10
1.767740232165522
 20
0.6795164786933583
 30
0.0
 40
0.125
  1
Ogee
  0
TEXT
  5
2425A
  8
0
 10
1.767740232165522
 20
0.471183145360025
 30
0.0
 40
0.125
  1
TL-2280
  0
TEXT
  5
2425B
  8
0
 10
1.767740232165522
 20
0.2628498120266917
 30
0.0
 40
0.125
  1
1/2"  x 5/8"
  0
TEXT
  5
2425C
  8
0
 10
1.767740232165522
 20
0.0545164786933583
 30
0.0
 40
0.125
  1
800.66.TAGUE
  0
ENDBLK
  5
2425E
  8
0
  0
BLOCK
  8
0
  2
*U269
 70
     1
 10
0.0
 20
0.0
 30
0.0
  3
*U269
  1

  0
TEXT
  5
24260
  8
0
 10
2.5765420776576198
 20
0.9513347006069352
 30
0.0
 40
0.125
  1
Ogee
  0
TEXT
  5
24261
  8
0
 10
2.5765420776576198
 20
0.7430013672736021
 30
0.0
 40
0.125
  1
TL-2326
  0
TEXT
  5
24262
  8
0
 10
2.5765420776576198
 20
0.5346680339402687
 30
0.0
 40
0.125
  1
1-3/4" x 1-13/32"
  0
TEXT
  5
24263
  8
0
 10
2.5765420776576198
 20
0.3263347006069353
 30
0.0
 40
0.125
  1
800.66.TAGUE
  0
ENDBLK
  5
24265
  8
0
  0
BLOCK
  8
0
  2
*U270
 70
     1
 10
0.0
 20
0.0
 30
0.0
  3
*U270
  1

  0
TEXT
  5
24267
  8
0
 10
1.8232672208571321
 20
1.0097170300313101
 30
0.0
 40
0.125
  1
Panel Moulding
  0
TEXT
  5
24268
  8
0
 10
1.8232672208571321
 20
0.8013836966979775
 30
0.0
 40
0.125
  1
TL-54
  0
TEXT
  5
24269
  8
0
 10
1.8232672208571321
 20
0.5930503633646445
 30
0.0
 40
0.125
  1
5/8" x 1-3/8"
  0
TEXT
  5
2426A
  8
0
 10
1.8232672208571321
 20
0.384717030031311
 30
0.0
 40
0.125
  1
800.66.TAGUE
  0
ENDBLK
  5
2426C
  8
0
  0
BLOCK
  8
0
  2
*U271
 70
     1
 10
0.0
 20
0.0
 30
0.0
  3
*U271
  1

  0
TEXT
  5
2426E
  8
0
 10
1.6082414945508381
 20
0.8848429445537249
 30
0.0
 40
0.125
  1
Panel Moulding
  0
TEXT
  5
2426F
  8
0
 10
1.6082414945508381
 20
0.6765096112203916
 30
0.0
 40
0.125
  1
TL-56
  0
TEXT
  5
24270
  8
0
 10
1.6082414945508381
 20
0.4681762778870584
 30
0.0
 40
0.125
  1
3/4" x 1-1/2"
  0
TEXT
  5
24271
  8
0
 10
1.6082414945508381
 20
0.2598429445537249
 30
0.0
 40
0.125
  1
800.66.TAGUE
  0
ENDBLK
  5
24273
  8
0
  0
BLOCK
  8
0
  2
*U272
 70
     1
 10
0.0
 20
0.0
 30
0.0
  3
*U272
  1

  0
TEXT
  5
24275
  8
0
 10
1.430001145945198
 20
1.055442987142782
 30
0.0
 40
0.125
  1
Panel Moulding
  0
TEXT
  5
24276
  8
0
 10
1.430001145945198
 20
0.8471096538094494
 30
0.0
 40
0.125
  1
TL-57
  0
TEXT
  5
24277
  8
0
 10
1.430001145945198
 20
0.6387763204761163
 30
0.0
 40
0.125
  1
9/16" x 1-15/16"
  0
TEXT
  5
24278
  8
0
 10
1.430001145945198
 20
0.4304429871427829
 30
0.0
 40
0.125
  1
800.66.TAGUE
  0
ENDBLK
  5
2427A
  8
0
  0
BLOCK
  8
0
  2
*U273
 70
     1
 10
0.0
 20
0.0
 30
0.0
  3
*U273
  1

  0
TEXT
  5
2427C
  8
0
 10
1.681303805809534
 20
1.2026941795735411
 30
0.0
 40
0.125
  1
Panel Moulding
  0
TEXT
  5
2427D
  8
0
 10
1.681303805809534
 20
0.9943608462402076
 30
0.0
 40
0.125
  1
TL-62
  0
TEXT
  5
2427E
  8
0
 10
1.681303805809534
 20
0.7860275129068745
 30
0.0
 40
0.125
  1
1" x 1-3/4"
  0
TEXT
  5
2427F
  8
0
 10
1.681303805809534
 20
0.5776941795735411
 30
0.0
 40
0.125
  1
800.66.TAGUE
  0
ENDBLK
  5
24281
  8
0
  0
BLOCK
  8
0
  2
*U274
 70
     1
 10
0.0
 20
0.0
 30
0.0
  3
*U274
  1

  0
TEXT
  5
24283
  8
0
 10
2.133056331073703
 20
1.437235578786044
 30
0.0
 40
0.125
  1
Panel Moulding
  0
TEXT
  5
24284
  8
0
 10
2.133056331073703
 20
1.2289022454527101
 30
0.0
 40
0.125
  1
TL-64
  0
TEXT
  5
24285
  8
0
 10
2.133056331073703
 20
1.0205689121193771
 30
0.0
 40
0.125
  1
1-1/4" x 1-15/16"
  0
TEXT
  5
24286
  8
0
 10
2.133056331073703
 20
0.8122355787860442
 30
0.0
 40
0.125
  1
800.66.TAGUE
  0
ENDBLK
  5
24288
  8
0
  0
BLOCK
  8
0
  2
*U275
 70
     1
 10
0.0
 20
0.0
 30
0.0
  3
*U275
  1

  0
TEXT
  5
2428A
  8
0
 10
1.6378445869512459
 20
1.1242484052883119
 30
0.0
 40
0.125
  1
Panel Moulding
  0
TEXT
  5
2428B
  8
0
 10
1.6378445869512459
 20
0.9159150719549795
 30
0.0
 40
0.125
  1
TL-314
  0
TEXT
  5
2428C
  8
0
 10
1.6378445869512459
 20
0.7075817386216463
 30
0.0
 40
0.125
  1
3/4" x 1-3/8"
  0
TEXT
  5
2428D
  8
0
 10
1.6378445869512459
 20
0.4992484052883129
 30
0.0
 40
0.125
  1
800.66.TAGUE
  0
ENDBLK
  5
2428F
  8
0
  0
BLOCK
  8
0
  2
*U276
 70
     1
 10
0.0
 20
0.0
 30
0.0
  3
*U276
  1

  0
TEXT
  5
24291
  8
0
 10
1.793042575215281
 20
1.3157146661659449
 30
0.0
 40
0.125
  1
Panel Moulding
  0
TEXT
  5
24292
  8
0
 10
1.793042575215281
 20
1.107381332832611
 30
0.0
 40
0.125
  1
TL-2032
  0
TEXT
  5
24293
  8
0
 10
1.793042575215281
 20
0.8990479994992785
 30
0.0
 40
0.125
  1
3/4" x 2"
  0
TEXT
  5
24294
  8
0
 10
1.793042575215281
 20
0.6907146661659454
 30
0.0
 40
0.125
  1
800.66.TAGUE
  0
ENDBLK
  5
24296
  8
0
  0
BLOCK
  8
0
  2
*U277
 70
     1
 10
0.0
 20
0.0
 30
0.0
  3
*U277
  1

  0
TEXT
  5
24298
  8
0
 10
1.8141185831191251
 20
0.8182814091084082
 30
0.0
 40
0.125
  1
Panel Moulding
  0
TEXT
  5
24299
  8
0
 10
1.8141185831191251
 20
0.6099480757750749
 30
0.0
 40
0.125
  1
TL-2016
  0
TEXT
  5
2429A
  8
0
 10
1.8141185831191251
 20
0.4016147424417417
 30
0.0
 40
0.125
  1
15/16" x 1-11/16"
  0
TEXT
  5
2429B
  8
0
 10
1.8141185831191251
 20
0.1932814091084083
 30
0.0
 40
0.125
  1
800.66.TAGUE
  0
ENDBLK
  5
2429D
  8
0
  0
BLOCK
  8
0
  2
*U278
 70
     1
 10
0.0
 20
0.0
 30
0.0
  3
*U278
  1

  0
TEXT
  5
2429F
  8
0
 10
1.6323248967152031
 20
0.9094451817165918
 30
0.0
 40
0.125
  1
Panel Moulding
  0
TEXT
  5
242A0
  8
0
 10
1.6323248967152031
 20
0.7011118483832585
 30
0.0
 40
0.125
  1
TL-2136
  0
TEXT
  5
242A1
  8
0
 10
1.6323248967152031
 20
0.4927785150499253
 30
0.0
 40
0.125
  1
21/32" x 1"
  0
TEXT
  5
242A2
  8
0
 10
1.6323248967152031
 20
0.2844451817165918
 30
0.0
 40
0.125
  1
800.66.TAGUE
  0
ENDBLK
  5
242A4
  8
0
  0
BLOCK
  8
0
  2
*U279
 70
     1
 10
0.0
 20
0.0
 30
0.0
  3
*U279
  1

  0
TEXT
  5
242A6
  8
0
 10
1.417623633629318
 20
0.9199699342109398
 30
0.0
 40
0.125
  1
Panel Moulding
  0
TEXT
  5
242A7
  8
0
 10
1.417623633629318
 20
0.7116366008776064
 30
0.0
 40
0.125
  1
TL-2198
  0
TEXT
  5
242A8
  8
0
 10
1.417623633629318
 20
0.5033032675442732
 30
0.0
 40
0.125
  1
3/8" x 15/16"
  0
TEXT
  5
242A9
  8
0
 10
1.417623633629318
 20
0.2949699342109397
 30
0.0
 40
0.125
  1
800.66.TAGUE
  0
ENDBLK
  5
242AB
  8
0
  0
BLOCK
  8
0
  2
*U280
 70
     1
 10
0.0
 20
0.0
 30
0.0
  3
*U280
  1

  0
TEXT
  5
242AD
  8
0
 10
1.152367654636123
 20
0.6934204479599658
 30
0.0
 40
0.125
  1
Panel Moulding
  0
TEXT
  5
242AE
  8
0
 10
1.152367654636123
 20
0.4850871146266324
 30
0.0
 40
0.125
  1
TL-2068
  0
TEXT
  5
242AF
  8
0
 10
1.152367654636123
 20
0.276753781293299
 30
0.0
 40
0.125
  1
3/8" x 3/4"
  0
TEXT
  5
242B0
  8
0
 10
1.152367654636123
 20
0.0684204479599657
 30
0.0
 40
0.125
  1
800.66.TAGUE
  0
ENDBLK
  5
242B2
  8
0
  0
BLOCK
  8
0
  2
*U281
 70
     1
 10
0.0
 20
0.0
 30
0.0
  3
*U281
  1

  0
TEXT
  5
242B4
  8
0
 10
1.6525119768826919
 20
0.6772984067825975
 30
0.0
 40
0.125
  1
Panel Moulding
  0
TEXT
  5
242B5
  8
0
 10
1.6525119768826919
 20
0.468965073449264
 30
0.0
 40
0.125
  1
TL-2074
  0
TEXT
  5
242B6
  8
0
 10
1.6525119768826919
 20
0.2606317401159307
 30
0.0
 40
0.125
  1
1/2" x 17/32"
  0
TEXT
  5
242B7
  8
0
 10
1.6525119768826919
 20
0.0522984067825974
 30
0.0
 40
0.125
  1
800.66.TAGUE
  0
ENDBLK
  5
242B9
  8
0
  0
BLOCK
  8
0
  2
*U282
 70
     1
 10
0.0
 20
0.0
 30
0.0
  3
*U282
  1

  0
TEXT
  5
242BB
  8
0
 10
1.2174996695814571
 20
0.677298529590189
 30
0.0
 40
0.125
  1
Panel Moulding
  0
TEXT
  5
242BC
  8
0
 10
1.2174996695814571
 20
0.4689651962568556
 30
0.0
 40
0.125
  1
TL-2178
  0
TEXT
  5
242BD
  8
0
 10
1.2174996695814571
 20
0.2606318629235224
 30
0.0
 40
0.125
  1
5/16" x 11/16"
  0
TEXT
  5
242BE
  8
0
 10
1.2174996695814571
 20
0.052298529590189
 30
0.0
 40
0.125
  1
800.66.TAGUE
  0
ENDBLK
  5
242C0
  8
0
  0
BLOCK
  8
0
  2
*U283
 70
     1
 10
0.0
 20
0.0
 30
0.0
  3
*U283
  1

  0
TEXT
  5
242C2
  8
0
 10
1.621705506624266
 20
1.0164844833981299
 30
0.0
 40
0.125
  1
Panel Moulding
  0
TEXT
  5
242C3
  8
0
 10
1.621705506624266
 20
0.8081511500647971
 30
0.0
 40
0.125
  1
TL-2237
  0
TEXT
  5
242C4
  8
0
 10
1.621705506624266
 20
0.599817816731464
 30
0.0
 40
0.125
  1
3/4" x 1-1/2"
  0
TEXT
  5
242C5
  8
0
 10
1.621705506624266
 20
0.3914844833981306
 30
0.0
 40
0.125
  1
800.66.TAGUE
  0
ENDBLK
  5
242C7
  8
0
  0
BLOCK
  8
0
  2
*U284
 70
     1
 10
0.0
 20
0.0
 30
0.0
  3
*U284
  1

  0
TEXT
  5
242C9
  8
0
 10
2.0683925889327379
 20
1.262249770558469
 30
0.0
 40
0.125
  1
Panel Moulding
  0
TEXT
  5
242CA
  8
0
 10
2.0683925889327379
 20
1.0539164372251351
 30
0.0
 40
0.125
  1
TL-2239
  0
TEXT
  5
242CB
  8
0
 10
2.0683925889327379
 20
0.8455831038918026
 30
0.0
 40
0.125
  1
27/32" x 1-7/8"
  0
TEXT
  5
242CC
  8
0
 10
2.0683925889327379
 20
0.6372497705584692
 30
0.0
 40
0.125
  1
800.66.TAGUE
  0
ENDBLK
  5
242CE
  8
0
  0
BLOCK
  8
0
  2
*U285
 70
     1
 10
0.0
 20
0.0
 30
0.0
  3
*U285
  1

  0
TEXT
  5
242D0
  8
0
 10
2.746924783524491
 20
2.4371414641403808
 30
0.0
 40
0.125
  1
Panel Moulding
  0
TEXT
  5
242D1
  8
0
 10
2.746924783524491
 20
2.2288081308070482
 30
0.0
 40
0.125
  1
TL-2241
  0
TEXT
  5
242D2
  8
0
 10
2.746924783524491
 20
2.0204747974737152
 30
0.0
 40
0.125
  1
1-5/32" x 3-9/16"
  0
TEXT
  5
242D3
  8
0
 10
2.746924783524491
 20
1.812141464140381
 30
0.0
 40
0.125
  1
800.66.TAGUE
  0
ENDBLK
  5
242D5
  8
0
  0
BLOCK
  8
0
  2
*U286
 70
     1
 10
0.0
 20
0.0
 30
0.0
  3
*U286
  1

  0
TEXT
  5
242D7
  8
0
 10
1.48967271797386
 20
1.0711974611003821
 30
0.0
 40
0.125
  1
Panel Moulding
  0
TEXT
  5
242D8
  8
0
 10
1.48967271797386
 20
0.8628641277670491
 30
0.0
 40
0.125
  1
TL-2248
  0
TEXT
  5
242D9
  8
0
 10
1.48967271797386
 20
0.6545307944337159
 30
0.0
 40
0.125
  1
7/8" x 1-7/8"
  0
TEXT
  5
242DA
  8
0
 10
1.48967271797386
 20
0.4461974611003825
 30
0.0
 40
0.125
  1
800.66.TAGUE
  0
ENDBLK
  5
242DC
  8
0
  0
BLOCK
  8
0
  2
*U287
 70
     1
 10
0.0
 20
0.0
 30
0.0
  3
*U287
  1

  0
TEXT
  5
242DE
  8
0
 10
1.3774554366254961
 20
1.0325907140347681
 30
0.0
 40
0.125
  1
Panel Moulding
  0
TEXT
  5
242DF
  8
0
 10
1.3774554366254961
 20
0.8242573807014347
 30
0.0
 40
0.125
  1
TL-2259
  0
TEXT
  5
242E0
  8
0
 10
1.3774554366254961
 20
0.6159240473681015
 30
0.0
 40
0.125
  1
1/2" x 1-3/16"
  0
TEXT
  5
242E1
  8
0
 10
1.3774554366254961
 20
0.4075907140347681
 30
0.0
 40
0.125
  1
800.66.TAGUE
  0
ENDBLK
  5
242E3
  8
0
  0
BLOCK
  8
0
  2
*U288
 70
     1
 10
0.0
 20
0.0
 30
0.0
  3
*U288
  1

  0
TEXT
  5
242E5
  8
0
 10
1.4427956644998969
 20
1.4622105465398361
 30
0.0
 40
0.125
  1
Panel Moulding
  0
TEXT
  5
242E6
  8
0
 10
1.4427956644998969
 20
1.2538772132065019
 30
0.0
 40
0.125
  1
TL-2260
  0
TEXT
  5
242E7
  8
0
 10
1.4427956644998969
 20
1.0455438798731691
 30
0.0
 40
0.125
  1
1/2" x 1-13/16"
  0
TEXT
  5
242E8
  8
0
 10
1.4427956644998969
 20
0.8372105465398362
 30
0.0
 40
0.125
  1
800.66.TAGUE
  0
ENDBLK
  5
242EA
  8
0
  0
BLOCK
  8
0
  2
*U289
 70
     1
 10
0.0
 20
0.0
 30
0.0
  3
*U289
  1

  0
TEXT
  5
242EC
  8
0
 10
2.4257777135581469
 20
1.4688991231314501
 30
0.0
 40
0.125
  1
Panel Moulding
  0
TEXT
  5
242ED
  8
0
 10
2.4257777135581469
 20
1.260565789798116
 30
0.0
 40
0.125
  1
TL-2261
  0
TEXT
  5
242EE
  8
0
 10
2.4257777135581469
 20
1.0522324564647829
 30
0.0
 40
0.125
  1
13/16" x 2"
  0
TEXT
  5
242EF
  8
0
 10
2.4257777135581469
 20
0.8438991231314503
 30
0.0
 40
0.125
  1
800.66.TAGUE
  0
ENDBLK
  5
242F1
  8
0
  0
BLOCK
  8
0
  2
*U290
 70
     1
 10
0.0
 20
0.0
 30
0.0
  3
*U290
  1

  0
TEXT
  5
242F3
  8
0
 10
2.5069500958813928
 20
0.7911043912140486
 30
0.0
 40
0.125
  1
Panel Moulding
  0
TEXT
  5
242F4
  8
0
 10
2.5069500958813928
 20
0.5827710578807152
 30
0.0
 40
0.125
  1
TL-2270
  0
TEXT
  5
242F5
  8
0
 10
2.5069500958813928
 20
0.3744377245473819
 30
0.0
 40
0.125
  1
11/16" x 15/16"
  0
TEXT
  5
242F6
  8
0
 10
2.5069500958813928
 20
0.1661043912140485
 30
0.0
 40
0.125
  1
800.66.TAGUE
  0
ENDBLK
  5
242F8
  8
0
  0
BLOCK
  8
0
  2
*U291
 70
     1
 10
0.0
 20
0.0
 30
0.0
  3
*U291
  1

  0
TEXT
  5
242FA
  8
0
 62
     0
 10
-266.30534787530831
 20
273.59262856062833
 30
0.0
 40
0.125
  1
1
 50
90.0
  0
TEXT
  5
242FB
  8
0
 62
     0
 10
-266.38868120864157
 20
273.71762856062833
 30
0.0
 40
0.125
  1
5
 50
90.0
  0
LINE
  5
242FC
  8
0
 62
     0
 10
-266.36784787530831
 20
273.6759618939617
 30
0.0
 11
-266.36784787530831
 21
273.84262856062833
 31
0.0
  0
TEXT
  5
242FD
  8
0
 62
     0
 10
-266.222014541975
 20
273.6759618939617
 30
0.0
 40
0.125
  1
16
 50
90.0
  0
TEXT
  5
242FE
  8
0
 62
     0
 10
-266.30534787530831
 20
273.88429522729501
 30
0.0
 40
0.125
  1
"
 50
90.0
  0
ENDBLK
  5
24300
  8
0
  0
BLOCK
  8
0
  2
*U292
 70
     1
 10
0.0
 20
0.0
 30
0.0
  3
*U292
  1

  0
TEXT
  5
24302
  8
0
 62
     0
 10
-265.70247366384262
 20
273.99008194853201
 30
0.0
 40
0.125
  1
11
  0
LINE
  5
24303
  8
0
 62
     0
 10
-265.74414033050931
 20
273.96924861519869
 30
0.0
 11
-265.535806997176
 21
273.96924861519869
 31
0.0
  0
TEXT
  5
24304
  8
0
 62
     0
 10
-265.74414033050931
 20
273.82341528186532
 30
0.0
 40
0.125
  1
32
  0
TEXT
  5
24305
  8
0
 62
     0
 10
-265.49414033050931
 20
273.90674861519869
 30
0.0
 40
0.125
  1
"
  0
ENDBLK
  5
24307
  8
0
  0
BLOCK
  8
0
  2
*U293
 70
     1
 10
0.0
 20
0.0
 30
0.0
  3
*U293
  1

  0
TEXT
  5
24309
  8
0
 10
0.909015082031658
 20
0.6872605440269127
 30
0.0
 40
0.125
  1
Panel Mldg
  0
TEXT
  5
2430A
  8
0
 10
0.909015082031658
 20
0.4789272106935793
 30
0.0
 40
0.125
  1
TL-2283
  0
TEXT
  5
2430B
  8
0
 10
0.909015082031658
 20
0.3080938773602461
 30
0.0
 40
0.0875
  1
13
  0
LINE
  5
2430C
  8
0
 10
0.9900771438509416
 20
0.2364180734849593
 30
0.0
 11
1.0904530202123739
 21
0.3797696812355328
 31
0.0
  0
TEXT
  5
2430D
  8
0
 10
1.0548484153649911
 20
0.1914272106935794
 30
0.0
 40
0.0875
  1
16
  0
TEXT
  5
2430E
  8
0
 10
1.2006817486983239
 20
0.220593877360246
 30
0.0
 40
0.125
  1
" x 1-
  0
TEXT
  5
2430F
  8
0
 10
1.8673484153649911
 20
0.3080938773602461
 30
0.0
 40
0.0875
  1
3
  0
LINE
  5
24310
  8
0
 10
1.8900771438509409
 20
0.2364180734849593
 30
0.0
 11
1.990453020212374
 21
0.3797696812355328
 31
0.0
  0
TEXT
  5
24311
  8
0
 10
1.954848415364991
 20
0.1914272106935794
 30
0.0
 40
0.0875
  1
4
  0
TEXT
  5
24312
  8
0
 10
2.0423484153649909
 20
0.220593877360246
 30
0.0
 40
0.125
  1
"
  0
TEXT
  5
24313
  8
0
 10
0.909015082031658
 20
0.0539272106935793
 30
0.0
 40
0.125
  1
800.66.TAGUE
  0
ENDBLK
  5
24315
  8
0
  0
BLOCK
  8
0
  2
*U294
 70
     1
 10
0.0
 20
0.0
 30
0.0
  3
*U294
  1

  0
TEXT
  5
24317
  8
0
 62
     0
 10
-388.10095765539421
 20
838.47949397127331
 30
0.0
 40
0.125
  1
1
 50
90.0
  0
TEXT
  5
24318
  8
0
 62
     0
 10
-388.18429098872758
 20
838.60449397127343
 30
0.0
 40
0.125
  1
5
 50
90.0
  0
LINE
  5
24319
  8
0
 62
     0
 10
-388.16345765539432
 20
838.5628273046068
 30
0.0
 11
-388.16345765539432
 21
838.72949397127343
 31
0.0
  0
TEXT
  5
2431A
  8
0
 62
     0
 10
-388.0176243220609
 20
838.5628273046068
 30
0.0
 40
0.125
  1
16
 50
90.0
  0
TEXT
  5
2431B
  8
0
 62
     0
 10
-388.10095765539421
 20
838.77116063794006
 30
0.0
 40
0.125
  1
"
 50
90.0
  0
ENDBLK
  5
2431D
  8
0
  0
BLOCK
  8
0
  2
*U295
 70
     1
 10
0.0
 20
0.0
 30
0.0
  3
*U295
  1

  0
TEXT
  5
2431F
  8
0
 62
     0
 10
-387.49961823246872
 20
838.8753273046068
 30
0.0
 40
0.125
  1
11
  0
LINE
  5
24320
  8
0
 62
     0
 10
-387.54128489913541
 20
838.85449397127331
 30
0.0
 11
-387.33295156580209
 21
838.85449397127331
 31
0.0
  0
TEXT
  5
24321
  8
0
 62
     0
 10
-387.54128489913541
 20
838.70866063794006
 30
0.0
 40
0.125
  1
32
  0
TEXT
  5
24322
  8
0
 62
     0
 10
-387.29128489913541
 20
838.79199397127366
 30
0.0
 40
0.125
  1
"
  0
ENDBLK
  5
24324
  8
0
  0
BLOCK
  8
0
  2
*U296
 70
     1
 10
0.0
 20
0.0
 30
0.0
  3
*U296
  1

  0
TEXT
  5
24326
  8
0
 10
2.6345862085493641
 20
1.498411677627927
 30
0.0
 40
0.125
  1
Panel Moulding
  0
TEXT
  5
24327
  8
0
 10
2.6345862085493641
 20
1.290078344294594
 30
0.0
 40
0.125
  1
TL-2304
  0
TEXT
  5
24328
  8
0
 10
2.6345862085493641
 20
1.081745010961261
 30
0.0
 40
0.125
  1
1-3/8" x 2"
  0
TEXT
  5
24329
  8
0
 10
2.6345862085493641
 20
0.8734116776279279
 30
0.0
 40
0.125
  1
800.66.TAGUE
  0
ENDBLK
  5
2432B
  8
0
  0
BLOCK
  8
0
  2
*U297
 70
     1
 10
0.0
 20
0.0
 30
0.0
  3
*U297
  1

  0
TEXT
  5
2432D
  8
0
 10
2.0187131816974211
 20
1.20118096128408
 30
0.0
 40
0.125
  1
Picture Moulding
  0
TEXT
  5
2432E
  8
0
 10
2.0187131816974211
 20
0.9928476279507473
 30
0.0
 40
0.125
  1
TL-276
  0
TEXT
  5
2432F
  8
0
 10
2.0187131816974211
 20
0.7845142946174141
 30
0.0
 40
0.125
  1
3/4" x 1-3/4"
  0
TEXT
  5
24330
  8
0
 10
2.0187131816974211
 20
0.5761809612840807
 30
0.0
 40
0.125
  1
800.66.TAGUE
  0
ENDBLK
  5
24332
  8
0
  0
BLOCK
  8
0
  2
*U298
 70
     1
 10
0.0
 20
0.0
 30
0.0
  3
*U298
  1

  0
TEXT
  5
24334
  8
0
 10
1.49770647708442
 20
1.222690512861845
 30
0.0
 40
0.125
  1
Picture Moulding
  0
TEXT
  5
24335
  8
0
 10
1.49770647708442
 20
1.014357179528512
 30
0.0
 40
0.125
  1
TL-277
  0
TEXT
  5
24336
  8
0
 10
1.49770647708442
 20
0.8060238461951788
 30
0.0
 40
0.125
  1
3/4" x 1-3/4"
  0
TEXT
  5
24337
  8
0
 10
1.49770647708442
 20
0.5976905128618455
 30
0.0
 40
0.125
  1
800.66.TAGUE
  0
ENDBLK
  5
24339
  8
0
  0
BLOCK
  8
0
  2
*U299
 70
     1
 10
0.0
 20
0.0
 30
0.0
  3
*U299
  1

  0
TEXT
  5
2433B
  8
0
 10
1.606155954235418
 20
0.8433418361508984
 30
0.0
 40
0.125
  1
Picture Moulding
  0
TEXT
  5
2433C
  8
0
 10
1.606155954235418
 20
0.6350085028175651
 30
0.0
 40
0.125
  1
TL-2173
  0
TEXT
  5
2433D
  8
0
 10
1.606155954235418
 20
0.4266751694842318
 30
0.0
 40
0.125
  1
13/16" x 1-1/2"
  0
TEXT
  5
2433E
  8
0
 10
1.606155954235418
 20
0.2183418361508984
 30
0.0
 40
0.125
  1
800.66.TAGUE
  0
ENDBLK
  5
24340
  8
0
  0
BLOCK
  8
0
  2
*U300
 70
     1
 10
0.0
 20
0.0
 30
0.0
  3
*U300
  1

  0
TEXT
  5
24342
  8
0
 10
1.771900475170298
 20
1.126578925655167
 30
0.0
 40
0.125
  1
Plank Moulding
  0
TEXT
  5
24343
  8
0
 10
1.771900475170298
 20
0.9182455923218338
 30
0.0
 40
0.125
  1
TL-211
  0
TEXT
  5
24344
  8
0
 10
1.771900475170298
 20
0.7099122589885005
 30
0.0
 40
0.125
  1
11/16" x 1-9/16"
  0
TEXT
  5
24345
  8
0
 10
1.771900475170298
 20
0.5015789256551672
 30
0.0
 40
0.125
  1
800.66.TAGUE
  0
ENDBLK
  5
24347
  8
0
  0
BLOCK
  8
0
  2
*U301
 70
     1
 10
0.0
 20
0.0
 30
0.0
  3
*U301
  1

  0
TEXT
  5
24349
  8
0
 10
1.4505245364633761
 20
0.8622422781851356
 30
0.0
 40
0.125
  1
Plank Moulding
  0
TEXT
  5
2434A
  8
0
 10
1.4505245364633761
 20
0.6539089448518024
 30
0.0
 40
0.125
  1
TL-2286
  0
TEXT
  5
2434B
  8
0
 10
1.4505245364633761
 20
0.395575611518469
 30
0.0
 40
0.125
  1
1/2" x 1-
  0
TEXT
  5
2434C
  8
0
 10
2.4505245364633761
 20
0.483075611518469
 30
0.0
 40
0.0875
  1
1
  0
LINE
  5
2434D
  8
0
 10
2.4440865982826598
 20
0.4113998076431822
 30
0.0
 11
2.5444624746440931
 21
0.5547514153937558
 31
0.0
  0
TEXT
  5
2434E
  8
0
 10
2.5088578697967092
 20
0.3664089448518023
 30
0.0
 40
0.0875
  1
8
  0
TEXT
  5
2434F
  8
0
 10
2.5963578697967091
 20
0.395575611518469
 30
0.0
 40
0.125
  1
"
  0
TEXT
  5
24350
  8
0
 10
1.4505245364633761
 20
0.2289089448518022
 30
0.0
 40
0.125
  1
800.66.TAGUE
  0
ENDBLK
  5
24352
  8
0
  0
BLOCK
  8
0
  2
*U302
 70
     1
 10
0.0
 20
0.0
 30
0.0
  3
*U302
  1

  0
TEXT
  5
24354
  8
0
 10
2.1711370769962168
 20
0.7594393410427074
 30
0.0
 40
0.125
  1
Plank Moulding
  0
TEXT
  5
24355
  8
0
 10
2.1711370769962168
 20
0.5511060077093742
 30
0.0
 40
0.125
  1
TL-2291
  0
TEXT
  5
24356
  8
0
 10
2.1711370769962168
 20
0.2927726743760408
 30
0.0
 40
0.125
  1
1" x 1-
  0
TEXT
  5
24357
  8
0
 10
2.9211370769962168
 20
0.3802726743760409
 30
0.0
 40
0.0875
  1
1
  0
LINE
  5
24358
  8
0
 10
2.914699138815501
 20
0.3085968705007541
 30
0.0
 11
3.015075015176933
 21
0.4519484782513276
 31
0.0
  0
TEXT
  5
24359
  8
0
 10
2.97947041032955
 20
0.2636060077093742
 30
0.0
 40
0.0875
  1
4
  0
TEXT
  5
2435A
  8
0
 10
3.0669704103295499
 20
0.2927726743760408
 30
0.0
 40
0.125
  1
"
  0
TEXT
  5
2435B
  8
0
 10
2.1711370769962168
 20
0.1261060077093741
 30
0.0
 40
0.125
  1
800.66.TAGUE
  0
ENDBLK
  5
2435D
  8
0
  0
BLOCK
  8
0
  2
*U303
 70
     1
 10
0.0
 20
0.0
 30
0.0
  3
*U303
  1

  0
TEXT
  5
2435F
  8
0
 10
4.8409202131259121
 20
5.087561484758111
 30
0.0
 40
0.125
  1
Plinth Block
  0
TEXT
  5
24360
  8
0
 10
4.8409202131259121
 20
4.8792281514247779
 30
0.0
 40
0.125
  1
TL-720
  0
TEXT
  5
24361
  8
0
 10
4.8409202131259121
 20
4.670894818091444
 30
0.0
 40
0.125
  1
1" x 4" x Any Height
  0
TEXT
  5
24362
  8
0
 10
4.8409202131259121
 20
4.462561484758111
 30
0.0
 40
0.125
  1
For use w/ TL-332 & TL-361 
  0
TEXT
  5
24363
  8
0
 10
4.8409202131259121
 20
4.2542281514247779
 30
0.0
 40
0.125
  1
Casing
  0
TEXT
  5
24364
  8
0
 10
4.8409202131259121
 20
4.0458948180914449
 30
0.0
 40
0.125
  1
(1" x 3-3/4" x Any Height is 
  0
TEXT
  5
24365
  8
0
 10
4.8409202131259121
 20
3.837561484758111
 30
0.0
 40
0.125
  1
also available for use w/ 
  0
TEXT
  5
24366
  8
0
 10
4.8409202131259121
 20
3.6292281514247779
 30
0.0
 40
0.125
  1
TL-750 Casing)
  0
TEXT
  5
24367
  8
0
 10
4.8409202131259121
 20
3.420894818091444
 30
0.0
 40
0.125
  1
800.66.TAGUE
  0
ENDBLK
  5
24369
  8
0
  0
BLOCK
  8
0
  2
*U304
 70
     1
 10
0.0
 20
0.0
 30
0.0
  3
*U304
  1

  0
TEXT
  5
2436B
  8
0
 10
5.0851826815998598
 20
4.9480590124609298
 30
0.0
 40
0.125
  1
Plinth Block
  0
TEXT
  5
2436C
  8
0
 10
5.0851826815998598
 20
4.7397256791275968
 30
0.0
 40
0.125
  1
TL-722
  0
TEXT
  5
2436D
  8
0
 10
5.0851826815998598
 20
4.5313923457942629
 30
0.0
 40
0.125
  1
7/8" x 4" x Any Height
  0
TEXT
  5
2436E
  8
0
 10
5.0851826815998598
 20
4.3230590124609298
 30
0.0
 40
0.125
  1
For use w/ TL-332 & TL-361 
  0
TEXT
  5
2436F
  8
0
 10
5.0851826815998598
 20
4.1147256791275968
 30
0.0
 40
0.125
  1
Casing
  0
TEXT
  5
24370
  8
0
 10
5.0851826815998598
 20
3.9063923457942642
 30
0.0
 40
0.125
  1
(7/8" x 3-3/4" x Any Height 
  0
TEXT
  5
24371
  8
0
 10
5.0851826815998598
 20
3.6980590124609298
 30
0.0
 40
0.125
  1
is also available for use w/ 
  0
TEXT
  5
24372
  8
0
 10
5.0851826815998598
 20
3.4897256791275968
 30
0.0
 40
0.125
  1
TL-445 Casing)
  0
TEXT
  5
24373
  8
0
 10
5.0851826815998598
 20
3.2813923457942642
 30
0.0
 40
0.125
  1
800.66.TAGUE
  0
ENDBLK
  5
24375
  8
0
  0
BLOCK
  8
0
  2
*U305
 70
     1
 10
0.0
 20
0.0
 30
0.0
  3
*U305
  1

  0
TEXT
  5
24377
  8
0
 10
5.4276068026422868
 20
5.2765876151471502
 30
0.0
 40
0.125
  1
Plinth Block
  0
TEXT
  5
24378
  8
0
 10
5.4276068026422868
 20
5.0682542818138172
 30
0.0
 40
0.125
  1
TL-724
  0
TEXT
  5
24379
  8
0
 10
5.4276068026422868
 20
4.8599209484804833
 30
0.0
 40
0.125
  1
1-1/4" x 4" x Any Height
  0
TEXT
  5
2437A
  8
0
 10
5.4276068026422868
 20
4.6515876151471502
 30
0.0
 40
0.125
  1
For use w/ TL-310 & TL-311 
  0
TEXT
  5
2437B
  8
0
 10
5.4276068026422868
 20
4.4432542818138172
 30
0.0
 40
0.125
  1
Casing
  0
TEXT
  5
2437C
  8
0
 10
5.4276068026422868
 20
4.2349209484804842
 30
0.0
 40
0.125
  1
800.66.TAGUE
  0
ENDBLK
  5
2437E
  8
0
  0
BLOCK
  8
0
  2
*U306
 70
     1
 10
0.0
 20
0.0
 30
0.0
  3
*U306
  1

  0
TEXT
  5
24380
  8
0
 10
1.9834761602972431
 20
3.9146888730343781
 30
0.0
 40
0.125
  1
Plinth Block
  0
TEXT
  5
24381
  8
0
 10
1.9834761602972431
 20
3.706355539701045
 30
0.0
 40
0.125
  1
TL-2269
  0
TEXT
  5
24382
  8
0
 10
1.9834761602972431
 20
3.498022206367712
 30
0.0
 40
0.125
  1
1-3/8" x 7-3/8" x Any 
  0
TEXT
  5
24383
  8
0
 10
1.9834761602972431
 20
3.2896888730343781
 30
0.0
 40
0.125
  1
Height
  0
TEXT
  5
24384
  8
0
 10
1.9834761602972431
 20
3.081355539701045
 30
0.0
 40
0.125
  1
800.66.TAGUE
  0
ENDBLK
  5
24386
  8
0
  0
BLOCK
  8
0
  2
*U307
 70
     1
 10
0.0
 20
0.0
 30
0.0
  3
*U307
  1

  0
TEXT
  5
24388
  8
0
 10
2.5585888631325702
 20
2.655863615564499
 30
0.0
 40
0.125
  1
Plinth Blocks
  0
TEXT
  5
24389
  8
0
 10
2.5585888631325702
 20
2.4475302822311651
 30
0.0
 40
0.125
  1
TL-2328
  0
TEXT
  5
2438A
  8
0
 10
2.5585888631325702
 20
2.2391969488978321
 30
0.0
 40
0.125
  1
2-3/32" x 4-1/2" x Any 
  0
TEXT
  5
2438B
  8
0
 10
2.5585888631325702
 20
2.030863615564499
 30
0.0
 40
0.125
  1
Height
  0
TEXT
  5
2438C
  8
0
 10
2.5585888631325702
 20
1.8225302822311651
 30
0.0
 40
0.125
  1
800.66.TAGUE
  0
ENDBLK
  5
2438E
  8
0
  0
BLOCK
  8
0
  2
*U308
 70
     1
 10
0.0
 20
0.0
 30
0.0
  3
*U308
  1

  0
TEXT
  5
24393
  8
0
 10
3.673295288944245
 20
1.146820656308591
 30
0.0
 40
0.125
  1
Porch Rail
  0
TEXT
  5
24394
  8
0
 10
3.673295288944245
 20
0.9384873229752581
 30
0.0
 40
0.125
  1
TL-533
  0
TEXT
  5
24395
  8
0
 10
3.673295288944245
 20
0.7301539896419247
 30
0.0
 40
0.125
  1
1-5/8" x 2-5/8"
  0
TEXT
  5
24396
  8
0
 10
3.673295288944245
 20
0.5218206563085915
 30
0.0
 40
0.125
  1
800.66.TAGUE
  0
ENDBLK
  5
24398
  8
0
  0
BLOCK
  8
0
  2
*U309
 70
     1
 10
0.0
 20
0.0
 30
0.0
  3
*U309
  1

  0
TEXT
  5
2439A
  8
0
 10
3.647211252831652
 20
0.9654272552400016
 30
0.0
 40
0.125
  1
Porch Rail
  0
TEXT
  5
2439B
  8
0
 10
3.647211252831652
 20
0.7570939219066684
 30
0.0
 40
0.125
  1
TL-534
  0
TEXT
  5
2439C
  8
0
 10
3.647211252831652
 20
0.5487605885733349
 30
0.0
 40
0.125
  1
1-5/8" x 2-5/8"
  0
TEXT
  5
2439D
  8
0
 10
3.647211252831652
 20
0.3404272552400016
 30
0.0
 40
0.125
  1
800.66.TAGUE
  0
ENDBLK
  5
2439F
  8
0
  0
BLOCK
  8
0
  2
*U310
 70
     1
 10
0.0
 20
0.0
 30
0.0
  3
*U310
  1

  0
TEXT
  5
243A1
  8
0
 10
3.5326212019666619
 20
1.841797648224087
 30
0.0
 40
0.125
  1
Porch Rail
  0
TEXT
  5
243A2
  8
0
 10
3.5326212019666619
 20
1.6334643148907531
 30
0.0
 40
0.125
  1
TL-535
  0
TEXT
  5
243A3
  8
0
 10
3.5326212019666619
 20
1.42513098155742
 30
0.0
 40
0.125
  1
2-13/16" x 3-15/16"
  0
TEXT
  5
243A4
  8
0
 10
3.5326212019666619
 20
1.216797648224087
 30
0.0
 40
0.125
  1
800.66.TAGUE
  0
ENDBLK
  5
243A6
  8
0
  0
BLOCK
  8
0
  2
*U311
 70
     1
 10
0.0
 20
0.0
 30
0.0
  3
*U311
  1

  0
TEXT
  5
243A8
  8
0
 10
3.6833274969948202
 20
1.2803413518801099
 30
0.0
 40
0.125
  1
Porch Rail
  0
TEXT
  5
243A9
  8
0
 10
3.6833274969948202
 20
1.0720080185467771
 30
0.0
 40
0.125
  1
TL-536
  0
TEXT
  5
243AA
  8
0
 10
3.6833274969948202
 20
0.8636746852134439
 30
0.0
 40
0.125
  1
2-13/16" x 2-3/4"
  0
TEXT
  5
243AB
  8
0
 10
3.6833274969948202
 20
0.6553413518801108
 30
0.0
 40
0.125
  1
800.66.TAGUE
  0
ENDBLK
  5
243AD
  8
0
  0
BLOCK
  8
0
  2
*U312
 70
     1
 10
0.0
 20
0.0
 30
0.0
  3
*U312
  1

  0
TEXT
  5
243AF
  8
0
 10
3.6069621879840952
 20
2.1489956094399072
 30
0.0
 40
0.125
  1
Porch Rail
  0
TEXT
  5
243B0
  8
0
 10
3.6069621879840952
 20
1.9406622761065739
 30
0.0
 40
0.125
  1
TL-2126
  0
TEXT
  5
243B1
  8
0
 10
3.6069621879840952
 20
1.73232894277324
 30
0.0
 40
0.125
  1
2-11/16" x 4-1/2"
  0
TEXT
  5
243B2
  8
0
 10
3.6069621879840952
 20
1.523995609439907
 30
0.0
 40
0.125
  1
800.66.TAGUE
  0
ENDBLK
  5
243B4
  8
0
  0
BLOCK
  8
0
  2
*U313
 70
     1
 10
0.0
 20
0.0
 30
0.0
  3
*U313
  1

  0
TEXT
  5
243B6
  8
0
 10
3.8069044970130781
 20
1.021502829450696
 30
0.0
 40
0.125
  1
Porch Rail
  0
TEXT
  5
243B7
  8
0
 10
3.8069044970130781
 20
0.813169496117363
 30
0.0
 40
0.125
  1
TL-2129
  0
TEXT
  5
243B8
  8
0
 10
3.8069044970130781
 20
0.6048361627840297
 30
0.0
 40
0.125
  1
2-11/16" x 1-7/16"
  0
TEXT
  5
243B9
  8
0
 10
3.8069044970130781
 20
0.3965028294506965
 30
0.0
 40
0.125
  1
800.66.TAGUE
  0
ENDBLK
  5
243BB
  8
0
  0
BLOCK
  8
0
  2
*U314
 70
     1
 10
0.0
 20
0.0
 30
0.0
  3
*U314
  1

  0
TEXT
  5
243BD
  8
0
 10
4.0968280973845594
 20
1.019018154800619
 30
0.0
 40
0.125
  1
Porch Rail
  0
TEXT
  5
243BE
  8
0
 10
4.0968280973845594
 20
0.810684821467286
 30
0.0
 40
0.125
  1
TL-605
  0
TEXT
  5
243BF
  8
0
 10
4.0968280973845594
 20
0.6023514881339527
 30
0.0
 40
0.125
  1
1-3/8" x 3-1/8"
  0
TEXT
  5
243C0
  8
0
 10
4.0968280973845594
 20
0.3940181548006194
 30
0.0
 40
0.125
  1
800.66.TAGUE
  0
ENDBLK
  5
243C2
  8
0
  0
BLOCK
  8
0
  2
*U315
 70
     1
 10
0.0
 20
0.0
 30
0.0
  3
*U315
  1

  0
TEXT
  5
243C4
  8
0
 10
4.6436762802991893
 20
1.567947324961664
 30
0.0
 40
0.125
  1
Porch Rail
  0
TEXT
  5
243C5
  8
0
 10
4.6436762802991893
 20
1.359613991628331
 30
0.0
 40
0.125
  1
TL-2244
  0
TEXT
  5
243C6
  8
0
 10
4.6436762802991893
 20
1.1512806582949979
 30
0.0
 40
0.125
  1
2-3/8" x 3-1/8"
  0
TEXT
  5
243C7
  8
0
 10
4.6436762802991893
 20
0.9429473249616648
 30
0.0
 40
0.125
  1
800.66.TAGUE
  0
ENDBLK
  5
243C9
  8
0
  0
BLOCK
  8
0
  2
*U316
 70
     1
 10
0.0
 20
0.0
 30
0.0
  3
*U316
  1

  0
TEXT
  5
243CB
  8
0
 10
2.2959526571365809
 20
0.8020693383100763
 30
0.0
 40
0.125
  1
Quarter Round
  0
TEXT
  5
243CC
  8
0
 10
2.2959526571365809
 20
0.5937360049767431
 30
0.0
 40
0.125
  1
TL-103
  0
TEXT
  5
243CD
  8
0
 10
2.2959526571365809
 20
0.3854026716434097
 30
0.0
 40
0.125
  1
1-1/16" x 1-1/16"
  0
TEXT
  5
243CE
  8
0
 10
2.2959526571365809
 20
0.1770693383100763
 30
0.0
 40
0.125
  1
800.66.TAGUE
  0
ENDBLK
  5
243D0
  8
0
  0
BLOCK
  8
0
  2
*U317
 70
     1
 10
0.0
 20
0.0
 30
0.0
  3
*U317
  1

  0
TEXT
  5
243D2
  8
0
 10
2.6265492555164651
 20
1.0389249032068899
 30
0.0
 40
0.125
  1
Quarter Round
  0
TEXT
  5
243D3
  8
0
 10
2.6265492555164651
 20
0.8305915698735571
 30
0.0
 40
0.125
  1
TL-104
  0
TEXT
  5
243D4
  8
0
 10
2.6265492555164651
 20
0.6222582365402238
 30
0.0
 40
0.125
  1
1-1/2" x 1-1/2"
  0
TEXT
  5
243D5
  8
0
 10
2.6265492555164651
 20
0.4139249032068904
 30
0.0
 40
0.125
  1
800.66.TAGUE
  0
ENDBLK
  5
243D7
  8
0
  0
BLOCK
  8
0
  2
*U318
 70
     1
 10
0.0
 20
0.0
 30
0.0
  3
*U318
  1

  0
TEXT
  5
243D9
  8
0
 10
1.754862706562903
 20
0.8601960421464411
 30
0.0
 40
0.125
  1
Quarter Round
  0
TEXT
  5
243DA
  8
0
 10
1.754862706562903
 20
0.651862708813108
 30
0.0
 40
0.125
  1
TL-106
  0
TEXT
  5
243DB
  8
0
 10
1.754862706562903
 20
0.4435293754797746
 30
0.0
 40
0.125
  1
11/16" x 11/16"
  0
TEXT
  5
243DC
  8
0
 10
1.754862706562903
 20
0.2351960421464412
 30
0.0
 40
0.125
  1
800.66.TAGUE
  0
ENDBLK
  5
243DE
  8
0
  0
BLOCK
  8
0
  2
*U319
 70
     1
 10
0.0
 20
0.0
 30
0.0
  3
*U319
  1

  0
TEXT
  5
243E0
  8
0
 10
1.838217438367564
 20
0.7107824417724089
 30
0.0
 40
0.125
  1
Quarter Round
  0
TEXT
  5
243E1
  8
0
 10
1.838217438367564
 20
0.5024491084390758
 30
0.0
 40
0.125
  1
TL-107
  0
TEXT
  5
243E2
  8
0
 10
1.838217438367564
 20
0.2941157751057423
 30
0.0
 40
0.125
  1
7/8" x 7/8"
  0
TEXT
  5
243E3
  8
0
 10
1.838217438367564
 20
0.0857824417724089
 30
0.0
 40
0.125
  1
800.66.TAGUE
  0
ENDBLK
  5
243E5
  8
0
  0
BLOCK
  8
0
  2
*U320
 70
     1
 10
0.0
 20
0.0
 30
0.0
  3
*U320
  1

  0
TEXT
  5
243E7
  8
0
 10
1.352485397822192
 20
0.6795157652888122
 30
0.0
 40
0.125
  1
Quarter Round
  0
TEXT
  5
243E8
  8
0
 10
1.352485397822192
 20
0.4711824319554789
 30
0.0
 40
0.125
  1
TL-108
  0
TEXT
  5
243E9
  8
0
 10
1.352485397822192
 20
0.2628490986221456
 30
0.0
 40
0.125
  1
1/2" x 1/2"
  0
TEXT
  5
243EA
  8
0
 10
1.352485397822192
 20
0.0545157652888122
 30
0.0
 40
0.125
  1
800.66.TAGUE
  0
ENDBLK
  5
243EC
  8
0
  0
BLOCK
  8
0
  2
*U321
 70
     1
 10
0.0
 20
0.0
 30
0.0
  3
*U321
  1

  0
TEXT
  5
243EE
  8
0
 10
1.5395795649736781
 20
0.6795162946313269
 30
0.0
 40
0.125
  1
Quarter Round
  0
TEXT
  5
243EF
  8
0
 10
1.5395795649736781
 20
0.4711829612979936
 30
0.0
 40
0.125
  1
TL-109
  0
TEXT
  5
243F0
  8
0
 10
1.5395795649736781
 20
0.2628496279646603
 30
0.0
 40
0.125
  1
3/8" x 3/8"
  0
TEXT
  5
243F1
  8
0
 10
1.5395795649736781
 20
0.0545162946313269
 30
0.0
 40
0.125
  1
800.66.TAGUE
  0
ENDBLK
  5
243F3
  8
0
  0
BLOCK
  8
0
  2
*U322
 70
     1
 10
0.0
 20
0.0
 30
0.0
  3
*U322
  1

  0
TEXT
  5
243F5
  8
0
 10
1.127533430492007
 20
0.716014195759982
 30
0.0
 40
0.125
  1
Quarter Round
  0
TEXT
  5
243F6
  8
0
 10
1.127533430492007
 20
0.5076808624266488
 30
0.0
 40
0.125
  1
TL-110
  0
TEXT
  5
243F7
  8
0
 10
1.127533430492007
 20
0.2993475290933153
 30
0.0
 40
0.125
  1
1/4" x 1/4"
  0
TEXT
  5
243F8
  8
0
 10
1.127533430492007
 20
0.091014195759982
 30
0.0
 40
0.125
  1
800.66.TAGUE
  0
ENDBLK
  5
243FA
  8
0
  0
BLOCK
  8
0
  2
*U323
 70
     1
 10
0.0
 20
0.0
 30
0.0
  3
*U323
  1

  0
TEXT
  5
243FC
  8
0
 10
1.8956187639500961
 20
1.9750706814052701
 30
0.0
 40
0.125
  1
Reeding
  0
TEXT
  5
243FD
  8
0
 10
1.8956187639500961
 20
1.7667373480719371
 30
0.0
 40
0.125
  1
TL-750
  0
TEXT
  5
243FE
  8
0
 10
1.8956187639500961
 20
1.558404014738604
 30
0.0
 40
0.125
  1
3/4" x 3-1/4"
  0
TEXT
  5
243FF
  8
0
 10
1.8956187639500961
 20
1.3500706814052701
 30
0.0
 40
0.125
  1
800.66.TAGUE
  0
ENDBLK
  5
24401
  8
0
  0
BLOCK
  8
0
  2
*U324
 70
     1
 10
0.0
 20
0.0
 30
0.0
  3
*U324
  1

  0
TEXT
  5
24403
  8
0
 10
1.373304977175166
 20
7.0938793499937836
 30
0.0
 40
0.125
  1
Rosette
  0
TEXT
  5
24404
  8
0
 10
1.373304977175166
 20
6.8855460166604514
 30
0.0
 40
0.125
  1
TL-733
  0
TEXT
  5
24405
  8
0
 10
1.373304977175166
 20
6.6772126833271166
 30
0.0
 40
0.125
  1
1" x 3-3/4" x 3-3/4"
  0
TEXT
  5
24406
  8
0
 10
1.373304977175166
 20
6.4688793499937836
 30
0.0
 40
0.125
  1
(Bullseye is 2-9/16")
  0
TEXT
  5
24407
  8
0
 10
1.373304977175166
 20
6.2605460166604514
 30
0.0
 40
0.125
  1
800.66.TAGUE
  0
ENDBLK
  5
24409
  8
0
  0
BLOCK
  8
0
  2
*U325
 70
     1
 10
0.0
 20
0.0
 30
0.0
  3
*U325
  1

  0
TEXT
  5
2440B
  8
0
 10
1.373304977175166
 20
7.0938793499937836
 30
0.0
 40
0.125
  1
Rosette
  0
TEXT
  5
2440C
  8
0
 10
1.373304977175166
 20
6.8855460166604514
 30
0.0
 40
0.125
  1
TL-733
  0
TEXT
  5
2440D
  8
0
 10
1.373304977175166
 20
6.6772126833271166
 30
0.0
 40
0.125
  1
1" x 3-3/4" x 3-3/4"
  0
TEXT
  5
2440E
  8
0
 10
1.373304977175166
 20
6.4688793499937836
 30
0.0
 40
0.125
  1
(Bullseye is 2-9/16")
  0
TEXT
  5
2440F
  8
0
 10
1.373304977175166
 20
6.2605460166604514
 30
0.0
 40
0.125
  1
800.66.TAGUE
  0
ENDBLK
  5
24411
  8
0
  0
BLOCK
  8
0
  2
*U326
 70
     1
 10
0.0
 20
0.0
 30
0.0
  3
*U326
  1

  0
TEXT
  5
24413
  8
0
 10
1.2806627711731831
 20
7.3249591226432074
 30
0.0
 40
0.125
  1
Rosette
  0
TEXT
  5
24414
  8
0
 10
1.2806627711731831
 20
7.1166257893098743
 30
0.0
 40
0.125
  1
TL-736
  0
TEXT
  5
24415
  8
0
 10
1.2806627711731831
 20
6.9082924559765404
 30
0.0
 40
0.125
  1
1" x 3-3/4" x 3-3/4"
  0
TEXT
  5
24416
  8
0
 10
1.2806627711731831
 20
6.6999591226432074
 30
0.0
 40
0.125
  1
(Bullseye is 3-5/16")
  0
TEXT
  5
24417
  8
0
 10
1.2806627711731831
 20
6.4916257893098743
 30
0.0
 40
0.125
  1
800.66.TAGUE
  0
ENDBLK
  5
24419
  8
0
  0
BLOCK
  8
0
  2
*U327
 70
     1
 10
0.0
 20
0.0
 30
0.0
  3
*U327
  1

  0
TEXT
  5
2441B
  8
0
 10
1.468200758244393
 20
0.6794297505788336
 30
0.0
 40
0.125
  1
Scotia
  0
TEXT
  5
2441C
  8
0
 10
1.468200758244393
 20
0.4710964172455003
 30
0.0
 40
0.125
  1
TL-43
  0
TEXT
  5
2441D
  8
0
 10
1.468200758244393
 20
0.262763083912167
 30
0.0
 40
0.125
  1
5/8" x 1/2"
  0
TEXT
  5
2441E
  8
0
 10
1.468200758244393
 20
0.0544297505788336
 30
0.0
 40
0.125
  1
800.66.TAGUE
  0
ENDBLK
  5
24420
  8
0
  0
BLOCK
  8
0
  2
*U328
 70
     1
 10
0.0
 20
0.0
 30
0.0
  3
*U328
  1

  0
TEXT
  5
24422
  8
0
 10
1.6796567097686641
 20
0.6794312077095697
 30
0.0
 40
0.125
  1
Screen Moulding
  0
TEXT
  5
24423
  8
0
 10
1.6796567097686641
 20
0.4710978743762364
 30
0.0
 40
0.125
  1
TL-138
  0
TEXT
  5
24424
  8
0
 10
1.6796567097686641
 20
0.262764541042903
 30
0.0
 40
0.125
  1
5/16" x 5/8"
  0
TEXT
  5
24425
  8
0
 10
1.6796567097686641
 20
0.0544312077095697
 30
0.0
 40
0.125
  1
800.66.TAGUE
  0
ENDBLK
  5
24427
  8
0
  0
BLOCK
  8
0
  2
*U329
 70
     1
 10
0.0
 20
0.0
 30
0.0
  3
*U329
  1

  0
TEXT
  5
24429
  8
0
 10
1.85571357960157
 20
0.6794307426418415
 30
0.0
 40
0.125
  1
Screen Moulding
  0
TEXT
  5
2442A
  8
0
 10
1.85571357960157
 20
0.4710974093085081
 30
0.0
 40
0.125
  1
TL-142
  0
TEXT
  5
2442B
  8
0
 10
1.85571357960157
 20
0.2627640759751747
 30
0.0
 40
0.125
  1
1/4" x 3/4"
  0
TEXT
  5
2442C
  8
0
 10
1.85571357960157
 20
0.0544307426418413
 30
0.0
 40
0.125
  1
800.66.TAGUE
  0
ENDBLK
  5
2442E
  8
0
  0
BLOCK
  8
0
  2
*U330
 70
     1
 10
0.0
 20
0.0
 30
0.0
  3
*U330
  1

  0
TEXT
  5
24430
  8
0
 10
1.9554039385765229
 20
0.6794310226893572
 30
0.0
 40
0.125
  1
Screen Moulding
  0
TEXT
  5
24431
  8
0
 10
1.9554039385765229
 20
0.4710976893560239
 30
0.0
 40
0.125
  1
TL-144
  0
TEXT
  5
24432
  8
0
 10
1.9554039385765229
 20
0.2627643560226906
 30
0.0
 40
0.125
  1
1/4" x 3/4"
  0
TEXT
  5
24433
  8
0
 10
1.9554039385765229
 20
0.0544310226893572
 30
0.0
 40
0.125
  1
800.66.TAGUE
  0
ENDBLK
  5
24435
  8
0
  0
BLOCK
  8
0
  2
*U331
 70
     1
 10
0.0
 20
0.0
 30
0.0
  3
*U331
  1

  0
TEXT
  5
24437
  8
0
 10
1.803800422793074
 20
0.6794303959038075
 30
0.0
 40
0.125
  1
Screen Moulding
  0
TEXT
  5
24438
  8
0
 10
1.803800422793074
 20
0.4710970625704742
 30
0.0
 40
0.125
  1
TL-525
  0
TEXT
  5
24439
  8
0
 10
1.803800422793074
 20
0.2627637292371409
 30
0.0
 40
0.125
  1
1/4" x 3/4"
  0
TEXT
  5
2443A
  8
0
 10
1.803800422793074
 20
0.0544303959038075
 30
0.0
 40
0.125
  1
800.66.TAGUE
  0
ENDBLK
  5
2443C
  8
0
  0
BLOCK
  8
0
  2
*U332
 70
     1
 10
0.0
 20
0.0
 30
0.0
  3
*U332
  1

  0
TEXT
  5
2443E
  8
0
 10
1.3492638038874241
 20
0.7907760561204498
 30
0.0
 40
0.125
  1
Shoe Moulding
  0
TEXT
  5
2443F
  8
0
 10
1.3492638038874241
 20
0.5824427227871164
 30
0.0
 40
0.125
  1
TL-126
  0
TEXT
  5
24440
  8
0
 10
1.3492638038874241
 20
0.3741093894537832
 30
0.0
 40
0.125
  1
1/2" x 3/4"
  0
TEXT
  5
24441
  8
0
 10
1.3492638038874241
 20
0.1657760561204498
 30
0.0
 40
0.125
  1
800.66.TAGUE
  0
ENDBLK
  5
24443
  8
0
  0
BLOCK
  8
0
  2
*U333
 70
     1
 10
0.0
 20
0.0
 30
0.0
  3
*U333
  1

  0
TEXT
  5
24445
  8
0
 10
1.1808870594733201
 20
0.7490361918447946
 30
0.0
 40
0.125
  1
Shoe Moulding
  0
TEXT
  5
24446
  8
0
 10
1.1808870594733201
 20
0.5407028585114612
 30
0.0
 40
0.125
  1
TL-127
  0
TEXT
  5
24447
  8
0
 10
1.1808870594733201
 20
0.3323695251781279
 30
0.0
 40
0.125
  1
5/16" x 1-1/4"
  0
TEXT
  5
24448
  8
0
 10
1.1808870594733201
 20
0.1240361918447945
 30
0.0
 40
0.125
  1
800.66.TAGUE
  0
ENDBLK
  5
2444A
  8
0
  0
BLOCK
  8
0
  2
*U334
 70
     1
 10
0.0
 20
0.0
 30
0.0
  3
*U334
  1

  0
TEXT
  5
2444C
  8
0
 10
1.472319617280049
 20
1.0115530252823239
 30
0.0
 40
0.125
  1
Shoe Moulding
  0
TEXT
  5
2444D
  8
0
 10
1.472319617280049
 20
0.8032196919489915
 30
0.0
 40
0.125
  1
TL-2154
  0
TEXT
  5
2444E
  8
0
 10
1.472319617280049
 20
0.5948863586156583
 30
0.0
 40
0.125
  1
1/2" x 2"
  0
TEXT
  5
2444F
  8
0
 10
1.472319617280049
 20
0.3865530252823248
 30
0.0
 40
0.125
  1
800.66.TAGUE
  0
ENDBLK
  5
24451
  8
0
  0
BLOCK
  8
0
  2
*U335
 70
     1
 10
0.0
 20
0.0
 30
0.0
  3
*U335
  1

  0
TEXT
  5
24453
  8
0
 10
1.2158518542730681
 20
0.8270002480021788
 30
0.0
 40
0.125
  1
Shoe Moulding
  0
TEXT
  5
24454
  8
0
 10
1.2158518542730681
 20
0.6186669146688454
 30
0.0
 40
0.125
  1
TL-2324
  0
TEXT
  5
24455
  8
0
 10
1.2158518542730681
 20
0.4103335813355122
 30
0.0
 40
0.125
  1
7/16" x 15/16"
  0
TEXT
  5
24456
  8
0
 10
1.2158518542730681
 20
0.2020002480021787
 30
0.0
 40
0.125
  1
800.66.TAGUE
  0
ENDBLK
  5
24458
  8
0
  0
BLOCK
  8
0
  2
*U336
 70
     1
 10
0.0
 20
0.0
 30
0.0
  3
*U336
  1

  0
TEXT
  5
2445A
  8
0
 10
4.2566660115631967
 20
1.062506362448999
 30
0.0
 40
0.125
  1
Show Sill
  0
TEXT
  5
2445B
  8
0
 10
4.2566660115631967
 20
0.8541730291156664
 30
0.0
 40
0.125
  1
TL-228
  0
TEXT
  5
2445C
  8
0
 10
4.2566660115631967
 20
0.6458396957823331
 30
0.0
 40
0.125
  1
2-11/16" x 3-1/2"
  0
TEXT
  5
2445D
  8
0
 10
4.2566660115631967
 20
0.4375063624489997
 30
0.0
 40
0.125
  1
800.66.TAGUE
  0
ENDBLK
  5
2445F
  8
0
  0
BLOCK
  8
0
  2
*U337
 70
     1
 10
0.0
 20
0.0
 30
0.0
  3
*U337
  1

  0
TEXT
  5
24461
  8
0
 10
4.2691178073453102
 20
0.7399378328155138
 30
0.0
 40
0.125
  1
Show Sill
  0
TEXT
  5
24462
  8
0
 10
4.2691178073453102
 20
0.5316044994821806
 30
0.0
 40
0.125
  1
TL-229
  0
TEXT
  5
24463
  8
0
 10
4.2691178073453102
 20
0.3232711661488471
 30
0.0
 40
0.125
  1
1-11/16" x 3-1/2"
  0
TEXT
  5
24464
  8
0
 10
4.2691178073453102
 20
0.1149378328155137
 30
0.0
 40
0.125
  1
800.66.TAGUE
  0
ENDBLK
  5
24466
  8
0
  0
BLOCK
  8
0
  2
*U338
 70
     1
 10
0.0
 20
0.0
 30
0.0
  3
*U338
  1

  0
TEXT
  5
24468
  8
0
 10
4.2691178073453102
 20
0.7399378328155138
 30
0.0
 40
0.125
  1
Show Sill
  0
TEXT
  5
24469
  8
0
 10
4.2691178073453102
 20
0.5316044994821806
 30
0.0
 40
0.125
  1
TL-229
  0
TEXT
  5
2446A
  8
0
 10
4.2691178073453102
 20
0.3232711661488471
 30
0.0
 40
0.125
  1
1-11/16" x 3-1/2"
  0
TEXT
  5
2446B
  8
0
 10
4.2691178073453102
 20
0.1149378328155137
 30
0.0
 40
0.125
  1
800.66.TAGUE
  0
ENDBLK
  5
2446D
  8
0
  0
BLOCK
  8
0
  2
*U339
 70
     1
 10
0.0
 20
0.0
 30
0.0
  3
*U339
  1

  0
TEXT
  5
2446F
  8
0
 10
2.4719841412448309
 20
0.6794303651360281
 30
0.0
 40
0.125
  1
Show Sill
  0
TEXT
  5
24470
  8
0
 10
2.4719841412448309
 20
0.4710970318026948
 30
0.0
 40
0.125
  1
TL-2205
  0
TEXT
  5
24471
  8
0
 10
2.4719841412448309
 20
0.2627636984693613
 30
0.0
 40
0.125
  1
1-3/4" x 6-9/16"
  0
TEXT
  5
24472
  8
0
 10
2.4719841412448309
 20
0.0544303651360281
 30
0.0
 40
0.125
  1
800.66.TAGUE
  0
ENDBLK
  5
24474
  8
0
  0
BLOCK
  8
0
  2
*U340
 70
     1
 10
0.0
 20
0.0
 30
0.0
  3
*U340
  1

  0
TEXT
  5
24476
  8
0
 10
1.7030452787688539
 20
0.7191083481852161
 30
0.0
 40
0.125
  1
Solid Crown
  0
TEXT
  5
24477
  8
0
 10
1.7030452787688539
 20
0.5107750148518829
 30
0.0
 40
0.125
  1
TL-27
  0
TEXT
  5
24478
  8
0
 10
1.7030452787688539
 20
0.3024416815185495
 30
0.0
 40
0.125
  1
3/4" x 1-1/8"
  0
TEXT
  5
24479
  8
0
 10
1.7030452787688539
 20
0.0941083481852161
 30
0.0
 40
0.125
  1
800.66.TAGUE
  0
ENDBLK
  5
2447B
  8
0
  0
BLOCK
  8
0
  2
*U341
 70
     1
 10
0.0
 20
0.0
 30
0.0
  3
*U341
  1

  0
TEXT
  5
2447D
  8
0
 10
1.8354044286779749
 20
0.6862743223931034
 30
0.0
 40
0.125
  1
Solid Crown
  0
TEXT
  5
2447E
  8
0
 10
1.8354044286779749
 20
0.4779409890597701
 30
0.0
 40
0.125
  1
TL-28
  0
TEXT
  5
2447F
  8
0
 10
1.8354044286779749
 20
0.2696076557264368
 30
0.0
 40
0.125
  1
1-3/8" x 1-11/16"
  0
TEXT
  5
24480
  8
0
 10
1.8354044286779749
 20
0.0612743223931034
 30
0.0
 40
0.125
  1
800.66.TAGUE
  0
ENDBLK
  5
24482
  8
0
  0
BLOCK
  8
0
  2
*U342
 70
     1
 10
0.0
 20
0.0
 30
0.0
  3
*U342
  1

  0
TEXT
  5
24484
  8
0
 10
1.609951569799704
 20
1.097237546408848
 30
0.0
 40
0.125
  1
Solid Crown
  0
TEXT
  5
24485
  8
0
 10
1.609951569799704
 20
0.8889042130755154
 30
0.0
 40
0.125
  1
TL-29
  0
TEXT
  5
24486
  8
0
 10
1.609951569799704
 20
0.6805708797421819
 30
0.0
 40
0.125
  1
1-3/8" x 2-3/4"
  0
TEXT
  5
24487
  8
0
 10
1.609951569799704
 20
0.4722375464088487
 30
0.0
 40
0.125
  1
800.66.TAGUE
  0
ENDBLK
  5
24489
  8
0
  0
BLOCK
  8
0
  2
*U343
 70
     1
 10
0.0
 20
0.0
 30
0.0
  3
*U343
  1

  0
TEXT
  5
2448B
  8
0
 10
1.5665049495332819
 20
0.9104444566315237
 30
0.0
 40
0.125
  1
Solid Crown
  0
TEXT
  5
2448C
  8
0
 10
1.5665049495332819
 20
0.7021111232981906
 30
0.0
 40
0.125
  1
TL-30
  0
TEXT
  5
2448D
  8
0
 10
1.5665049495332819
 20
0.4937777899648572
 30
0.0
 40
0.125
  1
1-1/8" x 1-3/4"
  0
TEXT
  5
2448E
  8
0
 10
1.5665049495332819
 20
0.2854444566315237
 30
0.0
 40
0.125
  1
800.66.TAGUE
  0
ENDBLK
  5
24490
  8
0
  0
BLOCK
  8
0
  2
*U344
 70
     1
 10
0.0
 20
0.0
 30
0.0
  3
*U344
  1

  0
TEXT
  5
24492
  8
0
 10
1.741766505169607
 20
1.083818676800262
 30
0.0
 40
0.125
  1
Solid Crown
  0
TEXT
  5
24493
  8
0
 10
1.741766505169607
 20
0.8754853434669296
 30
0.0
 40
0.125
  1
TL-31
  0
TEXT
  5
24494
  8
0
 10
1.741766505169607
 20
0.6671520101335963
 30
0.0
 40
0.125
  1
1" x 2-1/8"
  0
TEXT
  5
24495
  8
0
 10
1.741766505169607
 20
0.4588186768002629
 30
0.0
 40
0.125
  1
800.66.TAGUE
  0
ENDBLK
  5
24497
  8
0
  0
BLOCK
  8
0
  2
*U345
 70
     1
 10
0.0
 20
0.0
 30
0.0
  3
*U345
  1

  0
TEXT
  5
24499
  8
0
 10
3.3201780845119511
 20
0.6778106086991899
 30
0.0
 40
0.125
  1
Solid Crown
  0
TEXT
  5
2449A
  8
0
 10
3.3201780845119511
 20
0.4694772753658565
 30
0.0
 40
0.125
  1
TL-35
  0
TEXT
  5
2449B
  8
0
 10
3.3201780845119511
 20
0.2611439420325231
 30
0.0
 40
0.125
  1
1" x 2"
  0
TEXT
  5
2449C
  8
0
 10
3.3201780845119511
 20
0.0528106086991898
 30
0.0
 40
0.125
  1
800.66.TAGUE
  0
ENDBLK
  5
2449E
  8
0
  0
BLOCK
  8
0
  2
*U346
 70
     1
 10
0.0
 20
0.0
 30
0.0
  3
*U346
  1

  0
TEXT
  5
244A0
  8
0
 10
2.4140290960319808
 20
1.8965503482651791
 30
0.0
 40
0.125
  1
Solid Crown
  0
TEXT
  5
244A1
  8
0
 10
2.4140290960319808
 20
1.6882170149318461
 30
0.0
 40
0.125
  1
TL-33
  0
TEXT
  5
244A2
  8
0
 10
2.4140290960319808
 20
1.479883681598513
 30
0.0
 40
0.125
  1
1-5/8" x 4-1/4"
  0
TEXT
  5
244A3
  8
0
 10
2.4140290960319808
 20
1.2715503482651791
 30
0.0
 40
0.125
  1
800.66.TAGUE
  0
ENDBLK
  5
244A5
  8
0
  0
BLOCK
  8
0
  2
*U347
 70
     1
 10
0.0
 20
0.0
 30
0.0
  3
*U347
  1

  0
TEXT
  5
244A7
  8
0
 10
-384.62615147786812
 20
840.85134206829218
 30
0.0
 40
0.125
  1
Solid Crown
  0
TEXT
  5
244A8
  8
0
 10
-384.62615147786812
 20
840.64300873495893
 30
0.0
 40
0.125
  1
TL-33
  0
TEXT
  5
244A9
  8
0
 10
-384.62615147786812
 20
840.43467540162555
 30
0.0
 40
0.125
  1
1-5/8" x 4-1/4"
  0
TEXT
  5
244AA
  8
0
 10
-384.62615147786812
 20
840.22634206829218
 30
0.0
 40
0.125
  1
800.66.TAGUE
  0
ENDBLK
  5
244AC
  8
0
  0
ENDSEC
  0
SECTION
  2
ENTITIES
  0
INSERT
  5
23FE2
  8
0
  2
*U347
 10
0.0
 20
0.0
 30
0.0
  0
LINE
  5
23FE3
  8
0
 10
-387.04018109563958
 20
839.63827404660844
 30
0.0
 11
-387.04018109563958
 21
838.95479150895562
 31
0.0
  0
LINE
  5
23FE4
  8
0
 10
-387.04018109563958
 20
839.63827404660844
 30
0.0
 11
-386.96016401554908
 21
839.71829112669889
 31
0.0
  0
LINE
  5
23FE5
  8
0
 10
-387.04018109563958
 20
842.60677565710466
 30
0.0
 11
-386.96016401554908
 21
842.52675857701411
 31
0.0
  0
POLYLINE
  8
0
  5
247F1
  66
     1
 10
0.000000
 20
0.000000
 30
0.000000
  70
     8
  0
VERTEX
  8
0
  5
247F2
 10
-386.350
 20
840.184
 30
0.000000
  70
    32
  0
VERTEX
  8
0
  5
247F3
 10
-386.354
 20
840.190
 30
0.000000
  70
    32
  0
VERTEX
  8
0
  5
247F4
 10
-386.356
 20
840.197
 30
0.000000
  70
    32
  0
VERTEX
  8
0
  5
247F5
 10
-386.357
 20
840.205
 30
0.000000
  70
    32
  0
VERTEX
  8
0
  5
247F6
 10
-386.357
 20
840.214
 30
0.000000
  70
    32
  0
VERTEX
  8
0
  5
247F7
 10
-386.356
 20
840.222
 30
0.000000
  70
    32
  0
VERTEX
  8
0
  5
247F8
 10
-386.355
 20
840.229
 30
0.000000
  70
    32
  0
VERTEX
  8
0
  5
247F9
 10
-386.353
 20
840.237
 30
0.000000
  70
    32
  0
VERTEX
  8
0
  5
247FA
 10
-386.351
 20
840.244
 30
0.000000
  70
    32
  0
VERTEX
  8
0
  5
247FB
 10
-386.349
 20
840.251
 30
0.000000
  70
    32
  0
VERTEX
  8
0
  5
247FC
 10
-386.346
 20
840.259
 30
0.000000
  70
    32
  0
VERTEX
  8
0
  5
247FD
 10
-386.343
 20
840.265
 30
0.000000
  70
    32
  0
VERTEX
  8
0
  5
247FE
 10
-386.341
 20
840.272
 30
0.000000
  70
    32
  0
VERTEX
  8
0
  5
247FF
 10
-386.338
 20
840.279
 30
0.000000
  70
    32
  0
VERTEX
  8
0
  5
24800
 10
-386.335
 20
840.286
 30
0.000000
  70
    32
  0
VERTEX
  8
0
  5
24801
 10
-386.332
 20
840.293
 30
0.000000
  70
    32
  0
VERTEX
  8
0
  5
24802
 10
-386.329
 20
840.300
 30
0.000000
  70
    32
  0
VERTEX
  8
0
  5
24803
 10
-386.326
 20
840.307
 30
0.000000
  70
    32
  0
VERTEX
  8
0
  5
24804
 10
-386.323
 20
840.314
 30
0.000000
  70
    32
  0
VERTEX
  8
0
  5
24805
 10
-386.320
 20
840.321
 30
0.000000
  70
    32
  0
VERTEX
  8
0
  5
24806
 10
-386.317
 20
840.327
 30
0.000000
  70
    32
  0
VERTEX
  8
0
  5
24807
 10
-386.314
 20
840.334
 30
0.000000
  70
    32
  0
VERTEX
  8
0
  5
24808
 10
-386.311
 20
840.341
 30
0.000000
  70
    32
  0
VERTEX
  8
0
  5
24809
 10
-386.307
 20
840.348
 30
0.000000
  70
    32
  0
VERTEX
  8
0
  5
2480A
 10
-386.304
 20
840.354
 30
0.000000
  70
    32
  0
VERTEX
  8
0
  5
2480B
 10
-386.301
 20
840.361
 30
0.000000
  70
    32
  0
VERTEX
  8
0
  5
2480C
 10
-386.298
 20
840.368
 30
0.000000
  70
    32
  0
VERTEX
  8
0
  5
2480D
 10
-386.294
 20
840.374
 30
0.000000
  70
    32
  0
VERTEX
  8
0
  5
2480E
 10
-386.291
 20
840.381
 30
0.000000
  70
    32
  0
VERTEX
  8
0
  5
2480F
 10
-386.287
 20
840.388
 30
0.000000
  70
    32
  0
VERTEX
  8
0
  5
24810
 10
-386.284
 20
840.394
 30
0.000000
  70
    32
  0
VERTEX
  8
0
  5
24811
 10
-386.280
 20
840.401
 30
0.000000
  70
    32
  0
VERTEX
  8
0
  5
24812
 10
-386.277
 20
840.408
 30
0.000000
  70
    32
  0
VERTEX
  8
0
  5
24813
 10
-386.273
 20
840.414
 30
0.000000
  70
    32
  0
VERTEX
  8
0
  5
24814
 10
-386.269
 20
840.421
 30
0.000000
  70
    32
  0
VERTEX
  8
0
  5
24815
 10
-386.266
 20
840.427
 30
0.000000
  70
    32
  0
VERTEX
  8
0
  5
24816
 10
-386.262
 20
840.434
 30
0.000000
  70
    32
  0
VERTEX
  8
0
  5
24817
 10
-386.258
 20
840.441
 30
0.000000
  70
    32
  0
VERTEX
  8
0
  5
24818
 10
-386.254
 20
840.447
 30
0.000000
  70
    32
  0
VERTEX
  8
0
  5
24819
 10
-386.251
 20
840.454
 30
0.000000
  70
    32
  0
VERTEX
  8
0
  5
2481A
 10
-386.247
 20
840.460
 30
0.000000
  70
    32
  0
VERTEX
  8
0
  5
2481B
 10
-386.243
 20
840.467
 30
0.000000
  70
    32
  0
VERTEX
  8
0
  5
2481C
 10
-386.239
 20
840.473
 30
0.000000
  70
    32
  0
VERTEX
  8
0
  5
2481D
 10
-386.235
 20
840.479
 30
0.000000
  70
    32
  0
VERTEX
  8
0
  5
2481E
 10
-386.231
 20
840.486
 30
0.000000
  70
    32
  0
VERTEX
  8
0
  5
2481F
 10
-386.227
 20
840.492
 30
0.000000
  70
    32
  0
VERTEX
  8
0
  5
24820
 10
-386.223
 20
840.499
 30
0.000000
  70
    32
  0
VERTEX
  8
0
  5
24821
 10
-386.219
 20
840.505
 30
0.000000
  70
    32
  0
VERTEX
  8
0
  5
24822
 10
-386.215
 20
840.512
 30
0.000000
  70
    32
  0
VERTEX
  8
0
  5
24823
 10
-386.211
 20
840.518
 30
0.000000
  70
    32
  0
VERTEX
  8
0
  5
24824
 10
-386.206
 20
840.524
 30
0.000000
  70
    32
  0
VERTEX
  8
0
  5
24825
 10
-386.202
 20
840.531
 30
0.000000
  70
    32
  0
VERTEX
  8
0
  5
24826
 10
-386.198
 20
840.537
 30
0.000000
  70
    32
  0
VERTEX
  8
0
  5
24827
 10
-386.194
 20
840.543
 30
0.000000
  70
    32
  0
VERTEX
  8
0
  5
24828
 10
-386.190
 20
840.550
 30
0.000000
  70
    32
  0
VERTEX
  8
0
  5
24829
 10
-386.185
 20
840.556
 30
0.000000
  70
    32
  0
VERTEX
  8
0
  5
2482A
 10
-386.181
 20
840.562
 30
0.000000
  70
    32
  0
VERTEX
  8
0
  5
2482B
 10
-386.177
 20
840.569
 30
0.000000
  70
    32
  0
VERTEX
  8
0
  5
2482C
 10
-386.172
 20
840.575
 30
0.000000
  70
    32
  0
VERTEX
  8
0
  5
2482D
 10
-386.168
 20
840.581
 30
0.000000
  70
    32
  0
VERTEX
  8
0
  5
2482E
 10
-386.163
 20
840.587
 30
0.000000
  70
    32
  0
VERTEX
  8
0
  5
2482F
 10
-386.159
 20
840.594
 30
0.000000
  70
    32
  0
VERTEX
  8
0
  5
24830
 10
-386.154
 20
840.600
 30
0.000000
  70
    32
  0
VERTEX
  8
0
  5
24831
 10
-386.150
 20
840.606
 30
0.000000
  70
    32
  0
VERTEX
  8
0
  5
24832
 10
-386.145
 20
840.612
 30
0.000000
  70
    32
  0
VERTEX
  8
0
  5
24833
 10
-386.141
 20
840.619
 30
0.000000
  70
    32
  0
VERTEX
  8
0
  5
24834
 10
-386.136
 20
840.625
 30
0.000000
  70
    32
  0
VERTEX
  8
0
  5
24835
 10
-386.132
 20
840.631
 30
0.000000
  70
    32
  0
VERTEX
  8
0
  5
24836
 10
-386.127
 20
840.637
 30
0.000000
  70
    32
  0
VERTEX
  8
0
  5
24837
 10
-386.122
 20
840.643
 30
0.000000
  70
    32
  0
VERTEX
  8
0
  5
24838
 10
-386.118
 20
840.649
 30
0.000000
  70
    32
  0
VERTEX
  8
0
  5
24839
 10
-386.113
 20
840.656
 30
0.000000
  70
    32
  0
VERTEX
  8
0
  5
2483A
 10
-386.109
 20
840.662
 30
0.000000
  70
    32
  0
VERTEX
  8
0
  5
2483B
 10
-386.104
 20
840.668
 30
0.000000
  70
    32
  0
VERTEX
  8
0
  5
2483C
 10
-386.099
 20
840.674
 30
0.000000
  70
    32
  0
VERTEX
  8
0
  5
2483D
 10
-386.094
 20
840.680
 30
0.000000
  70
    32
  0
VERTEX
  8
0
  5
2483E
 10
-386.090
 20
840.686
 30
0.000000
  70
    32
  0
VERTEX
  8
0
  5
2483F
 10
-386.085
 20
840.692
 30
0.000000
  70
    32
  0
VERTEX
  8
0
  5
24840
 10
-386.080
 20
840.699
 30
0.000000
  70
    32
  0
VERTEX
  8
0
  5
24841
 10
-386.075
 20
840.705
 30
0.000000
  70
    32
  0
VERTEX
  8
0
  5
24842
 10
-386.070
 20
840.711
 30
0.000000
  70
    32
  0
VERTEX
  8
0
  5
24843
 10
-386.066
 20
840.717
 30
0.000000
  70
    32
  0
VERTEX
  8
0
  5
24844
 10
-386.061
 20
840.723
 30
0.000000
  70
    32
  0
VERTEX
  8
0
  5
24845
 10
-386.056
 20
840.729
 30
0.000000
  70
    32
  0
VERTEX
  8
0
  5
24846
 10
-386.051
 20
840.735
 30
0.000000
  70
    32
  0
VERTEX
  8
0
  5
24847
 10
-386.046
 20
840.741
 30
0.000000
  70
    32
  0
VERTEX
  8
0
  5
24848
 10
-386.041
 20
840.747
 30
0.000000
  70
    32
  0
VERTEX
  8
0
  5
24849
 10
-386.036
 20
840.753
 30
0.000000
  70
    32
  0
VERTEX
  8
0
  5
2484A
 10
-386.031
 20
840.759
 30
0.000000
  70
    32
  0
VERTEX
  8
0
  5
2484B
 10
-386.027
 20
840.765
 30
0.000000
  70
    32
  0
VERTEX
  8
0
  5
2484C
 10
-386.022
 20
840.771
 30
0.000000
  70
    32
  0
VERTEX
  8
0
  5
2484D
 10
-386.017
 20
840.777
 30
0.000000
  70
    32
  0
VERTEX
  8
0
  5
2484E
 10
-386.012
 20
840.783
 30
0.000000
  70
    32
  0
VERTEX
  8
0
  5
2484F
 10
-386.007
 20
840.789
 30
0.000000
  70
    32
  0
VERTEX
  8
0
  5
24850
 10
-386.002
 20
840.795
 30
0.000000
  70
    32
  0
VERTEX
  8
0
  5
24851
 10
-385.997
 20
840.801
 30
0.000000
  70
    32
  0
VERTEX
  8
0
  5
24852
 10
-385.992
 20
840.807
 30
0.000000
  70
    32
  0
VERTEX
  8
0
  5
24853
 10
-385.987
 20
840.813
 30
0.000000
  70
    32
  0
VERTEX
  8
0
  5
24854
 10
-385.982
 20
840.819
 30
0.000000
  70
    32
  0
VERTEX
  8
0
  5
24855
 10
-385.977
 20
840.825
 30
0.000000
  70
    32
  0
VERTEX
  8
0
  5
24856
 10
-385.972
 20
840.831
 30
0.000000
  70
    32
  0
VERTEX
  8
0
  5
24857
 10
-385.967
 20
840.837
 30
0.000000
  70
    32
  0
VERTEX
  8
0
  5
24858
 10
-385.962
 20
840.843
 30
0.000000
  70
    32
  0
VERTEX
  8
0
  5
24859
 10
-385.957
 20
840.849
 30
0.000000
  70
    32
  0
VERTEX
  8
0
  5
2485A
 10
-385.952
 20
840.855
 30
0.000000
  70
    32
  0
VERTEX
  8
0
  5
2485B
 10
-385.947
 20
840.861
 30
0.000000
  70
    32
  0
VERTEX
  8
0
  5
2485C
 10
-385.942
 20
840.867
 30
0.000000
  70
    32
  0
VERTEX
  8
0
  5
2485D
 10
-385.936
 20
840.873
 30
0.000000
  70
    32
  0
VERTEX
  8
0
  5
2485E
 10
-385.931
 20
840.879
 30
0.000000
  70
    32
  0
VERTEX
  8
0
  5
2485F
 10
-385.926
 20
840.885
 30
0.000000
  70
    32
  0
VERTEX
  8
0
  5
24860
 10
-385.921
 20
840.891
 30
0.000000
  70
    32
  0
VERTEX
  8
0
  5
24861
 10
-385.916
 20
840.897
 30
0.000000
  70
    32
  0
VERTEX
  8
0
  5
24862
 10
-385.911
 20
840.903
 30
0.000000
  70
    32
  0
VERTEX
  8
0
  5
24863
 10
-385.906
 20
840.909
 30
0.000000
  70
    32
  0
VERTEX
  8
0
  5
24864
 10
-385.901
 20
840.915
 30
0.000000
  70
    32
  0
VERTEX
  8
0
  5
24865
 10
-385.896
 20
840.921
 30
0.000000
  70
    32
  0
VERTEX
  8
0
  5
24866
 10
-385.891
 20
840.927
 30
0.000000
  70
    32
  0
VERTEX
  8
0
  5
24867
 10
-385.886
 20
840.933
 30
0.000000
  70
    32
  0
VERTEX
  8
0
  5
24868
 10
-385.881
 20
840.939
 30
0.000000
  70
    32
  0
VERTEX
  8
0
  5
24869
 10
-385.876
 20
840.945
 30
0.000000
  70
    32
  0
VERTEX
  8
0
  5
2486A
 10
-385.871
 20
840.951
 30
0.000000
  70
    32
  0
VERTEX
  8
0
  5
2486B
 10
-385.866
 20
840.957
 30
0.000000
  70
    32
  0
VERTEX
  8
0
  5
2486C
 10
-385.861
 20
840.963
 30
0.000000
  70
    32
  0
VERTEX
  8
0
  5
2486D
 10
-385.856
 20
840.968
 30
0.000000
  70
    32
  0
VERTEX
  8
0
  5
2486E
 10
-385.851
 20
840.974
 30
0.000000
  70
    32
  0
VERTEX
  8
0
  5
2486F
 10
-385.846
 20
840.980
 30
0.000000
  70
    32
  0
VERTEX
  8
0
  5
24870
 10
-385.841
 20
840.986
 30
0.000000
  70
    32
  0
VERTEX
  8
0
  5
24871
 10
-385.836
 20
840.992
 30
0.000000
  70
    32
  0
VERTEX
  8
0
  5
24872
 10
-385.831
 20
840.998
 30
0.000000
  70
    32
  0
VERTEX
  8
0
  5
24873
 10
-385.826
 20
841.004
 30
0.000000
  70
    32
  0
VERTEX
  8
0
  5
24874
 10
-385.821
 20
841.010
 30
0.000000
  70
    32
  0
VERTEX
  8
0
  5
24875
 10
-385.816
 20
841.016
 30
0.000000
  70
    32
  0
VERTEX
  8
0
  5
24876
 10
-385.811
 20
841.022
 30
0.000000
  70
    32
  0
VERTEX
  8
0
  5
24877
 10
-385.806
 20
841.028
 30
0.000000
  70
    32
  0
VERTEX
  8
0
  5
24878
 10
-385.801
 20
841.034
 30
0.000000
  70
    32
  0
VERTEX
  8
0
  5
24879
 10
-385.796
 20
841.040
 30
0.000000
  70
    32
  0
VERTEX
  8
0
  5
2487A
 10
-385.791
 20
841.046
 30
0.000000
  70
    32
  0
VERTEX
  8
0
  5
2487B
 10
-385.786
 20
841.052
 30
0.000000
  70
    32
  0
VERTEX
  8
0
  5
2487C
 10
-385.781
 20
841.058
 30
0.000000
  70
    32
  0
VERTEX
  8
0
  5
2487D
 10
-385.777
 20
841.064
 30
0.000000
  70
    32
  0
VERTEX
  8
0
  5
2487E
 10
-385.772
 20
841.070
 30
0.000000
  70
    32
  0
VERTEX
  8
0
  5
2487F
 10
-385.767
 20
841.076
 30
0.000000
  70
    32
  0
VERTEX
  8
0
  5
24880
 10
-385.762
 20
841.082
 30
0.000000
  70
    32
  0
VERTEX
  8
0
  5
24881
 10
-385.757
 20
841.088
 30
0.000000
  70
    32
  0
VERTEX
  8
0
  5
24882
 10
-385.752
 20
841.094
 30
0.000000
  70
    32
  0
VERTEX
  8
0
  5
24883
 10
-385.748
 20
841.100
 30
0.000000
  70
    32
  0
VERTEX
  8
0
  5
24884
 10
-385.743
 20
841.106
 30
0.000000
  70
    32
  0
VERTEX
  8
0
  5
24885
 10
-385.738
 20
841.112
 30
0.000000
  70
    32
  0
VERTEX
  8
0
  5
24886
 10
-385.733
 20
841.118
 30
0.000000
  70
    32
  0
VERTEX
  8
0
  5
24887
 10
-385.729
 20
841.124
 30
0.000000
  70
    32
  0
VERTEX
  8
0
  5
24888
 10
-385.724
 20
841.130
 30
0.000000
  70
    32
  0
VERTEX
  8
0
  5
24889
 10
-385.719
 20
841.136
 30
0.000000
  70
    32
  0
VERTEX
  8
0
  5
2488A
 10
-385.715
 20
841.142
 30
0.000000
  70
    32
  0
VERTEX
  8
0
  5
2488B
 10
-385.710
 20
841.149
 30
0.000000
  70
    32
  0
VERTEX
  8
0
  5
2488C
 10
-385.705
 20
841.155
 30
0.000000
  70
    32
  0
VERTEX
  8
0
  5
2488D
 10
-385.701
 20
841.161
 30
0.000000
  70
    32
  0
VERTEX
  8
0
  5
2488E
 10
-385.696
 20
841.167
 30
0.000000
  70
    32
  0
VERTEX
  8
0
  5
2488F
 10
-385.692
 20
841.173
 30
0.000000
  70
    32
  0
VERTEX
  8
0
  5
24890
 10
-385.687
 20
841.179
 30
0.000000
  70
    32
  0
VERTEX
  8
0
  5
24891
 10
-385.682
 20
841.185
 30
0.000000
  70
    32
  0
VERTEX
  8
0
  5
24892
 10
-385.678
 20
841.192
 30
0.000000
  70
    32
  0
VERTEX
  8
0
  5
24893
 10
-385.674
 20
841.198
 30
0.000000
  70
    32
  0
VERTEX
  8
0
  5
24894
 10
-385.669
 20
841.204
 30
0.000000
  70
    32
  0
VERTEX
  8
0
  5
24895
 10
-385.665
 20
841.210
 30
0.000000
  70
    32
  0
VERTEX
  8
0
  5
24896
 10
-385.660
 20
841.216
 30
0.000000
  70
    32
  0
VERTEX
  8
0
  5
24897
 10
-385.656
 20
841.223
 30
0.000000
  70
    32
  0
VERTEX
  8
0
  5
24898
 10
-385.652
 20
841.229
 30
0.000000
  70
    32
  0
VERTEX
  8
0
  5
24899
 10
-385.647
 20
841.235
 30
0.000000
  70
    32
  0
VERTEX
  8
0
  5
2489A
 10
-385.643
 20
841.242
 30
0.000000
  70
    32
  0
VERTEX
  8
0
  5
2489B
 10
-385.639
 20
841.248
 30
0.000000
  70
    32
  0
VERTEX
  8
0
  5
2489C
 10
-385.634
 20
841.254
 30
0.000000
  70
    32
  0
VERTEX
  8
0
  5
2489D
 10
-385.630
 20
841.261
 30
0.000000
  70
    32
  0
VERTEX
  8
0
  5
2489E
 10
-385.626
 20
841.267
 30
0.000000
  70
    32
  0
VERTEX
  8
0
  5
2489F
 10
-385.622
 20
841.273
 30
0.000000
  70
    32
  0
VERTEX
  8
0
  5
248A0
 10
-385.618
 20
841.280
 30
0.000000
  70
    32
  0
VERTEX
  8
0
  5
248A1
 10
-385.614
 20
841.286
 30
0.000000
  70
    32
  0
VERTEX
  8
0
  5
248A2
 10
-385.610
 20
841.293
 30
0.000000
  70
    32
  0
VERTEX
  8
0
  5
248A3
 10
-385.606
 20
841.299
 30
0.000000
  70
    32
  0
VERTEX
  8
0
  5
248A4
 10
-385.602
 20
841.305
 30
0.000000
  70
    32
  0
VERTEX
  8
0
  5
248A5
 10
-385.598
 20
841.312
 30
0.000000
  70
    32
  0
VERTEX
  8
0
  5
248A6
 10
-385.594
 20
841.318
 30
0.000000
  70
    32
  0
VERTEX
  8
0
  5
248A7
 10
-385.590
 20
841.325
 30
0.000000
  70
    32
  0
VERTEX
  8
0
  5
248A8
 10
-385.586
 20
841.332
 30
0.000000
  70
    32
  0
VERTEX
  8
0
  5
248A9
 10
-385.582
 20
841.338
 30
0.000000
  70
    32
  0
VERTEX
  8
0
  5
248AA
 10
-385.578
 20
841.345
 30
0.000000
  70
    32
  0
VERTEX
  8
0
  5
248AB
 10
-385.574
 20
841.351
 30
0.000000
  70
    32
  0
VERTEX
  8
0
  5
248AC
 10
-385.571
 20
841.358
 30
0.000000
  70
    32
  0
VERTEX
  8
0
  5
248AD
 10
-385.567
 20
841.365
 30
0.000000
  70
    32
  0
VERTEX
  8
0
  5
248AE
 10
-385.563
 20
841.371
 30
0.000000
  70
    32
  0
VERTEX
  8
0
  5
248AF
 10
-385.560
 20
841.378
 30
0.000000
  70
    32
  0
VERTEX
  8
0
  5
248B0
 10
-385.556
 20
841.385
 30
0.000000
  70
    32
  0
VERTEX
  8
0
  5
248B1
 10
-385.553
 20
841.392
 30
0.000000
  70
    32
  0
VERTEX
  8
0
  5
248B2
 10
-385.549
 20
841.398
 30
0.000000
  70
    32
  0
VERTEX
  8
0
  5
248B3
 10
-385.546
 20
841.405
 30
0.000000
  70
    32
  0
VERTEX
  8
0
  5
248B4
 10
-385.542
 20
841.412
 30
0.000000
  70
    32
  0
VERTEX
  8
0
  5
248B5
 10
-385.539
 20
841.419
 30
0.000000
  70
    32
  0
VERTEX
  8
0
  5
248B6
 10
-385.536
 20
841.426
 30
0.000000
  70
    32
  0
VERTEX
  8
0
  5
248B7
 10
-385.532
 20
841.433
 30
0.000000
  70
    32
  0
VERTEX
  8
0
  5
248B8
 10
-385.529
 20
841.440
 30
0.000000
  70
    32
  0
VERTEX
  8
0
  5
248B9
 10
-385.526
 20
841.447
 30
0.000000
  70
    32
  0
VERTEX
  8
0
  5
248BA
 10
-385.523
 20
841.453
 30
0.000000
  70
    32
  0
VERTEX
  8
0
  5
248BB
 10
-385.519
 20
841.460
 30
0.000000
  70
    32
  0
VERTEX
  8
0
  5
248BC
 10
-385.516
 20
841.468
 30
0.000000
  70
    32
  0
VERTEX
  8
0
  5
248BD
 10
-385.513
 20
841.475
 30
0.000000
  70
    32
  0
VERTEX
  8
0
  5
248BE
 10
-385.510
 20
841.482
 30
0.000000
  70
    32
  0
VERTEX
  8
0
  5
248BF
 10
-385.507
 20
841.489
 30
0.000000
  70
    32
  0
VERTEX
  8
0
  5
248C0
 10
-385.505
 20
841.496
 30
0.000000
  70
    32
  0
VERTEX
  8
0
  5
248C1
 10
-385.502
 20
841.503
 30
0.000000
  70
    32
  0
VERTEX
  8
0
  5
248C2
 10
-385.499
 20
841.510
 30
0.000000
  70
    32
  0
VERTEX
  8
0
  5
248C3
 10
-385.496
 20
841.517
 30
0.000000
  70
    32
  0
VERTEX
  8
0
  5
248C4
 10
-385.494
 20
841.525
 30
0.000000
  70
    32
  0
VERTEX
  8
0
  5
248C5
 10
-385.491
 20
841.532
 30
0.000000
  70
    32
  0
VERTEX
  8
0
  5
248C6
 10
-385.488
 20
841.539
 30
0.000000
  70
    32
  0
VERTEX
  8
0
  5
248C7
 10
-385.486
 20
841.546
 30
0.000000
  70
    32
  0
VERTEX
  8
0
  5
248C8
 10
-385.483
 20
841.554
 30
0.000000
  70
    32
  0
VERTEX
  8
0
  5
248C9
 10
-385.481
 20
841.561
 30
0.000000
  70
    32
  0
VERTEX
  8
0
  5
248CA
 10
-385.479
 20
841.568
 30
0.000000
  70
    32
  0
VERTEX
  8
0
  5
248CB
 10
-385.476
 20
841.576
 30
0.000000
  70
    32
  0
VERTEX
  8
0
  5
248CC
 10
-385.474
 20
841.583
 30
0.000000
  70
    32
  0
VERTEX
  8
0
  5
248CD
 10
-385.472
 20
841.590
 30
0.000000
  70
    32
  0
VERTEX
  8
0
  5
248CE
 10
-385.470
 20
841.598
 30
0.000000
  70
    32
  0
VERTEX
  8
0
  5
248CF
 10
-385.468
 20
841.605
 30
0.000000
  70
    32
  0
VERTEX
  8
0
  5
248D0
 10
-385.466
 20
841.613
 30
0.000000
  70
    32
  0
VERTEX
  8
0
  5
248D1
 10
-385.464
 20
841.620
 30
0.000000
  70
    32
  0
VERTEX
  8
0
  5
248D2
 10
-385.462
 20
841.628
 30
0.000000
  70
    32
  0
VERTEX
  8
0
  5
248D3
 10
-385.461
 20
841.635
 30
0.000000
  70
    32
  0
VERTEX
  8
0
  5
248D4
 10
-385.459
 20
841.643
 30
0.000000
  70
    32
  0
VERTEX
  8
0
  5
248D5
 10
-385.457
 20
841.650
 30
0.000000
  70
    32
  0
VERTEX
  8
0
  5
248D6
 10
-385.456
 20
841.658
 30
0.000000
  70
    32
  0
VERTEX
  8
0
  5
248D7
 10
-385.454
 20
841.665
 30
0.000000
  70
    32
  0
VERTEX
  8
0
  5
248D8
 10
-385.453
 20
841.673
 30
0.000000
  70
    32
  0
VERTEX
  8
0
  5
248D9
 10
-385.452
 20
841.680
 30
0.000000
  70
    32
  0
VERTEX
  8
0
  5
248DA
 10
-385.451
 20
841.688
 30
0.000000
  70
    32
  0
VERTEX
  8
0
  5
248DB
 10
-385.449
 20
841.696
 30
0.000000
  70
    32
  0
VERTEX
  8
0
  5
248DC
 10
-385.448
 20
841.703
 30
0.000000
  70
    32
  0
VERTEX
  8
0
  5
248DD
 10
-385.447
 20
841.711
 30
0.000000
  70
    32
  0
VERTEX
  8
0
  5
248DE
 10
-385.446
 20
841.719
 30
0.000000
  70
    32
  0
VERTEX
  8
0
  5
248DF
 10
-385.446
 20
841.726
 30
0.000000
  70
    32
  0
VERTEX
  8
0
  5
248E0
 10
-385.445
 20
841.734
 30
0.000000
  70
    32
  0
VERTEX
  8
0
  5
248E1
 10
-385.444
 20
841.742
 30
0.000000
  70
    32
  0
VERTEX
  8
0
  5
248E2
 10
-385.443
 20
841.750
 30
0.000000
  70
    32
  0
VERTEX
  8
0
  5
248E3
 10
-385.443
 20
841.757
 30
0.000000
  70
    32
  0
VERTEX
  8
0
  5
248E4
 10
-385.443
 20
841.765
 30
0.000000
  70
    32
  0
VERTEX
  8
0
  5
248E5
 10
-385.442
 20
841.773
 30
0.000000
  70
    32
  0
VERTEX
  8
0
  5
248E6
 10
-385.442
 20
841.781
 30
0.000000
  70
    32
  0
VERTEX
  8
0
  5
248E7
 10
-385.442
 20
841.788
 30
0.000000
  70
    32
  0
VERTEX
  8
0
  5
248E8
 10
-385.442
 20
841.796
 30
0.000000
  70
    32
  0
VERTEX
  8
0
  5
248E9
 10
-385.442
 20
841.804
 30
0.000000
  70
    32
  0
VERTEX
  8
0
  5
248EA
 10
-385.442
 20
841.812
 30
0.000000
  70
    32
  0
VERTEX
  8
0
  5
248EB
 10
-385.442
 20
841.820
 30
0.000000
  70
    32
  0
VERTEX
  8
0
  5
248EC
 10
-385.442
 20
841.827
 30
0.000000
  70
    32
  0
VERTEX
  8
0
  5
248ED
 10
-385.443
 20
841.835
 30
0.000000
  70
    32
  0
VERTEX
  8
0
  5
248EE
 10
-385.443
 20
841.843
 30
0.000000
  70
    32
  0
VERTEX
  8
0
  5
248EF
 10
-385.444
 20
841.851
 30
0.000000
  70
    32
  0
VERTEX
  8
0
  5
248F0
 10
-385.444
 20
841.859
 30
0.000000
  70
    32
  0
VERTEX
  8
0
  5
248F1
 10
-385.445
 20
841.866
 30
0.000000
  70
    32
  0
VERTEX
  8
0
  5
248F2
 10
-385.446
 20
841.874
 30
0.000000
  70
    32
  0
VERTEX
  8
0
  5
248F3
 10
-385.447
 20
841.882
 30
0.000000
  70
    32
  0
VERTEX
  8
0
  5
248F4
 10
-385.448
 20
841.890
 30
0.000000
  70
    32
  0
VERTEX
  8
0
  5
248F5
 10
-385.449
 20
841.898
 30
0.000000
  70
    32
  0
VERTEX
  8
0
  5
248F6
 10
-385.450
 20
841.905
 30
0.000000
  70
    32
  0
VERTEX
  8
0
  5
248F7
 10
-385.451
 20
841.913
 30
0.000000
  70
    32
  0
VERTEX
  8
0
  5
248F8
 10
-385.453
 20
841.921
 30
0.000000
  70
    32
  0
VERTEX
  8
0
  5
248F9
 10
-385.454
 20
841.928
 30
0.000000
  70
    32
  0
VERTEX
  8
0
  5
248FA
 10
-385.456
 20
841.936
 30
0.000000
  70
    32
  0
VERTEX
  8
0
  5
248FB
 10
-385.458
 20
841.944
 30
0.000000
  70
    32
  0
VERTEX
  8
0
  5
248FC
 10
-385.459
 20
841.951
 30
0.000000
  70
    32
  0
VERTEX
  8
0
  5
248FD
 10
-385.461
 20
841.959
 30
0.000000
  70
    32
  0
VERTEX
  8
0
  5
248FE
 10
-385.463
 20
841.966
 30
0.000000
  70
    32
  0
VERTEX
  8
0
  5
248FF
 10
-385.465
 20
841.974
 30
0.000000
  70
    32
  0
VERTEX
  8
0
  5
24900
 10
-385.467
 20
841.981
 30
0.000000
  70
    32
  0
VERTEX
  8
0
  5
24901
 10
-385.470
 20
841.989
 30
0.000000
  70
    32
  0
VERTEX
  8
0
  5
24902
 10
-385.472
 20
841.996
 30
0.000000
  70
    32
  0
VERTEX
  8
0
  5
24903
 10
-385.474
 20
842.004
 30
0.000000
  70
    32
  0
VERTEX
  8
0
  5
24904
 10
-385.477
 20
842.011
 30
0.000000
  70
    32
  0
VERTEX
  8
0
  5
24905
 10
-385.480
 20
842.018
 30
0.000000
  70
    32
  0
VERTEX
  8
0
  5
24906
 10
-385.482
 20
842.025
 30
0.000000
  70
    32
  0
VERTEX
  8
0
  5
24907
 10
-385.485
 20
842.033
 30
0.000000
  70
    32
  0
VERTEX
  8
0
  5
24908
 10
-385.488
 20
842.040
 30
0.000000
  70
    32
  0
VERTEX
  8
0
  5
24909
 10
-385.491
 20
842.047
 30
0.000000
  70
    32
  0
VERTEX
  8
0
  5
2490A
 10
-385.495
 20
842.054
 30
0.000000
  70
    32
  0
VERTEX
  8
0
  5
2490B
 10
-385.498
 20
842.061
 30
0.000000
  70
    32
  0
VERTEX
  8
0
  5
2490C
 10
-385.501
 20
842.068
 30
0.000000
  70
    32
  0
VERTEX
  8
0
  5
2490D
 10
-385.505
 20
842.075
 30
0.000000
  70
    32
  0
VERTEX
  8
0
  5
2490E
 10
-385.508
 20
842.082
 30
0.000000
  70
    32
  0
VERTEX
  8
0
  5
2490F
 10
-385.512
 20
842.088
 30
0.000000
  70
    32
  0
VERTEX
  8
0
  5
24910
 10
-385.516
 20
842.095
 30
0.000000
  70
    32
  0
VERTEX
  8
0
  5
24911
 10
-385.520
 20
842.102
 30
0.000000
  70
    32
  0
VERTEX
  8
0
  5
24912
 10
-385.524
 20
842.108
 30
0.000000
  70
    32
  0
VERTEX
  8
0
  5
24913
 10
-385.528
 20
842.115
 30
0.000000
  70
    32
  0
VERTEX
  8
0
  5
24914
 10
-385.532
 20
842.121
 30
0.000000
  70
    32
  0
VERTEX
  8
0
  5
24915
 10
-385.537
 20
842.128
 30
0.000000
  70
    32
  0
VERTEX
  8
0
  5
24916
 10
-385.541
 20
842.134
 30
0.000000
  70
    32
  0
VERTEX
  8
0
  5
24917
 10
-385.546
 20
842.140
 30
0.000000
  70
    32
  0
VERTEX
  8
0
  5
24918
 10
-385.550
 20
842.146
 30
0.000000
  70
    32
  0
VERTEX
  8
0
  5
24919
 10
-385.555
 20
842.152
 30
0.000000
  70
    32
  0
VERTEX
  8
0
  5
2491A
 10
-385.560
 20
842.158
 30
0.000000
  70
    32
  0
VERTEX
  8
0
  5
2491B
 10
-385.565
 20
842.164
 30
0.000000
  70
    32
  0
VERTEX
  8
0
  5
2491C
 10
-385.570
 20
842.170
 30
0.000000
  70
    32
  0
VERTEX
  8
0
  5
2491D
 10
-385.575
 20
842.176
 30
0.000000
  70
    32
  0
VERTEX
  8
0
  5
2491E
 10
-385.580
 20
842.181
 30
0.000000
  70
    32
  0
VERTEX
  8
0
  5
2491F
 10
-385.586
 20
842.187
 30
0.000000
  70
    32
  0
VERTEX
  8
0
  5
24920
 10
-385.591
 20
842.193
 30
0.000000
  70
    32
  0
VERTEX
  8
0
  5
24921
 10
-385.597
 20
842.198
 30
0.000000
  70
    32
  0
VERTEX
  8
0
  5
24922
 10
-385.602
 20
842.203
 30
0.000000
  70
    32
  0
VERTEX
  8
0
  5
24923
 10
-385.608
 20
842.208
 30
0.000000
  70
    32
  0
VERTEX
  8
0
  5
24924
 10
-385.614
 20
842.214
 30
0.000000
  70
    32
  0
VERTEX
  8
0
  5
24925
 10
-385.620
 20
842.219
 30
0.000000
  70
    32
  0
VERTEX
  8
0
  5
24926
 10
-385.626
 20
842.223
 30
0.000000
  70
    32
  0
VERTEX
  8
0
  5
24927
 10
-385.632
 20
842.228
 30
0.000000
  70
    32
  0
VERTEX
  8
0
  5
24928
 10
-385.638
 20
842.233
 30
0.000000
  70
    32
  0
VERTEX
  8
0
  5
24929
 10
-385.644
 20
842.238
 30
0.000000
  70
    32
  0
VERTEX
  8
0
  5
2492A
 10
-385.650
 20
842.242
 30
0.000000
  70
    32
  0
VERTEX
  8
0
  5
2492B
 10
-385.657
 20
842.246
 30
0.000000
  70
    32
  0
VERTEX
  8
0
  5
2492C
 10
-385.663
 20
842.251
 30
0.000000
  70
    32
  0
VERTEX
  8
0
  5
2492D
 10
-385.669
 20
842.255
 30
0.000000
  70
    32
  0
VERTEX
  8
0
  5
2492E
 10
-385.676
 20
842.259
 30
0.000000
  70
    32
  0
VERTEX
  8
0
  5
2492F
 10
-385.683
 20
842.263
 30
0.000000
  70
    32
  0
VERTEX
  8
0
  5
24930
 10
-385.689
 20
842.267
 30
0.000000
  70
    32
  0
VERTEX
  8
0
  5
24931
 10
-385.696
 20
842.270
 30
0.000000
  70
    32
  0
SEQEND
  8
0
  5
24932
  0
ARC
  5
23FE7
  8
0
 10
-386.3495326221805
 20
839.86884258426278
 30
0.0
 40
0.3151255746115558
 50
269.8713881076846
 51
90.0
  0
ARC
  5
23FE8
  8
0
 10
-386.33211824681558
 20
839.02683930758315
 30
0.0
 40
0.3776234922651207
 50
92.750618092001005
 51
170.0918027348917
  0
LINE
  5
23FE9
  8
0
 10
-386.35023998427198
 20
839.40402772806044
 30
0.0
 11
-386.35023998427198
 21
839.55371780355995
 31
0.0
  0
LINE
  5
23FEA
  8
0
 10
-386.70410937831798
 20
838.95479150895585
 30
0.0
 11
-386.70410937831798
 21
839.09181699601572
 31
0.0
  0
LINE
  5
23FEB
  8
0
 10
-387.04018109563958
 20
838.95479150895562
 30
0.0
 11
-386.70410937831798
 21
838.95479150895585
 31
0.0
  0
LINE
  5
23FEC
  8
0
 10
-386.96016401554908
 20
842.52675857701411
 30
0.0
 11
-386.96016401554908
 21
839.71829112669889
 31
0.0
  0
LINE
  5
23FED
  8
0
 10
-387.04018109563958
 20
843.20476137832225
 30
0.0
 11
-387.04018109563958
 21
842.60677565710466
 31
0.0
  0
LINE
  5
23FEE
  8
0
 10
-385.69589423826511
 20
842.33981775095856
 30
0.0
 11
-385.69589423826511
 21
842.27040870681151
 31
0.0
  0
LINE
  5
23FEF
  8
0
 10
-385.42917065781609
 20
842.33981775095856
 30
0.0
 11
-385.69589423826511
 21
842.33981775095856
 31
0.0
  0
LINE
  5
23FF0
  8
0
 10
-385.42917065781609
 20
843.20476137832225
 30
0.0
 11
-385.42917065781609
 21
842.33981775095856
 31
0.0
  0
LINE
  5
23FF1
  8
0
 10
-387.04018109563958
 20
843.20476137832225
 30
0.0
 11
-385.42917065781609
 21
843.20476137832225
 31
0.0
  0
VIEWPORT
  5
BADA
 67
     1
  8
0
 10
5.2498666443542197
 20
4.0168606514874199
 30
0.0
 40
16.259611459837419
 41
8.0159429045697088
 68
     2
 69
     1
1001
ACAD
1000
MVIEW
1002
{
1070
    16
1010
0.0
1020
0.0
1030
0.0
1010
0.0
1020
0.0
1030
1.0
1040
0.0
1040
8.0159429045697088
1040
5.2498666443542197
1040
4.0168606514874199
1040
50.0
1040
0.0
1040
0.0
1070
     0
1070
   100
1070
     1
1070
     1
1070
     0
1070
     0
1070
     0
1070
     0
1040
0.0
1040
0.0
1040
0.0
1040
0.5
1040
0.5
1040
0.5
1040
0.5
1070
     0
1002
{
1002
}
1002
}
  0
VIEWPORT
  5
BADD
 67
     1
  8
0
 10
5.249999629487192
 20
4.0166741807634683
 30
0.0
 40
10.44245679893058
 41
7.8813805131999892
 68
     1
 69
     2
1001
ACAD
1000
MVIEW
1002
{
1070
    16
1010
0.0
1020
0.0
1030
0.0
1010
0.0
1020
0.0
1030
1.0
1040
0.0
1040
7.8813805131999892
1040
-385.35664407640701
1040
841.0898081338986
1040
50.0
1040
0.0
1040
0.0
1070
     0
1070
   100
1070
     1
1070
     2
1070
     0
1070
     0
1070
     0
1070
     0
1040
0.0
1040
0.0
1040
0.0
1040
0.5
1040
0.5
1040
0.5
1040
0.5
1070
     0
1002
{
1002
}
1002
}
  0
ENDSEC
  0
EOF
