  0
SECTION
  2
HEADER
  9
$ACADVER
  1
AC1009
  9
$INSBASE
 10
0.0
 20
0.0
 30
0.0
  9
$EXTMIN
 10
-388.63730003374792
 20
838.51859394248947
 30
-0.0000000349181948
  9
$EXTMAX
 10
-381.88730003374792
 20
843.11146864794432
 30
0.0000000814935746
  9
$LIMMIN
 10
0.0
 20
0.0
  9
$LIMMAX
 10
1500.0
 20
1500.0
  9
$ORTHOMODE
 70
     0
  9
$REGENMODE
 70
     1
  9
$FILLMODE
 70
     1
  9
$QTEXTMODE
 70
     0
  9
$MIRRTEXT
 70
     1
  9
$DRAGMODE
 70
     2
  9
$LTSCALE
 40
1.0
  9
$OSMODE
 70
    37
  9
$ATTMODE
 70
     1
  9
$TEXTSIZE
 40
1.5
  9
$TRACEWID
 40
0.05
  9
$TEXTSTYLE
  7
STANDARD
  9
$CLAYER
  8
0
  9
$CELTYPE
  6
BYLAYER
  9
$CECOLOR
 62
   256
  9
$DIMSCALE
 40
1.0
  9
$DIMASZ
 40
0.75
  9
$DIMEXO
 40
1.5
  9
$DIMDLI
 40
2.0
  9
$DIMRND
 40
0.0
  9
$DIMDLE
 40
0.0
  9
$DIMEXE
 40
1.0
  9
$DIMTP
 40
0.0
  9
$DIMTM
 40
0.0
  9
$DIMTXT
 40
1.5
  9
$DIMCEN
 40
2.0
  9
$DIMTSZ
 40
0.0
  9
$DIMTOL
 70
     0
  9
$DIMLIM
 70
     0
  9
$DIMTIH
 70
     0
  9
$DIMTOH
 70
     0
  9
$DIMSE1
 70
     0
  9
$DIMSE2
 70
     0
  9
$DIMTAD
 70
     1
  9
$DIMZIN
 70
     0
  9
$DIMBLK
  1
ARCHTICK
  9
$DIMASO
 70
     1
  9
$DIMSHO
 70
     1
  9
$DIMPOST
  1
"
  9
$DIMAPOST
  1

  9
$DIMALT
 70
     0
  9
$DIMALTD
 70
     2
  9
$DIMALTF
 40
25.399999999999999
  9
$DIMLFAC
 40
1.0
  9
$DIMTOFL
 70
     0
  9
$DIMTVP
 40
0.0
  9
$DIMTIX
 70
     1
  9
$DIMSOXD
 70
     0
  9
$DIMSAH
 70
     0
  9
$DIMBLK1
  1

  9
$DIMBLK2
  1

  9
$DIMSTYLE
  2
THREE_QUARTER_INCH_SCALE
  9
$DIMCLRD
 70
     0
  9
$DIMCLRE
 70
     0
  9
$DIMCLRT
 70
     0
  9
$DIMTFAC
 40
1.0
  9
$DIMGAP
 40
1.0
  9
$LUNITS
 70
     2
  9
$LUPREC
 70
     4
  9
$SKETCHINC
 40
0.1
  9
$FILLETRAD
 40
0.0
  9
$AUNITS
 70
     0
  9
$AUPREC
 70
     0
  9
$MENU
  1
.
  9
$ELEVATION
 40
0.0
  9
$PELEVATION
 40
0.0
  9
$THICKNESS
 40
0.0
  9
$LIMCHECK
 70
     0
  9
$BLIPMODE
 70
     0
  9
$CHAMFERA
 40
0.5
  9
$CHAMFERB
 40
0.5
  9
$SKPOLY
 70
     0
  9
$TDCREATE
 40
2452089.395738773
  9
$TDUPDATE
 40
2453609.6074896879
  9
$TDINDWG
 40
1.115810081
  9
$TDUSRTIMER
 40
1.115810081
  9
$USRTIMER
 70
     1
  9
$ANGBASE
 50
0.0
  9
$ANGDIR
 70
     0
  9
$PDMODE
 70
     0
  9
$PDSIZE
 40
10.0
  9
$PLINEWID
 40
0.0
  9
$COORDS
 70
     1
  9
$SPLFRAME
 70
     0
  9
$SPLINETYPE
 70
     6
  9
$SPLINESEGS
 70
     8
  9
$ATTDIA
 70
     0
  9
$ATTREQ
 70
     1
  9
$HANDLING
 70
     1
  9
$HANDSEED
  5
146C9
  9
$SURFTAB1
 70
     6
  9
$SURFTAB2
 70
     6
  9
$SURFTYPE
 70
     6
  9
$SURFU
 70
     6
  9
$SURFV
 70
     6
  9
$UCSNAME
  2

  9
$UCSORG
 10
0.0
 20
0.0
 30
0.0
  9
$UCSXDIR
 10
1.0
 20
0.0
 30
0.0
  9
$UCSYDIR
 10
0.0
 20
1.0
 30
0.0
  9
$PUCSNAME
  2

  9
$PUCSORG
 10
0.0
 20
0.0
 30
0.0
  9
$PUCSXDIR
 10
1.0
 20
0.0
 30
0.0
  9
$PUCSYDIR
 10
0.0
 20
1.0
 30
0.0
  9
$USERI1
 70
     0
  9
$USERI2
 70
     0
  9
$USERI3
 70
     0
  9
$USERI4
 70
     0
  9
$USERI5
 70
     0
  9
$USERR1
 40
0.0
  9
$USERR2
 40
0.0
  9
$USERR3
 40
0.0
  9
$USERR4
 40
0.0
  9
$USERR5
 40
0.0
  9
$WORLDVIEW
 70
     1
  9
$SHADEDGE
 70
     3
  9
$SHADEDIF
 70
    70
  9
$TILEMODE
 70
     0
  9
$MAXACTVP
 70
    64
  9
$PLIMCHECK
 70
     0
  9
$PEXTMIN
 10
0.0282895744820664
 20
0.0759353784799721
 30
-0.0015258207003583
  9
$PEXTMAX
 10
10.471709755853
 20
7.9577863512286546
 30
0.0000000349246037
  9
$PLIMMIN
 10
-0.2500002402958907
 20
-0.2499999962453767
  9
$PLIMMAX
 10
10.74999951940821
 20
8.2499997634587316
  9
$UNITMODE
 70
     0
  9
$VISRETAIN
 70
     1
  9
$PLINEGEN
 70
     0
  9
$PSLTSCALE
 70
     1
  0
ENDSEC
  0
SECTION
  2
TABLES
  0
TABLE
  2
VPORT
 70
     1
  0
VPORT
  2
*ACTIVE
 70
     0
 10
0.0
 20
0.0
 11
1.0
 21
1.0
 12
-385.78409896863661
 22
840.59566587302641
 13
0.0
 23
0.0
 14
0.5
 24
0.5
 15
0.5
 25
0.5
 16
0.0
 26
0.0
 36
1.0
 17
0.0
 27
0.0
 37
0.0
 40
5.8992019951828061
 41
2.0284090909090899
 42
50.0
 43
0.0
 44
0.0
 50
0.0
 51
0.0
 71
     0
 72
   100
 73
     1
 74
     2
 75
     0
 76
     0
 77
     0
 78
     0
  0
ENDTAB
  0
TABLE
  2
LTYPE
 70
     1
  0
LTYPE
  2
CONTINUOUS
 70
     0
  3
Solid line
 72
    65
 73
     0
 40
0.0
  0
ENDTAB
  0
TABLE
  2
LAYER
 70
    10
  0
LAYER
  2
0
 70
     0
 62
     7
  6
CONTINUOUS
  0
LAYER
  2
DEFPOINTS
 70
     0
 62
     7
  6
CONTINUOUS
  0
LAYER
  2
FRAME_200
 70
     0
 62
     8
  6
CONTINUOUS
  0
LAYER
  2
FRAME_070
 70
     0
 62
     5
  6
CONTINUOUS
  0
LAYER
  2
FRAME_050
 70
     0
 62
     6
  6
CONTINUOUS
  0
LAYER
  2
TITLE_BLOCK
 70
     0
 62
     7
  6
CONTINUOUS
  0
LAYER
  2
FRAME_025
 70
     0
 62
     7
  6
CONTINUOUS
  0
LAYER
  2
VIEWPORT
 70
     0
 62
     7
  6
CONTINUOUS
  0
LAYER
  2
PROF
 70
     0
 62
     7
  6
CONTINUOUS
  0
LAYER
  2
PROFILE
 70
     0
 62
     7
  6
CONTINUOUS
  0
ENDTAB
  0
TABLE
  2
STYLE
 70
     2
  0
STYLE
  2
STANDARD
 70
     0
 40
0.0
 41
1.0
 50
0.0
 71
     0
 42
1.5
  3
txt
  4

  0
STYLE
  2
ISO_PROPORTIONAL
 70
     0
 40
0.0
 41
1.0
 50
0.0
 71
     0
 42
2.5
  3
isocp.shx
  4

  0
ENDTAB
  0
TABLE
  2
VIEW
 70
     0
  0
ENDTAB
  0
TABLE
  2
UCS
 70
     0
  0
ENDTAB
  0
TABLE
  2
APPID
 70
     6
  0
APPID
  2
ACAD
 70
     0
  0
APPID
  2
DCO15
 70
     0
  0
APPID
  2
ACAD_EXEMPT_FROM_CAD_STANDARDS
 70
     0
  0
APPID
  2
ACAD_PSEXT
 70
     0
  0
APPID
  2
CONTENTBLOCKDESCRIPTION
 70
     0
  0
APPID
  2
CONTENTBLOCKICON
 70
     0
  0
ENDTAB
  0
TABLE
  2
DIMSTYLE
 70
     5
  0
DIMSTYLE
  2
FULL_SCALE
 70
     0
  3
"
  4

  5
ARCHTICK
  6

  7

 40
1.0
 41
0.046875
 42
0.09375
 43
0.125
 44
0.0625
 45
0.0
 46
0.0
 47
0.0
 48
0.0
140
0.125
141
0.125
142
0.0
143
25.399999999999999
144
1.0
145
0.0
146
1.0
147
0.0625
 71
     0
 72
     0
 73
     0
 74
     0
 75
     0
 76
     0
 77
     1
 78
     0
170
     0
171
     2
172
     0
173
     0
174
     1
175
     0
176
     0
177
     0
178
     0
  0
DIMSTYLE
  2
HALF_SCALE
 70
     0
  3
"
  4

  5
ARCHTICK
  6

  7

 40
1.0
 41
0.09375
 42
0.1875
 43
0.25
 44
0.125
 45
0.0
 46
0.0
 47
0.0
 48
0.0
140
0.25
141
0.25
142
0.0
143
25.399999999999999
144
1.0
145
0.0
146
1.0
147
0.125
 71
     0
 72
     0
 73
     0
 74
     0
 75
     0
 76
     0
 77
     1
 78
     0
170
     0
171
     2
172
     0
173
     0
174
     1
175
     0
176
     0
177
     0
178
     0
  0
DIMSTYLE
  2
INCH_SCALE
 70
     0
  3
"
  4

  5
ARCHTICK
  6

  7

 40
1.0
 41
0.5625
 42
1.125
 43
1.5
 44
0.75
 45
0.0
 46
0.0
 47
0.0
 48
0.0
140
1.125
141
1.5
142
0.0
143
25.399999999999999
144
1.0
145
0.0
146
1.0
147
0.75
 71
     0
 72
     0
 73
     0
 74
     0
 75
     0
 76
     0
 77
     1
 78
     0
170
     0
171
     2
172
     0
173
     0
174
     1
175
     0
176
     0
177
     0
178
     0
  0
DIMSTYLE
  2
THREE_QUARTER_INCH_SCALE
 70
     0
  3
"
  4

  5
ARCHTICK
  6

  7

 40
1.0
 41
0.75
 42
1.5
 43
2.0
 44
1.0
 45
0.0
 46
0.0
 47
0.0
 48
0.0
140
1.5
141
2.0
142
0.0
143
25.399999999999999
144
1.0
145
0.0
146
1.0
147
1.0
 71
     0
 72
     0
 73
     0
 74
     0
 75
     0
 76
     0
 77
     1
 78
     0
170
     0
171
     2
172
     0
173
     0
174
     1
175
     0
176
     0
177
     0
178
     0
  0
DIMSTYLE
  2
ZHALF_INCH_SCALE
 70
     0
  3
"
  4

  5
ARCHTICK
  6

  7

 40
1.0
 41
1.125
 42
2.25
 43
3.0
 44
1.5
 45
0.0
 46
0.0
 47
0.0
 48
0.0
140
2.25
141
3.0
142
0.0
143
25.399999999999999
144
1.0
145
0.0
146
1.0
147
1.5
 71
     0
 72
     0
 73
     0
 74
     0
 75
     0
 76
     0
 77
     1
 78
     0
170
     0
171
     2
172
     0
173
     0
174
     1
175
     0
176
     0
177
     0
178
     0
  0
ENDTAB
  0
ENDSEC
  0
SECTION
  2
BLOCKS
  0
BLOCK
  8
0
  2
$MODEL_SPACE
 70
     0
 10
0.0
 20
0.0
 30
0.0
  3
$MODEL_SPACE
  1

  0
ENDBLK
  5
21
  8
0
  0
BLOCK
 67
     1
  8
0
  2
$PAPER_SPACE
 70
     0
 10
0.0
 20
0.0
 30
0.0
  3
$PAPER_SPACE
  1

  0
ENDBLK
  5
BAD5
 67
     1
  8
0
  0
BLOCK
  8
0
  2
_ARCHTICK
 70
     0
 10
0.0
 20
0.0
 30
0.0
  3
_ARCHTICK
  1

  0
POLYLINE
  5
158
  8
0
  6
BYBLOCK
 62
     0
 66
     1
 10
0.0
 20
0.0
 30
0.0
 40
0.15
 41
0.15
  0
VERTEX
  5
144FA
  8
0
  6
BYBLOCK
 62
     0
 10
-0.5
 20
-0.5
 30
0.0
  0
VERTEX
  5
144FB
  8
0
  6
BYBLOCK
 62
     0
 10
0.5
 20
0.5
 30
0.0
  0
SEQEND
  5
144FC
  8
0
  6
BYBLOCK
 62
     0
  0
ENDBLK
  5
15A
  8
0
  0
BLOCK
  8
0
  2
_OPEN30
 70
     0
 10
0.0
 20
0.0
 30
0.0
  3
_OPEN30
  1

  0
LINE
  5
15C
  8
0
  6
BYBLOCK
 62
     0
 10
-1.0
 20
0.26794919
 30
0.0
 11
0.0
 21
0.0
 31
0.0
  0
LINE
  5
15D
  8
0
  6
BYBLOCK
 62
     0
 10
0.0
 20
0.0
 30
0.0
 11
-1.0
 21
-0.26794919
 31
0.0
  0
LINE
  5
15E
  8
0
  6
BYBLOCK
 62
     0
 10
0.0
 20
0.0
 30
0.0
 11
-1.0
 21
0.0
 31
0.0
  0
ENDBLK
  5
160
  8
0
  0
BLOCK
  8
0
  2
ISO_A2_TITLE_BLOCK
 70
     2
 10
0.0
 20
0.0
 30
0.0
  3
ISO_A2_TITLE_BLOCK
  1

  0
LINE
  5
BDD
  8
FRAME_050
 10
299.5
 20
12.5
 30
0.0
 11
297.0
 21
7.5
 31
0.0
  0
LINE
  5
BDE
  8
FRAME_050
 10
294.5
 20
12.5
 30
0.0
 11
299.5
 21
12.5
 31
0.0
  0
LINE
  5
BDF
  8
FRAME_050
 10
247.0
 20
5.0
 30
0.0
 11
347.0
 21
5.0
 31
0.0
  0
LINE
  5
BE0
  8
FRAME_070
 10
584.0
 20
410.0
 30
0.0
 11
10.0
 21
410.0
 31
0.0
  0
LINE
  5
BE1
  8
FRAME_070
 10
10.0
 20
10.0
 30
0.0
 11
584.0
 21
10.0
 31
0.0
  0
LINE
  5
BE2
  8
FRAME_050
 10
12.5
 20
207.5
 30
0.0
 11
7.5
 21
210.0
 31
0.0
  0
LINE
  5
BE3
  8
FRAME_050
 10
12.5
 20
212.5
 30
0.0
 11
12.5
 21
207.5
 31
0.0
  0
LINE
  5
BE4
  8
FRAME_070
 10
10.0
 20
410.0
 30
0.0
 11
10.0
 21
10.0
 31
0.0
  0
LINE
  5
BE5
  8
FRAME_200
 10
0.0
 20
0.0
 30
0.0
 11
0.0
 21
10.0
 31
0.0
  0
LINE
  5
BE6
  8
FRAME_200
 10
0.0
 20
0.0
 30
0.0
 11
10.0
 21
0.0
 31
0.0
  0
TEXT
  5
BE7
  8
FRAME_050
 10
5.9000000000000004
 20
35.0
 30
0.0
 40
4.0
  1
H
  7
ISO_PROPORTIONAL
 72
     4
 11
7.5
 21
37.0
 31
0.0
  0
LINE
  5
BE8
  8
FRAME_050
 10
10.0
 20
60.0
 30
0.0
 11
5.0
 21
60.0
 31
0.0
  0
LINE
  5
BE9
  8
FRAME_050
 10
81.75
 20
5.0
 30
0.0
 11
81.75
 21
10.0
 31
0.0
  0
TEXT
  5
BEA
  8
FRAME_050
 10
44.874999999999993
 20
5.5
 30
0.0
 40
4.0
  1
1
  7
ISO_PROPORTIONAL
 72
     4
 11
45.875
 21
7.5
 31
0.0
  0
TEXT
  5
BEB
  8
FRAME_050
 10
6.0035533905932743
 20
85.0
 30
0.0
 40
4.0
  1
G
  7
ISO_PROPORTIONAL
 72
     4
 11
7.5
 21
87.0
 31
0.0
  0
LINE
  5
BEC
  8
FRAME_050
 10
10.0
 20
110.0
 30
0.0
 11
5.0
 21
110.0
 31
0.0
  0
TEXT
  5
BED
  8
FRAME_050
 10
6.0999999999999988
 20
135.0
 30
0.0
 40
4.0
  1
F
  7
ISO_PROPORTIONAL
 72
     4
 11
7.5
 21
137.0
 31
0.0
  0
LINE
  5
BEE
  8
FRAME_050
 10
10.0
 20
160.0
 30
0.0
 11
5.0
 21
160.0
 31
0.0
  0
TEXT
  5
BEF
  8
FRAME_050
 10
6.0999999999999988
 20
185.0
 30
0.0
 40
4.0
  1
E
  7
ISO_PROPORTIONAL
 72
     4
 11
7.5
 21
187.0
 31
0.0
  0
LINE
  5
BF0
  8
FRAME_050
 10
153.5
 20
5.0
 30
0.0
 11
153.5
 21
10.0
 31
0.0
  0
TEXT
  5
BF1
  8
FRAME_050
 10
116.1556692913386
 20
5.3996062992125982
 30
0.0
 40
4.0
  1
2
  7
ISO_PROPORTIONAL
 72
     4
 11
117.625
 21
7.5
 31
0.0
  0
TEXT
  5
BF2
  8
FRAME_050
 10
187.89215728752529
 20
5.5828427124746138
 30
0.0
 40
4.0
  1
3
  7
ISO_PROPORTIONAL
 72
     4
 11
189.375
 21
7.5
 31
0.0
  0
LINE
  5
BF3
  8
FRAME_050
 10
225.25
 20
5.0
 30
0.0
 11
225.25
 21
10.0
 31
0.0
  0
LINE
  5
BF4
  8
FRAME_050
 10
297.0
 20
7.5
 30
0.0
 11
294.5
 21
12.5
 31
0.0
  0
LINE
  5
BF5
  8
FRAME_050
 10
287.0
 20
5.0
 30
0.0
 11
287.0
 21
10.0
 31
0.0
  0
LINE
  5
BF6
  8
FRAME_050
 10
277.0
 20
5.0
 30
0.0
 11
277.0
 21
10.0
 31
0.0
  0
LINE
  5
BF7
  8
FRAME_050
 10
267.0
 20
5.0
 30
0.0
 11
267.0
 21
10.0
 31
0.0
  0
LINE
  5
BF8
  8
FRAME_050
 10
257.0
 20
5.0
 30
0.0
 11
257.0
 21
10.0
 31
0.0
  0
LINE
  5
BF9
  8
FRAME_050
 10
247.0
 20
5.0
 30
0.0
 11
247.0
 21
10.0
 31
0.0
  0
LINE
  5
BFA
  8
FRAME_050
 10
297.0
 20
10.0
 30
0.0
 11
297.0
 21
5.0
 31
0.0
  0
LINE
  5
BFB
  8
FRAME_050
 10
297.0
 20
10.0
 30
0.0
 11
297.0
 21
15.0
 31
0.0
  0
LINE
  5
BFC
  8
FRAME_050
 10
5.0
 20
210.0
 30
0.0
 11
15.0
 21
210.0
 31
0.0
  0
LINE
  5
BFD
  8
FRAME_050
 10
7.5
 20
210.0
 30
0.0
 11
12.5
 21
212.5
 31
0.0
  0
TEXT
  5
BFE
  8
FRAME_050
 10
5.7860912703473977
 20
235.0
 30
0.0
 40
4.0
  1
D
  7
ISO_PROPORTIONAL
 72
     4
 11
7.5
 21
237.0
 31
0.0
  0
LINE
  5
BFF
  8
FRAME_050
 10
10.0
 20
260.0
 30
0.0
 11
5.0
 21
260.0
 31
0.0
  0
TEXT
  5
C00
  8
FRAME_050
 10
6.1931980515339466
 20
285.0
 30
0.0
 40
4.0
  1
C
  7
ISO_PROPORTIONAL
 72
     4
 11
7.5
 21
287.0
 31
0.0
  0
LINE
  5
C01
  8
FRAME_050
 10
10.0
 20
310.0
 30
0.0
 11
5.0
 21
310.0
 31
0.0
  0
TEXT
  5
C02
  8
FRAME_050
 10
5.8999999999999959
 20
335.0
 30
0.0
 40
4.0
  1
B
  7
ISO_PROPORTIONAL
 72
     4
 11
7.5
 21
337.0
 31
0.0
  0
LINE
  5
C03
  8
FRAME_050
 10
10.0
 20
360.0
 30
0.0
 11
5.0
 21
360.0
 31
0.0
  0
TEXT
  5
C04
  8
FRAME_050
 10
5.6999999999999993
 20
385.0
 30
0.0
 40
4.0
  1
A
  7
ISO_PROPORTIONAL
 72
     4
 11
7.5
 21
387.0
 31
0.0
  0
LINE
  5
C05
  8
FRAME_200
 10
10.0
 20
420.0
 30
0.0
 11
0.0
 21
420.0
 31
0.0
  0
LINE
  5
C06
  8
FRAME_200
 10
0.0
 20
420.0
 30
0.0
 11
0.0
 21
410.0
 31
0.0
  0
TEXT
  5
C07
  8
FRAME_050
 10
44.874999999999993
 20
410.5
 30
0.0
 40
4.0
  1
1
  7
ISO_PROPORTIONAL
 72
     4
 11
45.875
 21
412.5
 31
0.0
  0
LINE
  5
C08
  8
FRAME_050
 10
81.75
 20
410.0
 30
0.0
 11
81.75
 21
415.0
 31
0.0
  0
TEXT
  5
C09
  8
FRAME_050
 10
116.1556692913386
 20
410.39960629921262
 30
0.0
 40
4.0
  1
2
  7
ISO_PROPORTIONAL
 72
     4
 11
117.625
 21
412.5
 31
0.0
  0
LINE
  5
C0A
  8
FRAME_050
 10
153.5
 20
410.0
 30
0.0
 11
153.5
 21
415.0
 31
0.0
  0
TEXT
  5
C0B
  8
FRAME_050
 10
187.89215728752529
 20
410.58284271247459
 30
0.0
 40
4.0
  1
3
  7
ISO_PROPORTIONAL
 72
     4
 11
189.375
 21
412.5
 31
0.0
  0
LINE
  5
C0C
  8
FRAME_050
 10
297.0
 20
405.0
 30
0.0
 11
297.0
 21
415.0
 31
0.0
  0
LINE
  5
C0D
  8
FRAME_050
 10
225.25
 20
410.0
 30
0.0
 11
225.25
 21
415.0
 31
0.0
  0
TEXT
  5
C0E
  8
FRAME_050
 10
259.52499999999998
 20
410.5
 30
0.0
 40
4.0
  1
4
  7
ISO_PROPORTIONAL
 72
     4
 11
261.125
 21
412.5
 31
0.0
  0
LINE
  5
C0F
  8
FRAME_070
 10
584.0
 20
10.0
 30
0.0
 11
584.0
 21
410.0
 31
0.0
  0
ATTDEF
  5
C10
  8
FRAME_025
 10
473.0
 20
31.75
 30
0.0
 40
2.5
  1
XXX - 00/00/00
  7
ISO_PROPORTIONAL
 11
473.0
 21
33.0
 31
0.0
  3
Approved by - Date
  2
APPROVED_BY_DATE
 70
     8
 74
     2
  0
TEXT
  5
C11
  8
FRAME_025
 10
448.0
 20
41.749999999999993
 30
0.0
 40
2.5
  1
Title/Name, designation, material, dimension etc
  7
ISO_PROPORTIONAL
 11
448.0
 21
43.0
 31
0.0
 73
     2
  0
TEXT
  5
C12
  8
FRAME_025
 10
473.0
 20
35.75
 30
0.0
 40
2.5
  1
Approved by - date
  7
ISO_PROPORTIONAL
 11
473.0
 21
37.0
 31
0.0
 73
     2
  0
LINE
  5
C13
  8
FRAME_070
 10
414.0
 20
46.0
 30
0.0
 11
584.0
 21
46.0
 31
0.0
  0
LINE
  5
C14
  8
FRAME_070
 10
414.0
 20
40.0
 30
0.0
 11
584.0
 21
40.0
 31
0.0
  0
LINE
  5
C15
  8
FRAME_070
 10
414.0
 20
30.0
 30
0.0
 11
584.0
 21
30.0
 31
0.0
  0
LINE
  5
C16
  8
FRAME_050
 10
368.75
 20
5.0
 30
0.0
 11
368.75
 21
10.0
 31
0.0
  0
LINE
  5
C17
  8
FRAME_050
 10
337.0
 20
5.0
 30
0.0
 11
337.0
 21
10.0
 31
0.0
  0
LINE
  5
C18
  8
FRAME_050
 10
327.0
 20
5.0
 30
0.0
 11
327.0
 21
10.0
 31
0.0
  0
LINE
  5
C19
  8
FRAME_050
 10
317.0
 20
5.0
 30
0.0
 11
317.0
 21
10.0
 31
0.0
  0
LINE
  5
C1A
  8
FRAME_050
 10
307.0
 20
5.0
 30
0.0
 11
307.0
 21
10.0
 31
0.0
  0
LINE
  5
C1B
  8
FRAME_050
 10
347.0
 20
5.0
 30
0.0
 11
347.0
 21
10.0
 31
0.0
  0
LINE
  5
C1C
  8
FRAME_050
 10
440.5
 20
5.0
 30
0.0
 11
440.5
 21
10.0
 31
0.0
  0
TEXT
  5
C1D
  8
FRAME_050
 10
403.24547244094481
 20
5.4102362204724406
 30
0.0
 40
4.0
  1
6
  7
ISO_PROPORTIONAL
 72
     4
 11
404.62499999999989
 21
7.5
 31
0.0
  0
TEXT
  5
C1E
  8
FRAME_050
 10
474.97500000000002
 20
5.5
 30
0.0
 40
4.0
  1
7
  7
ISO_PROPORTIONAL
 72
     4
 11
476.37499999999989
 21
7.5
 31
0.0
  0
TEXT
  5
C1F
  8
FRAME_025
 10
431.0
 20
41.749999999999993
 30
0.0
 40
2.5
  1
Quantity
  7
ISO_PROPORTIONAL
 11
431.0
 21
43.0
 31
0.0
 73
     2
  0
TEXT
  5
C20
  8
FRAME_025
 10
416.0
 20
41.749999999999993
 30
0.0
 40
2.5
  1
Itemref
  7
ISO_PROPORTIONAL
 11
416.0
 21
43.0
 31
0.0
 73
     2
  0
LINE
  5
C21
  8
FRAME_070
 10
414.0
 20
40.0
 30
0.0
 11
414.0
 21
46.0
 31
0.0
  0
LINE
  5
C22
  8
FRAME_070
 10
429.0
 20
40.0
 30
0.0
 11
429.0
 21
46.0
 31
0.0
  0
LINE
  5
C23
  8
FRAME_070
 10
414.0
 20
10.0
 30
0.0
 11
414.0
 21
40.0
 31
0.0
  0
ATTDEF
  5
C24
  8
FRAME_025
 10
416.0
 20
31.75
 30
0.0
 40
2.5
  1
XXX
  7
ISO_PROPORTIONAL
 11
416.0
 21
33.0
 31
0.0
  3
Designed by
  2
DESIGNED_BY
 70
     8
 74
     2
  0
TEXT
  5
C25
  8
FRAME_025
 10
416.0
 20
35.75
 30
0.0
 40
2.5
  1
Designed by
  7
ISO_PROPORTIONAL
 11
416.0
 21
37.0
 31
0.0
 73
     2
  0
LINE
  5
C26
  8
FRAME_070
 10
446.0
 20
40.0
 30
0.0
 11
446.0
 21
46.0
 31
0.0
  0
ATTDEF
  5
C27
  8
FRAME_025
 10
448.0
 20
31.75
 30
0.0
 40
2.5
  1
XXX
  7
ISO_PROPORTIONAL
 11
448.0
 21
33.0
 31
0.0
  3
Checked by
  2
CHECKED_BY
 70
     8
 74
     2
  0
TEXT
  5
C28
  8
FRAME_025
 10
448.0
 20
35.75
 30
0.0
 40
2.5
  1
Checked by
  7
ISO_PROPORTIONAL
 11
448.0
 21
37.0
 31
0.0
 73
     2
  0
ATTDEF
  5
C29
  8
FRAME_050
 10
444.74999999999989
 20
17.5
 30
0.0
 40
5.0
  1
XXX
  7
ISO_PROPORTIONAL
 72
     4
 11
451.49999999999989
 21
20.0
 31
0.0
  3
Owner
  2
OWNER
 70
     8
  0
LINE
  5
C2A
  8
FRAME_070
 10
446.0
 20
30.0
 30
0.0
 11
446.0
 21
40.0
 31
0.0
  0
LINE
  5
C2B
  8
FRAME_070
 10
471.0
 20
30.0
 30
0.0
 11
471.0
 21
40.0
 31
0.0
  0
LINE
  5
C2C
  8
FRAME_070
 10
489.0
 20
20.0
 30
0.0
 11
584.0
 21
20.0
 31
0.0
  0
LINE
  5
C2D
  8
FRAME_050
 10
512.25
 20
5.0
 30
0.0
 11
512.25
 21
10.0
 31
0.0
  0
TEXT
  5
C2E
  8
FRAME_050
 10
546.72499999999991
 20
5.5
 30
0.0
 40
4.0
  1
8
  7
ISO_PROPORTIONAL
 72
     4
 11
548.125
 21
7.5
 31
0.0
  0
ATTDEF
  5
C2F
  8
FRAME_050
 10
517.64999999999986
 20
13.5
 30
0.0
 40
3.0
  1
X
  7
ISO_PROPORTIONAL
 72
     4
 11
519.0
 21
15.0
 31
0.0
  3
Drawing number
  2
DRAWING_NUMBER
 70
     8
  0
ATTDEF
  5
C30
  8
FRAME_050
 10
529.75
 20
22.5
 30
0.0
 40
5.0
  1
XXX
  7
ISO_PROPORTIONAL
 72
     4
 11
536.5
 21
25.0
 31
0.0
  3
Title / Name
  2
TITLE
 70
     8
  0
LINE
  5
C31
  8
FRAME_070
 10
489.0
 20
10.0
 30
0.0
 11
489.0
 21
30.0
 31
0.0
  0
ATTDEF
  5
C32
  8
FRAME_025
 10
511.0
 20
31.75
 30
0.0
 40
2.5
  1
XXX
  7
ISO_PROPORTIONAL
 11
511.0
 21
33.0
 31
0.0
  3
Filename
  2
FILENAME
 70
     8
 74
     2
  0
TEXT
  5
C33
  8
FRAME_025
 10
511.0
 20
35.75
 30
0.0
 40
2.5
  1
Filename
  7
ISO_PROPORTIONAL
 11
511.0
 21
37.0
 31
0.0
 73
     2
  0
LINE
  5
C34
  8
FRAME_070
 10
509.0
 20
30.0
 30
0.0
 11
509.0
 21
40.0
 31
0.0
  0
TEXT
  5
C35
  8
FRAME_025
 10
536.0
 20
41.749999999999993
 30
0.0
 40
2.5
  1
Article No./Reference
  7
ISO_PROPORTIONAL
 11
536.0
 21
43.0
 31
0.0
 73
     2
  0
LINE
  5
C36
  8
FRAME_070
 10
534.0
 20
40.0
 30
0.0
 11
534.0
 21
46.0
 31
0.0
  0
ATTDEF
  5
C37
  8
FRAME_025
 10
551.0
 20
11.75
 30
0.0
 40
2.5
  1
0
  7
ISO_PROPORTIONAL
 11
551.0
 21
13.0
 31
0.0
  3
Edition
  2
EDITION
 70
     8
 74
     2
  0
TEXT
  5
C38
  8
FRAME_025
 10
551.0
 20
15.75
 30
0.0
 40
2.5
  1
Edition
  7
ISO_PROPORTIONAL
 11
551.0
 21
17.0
 31
0.0
 73
     2
  0
LINE
  5
C39
  8
FRAME_070
 10
549.0
 20
10.0
 30
0.0
 11
549.0
 21
20.0
 31
0.0
  0
ATTDEF
  5
C3A
  8
FRAME_025
 10
536.0
 20
31.75
 30
0.0
 40
2.5
  1
00/00/00
  7
ISO_PROPORTIONAL
 11
536.0
 21
33.0
 31
0.0
  3
Date
  2
DATE
 70
     8
 74
     2
  0
TEXT
  5
C3B
  8
FRAME_025
 10
536.0
 20
35.75
 30
0.0
 40
2.5
  1
Date
  7
ISO_PROPORTIONAL
 11
536.0
 21
37.0
 31
0.0
 73
     2
  0
LINE
  5
C3C
  8
FRAME_070
 10
534.0
 20
30.0
 30
0.0
 11
534.0
 21
40.0
 31
0.0
  0
ATTDEF
  5
C3D
  8
FRAME_025
 10
566.0
 20
11.75
 30
0.0
 40
2.5
  1
1/1
  7
ISO_PROPORTIONAL
 11
566.0
 21
13.0
 31
0.0
  3
Sheet
  2
SHEET
 70
     8
 74
     2
  0
TEXT
  5
C3E
  8
FRAME_025
 10
566.0
 20
15.75
 30
0.0
 40
2.5
  1
Sheet
  7
ISO_PROPORTIONAL
 11
566.0
 21
17.0
 31
0.0
 73
     2
  0
LINE
  5
C3F
  8
FRAME_070
 10
564.0
 20
10.0
 30
0.0
 11
564.0
 21
20.0
 31
0.0
  0
ATTDEF
  5
C40
  8
FRAME_025
 10
566.0
 20
31.75
 30
0.0
 40
2.5
  1
1:1
  7
ISO_PROPORTIONAL
 11
566.0
 21
33.0
 31
0.0
  3
Scale
  2
SCALE
 70
     8
 74
     2
  0
TEXT
  5
C41
  8
FRAME_025
 10
566.0
 20
35.75
 30
0.0
 40
2.5
  1
Scale
  7
ISO_PROPORTIONAL
 11
566.0
 21
37.0
 31
0.0
 73
     2
  0
LINE
  5
C42
  8
FRAME_070
 10
564.0
 20
30.0
 30
0.0
 11
564.0
 21
40.0
 31
0.0
  0
LINE
  5
C43
  8
FRAME_200
 10
594.0
 20
0.0
 30
0.0
 11
594.0
 21
10.0
 31
0.0
  0
LINE
  5
C44
  8
FRAME_200
 10
594.0
 20
0.0
 30
0.0
 11
584.0
 21
0.0
 31
0.0
  0
TEXT
  5
C45
  8
FRAME_050
 10
584.89999999999998
 20
35.0
 30
0.0
 40
4.0
  1
H
  7
ISO_PROPORTIONAL
 72
     4
 11
586.5
 21
37.0
 31
0.0
  0
LINE
  5
C46
  8
FRAME_050
 10
589.0
 20
60.0
 30
0.0
 11
584.0
 21
60.0
 31
0.0
  0
TEXT
  5
C47
  8
FRAME_050
 10
585.0035533905932
 20
85.0
 30
0.0
 40
4.0
  1
G
  7
ISO_PROPORTIONAL
 72
     4
 11
586.5
 21
87.0
 31
0.0
  0
LINE
  5
C48
  8
FRAME_050
 10
589.0
 20
110.0
 30
0.0
 11
584.0
 21
110.0
 31
0.0
  0
TEXT
  5
C49
  8
FRAME_050
 10
585.09999999999991
 20
135.0
 30
0.0
 40
4.0
  1
F
  7
ISO_PROPORTIONAL
 72
     4
 11
586.5
 21
137.0
 31
0.0
  0
LINE
  5
C4A
  8
FRAME_050
 10
589.0
 20
160.0
 30
0.0
 11
584.0
 21
160.0
 31
0.0
  0
TEXT
  5
C4B
  8
FRAME_050
 10
585.09999999999991
 20
185.0
 30
0.0
 40
4.0
  1
E
  7
ISO_PROPORTIONAL
 72
     4
 11
586.5
 21
187.0
 31
0.0
  0
LINE
  5
C4C
  8
FRAME_070
 10
414.0
 20
404.0
 30
0.0
 11
584.0
 21
404.0
 31
0.0
  0
TEXT
  5
C4D
  8
FRAME_050
 10
331.39215728752538
 20
410.58284271247459
 30
0.0
 40
4.0
  1
5
  7
ISO_PROPORTIONAL
 72
     4
 11
332.875
 21
412.5
 31
0.0
  0
LINE
  5
C4E
  8
FRAME_050
 10
368.75
 20
410.0
 30
0.0
 11
368.75
 21
415.0
 31
0.0
  0
TEXT
  5
C4F
  8
FRAME_025
 10
428.0
 20
405.75
 30
0.0
 40
2.5
  1
Revision note
  7
ISO_PROPORTIONAL
 11
428.0
 21
407.0
 31
0.0
 73
     2
  0
TEXT
  5
C50
  8
FRAME_025
 10
416.0
 20
405.75
 30
0.0
 40
2.5
  1
RevNo
  7
ISO_PROPORTIONAL
 11
416.0
 21
407.0
 31
0.0
 73
     2
  0
LINE
  5
C51
  8
FRAME_070
 10
426.0
 20
404.0
 30
0.0
 11
426.0
 21
410.0
 31
0.0
  0
LINE
  5
C52
  8
FRAME_070
 10
414.0
 20
404.0
 30
0.0
 11
414.0
 21
410.0
 31
0.0
  0
TEXT
  5
C53
  8
FRAME_050
 10
403.24547244094481
 20
410.41023622047243
 30
0.0
 40
4.0
  1
6
  7
ISO_PROPORTIONAL
 72
     4
 11
404.62499999999989
 21
412.5
 31
0.0
  0
LINE
  5
C54
  8
FRAME_050
 10
440.5
 20
410.0
 30
0.0
 11
440.5
 21
415.0
 31
0.0
  0
TEXT
  5
C55
  8
FRAME_050
 10
474.97500000000002
 20
410.5
 30
0.0
 40
4.0
  1
7
  7
ISO_PROPORTIONAL
 72
     4
 11
476.37499999999989
 21
412.5
 31
0.0
  0
LINE
  5
C56
  8
FRAME_050
 10
579.0
 20
210.0
 30
0.0
 11
589.0
 21
210.0
 31
0.0
  0
TEXT
  5
C57
  8
FRAME_050
 10
584.78609127034736
 20
235.0
 30
0.0
 40
4.0
  1
D
  7
ISO_PROPORTIONAL
 72
     4
 11
586.5
 21
237.0
 31
0.0
  0
LINE
  5
C58
  8
FRAME_050
 10
589.0
 20
260.0
 30
0.0
 11
584.0
 21
260.0
 31
0.0
  0
TEXT
  5
C59
  8
FRAME_050
 10
585.19319805153395
 20
285.0
 30
0.0
 40
4.0
  1
C
  7
ISO_PROPORTIONAL
 72
     4
 11
586.5
 21
287.0
 31
0.0
  0
LINE
  5
C5A
  8
FRAME_050
 10
589.0
 20
310.0
 30
0.0
 11
584.0
 21
310.0
 31
0.0
  0
TEXT
  5
C5B
  8
FRAME_050
 10
584.89999999999998
 20
335.0
 30
0.0
 40
4.0
  1
B
  7
ISO_PROPORTIONAL
 72
     4
 11
586.5
 21
337.0
 31
0.0
  0
TEXT
  5
C5C
  8
FRAME_025
 10
571.08299391850551
 20
405.75
 30
0.0
 40
2.5
  1
Checked
  7
ISO_PROPORTIONAL
 11
571.08299391850551
 21
407.0
 31
0.0
 73
     2
  0
TEXT
  5
C5D
  8
FRAME_025
 10
555.36099797283532
 20
405.75
 30
0.0
 40
2.5
  1
Signature
  7
ISO_PROPORTIONAL
 11
555.36099797283532
 21
407.0
 31
0.0
 73
     2
  0
TEXT
  5
C5E
  8
FRAME_025
 10
537.0
 20
405.75
 30
0.0
 40
2.5
  1
Date
  7
ISO_PROPORTIONAL
 11
537.0
 21
407.0
 31
0.0
 73
     2
  0
LINE
  5
C5F
  8
FRAME_070
 10
570.0
 20
404.0
 30
0.0
 11
570.0
 21
410.0
 31
0.0
  0
LINE
  5
C60
  8
FRAME_070
 10
555.0
 20
404.0
 30
0.0
 11
555.0
 21
410.0
 31
0.0
  0
LINE
  5
C61
  8
FRAME_070
 10
535.0
 20
404.0
 30
0.0
 11
535.0
 21
410.0
 31
0.0
  0
LINE
  5
C62
  8
FRAME_050
 10
512.25
 20
410.0
 30
0.0
 11
512.25
 21
415.0
 31
0.0
  0
TEXT
  5
C63
  8
FRAME_050
 10
546.72499999999991
 20
410.5
 30
0.0
 40
4.0
  1
8
  7
ISO_PROPORTIONAL
 72
     4
 11
548.125
 21
412.5
 31
0.0
  0
LINE
  5
C64
  8
FRAME_050
 10
589.0
 20
360.0
 30
0.0
 11
584.0
 21
360.0
 31
0.0
  0
TEXT
  5
C65
  8
FRAME_050
 10
584.70000000000005
 20
385.0
 30
0.0
 40
4.0
  1
A
  7
ISO_PROPORTIONAL
 72
     4
 11
586.5
 21
387.0
 31
0.0
  0
LINE
  5
C66
  8
FRAME_200
 10
594.0
 20
420.0
 30
0.0
 11
584.0
 21
420.0
 31
0.0
  0
LINE
  5
C67
  8
FRAME_200
 10
594.0
 20
410.0
 30
0.0
 11
594.0
 21
420.0
 31
0.0
  0
ENDBLK
  5
C69
  8
0
  0
BLOCK
  8
0
  2
WOBB001END
 70
     0
 10
0.0
 20
0.0
 30
0.0
  3
WOBB001END
  1

  0
LINE
  5
4D66
  8
0
  6
CONTINUOUS
 10
0.0
 20
0.0
 30
0.0
 11
0.8749999999999998
 21
0.0
 31
0.0
  0
ARC
  5
4D67
  8
0
  6
CONTINUOUS
 10
0.0331648379439287
 20
-0.5087238935900232
 30
0.0
 40
0.8790130605592325
 50
284.06490243660443
 51
312.19222981924361
  0
ARC
  5
4D68
  8
0
  6
CONTINUOUS
 10
0.2841534338796767
 20
-1.510548310625538
 30
0.0
 40
0.1537731892806598
 50
104.0649024366044
 51
179.4721730735024
  0
LINE
  5
4D69
  8
0
  6
CONTINUOUS
 10
0.0
 20
0.0
 30
0.0
 11
-0.0000000000000003
 21
-1.7501564476661919
 31
0.0
  0
ARC
  5
4D6A
  8
0
  6
CONTINUOUS
 10
0.1404622019506122
 20
-1.6303137183546199
 30
0.0
 40
0.1198427293115722
 50
275.0
 51
85.000000000000057
  0
LINE
  5
4D6B
  8
0
  6
CONTINUOUS
 10
-0.0000000000000003
 20
-1.7501564476661919
 30
0.0
 11
0.1456946485130855
 21
-1.7501564476661919
 31
0.0
  0
LINE
  5
4D6C
  8
0
  6
CONTINUOUS
 10
0.1377603739254348
 20
-1.7508506067459131
 30
0.0
 11
0.150907184036669
 21
-1.749700409899652
 31
0.0
  0
LINE
  5
4D6D
  8
0
  6
CONTINUOUS
 10
0.1303867696719884
 20
-1.5091317231818231
 30
0.0
 11
0.1509071840366689
 21
-1.5109270268095869
 31
0.0
  0
LINE
  5
4D6E
  8
0
  6
CONTINUOUS
 10
0.8749999999999998
 20
0.0
 30
0.0
 11
0.8749999999999996
 21
-0.8649327026588228
 31
0.0
  0
LINE
  5
4D6F
  8
0
  6
CONTINUOUS
 10
0.727014513830997
 20
-0.8726882933550612
 30
0.0
 11
0.727014513830997
 21
-0.9264923397184784
 31
0.0
  0
ARC
  5
4D70
  8
0
  6
CONTINUOUS
 10
0.41187090827646
 20
-0.9264923397184784
 30
0.0
 40
0.315143605554537
 50
312.19222981924361
 51
0.0
  0
LINE
  5
4D71
  8
0
  6
CONTINUOUS
 10
0.727014513830997
 20
-0.8726882933550612
 30
0.0
 11
0.8749999999999996
 21
-0.8649327026588228
 31
0.0
  0
ENDBLK
  5
4D72
  8
0
  0
BLOCK
  8
0
  2
A$C0A61123B
 70
     0
 10
0.0
 20
0.0
 30
0.0
  3
A$C0A61123B
  1

  0
LINE
  5
C0AD
  8
PROF
  6
CONTINUOUS
 10
4.9012016798694162
 20
13.325025853350891
 30
0.0000000000000002
 11
4.9012016798694162
 21
12.88585218805485
 31
0.0000000000000003
  0
INSERT
  5
C0AE
  8
0
  2
*U21
 10
0.0
 20
0.0
 30
0.0
  0
LINE
  5
C0AF
  8
PROF
 10
4.5198575031869259
 20
12.72227734589444
 30
0.0000000000000001
 11
4.5198575031869259
 21
12.88585218805485
 31
0.0000000000000001
  0
LINE
  5
C0B0
  8
PROF
  6
CONTINUOUS
 10
3.6306271195888371
 20
13.325025853350891
 30
0.0000000000000002
 11
4.9012016798694162
 21
13.325025853350891
 31
0.0000000000000002
  0
LINE
  5
C0B1
  8
PROF
 10
1.9750295148747341
 20
10.37671325491794
 30
0.0000000000000002
 11
1.9750295148747341
 21
10.11391186758919
 31
0.0000000000000002
  0
LINE
  5
C0B2
  8
PROF
 10
1.607967335755631
 20
10.11391186758919
 30
0.0000000000000001
 11
1.9750295148747341
 21
10.11391186758919
 31
0.0000000000000001
  0
LINE
  5
C0B3
  8
PROF
 10
1.9750295148747341
 20
10.11391186758919
 30
0.0000000000000001
 11
1.944958486898144
 21
10.11391186758919
 31
0.0000000000000001
  0
LINE
  5
C0B4
  8
PROF
 10
1.9750295148747341
 20
10.11391186758919
 30
0.0000000000000001
 11
1.944958486898144
 21
10.11391186758919
 31
0.0000000000000001
  0
LINE
  5
C0B5
  8
PROF
 10
0.3222605517169654
 20
7.5247473351056442
 30
-0.0000000000000002
 11
-0.0000008570117416
 21
7.5247473351056442
 31
0.0
  0
LINE
  5
C0B6
  8
PROF
 10
-0.0000008570117416
 20
7.5247473351056442
 30
0.0
 11
-0.0000008570117416
 21
9.1943336957369866
 31
0.0
  0
POLYLINE
  5
C0B7
  8
PROF
 66
     1
 10
0.0
 20
0.0
 30
0.0000000000000001
 70
     4
 75
     6
  0
VERTEX
  5
C0B8
  8
PROF
 10
1.607967335755631
 20
10.11391186758919
 30
0.0000000000000001
 70
    16
  0
VERTEX
  5
C0B9
  8
PROF
 10
1.607967335755631
 20
10.11391186758919
 30
0.0000000000000001
 70
     8
  0
VERTEX
  5
C0BA
  8
PROF
 10
1.646813232648582
 20
10.02198069336111
 30
0.0000000000000001
 70
     8
  0
VERTEX
  5
C0BB
  8
PROF
 10
1.67335966680929
 20
9.9344134163010267
 30
0.0000000000000001
 70
     8
  0
VERTEX
  5
C0BC
  8
PROF
 10
1.689008640046324
 20
9.8512576644480987
 30
0.0000000000000001
 70
     8
  0
VERTEX
  5
C0BD
  8
PROF
 10
1.695162154168258
 20
9.7725610658417281
 30
0.0000000000000001
 70
     8
  0
VERTEX
  5
C0BE
  8
PROF
 10
1.6932222109836059
 20
9.6983712485214255
 30
0.0000000000000001
 70
     8
  0
VERTEX
  5
C0BF
  8
PROF
 10
1.6845908123009961
 20
9.6287358405263603
 30
0.0000000000000001
 70
     8
  0
VERTEX
  5
C0C0
  8
PROF
 10
1.6706699599288859
 20
9.5637024698960431
 30
0.0000000000000001
 70
     8
  0
VERTEX
  5
C0C1
  8
PROF
 10
1.6528616556759621
 20
9.503318764669757
 30
0.0000000000000001
 70
     8
  0
VERTEX
  5
C0C2
  8
PROF
 10
1.6323562992730549
 20
9.4475843259650674
 30
0.0000000000000001
 70
     8
  0
VERTEX
  5
C0C3
  8
PROF
 10
1.609497882140658
 20
9.3963066472123273
 30
0.0000000000000001
 70
     8
  0
VERTEX
  5
C0C4
  8
PROF
 10
1.584418793621637
 20
9.3492451949202842
 30
0.0000000000000001
 70
     8
  0
VERTEX
  5
C0C5
  8
PROF
 10
1.557251423058744
 20
9.3061594355972375
 30
0.0000000000000001
 70
     8
  0
VERTEX
  5
C0C6
  8
PROF
 10
1.5281281597949601
 20
9.2668088357519292
 30
0.0000000000000001
 70
     8
  0
VERTEX
  5
C0C7
  8
PROF
 10
1.4971813931729789
 20
9.2309528618930017
 30
0.0000000000000001
 70
     8
  0
VERTEX
  5
C0C8
  8
PROF
 10
1.464543512535726
 20
9.1983509805288577
 30
0.0000000000000001
 70
     8
  0
VERTEX
  5
C0C9
  8
PROF
 10
1.4303469072260091
 20
9.1687626581682462
 30
0.0000000000000001
 70
     8
  0
VERTEX
  5
C0CA
  8
PROF
 10
1.3947360332574019
 20
9.1419547918675335
 30
0.0000000000000001
 70
     8
  0
VERTEX
  5
C0CB
  8
PROF
 10
1.3579036133264131
 20
9.1177240008747731
 30
0.0000000000000001
 70
     8
  0
VERTEX
  5
C0CC
  8
PROF
 10
1.3200544368004321
 20
9.0958743349860924
 30
0.0000000000000001
 70
     8
  0
VERTEX
  5
C0CD
  8
PROF
 10
1.281393293046676
 20
9.0762098439975034
 30
0.0000000000000001
 70
     8
  0
VERTEX
  5
C0CE
  8
PROF
 10
1.242124971432417
 20
9.0585345777049042
 30
0.0000000000000001
 70
     8
  0
VERTEX
  5
C0CF
  8
PROF
 10
1.2024542613249869
 20
9.0426525859044204
 30
0.0000000000000001
 70
     8
  0
VERTEX
  5
C0D0
  8
PROF
 10
1.1625859520916599
 20
9.0283679183919503
 30
0.0000000000000001
 70
     8
  0
VERTEX
  5
C0D1
  8
PROF
 10
1.1227248330997091
 20
9.0154846249635057
 30
0.0000000000000001
 70
     8
  0
VERTEX
  5
C0D2
  8
PROF
 10
1.0829726247361
 20
9.0034643862466055
 30
0.0000000000000001
 70
     8
  0
VERTEX
  5
C0D3
  8
PROF
 10
1.043018771466222
 20
8.9903994061946833
 30
0.0000000000000001
 70
     8
  0
VERTEX
  5
C0D4
  8
PROF
 10
1.002449648775211
 20
8.9740395195925657
 30
0.0000000000000001
 70
     8
  0
VERTEX
  5
C0D5
  8
PROF
 10
0.9608516321480919
 20
8.9521345612251935
 30
0.0000000000000001
 70
     8
  0
VERTEX
  5
C0D6
  8
PROF
 10
0.9178110970699435
 20
8.9224343658775052
 30
0.0000000000000001
 70
     8
  0
VERTEX
  5
C0D7
  8
PROF
 10
0.8729144190259034
 20
8.8826887683343312
 30
0.0000000000000001
 70
     8
  0
VERTEX
  5
C0D8
  8
PROF
 10
0.8257479735009951
 20
8.8306476033806121
 30
0.0000000000000001
 70
     8
  0
VERTEX
  5
C0D9
  8
PROF
 10
0.7758981359802988
 20
8.764060705801171
 30
0.0000000000000001
 70
     8
  0
VERTEX
  5
C0DA
  8
PROF
 10
1.729201901609656
 20
9.8629858761255491
 30
0.0000000000000001
 70
    16
  0
VERTEX
  5
C0DB
  8
PROF
 10
1.6793731231140889
 20
9.4532143012734196
 30
0.0000000000000001
 70
    16
  0
VERTEX
  5
C0DC
  8
PROF
 10
1.4455611507419801
 20
9.1391837193732481
 30
0.0000000000000001
 70
    16
  0
VERTEX
  5
C0DD
  8
PROF
 10
1.120463717273821
 20
9.0026267702428413
 30
0.0000000000000001
 70
    16
  0
VERTEX
  5
C0DE
  8
PROF
 10
0.9127765582653638
 20
8.9630202230383702
 30
0.0000000000000001
 70
    16
  0
VERTEX
  5
C0DF
  8
PROF
 10
0.7758981359802988
 20
8.764060705801171
 30
0.0000000000000001
 70
    16
  0
SEQEND
  5
C0E0
  8
PROF
  0
ARC
  5
C0E1
  8
PROF
 10
0.733429816733235
 20
8.4849506952165257
 30
0.0000000000000001
 40
0.2823224329524727
 50
269.73652020831901
 51
81.348449993176914
  0
LINE
  5
C0E2
  8
PROF
  6
CONTINUOUS
 10
-0.0000008570117416
 20
9.1943336957369866
 30
-0.0000000000000001
 11
3.6306271195888371
 21
13.325025853350891
 31
0.0000000000000002
  0
POLYLINE
  5
C0E3
  8
PROF
 66
     1
 10
0.0
 20
0.0
 30
0.0000000000000001
 70
     4
 75
     6
  0
VERTEX
  5
C0E4
  8
PROF
 10
4.5198575031869259
 20
12.72227734589444
 30
0.0000000000000001
 70
    16
  0
VERTEX
  5
C0E5
  8
PROF
 10
4.5198575031869259
 20
12.72227734589444
 30
0.0000000000000001
 70
     8
  0
VERTEX
  5
C0E6
  8
PROF
 10
4.4467035366886298
 20
12.741128108778071
 30
0.0000000000000001
 70
     8
  0
VERTEX
  5
C0E7
  8
PROF
 10
4.3786645761268801
 20
12.754675269913941
 30
0.0000000000000001
 70
     8
  0
VERTEX
  5
C0E8
  8
PROF
 10
4.3154364111440477
 20
12.76334314092332
 30
0.0000000000000001
 70
     8
  0
VERTEX
  5
C0E9
  8
PROF
 10
4.256714831382566
 20
12.76755603342724
 30
0.0000000000000001
 70
     8
  0
VERTEX
  5
C0EA
  8
PROF
 10
4.2021956264849791
 20
12.76773825904672
 30
0.0000000000000001
 70
     8
  0
VERTEX
  5
C0EB
  8
PROF
 10
4.1515745860935453
 20
12.764314129403139
 30
0.0000000000000001
 70
     8
  0
VERTEX
  5
C0EC
  8
PROF
 10
4.1045474998508658
 20
12.75770795611743
 30
0.0000000000000001
 70
     8
  0
VERTEX
  5
C0ED
  8
PROF
 10
4.0608101573993158
 20
12.748344050810831
 30
0.0000000000000001
 70
     8
  0
VERTEX
  5
C0EE
  8
PROF
 10
4.0200583483813261
 20
12.736646725104491
 30
0.0000000000000001
 70
     8
  0
VERTEX
  5
C0EF
  8
PROF
 10
3.9819878624393819
 20
12.72304029061945
 30
0.0000000000000001
 70
     8
  0
VERTEX
  5
C0F0
  8
PROF
 10
3.946294489215858
 20
12.707949058976959
 30
0.0000000000000001
 70
     8
  0
VERTEX
  5
C0F1
  8
PROF
 10
3.9126740183532429
 20
12.691797341798059
 30
0.0000000000000001
 70
     8
  0
VERTEX
  5
C0F2
  8
PROF
 10
3.8808638350742508
 20
12.67494295718654
 30
0.0000000000000001
 70
     8
  0
VERTEX
  5
C0F3
  8
PROF
 10
3.850767706922738
 20
12.65747774917668
 30
0.0000000000000001
 70
     8
  0
VERTEX
  5
C0F4
  8
PROF
 10
3.8223309970228452
 20
12.639427068285499
 30
0.0000000000000001
 70
     8
  0
VERTEX
  5
C0F5
  8
PROF
 10
3.7954990684987129
 20
12.62081626503004
 30
0.0000000000000001
 70
     8
  0
VERTEX
  5
C0F6
  8
PROF
 10
3.7702172844744828
 20
12.601670689926999
 30
0.0000000000000001
 70
     8
  0
VERTEX
  5
C0F7
  8
PROF
 10
3.746431008074353
 20
12.58201569349364
 30
0.0000000000000001
 70
     8
  0
VERTEX
  5
C0F8
  8
PROF
 10
3.7240856024224618
 20
12.56187662624666
 30
0.0000000000000001
 70
     8
  0
VERTEX
  5
C0F9
  8
PROF
 10
3.7031264306428961
 20
12.541278838703191
 30
0.0000000000000001
 70
     8
  0
VERTEX
  5
C0FA
  8
PROF
 10
3.6834988558599089
 20
12.520247681380051
 30
0.0000000000000001
 70
     8
  0
VERTEX
  5
C0FB
  8
PROF
 10
3.665148241197528
 20
12.49880850479428
 30
0.0000000000000001
 70
     8
  0
VERTEX
  5
C0FC
  8
PROF
 10
3.6480199497799499
 20
12.47698665946279
 30
0.0000000000000001
 70
     8
  0
VERTEX
  5
C0FD
  8
PROF
 10
3.6320593447313172
 20
12.45480749590263
 30
0.0000000000000001
 70
     8
  0
VERTEX
  5
C0FE
  8
PROF
 10
3.6171895848866589
 20
12.43223790353807
 30
0.0000000000000001
 70
     8
  0
VERTEX
  5
C0FF
  8
PROF
 10
3.6032450119242858
 20
12.40901092742285
 30
0.0000000000000001
 70
     8
  0
VERTEX
  5
C100
  8
PROF
 10
3.590037763233453
 20
12.38480115151844
 30
0.0000000000000001
 70
     8
  0
VERTEX
  5
C101
  8
PROF
 10
3.5773799762033032
 20
12.35928315978594
 30
0.0000000000000001
 70
     8
  0
VERTEX
  5
C102
  8
PROF
 10
3.5650837882230908
 20
12.33213153618658
 30
0.0000000000000001
 70
     8
  0
VERTEX
  5
C103
  8
PROF
 10
3.5529613366819599
 20
12.303020864681571
 30
0.0000000000000001
 70
     8
  0
VERTEX
  5
C104
  8
PROF
 10
3.540824758969165
 20
12.271625729232371
 30
0.0000000000000001
 70
     8
  0
VERTEX
  5
C105
  8
PROF
 10
3.5284861924738489
 20
12.23762071379997
 30
0.0000000000000001
 70
     8
  0
VERTEX
  5
C106
  8
PROF
 10
3.5157577745852668
 20
12.200680402345711
 30
0.0000000000000001
 70
     8
  0
VERTEX
  5
C107
  8
PROF
 10
3.5024516426926189
 20
12.16047937883093
 30
0.0000000000000001
 70
     8
  0
VERTEX
  5
C108
  8
PROF
 10
3.4883799341851041
 20
12.116692227216619
 30
0.0000000000000001
 70
     8
  0
VERTEX
  5
C109
  8
PROF
 10
3.4733547864519201
 20
12.06899353146423
 30
0.0000000000000001
 70
     8
  0
VERTEX
  5
C10A
  8
PROF
 10
3.45723654619428
 20
12.0172095445447
 30
0.0000000000000001
 70
     8
  0
VERTEX
  5
C10B
  8
PROF
 10
3.4400783973613889
 20
11.961773195467799
 30
0.0000000000000001
 70
     8
  0
VERTEX
  5
C10C
  8
PROF
 10
3.421981733214579
 20
11.90326908225302
 30
0.0000000000000001
 70
     8
  0
VERTEX
  5
C10D
  8
PROF
 10
3.4030479470150108
 20
11.842281802919951
 30
0.0000000000000001
 70
     8
  0
VERTEX
  5
C10E
  8
PROF
 10
3.383378432024017
 20
11.779395955487979
 30
0.0000000000000001
 70
     8
  0
VERTEX
  5
C10F
  8
PROF
 10
3.3630745815028709
 20
11.715196137976809
 30
0.0000000000000001
 70
     8
  0
VERTEX
  5
C110
  8
PROF
 10
3.3422377887127359
 20
11.650266948405831
 30
0.0000000000000001
 70
     8
  0
VERTEX
  5
C111
  8
PROF
 10
3.320969446915
 20
11.58519298479461
 30
0.0000000000000001
 70
     8
  0
VERTEX
  5
C112
  8
PROF
 10
3.2993709493707679
 20
11.520558845162549
 30
0.0000000000000001
 70
     8
  0
VERTEX
  5
C113
  8
PROF
 10
3.277543689341428
 20
11.456949127529469
 30
0.0000000000000001
 70
     8
  0
VERTEX
  5
C114
  8
PROF
 10
3.2555890600881412
 20
11.3949484299145
 30
0.0000000000000001
 70
     8
  0
VERTEX
  5
C115
  8
PROF
 10
3.233608454872182
 20
11.335141350337491
 30
0.0000000000000001
 70
     8
  0
VERTEX
  5
C116
  8
PROF
 10
3.2116715641212181
 20
11.27799544797778
 30
0.0000000000000001
 70
     8
  0
VERTEX
  5
C117
  8
PROF
 10
3.189721266927847
 20
11.22351012665467
 30
0.0000000000000001
 70
     8
  0
VERTEX
  5
C118
  8
PROF
 10
3.1676687395512881
 20
11.17156775134765
 30
0.0000000000000001
 70
     8
  0
VERTEX
  5
C119
  8
PROF
 10
3.1454251582505321
 20
11.12205068703588
 30
0.0000000000000001
 70
     8
  0
VERTEX
  5
C11A
  8
PROF
 10
3.122901699284625
 20
11.07484129869874
 30
0.0000000000000001
 70
     8
  0
VERTEX
  5
C11B
  8
PROF
 10
3.1000095389127291
 20
11.02982195131551
 30
0.0000000000000001
 70
     8
  0
VERTEX
  5
C11C
  8
PROF
 10
3.0766598533938909
 20
10.986875009865679
 30
0.0000000000000001
 70
     8
  0
VERTEX
  5
C11D
  8
PROF
 10
3.0527638189871591
 20
10.9458828393283
 30
0.0000000000000001
 70
     8
  0
VERTEX
  5
C11E
  8
PROF
 10
3.0282326119516361
 20
10.90672780468298
 30
0.0000000000000001
 70
     8
  0
VERTEX
  5
C11F
  8
PROF
 10
3.002977408546371
 20
10.869292270908771
 30
0.0000000000000001
 70
     8
  0
VERTEX
  5
C120
  8
PROF
 10
2.9769093850304098
 20
10.833458602985161
 30
0.0000000000000001
 70
     8
  0
VERTEX
  5
C121
  8
PROF
 10
2.9499397176628568
 20
10.799109165891419
 30
0.0000000000000001
 70
     8
  0
VERTEX
  5
C122
  8
PROF
 10
2.9220006098404379
 20
10.76614363969508
 30
0.0000000000000001
 70
     8
  0
VERTEX
  5
C123
  8
PROF
 10
2.8931083735103011
 20
10.7345309648158
 30
0.0000000000000001
 70
     8
  0
VERTEX
  5
C124
  8
PROF
 10
2.8633003477572738
 20
10.70425739676193
 30
0.0000000000000001
 70
     8
  0
VERTEX
  5
C125
  8
PROF
 10
2.8326138716660689
 20
10.67530919104115
 30
0.0000000000000001
 70
     8
  0
VERTEX
  5
C126
  8
PROF
 10
2.8010862843216269
 20
10.647672603161711
 30
0.0000000000000001
 70
     8
  0
VERTEX
  5
C127
  8
PROF
 10
2.7687549248087171
 20
10.62133388863162
 30
0.0000000000000001
 70
     8
  0
VERTEX
  5
C128
  8
PROF
 10
2.735657132212054
 20
10.5962793029588
 30
0.0000000000000001
 70
     8
  0
VERTEX
  5
C129
  8
PROF
 10
2.7018302456165202
 20
10.572495101651381
 30
0.0000000000000001
 70
     8
  0
VERTEX
  5
C12A
  8
PROF
 10
2.6673116041068852
 20
10.54996754021726
 30
0.0000000000000001
 70
     8
  0
VERTEX
  5
C12B
  8
PROF
 10
2.6321385467680321
 20
10.528682874164581
 30
0.0000000000000001
 70
     8
  0
VERTEX
  5
C12C
  8
PROF
 10
2.5963484126846188
 20
10.508627359001251
 30
0.0000000000000001
 70
     8
  0
VERTEX
  5
C12D
  8
PROF
 10
2.5599785409415849
 20
10.489787250235279
 30
0.0000000000000001
 70
     8
  0
VERTEX
  5
C12E
  8
PROF
 10
2.522998630314361
 20
10.472162234281081
 30
0.0000000000000001
 70
     8
  0
VERTEX
  5
C12F
  8
PROF
 10
2.4851078183409072
 20
10.455805721177621
 30
0.0000000000000001
 70
     8
  0
VERTEX
  5
C130
  8
PROF
 10
2.4459376022498982
 20
10.44078455187036
 30
0.0000000000000001
 70
     8
  0
VERTEX
  5
C131
  8
PROF
 10
2.4051194792701258
 20
10.42716556730465
 30
0.0000000000000001
 70
     8
  0
VERTEX
  5
C132
  8
PROF
 10
2.3622849466301541
 20
10.415015608425851
 30
0.0000000000000001
 70
     8
  0
VERTEX
  5
C133
  8
PROF
 10
2.3170655015587149
 20
10.40440151617929
 30
0.0000000000000001
 70
     8
  0
VERTEX
  5
C134
  8
PROF
 10
2.2690926412844301
 20
10.395390131510339
 30
0.0000000000000001
 70
     8
  0
VERTEX
  5
C135
  8
PROF
 10
2.2179978630360888
 20
10.388048295364451
 30
0.0000000000000001
 70
     8
  0
VERTEX
  5
C136
  8
PROF
 10
2.1634126640422551
 20
10.38244284868688
 30
0.0000000000000001
 70
     8
  0
VERTEX
  5
C137
  8
PROF
 10
2.104968541531604
 20
10.37864063242295
 30
0.0000000000000001
 70
     8
  0
VERTEX
  5
C138
  8
PROF
 10
2.0422969927328718
 20
10.37670848751816
 30
0.0000000000000001
 70
     8
  0
VERTEX
  5
C139
  8
PROF
 10
1.9750295148747341
 20
10.37671325491794
 30
0.0000000000000001
 70
     8
  0
VERTEX
  5
C13A
  8
PROF
 10
4.2166060115107484
 20
12.80885334975255
 30
0.0000000000000001
 70
    16
  0
VERTEX
  5
C13B
  8
PROF
 10
3.8702254102732918
 20
12.707065515763929
 30
0.0000000000000001
 70
    16
  0
VERTEX
  5
C13C
  8
PROF
 10
3.605346156896871
 20
12.46277472098552
 30
0.0000000000000001
 70
    16
  0
VERTEX
  5
C13D
  8
PROF
 10
3.500746030527238
 20
12.170680575709749
 30
0.0000000000000001
 70
    16
  0
VERTEX
  5
C13E
  8
PROF
 10
3.231798439705698
 20
11.26846416496107
 30
0.0000000000000001
 70
    16
  0
VERTEX
  5
C13F
  8
PROF
 10
2.9737109398832891
 20
10.76631086647069
 30
0.0000000000000001
 70
    16
  0
VERTEX
  5
C140
  8
PROF
 10
2.5729961067384011
 20
10.460947364504699
 30
0.0000000000000001
 70
    16
  0
VERTEX
  5
C141
  8
PROF
 10
2.253782621454604
 20
10.372731239449759
 30
0.0000000000000001
 70
    16
  0
VERTEX
  5
C142
  8
PROF
 10
1.9750295148747341
 20
10.37671325491794
 30
0.0000000000000001
 70
    16
  0
SEQEND
  5
C143
  8
PROF
  0
LINE
  5
C144
  8
PROF
 10
4.9012016798694162
 20
12.88585218805485
 30
0.0000000000000003
 11
4.5198575031869259
 21
12.88585218805485
 31
0.0000000000000003
  0
LINE
  5
C145
  8
PROF
 10
0.7321315362267457
 20
8.2026312473991538
 30
0.0000000000000006
 11
0.7321315362267457
 21
8.0511853963434987
 31
0.0000000000000006
  0
ARC
  5
C146
  8
PROF
 10
0.7977322214551919
 20
7.5773339332026799
 30
0.0000000000000006
 40
0.4783708383912012
 50
97.882010168942529
 51
186.31119505698649
  0
LINE
  5
C147
  8
FRAME_050
 10
7.8016377197432121
 20
17.99371054969447
 30
0.0
 11
7.8016377197432121
 21
0.0000000000002274
 31
0.0
  0
ENDBLK
  5
C149
  8
0
  0
BLOCK
  8
0
  2
*U21
 70
     1
 10
0.0
 20
0.0
 30
0.0
  3
*U21
  1

  0
TEXT
  5
14508
  8
0
 10
3.5177832928899071
 20
10.38601584255777
 30
0.0
 40
0.125
  1
Crown Moulding
  0
TEXT
  5
14509
  8
0
 10
3.5223876585106431
 20
10.17717091304435
 30
0.0
 40
0.125
  1
TL-AB509
  0
TEXT
  5
1450A
  8
0
 10
3.5074661032582561
 20
9.9667059289606801
 30
0.0
 40
0.125
  1
1-5/16" x 7-9/16"
  0
TEXT
  5
1450B
  8
0
 10
3.519403347460166
 20
9.7562409448770051
 30
0.0
 40
0.125
  1
800.66.TAGUE
  0
ENDBLK
  5
1450D
  8
0
  0
BLOCK
  8
0
  2
*U22
 70
     1
 10
0.0
 20
0.0
 30
0.0
  3
*U22
  1

  0
TEXT
  5
1450F
  8
0
 10
2.4351613289356679
 20
1.5689652320414931
 30
0.0
 40
0.125
  1
Crown
  0
TEXT
  5
14510
  8
0
 10
2.4397656945564048
 20
1.3601203025280779
 30
0.0
 40
0.125
  1
TL-2309
  0
TEXT
  5
14511
  8
0
 10
2.436525585415886
 20
1.1496553184444041
 30
0.0
 40
0.125
  1
3/4" x 4-9/32"
  0
TEXT
  5
14512
  8
0
 10
2.4367813835059269
 20
0.93919033436073
 30
0.0
 40
0.125
  1
800.66.TAGUE
  0
ENDBLK
  5
14514
  8
0
  0
BLOCK
  8
0
  2
*U23
 70
     1
 10
0.0
 20
0.0
 30
0.0
  3
*U23
  1

  0
TEXT
  5
14516
  8
0
 10
2.92155741938942
 20
2.224733966132832
 30
0.0
 40
0.125
  1
Crown
  0
TEXT
  5
14517
  8
0
 10
2.9261617850101569
 20
2.0158890366194169
 30
0.0
 40
0.125
  1
TL-2320
  0
TEXT
  5
14518
  8
0
 10
2.9112402297577691
 20
1.805424052535743
 30
0.0
 40
0.125
  1
1" x 5-1/2"
  0
TEXT
  5
14519
  8
0
 10
2.923177473959679
 20
1.594959068452068
 30
0.0
 40
0.125
  1
800.66.TAGUE
  0
ENDBLK
  5
1451B
  8
0
  0
BLOCK
  8
0
  2
*U24
 70
     1
 10
0.0
 20
0.0
 30
0.0
  3
*U24
  1

  0
TEXT
  5
1451D
  8
0
 10
2.6597677138280189
 20
0.6784562906890415
 30
0.0
 40
0.125
  1
Dentil Moulding
  0
TEXT
  5
1451E
  8
0
 10
2.66914697712952
 20
0.4696113611756263
 30
0.0
 40
0.125
  1
TL-739
  0
TEXT
  5
1451F
  8
0
 10
2.6542254218771331
 20
0.2591463770919518
 30
0.0
 40
0.125
  1
1/2" x 1-3/4"
  0
TEXT
  5
14520
  8
0
 10
2.6661626660790421
 20
0.0486813930082775
 30
0.0
 40
0.125
  1
800.66.TAGUE
  0
ENDBLK
  5
14522
  8
0
  0
BLOCK
  8
0
  2
*U25
 70
     1
 10
0.0
 20
0.0
 30
0.0
  3
*U25
  1

  0
TEXT
  5
14524
  8
0
 10
2.7042940974357941
 20
0.6784567746323252
 30
0.0
 40
0.125
  1
Door Stop
  0
TEXT
  5
14525
  8
0
 10
2.7136733607372938
 20
0.46961184511891
 30
0.0
 40
0.125
  1
TL-815
  0
TEXT
  5
14526
  8
0
 10
2.7094953252666261
 20
0.2591468610352355
 30
0.0
 40
0.125
  1
7/16" x 1-5/8"
  0
TEXT
  5
14527
  8
0
 10
2.7106890496868168
 20
0.0486818769515611
 30
0.0
 40
0.125
  1
800.66.TAGUE
  0
ENDBLK
  5
14529
  8
0
  0
BLOCK
  8
0
  2
*U26
 70
     1
 10
0.0
 20
0.0
 30
0.0
  3
*U26
  1

  0
TEXT
  5
1452B
  8
0
 10
2.3189699659378982
 20
0.6784560538184384
 30
0.0
 40
0.125
  1
Door Stop
  0
TEXT
  5
1452C
  8
0
 10
2.3283492292393979
 20
0.4696111243050232
 30
0.0
 40
0.125
  1
TL-816
  0
TEXT
  5
1452D
  8
0
 10
2.3241711937687302
 20
0.2591461402213487
 30
0.0
 40
0.125
  1
7/16" x 1-3/8"
  0
TEXT
  5
1452E
  8
0
 10
2.3253649181889209
 20
0.0486811561376743
 30
0.0
 40
0.125
  1
800.66.TAGUE
  0
ENDBLK
  5
14530
  8
0
  0
BLOCK
  8
0
  2
*U27
 70
     1
 10
0.0
 20
0.0
 30
0.0
  3
*U27
  1

  0
TEXT
  5
14532
  8
0
 10
2.1615603025403818
 20
0.6784564665113227
 30
0.0
 40
0.125
  1
Door Stop
  0
TEXT
  5
14533
  8
0
 10
2.170939565841882
 20
0.4696115369979075
 30
0.0
 40
0.125
  1
TL-818
  0
TEXT
  5
14534
  8
0
 10
2.1667615303712142
 20
0.259146552914233
 30
0.0
 40
0.125
  1
7/16" x 1-1/8"
  0
TEXT
  5
14535
  8
0
 10
2.1679552547914049
 20
0.0486815688305586
 30
0.0
 40
0.125
  1
800.66.TAGUE
  0
ENDBLK
  5
14537
  8
0
  0
BLOCK
  8
0
  2
*U28
 70
     1
 10
0.0
 20
0.0
 30
0.0
  3
*U28
  1

  0
TEXT
  5
14539
  8
0
 10
2.528625256073981
 20
0.678455901755358
 30
0.0
 40
0.125
  1
Door Stop
  0
TEXT
  5
1453A
  8
0
 10
2.5380045193754821
 20
0.4696109722419429
 30
0.0
 40
0.125
  1
TL-875
  0
TEXT
  5
1453B
  8
0
 10
2.533826483904813
 20
0.2591459881582684
 30
0.0
 40
0.125
  1
7/16" x 1-5/8"
  0
TEXT
  5
1453C
  8
0
 10
2.5350202083250051
 20
0.048681004074594
 30
0.0
 40
0.125
  1
800.66.TAGUE
  0
ENDBLK
  5
1453E
  8
0
  0
BLOCK
  8
0
  2
*U29
 70
     1
 10
0.0
 20
0.0
 30
0.0
  3
*U29
  1

  0
TEXT
  5
14540
  8
0
 10
2.2579755991914978
 20
0.678455879870187
 30
0.0
 40
0.125
  1
Door Stop
  0
TEXT
  5
14541
  8
0
 10
2.2673548624929989
 20
0.4696109503567718
 30
0.0
 40
0.125
  1
TL-876
  0
TEXT
  5
14542
  8
0
 10
2.2631768270223298
 20
0.2591459662730974
 30
0.0
 40
0.125
  1
7/16" x 1-3/8"
  0
TEXT
  5
14543
  8
0
 10
2.264370551442521
 20
0.048680982189423
 30
0.0
 40
0.125
  1
800.66.TAGUE
  0
ENDBLK
  5
14545
  8
0
  0
BLOCK
  8
0
  2
*U30
 70
     1
 10
0.0
 20
0.0
 30
0.0
  3
*U30
  1

  0
TEXT
  5
14547
  8
0
 10
2.3183667684958511
 20
0.6784568619584821
 30
0.0
 40
0.125
  1
Door Stop
  0
TEXT
  5
14548
  8
0
 10
2.3277460317973522
 20
0.469611932445067
 30
0.0
 40
0.125
  1
TL-878
  0
TEXT
  5
14549
  8
0
 10
2.3235679963266831
 20
0.2591469483613925
 30
0.0
 40
0.125
  1
7/16" x 1-1/8"
  0
TEXT
  5
1454A
  8
0
 10
2.3247617207468738
 20
0.0486819642777181
 30
0.0
 40
0.125
  1
800.66.TAGUE
  0
ENDBLK
  5
1454C
  8
0
  0
BLOCK
  8
0
  2
*U31
 70
     1
 10
0.0
 20
0.0
 30
0.0
  3
*U31
  1

  0
TEXT
  5
1454E
  8
0
 10
2.5814734993571471
 20
0.6784562048903969
 30
0.0
 40
0.125
  1
Door Stop
  0
TEXT
  5
1454F
  8
0
 10
2.5908527626586468
 20
0.4696112753769817
 30
0.0
 40
0.125
  1
TL-935
  0
TEXT
  5
14550
  8
0
 10
2.5866747271879791
 20
0.2591462912933072
 30
0.0
 40
0.125
  1
7/16" x 1-5/8"
  0
TEXT
  5
14551
  8
0
 10
2.5878684516081698
 20
0.0486813072096328
 30
0.0
 40
0.125
  1
800.66.TAGUE
  0
ENDBLK
  5
14553
  8
0
  0
BLOCK
  8
0
  2
*U32
 70
     1
 10
0.0
 20
0.0
 30
0.0
  3
*U32
  1

  0
TEXT
  5
14555
  8
0
 10
2.0757274846039611
 20
0.6784558274068946
 30
0.0
 40
0.125
  1
Door Stop
  0
TEXT
  5
14556
  8
0
 10
2.0851067479054621
 20
0.4696108978934795
 30
0.0
 40
0.125
  1
TL-936
  0
TEXT
  5
14557
  8
0
 10
2.080928712434793
 20
0.259145913809805
 30
0.0
 40
0.125
  1
7/16" x 1-3/8"
  0
TEXT
  5
14558
  8
0
 10
2.0821224368549842
 20
0.0486809297261306
 30
0.0
 40
0.125
  1
800.66.TAGUE
  0
ENDBLK
  5
1455A
  8
0
  0
BLOCK
  8
0
  2
*U33
 70
     1
 10
0.0
 20
0.0
 30
0.0
  3
*U33
  1

  0
TEXT
  5
1455C
  8
0
 10
1.923391353203131
 20
0.6784559654484088
 30
0.0
 40
0.125
  1
Door Stop
  0
TEXT
  5
1455D
  8
0
 10
1.9327706165046321
 20
0.4696110359349937
 30
0.0
 40
0.125
  1
TL-938
  0
TEXT
  5
1455E
  8
0
 10
1.928592581033963
 20
0.2591460518513192
 30
0.0
 40
0.125
  1
7/16" x 1-1/8"
  0
TEXT
  5
1455F
  8
0
 10
1.929786305454154
 20
0.0486810677676448
 30
0.0
 40
0.125
  1
800.66.TAGUE
  0
ENDBLK
  5
14561
  8
0
  0
BLOCK
  8
0
  2
*U34
 70
     1
 10
0.0
 20
0.0
 30
0.0
  3
*U34
  1

  0
TEXT
  5
14563
  8
0
 10
1.872621048423555
 20
0.6784561775792941
 30
0.0
 40
0.125
  1
Door Stop
  0
TEXT
  5
14564
  8
0
 10
1.8820003117250561
 20
0.469611248065879
 30
0.0
 40
0.125
  1
TL-2203
  0
TEXT
  5
14565
  8
0
 10
1.878845468614551
 20
0.2591462639822045
 30
0.0
 40
0.125
  1
5/8" x 1-1/16"
  0
TEXT
  5
14566
  8
0
 10
1.879016000674578
 20
0.0486812798985301
 30
0.0
 40
0.125
  1
800.66.TAGUE
  0
ENDBLK
  5
14568
  8
0
  0
BLOCK
  8
0
  2
*U35
 70
     1
 10
0.0
 20
0.0
 30
0.0
  3
*U35
  1

  0
TEXT
  5
1456A
  8
0
 10
2.520152787451396
 20
0.6784560314453234
 30
0.0
 40
0.125
  1
Door Stop
  0
TEXT
  5
1456B
  8
0
 10
2.5295320507528971
 20
0.4696111019319083
 30
0.0
 40
0.125
  1
TL-2230
  0
TEXT
  5
1456C
  8
0
 10
2.5146104955005089
 20
0.2591461178482338
 30
0.0
 40
0.125
  1
1/2" x 2-1/8"
  0
TEXT
  5
1456D
  8
0
 10
2.5265477397024192
 20
0.0486811337645594
 30
0.0
 40
0.125
  1
800.66.TAGUE
  0
ENDBLK
  5
1456F
  8
0
  0
BLOCK
  8
0
  2
*U36
 70
     1
 10
0.0
 20
0.0
 30
0.0
  3
*U36
  1

  0
TEXT
  5
14571
  8
0
 10
2.8012949407720682
 20
0.7706910406696057
 30
0.0
 40
0.125
  1
Drip Cap
  0
TEXT
  5
14572
  8
0
 10
2.8106742040735688
 20
0.5618461111561907
 30
0.0
 40
0.125
  1
TL-188
  0
TEXT
  5
14573
  8
0
 10
2.7957526488211819
 20
0.3513811270725161
 30
0.0
 40
0.125
  1
1-1/16" x 1-5/8"
  0
TEXT
  5
14574
  8
0
 10
2.8076898930230918
 20
0.1409161429888417
 30
0.0
 40
0.125
  1
800.66.TAGUE
  0
ENDBLK
  5
14576
  8
0
  0
BLOCK
  8
0
  2
*U37
 70
     1
 10
0.0
 20
0.0
 30
0.0
  3
*U37
  1

  0
TEXT
  5
14578
  8
0
 10
1.8292826732101419
 20
1.374168118676623
 30
0.0
 40
0.125
  1
Exterior Casing
  0
TEXT
  5
14579
  8
0
 10
1.8390030006316971
 20
1.1653231891632081
 30
0.0
 40
0.125
  1
TL-32
  0
TEXT
  5
1457A
  8
0
 10
1.8240814453793099
 20
0.9548582050795337
 30
0.0
 40
0.125
  1
1-1/16" x 2-7/16"
  0
TEXT
  5
1457B
  8
0
 10
1.8360186895812201
 20
0.7443932209958593
 30
0.0
 40
0.125
  1
800.66.TAGUE
  0
ENDBLK
  5
1457D
  8
0
  0
BLOCK
  8
0
  2
*U38
 70
     1
 10
0.0
 20
0.0
 30
0.0
  3
*U38
  1

  0
TEXT
  5
1457F
  8
0
 10
-384.57846737195388
 20
841.09654863897197
 30
0.0
 40
0.125
  1
Exterior Casing
  0
TEXT
  5
14580
  8
0
 10
-384.56874704453242
 20
840.88770370945872
 30
0.0
 40
0.125
  1
TL-32
  0
TEXT
  5
14581
  8
0
 10
-384.5836685997848
 20
840.67723872537488
 30
0.0
 40
0.125
  1
1-1/16" x 2-7/16"
  0
TEXT
  5
14582
  8
0
 10
-384.57173135558281
 20
840.46677374129138
 30
0.0
 40
0.125
  1
800.66.TAGUE
  0
ENDBLK
  5
14584
  8
0
  0
ENDSEC
  0
SECTION
  2
ENTITIES
  0
INSERT
  5
144EA
  8
0
  2
*U38
 10
0.0
 20
0.0
 30
0.0
  0
LINE
  5
144EB
  8
0
 10
-386.0931884301649
 20
839.98089197818751
 30
0.0
 11
-386.09143376481279
 21
839.72238016249969
 31
0.0
  0
LINE
  5
144EC
  8
0
 10
-385.76263189178781
 20
841.36638952762451
 30
0.0
 11
-385.76263189178781
 21
841.4288202630089
 31
0.0
  0
LINE
  5
144ED
  8
0
 10
-385.39637157753219
 20
842.2071234308022
 30
0.0
 11
-385.39637157753219
 21
841.4288202630089
 31
0.0
  0
LINE
  5
144EE
  8
0
 10
-386.40774949076081
 20
839.72238016249969
 30
0.0
 11
-386.40774949076081
 21
842.2071234308022
 31
0.0
  0
LINE
  5
144EF
  8
0
 10
-385.39637157753219
 20
841.4288202630089
 30
0.0
 11
-385.76263189178781
 21
841.4288202630089
 31
0.0
  0
LINE
  5
144F0
  8
0
 10
-386.40774949076081
 20
842.2071234308022
 30
0.0
 11
-385.39637157753219
 21
842.2071234308022
 31
0.0
  0
LINE
  5
144F1
  8
0
 10
-386.40774949076081
 20
839.72238016249969
 30
0.0
 11
-386.09143376481279
 21
839.72238016249969
 31
0.0
  0
POLYLINE
  8
0
  5
14585
  66
     1
 10
0.000000
 20
0.000000
 30
0.000000
  70
     8
  0
VERTEX
  8
0
  5
14586
 10
-385.521
 20
840.667
 30
0.000000
  70
    32
  0
VERTEX
  8
0
  5
14587
 10
-385.523
 20
840.665
 30
0.000000
  70
    32
  0
VERTEX
  8
0
  5
14588
 10
-385.524
 20
840.663
 30
0.000000
  70
    32
  0
VERTEX
  8
0
  5
14589
 10
-385.525
 20
840.661
 30
0.000000
  70
    32
  0
VERTEX
  8
0
  5
1458A
 10
-385.527
 20
840.659
 30
0.000000
  70
    32
  0
VERTEX
  8
0
  5
1458B
 10
-385.528
 20
840.658
 30
0.000000
  70
    32
  0
VERTEX
  8
0
  5
1458C
 10
-385.530
 20
840.656
 30
0.000000
  70
    32
  0
VERTEX
  8
0
  5
1458D
 10
-385.531
 20
840.654
 30
0.000000
  70
    32
  0
VERTEX
  8
0
  5
1458E
 10
-385.532
 20
840.652
 30
0.000000
  70
    32
  0
VERTEX
  8
0
  5
1458F
 10
-385.534
 20
840.650
 30
0.000000
  70
    32
  0
VERTEX
  8
0
  5
14590
 10
-385.535
 20
840.648
 30
0.000000
  70
    32
  0
VERTEX
  8
0
  5
14591
 10
-385.537
 20
840.646
 30
0.000000
  70
    32
  0
VERTEX
  8
0
  5
14592
 10
-385.538
 20
840.644
 30
0.000000
  70
    32
  0
VERTEX
  8
0
  5
14593
 10
-385.539
 20
840.642
 30
0.000000
  70
    32
  0
VERTEX
  8
0
  5
14594
 10
-385.541
 20
840.640
 30
0.000000
  70
    32
  0
VERTEX
  8
0
  5
14595
 10
-385.542
 20
840.638
 30
0.000000
  70
    32
  0
VERTEX
  8
0
  5
14596
 10
-385.544
 20
840.637
 30
0.000000
  70
    32
  0
VERTEX
  8
0
  5
14597
 10
-385.545
 20
840.635
 30
0.000000
  70
    32
  0
VERTEX
  8
0
  5
14598
 10
-385.546
 20
840.633
 30
0.000000
  70
    32
  0
VERTEX
  8
0
  5
14599
 10
-385.548
 20
840.631
 30
0.000000
  70
    32
  0
VERTEX
  8
0
  5
1459A
 10
-385.549
 20
840.629
 30
0.000000
  70
    32
  0
VERTEX
  8
0
  5
1459B
 10
-385.551
 20
840.627
 30
0.000000
  70
    32
  0
VERTEX
  8
0
  5
1459C
 10
-385.552
 20
840.625
 30
0.000000
  70
    32
  0
VERTEX
  8
0
  5
1459D
 10
-385.554
 20
840.623
 30
0.000000
  70
    32
  0
VERTEX
  8
0
  5
1459E
 10
-385.555
 20
840.621
 30
0.000000
  70
    32
  0
VERTEX
  8
0
  5
1459F
 10
-385.556
 20
840.619
 30
0.000000
  70
    32
  0
VERTEX
  8
0
  5
145A0
 10
-385.558
 20
840.618
 30
0.000000
  70
    32
  0
VERTEX
  8
0
  5
145A1
 10
-385.559
 20
840.616
 30
0.000000
  70
    32
  0
VERTEX
  8
0
  5
145A2
 10
-385.561
 20
840.614
 30
0.000000
  70
    32
  0
VERTEX
  8
0
  5
145A3
 10
-385.562
 20
840.612
 30
0.000000
  70
    32
  0
VERTEX
  8
0
  5
145A4
 10
-385.564
 20
840.610
 30
0.000000
  70
    32
  0
VERTEX
  8
0
  5
145A5
 10
-385.565
 20
840.608
 30
0.000000
  70
    32
  0
VERTEX
  8
0
  5
145A6
 10
-385.566
 20
840.606
 30
0.000000
  70
    32
  0
VERTEX
  8
0
  5
145A7
 10
-385.568
 20
840.604
 30
0.000000
  70
    32
  0
VERTEX
  8
0
  5
145A8
 10
-385.569
 20
840.603
 30
0.000000
  70
    32
  0
VERTEX
  8
0
  5
145A9
 10
-385.571
 20
840.601
 30
0.000000
  70
    32
  0
VERTEX
  8
0
  5
145AA
 10
-385.572
 20
840.599
 30
0.000000
  70
    32
  0
VERTEX
  8
0
  5
145AB
 10
-385.574
 20
840.597
 30
0.000000
  70
    32
  0
VERTEX
  8
0
  5
145AC
 10
-385.575
 20
840.595
 30
0.000000
  70
    32
  0
VERTEX
  8
0
  5
145AD
 10
-385.577
 20
840.593
 30
0.000000
  70
    32
  0
VERTEX
  8
0
  5
145AE
 10
-385.578
 20
840.591
 30
0.000000
  70
    32
  0
VERTEX
  8
0
  5
145AF
 10
-385.580
 20
840.590
 30
0.000000
  70
    32
  0
VERTEX
  8
0
  5
145B0
 10
-385.581
 20
840.588
 30
0.000000
  70
    32
  0
VERTEX
  8
0
  5
145B1
 10
-385.583
 20
840.586
 30
0.000000
  70
    32
  0
VERTEX
  8
0
  5
145B2
 10
-385.584
 20
840.584
 30
0.000000
  70
    32
  0
VERTEX
  8
0
  5
145B3
 10
-385.586
 20
840.582
 30
0.000000
  70
    32
  0
VERTEX
  8
0
  5
145B4
 10
-385.587
 20
840.580
 30
0.000000
  70
    32
  0
VERTEX
  8
0
  5
145B5
 10
-385.589
 20
840.579
 30
0.000000
  70
    32
  0
VERTEX
  8
0
  5
145B6
 10
-385.590
 20
840.577
 30
0.000000
  70
    32
  0
VERTEX
  8
0
  5
145B7
 10
-385.592
 20
840.575
 30
0.000000
  70
    32
  0
VERTEX
  8
0
  5
145B8
 10
-385.593
 20
840.573
 30
0.000000
  70
    32
  0
VERTEX
  8
0
  5
145B9
 10
-385.595
 20
840.572
 30
0.000000
  70
    32
  0
VERTEX
  8
0
  5
145BA
 10
-385.596
 20
840.570
 30
0.000000
  70
    32
  0
VERTEX
  8
0
  5
145BB
 10
-385.598
 20
840.568
 30
0.000000
  70
    32
  0
VERTEX
  8
0
  5
145BC
 10
-385.599
 20
840.566
 30
0.000000
  70
    32
  0
VERTEX
  8
0
  5
145BD
 10
-385.601
 20
840.564
 30
0.000000
  70
    32
  0
VERTEX
  8
0
  5
145BE
 10
-385.602
 20
840.563
 30
0.000000
  70
    32
  0
VERTEX
  8
0
  5
145BF
 10
-385.604
 20
840.561
 30
0.000000
  70
    32
  0
VERTEX
  8
0
  5
145C0
 10
-385.605
 20
840.559
 30
0.000000
  70
    32
  0
VERTEX
  8
0
  5
145C1
 10
-385.607
 20
840.557
 30
0.000000
  70
    32
  0
VERTEX
  8
0
  5
145C2
 10
-385.609
 20
840.556
 30
0.000000
  70
    32
  0
VERTEX
  8
0
  5
145C3
 10
-385.610
 20
840.554
 30
0.000000
  70
    32
  0
VERTEX
  8
0
  5
145C4
 10
-385.612
 20
840.552
 30
0.000000
  70
    32
  0
VERTEX
  8
0
  5
145C5
 10
-385.613
 20
840.550
 30
0.000000
  70
    32
  0
VERTEX
  8
0
  5
145C6
 10
-385.615
 20
840.549
 30
0.000000
  70
    32
  0
VERTEX
  8
0
  5
145C7
 10
-385.616
 20
840.547
 30
0.000000
  70
    32
  0
VERTEX
  8
0
  5
145C8
 10
-385.618
 20
840.545
 30
0.000000
  70
    32
  0
VERTEX
  8
0
  5
145C9
 10
-385.620
 20
840.544
 30
0.000000
  70
    32
  0
VERTEX
  8
0
  5
145CA
 10
-385.621
 20
840.542
 30
0.000000
  70
    32
  0
VERTEX
  8
0
  5
145CB
 10
-385.623
 20
840.540
 30
0.000000
  70
    32
  0
VERTEX
  8
0
  5
145CC
 10
-385.625
 20
840.539
 30
0.000000
  70
    32
  0
VERTEX
  8
0
  5
145CD
 10
-385.626
 20
840.537
 30
0.000000
  70
    32
  0
VERTEX
  8
0
  5
145CE
 10
-385.628
 20
840.535
 30
0.000000
  70
    32
  0
VERTEX
  8
0
  5
145CF
 10
-385.629
 20
840.534
 30
0.000000
  70
    32
  0
VERTEX
  8
0
  5
145D0
 10
-385.631
 20
840.532
 30
0.000000
  70
    32
  0
VERTEX
  8
0
  5
145D1
 10
-385.633
 20
840.530
 30
0.000000
  70
    32
  0
VERTEX
  8
0
  5
145D2
 10
-385.634
 20
840.529
 30
0.000000
  70
    32
  0
VERTEX
  8
0
  5
145D3
 10
-385.636
 20
840.527
 30
0.000000
  70
    32
  0
VERTEX
  8
0
  5
145D4
 10
-385.638
 20
840.526
 30
0.000000
  70
    32
  0
VERTEX
  8
0
  5
145D5
 10
-385.640
 20
840.524
 30
0.000000
  70
    32
  0
VERTEX
  8
0
  5
145D6
 10
-385.641
 20
840.522
 30
0.000000
  70
    32
  0
VERTEX
  8
0
  5
145D7
 10
-385.643
 20
840.521
 30
0.000000
  70
    32
  0
VERTEX
  8
0
  5
145D8
 10
-385.645
 20
840.519
 30
0.000000
  70
    32
  0
VERTEX
  8
0
  5
145D9
 10
-385.646
 20
840.518
 30
0.000000
  70
    32
  0
VERTEX
  8
0
  5
145DA
 10
-385.648
 20
840.516
 30
0.000000
  70
    32
  0
VERTEX
  8
0
  5
145DB
 10
-385.650
 20
840.515
 30
0.000000
  70
    32
  0
VERTEX
  8
0
  5
145DC
 10
-385.652
 20
840.513
 30
0.000000
  70
    32
  0
VERTEX
  8
0
  5
145DD
 10
-385.653
 20
840.511
 30
0.000000
  70
    32
  0
VERTEX
  8
0
  5
145DE
 10
-385.655
 20
840.510
 30
0.000000
  70
    32
  0
VERTEX
  8
0
  5
145DF
 10
-385.657
 20
840.508
 30
0.000000
  70
    32
  0
VERTEX
  8
0
  5
145E0
 10
-385.659
 20
840.507
 30
0.000000
  70
    32
  0
VERTEX
  8
0
  5
145E1
 10
-385.660
 20
840.505
 30
0.000000
  70
    32
  0
VERTEX
  8
0
  5
145E2
 10
-385.662
 20
840.504
 30
0.000000
  70
    32
  0
VERTEX
  8
0
  5
145E3
 10
-385.664
 20
840.502
 30
0.000000
  70
    32
  0
VERTEX
  8
0
  5
145E4
 10
-385.666
 20
840.501
 30
0.000000
  70
    32
  0
VERTEX
  8
0
  5
145E5
 10
-385.668
 20
840.499
 30
0.000000
  70
    32
  0
VERTEX
  8
0
  5
145E6
 10
-385.670
 20
840.498
 30
0.000000
  70
    32
  0
VERTEX
  8
0
  5
145E7
 10
-385.671
 20
840.496
 30
0.000000
  70
    32
  0
VERTEX
  8
0
  5
145E8
 10
-385.673
 20
840.495
 30
0.000000
  70
    32
  0
VERTEX
  8
0
  5
145E9
 10
-385.675
 20
840.493
 30
0.000000
  70
    32
  0
VERTEX
  8
0
  5
145EA
 10
-385.677
 20
840.492
 30
0.000000
  70
    32
  0
VERTEX
  8
0
  5
145EB
 10
-385.679
 20
840.491
 30
0.000000
  70
    32
  0
VERTEX
  8
0
  5
145EC
 10
-385.681
 20
840.489
 30
0.000000
  70
    32
  0
VERTEX
  8
0
  5
145ED
 10
-385.682
 20
840.488
 30
0.000000
  70
    32
  0
VERTEX
  8
0
  5
145EE
 10
-385.684
 20
840.486
 30
0.000000
  70
    32
  0
VERTEX
  8
0
  5
145EF
 10
-385.686
 20
840.485
 30
0.000000
  70
    32
  0
VERTEX
  8
0
  5
145F0
 10
-385.688
 20
840.483
 30
0.000000
  70
    32
  0
VERTEX
  8
0
  5
145F1
 10
-385.690
 20
840.482
 30
0.000000
  70
    32
  0
VERTEX
  8
0
  5
145F2
 10
-385.692
 20
840.481
 30
0.000000
  70
    32
  0
VERTEX
  8
0
  5
145F3
 10
-385.694
 20
840.479
 30
0.000000
  70
    32
  0
VERTEX
  8
0
  5
145F4
 10
-385.695
 20
840.478
 30
0.000000
  70
    32
  0
VERTEX
  8
0
  5
145F5
 10
-385.697
 20
840.476
 30
0.000000
  70
    32
  0
VERTEX
  8
0
  5
145F6
 10
-385.699
 20
840.475
 30
0.000000
  70
    32
  0
VERTEX
  8
0
  5
145F7
 10
-385.701
 20
840.474
 30
0.000000
  70
    32
  0
VERTEX
  8
0
  5
145F8
 10
-385.703
 20
840.472
 30
0.000000
  70
    32
  0
VERTEX
  8
0
  5
145F9
 10
-385.705
 20
840.471
 30
0.000000
  70
    32
  0
VERTEX
  8
0
  5
145FA
 10
-385.707
 20
840.470
 30
0.000000
  70
    32
  0
VERTEX
  8
0
  5
145FB
 10
-385.709
 20
840.468
 30
0.000000
  70
    32
  0
VERTEX
  8
0
  5
145FC
 10
-385.711
 20
840.467
 30
0.000000
  70
    32
  0
VERTEX
  8
0
  5
145FD
 10
-385.713
 20
840.465
 30
0.000000
  70
    32
  0
VERTEX
  8
0
  5
145FE
 10
-385.715
 20
840.464
 30
0.000000
  70
    32
  0
VERTEX
  8
0
  5
145FF
 10
-385.717
 20
840.463
 30
0.000000
  70
    32
  0
VERTEX
  8
0
  5
14600
 10
-385.718
 20
840.461
 30
0.000000
  70
    32
  0
VERTEX
  8
0
  5
14601
 10
-385.720
 20
840.460
 30
0.000000
  70
    32
  0
VERTEX
  8
0
  5
14602
 10
-385.722
 20
840.459
 30
0.000000
  70
    32
  0
VERTEX
  8
0
  5
14603
 10
-385.724
 20
840.457
 30
0.000000
  70
    32
  0
VERTEX
  8
0
  5
14604
 10
-385.726
 20
840.456
 30
0.000000
  70
    32
  0
VERTEX
  8
0
  5
14605
 10
-385.728
 20
840.455
 30
0.000000
  70
    32
  0
VERTEX
  8
0
  5
14606
 10
-385.730
 20
840.453
 30
0.000000
  70
    32
  0
VERTEX
  8
0
  5
14607
 10
-385.732
 20
840.452
 30
0.000000
  70
    32
  0
VERTEX
  8
0
  5
14608
 10
-385.734
 20
840.451
 30
0.000000
  70
    32
  0
VERTEX
  8
0
  5
14609
 10
-385.736
 20
840.449
 30
0.000000
  70
    32
  0
VERTEX
  8
0
  5
1460A
 10
-385.738
 20
840.448
 30
0.000000
  70
    32
  0
VERTEX
  8
0
  5
1460B
 10
-385.740
 20
840.447
 30
0.000000
  70
    32
  0
VERTEX
  8
0
  5
1460C
 10
-385.742
 20
840.445
 30
0.000000
  70
    32
  0
VERTEX
  8
0
  5
1460D
 10
-385.744
 20
840.444
 30
0.000000
  70
    32
  0
VERTEX
  8
0
  5
1460E
 10
-385.746
 20
840.443
 30
0.000000
  70
    32
  0
VERTEX
  8
0
  5
1460F
 10
-385.748
 20
840.442
 30
0.000000
  70
    32
  0
VERTEX
  8
0
  5
14610
 10
-385.750
 20
840.440
 30
0.000000
  70
    32
  0
VERTEX
  8
0
  5
14611
 10
-385.752
 20
840.439
 30
0.000000
  70
    32
  0
VERTEX
  8
0
  5
14612
 10
-385.754
 20
840.438
 30
0.000000
  70
    32
  0
VERTEX
  8
0
  5
14613
 10
-385.756
 20
840.436
 30
0.000000
  70
    32
  0
VERTEX
  8
0
  5
14614
 10
-385.758
 20
840.435
 30
0.000000
  70
    32
  0
VERTEX
  8
0
  5
14615
 10
-385.760
 20
840.434
 30
0.000000
  70
    32
  0
VERTEX
  8
0
  5
14616
 10
-385.762
 20
840.432
 30
0.000000
  70
    32
  0
VERTEX
  8
0
  5
14617
 10
-385.764
 20
840.431
 30
0.000000
  70
    32
  0
VERTEX
  8
0
  5
14618
 10
-385.766
 20
840.430
 30
0.000000
  70
    32
  0
VERTEX
  8
0
  5
14619
 10
-385.768
 20
840.429
 30
0.000000
  70
    32
  0
VERTEX
  8
0
  5
1461A
 10
-385.770
 20
840.427
 30
0.000000
  70
    32
  0
VERTEX
  8
0
  5
1461B
 10
-385.772
 20
840.426
 30
0.000000
  70
    32
  0
VERTEX
  8
0
  5
1461C
 10
-385.774
 20
840.425
 30
0.000000
  70
    32
  0
VERTEX
  8
0
  5
1461D
 10
-385.776
 20
840.424
 30
0.000000
  70
    32
  0
VERTEX
  8
0
  5
1461E
 10
-385.778
 20
840.422
 30
0.000000
  70
    32
  0
VERTEX
  8
0
  5
1461F
 10
-385.780
 20
840.421
 30
0.000000
  70
    32
  0
VERTEX
  8
0
  5
14620
 10
-385.782
 20
840.420
 30
0.000000
  70
    32
  0
VERTEX
  8
0
  5
14621
 10
-385.784
 20
840.418
 30
0.000000
  70
    32
  0
VERTEX
  8
0
  5
14622
 10
-385.786
 20
840.417
 30
0.000000
  70
    32
  0
VERTEX
  8
0
  5
14623
 10
-385.788
 20
840.416
 30
0.000000
  70
    32
  0
VERTEX
  8
0
  5
14624
 10
-385.790
 20
840.415
 30
0.000000
  70
    32
  0
VERTEX
  8
0
  5
14625
 10
-385.792
 20
840.413
 30
0.000000
  70
    32
  0
SEQEND
  8
0
  5
14626
  0
POLYLINE
  8
0
  5
14627
  66
     1
 10
0.000000
 20
0.000000
 30
0.000000
  70
     8
  0
VERTEX
  8
0
  5
14628
 10
-385.950
 20
840.293
 30
0.000000
  70
    32
  0
VERTEX
  8
0
  5
14629
 10
-385.949
 20
840.293
 30
0.000000
  70
    32
  0
VERTEX
  8
0
  5
1462A
 10
-385.948
 20
840.294
 30
0.000000
  70
    32
  0
VERTEX
  8
0
  5
1462B
 10
-385.947
 20
840.295
 30
0.000000
  70
    32
  0
VERTEX
  8
0
  5
1462C
 10
-385.946
 20
840.296
 30
0.000000
  70
    32
  0
VERTEX
  8
0
  5
1462D
 10
-385.945
 20
840.297
 30
0.000000
  70
    32
  0
VERTEX
  8
0
  5
1462E
 10
-385.944
 20
840.298
 30
0.000000
  70
    32
  0
VERTEX
  8
0
  5
1462F
 10
-385.943
 20
840.298
 30
0.000000
  70
    32
  0
VERTEX
  8
0
  5
14630
 10
-385.942
 20
840.299
 30
0.000000
  70
    32
  0
VERTEX
  8
0
  5
14631
 10
-385.942
 20
840.300
 30
0.000000
  70
    32
  0
VERTEX
  8
0
  5
14632
 10
-385.941
 20
840.301
 30
0.000000
  70
    32
  0
VERTEX
  8
0
  5
14633
 10
-385.940
 20
840.302
 30
0.000000
  70
    32
  0
VERTEX
  8
0
  5
14634
 10
-385.939
 20
840.303
 30
0.000000
  70
    32
  0
VERTEX
  8
0
  5
14635
 10
-385.938
 20
840.304
 30
0.000000
  70
    32
  0
VERTEX
  8
0
  5
14636
 10
-385.937
 20
840.304
 30
0.000000
  70
    32
  0
VERTEX
  8
0
  5
14637
 10
-385.936
 20
840.305
 30
0.000000
  70
    32
  0
VERTEX
  8
0
  5
14638
 10
-385.935
 20
840.306
 30
0.000000
  70
    32
  0
VERTEX
  8
0
  5
14639
 10
-385.934
 20
840.307
 30
0.000000
  70
    32
  0
VERTEX
  8
0
  5
1463A
 10
-385.933
 20
840.308
 30
0.000000
  70
    32
  0
VERTEX
  8
0
  5
1463B
 10
-385.932
 20
840.309
 30
0.000000
  70
    32
  0
VERTEX
  8
0
  5
1463C
 10
-385.931
 20
840.309
 30
0.000000
  70
    32
  0
VERTEX
  8
0
  5
1463D
 10
-385.930
 20
840.310
 30
0.000000
  70
    32
  0
VERTEX
  8
0
  5
1463E
 10
-385.929
 20
840.311
 30
0.000000
  70
    32
  0
VERTEX
  8
0
  5
1463F
 10
-385.929
 20
840.312
 30
0.000000
  70
    32
  0
VERTEX
  8
0
  5
14640
 10
-385.928
 20
840.313
 30
0.000000
  70
    32
  0
VERTEX
  8
0
  5
14641
 10
-385.927
 20
840.314
 30
0.000000
  70
    32
  0
VERTEX
  8
0
  5
14642
 10
-385.926
 20
840.314
 30
0.000000
  70
    32
  0
VERTEX
  8
0
  5
14643
 10
-385.925
 20
840.315
 30
0.000000
  70
    32
  0
VERTEX
  8
0
  5
14644
 10
-385.924
 20
840.316
 30
0.000000
  70
    32
  0
VERTEX
  8
0
  5
14645
 10
-385.923
 20
840.317
 30
0.000000
  70
    32
  0
VERTEX
  8
0
  5
14646
 10
-385.922
 20
840.318
 30
0.000000
  70
    32
  0
VERTEX
  8
0
  5
14647
 10
-385.921
 20
840.319
 30
0.000000
  70
    32
  0
VERTEX
  8
0
  5
14648
 10
-385.920
 20
840.319
 30
0.000000
  70
    32
  0
VERTEX
  8
0
  5
14649
 10
-385.919
 20
840.320
 30
0.000000
  70
    32
  0
VERTEX
  8
0
  5
1464A
 10
-385.918
 20
840.321
 30
0.000000
  70
    32
  0
VERTEX
  8
0
  5
1464B
 10
-385.917
 20
840.322
 30
0.000000
  70
    32
  0
VERTEX
  8
0
  5
1464C
 10
-385.916
 20
840.323
 30
0.000000
  70
    32
  0
VERTEX
  8
0
  5
1464D
 10
-385.915
 20
840.324
 30
0.000000
  70
    32
  0
VERTEX
  8
0
  5
1464E
 10
-385.914
 20
840.324
 30
0.000000
  70
    32
  0
VERTEX
  8
0
  5
1464F
 10
-385.913
 20
840.325
 30
0.000000
  70
    32
  0
VERTEX
  8
0
  5
14650
 10
-385.913
 20
840.326
 30
0.000000
  70
    32
  0
VERTEX
  8
0
  5
14651
 10
-385.912
 20
840.327
 30
0.000000
  70
    32
  0
VERTEX
  8
0
  5
14652
 10
-385.911
 20
840.328
 30
0.000000
  70
    32
  0
VERTEX
  8
0
  5
14653
 10
-385.910
 20
840.329
 30
0.000000
  70
    32
  0
VERTEX
  8
0
  5
14654
 10
-385.909
 20
840.329
 30
0.000000
  70
    32
  0
VERTEX
  8
0
  5
14655
 10
-385.908
 20
840.330
 30
0.000000
  70
    32
  0
VERTEX
  8
0
  5
14656
 10
-385.907
 20
840.331
 30
0.000000
  70
    32
  0
VERTEX
  8
0
  5
14657
 10
-385.906
 20
840.332
 30
0.000000
  70
    32
  0
VERTEX
  8
0
  5
14658
 10
-385.905
 20
840.333
 30
0.000000
  70
    32
  0
VERTEX
  8
0
  5
14659
 10
-385.904
 20
840.333
 30
0.000000
  70
    32
  0
VERTEX
  8
0
  5
1465A
 10
-385.903
 20
840.334
 30
0.000000
  70
    32
  0
VERTEX
  8
0
  5
1465B
 10
-385.902
 20
840.335
 30
0.000000
  70
    32
  0
VERTEX
  8
0
  5
1465C
 10
-385.901
 20
840.336
 30
0.000000
  70
    32
  0
VERTEX
  8
0
  5
1465D
 10
-385.900
 20
840.337
 30
0.000000
  70
    32
  0
VERTEX
  8
0
  5
1465E
 10
-385.899
 20
840.338
 30
0.000000
  70
    32
  0
VERTEX
  8
0
  5
1465F
 10
-385.898
 20
840.338
 30
0.000000
  70
    32
  0
VERTEX
  8
0
  5
14660
 10
-385.897
 20
840.339
 30
0.000000
  70
    32
  0
VERTEX
  8
0
  5
14661
 10
-385.896
 20
840.340
 30
0.000000
  70
    32
  0
VERTEX
  8
0
  5
14662
 10
-385.895
 20
840.341
 30
0.000000
  70
    32
  0
VERTEX
  8
0
  5
14663
 10
-385.894
 20
840.342
 30
0.000000
  70
    32
  0
VERTEX
  8
0
  5
14664
 10
-385.893
 20
840.342
 30
0.000000
  70
    32
  0
VERTEX
  8
0
  5
14665
 10
-385.892
 20
840.343
 30
0.000000
  70
    32
  0
VERTEX
  8
0
  5
14666
 10
-385.892
 20
840.344
 30
0.000000
  70
    32
  0
VERTEX
  8
0
  5
14667
 10
-385.891
 20
840.345
 30
0.000000
  70
    32
  0
VERTEX
  8
0
  5
14668
 10
-385.890
 20
840.346
 30
0.000000
  70
    32
  0
VERTEX
  8
0
  5
14669
 10
-385.889
 20
840.346
 30
0.000000
  70
    32
  0
VERTEX
  8
0
  5
1466A
 10
-385.888
 20
840.347
 30
0.000000
  70
    32
  0
VERTEX
  8
0
  5
1466B
 10
-385.887
 20
840.348
 30
0.000000
  70
    32
  0
VERTEX
  8
0
  5
1466C
 10
-385.886
 20
840.349
 30
0.000000
  70
    32
  0
VERTEX
  8
0
  5
1466D
 10
-385.885
 20
840.349
 30
0.000000
  70
    32
  0
VERTEX
  8
0
  5
1466E
 10
-385.884
 20
840.350
 30
0.000000
  70
    32
  0
VERTEX
  8
0
  5
1466F
 10
-385.883
 20
840.351
 30
0.000000
  70
    32
  0
VERTEX
  8
0
  5
14670
 10
-385.882
 20
840.352
 30
0.000000
  70
    32
  0
VERTEX
  8
0
  5
14671
 10
-385.881
 20
840.353
 30
0.000000
  70
    32
  0
VERTEX
  8
0
  5
14672
 10
-385.880
 20
840.353
 30
0.000000
  70
    32
  0
VERTEX
  8
0
  5
14673
 10
-385.879
 20
840.354
 30
0.000000
  70
    32
  0
VERTEX
  8
0
  5
14674
 10
-385.878
 20
840.355
 30
0.000000
  70
    32
  0
VERTEX
  8
0
  5
14675
 10
-385.877
 20
840.356
 30
0.000000
  70
    32
  0
VERTEX
  8
0
  5
14676
 10
-385.876
 20
840.356
 30
0.000000
  70
    32
  0
VERTEX
  8
0
  5
14677
 10
-385.875
 20
840.357
 30
0.000000
  70
    32
  0
VERTEX
  8
0
  5
14678
 10
-385.874
 20
840.358
 30
0.000000
  70
    32
  0
VERTEX
  8
0
  5
14679
 10
-385.873
 20
840.359
 30
0.000000
  70
    32
  0
VERTEX
  8
0
  5
1467A
 10
-385.872
 20
840.359
 30
0.000000
  70
    32
  0
VERTEX
  8
0
  5
1467B
 10
-385.871
 20
840.360
 30
0.000000
  70
    32
  0
VERTEX
  8
0
  5
1467C
 10
-385.870
 20
840.361
 30
0.000000
  70
    32
  0
VERTEX
  8
0
  5
1467D
 10
-385.869
 20
840.362
 30
0.000000
  70
    32
  0
VERTEX
  8
0
  5
1467E
 10
-385.868
 20
840.362
 30
0.000000
  70
    32
  0
VERTEX
  8
0
  5
1467F
 10
-385.867
 20
840.363
 30
0.000000
  70
    32
  0
VERTEX
  8
0
  5
14680
 10
-385.866
 20
840.364
 30
0.000000
  70
    32
  0
VERTEX
  8
0
  5
14681
 10
-385.865
 20
840.365
 30
0.000000
  70
    32
  0
VERTEX
  8
0
  5
14682
 10
-385.864
 20
840.365
 30
0.000000
  70
    32
  0
VERTEX
  8
0
  5
14683
 10
-385.863
 20
840.366
 30
0.000000
  70
    32
  0
VERTEX
  8
0
  5
14684
 10
-385.862
 20
840.367
 30
0.000000
  70
    32
  0
VERTEX
  8
0
  5
14685
 10
-385.861
 20
840.368
 30
0.000000
  70
    32
  0
VERTEX
  8
0
  5
14686
 10
-385.860
 20
840.368
 30
0.000000
  70
    32
  0
VERTEX
  8
0
  5
14687
 10
-385.859
 20
840.369
 30
0.000000
  70
    32
  0
VERTEX
  8
0
  5
14688
 10
-385.858
 20
840.370
 30
0.000000
  70
    32
  0
VERTEX
  8
0
  5
14689
 10
-385.857
 20
840.371
 30
0.000000
  70
    32
  0
VERTEX
  8
0
  5
1468A
 10
-385.856
 20
840.371
 30
0.000000
  70
    32
  0
VERTEX
  8
0
  5
1468B
 10
-385.855
 20
840.372
 30
0.000000
  70
    32
  0
VERTEX
  8
0
  5
1468C
 10
-385.854
 20
840.373
 30
0.000000
  70
    32
  0
VERTEX
  8
0
  5
1468D
 10
-385.853
 20
840.373
 30
0.000000
  70
    32
  0
VERTEX
  8
0
  5
1468E
 10
-385.852
 20
840.374
 30
0.000000
  70
    32
  0
VERTEX
  8
0
  5
1468F
 10
-385.851
 20
840.375
 30
0.000000
  70
    32
  0
VERTEX
  8
0
  5
14690
 10
-385.850
 20
840.376
 30
0.000000
  70
    32
  0
VERTEX
  8
0
  5
14691
 10
-385.849
 20
840.376
 30
0.000000
  70
    32
  0
VERTEX
  8
0
  5
14692
 10
-385.847
 20
840.377
 30
0.000000
  70
    32
  0
VERTEX
  8
0
  5
14693
 10
-385.846
 20
840.378
 30
0.000000
  70
    32
  0
VERTEX
  8
0
  5
14694
 10
-385.845
 20
840.378
 30
0.000000
  70
    32
  0
VERTEX
  8
0
  5
14695
 10
-385.844
 20
840.379
 30
0.000000
  70
    32
  0
VERTEX
  8
0
  5
14696
 10
-385.843
 20
840.380
 30
0.000000
  70
    32
  0
VERTEX
  8
0
  5
14697
 10
-385.842
 20
840.381
 30
0.000000
  70
    32
  0
VERTEX
  8
0
  5
14698
 10
-385.841
 20
840.381
 30
0.000000
  70
    32
  0
VERTEX
  8
0
  5
14699
 10
-385.840
 20
840.382
 30
0.000000
  70
    32
  0
VERTEX
  8
0
  5
1469A
 10
-385.839
 20
840.383
 30
0.000000
  70
    32
  0
VERTEX
  8
0
  5
1469B
 10
-385.838
 20
840.383
 30
0.000000
  70
    32
  0
VERTEX
  8
0
  5
1469C
 10
-385.837
 20
840.384
 30
0.000000
  70
    32
  0
VERTEX
  8
0
  5
1469D
 10
-385.836
 20
840.385
 30
0.000000
  70
    32
  0
VERTEX
  8
0
  5
1469E
 10
-385.835
 20
840.385
 30
0.000000
  70
    32
  0
VERTEX
  8
0
  5
1469F
 10
-385.834
 20
840.386
 30
0.000000
  70
    32
  0
VERTEX
  8
0
  5
146A0
 10
-385.833
 20
840.387
 30
0.000000
  70
    32
  0
VERTEX
  8
0
  5
146A1
 10
-385.832
 20
840.387
 30
0.000000
  70
    32
  0
VERTEX
  8
0
  5
146A2
 10
-385.831
 20
840.388
 30
0.000000
  70
    32
  0
VERTEX
  8
0
  5
146A3
 10
-385.830
 20
840.389
 30
0.000000
  70
    32
  0
VERTEX
  8
0
  5
146A4
 10
-385.829
 20
840.390
 30
0.000000
  70
    32
  0
VERTEX
  8
0
  5
146A5
 10
-385.828
 20
840.390
 30
0.000000
  70
    32
  0
VERTEX
  8
0
  5
146A6
 10
-385.827
 20
840.391
 30
0.000000
  70
    32
  0
VERTEX
  8
0
  5
146A7
 10
-385.826
 20
840.392
 30
0.000000
  70
    32
  0
VERTEX
  8
0
  5
146A8
 10
-385.825
 20
840.392
 30
0.000000
  70
    32
  0
VERTEX
  8
0
  5
146A9
 10
-385.824
 20
840.393
 30
0.000000
  70
    32
  0
VERTEX
  8
0
  5
146AA
 10
-385.822
 20
840.394
 30
0.000000
  70
    32
  0
VERTEX
  8
0
  5
146AB
 10
-385.821
 20
840.394
 30
0.000000
  70
    32
  0
VERTEX
  8
0
  5
146AC
 10
-385.820
 20
840.395
 30
0.000000
  70
    32
  0
VERTEX
  8
0
  5
146AD
 10
-385.819
 20
840.396
 30
0.000000
  70
    32
  0
VERTEX
  8
0
  5
146AE
 10
-385.818
 20
840.396
 30
0.000000
  70
    32
  0
VERTEX
  8
0
  5
146AF
 10
-385.817
 20
840.397
 30
0.000000
  70
    32
  0
VERTEX
  8
0
  5
146B0
 10
-385.816
 20
840.398
 30
0.000000
  70
    32
  0
VERTEX
  8
0
  5
146B1
 10
-385.815
 20
840.398
 30
0.000000
  70
    32
  0
VERTEX
  8
0
  5
146B2
 10
-385.814
 20
840.399
 30
0.000000
  70
    32
  0
VERTEX
  8
0
  5
146B3
 10
-385.813
 20
840.400
 30
0.000000
  70
    32
  0
VERTEX
  8
0
  5
146B4
 10
-385.812
 20
840.400
 30
0.000000
  70
    32
  0
VERTEX
  8
0
  5
146B5
 10
-385.811
 20
840.401
 30
0.000000
  70
    32
  0
VERTEX
  8
0
  5
146B6
 10
-385.810
 20
840.402
 30
0.000000
  70
    32
  0
VERTEX
  8
0
  5
146B7
 10
-385.809
 20
840.403
 30
0.000000
  70
    32
  0
VERTEX
  8
0
  5
146B8
 10
-385.808
 20
840.403
 30
0.000000
  70
    32
  0
VERTEX
  8
0
  5
146B9
 10
-385.807
 20
840.404
 30
0.000000
  70
    32
  0
VERTEX
  8
0
  5
146BA
 10
-385.806
 20
840.405
 30
0.000000
  70
    32
  0
VERTEX
  8
0
  5
146BB
 10
-385.804
 20
840.405
 30
0.000000
  70
    32
  0
VERTEX
  8
0
  5
146BC
 10
-385.803
 20
840.406
 30
0.000000
  70
    32
  0
VERTEX
  8
0
  5
146BD
 10
-385.802
 20
840.407
 30
0.000000
  70
    32
  0
VERTEX
  8
0
  5
146BE
 10
-385.801
 20
840.407
 30
0.000000
  70
    32
  0
VERTEX
  8
0
  5
146BF
 10
-385.800
 20
840.408
 30
0.000000
  70
    32
  0
VERTEX
  8
0
  5
146C0
 10
-385.799
 20
840.409
 30
0.000000
  70
    32
  0
VERTEX
  8
0
  5
146C1
 10
-385.798
 20
840.409
 30
0.000000
  70
    32
  0
VERTEX
  8
0
  5
146C2
 10
-385.797
 20
840.410
 30
0.000000
  70
    32
  0
VERTEX
  8
0
  5
146C3
 10
-385.796
 20
840.411
 30
0.000000
  70
    32
  0
VERTEX
  8
0
  5
146C4
 10
-385.795
 20
840.411
 30
0.000000
  70
    32
  0
VERTEX
  8
0
  5
146C5
 10
-385.794
 20
840.412
 30
0.000000
  70
    32
  0
VERTEX
  8
0
  5
146C6
 10
-385.793
 20
840.413
 30
0.000000
  70
    32
  0
VERTEX
  8
0
  5
146C7
 10
-385.792
 20
840.413
 30
0.000000
  70
    32
  0
SEQEND
  8
0
  5
146C8
  0
ARC
  5
144F4
  8
0
 10
-385.68249779294217
 20
839.98089197818751
 30
0.0
 40
0.4106906372225928
 50
130.6293000244477
 51
185.29824609526051
  0
ARC
  5
144F5
  8
0
 10
-385.92858259849538
 20
840.91781486512525
 30
0.0
 40
0.4782874291605978
 50
328.39525977415161
 51
69.697988821121584
  0
VIEWPORT
  5
BADA
 67
     1
  8
0
 10
5.249999665167536
 20
4.016860864854312
 30
0.0
 40
16.259362384438411
 41
8.0158201110956853
 68
     2
 69
     1
1001
ACAD
1000
MVIEW
1002
{
1070
    16
1010
0.0
1020
0.0
1030
0.0
1010
0.0
1020
0.0
1030
1.0
1040
0.0
1040
8.0158201110956853
1040
5.249999665167536
1040
4.016860864854312
1040
50.0
1040
0.0
1040
0.0
1070
     0
1070
   100
1070
     1
1070
     1
1070
     0
1070
     0
1070
     0
1070
     0
1040
0.0
1040
0.0
1040
0.0
1040
0.5
1040
0.5
1040
0.5
1040
0.5
1070
     0
1002
{
1002
}
1002
}
  0
VIEWPORT
  5
BADD
 67
     1
  8
0
 10
5.2499996294871929
 20
4.0166741807634683
 30
0.0
 40
10.44245679893058
 41
7.8813805131999892
 68
     1
 69
     2
1001
ACAD
1000
MVIEW
1002
{
1070
    16
1010
0.0
1020
0.0
1030
0.0
1010
0.0
1020
0.0
1030
1.0
1040
0.0
1040
7.8813805131999892
1040
-385.38397777424763
1040
840.69903704923161
1040
50.0
1040
0.0
1040
0.0
1070
     0
1070
   100
1070
     1
1070
     2
1070
     0
1070
     0
1070
     0
1070
     0
1040
0.0
1040
0.0
1040
0.0
1040
0.5
1040
0.5
1040
0.5
1040
0.5
1070
     0
1002
{
1002
}
1002
}
  0
ENDSEC
  0
EOF
