  0
SECTION
  2
HEADER
  9
$ACADVER
  1
AC1009
  9
$INSBASE
 10
0.0
 20
0.0
 30
0.0
  9
$EXTMIN
 10
-382.53419390346619
 20
843.59331654706148
 30
0.0
  9
$EXTMAX
 10
-377.92460087722651
 20
847.09331654424557
 30
0.0
  9
$LIMMIN
 10
0.0
 20
0.0
  9
$LIMMAX
 10
1500.0
 20
1500.0
  9
$ORTHOMODE
 70
     0
  9
$REGENMODE
 70
     1
  9
$FILLMODE
 70
     1
  9
$QTEXTMODE
 70
     0
  9
$MIRRTEXT
 70
     1
  9
$DRAGMODE
 70
     2
  9
$LTSCALE
 40
1.0
  9
$OSMODE
 70
    37
  9
$ATTMODE
 70
     1
  9
$TEXTSIZE
 40
1.5
  9
$TRACEWID
 40
0.05
  9
$TEXTSTYLE
  7
STANDARD
  9
$CLAYER
  8
0
  9
$CELTYPE
  6
BYLAYER
  9
$CECOLOR
 62
   256
  9
$DIMSCALE
 40
1.0
  9
$DIMASZ
 40
0.75
  9
$DIMEXO
 40
1.5
  9
$DIMDLI
 40
2.0
  9
$DIMRND
 40
0.0
  9
$DIMDLE
 40
0.0
  9
$DIMEXE
 40
1.0
  9
$DIMTP
 40
0.0
  9
$DIMTM
 40
0.0
  9
$DIMTXT
 40
1.5
  9
$DIMCEN
 40
2.0
  9
$DIMTSZ
 40
0.0
  9
$DIMTOL
 70
     0
  9
$DIMLIM
 70
     0
  9
$DIMTIH
 70
     0
  9
$DIMTOH
 70
     0
  9
$DIMSE1
 70
     0
  9
$DIMSE2
 70
     0
  9
$DIMTAD
 70
     1
  9
$DIMZIN
 70
     0
  9
$DIMBLK
  1
ARCHTICK
  9
$DIMASO
 70
     1
  9
$DIMSHO
 70
     1
  9
$DIMPOST
  1
"
  9
$DIMAPOST
  1

  9
$DIMALT
 70
     0
  9
$DIMALTD
 70
     2
  9
$DIMALTF
 40
25.399999999999999
  9
$DIMLFAC
 40
1.0
  9
$DIMTOFL
 70
     0
  9
$DIMTVP
 40
0.0
  9
$DIMTIX
 70
     1
  9
$DIMSOXD
 70
     0
  9
$DIMSAH
 70
     0
  9
$DIMBLK1
  1

  9
$DIMBLK2
  1

  9
$DIMSTYLE
  2
THREE_QUARTER_INCH_SCALE
  9
$DIMCLRD
 70
     0
  9
$DIMCLRE
 70
     0
  9
$DIMCLRT
 70
     0
  9
$DIMTFAC
 40
1.0
  9
$DIMGAP
 40
1.0
  9
$LUNITS
 70
     2
  9
$LUPREC
 70
     4
  9
$SKETCHINC
 40
0.1
  9
$FILLETRAD
 40
0.0
  9
$AUNITS
 70
     0
  9
$AUPREC
 70
     0
  9
$MENU
  1
.
  9
$ELEVATION
 40
0.0
  9
$PELEVATION
 40
0.0
  9
$THICKNESS
 40
0.0
  9
$LIMCHECK
 70
     0
  9
$BLIPMODE
 70
     0
  9
$CHAMFERA
 40
0.5
  9
$CHAMFERB
 40
0.5
  9
$SKPOLY
 70
     0
  9
$TDCREATE
 40
2452089.395738773
  9
$TDUPDATE
 40
2453608.3149060188
  9
$TDINDWG
 40
1.3423240971999999
  9
$TDUSRTIMER
 40
1.3423240971999999
  9
$USRTIMER
 70
     1
  9
$ANGBASE
 50
0.0
  9
$ANGDIR
 70
     0
  9
$PDMODE
 70
     0
  9
$PDSIZE
 40
10.0
  9
$PLINEWID
 40
0.0
  9
$COORDS
 70
     1
  9
$SPLFRAME
 70
     0
  9
$SPLINETYPE
 70
     6
  9
$SPLINESEGS
 70
     8
  9
$ATTDIA
 70
     0
  9
$ATTREQ
 70
     1
  9
$HANDLING
 70
     1
  9
$HANDSEED
  5
2F98A
  9
$SURFTAB1
 70
     6
  9
$SURFTAB2
 70
     6
  9
$SURFTYPE
 70
     6
  9
$SURFU
 70
     6
  9
$SURFV
 70
     6
  9
$UCSNAME
  2

  9
$UCSORG
 10
0.0
 20
0.0
 30
0.0
  9
$UCSXDIR
 10
1.0
 20
0.0
 30
0.0
  9
$UCSYDIR
 10
0.0
 20
1.0
 30
0.0
  9
$PUCSNAME
  2

  9
$PUCSORG
 10
0.0
 20
0.0
 30
0.0
  9
$PUCSXDIR
 10
1.0
 20
0.0
 30
0.0
  9
$PUCSYDIR
 10
0.0
 20
1.0
 30
0.0
  9
$USERI1
 70
     0
  9
$USERI2
 70
     0
  9
$USERI3
 70
     0
  9
$USERI4
 70
     0
  9
$USERI5
 70
     0
  9
$USERR1
 40
0.0
  9
$USERR2
 40
0.0
  9
$USERR3
 40
0.0
  9
$USERR4
 40
0.0
  9
$USERR5
 40
0.0
  9
$WORLDVIEW
 70
     1
  9
$SHADEDGE
 70
     3
  9
$SHADEDIF
 70
    70
  9
$TILEMODE
 70
     0
  9
$MAXACTVP
 70
    64
  9
$PLIMCHECK
 70
     0
  9
$PEXTMIN
 10
0.0287712300219028
 20
0.0759839241634737
 30
0.0
  9
$PEXTMAX
 10
10.47122802895248
 20
7.957364437363462
 30
0.0
  9
$PLIMMIN
 10
-0.2500002402958907
 20
-0.2499999962453767
  9
$PLIMMAX
 10
10.74999951940821
 20
8.2499997634587316
  9
$UNITMODE
 70
     0
  9
$VISRETAIN
 70
     1
  9
$PLINEGEN
 70
     0
  9
$PSLTSCALE
 70
     1
  0
ENDSEC
  0
SECTION
  2
TABLES
  0
TABLE
  2
VPORT
 70
     2
  0
VPORT
  2
*ACTIVE
 70
     0
 10
0.0
 20
0.0
 11
1.0
 21
1.0
 12
-380.70010693656201
 22
845.16779400026962
 13
0.0
 23
0.0
 14
0.5
 24
0.5
 15
0.5
 25
0.5
 16
0.0
 26
0.0
 36
1.0
 17
0.0
 27
0.0
 37
0.0
 40
8.8173627230431642
 41
2.0
 42
50.0
 43
0.0
 44
0.0
 50
0.0
 51
0.0
 71
     0
 72
   100
 73
     1
 74
     2
 75
     0
 76
     0
 77
     0
 78
     0
  0
ENDTAB
  0
TABLE
  2
LTYPE
 70
     1
  0
LTYPE
  2
CONTINUOUS
 70
     0
  3
Solid line
 72
    65
 73
     0
 40
0.0
  0
ENDTAB
  0
TABLE
  2
LAYER
 70
    10
  0
LAYER
  2
0
 70
     0
 62
     7
  6
CONTINUOUS
  0
LAYER
  2
DEFPOINTS
 70
     0
 62
     7
  6
CONTINUOUS
  0
LAYER
  2
FRAME_200
 70
     0
 62
     8
  6
CONTINUOUS
  0
LAYER
  2
FRAME_070
 70
     0
 62
     5
  6
CONTINUOUS
  0
LAYER
  2
FRAME_050
 70
     0
 62
     6
  6
CONTINUOUS
  0
LAYER
  2
TITLE_BLOCK
 70
     0
 62
     7
  6
CONTINUOUS
  0
LAYER
  2
FRAME_025
 70
     0
 62
     7
  6
CONTINUOUS
  0
LAYER
  2
VIEWPORT
 70
     0
 62
     7
  6
CONTINUOUS
  0
LAYER
  2
PROF
 70
     0
 62
     7
  6
CONTINUOUS
  0
LAYER
  2
PROFILE
 70
     0
 62
     7
  6
CONTINUOUS
  0
ENDTAB
  0
TABLE
  2
STYLE
 70
     2
  0
STYLE
  2
STANDARD
 70
     0
 40
0.0
 41
1.0
 50
0.0
 71
     0
 42
1.5
  3
txt
  4

  0
STYLE
  2
ISO_PROPORTIONAL
 70
     0
 40
0.0
 41
1.0
 50
0.0
 71
     0
 42
2.5
  3
isocp.shx
  4

  0
ENDTAB
  0
TABLE
  2
VIEW
 70
     1
  0
ENDTAB
  0
TABLE
  2
UCS
 70
     0
  0
ENDTAB
  0
TABLE
  2
APPID
 70
     6
  0
APPID
  2
ACAD
 70
     0
  0
APPID
  2
DCO15
 70
     0
  0
APPID
  2
ACAD_EXEMPT_FROM_CAD_STANDARDS
 70
     0
  0
APPID
  2
ACAD_PSEXT
 70
     0
  0
APPID
  2
CONTENTBLOCKDESCRIPTION
 70
     0
  0
APPID
  2
CONTENTBLOCKICON
 70
     0
  0
ENDTAB
  0
TABLE
  2
DIMSTYLE
 70
     5
  0
DIMSTYLE
  2
FULL_SCALE
 70
     0
  3
"
  4

  5
ARCHTICK
  6

  7

 40
1.0
 41
0.046875
 42
0.09375
 43
0.125
 44
0.0625
 45
0.0
 46
0.0
 47
0.0
 48
0.0
140
0.125
141
0.125
142
0.0
143
25.399999999999999
144
1.0
145
0.0
146
1.0
147
0.0625
 71
     0
 72
     0
 73
     0
 74
     0
 75
     0
 76
     0
 77
     1
 78
     0
170
     0
171
     2
172
     0
173
     0
174
     1
175
     0
176
     0
177
     0
178
     0
  0
DIMSTYLE
  2
HALF_SCALE
 70
     0
  3
"
  4

  5
ARCHTICK
  6

  7

 40
1.0
 41
0.09375
 42
0.1875
 43
0.25
 44
0.125
 45
0.0
 46
0.0
 47
0.0
 48
0.0
140
0.25
141
0.25
142
0.0
143
25.399999999999999
144
1.0
145
0.0
146
1.0
147
0.125
 71
     0
 72
     0
 73
     0
 74
     0
 75
     0
 76
     0
 77
     1
 78
     0
170
     0
171
     2
172
     0
173
     0
174
     1
175
     0
176
     0
177
     0
178
     0
  0
DIMSTYLE
  2
INCH_SCALE
 70
     0
  3
"
  4

  5
ARCHTICK
  6

  7

 40
1.0
 41
0.5625
 42
1.125
 43
1.5
 44
0.75
 45
0.0
 46
0.0
 47
0.0
 48
0.0
140
1.125
141
1.5
142
0.0
143
25.399999999999999
144
1.0
145
0.0
146
1.0
147
0.75
 71
     0
 72
     0
 73
     0
 74
     0
 75
     0
 76
     0
 77
     1
 78
     0
170
     0
171
     2
172
     0
173
     0
174
     1
175
     0
176
     0
177
     0
178
     0
  0
DIMSTYLE
  2
THREE_QUARTER_INCH_SCALE
 70
     0
  3
"
  4

  5
ARCHTICK
  6

  7

 40
1.0
 41
0.75
 42
1.5
 43
2.0
 44
1.0
 45
0.0
 46
0.0
 47
0.0
 48
0.0
140
1.5
141
2.0
142
0.0
143
25.399999999999999
144
1.0
145
0.0
146
1.0
147
1.0
 71
     0
 72
     0
 73
     0
 74
     0
 75
     0
 76
     0
 77
     1
 78
     0
170
     0
171
     2
172
     0
173
     0
174
     1
175
     0
176
     0
177
     0
178
     0
  0
DIMSTYLE
  2
ZHALF_INCH_SCALE
 70
     0
  3
"
  4

  5
ARCHTICK
  6

  7

 40
1.0
 41
1.125
 42
2.25
 43
3.0
 44
1.5
 45
0.0
 46
0.0
 47
0.0
 48
0.0
140
2.25
141
3.0
142
0.0
143
25.399999999999999
144
1.0
145
0.0
146
1.0
147
1.5
 71
     0
 72
     0
 73
     0
 74
     0
 75
     0
 76
     0
 77
     1
 78
     0
170
     0
171
     2
172
     0
173
     0
174
     1
175
     0
176
     0
177
     0
178
     0
  0
ENDTAB
  0
ENDSEC
  0
SECTION
  2
BLOCKS
  0
BLOCK
  8
0
  2
$MODEL_SPACE
 70
     0
 10
0.0
 20
0.0
 30
0.0
  3
$MODEL_SPACE
  1

  0
ENDBLK
  5
21
  8
0
  0
BLOCK
 67
     1
  8
0
  2
$PAPER_SPACE
 70
     0
 10
0.0
 20
0.0
 30
0.0
  3
$PAPER_SPACE
  1

  0
ENDBLK
  5
BAD5
 67
     1
  8
0
  0
BLOCK
  8
0
  2
_ARCHTICK
 70
     0
 10
0.0
 20
0.0
 30
0.0
  3
_ARCHTICK
  1

  0
POLYLINE
  5
158
  8
0
  6
BYBLOCK
 62
     0
 66
     1
 10
0.0
 20
0.0
 30
0.0
 40
0.15
 41
0.15
  0
VERTEX
  5
2F62D
  8
0
  6
BYBLOCK
 62
     0
 10
-0.5
 20
-0.5
 30
0.0
  0
VERTEX
  5
2F62E
  8
0
  6
BYBLOCK
 62
     0
 10
0.5
 20
0.5
 30
0.0
  0
SEQEND
  5
2F62F
  8
0
  6
BYBLOCK
 62
     0
  0
ENDBLK
  5
15A
  8
0
  0
BLOCK
  8
0
  2
_OPEN30
 70
     0
 10
0.0
 20
0.0
 30
0.0
  3
_OPEN30
  1

  0
LINE
  5
15C
  8
0
  6
BYBLOCK
 62
     0
 10
-1.0
 20
0.26794919
 30
0.0
 11
0.0
 21
0.0
 31
0.0
  0
LINE
  5
15D
  8
0
  6
BYBLOCK
 62
     0
 10
0.0
 20
0.0
 30
0.0
 11
-1.0
 21
-0.26794919
 31
0.0
  0
LINE
  5
15E
  8
0
  6
BYBLOCK
 62
     0
 10
0.0
 20
0.0
 30
0.0
 11
-1.0
 21
0.0
 31
0.0
  0
ENDBLK
  5
160
  8
0
  0
BLOCK
  8
0
  2
ISO_A2_TITLE_BLOCK
 70
     2
 10
0.0
 20
0.0
 30
0.0
  3
ISO_A2_TITLE_BLOCK
  1

  0
LINE
  5
BDD
  8
FRAME_050
 10
299.5
 20
12.5
 30
0.0
 11
297.0
 21
7.5
 31
0.0
  0
LINE
  5
BDE
  8
FRAME_050
 10
294.5
 20
12.5
 30
0.0
 11
299.5
 21
12.5
 31
0.0
  0
LINE
  5
BDF
  8
FRAME_050
 10
247.0
 20
5.0
 30
0.0
 11
347.0
 21
5.0
 31
0.0
  0
LINE
  5
BE0
  8
FRAME_070
 10
584.0
 20
410.0
 30
0.0
 11
10.0
 21
410.0
 31
0.0
  0
LINE
  5
BE1
  8
FRAME_070
 10
10.0
 20
10.0
 30
0.0
 11
584.0
 21
10.0
 31
0.0
  0
LINE
  5
BE2
  8
FRAME_050
 10
12.5
 20
207.5
 30
0.0
 11
7.5
 21
210.0
 31
0.0
  0
LINE
  5
BE3
  8
FRAME_050
 10
12.5
 20
212.5
 30
0.0
 11
12.5
 21
207.5
 31
0.0
  0
LINE
  5
BE4
  8
FRAME_070
 10
10.0
 20
410.0
 30
0.0
 11
10.0
 21
10.0
 31
0.0
  0
LINE
  5
BE5
  8
FRAME_200
 10
0.0
 20
0.0
 30
0.0
 11
0.0
 21
10.0
 31
0.0
  0
LINE
  5
BE6
  8
FRAME_200
 10
0.0
 20
0.0
 30
0.0
 11
10.0
 21
0.0
 31
0.0
  0
TEXT
  5
BE7
  8
FRAME_050
 10
5.9000000000000004
 20
35.0
 30
0.0
 40
4.0
  1
H
  7
ISO_PROPORTIONAL
 72
     4
 11
7.5
 21
37.0
 31
0.0
  0
LINE
  5
BE8
  8
FRAME_050
 10
10.0
 20
60.0
 30
0.0
 11
5.0
 21
60.0
 31
0.0
  0
LINE
  5
BE9
  8
FRAME_050
 10
81.75
 20
5.0
 30
0.0
 11
81.75
 21
10.0
 31
0.0
  0
TEXT
  5
BEA
  8
FRAME_050
 10
44.874999999999993
 20
5.5
 30
0.0
 40
4.0
  1
1
  7
ISO_PROPORTIONAL
 72
     4
 11
45.875
 21
7.5
 31
0.0
  0
TEXT
  5
BEB
  8
FRAME_050
 10
6.0035533905932743
 20
85.0
 30
0.0
 40
4.0
  1
G
  7
ISO_PROPORTIONAL
 72
     4
 11
7.5
 21
87.0
 31
0.0
  0
LINE
  5
BEC
  8
FRAME_050
 10
10.0
 20
110.0
 30
0.0
 11
5.0
 21
110.0
 31
0.0
  0
TEXT
  5
BED
  8
FRAME_050
 10
6.0999999999999988
 20
135.0
 30
0.0
 40
4.0
  1
F
  7
ISO_PROPORTIONAL
 72
     4
 11
7.5
 21
137.0
 31
0.0
  0
LINE
  5
BEE
  8
FRAME_050
 10
10.0
 20
160.0
 30
0.0
 11
5.0
 21
160.0
 31
0.0
  0
TEXT
  5
BEF
  8
FRAME_050
 10
6.0999999999999988
 20
185.0
 30
0.0
 40
4.0
  1
E
  7
ISO_PROPORTIONAL
 72
     4
 11
7.5
 21
187.0
 31
0.0
  0
LINE
  5
BF0
  8
FRAME_050
 10
153.5
 20
5.0
 30
0.0
 11
153.5
 21
10.0
 31
0.0
  0
TEXT
  5
BF1
  8
FRAME_050
 10
116.1556692913386
 20
5.3996062992125982
 30
0.0
 40
4.0
  1
2
  7
ISO_PROPORTIONAL
 72
     4
 11
117.625
 21
7.5
 31
0.0
  0
TEXT
  5
BF2
  8
FRAME_050
 10
187.89215728752529
 20
5.5828427124746138
 30
0.0
 40
4.0
  1
3
  7
ISO_PROPORTIONAL
 72
     4
 11
189.375
 21
7.5
 31
0.0
  0
LINE
  5
BF3
  8
FRAME_050
 10
225.25
 20
5.0
 30
0.0
 11
225.25
 21
10.0
 31
0.0
  0
LINE
  5
BF4
  8
FRAME_050
 10
297.0
 20
7.5
 30
0.0
 11
294.5
 21
12.5
 31
0.0
  0
LINE
  5
BF5
  8
FRAME_050
 10
287.0
 20
5.0
 30
0.0
 11
287.0
 21
10.0
 31
0.0
  0
LINE
  5
BF6
  8
FRAME_050
 10
277.0
 20
5.0
 30
0.0
 11
277.0
 21
10.0
 31
0.0
  0
LINE
  5
BF7
  8
FRAME_050
 10
267.0
 20
5.0
 30
0.0
 11
267.0
 21
10.0
 31
0.0
  0
LINE
  5
BF8
  8
FRAME_050
 10
257.0
 20
5.0
 30
0.0
 11
257.0
 21
10.0
 31
0.0
  0
LINE
  5
BF9
  8
FRAME_050
 10
247.0
 20
5.0
 30
0.0
 11
247.0
 21
10.0
 31
0.0
  0
LINE
  5
BFA
  8
FRAME_050
 10
297.0
 20
10.0
 30
0.0
 11
297.0
 21
5.0
 31
0.0
  0
LINE
  5
BFB
  8
FRAME_050
 10
297.0
 20
10.0
 30
0.0
 11
297.0
 21
15.0
 31
0.0
  0
LINE
  5
BFC
  8
FRAME_050
 10
5.0
 20
210.0
 30
0.0
 11
15.0
 21
210.0
 31
0.0
  0
LINE
  5
BFD
  8
FRAME_050
 10
7.5
 20
210.0
 30
0.0
 11
12.5
 21
212.5
 31
0.0
  0
TEXT
  5
BFE
  8
FRAME_050
 10
5.7860912703473977
 20
235.0
 30
0.0
 40
4.0
  1
D
  7
ISO_PROPORTIONAL
 72
     4
 11
7.5
 21
237.0
 31
0.0
  0
LINE
  5
BFF
  8
FRAME_050
 10
10.0
 20
260.0
 30
0.0
 11
5.0
 21
260.0
 31
0.0
  0
TEXT
  5
C00
  8
FRAME_050
 10
6.1931980515339466
 20
285.0
 30
0.0
 40
4.0
  1
C
  7
ISO_PROPORTIONAL
 72
     4
 11
7.5
 21
287.0
 31
0.0
  0
LINE
  5
C01
  8
FRAME_050
 10
10.0
 20
310.0
 30
0.0
 11
5.0
 21
310.0
 31
0.0
  0
TEXT
  5
C02
  8
FRAME_050
 10
5.8999999999999959
 20
335.0
 30
0.0
 40
4.0
  1
B
  7
ISO_PROPORTIONAL
 72
     4
 11
7.5
 21
337.0
 31
0.0
  0
LINE
  5
C03
  8
FRAME_050
 10
10.0
 20
360.0
 30
0.0
 11
5.0
 21
360.0
 31
0.0
  0
TEXT
  5
C04
  8
FRAME_050
 10
5.6999999999999993
 20
385.0
 30
0.0
 40
4.0
  1
A
  7
ISO_PROPORTIONAL
 72
     4
 11
7.5
 21
387.0
 31
0.0
  0
LINE
  5
C05
  8
FRAME_200
 10
10.0
 20
420.0
 30
0.0
 11
0.0
 21
420.0
 31
0.0
  0
LINE
  5
C06
  8
FRAME_200
 10
0.0
 20
420.0
 30
0.0
 11
0.0
 21
410.0
 31
0.0
  0
TEXT
  5
C07
  8
FRAME_050
 10
44.874999999999993
 20
410.5
 30
0.0
 40
4.0
  1
1
  7
ISO_PROPORTIONAL
 72
     4
 11
45.875
 21
412.5
 31
0.0
  0
LINE
  5
C08
  8
FRAME_050
 10
81.75
 20
410.0
 30
0.0
 11
81.75
 21
415.0
 31
0.0
  0
TEXT
  5
C09
  8
FRAME_050
 10
116.1556692913386
 20
410.39960629921262
 30
0.0
 40
4.0
  1
2
  7
ISO_PROPORTIONAL
 72
     4
 11
117.625
 21
412.5
 31
0.0
  0
LINE
  5
C0A
  8
FRAME_050
 10
153.5
 20
410.0
 30
0.0
 11
153.5
 21
415.0
 31
0.0
  0
TEXT
  5
C0B
  8
FRAME_050
 10
187.89215728752529
 20
410.58284271247459
 30
0.0
 40
4.0
  1
3
  7
ISO_PROPORTIONAL
 72
     4
 11
189.375
 21
412.5
 31
0.0
  0
LINE
  5
C0C
  8
FRAME_050
 10
297.0
 20
405.0
 30
0.0
 11
297.0
 21
415.0
 31
0.0
  0
LINE
  5
C0D
  8
FRAME_050
 10
225.25
 20
410.0
 30
0.0
 11
225.25
 21
415.0
 31
0.0
  0
TEXT
  5
C0E
  8
FRAME_050
 10
259.52499999999998
 20
410.5
 30
0.0
 40
4.0
  1
4
  7
ISO_PROPORTIONAL
 72
     4
 11
261.125
 21
412.5
 31
0.0
  0
LINE
  5
C0F
  8
FRAME_070
 10
584.0
 20
10.0
 30
0.0
 11
584.0
 21
410.0
 31
0.0
  0
ATTDEF
  5
C10
  8
FRAME_025
 10
473.0
 20
31.75
 30
0.0
 40
2.5
  1
XXX - 00/00/00
  7
ISO_PROPORTIONAL
 11
473.0
 21
33.0
 31
0.0
  3
Approved by - Date
  2
APPROVED_BY_DATE
 70
     8
 74
     2
  0
TEXT
  5
C11
  8
FRAME_025
 10
448.0
 20
41.749999999999993
 30
0.0
 40
2.5
  1
Title/Name, designation, material, dimension etc
  7
ISO_PROPORTIONAL
 11
448.0
 21
43.0
 31
0.0
 73
     2
  0
TEXT
  5
C12
  8
FRAME_025
 10
473.0
 20
35.75
 30
0.0
 40
2.5
  1
Approved by - date
  7
ISO_PROPORTIONAL
 11
473.0
 21
37.0
 31
0.0
 73
     2
  0
LINE
  5
C13
  8
FRAME_070
 10
414.0
 20
46.0
 30
0.0
 11
584.0
 21
46.0
 31
0.0
  0
LINE
  5
C14
  8
FRAME_070
 10
414.0
 20
40.0
 30
0.0
 11
584.0
 21
40.0
 31
0.0
  0
LINE
  5
C15
  8
FRAME_070
 10
414.0
 20
30.0
 30
0.0
 11
584.0
 21
30.0
 31
0.0
  0
LINE
  5
C16
  8
FRAME_050
 10
368.75
 20
5.0
 30
0.0
 11
368.75
 21
10.0
 31
0.0
  0
LINE
  5
C17
  8
FRAME_050
 10
337.0
 20
5.0
 30
0.0
 11
337.0
 21
10.0
 31
0.0
  0
LINE
  5
C18
  8
FRAME_050
 10
327.0
 20
5.0
 30
0.0
 11
327.0
 21
10.0
 31
0.0
  0
LINE
  5
C19
  8
FRAME_050
 10
317.0
 20
5.0
 30
0.0
 11
317.0
 21
10.0
 31
0.0
  0
LINE
  5
C1A
  8
FRAME_050
 10
307.0
 20
5.0
 30
0.0
 11
307.0
 21
10.0
 31
0.0
  0
LINE
  5
C1B
  8
FRAME_050
 10
347.0
 20
5.0
 30
0.0
 11
347.0
 21
10.0
 31
0.0
  0
LINE
  5
C1C
  8
FRAME_050
 10
440.5
 20
5.0
 30
0.0
 11
440.5
 21
10.0
 31
0.0
  0
TEXT
  5
C1D
  8
FRAME_050
 10
403.24547244094481
 20
5.4102362204724406
 30
0.0
 40
4.0
  1
6
  7
ISO_PROPORTIONAL
 72
     4
 11
404.62499999999989
 21
7.5
 31
0.0
  0
TEXT
  5
C1E
  8
FRAME_050
 10
474.97500000000002
 20
5.5
 30
0.0
 40
4.0
  1
7
  7
ISO_PROPORTIONAL
 72
     4
 11
476.37499999999989
 21
7.5
 31
0.0
  0
TEXT
  5
C1F
  8
FRAME_025
 10
431.0
 20
41.749999999999993
 30
0.0
 40
2.5
  1
Quantity
  7
ISO_PROPORTIONAL
 11
431.0
 21
43.0
 31
0.0
 73
     2
  0
TEXT
  5
C20
  8
FRAME_025
 10
416.0
 20
41.749999999999993
 30
0.0
 40
2.5
  1
Itemref
  7
ISO_PROPORTIONAL
 11
416.0
 21
43.0
 31
0.0
 73
     2
  0
LINE
  5
C21
  8
FRAME_070
 10
414.0
 20
40.0
 30
0.0
 11
414.0
 21
46.0
 31
0.0
  0
LINE
  5
C22
  8
FRAME_070
 10
429.0
 20
40.0
 30
0.0
 11
429.0
 21
46.0
 31
0.0
  0
LINE
  5
C23
  8
FRAME_070
 10
414.0
 20
10.0
 30
0.0
 11
414.0
 21
40.0
 31
0.0
  0
ATTDEF
  5
C24
  8
FRAME_025
 10
416.0
 20
31.75
 30
0.0
 40
2.5
  1
XXX
  7
ISO_PROPORTIONAL
 11
416.0
 21
33.0
 31
0.0
  3
Designed by
  2
DESIGNED_BY
 70
     8
 74
     2
  0
TEXT
  5
C25
  8
FRAME_025
 10
416.0
 20
35.75
 30
0.0
 40
2.5
  1
Designed by
  7
ISO_PROPORTIONAL
 11
416.0
 21
37.0
 31
0.0
 73
     2
  0
LINE
  5
C26
  8
FRAME_070
 10
446.0
 20
40.0
 30
0.0
 11
446.0
 21
46.0
 31
0.0
  0
ATTDEF
  5
C27
  8
FRAME_025
 10
448.0
 20
31.75
 30
0.0
 40
2.5
  1
XXX
  7
ISO_PROPORTIONAL
 11
448.0
 21
33.0
 31
0.0
  3
Checked by
  2
CHECKED_BY
 70
     8
 74
     2
  0
TEXT
  5
C28
  8
FRAME_025
 10
448.0
 20
35.75
 30
0.0
 40
2.5
  1
Checked by
  7
ISO_PROPORTIONAL
 11
448.0
 21
37.0
 31
0.0
 73
     2
  0
ATTDEF
  5
C29
  8
FRAME_050
 10
444.74999999999989
 20
17.5
 30
0.0
 40
5.0
  1
XXX
  7
ISO_PROPORTIONAL
 72
     4
 11
451.49999999999989
 21
20.0
 31
0.0
  3
Owner
  2
OWNER
 70
     8
  0
LINE
  5
C2A
  8
FRAME_070
 10
446.0
 20
30.0
 30
0.0
 11
446.0
 21
40.0
 31
0.0
  0
LINE
  5
C2B
  8
FRAME_070
 10
471.0
 20
30.0
 30
0.0
 11
471.0
 21
40.0
 31
0.0
  0
LINE
  5
C2C
  8
FRAME_070
 10
489.0
 20
20.0
 30
0.0
 11
584.0
 21
20.0
 31
0.0
  0
LINE
  5
C2D
  8
FRAME_050
 10
512.25
 20
5.0
 30
0.0
 11
512.25
 21
10.0
 31
0.0
  0
TEXT
  5
C2E
  8
FRAME_050
 10
546.72499999999991
 20
5.5
 30
0.0
 40
4.0
  1
8
  7
ISO_PROPORTIONAL
 72
     4
 11
548.125
 21
7.5
 31
0.0
  0
ATTDEF
  5
C2F
  8
FRAME_050
 10
517.64999999999986
 20
13.5
 30
0.0
 40
3.0
  1
X
  7
ISO_PROPORTIONAL
 72
     4
 11
519.0
 21
15.0
 31
0.0
  3
Drawing number
  2
DRAWING_NUMBER
 70
     8
  0
ATTDEF
  5
C30
  8
FRAME_050
 10
529.75
 20
22.5
 30
0.0
 40
5.0
  1
XXX
  7
ISO_PROPORTIONAL
 72
     4
 11
536.5
 21
25.0
 31
0.0
  3
Title / Name
  2
TITLE
 70
     8
  0
LINE
  5
C31
  8
FRAME_070
 10
489.0
 20
10.0
 30
0.0
 11
489.0
 21
30.0
 31
0.0
  0
ATTDEF
  5
C32
  8
FRAME_025
 10
511.0
 20
31.75
 30
0.0
 40
2.5
  1
XXX
  7
ISO_PROPORTIONAL
 11
511.0
 21
33.0
 31
0.0
  3
Filename
  2
FILENAME
 70
     8
 74
     2
  0
TEXT
  5
C33
  8
FRAME_025
 10
511.0
 20
35.75
 30
0.0
 40
2.5
  1
Filename
  7
ISO_PROPORTIONAL
 11
511.0
 21
37.0
 31
0.0
 73
     2
  0
LINE
  5
C34
  8
FRAME_070
 10
509.0
 20
30.0
 30
0.0
 11
509.0
 21
40.0
 31
0.0
  0
TEXT
  5
C35
  8
FRAME_025
 10
536.0
 20
41.749999999999993
 30
0.0
 40
2.5
  1
Article No./Reference
  7
ISO_PROPORTIONAL
 11
536.0
 21
43.0
 31
0.0
 73
     2
  0
LINE
  5
C36
  8
FRAME_070
 10
534.0
 20
40.0
 30
0.0
 11
534.0
 21
46.0
 31
0.0
  0
ATTDEF
  5
C37
  8
FRAME_025
 10
551.0
 20
11.75
 30
0.0
 40
2.5
  1
0
  7
ISO_PROPORTIONAL
 11
551.0
 21
13.0
 31
0.0
  3
Edition
  2
EDITION
 70
     8
 74
     2
  0
TEXT
  5
C38
  8
FRAME_025
 10
551.0
 20
15.75
 30
0.0
 40
2.5
  1
Edition
  7
ISO_PROPORTIONAL
 11
551.0
 21
17.0
 31
0.0
 73
     2
  0
LINE
  5
C39
  8
FRAME_070
 10
549.0
 20
10.0
 30
0.0
 11
549.0
 21
20.0
 31
0.0
  0
ATTDEF
  5
C3A
  8
FRAME_025
 10
536.0
 20
31.75
 30
0.0
 40
2.5
  1
00/00/00
  7
ISO_PROPORTIONAL
 11
536.0
 21
33.0
 31
0.0
  3
Date
  2
DATE
 70
     8
 74
     2
  0
TEXT
  5
C3B
  8
FRAME_025
 10
536.0
 20
35.75
 30
0.0
 40
2.5
  1
Date
  7
ISO_PROPORTIONAL
 11
536.0
 21
37.0
 31
0.0
 73
     2
  0
LINE
  5
C3C
  8
FRAME_070
 10
534.0
 20
30.0
 30
0.0
 11
534.0
 21
40.0
 31
0.0
  0
ATTDEF
  5
C3D
  8
FRAME_025
 10
566.0
 20
11.75
 30
0.0
 40
2.5
  1
1/1
  7
ISO_PROPORTIONAL
 11
566.0
 21
13.0
 31
0.0
  3
Sheet
  2
SHEET
 70
     8
 74
     2
  0
TEXT
  5
C3E
  8
FRAME_025
 10
566.0
 20
15.75
 30
0.0
 40
2.5
  1
Sheet
  7
ISO_PROPORTIONAL
 11
566.0
 21
17.0
 31
0.0
 73
     2
  0
LINE
  5
C3F
  8
FRAME_070
 10
564.0
 20
10.0
 30
0.0
 11
564.0
 21
20.0
 31
0.0
  0
ATTDEF
  5
C40
  8
FRAME_025
 10
566.0
 20
31.75
 30
0.0
 40
2.5
  1
1:1
  7
ISO_PROPORTIONAL
 11
566.0
 21
33.0
 31
0.0
  3
Scale
  2
SCALE
 70
     8
 74
     2
  0
TEXT
  5
C41
  8
FRAME_025
 10
566.0
 20
35.75
 30
0.0
 40
2.5
  1
Scale
  7
ISO_PROPORTIONAL
 11
566.0
 21
37.0
 31
0.0
 73
     2
  0
LINE
  5
C42
  8
FRAME_070
 10
564.0
 20
30.0
 30
0.0
 11
564.0
 21
40.0
 31
0.0
  0
LINE
  5
C43
  8
FRAME_200
 10
594.0
 20
0.0
 30
0.0
 11
594.0
 21
10.0
 31
0.0
  0
LINE
  5
C44
  8
FRAME_200
 10
594.0
 20
0.0
 30
0.0
 11
584.0
 21
0.0
 31
0.0
  0
TEXT
  5
C45
  8
FRAME_050
 10
584.89999999999998
 20
35.0
 30
0.0
 40
4.0
  1
H
  7
ISO_PROPORTIONAL
 72
     4
 11
586.5
 21
37.0
 31
0.0
  0
LINE
  5
C46
  8
FRAME_050
 10
589.0
 20
60.0
 30
0.0
 11
584.0
 21
60.0
 31
0.0
  0
TEXT
  5
C47
  8
FRAME_050
 10
585.0035533905932
 20
85.0
 30
0.0
 40
4.0
  1
G
  7
ISO_PROPORTIONAL
 72
     4
 11
586.5
 21
87.0
 31
0.0
  0
LINE
  5
C48
  8
FRAME_050
 10
589.0
 20
110.0
 30
0.0
 11
584.0
 21
110.0
 31
0.0
  0
TEXT
  5
C49
  8
FRAME_050
 10
585.09999999999991
 20
135.0
 30
0.0
 40
4.0
  1
F
  7
ISO_PROPORTIONAL
 72
     4
 11
586.5
 21
137.0
 31
0.0
  0
LINE
  5
C4A
  8
FRAME_050
 10
589.0
 20
160.0
 30
0.0
 11
584.0
 21
160.0
 31
0.0
  0
TEXT
  5
C4B
  8
FRAME_050
 10
585.09999999999991
 20
185.0
 30
0.0
 40
4.0
  1
E
  7
ISO_PROPORTIONAL
 72
     4
 11
586.5
 21
187.0
 31
0.0
  0
LINE
  5
C4C
  8
FRAME_070
 10
414.0
 20
404.0
 30
0.0
 11
584.0
 21
404.0
 31
0.0
  0
TEXT
  5
C4D
  8
FRAME_050
 10
331.39215728752538
 20
410.58284271247459
 30
0.0
 40
4.0
  1
5
  7
ISO_PROPORTIONAL
 72
     4
 11
332.875
 21
412.5
 31
0.0
  0
LINE
  5
C4E
  8
FRAME_050
 10
368.75
 20
410.0
 30
0.0
 11
368.75
 21
415.0
 31
0.0
  0
TEXT
  5
C4F
  8
FRAME_025
 10
428.0
 20
405.75
 30
0.0
 40
2.5
  1
Revision note
  7
ISO_PROPORTIONAL
 11
428.0
 21
407.0
 31
0.0
 73
     2
  0
TEXT
  5
C50
  8
FRAME_025
 10
416.0
 20
405.75
 30
0.0
 40
2.5
  1
RevNo
  7
ISO_PROPORTIONAL
 11
416.0
 21
407.0
 31
0.0
 73
     2
  0
LINE
  5
C51
  8
FRAME_070
 10
426.0
 20
404.0
 30
0.0
 11
426.0
 21
410.0
 31
0.0
  0
LINE
  5
C52
  8
FRAME_070
 10
414.0
 20
404.0
 30
0.0
 11
414.0
 21
410.0
 31
0.0
  0
TEXT
  5
C53
  8
FRAME_050
 10
403.24547244094481
 20
410.41023622047243
 30
0.0
 40
4.0
  1
6
  7
ISO_PROPORTIONAL
 72
     4
 11
404.62499999999989
 21
412.5
 31
0.0
  0
LINE
  5
C54
  8
FRAME_050
 10
440.5
 20
410.0
 30
0.0
 11
440.5
 21
415.0
 31
0.0
  0
TEXT
  5
C55
  8
FRAME_050
 10
474.97500000000002
 20
410.5
 30
0.0
 40
4.0
  1
7
  7
ISO_PROPORTIONAL
 72
     4
 11
476.37499999999989
 21
412.5
 31
0.0
  0
LINE
  5
C56
  8
FRAME_050
 10
579.0
 20
210.0
 30
0.0
 11
589.0
 21
210.0
 31
0.0
  0
TEXT
  5
C57
  8
FRAME_050
 10
584.78609127034736
 20
235.0
 30
0.0
 40
4.0
  1
D
  7
ISO_PROPORTIONAL
 72
     4
 11
586.5
 21
237.0
 31
0.0
  0
LINE
  5
C58
  8
FRAME_050
 10
589.0
 20
260.0
 30
0.0
 11
584.0
 21
260.0
 31
0.0
  0
TEXT
  5
C59
  8
FRAME_050
 10
585.19319805153395
 20
285.0
 30
0.0
 40
4.0
  1
C
  7
ISO_PROPORTIONAL
 72
     4
 11
586.5
 21
287.0
 31
0.0
  0
LINE
  5
C5A
  8
FRAME_050
 10
589.0
 20
310.0
 30
0.0
 11
584.0
 21
310.0
 31
0.0
  0
TEXT
  5
C5B
  8
FRAME_050
 10
584.89999999999998
 20
335.0
 30
0.0
 40
4.0
  1
B
  7
ISO_PROPORTIONAL
 72
     4
 11
586.5
 21
337.0
 31
0.0
  0
TEXT
  5
C5C
  8
FRAME_025
 10
571.08299391850551
 20
405.75
 30
0.0
 40
2.5
  1
Checked
  7
ISO_PROPORTIONAL
 11
571.08299391850551
 21
407.0
 31
0.0
 73
     2
  0
TEXT
  5
C5D
  8
FRAME_025
 10
555.36099797283532
 20
405.75
 30
0.0
 40
2.5
  1
Signature
  7
ISO_PROPORTIONAL
 11
555.36099797283532
 21
407.0
 31
0.0
 73
     2
  0
TEXT
  5
C5E
  8
FRAME_025
 10
537.0
 20
405.75
 30
0.0
 40
2.5
  1
Date
  7
ISO_PROPORTIONAL
 11
537.0
 21
407.0
 31
0.0
 73
     2
  0
LINE
  5
C5F
  8
FRAME_070
 10
570.0
 20
404.0
 30
0.0
 11
570.0
 21
410.0
 31
0.0
  0
LINE
  5
C60
  8
FRAME_070
 10
555.0
 20
404.0
 30
0.0
 11
555.0
 21
410.0
 31
0.0
  0
LINE
  5
C61
  8
FRAME_070
 10
535.0
 20
404.0
 30
0.0
 11
535.0
 21
410.0
 31
0.0
  0
LINE
  5
C62
  8
FRAME_050
 10
512.25
 20
410.0
 30
0.0
 11
512.25
 21
415.0
 31
0.0
  0
TEXT
  5
C63
  8
FRAME_050
 10
546.72499999999991
 20
410.5
 30
0.0
 40
4.0
  1
8
  7
ISO_PROPORTIONAL
 72
     4
 11
548.125
 21
412.5
 31
0.0
  0
LINE
  5
C64
  8
FRAME_050
 10
589.0
 20
360.0
 30
0.0
 11
584.0
 21
360.0
 31
0.0
  0
TEXT
  5
C65
  8
FRAME_050
 10
584.70000000000005
 20
385.0
 30
0.0
 40
4.0
  1
A
  7
ISO_PROPORTIONAL
 72
     4
 11
586.5
 21
387.0
 31
0.0
  0
LINE
  5
C66
  8
FRAME_200
 10
594.0
 20
420.0
 30
0.0
 11
584.0
 21
420.0
 31
0.0
  0
LINE
  5
C67
  8
FRAME_200
 10
594.0
 20
410.0
 30
0.0
 11
594.0
 21
420.0
 31
0.0
  0
ENDBLK
  5
C69
  8
0
  0
BLOCK
  8
0
  2
WOBB001END
 70
     0
 10
0.0
 20
0.0
 30
0.0
  3
WOBB001END
  1

  0
LINE
  5
4D66
  8
0
  6
CONTINUOUS
 10
0.0
 20
0.0
 30
0.0
 11
0.8749999999999998
 21
0.0
 31
0.0
  0
ARC
  5
4D67
  8
0
  6
CONTINUOUS
 10
0.0331648379439287
 20
-0.5087238935900232
 30
0.0
 40
0.8790130605592325
 50
284.06490243660443
 51
312.19222981924361
  0
ARC
  5
4D68
  8
0
  6
CONTINUOUS
 10
0.2841534338796767
 20
-1.510548310625538
 30
0.0
 40
0.1537731892806598
 50
104.0649024366044
 51
179.4721730735024
  0
LINE
  5
4D69
  8
0
  6
CONTINUOUS
 10
0.0
 20
0.0
 30
0.0
 11
-0.0000000000000003
 21
-1.7501564476661919
 31
0.0
  0
ARC
  5
4D6A
  8
0
  6
CONTINUOUS
 10
0.1404622019506122
 20
-1.6303137183546199
 30
0.0
 40
0.1198427293115722
 50
275.0
 51
85.000000000000057
  0
LINE
  5
4D6B
  8
0
  6
CONTINUOUS
 10
-0.0000000000000003
 20
-1.7501564476661919
 30
0.0
 11
0.1456946485130855
 21
-1.7501564476661919
 31
0.0
  0
LINE
  5
4D6C
  8
0
  6
CONTINUOUS
 10
0.1377603739254348
 20
-1.7508506067459131
 30
0.0
 11
0.150907184036669
 21
-1.749700409899652
 31
0.0
  0
LINE
  5
4D6D
  8
0
  6
CONTINUOUS
 10
0.1303867696719884
 20
-1.5091317231818231
 30
0.0
 11
0.1509071840366689
 21
-1.5109270268095869
 31
0.0
  0
LINE
  5
4D6E
  8
0
  6
CONTINUOUS
 10
0.8749999999999998
 20
0.0
 30
0.0
 11
0.8749999999999996
 21
-0.8649327026588228
 31
0.0
  0
LINE
  5
4D6F
  8
0
  6
CONTINUOUS
 10
0.727014513830997
 20
-0.8726882933550612
 30
0.0
 11
0.727014513830997
 21
-0.9264923397184784
 31
0.0
  0
ARC
  5
4D70
  8
0
  6
CONTINUOUS
 10
0.41187090827646
 20
-0.9264923397184784
 30
0.0
 40
0.315143605554537
 50
312.19222981924361
 51
0.0
  0
LINE
  5
4D71
  8
0
  6
CONTINUOUS
 10
0.727014513830997
 20
-0.8726882933550612
 30
0.0
 11
0.8749999999999996
 21
-0.8649327026588228
 31
0.0
  0
ENDBLK
  5
4D72
  8
0
  0
BLOCK
  8
0
  2
A$C0A61123B
 70
     0
 10
0.0
 20
0.0
 30
0.0
  3
A$C0A61123B
  1

  0
LINE
  5
C0AD
  8
PROF
  6
CONTINUOUS
 10
4.9012016798694162
 20
13.325025853350891
 30
0.0000000000000002
 11
4.9012016798694162
 21
12.88585218805485
 31
0.0000000000000003
  0
INSERT
  5
C0AE
  8
0
  2
*U9
 10
0.0
 20
0.0
 30
0.0
  0
LINE
  5
C0AF
  8
PROF
 10
4.5198575031869259
 20
12.72227734589444
 30
0.0000000000000001
 11
4.5198575031869259
 21
12.88585218805485
 31
0.0000000000000001
  0
LINE
  5
C0B0
  8
PROF
  6
CONTINUOUS
 10
3.6306271195888371
 20
13.325025853350891
 30
0.0000000000000002
 11
4.9012016798694162
 21
13.325025853350891
 31
0.0000000000000002
  0
LINE
  5
C0B1
  8
PROF
 10
1.9750295148747341
 20
10.37671325491794
 30
0.0000000000000002
 11
1.9750295148747341
 21
10.11391186758919
 31
0.0000000000000002
  0
LINE
  5
C0B2
  8
PROF
 10
1.607967335755631
 20
10.11391186758919
 30
0.0000000000000001
 11
1.9750295148747341
 21
10.11391186758919
 31
0.0000000000000001
  0
LINE
  5
C0B3
  8
PROF
 10
1.9750295148747341
 20
10.11391186758919
 30
0.0000000000000001
 11
1.944958486898144
 21
10.11391186758919
 31
0.0000000000000001
  0
LINE
  5
C0B4
  8
PROF
 10
1.9750295148747341
 20
10.11391186758919
 30
0.0000000000000001
 11
1.944958486898144
 21
10.11391186758919
 31
0.0000000000000001
  0
LINE
  5
C0B5
  8
PROF
 10
0.3222605517169654
 20
7.5247473351056442
 30
-0.0000000000000002
 11
-0.0000008570117416
 21
7.5247473351056442
 31
0.0
  0
LINE
  5
C0B6
  8
PROF
 10
-0.0000008570117416
 20
7.5247473351056442
 30
0.0
 11
-0.0000008570117416
 21
9.1943336957369866
 31
0.0
  0
POLYLINE
  5
C0B7
  8
PROF
 66
     1
 10
0.0
 20
0.0
 30
0.0000000000000001
 70
     4
 75
     6
  0
VERTEX
  5
C0B8
  8
PROF
 10
1.607967335755631
 20
10.11391186758919
 30
0.0000000000000001
 70
    16
  0
VERTEX
  5
C0B9
  8
PROF
 10
1.607967335755631
 20
10.11391186758919
 30
0.0000000000000001
 70
     8
  0
VERTEX
  5
C0BA
  8
PROF
 10
1.646813232648582
 20
10.02198069336111
 30
0.0000000000000001
 70
     8
  0
VERTEX
  5
C0BB
  8
PROF
 10
1.67335966680929
 20
9.9344134163010267
 30
0.0000000000000001
 70
     8
  0
VERTEX
  5
C0BC
  8
PROF
 10
1.689008640046324
 20
9.8512576644480987
 30
0.0000000000000001
 70
     8
  0
VERTEX
  5
C0BD
  8
PROF
 10
1.695162154168258
 20
9.7725610658417281
 30
0.0000000000000001
 70
     8
  0
VERTEX
  5
C0BE
  8
PROF
 10
1.6932222109836059
 20
9.6983712485214255
 30
0.0000000000000001
 70
     8
  0
VERTEX
  5
C0BF
  8
PROF
 10
1.6845908123009961
 20
9.6287358405263603
 30
0.0000000000000001
 70
     8
  0
VERTEX
  5
C0C0
  8
PROF
 10
1.6706699599288859
 20
9.5637024698960431
 30
0.0000000000000001
 70
     8
  0
VERTEX
  5
C0C1
  8
PROF
 10
1.6528616556759621
 20
9.503318764669757
 30
0.0000000000000001
 70
     8
  0
VERTEX
  5
C0C2
  8
PROF
 10
1.6323562992730549
 20
9.4475843259650674
 30
0.0000000000000001
 70
     8
  0
VERTEX
  5
C0C3
  8
PROF
 10
1.609497882140658
 20
9.3963066472123273
 30
0.0000000000000001
 70
     8
  0
VERTEX
  5
C0C4
  8
PROF
 10
1.584418793621637
 20
9.3492451949202842
 30
0.0000000000000001
 70
     8
  0
VERTEX
  5
C0C5
  8
PROF
 10
1.557251423058744
 20
9.3061594355972375
 30
0.0000000000000001
 70
     8
  0
VERTEX
  5
C0C6
  8
PROF
 10
1.5281281597949601
 20
9.2668088357519292
 30
0.0000000000000001
 70
     8
  0
VERTEX
  5
C0C7
  8
PROF
 10
1.4971813931729789
 20
9.2309528618930017
 30
0.0000000000000001
 70
     8
  0
VERTEX
  5
C0C8
  8
PROF
 10
1.464543512535726
 20
9.1983509805288577
 30
0.0000000000000001
 70
     8
  0
VERTEX
  5
C0C9
  8
PROF
 10
1.4303469072260091
 20
9.1687626581682462
 30
0.0000000000000001
 70
     8
  0
VERTEX
  5
C0CA
  8
PROF
 10
1.3947360332574019
 20
9.1419547918675335
 30
0.0000000000000001
 70
     8
  0
VERTEX
  5
C0CB
  8
PROF
 10
1.3579036133264131
 20
9.1177240008747731
 30
0.0000000000000001
 70
     8
  0
VERTEX
  5
C0CC
  8
PROF
 10
1.3200544368004321
 20
9.0958743349860924
 30
0.0000000000000001
 70
     8
  0
VERTEX
  5
C0CD
  8
PROF
 10
1.281393293046676
 20
9.0762098439975034
 30
0.0000000000000001
 70
     8
  0
VERTEX
  5
C0CE
  8
PROF
 10
1.242124971432417
 20
9.0585345777049042
 30
0.0000000000000001
 70
     8
  0
VERTEX
  5
C0CF
  8
PROF
 10
1.2024542613249869
 20
9.0426525859044204
 30
0.0000000000000001
 70
     8
  0
VERTEX
  5
C0D0
  8
PROF
 10
1.1625859520916599
 20
9.0283679183919503
 30
0.0000000000000001
 70
     8
  0
VERTEX
  5
C0D1
  8
PROF
 10
1.1227248330997091
 20
9.0154846249635057
 30
0.0000000000000001
 70
     8
  0
VERTEX
  5
C0D2
  8
PROF
 10
1.0829726247361
 20
9.0034643862466055
 30
0.0000000000000001
 70
     8
  0
VERTEX
  5
C0D3
  8
PROF
 10
1.043018771466222
 20
8.9903994061946833
 30
0.0000000000000001
 70
     8
  0
VERTEX
  5
C0D4
  8
PROF
 10
1.002449648775211
 20
8.9740395195925657
 30
0.0000000000000001
 70
     8
  0
VERTEX
  5
C0D5
  8
PROF
 10
0.9608516321480919
 20
8.9521345612251935
 30
0.0000000000000001
 70
     8
  0
VERTEX
  5
C0D6
  8
PROF
 10
0.9178110970699435
 20
8.9224343658775052
 30
0.0000000000000001
 70
     8
  0
VERTEX
  5
C0D7
  8
PROF
 10
0.8729144190259034
 20
8.8826887683343312
 30
0.0000000000000001
 70
     8
  0
VERTEX
  5
C0D8
  8
PROF
 10
0.8257479735009951
 20
8.8306476033806121
 30
0.0000000000000001
 70
     8
  0
VERTEX
  5
C0D9
  8
PROF
 10
0.7758981359802988
 20
8.764060705801171
 30
0.0000000000000001
 70
     8
  0
VERTEX
  5
C0DA
  8
PROF
 10
1.729201901609656
 20
9.8629858761255491
 30
0.0000000000000001
 70
    16
  0
VERTEX
  5
C0DB
  8
PROF
 10
1.6793731231140889
 20
9.4532143012734196
 30
0.0000000000000001
 70
    16
  0
VERTEX
  5
C0DC
  8
PROF
 10
1.4455611507419801
 20
9.1391837193732481
 30
0.0000000000000001
 70
    16
  0
VERTEX
  5
C0DD
  8
PROF
 10
1.120463717273821
 20
9.0026267702428413
 30
0.0000000000000001
 70
    16
  0
VERTEX
  5
C0DE
  8
PROF
 10
0.9127765582653638
 20
8.9630202230383702
 30
0.0000000000000001
 70
    16
  0
VERTEX
  5
C0DF
  8
PROF
 10
0.7758981359802988
 20
8.764060705801171
 30
0.0000000000000001
 70
    16
  0
SEQEND
  5
C0E0
  8
PROF
  0
ARC
  5
C0E1
  8
PROF
 10
0.733429816733235
 20
8.4849506952165257
 30
0.0000000000000001
 40
0.2823224329524727
 50
269.73652020831901
 51
81.348449993176914
  0
LINE
  5
C0E2
  8
PROF
  6
CONTINUOUS
 10
-0.0000008570117416
 20
9.1943336957369866
 30
-0.0000000000000001
 11
3.6306271195888371
 21
13.325025853350891
 31
0.0000000000000002
  0
POLYLINE
  5
C0E3
  8
PROF
 66
     1
 10
0.0
 20
0.0
 30
0.0000000000000001
 70
     4
 75
     6
  0
VERTEX
  5
C0E4
  8
PROF
 10
4.5198575031869259
 20
12.72227734589444
 30
0.0000000000000001
 70
    16
  0
VERTEX
  5
C0E5
  8
PROF
 10
4.5198575031869259
 20
12.72227734589444
 30
0.0000000000000001
 70
     8
  0
VERTEX
  5
C0E6
  8
PROF
 10
4.4467035366886298
 20
12.741128108778071
 30
0.0000000000000001
 70
     8
  0
VERTEX
  5
C0E7
  8
PROF
 10
4.3786645761268801
 20
12.754675269913941
 30
0.0000000000000001
 70
     8
  0
VERTEX
  5
C0E8
  8
PROF
 10
4.3154364111440477
 20
12.76334314092332
 30
0.0000000000000001
 70
     8
  0
VERTEX
  5
C0E9
  8
PROF
 10
4.256714831382566
 20
12.76755603342724
 30
0.0000000000000001
 70
     8
  0
VERTEX
  5
C0EA
  8
PROF
 10
4.2021956264849791
 20
12.76773825904672
 30
0.0000000000000001
 70
     8
  0
VERTEX
  5
C0EB
  8
PROF
 10
4.1515745860935453
 20
12.764314129403139
 30
0.0000000000000001
 70
     8
  0
VERTEX
  5
C0EC
  8
PROF
 10
4.1045474998508658
 20
12.75770795611743
 30
0.0000000000000001
 70
     8
  0
VERTEX
  5
C0ED
  8
PROF
 10
4.0608101573993158
 20
12.748344050810831
 30
0.0000000000000001
 70
     8
  0
VERTEX
  5
C0EE
  8
PROF
 10
4.0200583483813261
 20
12.736646725104491
 30
0.0000000000000001
 70
     8
  0
VERTEX
  5
C0EF
  8
PROF
 10
3.9819878624393819
 20
12.72304029061945
 30
0.0000000000000001
 70
     8
  0
VERTEX
  5
C0F0
  8
PROF
 10
3.946294489215858
 20
12.707949058976959
 30
0.0000000000000001
 70
     8
  0
VERTEX
  5
C0F1
  8
PROF
 10
3.9126740183532429
 20
12.691797341798059
 30
0.0000000000000001
 70
     8
  0
VERTEX
  5
C0F2
  8
PROF
 10
3.8808638350742508
 20
12.67494295718654
 30
0.0000000000000001
 70
     8
  0
VERTEX
  5
C0F3
  8
PROF
 10
3.850767706922738
 20
12.65747774917668
 30
0.0000000000000001
 70
     8
  0
VERTEX
  5
C0F4
  8
PROF
 10
3.8223309970228452
 20
12.639427068285499
 30
0.0000000000000001
 70
     8
  0
VERTEX
  5
C0F5
  8
PROF
 10
3.7954990684987129
 20
12.62081626503004
 30
0.0000000000000001
 70
     8
  0
VERTEX
  5
C0F6
  8
PROF
 10
3.7702172844744828
 20
12.601670689926999
 30
0.0000000000000001
 70
     8
  0
VERTEX
  5
C0F7
  8
PROF
 10
3.746431008074353
 20
12.58201569349364
 30
0.0000000000000001
 70
     8
  0
VERTEX
  5
C0F8
  8
PROF
 10
3.7240856024224618
 20
12.56187662624666
 30
0.0000000000000001
 70
     8
  0
VERTEX
  5
C0F9
  8
PROF
 10
3.7031264306428961
 20
12.541278838703191
 30
0.0000000000000001
 70
     8
  0
VERTEX
  5
C0FA
  8
PROF
 10
3.6834988558599089
 20
12.520247681380051
 30
0.0000000000000001
 70
     8
  0
VERTEX
  5
C0FB
  8
PROF
 10
3.665148241197528
 20
12.49880850479428
 30
0.0000000000000001
 70
     8
  0
VERTEX
  5
C0FC
  8
PROF
 10
3.6480199497799499
 20
12.47698665946279
 30
0.0000000000000001
 70
     8
  0
VERTEX
  5
C0FD
  8
PROF
 10
3.6320593447313172
 20
12.45480749590263
 30
0.0000000000000001
 70
     8
  0
VERTEX
  5
C0FE
  8
PROF
 10
3.6171895848866589
 20
12.43223790353807
 30
0.0000000000000001
 70
     8
  0
VERTEX
  5
C0FF
  8
PROF
 10
3.6032450119242858
 20
12.40901092742285
 30
0.0000000000000001
 70
     8
  0
VERTEX
  5
C100
  8
PROF
 10
3.590037763233453
 20
12.38480115151844
 30
0.0000000000000001
 70
     8
  0
VERTEX
  5
C101
  8
PROF
 10
3.5773799762033032
 20
12.35928315978594
 30
0.0000000000000001
 70
     8
  0
VERTEX
  5
C102
  8
PROF
 10
3.5650837882230908
 20
12.33213153618658
 30
0.0000000000000001
 70
     8
  0
VERTEX
  5
C103
  8
PROF
 10
3.5529613366819599
 20
12.303020864681571
 30
0.0000000000000001
 70
     8
  0
VERTEX
  5
C104
  8
PROF
 10
3.540824758969165
 20
12.271625729232371
 30
0.0000000000000001
 70
     8
  0
VERTEX
  5
C105
  8
PROF
 10
3.5284861924738489
 20
12.23762071379997
 30
0.0000000000000001
 70
     8
  0
VERTEX
  5
C106
  8
PROF
 10
3.5157577745852668
 20
12.200680402345711
 30
0.0000000000000001
 70
     8
  0
VERTEX
  5
C107
  8
PROF
 10
3.5024516426926189
 20
12.16047937883093
 30
0.0000000000000001
 70
     8
  0
VERTEX
  5
C108
  8
PROF
 10
3.4883799341851041
 20
12.116692227216619
 30
0.0000000000000001
 70
     8
  0
VERTEX
  5
C109
  8
PROF
 10
3.4733547864519201
 20
12.06899353146423
 30
0.0000000000000001
 70
     8
  0
VERTEX
  5
C10A
  8
PROF
 10
3.45723654619428
 20
12.0172095445447
 30
0.0000000000000001
 70
     8
  0
VERTEX
  5
C10B
  8
PROF
 10
3.4400783973613889
 20
11.961773195467799
 30
0.0000000000000001
 70
     8
  0
VERTEX
  5
C10C
  8
PROF
 10
3.421981733214579
 20
11.90326908225302
 30
0.0000000000000001
 70
     8
  0
VERTEX
  5
C10D
  8
PROF
 10
3.4030479470150108
 20
11.842281802919951
 30
0.0000000000000001
 70
     8
  0
VERTEX
  5
C10E
  8
PROF
 10
3.383378432024017
 20
11.779395955487979
 30
0.0000000000000001
 70
     8
  0
VERTEX
  5
C10F
  8
PROF
 10
3.3630745815028709
 20
11.715196137976809
 30
0.0000000000000001
 70
     8
  0
VERTEX
  5
C110
  8
PROF
 10
3.3422377887127359
 20
11.650266948405831
 30
0.0000000000000001
 70
     8
  0
VERTEX
  5
C111
  8
PROF
 10
3.320969446915
 20
11.58519298479461
 30
0.0000000000000001
 70
     8
  0
VERTEX
  5
C112
  8
PROF
 10
3.2993709493707679
 20
11.520558845162549
 30
0.0000000000000001
 70
     8
  0
VERTEX
  5
C113
  8
PROF
 10
3.277543689341428
 20
11.456949127529469
 30
0.0000000000000001
 70
     8
  0
VERTEX
  5
C114
  8
PROF
 10
3.2555890600881412
 20
11.3949484299145
 30
0.0000000000000001
 70
     8
  0
VERTEX
  5
C115
  8
PROF
 10
3.233608454872182
 20
11.335141350337491
 30
0.0000000000000001
 70
     8
  0
VERTEX
  5
C116
  8
PROF
 10
3.2116715641212181
 20
11.27799544797778
 30
0.0000000000000001
 70
     8
  0
VERTEX
  5
C117
  8
PROF
 10
3.189721266927847
 20
11.22351012665467
 30
0.0000000000000001
 70
     8
  0
VERTEX
  5
C118
  8
PROF
 10
3.1676687395512881
 20
11.17156775134765
 30
0.0000000000000001
 70
     8
  0
VERTEX
  5
C119
  8
PROF
 10
3.1454251582505321
 20
11.12205068703588
 30
0.0000000000000001
 70
     8
  0
VERTEX
  5
C11A
  8
PROF
 10
3.122901699284625
 20
11.07484129869874
 30
0.0000000000000001
 70
     8
  0
VERTEX
  5
C11B
  8
PROF
 10
3.1000095389127291
 20
11.02982195131551
 30
0.0000000000000001
 70
     8
  0
VERTEX
  5
C11C
  8
PROF
 10
3.0766598533938909
 20
10.986875009865679
 30
0.0000000000000001
 70
     8
  0
VERTEX
  5
C11D
  8
PROF
 10
3.0527638189871591
 20
10.9458828393283
 30
0.0000000000000001
 70
     8
  0
VERTEX
  5
C11E
  8
PROF
 10
3.0282326119516361
 20
10.90672780468298
 30
0.0000000000000001
 70
     8
  0
VERTEX
  5
C11F
  8
PROF
 10
3.002977408546371
 20
10.869292270908771
 30
0.0000000000000001
 70
     8
  0
VERTEX
  5
C120
  8
PROF
 10
2.9769093850304098
 20
10.833458602985161
 30
0.0000000000000001
 70
     8
  0
VERTEX
  5
C121
  8
PROF
 10
2.9499397176628568
 20
10.799109165891419
 30
0.0000000000000001
 70
     8
  0
VERTEX
  5
C122
  8
PROF
 10
2.9220006098404379
 20
10.76614363969508
 30
0.0000000000000001
 70
     8
  0
VERTEX
  5
C123
  8
PROF
 10
2.8931083735103011
 20
10.7345309648158
 30
0.0000000000000001
 70
     8
  0
VERTEX
  5
C124
  8
PROF
 10
2.8633003477572738
 20
10.70425739676193
 30
0.0000000000000001
 70
     8
  0
VERTEX
  5
C125
  8
PROF
 10
2.8326138716660689
 20
10.67530919104115
 30
0.0000000000000001
 70
     8
  0
VERTEX
  5
C126
  8
PROF
 10
2.8010862843216269
 20
10.647672603161711
 30
0.0000000000000001
 70
     8
  0
VERTEX
  5
C127
  8
PROF
 10
2.7687549248087171
 20
10.62133388863162
 30
0.0000000000000001
 70
     8
  0
VERTEX
  5
C128
  8
PROF
 10
2.735657132212054
 20
10.5962793029588
 30
0.0000000000000001
 70
     8
  0
VERTEX
  5
C129
  8
PROF
 10
2.7018302456165202
 20
10.572495101651381
 30
0.0000000000000001
 70
     8
  0
VERTEX
  5
C12A
  8
PROF
 10
2.6673116041068852
 20
10.54996754021726
 30
0.0000000000000001
 70
     8
  0
VERTEX
  5
C12B
  8
PROF
 10
2.6321385467680321
 20
10.528682874164581
 30
0.0000000000000001
 70
     8
  0
VERTEX
  5
C12C
  8
PROF
 10
2.5963484126846188
 20
10.508627359001251
 30
0.0000000000000001
 70
     8
  0
VERTEX
  5
C12D
  8
PROF
 10
2.5599785409415849
 20
10.489787250235279
 30
0.0000000000000001
 70
     8
  0
VERTEX
  5
C12E
  8
PROF
 10
2.522998630314361
 20
10.472162234281081
 30
0.0000000000000001
 70
     8
  0
VERTEX
  5
C12F
  8
PROF
 10
2.4851078183409072
 20
10.455805721177621
 30
0.0000000000000001
 70
     8
  0
VERTEX
  5
C130
  8
PROF
 10
2.4459376022498982
 20
10.44078455187036
 30
0.0000000000000001
 70
     8
  0
VERTEX
  5
C131
  8
PROF
 10
2.4051194792701258
 20
10.42716556730465
 30
0.0000000000000001
 70
     8
  0
VERTEX
  5
C132
  8
PROF
 10
2.3622849466301541
 20
10.415015608425851
 30
0.0000000000000001
 70
     8
  0
VERTEX
  5
C133
  8
PROF
 10
2.3170655015587149
 20
10.40440151617929
 30
0.0000000000000001
 70
     8
  0
VERTEX
  5
C134
  8
PROF
 10
2.2690926412844301
 20
10.395390131510339
 30
0.0000000000000001
 70
     8
  0
VERTEX
  5
C135
  8
PROF
 10
2.2179978630360888
 20
10.388048295364451
 30
0.0000000000000001
 70
     8
  0
VERTEX
  5
C136
  8
PROF
 10
2.1634126640422551
 20
10.38244284868688
 30
0.0000000000000001
 70
     8
  0
VERTEX
  5
C137
  8
PROF
 10
2.104968541531604
 20
10.37864063242295
 30
0.0000000000000001
 70
     8
  0
VERTEX
  5
C138
  8
PROF
 10
2.0422969927328718
 20
10.37670848751816
 30
0.0000000000000001
 70
     8
  0
VERTEX
  5
C139
  8
PROF
 10
1.9750295148747341
 20
10.37671325491794
 30
0.0000000000000001
 70
     8
  0
VERTEX
  5
C13A
  8
PROF
 10
4.2166060115107484
 20
12.80885334975255
 30
0.0000000000000001
 70
    16
  0
VERTEX
  5
C13B
  8
PROF
 10
3.8702254102732918
 20
12.707065515763929
 30
0.0000000000000001
 70
    16
  0
VERTEX
  5
C13C
  8
PROF
 10
3.605346156896871
 20
12.46277472098552
 30
0.0000000000000001
 70
    16
  0
VERTEX
  5
C13D
  8
PROF
 10
3.500746030527238
 20
12.170680575709749
 30
0.0000000000000001
 70
    16
  0
VERTEX
  5
C13E
  8
PROF
 10
3.231798439705698
 20
11.26846416496107
 30
0.0000000000000001
 70
    16
  0
VERTEX
  5
C13F
  8
PROF
 10
2.9737109398832891
 20
10.76631086647069
 30
0.0000000000000001
 70
    16
  0
VERTEX
  5
C140
  8
PROF
 10
2.5729961067384011
 20
10.460947364504699
 30
0.0000000000000001
 70
    16
  0
VERTEX
  5
C141
  8
PROF
 10
2.253782621454604
 20
10.372731239449759
 30
0.0000000000000001
 70
    16
  0
VERTEX
  5
C142
  8
PROF
 10
1.9750295148747341
 20
10.37671325491794
 30
0.0000000000000001
 70
    16
  0
SEQEND
  5
C143
  8
PROF
  0
LINE
  5
C144
  8
PROF
 10
4.9012016798694162
 20
12.88585218805485
 30
0.0000000000000003
 11
4.5198575031869259
 21
12.88585218805485
 31
0.0000000000000003
  0
LINE
  5
C145
  8
PROF
 10
0.7321315362267457
 20
8.2026312473991538
 30
0.0000000000000006
 11
0.7321315362267457
 21
8.0511853963434987
 31
0.0000000000000006
  0
ARC
  5
C146
  8
PROF
 10
0.7977322214551919
 20
7.5773339332026799
 30
0.0000000000000006
 40
0.4783708383912012
 50
97.882010168942529
 51
186.31119505698649
  0
LINE
  5
C147
  8
FRAME_050
 10
7.8016377197432121
 20
17.99371054969447
 30
0.0
 11
7.8016377197432121
 21
0.0000000000002274
 31
0.0
  0
ENDBLK
  5
C149
  8
0
  0
BLOCK
  8
0
  2
A$C3A7C6791
 70
     0
 10
0.0
 20
0.0
 30
0.0
  3
A$C3A7C6791
  1

  0
ARC
  5
1A561
  8
0
 10
1.0342682520551421
 20
11.169869575314801
 30
0.0
 40
0.3900479059662017
 50
183.5871702804647
 51
250.12003892297869
  0
ARC
  5
1A562
  8
0
 10
0.3331235273064408
 20
14.96835148878222
 30
0.0
 40
0.279776987736341
 50
290.26301102890392
 51
72.509116341854423
  0
ARC
  5
1A563
  8
0
 10
0.7948887850711232
 20
10.60700392177659
 30
0.0
 40
0.2232361910347119
 50
300.2914142988875
 51
61.434469032044603
  0
LINE
  5
1A564
  8
0
 10
-0.0000015027120526
 20
9.7351929270671462
 30
0.0
 11
1.0332573394856579
 21
9.7351929270671462
 31
0.0
  0
LINE
  5
1A565
  8
0
 10
1.0332573394856579
 20
10.377304601683591
 30
0.0
 11
0.9074887268004658
 21
10.377304601683591
 31
0.0
  0
LINE
  5
1A566
  8
0
 10
0.6449845421777241
 20
11.145465432783791
 30
0.0
 11
0.5554296092705046
 21
11.181249222917581
 31
0.0
  0
LINE
  5
1A567
  8
0
 10
0.5554296092705046
 20
14.67010534946894
 30
0.0
 11
0.430018718777319
 21
14.67010534946894
 31
0.0
  0
LINE
  5
1A568
  8
0
 10
0.4172116339615855
 20
15.235192927067139
 30
0.0
 11
-0.0000015027120526
 21
15.235192927067139
 31
0.0
  0
LINE
  5
1A569
  8
0
 10
-0.0000015027120526
 20
15.235192927067139
 30
0.0
 11
-0.0000015027120526
 21
9.7351929270671462
 31
0.0
  0
LINE
  5
1A56A
  8
0
 10
1.0332573394856579
 20
9.7351929270671462
 30
0.0
 11
1.0332573394856579
 21
10.377304601683591
 31
0.0
  0
LINE
  5
1A56B
  8
0
 10
0.9074887268004658
 20
10.377304601683591
 30
0.0
 11
0.9074887268003521
 21
10.414245912577821
 31
0.0
  0
LINE
  5
1A56C
  8
0
 10
0.5554296092705046
 20
11.181249222917581
 30
0.0
 11
0.5554296092705046
 21
14.67010534946894
 31
0.0
  0
LINE
  5
1A56D
  8
0
 10
0.430018718777319
 20
14.67010534946894
 30
0.0
 11
0.4300187187771485
 21
14.705889139602959
 31
0.0
  0
INSERT
  5
1A56E
  8
0
  2
*U10
 10
0.0
 20
0.0
 30
0.0
  0
LINE
  5
1A56F
  8
FRAME_050
 10
5.1382720395286006
 20
17.993710579095019
 30
0.0
 11
5.1382720395286006
 21
0.0000000294007805
 31
0.0
  0
ENDBLK
  5
1A571
  8
0
  0
BLOCK
  8
0
  2
A$C212248C0
 70
     0
 10
0.0
 20
0.0
 30
0.0
  3
A$C212248C0
  1

  0
LINE
  5
2846E
  8
0
 10
-0.0000002092490945
 20
10.41741894345523
 30
0.0
 11
-0.000000218823061
 21
12.91741894345523
 31
0.0
  0
LINE
  5
2846F
  8
0
 10
0.8061752779508424
 20
10.41741894654251
 30
0.0
 11
0.80617527442746
 21
11.337459194522349
 31
0.0
  0
LINE
  5
28470
  8
0
 10
-0.0000002092490945
 20
10.41741894345523
 30
0.0
 11
0.8061752779508424
 21
10.41741894654251
 31
0.0
  0
LINE
  5
28471
  8
0
 10
-0.000000218823061
 20
12.91741894345523
 30
0.0
 11
0.1835338022692099
 21
12.91741894415804
 31
0.0
  0
LINE
  5
28472
  8
0
 10
0.5432593756756888
 20
11.33745919351543
 30
0.0
 11
0.8061752744275167
 21
11.337459194522349
 31
0.0
  0
LINE
  5
28473
  8
0
 10
0.5432593756756888
 20
11.33745919351543
 30
0.0
 11
0.54325937522907
 21
11.454074799268589
 31
0.0
  0
ARC
  5
28474
  8
0
 10
0.5406585726453841
 20
11.69407225899795
 30
0.0
 40
0.2400115514942006
 50
270.62087814899439
 51
10.065567101317541
  0
ARC
  5
28475
  8
0
 10
0.3766221072655185
 20
12.57830290724473
 30
0.0
 40
0.1204493443528103
 50
92.075522465847911
 51
186.90606997904499
  0
ARC
  5
28476
  8
0
 10
0.3522648873053527
 20
11.66572609276443
 30
0.0
 40
0.4304889887359197
 50
9.3978639632316945
 51
32.979139282634932
  0
ARC
  5
28477
  8
0
 10
-3.1652042745943159
 20
9.0577862235478506
 30
0.0
 40
4.8085319198703189
 50
36.234313076985558
 51
42.402692063571678
  0
LINE
  5
28478
  8
0
 10
0.1835338022692099
 20
12.91741894415804
 30
0.0
 11
0.3722598200128004
 21
12.698673231681139
 31
0.0
  0
ARC
  5
28479
  8
0
 10
0.9319226152692294
 20
12.72987725098619
 30
0.0
 40
0.6950054723870779
 50
193.8233761419454
 51
218.1708864341492
  0
LINE
  5
2847A
  8
0
 10
-0.0000002092490945
 20
10.41741894345523
 30
0.0
 11
-0.0000002092490945
 21
12.91741894345523
 31
0.0
  0
INSERT
  5
2847B
  8
0
  2
*U11
 10
0.0
 20
0.0
 30
0.0
  0
LINE
  5
2847C
  8
FRAME_050
 10
6.2588202718825414
 20
17.993710579095019
 30
0.0
 11
6.2588202718825414
 21
0.0000000294007805
 31
0.0
  0
ENDBLK
  5
2847E
  8
0
  0
BLOCK
  8
0
  2
A$C52DE5D80
 70
     0
 10
0.0
 20
0.0
 30
0.0
  3
A$C52DE5D80
  1

  0
INSERT
  5
2B89A
  8
0
  2
*U12
 10
0.0
 20
0.0
 30
0.0
  0
LINE
  5
2B89B
  8
0
 10
0.0000014767382481
 20
7.878552666495465
 30
0.0
 11
1.5240062297528421
 21
7.8785526664953522
 31
0.0
  0
LINE
  5
2B89C
  8
0
 10
1.5240062297528421
 20
8.3261365866769665
 30
0.0
 11
1.5240062297528421
 21
7.8785526664953522
 31
0.0
  0
LINE
  5
2B89D
  8
0
 10
1.394539806559862
 20
8.3261365866769665
 30
0.0
 11
1.5240062297528421
 21
8.3261365866769665
 31
0.0
  0
LINE
  5
2B89E
  8
0
 10
0.7472076905950758
 20
9.2582948336663549
 30
0.0
 11
0.8951693171012493
 21
9.2582948336665822
 31
0.0
  0
POLYLINE
  8
0
  5
2F664
  62
7
  66
     1
 10
0.000000
 20
0.000000
 30
0.000000
  70
     8
  0
VERTEX
  8
0
  5
2F665
 10
1.39454
 20
8.32614
 30
0.000000
  70
    32
  0
VERTEX
  8
0
  5
2F666
 10
1.39468
 20
8.33131
 30
0.000000
  70
    32
  0
VERTEX
  8
0
  5
2F667
 10
1.39482
 20
8.33649
 30
0.000000
  70
    32
  0
VERTEX
  8
0
  5
2F668
 10
1.39495
 20
8.34167
 30
0.000000
  70
    32
  0
VERTEX
  8
0
  5
2F669
 10
1.39508
 20
8.34684
 30
0.000000
  70
    32
  0
VERTEX
  8
0
  5
2F66A
 10
1.39521
 20
8.35201
 30
0.000000
  70
    32
  0
VERTEX
  8
0
  5
2F66B
 10
1.39532
 20
8.35718
 30
0.000000
  70
    32
  0
VERTEX
  8
0
  5
2F66C
 10
1.39542
 20
8.36234
 30
0.000000
  70
    32
  0
VERTEX
  8
0
  5
2F66D
 10
1.39552
 20
8.36749
 30
0.000000
  70
    32
  0
VERTEX
  8
0
  5
2F66E
 10
1.39559
 20
8.37264
 30
0.000000
  70
    32
  0
VERTEX
  8
0
  5
2F66F
 10
1.39566
 20
8.37779
 30
0.000000
  70
    32
  0
VERTEX
  8
0
  5
2F670
 10
1.39570
 20
8.38292
 30
0.000000
  70
    32
  0
VERTEX
  8
0
  5
2F671
 10
1.39573
 20
8.38805
 30
0.000000
  70
    32
  0
VERTEX
  8
0
  5
2F672
 10
1.39574
 20
8.39316
 30
0.000000
  70
    32
  0
VERTEX
  8
0
  5
2F673
 10
1.39572
 20
8.39827
 30
0.000000
  70
    32
  0
VERTEX
  8
0
  5
2F674
 10
1.39569
 20
8.40337
 30
0.000000
  70
    32
  0
VERTEX
  8
0
  5
2F675
 10
1.39562
 20
8.40845
 30
0.000000
  70
    32
  0
VERTEX
  8
0
  5
2F676
 10
1.39553
 20
8.41352
 30
0.000000
  70
    32
  0
VERTEX
  8
0
  5
2F677
 10
1.39541
 20
8.41858
 30
0.000000
  70
    32
  0
VERTEX
  8
0
  5
2F678
 10
1.39526
 20
8.42363
 30
0.000000
  70
    32
  0
VERTEX
  8
0
  5
2F679
 10
1.39507
 20
8.42866
 30
0.000000
  70
    32
  0
VERTEX
  8
0
  5
2F67A
 10
1.39486
 20
8.43367
 30
0.000000
  70
    32
  0
VERTEX
  8
0
  5
2F67B
 10
1.39460
 20
8.43867
 30
0.000000
  70
    32
  0
VERTEX
  8
0
  5
2F67C
 10
1.39431
 20
8.44365
 30
0.000000
  70
    32
  0
VERTEX
  8
0
  5
2F67D
 10
1.39398
 20
8.44862
 30
0.000000
  70
    32
  0
VERTEX
  8
0
  5
2F67E
 10
1.39361
 20
8.45356
 30
0.000000
  70
    32
  0
VERTEX
  8
0
  5
2F67F
 10
1.39320
 20
8.45849
 30
0.000000
  70
    32
  0
VERTEX
  8
0
  5
2F680
 10
1.39274
 20
8.46339
 30
0.000000
  70
    32
  0
VERTEX
  8
0
  5
2F681
 10
1.39224
 20
8.46828
 30
0.000000
  70
    32
  0
VERTEX
  8
0
  5
2F682
 10
1.39168
 20
8.47314
 30
0.000000
  70
    32
  0
VERTEX
  8
0
  5
2F683
 10
1.39108
 20
8.47798
 30
0.000000
  70
    32
  0
VERTEX
  8
0
  5
2F684
 10
1.39043
 20
8.48280
 30
0.000000
  70
    32
  0
VERTEX
  8
0
  5
2F685
 10
1.38973
 20
8.48759
 30
0.000000
  70
    32
  0
VERTEX
  8
0
  5
2F686
 10
1.38897
 20
8.49236
 30
0.000000
  70
    32
  0
VERTEX
  8
0
  5
2F687
 10
1.38815
 20
8.49711
 30
0.000000
  70
    32
  0
VERTEX
  8
0
  5
2F688
 10
1.38728
 20
8.50182
 30
0.000000
  70
    32
  0
VERTEX
  8
0
  5
2F689
 10
1.38635
 20
8.50651
 30
0.000000
  70
    32
  0
VERTEX
  8
0
  5
2F68A
 10
1.38535
 20
8.51117
 30
0.000000
  70
    32
  0
VERTEX
  8
0
  5
2F68B
 10
1.38429
 20
8.51581
 30
0.000000
  70
    32
  0
VERTEX
  8
0
  5
2F68C
 10
1.38317
 20
8.52041
 30
0.000000
  70
    32
  0
VERTEX
  8
0
  5
2F68D
 10
1.38198
 20
8.52498
 30
0.000000
  70
    32
  0
VERTEX
  8
0
  5
2F68E
 10
1.38073
 20
8.52953
 30
0.000000
  70
    32
  0
VERTEX
  8
0
  5
2F68F
 10
1.37940
 20
8.53404
 30
0.000000
  70
    32
  0
VERTEX
  8
0
  5
2F690
 10
1.37800
 20
8.53851
 30
0.000000
  70
    32
  0
VERTEX
  8
0
  5
2F691
 10
1.37653
 20
8.54296
 30
0.000000
  70
    32
  0
VERTEX
  8
0
  5
2F692
 10
1.37499
 20
8.54737
 30
0.000000
  70
    32
  0
VERTEX
  8
0
  5
2F693
 10
1.37337
 20
8.55175
 30
0.000000
  70
    32
  0
VERTEX
  8
0
  5
2F694
 10
1.37167
 20
8.55609
 30
0.000000
  70
    32
  0
VERTEX
  8
0
  5
2F695
 10
1.36991
 20
8.56040
 30
0.000000
  70
    32
  0
VERTEX
  8
0
  5
2F696
 10
1.36807
 20
8.56468
 30
0.000000
  70
    32
  0
VERTEX
  8
0
  5
2F697
 10
1.36616
 20
8.56893
 30
0.000000
  70
    32
  0
VERTEX
  8
0
  5
2F698
 10
1.36418
 20
8.57314
 30
0.000000
  70
    32
  0
VERTEX
  8
0
  5
2F699
 10
1.36214
 20
8.57733
 30
0.000000
  70
    32
  0
VERTEX
  8
0
  5
2F69A
 10
1.36003
 20
8.58148
 30
0.000000
  70
    32
  0
VERTEX
  8
0
  5
2F69B
 10
1.35785
 20
8.58560
 30
0.000000
  70
    32
  0
VERTEX
  8
0
  5
2F69C
 10
1.35561
 20
8.58970
 30
0.000000
  70
    32
  0
VERTEX
  8
0
  5
2F69D
 10
1.35330
 20
8.59377
 30
0.000000
  70
    32
  0
VERTEX
  8
0
  5
2F69E
 10
1.35093
 20
8.59781
 30
0.000000
  70
    32
  0
VERTEX
  8
0
  5
2F69F
 10
1.34851
 20
8.60182
 30
0.000000
  70
    32
  0
VERTEX
  8
0
  5
2F6A0
 10
1.34602
 20
8.60581
 30
0.000000
  70
    32
  0
VERTEX
  8
0
  5
2F6A1
 10
1.34347
 20
8.60976
 30
0.000000
  70
    32
  0
VERTEX
  8
0
  5
2F6A2
 10
1.34086
 20
8.61370
 30
0.000000
  70
    32
  0
VERTEX
  8
0
  5
2F6A3
 10
1.33820
 20
8.61761
 30
0.000000
  70
    32
  0
VERTEX
  8
0
  5
2F6A4
 10
1.33549
 20
8.62149
 30
0.000000
  70
    32
  0
VERTEX
  8
0
  5
2F6A5
 10
1.33271
 20
8.62535
 30
0.000000
  70
    32
  0
VERTEX
  8
0
  5
2F6A6
 10
1.32989
 20
8.62919
 30
0.000000
  70
    32
  0
VERTEX
  8
0
  5
2F6A7
 10
1.32701
 20
8.63300
 30
0.000000
  70
    32
  0
VERTEX
  8
0
  5
2F6A8
 10
1.32408
 20
8.63679
 30
0.000000
  70
    32
  0
VERTEX
  8
0
  5
2F6A9
 10
1.32111
 20
8.64056
 30
0.000000
  70
    32
  0
VERTEX
  8
0
  5
2F6AA
 10
1.31808
 20
8.64431
 30
0.000000
  70
    32
  0
VERTEX
  8
0
  5
2F6AB
 10
1.31501
 20
8.64803
 30
0.000000
  70
    32
  0
VERTEX
  8
0
  5
2F6AC
 10
1.31189
 20
8.65174
 30
0.000000
  70
    32
  0
VERTEX
  8
0
  5
2F6AD
 10
1.30872
 20
8.65543
 30
0.000000
  70
    32
  0
VERTEX
  8
0
  5
2F6AE
 10
1.30551
 20
8.65910
 30
0.000000
  70
    32
  0
VERTEX
  8
0
  5
2F6AF
 10
1.30226
 20
8.66275
 30
0.000000
  70
    32
  0
VERTEX
  8
0
  5
2F6B0
 10
1.29896
 20
8.66638
 30
0.000000
  70
    32
  0
VERTEX
  8
0
  5
2F6B1
 10
1.29563
 20
8.66999
 30
0.000000
  70
    32
  0
VERTEX
  8
0
  5
2F6B2
 10
1.29225
 20
8.67359
 30
0.000000
  70
    32
  0
VERTEX
  8
0
  5
2F6B3
 10
1.28884
 20
8.67717
 30
0.000000
  70
    32
  0
VERTEX
  8
0
  5
2F6B4
 10
1.28539
 20
8.68074
 30
0.000000
  70
    32
  0
VERTEX
  8
0
  5
2F6B5
 10
1.28190
 20
8.68429
 30
0.000000
  70
    32
  0
VERTEX
  8
0
  5
2F6B6
 10
1.27838
 20
8.68782
 30
0.000000
  70
    32
  0
VERTEX
  8
0
  5
2F6B7
 10
1.27482
 20
8.69134
 30
0.000000
  70
    32
  0
VERTEX
  8
0
  5
2F6B8
 10
1.27123
 20
8.69485
 30
0.000000
  70
    32
  0
VERTEX
  8
0
  5
2F6B9
 10
1.26761
 20
8.69835
 30
0.000000
  70
    32
  0
VERTEX
  8
0
  5
2F6BA
 10
1.26396
 20
8.70183
 30
0.000000
  70
    32
  0
VERTEX
  8
0
  5
2F6BB
 10
1.26028
 20
8.70530
 30
0.000000
  70
    32
  0
VERTEX
  8
0
  5
2F6BC
 10
1.25657
 20
8.70876
 30
0.000000
  70
    32
  0
VERTEX
  8
0
  5
2F6BD
 10
1.25283
 20
8.71220
 30
0.000000
  70
    32
  0
VERTEX
  8
0
  5
2F6BE
 10
1.24907
 20
8.71564
 30
0.000000
  70
    32
  0
VERTEX
  8
0
  5
2F6BF
 10
1.24528
 20
8.71907
 30
0.000000
  70
    32
  0
VERTEX
  8
0
  5
2F6C0
 10
1.24147
 20
8.72249
 30
0.000000
  70
    32
  0
VERTEX
  8
0
  5
2F6C1
 10
1.23764
 20
8.72590
 30
0.000000
  70
    32
  0
VERTEX
  8
0
  5
2F6C2
 10
1.23379
 20
8.72930
 30
0.000000
  70
    32
  0
VERTEX
  8
0
  5
2F6C3
 10
1.22991
 20
8.73270
 30
0.000000
  70
    32
  0
VERTEX
  8
0
  5
2F6C4
 10
1.22601
 20
8.73609
 30
0.000000
  70
    32
  0
VERTEX
  8
0
  5
2F6C5
 10
1.22210
 20
8.73947
 30
0.000000
  70
    32
  0
VERTEX
  8
0
  5
2F6C6
 10
1.21817
 20
8.74284
 30
0.000000
  70
    32
  0
VERTEX
  8
0
  5
2F6C7
 10
1.21423
 20
8.74621
 30
0.000000
  70
    32
  0
VERTEX
  8
0
  5
2F6C8
 10
1.21027
 20
8.74958
 30
0.000000
  70
    32
  0
VERTEX
  8
0
  5
2F6C9
 10
1.20629
 20
8.75294
 30
0.000000
  70
    32
  0
VERTEX
  8
0
  5
2F6CA
 10
1.20230
 20
8.75630
 30
0.000000
  70
    32
  0
VERTEX
  8
0
  5
2F6CB
 10
1.19831
 20
8.75965
 30
0.000000
  70
    32
  0
VERTEX
  8
0
  5
2F6CC
 10
1.19430
 20
8.76300
 30
0.000000
  70
    32
  0
VERTEX
  8
0
  5
2F6CD
 10
1.19028
 20
8.76636
 30
0.000000
  70
    32
  0
VERTEX
  8
0
  5
2F6CE
 10
1.18626
 20
8.76970
 30
0.000000
  70
    32
  0
VERTEX
  8
0
  5
2F6CF
 10
1.18222
 20
8.77305
 30
0.000000
  70
    32
  0
VERTEX
  8
0
  5
2F6D0
 10
1.17819
 20
8.77640
 30
0.000000
  70
    32
  0
VERTEX
  8
0
  5
2F6D1
 10
1.17414
 20
8.77975
 30
0.000000
  70
    32
  0
VERTEX
  8
0
  5
2F6D2
 10
1.17010
 20
8.78310
 30
0.000000
  70
    32
  0
VERTEX
  8
0
  5
2F6D3
 10
1.16605
 20
8.78645
 30
0.000000
  70
    32
  0
VERTEX
  8
0
  5
2F6D4
 10
1.16200
 20
8.78980
 30
0.000000
  70
    32
  0
VERTEX
  8
0
  5
2F6D5
 10
1.15795
 20
8.79315
 30
0.000000
  70
    32
  0
VERTEX
  8
0
  5
2F6D6
 10
1.15390
 20
8.79651
 30
0.000000
  70
    32
  0
VERTEX
  8
0
  5
2F6D7
 10
1.14986
 20
8.79987
 30
0.000000
  70
    32
  0
VERTEX
  8
0
  5
2F6D8
 10
1.14582
 20
8.80323
 30
0.000000
  70
    32
  0
VERTEX
  8
0
  5
2F6D9
 10
1.14178
 20
8.80660
 30
0.000000
  70
    32
  0
VERTEX
  8
0
  5
2F6DA
 10
1.13775
 20
8.80998
 30
0.000000
  70
    32
  0
VERTEX
  8
0
  5
2F6DB
 10
1.13372
 20
8.81336
 30
0.000000
  70
    32
  0
VERTEX
  8
0
  5
2F6DC
 10
1.12970
 20
8.81674
 30
0.000000
  70
    32
  0
VERTEX
  8
0
  5
2F6DD
 10
1.12569
 20
8.82014
 30
0.000000
  70
    32
  0
VERTEX
  8
0
  5
2F6DE
 10
1.12170
 20
8.82354
 30
0.000000
  70
    32
  0
VERTEX
  8
0
  5
2F6DF
 10
1.11771
 20
8.82695
 30
0.000000
  70
    32
  0
VERTEX
  8
0
  5
2F6E0
 10
1.11373
 20
8.83036
 30
0.000000
  70
    32
  0
VERTEX
  8
0
  5
2F6E1
 10
1.10977
 20
8.83379
 30
0.000000
  70
    32
  0
VERTEX
  8
0
  5
2F6E2
 10
1.10583
 20
8.83723
 30
0.000000
  70
    32
  0
VERTEX
  8
0
  5
2F6E3
 10
1.10190
 20
8.84067
 30
0.000000
  70
    32
  0
VERTEX
  8
0
  5
2F6E4
 10
1.09798
 20
8.84413
 30
0.000000
  70
    32
  0
VERTEX
  8
0
  5
2F6E5
 10
1.09409
 20
8.84760
 30
0.000000
  70
    32
  0
VERTEX
  8
0
  5
2F6E6
 10
1.09021
 20
8.85107
 30
0.000000
  70
    32
  0
VERTEX
  8
0
  5
2F6E7
 10
1.08635
 20
8.85457
 30
0.000000
  70
    32
  0
VERTEX
  8
0
  5
2F6E8
 10
1.08251
 20
8.85807
 30
0.000000
  70
    32
  0
VERTEX
  8
0
  5
2F6E9
 10
1.07870
 20
8.86158
 30
0.000000
  70
    32
  0
VERTEX
  8
0
  5
2F6EA
 10
1.07490
 20
8.86511
 30
0.000000
  70
    32
  0
VERTEX
  8
0
  5
2F6EB
 10
1.07113
 20
8.86865
 30
0.000000
  70
    32
  0
VERTEX
  8
0
  5
2F6EC
 10
1.06738
 20
8.87220
 30
0.000000
  70
    32
  0
VERTEX
  8
0
  5
2F6ED
 10
1.06365
 20
8.87576
 30
0.000000
  70
    32
  0
VERTEX
  8
0
  5
2F6EE
 10
1.05995
 20
8.87934
 30
0.000000
  70
    32
  0
VERTEX
  8
0
  5
2F6EF
 10
1.05628
 20
8.88294
 30
0.000000
  70
    32
  0
VERTEX
  8
0
  5
2F6F0
 10
1.05263
 20
8.88654
 30
0.000000
  70
    32
  0
VERTEX
  8
0
  5
2F6F1
 10
1.04900
 20
8.89016
 30
0.000000
  70
    32
  0
VERTEX
  8
0
  5
2F6F2
 10
1.04541
 20
8.89380
 30
0.000000
  70
    32
  0
VERTEX
  8
0
  5
2F6F3
 10
1.04185
 20
8.89745
 30
0.000000
  70
    32
  0
VERTEX
  8
0
  5
2F6F4
 10
1.03831
 20
8.90112
 30
0.000000
  70
    32
  0
VERTEX
  8
0
  5
2F6F5
 10
1.03481
 20
8.90480
 30
0.000000
  70
    32
  0
VERTEX
  8
0
  5
2F6F6
 10
1.03133
 20
8.90850
 30
0.000000
  70
    32
  0
VERTEX
  8
0
  5
2F6F7
 10
1.02789
 20
8.91221
 30
0.000000
  70
    32
  0
VERTEX
  8
0
  5
2F6F8
 10
1.02448
 20
8.91594
 30
0.000000
  70
    32
  0
VERTEX
  8
0
  5
2F6F9
 10
1.02111
 20
8.91969
 30
0.000000
  70
    32
  0
VERTEX
  8
0
  5
2F6FA
 10
1.01777
 20
8.92345
 30
0.000000
  70
    32
  0
VERTEX
  8
0
  5
2F6FB
 10
1.01446
 20
8.92723
 30
0.000000
  70
    32
  0
VERTEX
  8
0
  5
2F6FC
 10
1.01119
 20
8.93103
 30
0.000000
  70
    32
  0
VERTEX
  8
0
  5
2F6FD
 10
1.00796
 20
8.93484
 30
0.000000
  70
    32
  0
VERTEX
  8
0
  5
2F6FE
 10
1.00476
 20
8.93868
 30
0.000000
  70
    32
  0
VERTEX
  8
0
  5
2F6FF
 10
1.00160
 20
8.94253
 30
0.000000
  70
    32
  0
VERTEX
  8
0
  5
2F700
 10
0.998485
 20
8.94640
 30
0.000000
  70
    32
  0
VERTEX
  8
0
  5
2F701
 10
0.995407
 20
8.95029
 30
0.000000
  70
    32
  0
VERTEX
  8
0
  5
2F702
 10
0.992369
 20
8.95420
 30
0.000000
  70
    32
  0
VERTEX
  8
0
  5
2F703
 10
0.989373
 20
8.95813
 30
0.000000
  70
    32
  0
VERTEX
  8
0
  5
2F704
 10
0.986419
 20
8.96208
 30
0.000000
  70
    32
  0
VERTEX
  8
0
  5
2F705
 10
0.983508
 20
8.96605
 30
0.000000
  70
    32
  0
VERTEX
  8
0
  5
2F706
 10
0.980642
 20
8.97004
 30
0.000000
  70
    32
  0
VERTEX
  8
0
  5
2F707
 10
0.977819
 20
8.97405
 30
0.000000
  70
    32
  0
VERTEX
  8
0
  5
2F708
 10
0.975042
 20
8.97808
 30
0.000000
  70
    32
  0
VERTEX
  8
0
  5
2F709
 10
0.972312
 20
8.98213
 30
0.000000
  70
    32
  0
VERTEX
  8
0
  5
2F70A
 10
0.969628
 20
8.98621
 30
0.000000
  70
    32
  0
VERTEX
  8
0
  5
2F70B
 10
0.966993
 20
8.99030
 30
0.000000
  70
    32
  0
VERTEX
  8
0
  5
2F70C
 10
0.964406
 20
8.99442
 30
0.000000
  70
    32
  0
VERTEX
  8
0
  5
2F70D
 10
0.961868
 20
8.99856
 30
0.000000
  70
    32
  0
VERTEX
  8
0
  5
2F70E
 10
0.959381
 20
9.00272
 30
0.000000
  70
    32
  0
VERTEX
  8
0
  5
2F70F
 10
0.956944
 20
9.00691
 30
0.000000
  70
    32
  0
VERTEX
  8
0
  5
2F710
 10
0.954559
 20
9.01112
 30
0.000000
  70
    32
  0
VERTEX
  8
0
  5
2F711
 10
0.952227
 20
9.01535
 30
0.000000
  70
    32
  0
VERTEX
  8
0
  5
2F712
 10
0.949949
 20
9.01960
 30
0.000000
  70
    32
  0
VERTEX
  8
0
  5
2F713
 10
0.947724
 20
9.02388
 30
0.000000
  70
    32
  0
VERTEX
  8
0
  5
2F714
 10
0.945555
 20
9.02819
 30
0.000000
  70
    32
  0
VERTEX
  8
0
  5
2F715
 10
0.943441
 20
9.03252
 30
0.000000
  70
    32
  0
VERTEX
  8
0
  5
2F716
 10
0.941383
 20
9.03687
 30
0.000000
  70
    32
  0
VERTEX
  8
0
  5
2F717
 10
0.939384
 20
9.04125
 30
0.000000
  70
    32
  0
VERTEX
  8
0
  5
2F718
 10
0.937442
 20
9.04566
 30
0.000000
  70
    32
  0
VERTEX
  8
0
  5
2F719
 10
0.935559
 20
9.05009
 30
0.000000
  70
    32
  0
VERTEX
  8
0
  5
2F71A
 10
0.933736
 20
9.05455
 30
0.000000
  70
    32
  0
VERTEX
  8
0
  5
2F71B
 10
0.931973
 20
9.05903
 30
0.000000
  70
    32
  0
VERTEX
  8
0
  5
2F71C
 10
0.930271
 20
9.06354
 30
0.000000
  70
    32
  0
VERTEX
  8
0
  5
2F71D
 10
0.928629
 20
9.06808
 30
0.000000
  70
    32
  0
VERTEX
  8
0
  5
2F71E
 10
0.927045
 20
9.07264
 30
0.000000
  70
    32
  0
VERTEX
  8
0
  5
2F71F
 10
0.925517
 20
9.07722
 30
0.000000
  70
    32
  0
VERTEX
  8
0
  5
2F720
 10
0.924045
 20
9.08183
 30
0.000000
  70
    32
  0
VERTEX
  8
0
  5
2F721
 10
0.922626
 20
9.08647
 30
0.000000
  70
    32
  0
VERTEX
  8
0
  5
2F722
 10
0.921259
 20
9.09112
 30
0.000000
  70
    32
  0
VERTEX
  8
0
  5
2F723
 10
0.919943
 20
9.09580
 30
0.000000
  70
    32
  0
VERTEX
  8
0
  5
2F724
 10
0.918676
 20
9.10050
 30
0.000000
  70
    32
  0
VERTEX
  8
0
  5
2F725
 10
0.917457
 20
9.10522
 30
0.000000
  70
    32
  0
VERTEX
  8
0
  5
2F726
 10
0.916283
 20
9.10996
 30
0.000000
  70
    32
  0
VERTEX
  8
0
  5
2F727
 10
0.915155
 20
9.11472
 30
0.000000
  70
    32
  0
VERTEX
  8
0
  5
2F728
 10
0.914070
 20
9.11950
 30
0.000000
  70
    32
  0
VERTEX
  8
0
  5
2F729
 10
0.913026
 20
9.12429
 30
0.000000
  70
    32
  0
VERTEX
  8
0
  5
2F72A
 10
0.912023
 20
9.12911
 30
0.000000
  70
    32
  0
VERTEX
  8
0
  5
2F72B
 10
0.911058
 20
9.13394
 30
0.000000
  70
    32
  0
VERTEX
  8
0
  5
2F72C
 10
0.910131
 20
9.13879
 30
0.000000
  70
    32
  0
VERTEX
  8
0
  5
2F72D
 10
0.909239
 20
9.14365
 30
0.000000
  70
    32
  0
VERTEX
  8
0
  5
2F72E
 10
0.908381
 20
9.14853
 30
0.000000
  70
    32
  0
VERTEX
  8
0
  5
2F72F
 10
0.907557
 20
9.15342
 30
0.000000
  70
    32
  0
VERTEX
  8
0
  5
2F730
 10
0.906763
 20
9.15832
 30
0.000000
  70
    32
  0
VERTEX
  8
0
  5
2F731
 10
0.906000
 20
9.16324
 30
0.000000
  70
    32
  0
VERTEX
  8
0
  5
2F732
 10
0.905264
 20
9.16817
 30
0.000000
  70
    32
  0
VERTEX
  8
0
  5
2F733
 10
0.904556
 20
9.17312
 30
0.000000
  70
    32
  0
VERTEX
  8
0
  5
2F734
 10
0.903873
 20
9.17807
 30
0.000000
  70
    32
  0
VERTEX
  8
0
  5
2F735
 10
0.903213
 20
9.18303
 30
0.000000
  70
    32
  0
VERTEX
  8
0
  5
2F736
 10
0.902576
 20
9.18801
 30
0.000000
  70
    32
  0
VERTEX
  8
0
  5
2F737
 10
0.901960
 20
9.19299
 30
0.000000
  70
    32
  0
VERTEX
  8
0
  5
2F738
 10
0.901363
 20
9.19798
 30
0.000000
  70
    32
  0
VERTEX
  8
0
  5
2F739
 10
0.900784
 20
9.20298
 30
0.000000
  70
    32
  0
VERTEX
  8
0
  5
2F73A
 10
0.900222
 20
9.20799
 30
0.000000
  70
    32
  0
VERTEX
  8
0
  5
2F73B
 10
0.899674
 20
9.21300
 30
0.000000
  70
    32
  0
VERTEX
  8
0
  5
2F73C
 10
0.899140
 20
9.21802
 30
0.000000
  70
    32
  0
VERTEX
  8
0
  5
2F73D
 10
0.898617
 20
9.22304
 30
0.000000
  70
    32
  0
VERTEX
  8
0
  5
2F73E
 10
0.898105
 20
9.22807
 30
0.000000
  70
    32
  0
VERTEX
  8
0
  5
2F73F
 10
0.897602
 20
9.23310
 30
0.000000
  70
    32
  0
VERTEX
  8
0
  5
2F740
 10
0.897107
 20
9.23813
 30
0.000000
  70
    32
  0
VERTEX
  8
0
  5
2F741
 10
0.896617
 20
9.24317
 30
0.000000
  70
    32
  0
VERTEX
  8
0
  5
2F742
 10
0.896132
 20
9.24821
 30
0.000000
  70
    32
  0
VERTEX
  8
0
  5
2F743
 10
0.895650
 20
9.25325
 30
0.000000
  70
    32
  0
VERTEX
  8
0
  5
2F744
 10
0.895169
 20
9.25829
 30
0.000000
  70
    32
  0
SEQEND
  8
0
  5
2F745
  0
LINE
  5
2B8A0
  8
0
  6
CONTINUOUS
 62
     7
 10
0.7472076905950758
 20
9.2582948336663549
 30
0.0
 11
0.7472076905949621
 21
11.826520277942111
 31
0.0
  0
LINE
  5
2B8A1
  8
0
  6
CONTINUOUS
 62
     7
 10
0.4997076905949598
 20
12.389020277942111
 30
0.0
 11
0.000001476738305
 21
12.389020277942111
 31
0.0
  0
ARC
  5
2B8A2
  8
0
 10
0.4997076905949598
 20
12.139020277942111
 30
0.0
 40
0.2500000000000009
 50
269.42703265506509
 51
90.0
  0
LINE
  5
2B8A3
  8
0
  6
CONTINUOUS
 62
     7
 10
0.7472076905949621
 20
11.826520277942111
 30
0.0
 11
0.5597076905949621
 21
11.826520277942111
 31
0.0
  0
LINE
  5
2B8A4
  8
0
  6
CONTINUOUS
 62
     7
 10
0.4972076905949621
 20
11.826520277942111
 30
0.0
 11
0.4972076905949621
 21
11.88903277828603
 31
0.0
  0
LINE
  5
2B8A5
  8
0
 10
0.0000014767382481
 20
7.878552666495465
 30
0.0
 11
0.000001476738305
 21
12.389020277942111
 31
0.0
  0
LINE
  5
2B8A6
  8
0
 10
0.7472076905949621
 20
11.826520277942111
 30
0.0
 11
0.4972076905949621
 21
11.826520277942111
 31
0.0
  0
LINE
  5
2B8A7
  8
FRAME_050
 10
6.5744546621590407
 20
17.993710579095019
 30
0.0
 11
6.5744546621590407
 21
0.0000000294007805
 31
0.0
  0
ENDBLK
  5
2B8A9
  8
0
  0
BLOCK
  8
0
  2
*U9
 70
     1
 10
0.0
 20
0.0
 30
0.0
  3
*U9
  1

  0
TEXT
  5
2F63B
  8
0
 10
3.5177832928899071
 20
10.38601584255777
 30
0.0
 40
0.125
  1
Crown Moulding
  0
TEXT
  5
2F63C
  8
0
 10
3.5223876585106431
 20
10.17717091304435
 30
0.0
 40
0.125
  1
TL-AB509
  0
TEXT
  5
2F63D
  8
0
 10
3.5074661032582561
 20
9.9667059289606801
 30
0.0
 40
0.125
  1
1-5/16" x 7-9/16"
  0
TEXT
  5
2F63E
  8
0
 10
3.519403347460166
 20
9.7562409448770051
 30
0.0
 40
0.125
  1
800.66.TAGUE
  0
ENDBLK
  5
2F640
  8
0
  0
BLOCK
  8
0
  2
*U10
 70
     1
 10
0.0
 20
0.0
 30
0.0
  3
*U10
  1

  0
TEXT
  5
2F642
  8
0
 10
1.4086740032724709
 20
13.04264108713495
 30
0.0
 40
0.125
  1
Casing
  0
TEXT
  5
2F643
  8
0
 10
1.4132783688932069
 20
12.83379615762154
 30
0.0
 40
0.125
  1
TL-2019
  0
TEXT
  5
2F644
  8
0
 10
1.39835681364082
 20
12.62333117353786
 30
0.0
 40
0.125
  1
1-1/16" x 5-1/2"
  0
TEXT
  5
2F645
  8
0
 10
1.4102940578427301
 20
12.41286618945419
 30
0.0
 40
0.125
  1
800.66.TAGUE
  0
ENDBLK
  5
2F647
  8
0
  0
BLOCK
  8
0
  2
*U11
 70
     1
 10
0.0
 20
0.0
 30
0.0
  3
*U11
  1

  0
TEXT
  5
2F649
  8
0
 10
1.9061884295105971
 20
11.78127341408482
 30
0.0
 40
0.125
  1
Casing
  0
TEXT
  5
2F64A
  8
0
 10
1.9107927951313339
 20
11.572428484571409
 30
0.0
 40
0.125
  1
TL-2318
  0
TEXT
  5
2F64B
  8
0
 10
1.8958712398789459
 20
11.361963500487731
 30
0.0
 40
0.125
  1
13/16" x 2-1/2"
  0
TEXT
  5
2F64C
  8
0
 10
1.907808484080856
 20
11.151498516404059
 30
0.0
 40
0.125
  1
800.66.TAGUE
  0
ENDBLK
  5
2F64E
  8
0
  0
BLOCK
  8
0
  2
*U12
 70
     1
 10
0.0
 20
0.0
 30
0.0
  3
*U12
  1

  0
TEXT
  5
2F650
  8
0
 10
2.2380648505203782
 20
10.70752122569969
 30
0.0
 40
0.125
  1
Casing Assembly
  0
TEXT
  5
2F651
  8
0
 10
2.242669216141115
 20
10.498676296186281
 30
0.0
 40
0.125
  1
TL-2225
  0
TEXT
  5
2F652
  8
0
 10
2.2277476608887281
 20
10.2882113121026
 30
0.0
 40
0.125
  1
1-9/16" x 4-1/2"
  0
TEXT
  5
2F653
  8
0
 10
2.239684905090638
 20
10.077746328018931
 30
0.0
 40
0.125
  1
800.66.TAGUE
  0
ENDBLK
  5
2F655
  8
0
  0
BLOCK
  8
0
  2
*U13
 70
     1
 10
0.0
 20
0.0
 30
0.0
  3
*U13
  1

  0
TEXT
  5
2F657
  8
0
 10
2.45740474597793
 20
2.5787099920155621
 30
0.0
 40
0.125
  1
Chair Rail
  0
TEXT
  5
2F658
  8
0
 10
2.462009111598666
 20
2.3698650625021469
 30
0.0
 40
0.125
  1
TL-300
  0
TEXT
  5
2F659
  8
0
 10
2.4470875563462791
 20
2.1594000784184728
 30
0.0
 40
0.125
  1
1-1/16" x 2-15/16"
  0
TEXT
  5
2F65A
  8
0
 10
2.4590248005481889
 20
1.9489350943347981
 30
0.0
 40
0.125
  1
800.66.TAGUE
  0
ENDBLK
  5
2F65C
  8
0
  0
BLOCK
  8
0
  2
*U14
 70
     1
 10
0.0
 20
0.0
 30
0.0
  3
*U14
  1

  0
TEXT
  5
2F65E
  8
0
 10
-379.31000333288807
 20
846.20831021414017
 30
0.0
 40
0.125
  1
Chair Rail
  0
TEXT
  5
2F65F
  8
0
 10
-379.30539896726742
 20
845.99946528462692
 30
0.0
 40
0.125
  1
TL-300
  0
TEXT
  5
2F660
  8
0
 10
-379.32032052251981
 20
845.78900030054308
 30
0.0
 40
0.125
  1
1-1/16" x 2-15/16"
  0
TEXT
  5
2F661
  8
0
 10
-379.30838327831788
 20
845.57853531645958
 30
0.0
 40
0.125
  1
800.66.TAGUE
  0
ENDBLK
  5
2F663
  8
0
  0
ENDSEC
  0
SECTION
  2
ENTITIES
  0
INSERT
  5
2F619
  8
0
  2
*U14
 10
0.0
 20
0.0
 30
0.0
  0
LINE
  5
2F61A
  8
0
 10
-381.0930016768304
 20
845.68636444203594
 30
0.0
 11
-381.0930016768304
 21
845.95161300673624
 31
0.0
  0
LINE
  5
2F61B
  8
0
 10
-381.0887787659309
 20
844.74808829855976
 30
0.0
 11
-381.0887787659309
 21
844.88939599456194
 31
0.0
  0
LINE
  5
2F61C
  8
0
 10
-381.59064654878762
 20
843.62959963375727
 30
0.0
 11
-381.58607536181438
 21
843.71720055504284
 31
0.0
  0
LINE
  5
2F61D
  8
0
 10
-381.76740843221262
 20
846.59834963375727
 30
0.0
 11
-381.76740843221262
 21
843.62959963375727
 31
0.0
  0
LINE
  5
2F61E
  8
0
 10
-381.59064654878762
 20
843.62959963375727
 30
0.0
 11
-381.76740843221262
 21
843.62959963375727
 31
0.0
  0
LINE
  5
2F61F
  8
0
 10
-381.13558864519428
 20
844.68758978526171
 30
0.0
 11
-381.21273154735832
 21
844.66758298868228
 31
0.0
  0
LINE
  5
2F620
  8
0
 10
-381.22206751600021
 20
846.02989930584863
 30
0.0
 11
-381.14233037282781
 21
846.01270937938546
 31
0.0
  0
LINE
  5
2F621
  8
0
 10
-381.76740843221262
 20
846.59834963375727
 30
0.0
 11
-381.55900371014189
 21
846.59834963375727
 31
0.0
  0
POLYLINE
  8
0
  5
2F746
  66
     1
 10
0.000000
 20
0.000000
 30
0.000000
  70
     8
  0
VERTEX
  8
0
  5
2F747
 10
-381.559
 20
846.598
 30
0.000000
  70
    32
  0
VERTEX
  8
0
  5
2F748
 10
-381.559
 20
846.596
 30
0.000000
  70
    32
  0
VERTEX
  8
0
  5
2F749
 10
-381.558
 20
846.594
 30
0.000000
  70
    32
  0
VERTEX
  8
0
  5
2F74A
 10
-381.558
 20
846.591
 30
0.000000
  70
    32
  0
VERTEX
  8
0
  5
2F74B
 10
-381.558
 20
846.589
 30
0.000000
  70
    32
  0
VERTEX
  8
0
  5
2F74C
 10
-381.557
 20
846.587
 30
0.000000
  70
    32
  0
VERTEX
  8
0
  5
2F74D
 10
-381.557
 20
846.584
 30
0.000000
  70
    32
  0
VERTEX
  8
0
  5
2F74E
 10
-381.556
 20
846.582
 30
0.000000
  70
    32
  0
VERTEX
  8
0
  5
2F74F
 10
-381.556
 20
846.580
 30
0.000000
  70
    32
  0
VERTEX
  8
0
  5
2F750
 10
-381.555
 20
846.577
 30
0.000000
  70
    32
  0
VERTEX
  8
0
  5
2F751
 10
-381.555
 20
846.575
 30
0.000000
  70
    32
  0
VERTEX
  8
0
  5
2F752
 10
-381.554
 20
846.573
 30
0.000000
  70
    32
  0
VERTEX
  8
0
  5
2F753
 10
-381.554
 20
846.570
 30
0.000000
  70
    32
  0
VERTEX
  8
0
  5
2F754
 10
-381.553
 20
846.568
 30
0.000000
  70
    32
  0
VERTEX
  8
0
  5
2F755
 10
-381.553
 20
846.566
 30
0.000000
  70
    32
  0
VERTEX
  8
0
  5
2F756
 10
-381.552
 20
846.563
 30
0.000000
  70
    32
  0
VERTEX
  8
0
  5
2F757
 10
-381.551
 20
846.561
 30
0.000000
  70
    32
  0
VERTEX
  8
0
  5
2F758
 10
-381.551
 20
846.559
 30
0.000000
  70
    32
  0
VERTEX
  8
0
  5
2F759
 10
-381.550
 20
846.557
 30
0.000000
  70
    32
  0
VERTEX
  8
0
  5
2F75A
 10
-381.549
 20
846.554
 30
0.000000
  70
    32
  0
VERTEX
  8
0
  5
2F75B
 10
-381.548
 20
846.552
 30
0.000000
  70
    32
  0
VERTEX
  8
0
  5
2F75C
 10
-381.547
 20
846.550
 30
0.000000
  70
    32
  0
VERTEX
  8
0
  5
2F75D
 10
-381.546
 20
846.548
 30
0.000000
  70
    32
  0
VERTEX
  8
0
  5
2F75E
 10
-381.545
 20
846.546
 30
0.000000
  70
    32
  0
VERTEX
  8
0
  5
2F75F
 10
-381.544
 20
846.543
 30
0.000000
  70
    32
  0
VERTEX
  8
0
  5
2F760
 10
-381.543
 20
846.541
 30
0.000000
  70
    32
  0
VERTEX
  8
0
  5
2F761
 10
-381.542
 20
846.539
 30
0.000000
  70
    32
  0
VERTEX
  8
0
  5
2F762
 10
-381.541
 20
846.537
 30
0.000000
  70
    32
  0
VERTEX
  8
0
  5
2F763
 10
-381.540
 20
846.535
 30
0.000000
  70
    32
  0
VERTEX
  8
0
  5
2F764
 10
-381.539
 20
846.533
 30
0.000000
  70
    32
  0
VERTEX
  8
0
  5
2F765
 10
-381.538
 20
846.531
 30
0.000000
  70
    32
  0
VERTEX
  8
0
  5
2F766
 10
-381.537
 20
846.529
 30
0.000000
  70
    32
  0
VERTEX
  8
0
  5
2F767
 10
-381.535
 20
846.527
 30
0.000000
  70
    32
  0
VERTEX
  8
0
  5
2F768
 10
-381.534
 20
846.525
 30
0.000000
  70
    32
  0
VERTEX
  8
0
  5
2F769
 10
-381.533
 20
846.523
 30
0.000000
  70
    32
  0
VERTEX
  8
0
  5
2F76A
 10
-381.531
 20
846.521
 30
0.000000
  70
    32
  0
VERTEX
  8
0
  5
2F76B
 10
-381.530
 20
846.519
 30
0.000000
  70
    32
  0
VERTEX
  8
0
  5
2F76C
 10
-381.528
 20
846.518
 30
0.000000
  70
    32
  0
VERTEX
  8
0
  5
2F76D
 10
-381.527
 20
846.516
 30
0.000000
  70
    32
  0
VERTEX
  8
0
  5
2F76E
 10
-381.525
 20
846.514
 30
0.000000
  70
    32
  0
VERTEX
  8
0
  5
2F76F
 10
-381.524
 20
846.512
 30
0.000000
  70
    32
  0
VERTEX
  8
0
  5
2F770
 10
-381.522
 20
846.510
 30
0.000000
  70
    32
  0
VERTEX
  8
0
  5
2F771
 10
-381.521
 20
846.508
 30
0.000000
  70
    32
  0
VERTEX
  8
0
  5
2F772
 10
-381.519
 20
846.507
 30
0.000000
  70
    32
  0
VERTEX
  8
0
  5
2F773
 10
-381.518
 20
846.505
 30
0.000000
  70
    32
  0
VERTEX
  8
0
  5
2F774
 10
-381.516
 20
846.503
 30
0.000000
  70
    32
  0
VERTEX
  8
0
  5
2F775
 10
-381.515
 20
846.501
 30
0.000000
  70
    32
  0
VERTEX
  8
0
  5
2F776
 10
-381.513
 20
846.499
 30
0.000000
  70
    32
  0
VERTEX
  8
0
  5
2F777
 10
-381.511
 20
846.498
 30
0.000000
  70
    32
  0
VERTEX
  8
0
  5
2F778
 10
-381.510
 20
846.496
 30
0.000000
  70
    32
  0
VERTEX
  8
0
  5
2F779
 10
-381.508
 20
846.494
 30
0.000000
  70
    32
  0
VERTEX
  8
0
  5
2F77A
 10
-381.506
 20
846.492
 30
0.000000
  70
    32
  0
VERTEX
  8
0
  5
2F77B
 10
-381.505
 20
846.491
 30
0.000000
  70
    32
  0
VERTEX
  8
0
  5
2F77C
 10
-381.503
 20
846.489
 30
0.000000
  70
    32
  0
VERTEX
  8
0
  5
2F77D
 10
-381.502
 20
846.487
 30
0.000000
  70
    32
  0
VERTEX
  8
0
  5
2F77E
 10
-381.500
 20
846.485
 30
0.000000
  70
    32
  0
VERTEX
  8
0
  5
2F77F
 10
-381.498
 20
846.484
 30
0.000000
  70
    32
  0
VERTEX
  8
0
  5
2F780
 10
-381.497
 20
846.482
 30
0.000000
  70
    32
  0
VERTEX
  8
0
  5
2F781
 10
-381.495
 20
846.480
 30
0.000000
  70
    32
  0
VERTEX
  8
0
  5
2F782
 10
-381.493
 20
846.478
 30
0.000000
  70
    32
  0
VERTEX
  8
0
  5
2F783
 10
-381.492
 20
846.477
 30
0.000000
  70
    32
  0
VERTEX
  8
0
  5
2F784
 10
-381.490
 20
846.475
 30
0.000000
  70
    32
  0
VERTEX
  8
0
  5
2F785
 10
-381.488
 20
846.473
 30
0.000000
  70
    32
  0
VERTEX
  8
0
  5
2F786
 10
-381.487
 20
846.472
 30
0.000000
  70
    32
  0
VERTEX
  8
0
  5
2F787
 10
-381.485
 20
846.470
 30
0.000000
  70
    32
  0
VERTEX
  8
0
  5
2F788
 10
-381.483
 20
846.468
 30
0.000000
  70
    32
  0
VERTEX
  8
0
  5
2F789
 10
-381.482
 20
846.466
 30
0.000000
  70
    32
  0
VERTEX
  8
0
  5
2F78A
 10
-381.480
 20
846.465
 30
0.000000
  70
    32
  0
VERTEX
  8
0
  5
2F78B
 10
-381.479
 20
846.463
 30
0.000000
  70
    32
  0
VERTEX
  8
0
  5
2F78C
 10
-381.477
 20
846.461
 30
0.000000
  70
    32
  0
VERTEX
  8
0
  5
2F78D
 10
-381.475
 20
846.459
 30
0.000000
  70
    32
  0
VERTEX
  8
0
  5
2F78E
 10
-381.474
 20
846.458
 30
0.000000
  70
    32
  0
VERTEX
  8
0
  5
2F78F
 10
-381.472
 20
846.456
 30
0.000000
  70
    32
  0
VERTEX
  8
0
  5
2F790
 10
-381.470
 20
846.454
 30
0.000000
  70
    32
  0
VERTEX
  8
0
  5
2F791
 10
-381.469
 20
846.453
 30
0.000000
  70
    32
  0
VERTEX
  8
0
  5
2F792
 10
-381.467
 20
846.451
 30
0.000000
  70
    32
  0
VERTEX
  8
0
  5
2F793
 10
-381.466
 20
846.449
 30
0.000000
  70
    32
  0
VERTEX
  8
0
  5
2F794
 10
-381.464
 20
846.447
 30
0.000000
  70
    32
  0
VERTEX
  8
0
  5
2F795
 10
-381.462
 20
846.446
 30
0.000000
  70
    32
  0
VERTEX
  8
0
  5
2F796
 10
-381.461
 20
846.444
 30
0.000000
  70
    32
  0
VERTEX
  8
0
  5
2F797
 10
-381.459
 20
846.442
 30
0.000000
  70
    32
  0
VERTEX
  8
0
  5
2F798
 10
-381.457
 20
846.441
 30
0.000000
  70
    32
  0
VERTEX
  8
0
  5
2F799
 10
-381.456
 20
846.439
 30
0.000000
  70
    32
  0
VERTEX
  8
0
  5
2F79A
 10
-381.454
 20
846.437
 30
0.000000
  70
    32
  0
VERTEX
  8
0
  5
2F79B
 10
-381.453
 20
846.435
 30
0.000000
  70
    32
  0
VERTEX
  8
0
  5
2F79C
 10
-381.451
 20
846.434
 30
0.000000
  70
    32
  0
VERTEX
  8
0
  5
2F79D
 10
-381.449
 20
846.432
 30
0.000000
  70
    32
  0
VERTEX
  8
0
  5
2F79E
 10
-381.448
 20
846.430
 30
0.000000
  70
    32
  0
VERTEX
  8
0
  5
2F79F
 10
-381.446
 20
846.428
 30
0.000000
  70
    32
  0
VERTEX
  8
0
  5
2F7A0
 10
-381.445
 20
846.427
 30
0.000000
  70
    32
  0
VERTEX
  8
0
  5
2F7A1
 10
-381.443
 20
846.425
 30
0.000000
  70
    32
  0
VERTEX
  8
0
  5
2F7A2
 10
-381.441
 20
846.423
 30
0.000000
  70
    32
  0
VERTEX
  8
0
  5
2F7A3
 10
-381.440
 20
846.422
 30
0.000000
  70
    32
  0
VERTEX
  8
0
  5
2F7A4
 10
-381.438
 20
846.420
 30
0.000000
  70
    32
  0
VERTEX
  8
0
  5
2F7A5
 10
-381.437
 20
846.418
 30
0.000000
  70
    32
  0
VERTEX
  8
0
  5
2F7A6
 10
-381.435
 20
846.416
 30
0.000000
  70
    32
  0
VERTEX
  8
0
  5
2F7A7
 10
-381.433
 20
846.415
 30
0.000000
  70
    32
  0
VERTEX
  8
0
  5
2F7A8
 10
-381.432
 20
846.413
 30
0.000000
  70
    32
  0
VERTEX
  8
0
  5
2F7A9
 10
-381.430
 20
846.411
 30
0.000000
  70
    32
  0
VERTEX
  8
0
  5
2F7AA
 10
-381.429
 20
846.410
 30
0.000000
  70
    32
  0
VERTEX
  8
0
  5
2F7AB
 10
-381.427
 20
846.408
 30
0.000000
  70
    32
  0
VERTEX
  8
0
  5
2F7AC
 10
-381.425
 20
846.406
 30
0.000000
  70
    32
  0
VERTEX
  8
0
  5
2F7AD
 10
-381.424
 20
846.404
 30
0.000000
  70
    32
  0
VERTEX
  8
0
  5
2F7AE
 10
-381.422
 20
846.403
 30
0.000000
  70
    32
  0
VERTEX
  8
0
  5
2F7AF
 10
-381.421
 20
846.401
 30
0.000000
  70
    32
  0
VERTEX
  8
0
  5
2F7B0
 10
-381.419
 20
846.399
 30
0.000000
  70
    32
  0
VERTEX
  8
0
  5
2F7B1
 10
-381.417
 20
846.397
 30
0.000000
  70
    32
  0
VERTEX
  8
0
  5
2F7B2
 10
-381.416
 20
846.396
 30
0.000000
  70
    32
  0
VERTEX
  8
0
  5
2F7B3
 10
-381.414
 20
846.394
 30
0.000000
  70
    32
  0
VERTEX
  8
0
  5
2F7B4
 10
-381.413
 20
846.392
 30
0.000000
  70
    32
  0
VERTEX
  8
0
  5
2F7B5
 10
-381.411
 20
846.391
 30
0.000000
  70
    32
  0
VERTEX
  8
0
  5
2F7B6
 10
-381.409
 20
846.389
 30
0.000000
  70
    32
  0
VERTEX
  8
0
  5
2F7B7
 10
-381.408
 20
846.387
 30
0.000000
  70
    32
  0
VERTEX
  8
0
  5
2F7B8
 10
-381.406
 20
846.385
 30
0.000000
  70
    32
  0
VERTEX
  8
0
  5
2F7B9
 10
-381.405
 20
846.384
 30
0.000000
  70
    32
  0
VERTEX
  8
0
  5
2F7BA
 10
-381.403
 20
846.382
 30
0.000000
  70
    32
  0
VERTEX
  8
0
  5
2F7BB
 10
-381.402
 20
846.380
 30
0.000000
  70
    32
  0
VERTEX
  8
0
  5
2F7BC
 10
-381.400
 20
846.378
 30
0.000000
  70
    32
  0
VERTEX
  8
0
  5
2F7BD
 10
-381.398
 20
846.377
 30
0.000000
  70
    32
  0
VERTEX
  8
0
  5
2F7BE
 10
-381.397
 20
846.375
 30
0.000000
  70
    32
  0
VERTEX
  8
0
  5
2F7BF
 10
-381.395
 20
846.373
 30
0.000000
  70
    32
  0
VERTEX
  8
0
  5
2F7C0
 10
-381.394
 20
846.371
 30
0.000000
  70
    32
  0
VERTEX
  8
0
  5
2F7C1
 10
-381.392
 20
846.370
 30
0.000000
  70
    32
  0
VERTEX
  8
0
  5
2F7C2
 10
-381.390
 20
846.368
 30
0.000000
  70
    32
  0
VERTEX
  8
0
  5
2F7C3
 10
-381.389
 20
846.366
 30
0.000000
  70
    32
  0
VERTEX
  8
0
  5
2F7C4
 10
-381.387
 20
846.364
 30
0.000000
  70
    32
  0
VERTEX
  8
0
  5
2F7C5
 10
-381.386
 20
846.363
 30
0.000000
  70
    32
  0
VERTEX
  8
0
  5
2F7C6
 10
-381.384
 20
846.361
 30
0.000000
  70
    32
  0
VERTEX
  8
0
  5
2F7C7
 10
-381.382
 20
846.359
 30
0.000000
  70
    32
  0
VERTEX
  8
0
  5
2F7C8
 10
-381.381
 20
846.357
 30
0.000000
  70
    32
  0
VERTEX
  8
0
  5
2F7C9
 10
-381.379
 20
846.356
 30
0.000000
  70
    32
  0
VERTEX
  8
0
  5
2F7CA
 10
-381.378
 20
846.354
 30
0.000000
  70
    32
  0
VERTEX
  8
0
  5
2F7CB
 10
-381.376
 20
846.352
 30
0.000000
  70
    32
  0
VERTEX
  8
0
  5
2F7CC
 10
-381.375
 20
846.350
 30
0.000000
  70
    32
  0
VERTEX
  8
0
  5
2F7CD
 10
-381.373
 20
846.349
 30
0.000000
  70
    32
  0
VERTEX
  8
0
  5
2F7CE
 10
-381.371
 20
846.347
 30
0.000000
  70
    32
  0
VERTEX
  8
0
  5
2F7CF
 10
-381.370
 20
846.345
 30
0.000000
  70
    32
  0
VERTEX
  8
0
  5
2F7D0
 10
-381.368
 20
846.343
 30
0.000000
  70
    32
  0
VERTEX
  8
0
  5
2F7D1
 10
-381.367
 20
846.342
 30
0.000000
  70
    32
  0
VERTEX
  8
0
  5
2F7D2
 10
-381.365
 20
846.340
 30
0.000000
  70
    32
  0
VERTEX
  8
0
  5
2F7D3
 10
-381.363
 20
846.338
 30
0.000000
  70
    32
  0
VERTEX
  8
0
  5
2F7D4
 10
-381.362
 20
846.336
 30
0.000000
  70
    32
  0
VERTEX
  8
0
  5
2F7D5
 10
-381.360
 20
846.335
 30
0.000000
  70
    32
  0
VERTEX
  8
0
  5
2F7D6
 10
-381.359
 20
846.333
 30
0.000000
  70
    32
  0
VERTEX
  8
0
  5
2F7D7
 10
-381.357
 20
846.331
 30
0.000000
  70
    32
  0
VERTEX
  8
0
  5
2F7D8
 10
-381.355
 20
846.329
 30
0.000000
  70
    32
  0
VERTEX
  8
0
  5
2F7D9
 10
-381.354
 20
846.328
 30
0.000000
  70
    32
  0
VERTEX
  8
0
  5
2F7DA
 10
-381.352
 20
846.326
 30
0.000000
  70
    32
  0
VERTEX
  8
0
  5
2F7DB
 10
-381.351
 20
846.324
 30
0.000000
  70
    32
  0
VERTEX
  8
0
  5
2F7DC
 10
-381.349
 20
846.322
 30
0.000000
  70
    32
  0
VERTEX
  8
0
  5
2F7DD
 10
-381.347
 20
846.321
 30
0.000000
  70
    32
  0
VERTEX
  8
0
  5
2F7DE
 10
-381.346
 20
846.319
 30
0.000000
  70
    32
  0
VERTEX
  8
0
  5
2F7DF
 10
-381.344
 20
846.317
 30
0.000000
  70
    32
  0
VERTEX
  8
0
  5
2F7E0
 10
-381.343
 20
846.315
 30
0.000000
  70
    32
  0
VERTEX
  8
0
  5
2F7E1
 10
-381.341
 20
846.313
 30
0.000000
  70
    32
  0
VERTEX
  8
0
  5
2F7E2
 10
-381.339
 20
846.312
 30
0.000000
  70
    32
  0
VERTEX
  8
0
  5
2F7E3
 10
-381.338
 20
846.310
 30
0.000000
  70
    32
  0
VERTEX
  8
0
  5
2F7E4
 10
-381.336
 20
846.308
 30
0.000000
  70
    32
  0
VERTEX
  8
0
  5
2F7E5
 10
-381.335
 20
846.306
 30
0.000000
  70
    32
  0
VERTEX
  8
0
  5
2F7E6
 10
-381.333
 20
846.305
 30
0.000000
  70
    32
  0
VERTEX
  8
0
  5
2F7E7
 10
-381.331
 20
846.303
 30
0.000000
  70
    32
  0
VERTEX
  8
0
  5
2F7E8
 10
-381.330
 20
846.301
 30
0.000000
  70
    32
  0
VERTEX
  8
0
  5
2F7E9
 10
-381.328
 20
846.299
 30
0.000000
  70
    32
  0
VERTEX
  8
0
  5
2F7EA
 10
-381.327
 20
846.297
 30
0.000000
  70
    32
  0
VERTEX
  8
0
  5
2F7EB
 10
-381.325
 20
846.296
 30
0.000000
  70
    32
  0
VERTEX
  8
0
  5
2F7EC
 10
-381.323
 20
846.294
 30
0.000000
  70
    32
  0
VERTEX
  8
0
  5
2F7ED
 10
-381.322
 20
846.292
 30
0.000000
  70
    32
  0
VERTEX
  8
0
  5
2F7EE
 10
-381.320
 20
846.290
 30
0.000000
  70
    32
  0
VERTEX
  8
0
  5
2F7EF
 10
-381.319
 20
846.288
 30
0.000000
  70
    32
  0
VERTEX
  8
0
  5
2F7F0
 10
-381.317
 20
846.287
 30
0.000000
  70
    32
  0
VERTEX
  8
0
  5
2F7F1
 10
-381.316
 20
846.285
 30
0.000000
  70
    32
  0
VERTEX
  8
0
  5
2F7F2
 10
-381.314
 20
846.283
 30
0.000000
  70
    32
  0
VERTEX
  8
0
  5
2F7F3
 10
-381.312
 20
846.281
 30
0.000000
  70
    32
  0
VERTEX
  8
0
  5
2F7F4
 10
-381.311
 20
846.279
 30
0.000000
  70
    32
  0
VERTEX
  8
0
  5
2F7F5
 10
-381.309
 20
846.278
 30
0.000000
  70
    32
  0
VERTEX
  8
0
  5
2F7F6
 10
-381.308
 20
846.276
 30
0.000000
  70
    32
  0
VERTEX
  8
0
  5
2F7F7
 10
-381.306
 20
846.274
 30
0.000000
  70
    32
  0
VERTEX
  8
0
  5
2F7F8
 10
-381.305
 20
846.272
 30
0.000000
  70
    32
  0
VERTEX
  8
0
  5
2F7F9
 10
-381.303
 20
846.270
 30
0.000000
  70
    32
  0
VERTEX
  8
0
  5
2F7FA
 10
-381.302
 20
846.268
 30
0.000000
  70
    32
  0
VERTEX
  8
0
  5
2F7FB
 10
-381.300
 20
846.267
 30
0.000000
  70
    32
  0
VERTEX
  8
0
  5
2F7FC
 10
-381.299
 20
846.265
 30
0.000000
  70
    32
  0
VERTEX
  8
0
  5
2F7FD
 10
-381.297
 20
846.263
 30
0.000000
  70
    32
  0
VERTEX
  8
0
  5
2F7FE
 10
-381.296
 20
846.261
 30
0.000000
  70
    32
  0
VERTEX
  8
0
  5
2F7FF
 10
-381.294
 20
846.259
 30
0.000000
  70
    32
  0
VERTEX
  8
0
  5
2F800
 10
-381.293
 20
846.257
 30
0.000000
  70
    32
  0
VERTEX
  8
0
  5
2F801
 10
-381.292
 20
846.255
 30
0.000000
  70
    32
  0
VERTEX
  8
0
  5
2F802
 10
-381.290
 20
846.253
 30
0.000000
  70
    32
  0
VERTEX
  8
0
  5
2F803
 10
-381.289
 20
846.252
 30
0.000000
  70
    32
  0
VERTEX
  8
0
  5
2F804
 10
-381.287
 20
846.250
 30
0.000000
  70
    32
  0
VERTEX
  8
0
  5
2F805
 10
-381.286
 20
846.248
 30
0.000000
  70
    32
  0
VERTEX
  8
0
  5
2F806
 10
-381.285
 20
846.246
 30
0.000000
  70
    32
  0
VERTEX
  8
0
  5
2F807
 10
-381.283
 20
846.244
 30
0.000000
  70
    32
  0
VERTEX
  8
0
  5
2F808
 10
-381.282
 20
846.242
 30
0.000000
  70
    32
  0
VERTEX
  8
0
  5
2F809
 10
-381.281
 20
846.240
 30
0.000000
  70
    32
  0
VERTEX
  8
0
  5
2F80A
 10
-381.279
 20
846.238
 30
0.000000
  70
    32
  0
VERTEX
  8
0
  5
2F80B
 10
-381.278
 20
846.236
 30
0.000000
  70
    32
  0
VERTEX
  8
0
  5
2F80C
 10
-381.277
 20
846.234
 30
0.000000
  70
    32
  0
VERTEX
  8
0
  5
2F80D
 10
-381.275
 20
846.232
 30
0.000000
  70
    32
  0
VERTEX
  8
0
  5
2F80E
 10
-381.274
 20
846.230
 30
0.000000
  70
    32
  0
VERTEX
  8
0
  5
2F80F
 10
-381.273
 20
846.228
 30
0.000000
  70
    32
  0
VERTEX
  8
0
  5
2F810
 10
-381.272
 20
846.226
 30
0.000000
  70
    32
  0
VERTEX
  8
0
  5
2F811
 10
-381.271
 20
846.224
 30
0.000000
  70
    32
  0
VERTEX
  8
0
  5
2F812
 10
-381.269
 20
846.222
 30
0.000000
  70
    32
  0
VERTEX
  8
0
  5
2F813
 10
-381.268
 20
846.220
 30
0.000000
  70
    32
  0
VERTEX
  8
0
  5
2F814
 10
-381.267
 20
846.218
 30
0.000000
  70
    32
  0
VERTEX
  8
0
  5
2F815
 10
-381.266
 20
846.216
 30
0.000000
  70
    32
  0
VERTEX
  8
0
  5
2F816
 10
-381.265
 20
846.214
 30
0.000000
  70
    32
  0
VERTEX
  8
0
  5
2F817
 10
-381.264
 20
846.212
 30
0.000000
  70
    32
  0
VERTEX
  8
0
  5
2F818
 10
-381.263
 20
846.210
 30
0.000000
  70
    32
  0
VERTEX
  8
0
  5
2F819
 10
-381.262
 20
846.208
 30
0.000000
  70
    32
  0
VERTEX
  8
0
  5
2F81A
 10
-381.261
 20
846.206
 30
0.000000
  70
    32
  0
VERTEX
  8
0
  5
2F81B
 10
-381.260
 20
846.203
 30
0.000000
  70
    32
  0
VERTEX
  8
0
  5
2F81C
 10
-381.259
 20
846.201
 30
0.000000
  70
    32
  0
VERTEX
  8
0
  5
2F81D
 10
-381.258
 20
846.199
 30
0.000000
  70
    32
  0
VERTEX
  8
0
  5
2F81E
 10
-381.257
 20
846.197
 30
0.000000
  70
    32
  0
VERTEX
  8
0
  5
2F81F
 10
-381.256
 20
846.195
 30
0.000000
  70
    32
  0
VERTEX
  8
0
  5
2F820
 10
-381.255
 20
846.193
 30
0.000000
  70
    32
  0
VERTEX
  8
0
  5
2F821
 10
-381.254
 20
846.191
 30
0.000000
  70
    32
  0
VERTEX
  8
0
  5
2F822
 10
-381.253
 20
846.188
 30
0.000000
  70
    32
  0
VERTEX
  8
0
  5
2F823
 10
-381.252
 20
846.186
 30
0.000000
  70
    32
  0
VERTEX
  8
0
  5
2F824
 10
-381.251
 20
846.184
 30
0.000000
  70
    32
  0
VERTEX
  8
0
  5
2F825
 10
-381.250
 20
846.182
 30
0.000000
  70
    32
  0
VERTEX
  8
0
  5
2F826
 10
-381.250
 20
846.180
 30
0.000000
  70
    32
  0
VERTEX
  8
0
  5
2F827
 10
-381.249
 20
846.177
 30
0.000000
  70
    32
  0
VERTEX
  8
0
  5
2F828
 10
-381.248
 20
846.175
 30
0.000000
  70
    32
  0
VERTEX
  8
0
  5
2F829
 10
-381.247
 20
846.173
 30
0.000000
  70
    32
  0
VERTEX
  8
0
  5
2F82A
 10
-381.246
 20
846.171
 30
0.000000
  70
    32
  0
VERTEX
  8
0
  5
2F82B
 10
-381.246
 20
846.169
 30
0.000000
  70
    32
  0
VERTEX
  8
0
  5
2F82C
 10
-381.245
 20
846.166
 30
0.000000
  70
    32
  0
VERTEX
  8
0
  5
2F82D
 10
-381.244
 20
846.164
 30
0.000000
  70
    32
  0
VERTEX
  8
0
  5
2F82E
 10
-381.244
 20
846.162
 30
0.000000
  70
    32
  0
VERTEX
  8
0
  5
2F82F
 10
-381.243
 20
846.160
 30
0.000000
  70
    32
  0
VERTEX
  8
0
  5
2F830
 10
-381.242
 20
846.157
 30
0.000000
  70
    32
  0
VERTEX
  8
0
  5
2F831
 10
-381.242
 20
846.155
 30
0.000000
  70
    32
  0
VERTEX
  8
0
  5
2F832
 10
-381.241
 20
846.153
 30
0.000000
  70
    32
  0
VERTEX
  8
0
  5
2F833
 10
-381.240
 20
846.150
 30
0.000000
  70
    32
  0
VERTEX
  8
0
  5
2F834
 10
-381.240
 20
846.148
 30
0.000000
  70
    32
  0
VERTEX
  8
0
  5
2F835
 10
-381.239
 20
846.146
 30
0.000000
  70
    32
  0
VERTEX
  8
0
  5
2F836
 10
-381.239
 20
846.143
 30
0.000000
  70
    32
  0
VERTEX
  8
0
  5
2F837
 10
-381.238
 20
846.141
 30
0.000000
  70
    32
  0
VERTEX
  8
0
  5
2F838
 10
-381.238
 20
846.139
 30
0.000000
  70
    32
  0
VERTEX
  8
0
  5
2F839
 10
-381.237
 20
846.137
 30
0.000000
  70
    32
  0
VERTEX
  8
0
  5
2F83A
 10
-381.236
 20
846.134
 30
0.000000
  70
    32
  0
VERTEX
  8
0
  5
2F83B
 10
-381.236
 20
846.132
 30
0.000000
  70
    32
  0
VERTEX
  8
0
  5
2F83C
 10
-381.235
 20
846.130
 30
0.000000
  70
    32
  0
VERTEX
  8
0
  5
2F83D
 10
-381.235
 20
846.127
 30
0.000000
  70
    32
  0
VERTEX
  8
0
  5
2F83E
 10
-381.235
 20
846.125
 30
0.000000
  70
    32
  0
VERTEX
  8
0
  5
2F83F
 10
-381.234
 20
846.122
 30
0.000000
  70
    32
  0
VERTEX
  8
0
  5
2F840
 10
-381.234
 20
846.120
 30
0.000000
  70
    32
  0
VERTEX
  8
0
  5
2F841
 10
-381.233
 20
846.118
 30
0.000000
  70
    32
  0
VERTEX
  8
0
  5
2F842
 10
-381.233
 20
846.115
 30
0.000000
  70
    32
  0
VERTEX
  8
0
  5
2F843
 10
-381.232
 20
846.113
 30
0.000000
  70
    32
  0
VERTEX
  8
0
  5
2F844
 10
-381.232
 20
846.111
 30
0.000000
  70
    32
  0
VERTEX
  8
0
  5
2F845
 10
-381.231
 20
846.108
 30
0.000000
  70
    32
  0
VERTEX
  8
0
  5
2F846
 10
-381.231
 20
846.106
 30
0.000000
  70
    32
  0
VERTEX
  8
0
  5
2F847
 10
-381.231
 20
846.104
 30
0.000000
  70
    32
  0
VERTEX
  8
0
  5
2F848
 10
-381.230
 20
846.101
 30
0.000000
  70
    32
  0
VERTEX
  8
0
  5
2F849
 10
-381.230
 20
846.099
 30
0.000000
  70
    32
  0
VERTEX
  8
0
  5
2F84A
 10
-381.230
 20
846.096
 30
0.000000
  70
    32
  0
VERTEX
  8
0
  5
2F84B
 10
-381.229
 20
846.094
 30
0.000000
  70
    32
  0
VERTEX
  8
0
  5
2F84C
 10
-381.229
 20
846.092
 30
0.000000
  70
    32
  0
VERTEX
  8
0
  5
2F84D
 10
-381.229
 20
846.089
 30
0.000000
  70
    32
  0
VERTEX
  8
0
  5
2F84E
 10
-381.228
 20
846.087
 30
0.000000
  70
    32
  0
VERTEX
  8
0
  5
2F84F
 10
-381.228
 20
846.085
 30
0.000000
  70
    32
  0
VERTEX
  8
0
  5
2F850
 10
-381.228
 20
846.082
 30
0.000000
  70
    32
  0
VERTEX
  8
0
  5
2F851
 10
-381.227
 20
846.080
 30
0.000000
  70
    32
  0
VERTEX
  8
0
  5
2F852
 10
-381.227
 20
846.077
 30
0.000000
  70
    32
  0
VERTEX
  8
0
  5
2F853
 10
-381.227
 20
846.075
 30
0.000000
  70
    32
  0
VERTEX
  8
0
  5
2F854
 10
-381.226
 20
846.073
 30
0.000000
  70
    32
  0
VERTEX
  8
0
  5
2F855
 10
-381.226
 20
846.070
 30
0.000000
  70
    32
  0
VERTEX
  8
0
  5
2F856
 10
-381.226
 20
846.068
 30
0.000000
  70
    32
  0
VERTEX
  8
0
  5
2F857
 10
-381.226
 20
846.065
 30
0.000000
  70
    32
  0
VERTEX
  8
0
  5
2F858
 10
-381.225
 20
846.063
 30
0.000000
  70
    32
  0
VERTEX
  8
0
  5
2F859
 10
-381.225
 20
846.061
 30
0.000000
  70
    32
  0
VERTEX
  8
0
  5
2F85A
 10
-381.225
 20
846.058
 30
0.000000
  70
    32
  0
VERTEX
  8
0
  5
2F85B
 10
-381.225
 20
846.056
 30
0.000000
  70
    32
  0
VERTEX
  8
0
  5
2F85C
 10
-381.224
 20
846.054
 30
0.000000
  70
    32
  0
VERTEX
  8
0
  5
2F85D
 10
-381.224
 20
846.051
 30
0.000000
  70
    32
  0
VERTEX
  8
0
  5
2F85E
 10
-381.224
 20
846.049
 30
0.000000
  70
    32
  0
VERTEX
  8
0
  5
2F85F
 10
-381.224
 20
846.046
 30
0.000000
  70
    32
  0
VERTEX
  8
0
  5
2F860
 10
-381.223
 20
846.044
 30
0.000000
  70
    32
  0
VERTEX
  8
0
  5
2F861
 10
-381.223
 20
846.042
 30
0.000000
  70
    32
  0
VERTEX
  8
0
  5
2F862
 10
-381.223
 20
846.039
 30
0.000000
  70
    32
  0
VERTEX
  8
0
  5
2F863
 10
-381.223
 20
846.037
 30
0.000000
  70
    32
  0
VERTEX
  8
0
  5
2F864
 10
-381.222
 20
846.035
 30
0.000000
  70
    32
  0
VERTEX
  8
0
  5
2F865
 10
-381.222
 20
846.032
 30
0.000000
  70
    32
  0
VERTEX
  8
0
  5
2F866
 10
-381.222
 20
846.030
 30
0.000000
  70
    32
  0
SEQEND
  8
0
  5
2F867
  0
ARC
  5
2F623
  8
0
  6
CONTINUOUS
 10
-381.11503534944461
 20
845.28775228007908
 30
0.0
 40
0.3992206637797162
 50
273.77104255619122
 51
86.836140095012013
  0
POLYLINE
  8
0
  5
2F868
  66
     1
 10
0.000000
 20
0.000000
 30
0.000000
  70
     8
  0
VERTEX
  8
0
  5
2F869
 10
-381.213
 20
844.668
 30
0.000000
  70
    32
  0
VERTEX
  8
0
  5
2F86A
 10
-381.213
 20
844.665
 30
0.000000
  70
    32
  0
VERTEX
  8
0
  5
2F86B
 10
-381.213
 20
844.663
 30
0.000000
  70
    32
  0
VERTEX
  8
0
  5
2F86C
 10
-381.213
 20
844.661
 30
0.000000
  70
    32
  0
VERTEX
  8
0
  5
2F86D
 10
-381.214
 20
844.659
 30
0.000000
  70
    32
  0
VERTEX
  8
0
  5
2F86E
 10
-381.214
 20
844.657
 30
0.000000
  70
    32
  0
VERTEX
  8
0
  5
2F86F
 10
-381.214
 20
844.654
 30
0.000000
  70
    32
  0
VERTEX
  8
0
  5
2F870
 10
-381.214
 20
844.652
 30
0.000000
  70
    32
  0
VERTEX
  8
0
  5
2F871
 10
-381.215
 20
844.650
 30
0.000000
  70
    32
  0
VERTEX
  8
0
  5
2F872
 10
-381.215
 20
844.648
 30
0.000000
  70
    32
  0
VERTEX
  8
0
  5
2F873
 10
-381.215
 20
844.646
 30
0.000000
  70
    32
  0
VERTEX
  8
0
  5
2F874
 10
-381.215
 20
844.643
 30
0.000000
  70
    32
  0
VERTEX
  8
0
  5
2F875
 10
-381.215
 20
844.641
 30
0.000000
  70
    32
  0
VERTEX
  8
0
  5
2F876
 10
-381.216
 20
844.639
 30
0.000000
  70
    32
  0
VERTEX
  8
0
  5
2F877
 10
-381.216
 20
844.637
 30
0.000000
  70
    32
  0
VERTEX
  8
0
  5
2F878
 10
-381.216
 20
844.635
 30
0.000000
  70
    32
  0
VERTEX
  8
0
  5
2F879
 10
-381.216
 20
844.632
 30
0.000000
  70
    32
  0
VERTEX
  8
0
  5
2F87A
 10
-381.217
 20
844.630
 30
0.000000
  70
    32
  0
VERTEX
  8
0
  5
2F87B
 10
-381.217
 20
844.628
 30
0.000000
  70
    32
  0
VERTEX
  8
0
  5
2F87C
 10
-381.217
 20
844.626
 30
0.000000
  70
    32
  0
VERTEX
  8
0
  5
2F87D
 10
-381.217
 20
844.624
 30
0.000000
  70
    32
  0
VERTEX
  8
0
  5
2F87E
 10
-381.218
 20
844.621
 30
0.000000
  70
    32
  0
VERTEX
  8
0
  5
2F87F
 10
-381.218
 20
844.619
 30
0.000000
  70
    32
  0
VERTEX
  8
0
  5
2F880
 10
-381.218
 20
844.617
 30
0.000000
  70
    32
  0
VERTEX
  8
0
  5
2F881
 10
-381.218
 20
844.615
 30
0.000000
  70
    32
  0
VERTEX
  8
0
  5
2F882
 10
-381.219
 20
844.613
 30
0.000000
  70
    32
  0
VERTEX
  8
0
  5
2F883
 10
-381.219
 20
844.610
 30
0.000000
  70
    32
  0
VERTEX
  8
0
  5
2F884
 10
-381.219
 20
844.608
 30
0.000000
  70
    32
  0
VERTEX
  8
0
  5
2F885
 10
-381.220
 20
844.606
 30
0.000000
  70
    32
  0
VERTEX
  8
0
  5
2F886
 10
-381.220
 20
844.604
 30
0.000000
  70
    32
  0
VERTEX
  8
0
  5
2F887
 10
-381.220
 20
844.602
 30
0.000000
  70
    32
  0
VERTEX
  8
0
  5
2F888
 10
-381.221
 20
844.599
 30
0.000000
  70
    32
  0
VERTEX
  8
0
  5
2F889
 10
-381.221
 20
844.597
 30
0.000000
  70
    32
  0
VERTEX
  8
0
  5
2F88A
 10
-381.221
 20
844.595
 30
0.000000
  70
    32
  0
VERTEX
  8
0
  5
2F88B
 10
-381.222
 20
844.593
 30
0.000000
  70
    32
  0
VERTEX
  8
0
  5
2F88C
 10
-381.222
 20
844.591
 30
0.000000
  70
    32
  0
VERTEX
  8
0
  5
2F88D
 10
-381.223
 20
844.589
 30
0.000000
  70
    32
  0
VERTEX
  8
0
  5
2F88E
 10
-381.223
 20
844.586
 30
0.000000
  70
    32
  0
VERTEX
  8
0
  5
2F88F
 10
-381.224
 20
844.584
 30
0.000000
  70
    32
  0
VERTEX
  8
0
  5
2F890
 10
-381.224
 20
844.582
 30
0.000000
  70
    32
  0
VERTEX
  8
0
  5
2F891
 10
-381.225
 20
844.580
 30
0.000000
  70
    32
  0
VERTEX
  8
0
  5
2F892
 10
-381.225
 20
844.578
 30
0.000000
  70
    32
  0
VERTEX
  8
0
  5
2F893
 10
-381.226
 20
844.576
 30
0.000000
  70
    32
  0
VERTEX
  8
0
  5
2F894
 10
-381.226
 20
844.573
 30
0.000000
  70
    32
  0
VERTEX
  8
0
  5
2F895
 10
-381.227
 20
844.571
 30
0.000000
  70
    32
  0
VERTEX
  8
0
  5
2F896
 10
-381.227
 20
844.569
 30
0.000000
  70
    32
  0
VERTEX
  8
0
  5
2F897
 10
-381.228
 20
844.567
 30
0.000000
  70
    32
  0
VERTEX
  8
0
  5
2F898
 10
-381.228
 20
844.565
 30
0.000000
  70
    32
  0
VERTEX
  8
0
  5
2F899
 10
-381.229
 20
844.563
 30
0.000000
  70
    32
  0
VERTEX
  8
0
  5
2F89A
 10
-381.230
 20
844.561
 30
0.000000
  70
    32
  0
VERTEX
  8
0
  5
2F89B
 10
-381.230
 20
844.558
 30
0.000000
  70
    32
  0
VERTEX
  8
0
  5
2F89C
 10
-381.231
 20
844.556
 30
0.000000
  70
    32
  0
VERTEX
  8
0
  5
2F89D
 10
-381.231
 20
844.554
 30
0.000000
  70
    32
  0
VERTEX
  8
0
  5
2F89E
 10
-381.232
 20
844.552
 30
0.000000
  70
    32
  0
VERTEX
  8
0
  5
2F89F
 10
-381.233
 20
844.550
 30
0.000000
  70
    32
  0
VERTEX
  8
0
  5
2F8A0
 10
-381.234
 20
844.548
 30
0.000000
  70
    32
  0
VERTEX
  8
0
  5
2F8A1
 10
-381.234
 20
844.546
 30
0.000000
  70
    32
  0
VERTEX
  8
0
  5
2F8A2
 10
-381.235
 20
844.544
 30
0.000000
  70
    32
  0
VERTEX
  8
0
  5
2F8A3
 10
-381.236
 20
844.542
 30
0.000000
  70
    32
  0
VERTEX
  8
0
  5
2F8A4
 10
-381.237
 20
844.539
 30
0.000000
  70
    32
  0
VERTEX
  8
0
  5
2F8A5
 10
-381.237
 20
844.537
 30
0.000000
  70
    32
  0
VERTEX
  8
0
  5
2F8A6
 10
-381.238
 20
844.535
 30
0.000000
  70
    32
  0
VERTEX
  8
0
  5
2F8A7
 10
-381.239
 20
844.533
 30
0.000000
  70
    32
  0
VERTEX
  8
0
  5
2F8A8
 10
-381.240
 20
844.531
 30
0.000000
  70
    32
  0
VERTEX
  8
0
  5
2F8A9
 10
-381.241
 20
844.529
 30
0.000000
  70
    32
  0
VERTEX
  8
0
  5
2F8AA
 10
-381.241
 20
844.527
 30
0.000000
  70
    32
  0
VERTEX
  8
0
  5
2F8AB
 10
-381.242
 20
844.525
 30
0.000000
  70
    32
  0
VERTEX
  8
0
  5
2F8AC
 10
-381.243
 20
844.523
 30
0.000000
  70
    32
  0
VERTEX
  8
0
  5
2F8AD
 10
-381.244
 20
844.521
 30
0.000000
  70
    32
  0
VERTEX
  8
0
  5
2F8AE
 10
-381.245
 20
844.519
 30
0.000000
  70
    32
  0
VERTEX
  8
0
  5
2F8AF
 10
-381.246
 20
844.517
 30
0.000000
  70
    32
  0
VERTEX
  8
0
  5
2F8B0
 10
-381.247
 20
844.515
 30
0.000000
  70
    32
  0
VERTEX
  8
0
  5
2F8B1
 10
-381.248
 20
844.513
 30
0.000000
  70
    32
  0
VERTEX
  8
0
  5
2F8B2
 10
-381.249
 20
844.511
 30
0.000000
  70
    32
  0
VERTEX
  8
0
  5
2F8B3
 10
-381.249
 20
844.509
 30
0.000000
  70
    32
  0
VERTEX
  8
0
  5
2F8B4
 10
-381.250
 20
844.507
 30
0.000000
  70
    32
  0
VERTEX
  8
0
  5
2F8B5
 10
-381.251
 20
844.505
 30
0.000000
  70
    32
  0
VERTEX
  8
0
  5
2F8B6
 10
-381.252
 20
844.503
 30
0.000000
  70
    32
  0
VERTEX
  8
0
  5
2F8B7
 10
-381.253
 20
844.501
 30
0.000000
  70
    32
  0
VERTEX
  8
0
  5
2F8B8
 10
-381.254
 20
844.499
 30
0.000000
  70
    32
  0
VERTEX
  8
0
  5
2F8B9
 10
-381.255
 20
844.497
 30
0.000000
  70
    32
  0
VERTEX
  8
0
  5
2F8BA
 10
-381.257
 20
844.495
 30
0.000000
  70
    32
  0
VERTEX
  8
0
  5
2F8BB
 10
-381.258
 20
844.493
 30
0.000000
  70
    32
  0
VERTEX
  8
0
  5
2F8BC
 10
-381.259
 20
844.491
 30
0.000000
  70
    32
  0
VERTEX
  8
0
  5
2F8BD
 10
-381.260
 20
844.489
 30
0.000000
  70
    32
  0
VERTEX
  8
0
  5
2F8BE
 10
-381.261
 20
844.487
 30
0.000000
  70
    32
  0
VERTEX
  8
0
  5
2F8BF
 10
-381.262
 20
844.485
 30
0.000000
  70
    32
  0
VERTEX
  8
0
  5
2F8C0
 10
-381.263
 20
844.483
 30
0.000000
  70
    32
  0
VERTEX
  8
0
  5
2F8C1
 10
-381.264
 20
844.481
 30
0.000000
  70
    32
  0
VERTEX
  8
0
  5
2F8C2
 10
-381.265
 20
844.479
 30
0.000000
  70
    32
  0
VERTEX
  8
0
  5
2F8C3
 10
-381.266
 20
844.477
 30
0.000000
  70
    32
  0
VERTEX
  8
0
  5
2F8C4
 10
-381.268
 20
844.475
 30
0.000000
  70
    32
  0
VERTEX
  8
0
  5
2F8C5
 10
-381.269
 20
844.474
 30
0.000000
  70
    32
  0
VERTEX
  8
0
  5
2F8C6
 10
-381.270
 20
844.472
 30
0.000000
  70
    32
  0
VERTEX
  8
0
  5
2F8C7
 10
-381.271
 20
844.470
 30
0.000000
  70
    32
  0
VERTEX
  8
0
  5
2F8C8
 10
-381.272
 20
844.468
 30
0.000000
  70
    32
  0
VERTEX
  8
0
  5
2F8C9
 10
-381.273
 20
844.466
 30
0.000000
  70
    32
  0
VERTEX
  8
0
  5
2F8CA
 10
-381.275
 20
844.464
 30
0.000000
  70
    32
  0
VERTEX
  8
0
  5
2F8CB
 10
-381.276
 20
844.462
 30
0.000000
  70
    32
  0
VERTEX
  8
0
  5
2F8CC
 10
-381.277
 20
844.461
 30
0.000000
  70
    32
  0
VERTEX
  8
0
  5
2F8CD
 10
-381.278
 20
844.459
 30
0.000000
  70
    32
  0
VERTEX
  8
0
  5
2F8CE
 10
-381.280
 20
844.457
 30
0.000000
  70
    32
  0
VERTEX
  8
0
  5
2F8CF
 10
-381.281
 20
844.455
 30
0.000000
  70
    32
  0
VERTEX
  8
0
  5
2F8D0
 10
-381.282
 20
844.453
 30
0.000000
  70
    32
  0
VERTEX
  8
0
  5
2F8D1
 10
-381.283
 20
844.451
 30
0.000000
  70
    32
  0
VERTEX
  8
0
  5
2F8D2
 10
-381.285
 20
844.450
 30
0.000000
  70
    32
  0
VERTEX
  8
0
  5
2F8D3
 10
-381.286
 20
844.448
 30
0.000000
  70
    32
  0
VERTEX
  8
0
  5
2F8D4
 10
-381.287
 20
844.446
 30
0.000000
  70
    32
  0
VERTEX
  8
0
  5
2F8D5
 10
-381.289
 20
844.444
 30
0.000000
  70
    32
  0
VERTEX
  8
0
  5
2F8D6
 10
-381.290
 20
844.442
 30
0.000000
  70
    32
  0
VERTEX
  8
0
  5
2F8D7
 10
-381.291
 20
844.441
 30
0.000000
  70
    32
  0
VERTEX
  8
0
  5
2F8D8
 10
-381.293
 20
844.439
 30
0.000000
  70
    32
  0
VERTEX
  8
0
  5
2F8D9
 10
-381.294
 20
844.437
 30
0.000000
  70
    32
  0
VERTEX
  8
0
  5
2F8DA
 10
-381.295
 20
844.435
 30
0.000000
  70
    32
  0
VERTEX
  8
0
  5
2F8DB
 10
-381.297
 20
844.434
 30
0.000000
  70
    32
  0
VERTEX
  8
0
  5
2F8DC
 10
-381.298
 20
844.432
 30
0.000000
  70
    32
  0
VERTEX
  8
0
  5
2F8DD
 10
-381.299
 20
844.430
 30
0.000000
  70
    32
  0
VERTEX
  8
0
  5
2F8DE
 10
-381.301
 20
844.428
 30
0.000000
  70
    32
  0
VERTEX
  8
0
  5
2F8DF
 10
-381.302
 20
844.427
 30
0.000000
  70
    32
  0
VERTEX
  8
0
  5
2F8E0
 10
-381.303
 20
844.425
 30
0.000000
  70
    32
  0
VERTEX
  8
0
  5
2F8E1
 10
-381.305
 20
844.423
 30
0.000000
  70
    32
  0
VERTEX
  8
0
  5
2F8E2
 10
-381.306
 20
844.421
 30
0.000000
  70
    32
  0
VERTEX
  8
0
  5
2F8E3
 10
-381.308
 20
844.420
 30
0.000000
  70
    32
  0
VERTEX
  8
0
  5
2F8E4
 10
-381.309
 20
844.418
 30
0.000000
  70
    32
  0
VERTEX
  8
0
  5
2F8E5
 10
-381.310
 20
844.416
 30
0.000000
  70
    32
  0
VERTEX
  8
0
  5
2F8E6
 10
-381.312
 20
844.415
 30
0.000000
  70
    32
  0
VERTEX
  8
0
  5
2F8E7
 10
-381.313
 20
844.413
 30
0.000000
  70
    32
  0
VERTEX
  8
0
  5
2F8E8
 10
-381.314
 20
844.411
 30
0.000000
  70
    32
  0
VERTEX
  8
0
  5
2F8E9
 10
-381.316
 20
844.409
 30
0.000000
  70
    32
  0
VERTEX
  8
0
  5
2F8EA
 10
-381.317
 20
844.408
 30
0.000000
  70
    32
  0
VERTEX
  8
0
  5
2F8EB
 10
-381.319
 20
844.406
 30
0.000000
  70
    32
  0
VERTEX
  8
0
  5
2F8EC
 10
-381.320
 20
844.404
 30
0.000000
  70
    32
  0
VERTEX
  8
0
  5
2F8ED
 10
-381.321
 20
844.402
 30
0.000000
  70
    32
  0
VERTEX
  8
0
  5
2F8EE
 10
-381.323
 20
844.401
 30
0.000000
  70
    32
  0
VERTEX
  8
0
  5
2F8EF
 10
-381.324
 20
844.399
 30
0.000000
  70
    32
  0
VERTEX
  8
0
  5
2F8F0
 10
-381.326
 20
844.397
 30
0.000000
  70
    32
  0
VERTEX
  8
0
  5
2F8F1
 10
-381.327
 20
844.396
 30
0.000000
  70
    32
  0
VERTEX
  8
0
  5
2F8F2
 10
-381.329
 20
844.394
 30
0.000000
  70
    32
  0
VERTEX
  8
0
  5
2F8F3
 10
-381.330
 20
844.392
 30
0.000000
  70
    32
  0
VERTEX
  8
0
  5
2F8F4
 10
-381.331
 20
844.390
 30
0.000000
  70
    32
  0
VERTEX
  8
0
  5
2F8F5
 10
-381.333
 20
844.389
 30
0.000000
  70
    32
  0
VERTEX
  8
0
  5
2F8F6
 10
-381.334
 20
844.387
 30
0.000000
  70
    32
  0
VERTEX
  8
0
  5
2F8F7
 10
-381.336
 20
844.385
 30
0.000000
  70
    32
  0
VERTEX
  8
0
  5
2F8F8
 10
-381.337
 20
844.384
 30
0.000000
  70
    32
  0
VERTEX
  8
0
  5
2F8F9
 10
-381.338
 20
844.382
 30
0.000000
  70
    32
  0
VERTEX
  8
0
  5
2F8FA
 10
-381.340
 20
844.380
 30
0.000000
  70
    32
  0
VERTEX
  8
0
  5
2F8FB
 10
-381.341
 20
844.378
 30
0.000000
  70
    32
  0
VERTEX
  8
0
  5
2F8FC
 10
-381.342
 20
844.377
 30
0.000000
  70
    32
  0
VERTEX
  8
0
  5
2F8FD
 10
-381.344
 20
844.375
 30
0.000000
  70
    32
  0
VERTEX
  8
0
  5
2F8FE
 10
-381.345
 20
844.373
 30
0.000000
  70
    32
  0
VERTEX
  8
0
  5
2F8FF
 10
-381.347
 20
844.372
 30
0.000000
  70
    32
  0
VERTEX
  8
0
  5
2F900
 10
-381.348
 20
844.370
 30
0.000000
  70
    32
  0
VERTEX
  8
0
  5
2F901
 10
-381.349
 20
844.368
 30
0.000000
  70
    32
  0
VERTEX
  8
0
  5
2F902
 10
-381.351
 20
844.366
 30
0.000000
  70
    32
  0
VERTEX
  8
0
  5
2F903
 10
-381.352
 20
844.365
 30
0.000000
  70
    32
  0
VERTEX
  8
0
  5
2F904
 10
-381.354
 20
844.363
 30
0.000000
  70
    32
  0
VERTEX
  8
0
  5
2F905
 10
-381.355
 20
844.361
 30
0.000000
  70
    32
  0
VERTEX
  8
0
  5
2F906
 10
-381.356
 20
844.359
 30
0.000000
  70
    32
  0
VERTEX
  8
0
  5
2F907
 10
-381.358
 20
844.358
 30
0.000000
  70
    32
  0
VERTEX
  8
0
  5
2F908
 10
-381.359
 20
844.356
 30
0.000000
  70
    32
  0
VERTEX
  8
0
  5
2F909
 10
-381.360
 20
844.354
 30
0.000000
  70
    32
  0
VERTEX
  8
0
  5
2F90A
 10
-381.362
 20
844.352
 30
0.000000
  70
    32
  0
VERTEX
  8
0
  5
2F90B
 10
-381.363
 20
844.351
 30
0.000000
  70
    32
  0
VERTEX
  8
0
  5
2F90C
 10
-381.364
 20
844.349
 30
0.000000
  70
    32
  0
VERTEX
  8
0
  5
2F90D
 10
-381.366
 20
844.347
 30
0.000000
  70
    32
  0
VERTEX
  8
0
  5
2F90E
 10
-381.367
 20
844.346
 30
0.000000
  70
    32
  0
VERTEX
  8
0
  5
2F90F
 10
-381.369
 20
844.344
 30
0.000000
  70
    32
  0
VERTEX
  8
0
  5
2F910
 10
-381.370
 20
844.342
 30
0.000000
  70
    32
  0
VERTEX
  8
0
  5
2F911
 10
-381.371
 20
844.340
 30
0.000000
  70
    32
  0
VERTEX
  8
0
  5
2F912
 10
-381.373
 20
844.338
 30
0.000000
  70
    32
  0
VERTEX
  8
0
  5
2F913
 10
-381.374
 20
844.337
 30
0.000000
  70
    32
  0
VERTEX
  8
0
  5
2F914
 10
-381.375
 20
844.335
 30
0.000000
  70
    32
  0
VERTEX
  8
0
  5
2F915
 10
-381.377
 20
844.333
 30
0.000000
  70
    32
  0
VERTEX
  8
0
  5
2F916
 10
-381.378
 20
844.331
 30
0.000000
  70
    32
  0
VERTEX
  8
0
  5
2F917
 10
-381.379
 20
844.330
 30
0.000000
  70
    32
  0
VERTEX
  8
0
  5
2F918
 10
-381.381
 20
844.328
 30
0.000000
  70
    32
  0
VERTEX
  8
0
  5
2F919
 10
-381.382
 20
844.326
 30
0.000000
  70
    32
  0
VERTEX
  8
0
  5
2F91A
 10
-381.383
 20
844.324
 30
0.000000
  70
    32
  0
VERTEX
  8
0
  5
2F91B
 10
-381.385
 20
844.323
 30
0.000000
  70
    32
  0
VERTEX
  8
0
  5
2F91C
 10
-381.386
 20
844.321
 30
0.000000
  70
    32
  0
VERTEX
  8
0
  5
2F91D
 10
-381.387
 20
844.319
 30
0.000000
  70
    32
  0
VERTEX
  8
0
  5
2F91E
 10
-381.389
 20
844.317
 30
0.000000
  70
    32
  0
VERTEX
  8
0
  5
2F91F
 10
-381.390
 20
844.316
 30
0.000000
  70
    32
  0
VERTEX
  8
0
  5
2F920
 10
-381.391
 20
844.314
 30
0.000000
  70
    32
  0
VERTEX
  8
0
  5
2F921
 10
-381.393
 20
844.312
 30
0.000000
  70
    32
  0
VERTEX
  8
0
  5
2F922
 10
-381.394
 20
844.310
 30
0.000000
  70
    32
  0
VERTEX
  8
0
  5
2F923
 10
-381.395
 20
844.308
 30
0.000000
  70
    32
  0
VERTEX
  8
0
  5
2F924
 10
-381.397
 20
844.307
 30
0.000000
  70
    32
  0
VERTEX
  8
0
  5
2F925
 10
-381.398
 20
844.305
 30
0.000000
  70
    32
  0
VERTEX
  8
0
  5
2F926
 10
-381.399
 20
844.303
 30
0.000000
  70
    32
  0
VERTEX
  8
0
  5
2F927
 10
-381.401
 20
844.301
 30
0.000000
  70
    32
  0
VERTEX
  8
0
  5
2F928
 10
-381.402
 20
844.300
 30
0.000000
  70
    32
  0
VERTEX
  8
0
  5
2F929
 10
-381.403
 20
844.298
 30
0.000000
  70
    32
  0
VERTEX
  8
0
  5
2F92A
 10
-381.404
 20
844.296
 30
0.000000
  70
    32
  0
VERTEX
  8
0
  5
2F92B
 10
-381.406
 20
844.294
 30
0.000000
  70
    32
  0
VERTEX
  8
0
  5
2F92C
 10
-381.407
 20
844.292
 30
0.000000
  70
    32
  0
VERTEX
  8
0
  5
2F92D
 10
-381.408
 20
844.291
 30
0.000000
  70
    32
  0
VERTEX
  8
0
  5
2F92E
 10
-381.410
 20
844.289
 30
0.000000
  70
    32
  0
VERTEX
  8
0
  5
2F92F
 10
-381.411
 20
844.287
 30
0.000000
  70
    32
  0
VERTEX
  8
0
  5
2F930
 10
-381.412
 20
844.285
 30
0.000000
  70
    32
  0
VERTEX
  8
0
  5
2F931
 10
-381.414
 20
844.283
 30
0.000000
  70
    32
  0
VERTEX
  8
0
  5
2F932
 10
-381.415
 20
844.282
 30
0.000000
  70
    32
  0
VERTEX
  8
0
  5
2F933
 10
-381.416
 20
844.280
 30
0.000000
  70
    32
  0
VERTEX
  8
0
  5
2F934
 10
-381.418
 20
844.278
 30
0.000000
  70
    32
  0
VERTEX
  8
0
  5
2F935
 10
-381.419
 20
844.276
 30
0.000000
  70
    32
  0
VERTEX
  8
0
  5
2F936
 10
-381.420
 20
844.274
 30
0.000000
  70
    32
  0
VERTEX
  8
0
  5
2F937
 10
-381.421
 20
844.273
 30
0.000000
  70
    32
  0
VERTEX
  8
0
  5
2F938
 10
-381.423
 20
844.271
 30
0.000000
  70
    32
  0
VERTEX
  8
0
  5
2F939
 10
-381.424
 20
844.269
 30
0.000000
  70
    32
  0
VERTEX
  8
0
  5
2F93A
 10
-381.425
 20
844.267
 30
0.000000
  70
    32
  0
VERTEX
  8
0
  5
2F93B
 10
-381.426
 20
844.265
 30
0.000000
  70
    32
  0
VERTEX
  8
0
  5
2F93C
 10
-381.428
 20
844.263
 30
0.000000
  70
    32
  0
VERTEX
  8
0
  5
2F93D
 10
-381.429
 20
844.262
 30
0.000000
  70
    32
  0
VERTEX
  8
0
  5
2F93E
 10
-381.430
 20
844.260
 30
0.000000
  70
    32
  0
VERTEX
  8
0
  5
2F93F
 10
-381.431
 20
844.258
 30
0.000000
  70
    32
  0
VERTEX
  8
0
  5
2F940
 10
-381.433
 20
844.256
 30
0.000000
  70
    32
  0
VERTEX
  8
0
  5
2F941
 10
-381.434
 20
844.254
 30
0.000000
  70
    32
  0
VERTEX
  8
0
  5
2F942
 10
-381.435
 20
844.252
 30
0.000000
  70
    32
  0
VERTEX
  8
0
  5
2F943
 10
-381.436
 20
844.250
 30
0.000000
  70
    32
  0
VERTEX
  8
0
  5
2F944
 10
-381.437
 20
844.249
 30
0.000000
  70
    32
  0
VERTEX
  8
0
  5
2F945
 10
-381.439
 20
844.247
 30
0.000000
  70
    32
  0
VERTEX
  8
0
  5
2F946
 10
-381.440
 20
844.245
 30
0.000000
  70
    32
  0
VERTEX
  8
0
  5
2F947
 10
-381.441
 20
844.243
 30
0.000000
  70
    32
  0
VERTEX
  8
0
  5
2F948
 10
-381.442
 20
844.241
 30
0.000000
  70
    32
  0
VERTEX
  8
0
  5
2F949
 10
-381.443
 20
844.239
 30
0.000000
  70
    32
  0
VERTEX
  8
0
  5
2F94A
 10
-381.444
 20
844.237
 30
0.000000
  70
    32
  0
VERTEX
  8
0
  5
2F94B
 10
-381.445
 20
844.235
 30
0.000000
  70
    32
  0
VERTEX
  8
0
  5
2F94C
 10
-381.447
 20
844.233
 30
0.000000
  70
    32
  0
VERTEX
  8
0
  5
2F94D
 10
-381.448
 20
844.231
 30
0.000000
  70
    32
  0
VERTEX
  8
0
  5
2F94E
 10
-381.449
 20
844.230
 30
0.000000
  70
    32
  0
VERTEX
  8
0
  5
2F94F
 10
-381.450
 20
844.228
 30
0.000000
  70
    32
  0
VERTEX
  8
0
  5
2F950
 10
-381.451
 20
844.226
 30
0.000000
  70
    32
  0
VERTEX
  8
0
  5
2F951
 10
-381.452
 20
844.224
 30
0.000000
  70
    32
  0
VERTEX
  8
0
  5
2F952
 10
-381.453
 20
844.222
 30
0.000000
  70
    32
  0
VERTEX
  8
0
  5
2F953
 10
-381.454
 20
844.220
 30
0.000000
  70
    32
  0
VERTEX
  8
0
  5
2F954
 10
-381.455
 20
844.218
 30
0.000000
  70
    32
  0
VERTEX
  8
0
  5
2F955
 10
-381.456
 20
844.216
 30
0.000000
  70
    32
  0
VERTEX
  8
0
  5
2F956
 10
-381.457
 20
844.214
 30
0.000000
  70
    32
  0
VERTEX
  8
0
  5
2F957
 10
-381.458
 20
844.212
 30
0.000000
  70
    32
  0
VERTEX
  8
0
  5
2F958
 10
-381.459
 20
844.210
 30
0.000000
  70
    32
  0
VERTEX
  8
0
  5
2F959
 10
-381.460
 20
844.208
 30
0.000000
  70
    32
  0
VERTEX
  8
0
  5
2F95A
 10
-381.461
 20
844.206
 30
0.000000
  70
    32
  0
VERTEX
  8
0
  5
2F95B
 10
-381.462
 20
844.204
 30
0.000000
  70
    32
  0
VERTEX
  8
0
  5
2F95C
 10
-381.462
 20
844.202
 30
0.000000
  70
    32
  0
VERTEX
  8
0
  5
2F95D
 10
-381.463
 20
844.200
 30
0.000000
  70
    32
  0
VERTEX
  8
0
  5
2F95E
 10
-381.464
 20
844.198
 30
0.000000
  70
    32
  0
VERTEX
  8
0
  5
2F95F
 10
-381.465
 20
844.196
 30
0.000000
  70
    32
  0
VERTEX
  8
0
  5
2F960
 10
-381.466
 20
844.194
 30
0.000000
  70
    32
  0
VERTEX
  8
0
  5
2F961
 10
-381.467
 20
844.192
 30
0.000000
  70
    32
  0
VERTEX
  8
0
  5
2F962
 10
-381.467
 20
844.189
 30
0.000000
  70
    32
  0
VERTEX
  8
0
  5
2F963
 10
-381.468
 20
844.187
 30
0.000000
  70
    32
  0
VERTEX
  8
0
  5
2F964
 10
-381.469
 20
844.185
 30
0.000000
  70
    32
  0
VERTEX
  8
0
  5
2F965
 10
-381.470
 20
844.183
 30
0.000000
  70
    32
  0
VERTEX
  8
0
  5
2F966
 10
-381.470
 20
844.181
 30
0.000000
  70
    32
  0
VERTEX
  8
0
  5
2F967
 10
-381.471
 20
844.179
 30
0.000000
  70
    32
  0
VERTEX
  8
0
  5
2F968
 10
-381.472
 20
844.177
 30
0.000000
  70
    32
  0
VERTEX
  8
0
  5
2F969
 10
-381.473
 20
844.175
 30
0.000000
  70
    32
  0
VERTEX
  8
0
  5
2F96A
 10
-381.473
 20
844.173
 30
0.000000
  70
    32
  0
VERTEX
  8
0
  5
2F96B
 10
-381.474
 20
844.171
 30
0.000000
  70
    32
  0
VERTEX
  8
0
  5
2F96C
 10
-381.475
 20
844.168
 30
0.000000
  70
    32
  0
VERTEX
  8
0
  5
2F96D
 10
-381.475
 20
844.166
 30
0.000000
  70
    32
  0
VERTEX
  8
0
  5
2F96E
 10
-381.476
 20
844.164
 30
0.000000
  70
    32
  0
VERTEX
  8
0
  5
2F96F
 10
-381.476
 20
844.162
 30
0.000000
  70
    32
  0
VERTEX
  8
0
  5
2F970
 10
-381.477
 20
844.160
 30
0.000000
  70
    32
  0
VERTEX
  8
0
  5
2F971
 10
-381.478
 20
844.158
 30
0.000000
  70
    32
  0
VERTEX
  8
0
  5
2F972
 10
-381.478
 20
844.156
 30
0.000000
  70
    32
  0
VERTEX
  8
0
  5
2F973
 10
-381.479
 20
844.153
 30
0.000000
  70
    32
  0
VERTEX
  8
0
  5
2F974
 10
-381.479
 20
844.151
 30
0.000000
  70
    32
  0
VERTEX
  8
0
  5
2F975
 10
-381.480
 20
844.149
 30
0.000000
  70
    32
  0
VERTEX
  8
0
  5
2F976
 10
-381.480
 20
844.147
 30
0.000000
  70
    32
  0
VERTEX
  8
0
  5
2F977
 10
-381.481
 20
844.145
 30
0.000000
  70
    32
  0
VERTEX
  8
0
  5
2F978
 10
-381.481
 20
844.143
 30
0.000000
  70
    32
  0
VERTEX
  8
0
  5
2F979
 10
-381.482
 20
844.140
 30
0.000000
  70
    32
  0
VERTEX
  8
0
  5
2F97A
 10
-381.482
 20
844.138
 30
0.000000
  70
    32
  0
VERTEX
  8
0
  5
2F97B
 10
-381.483
 20
844.136
 30
0.000000
  70
    32
  0
VERTEX
  8
0
  5
2F97C
 10
-381.483
 20
844.134
 30
0.000000
  70
    32
  0
VERTEX
  8
0
  5
2F97D
 10
-381.484
 20
844.132
 30
0.000000
  70
    32
  0
VERTEX
  8
0
  5
2F97E
 10
-381.484
 20
844.130
 30
0.000000
  70
    32
  0
VERTEX
  8
0
  5
2F97F
 10
-381.485
 20
844.127
 30
0.000000
  70
    32
  0
VERTEX
  8
0
  5
2F980
 10
-381.485
 20
844.125
 30
0.000000
  70
    32
  0
VERTEX
  8
0
  5
2F981
 10
-381.485
 20
844.123
 30
0.000000
  70
    32
  0
VERTEX
  8
0
  5
2F982
 10
-381.486
 20
844.121
 30
0.000000
  70
    32
  0
VERTEX
  8
0
  5
2F983
 10
-381.486
 20
844.119
 30
0.000000
  70
    32
  0
VERTEX
  8
0
  5
2F984
 10
-381.487
 20
844.116
 30
0.000000
  70
    32
  0
VERTEX
  8
0
  5
2F985
 10
-381.487
 20
844.114
 30
0.000000
  70
    32
  0
VERTEX
  8
0
  5
2F986
 10
-381.487
 20
844.112
 30
0.000000
  70
    32
  0
VERTEX
  8
0
  5
2F987
 10
-381.488
 20
844.110
 30
0.000000
  70
    32
  0
VERTEX
  8
0
  5
2F988
 10
-381.488
 20
844.108
 30
0.000000
  70
    32
  0
SEQEND
  8
0
  5
2F989
  0
ARC
  5
2F625
  8
0
  6
CONTINUOUS
 10
-381.58607536181438
 20
843.92478752737372
 30
0.0
 40
0.2075869723310639
 50
268.7382113166945
 51
61.793770172879839
  0
ARC
  5
2F626
  8
0
  6
CONTINUOUS
 10
-381.15550167683028
 20
845.95161300673624
 30
0.0
 40
0.0625
 50
0.0
 51
77.834227706549484
  0
ARC
  5
2F627
  8
0
  6
CONTINUOUS
 10
-381.15127876593078
 20
844.74808829855976
 30
0.0
 40
0.0625
 50
284.53917689847191
 51
0.0
  0
VIEWPORT
  5
BADA
 67
     1
  8
0
 10
6.0985985255042117
 20
4.4411602950226516
 30
0.0
 40
17.72074090703056
 41
8.8603704535152836
 68
     1
 69
     1
1001
ACAD
1000
MVIEW
1002
{
1070
    16
1010
0.0
1020
0.0
1030
0.0
1010
0.0
1020
0.0
1030
1.0
1040
0.0
1040
8.8603704535152836
1040
6.0985985255042117
1040
4.4411602950226516
1040
50.0
1040
0.0
1040
0.0
1070
     0
1070
   100
1070
     1
1070
     1
1070
     0
1070
     0
1070
     0
1070
     0
1040
0.0
1040
0.0
1040
0.0
1040
0.5
1040
0.5
1040
0.5
1040
0.5
1070
     0
1002
{
1002
}
1002
}
  0
VIEWPORT
  5
BADD
 67
     1
  8
0
 10
5.2499996294871929
 20
4.0166741807634683
 30
0.0
 40
10.44245679893058
 41
7.8813805131999892
 68
     2
 69
     2
1001
ACAD
1000
MVIEW
1002
{
1070
    16
1010
0.0
1020
0.0
1030
0.0
1010
0.0
1020
0.0
1030
1.0
1040
0.0
1040
7.8813805637884728
1040
-380.39488908524078
1040
845.25341067131853
1040
50.0
1040
0.0
1040
0.0
1070
     0
1070
   100
1070
     1
1070
     2
1070
     0
1070
     0
1070
     0
1070
     0
1040
0.0
1040
0.0
1040
0.0
1040
0.5
1040
0.5
1040
0.5
1040
0.5
1070
     0
1002
{
1002
}
1002
}
  0
ENDSEC
  0
EOF
