  0
SECTION
  2
HEADER
  9
$ACADVER
  1
AC1009
  9
$INSBASE
 10
0.0
 20
0.0
 30
0.0
  9
$EXTMIN
 10
-382.53419390346619
 20
843.22550599210876
 30
0.0
  9
$EXTMAX
 10
-357.79926896535028
 20
864.37589262457595
 30
0.0
  9
$LIMMIN
 10
0.0
 20
0.0
  9
$LIMMAX
 10
1500.0
 20
1500.0
  9
$ORTHOMODE
 70
     0
  9
$REGENMODE
 70
     1
  9
$FILLMODE
 70
     1
  9
$QTEXTMODE
 70
     0
  9
$MIRRTEXT
 70
     1
  9
$DRAGMODE
 70
     2
  9
$LTSCALE
 40
1.0
  9
$OSMODE
 70
    37
  9
$ATTMODE
 70
     1
  9
$TEXTSIZE
 40
1.5
  9
$TRACEWID
 40
0.05
  9
$TEXTSTYLE
  7
STANDARD
  9
$CLAYER
  8
0
  9
$CELTYPE
  6
BYLAYER
  9
$CECOLOR
 62
   256
  9
$DIMSCALE
 40
1.0
  9
$DIMASZ
 40
0.75
  9
$DIMEXO
 40
1.5
  9
$DIMDLI
 40
2.0
  9
$DIMRND
 40
0.0
  9
$DIMDLE
 40
0.0
  9
$DIMEXE
 40
1.0
  9
$DIMTP
 40
0.0
  9
$DIMTM
 40
0.0
  9
$DIMTXT
 40
1.5
  9
$DIMCEN
 40
2.0
  9
$DIMTSZ
 40
0.0
  9
$DIMTOL
 70
     0
  9
$DIMLIM
 70
     0
  9
$DIMTIH
 70
     0
  9
$DIMTOH
 70
     0
  9
$DIMSE1
 70
     0
  9
$DIMSE2
 70
     0
  9
$DIMTAD
 70
     1
  9
$DIMZIN
 70
     0
  9
$DIMBLK
  1
ARCHTICK
  9
$DIMASO
 70
     1
  9
$DIMSHO
 70
     1
  9
$DIMPOST
  1
"
  9
$DIMAPOST
  1

  9
$DIMALT
 70
     0
  9
$DIMALTD
 70
     2
  9
$DIMALTF
 40
25.399999999999999
  9
$DIMLFAC
 40
1.0
  9
$DIMTOFL
 70
     0
  9
$DIMTVP
 40
0.0
  9
$DIMTIX
 70
     1
  9
$DIMSOXD
 70
     0
  9
$DIMSAH
 70
     0
  9
$DIMBLK1
  1

  9
$DIMBLK2
  1

  9
$DIMSTYLE
  2
THREE_QUARTER_INCH_SCALE
  9
$DIMCLRD
 70
     0
  9
$DIMCLRE
 70
     0
  9
$DIMCLRT
 70
     0
  9
$DIMTFAC
 40
1.0
  9
$DIMGAP
 40
1.0
  9
$LUNITS
 70
     2
  9
$LUPREC
 70
     4
  9
$SKETCHINC
 40
0.1
  9
$FILLETRAD
 40
0.0
  9
$AUNITS
 70
     0
  9
$AUPREC
 70
     0
  9
$MENU
  1
.
  9
$ELEVATION
 40
0.0
  9
$PELEVATION
 40
0.0
  9
$THICKNESS
 40
0.0
  9
$LIMCHECK
 70
     0
  9
$BLIPMODE
 70
     0
  9
$CHAMFERA
 40
0.5
  9
$CHAMFERB
 40
0.5
  9
$SKPOLY
 70
     0
  9
$TDCREATE
 40
2452089.395738773
  9
$TDUPDATE
 40
2453608.5177382291
  9
$TDINDWG
 40
1.5451586574
  9
$TDUSRTIMER
 40
1.5451586574
  9
$USRTIMER
 70
     1
  9
$ANGBASE
 50
0.0
  9
$ANGDIR
 70
     0
  9
$PDMODE
 70
     0
  9
$PDSIZE
 40
10.0
  9
$PLINEWID
 40
0.0
  9
$COORDS
 70
     1
  9
$SPLFRAME
 70
     0
  9
$SPLINETYPE
 70
     6
  9
$SPLINESEGS
 70
     8
  9
$ATTDIA
 70
     0
  9
$ATTREQ
 70
     1
  9
$HANDLING
 70
     1
  9
$HANDSEED
  5
331EF
  9
$SURFTAB1
 70
     6
  9
$SURFTAB2
 70
     6
  9
$SURFTYPE
 70
     6
  9
$SURFU
 70
     6
  9
$SURFV
 70
     6
  9
$UCSNAME
  2

  9
$UCSORG
 10
0.0
 20
0.0
 30
0.0
  9
$UCSXDIR
 10
1.0
 20
0.0
 30
0.0
  9
$UCSYDIR
 10
0.0
 20
1.0
 30
0.0
  9
$PUCSNAME
  2

  9
$PUCSORG
 10
0.0
 20
0.0
 30
0.0
  9
$PUCSXDIR
 10
1.0
 20
0.0
 30
0.0
  9
$PUCSYDIR
 10
0.0
 20
1.0
 30
0.0
  9
$USERI1
 70
     0
  9
$USERI2
 70
     0
  9
$USERI3
 70
     0
  9
$USERI4
 70
     0
  9
$USERI5
 70
     0
  9
$USERR1
 40
0.0
  9
$USERR2
 40
0.0
  9
$USERR3
 40
0.0
  9
$USERR4
 40
0.0
  9
$USERR5
 40
0.0
  9
$WORLDVIEW
 70
     1
  9
$SHADEDGE
 70
     3
  9
$SHADEDIF
 70
    70
  9
$TILEMODE
 70
     0
  9
$MAXACTVP
 70
    64
  9
$PLIMCHECK
 70
     0
  9
$PEXTMIN
 10
0.0282895744820664
 20
0.0759353784799721
 30
-0.0015258207003583
  9
$PEXTMAX
 10
10.471709755853
 20
7.9577863512286546
 30
0.0000000349246037
  9
$PLIMMIN
 10
-0.2500002402958907
 20
-0.2499999962453767
  9
$PLIMMAX
 10
10.74999951940821
 20
8.2499997634587316
  9
$UNITMODE
 70
     0
  9
$VISRETAIN
 70
     1
  9
$PLINEGEN
 70
     0
  9
$PSLTSCALE
 70
     1
  0
ENDSEC
  0
SECTION
  2
TABLES
  0
TABLE
  2
VPORT
 70
     3
  0
VPORT
  2
*ACTIVE
 70
     0
 10
0.0
 20
0.0
 11
1.0
 21
1.0
 12
-380.70010693656201
 22
845.16779400026962
 13
0.0
 23
0.0
 14
0.5
 24
0.5
 15
0.5
 25
0.5
 16
0.0
 26
0.0
 36
1.0
 17
0.0
 27
0.0
 37
0.0
 40
8.8173627230431642
 41
2.0
 42
50.0
 43
0.0
 44
0.0
 50
0.0
 51
0.0
 71
     0
 72
   100
 73
     1
 74
     2
 75
     0
 76
     0
 77
     0
 78
     0
  0
ENDTAB
  0
TABLE
  2
LTYPE
 70
     1
  0
LTYPE
  2
CONTINUOUS
 70
     0
  3
Solid line
 72
    65
 73
     0
 40
0.0
  0
ENDTAB
  0
TABLE
  2
LAYER
 70
    10
  0
LAYER
  2
0
 70
     0
 62
     7
  6
CONTINUOUS
  0
LAYER
  2
DEFPOINTS
 70
     0
 62
     7
  6
CONTINUOUS
  0
LAYER
  2
FRAME_200
 70
     0
 62
     8
  6
CONTINUOUS
  0
LAYER
  2
FRAME_070
 70
     0
 62
     5
  6
CONTINUOUS
  0
LAYER
  2
FRAME_050
 70
     0
 62
     6
  6
CONTINUOUS
  0
LAYER
  2
TITLE_BLOCK
 70
     0
 62
     7
  6
CONTINUOUS
  0
LAYER
  2
FRAME_025
 70
     0
 62
     7
  6
CONTINUOUS
  0
LAYER
  2
VIEWPORT
 70
     0
 62
     7
  6
CONTINUOUS
  0
LAYER
  2
PROF
 70
     0
 62
     7
  6
CONTINUOUS
  0
LAYER
  2
PROFILE
 70
     0
 62
     7
  6
CONTINUOUS
  0
ENDTAB
  0
TABLE
  2
STYLE
 70
     2
  0
STYLE
  2
STANDARD
 70
     0
 40
0.0
 41
1.0
 50
0.0
 71
     0
 42
1.5
  3
txt
  4

  0
STYLE
  2
ISO_PROPORTIONAL
 70
     0
 40
0.0
 41
1.0
 50
0.0
 71
     0
 42
2.5
  3
isocp.shx
  4

  0
ENDTAB
  0
TABLE
  2
VIEW
 70
     7
  0
ENDTAB
  0
TABLE
  2
UCS
 70
     0
  0
ENDTAB
  0
TABLE
  2
APPID
 70
     6
  0
APPID
  2
ACAD
 70
     0
  0
APPID
  2
DCO15
 70
     0
  0
APPID
  2
ACAD_EXEMPT_FROM_CAD_STANDARDS
 70
     0
  0
APPID
  2
ACAD_PSEXT
 70
     0
  0
APPID
  2
CONTENTBLOCKDESCRIPTION
 70
     0
  0
APPID
  2
CONTENTBLOCKICON
 70
     0
  0
ENDTAB
  0
TABLE
  2
DIMSTYLE
 70
     5
  0
DIMSTYLE
  2
FULL_SCALE
 70
     0
  3
"
  4

  5
ARCHTICK
  6

  7

 40
1.0
 41
0.046875
 42
0.09375
 43
0.125
 44
0.0625
 45
0.0
 46
0.0
 47
0.0
 48
0.0
140
0.125
141
0.125
142
0.0
143
25.399999999999999
144
1.0
145
0.0
146
1.0
147
0.0625
 71
     0
 72
     0
 73
     0
 74
     0
 75
     0
 76
     0
 77
     1
 78
     0
170
     0
171
     2
172
     0
173
     0
174
     1
175
     0
176
     0
177
     0
178
     0
  0
DIMSTYLE
  2
HALF_SCALE
 70
     0
  3
"
  4

  5
ARCHTICK
  6

  7

 40
1.0
 41
0.09375
 42
0.1875
 43
0.25
 44
0.125
 45
0.0
 46
0.0
 47
0.0
 48
0.0
140
0.25
141
0.25
142
0.0
143
25.399999999999999
144
1.0
145
0.0
146
1.0
147
0.125
 71
     0
 72
     0
 73
     0
 74
     0
 75
     0
 76
     0
 77
     1
 78
     0
170
     0
171
     2
172
     0
173
     0
174
     1
175
     0
176
     0
177
     0
178
     0
  0
DIMSTYLE
  2
INCH_SCALE
 70
     0
  3
"
  4

  5
ARCHTICK
  6

  7

 40
1.0
 41
0.5625
 42
1.125
 43
1.5
 44
0.75
 45
0.0
 46
0.0
 47
0.0
 48
0.0
140
1.125
141
1.5
142
0.0
143
25.399999999999999
144
1.0
145
0.0
146
1.0
147
0.75
 71
     0
 72
     0
 73
     0
 74
     0
 75
     0
 76
     0
 77
     1
 78
     0
170
     0
171
     2
172
     0
173
     0
174
     1
175
     0
176
     0
177
     0
178
     0
  0
DIMSTYLE
  2
THREE_QUARTER_INCH_SCALE
 70
     0
  3
"
  4

  5
ARCHTICK
  6

  7

 40
1.0
 41
0.75
 42
1.5
 43
2.0
 44
1.0
 45
0.0
 46
0.0
 47
0.0
 48
0.0
140
1.5
141
2.0
142
0.0
143
25.399999999999999
144
1.0
145
0.0
146
1.0
147
1.0
 71
     0
 72
     0
 73
     0
 74
     0
 75
     0
 76
     0
 77
     1
 78
     0
170
     0
171
     2
172
     0
173
     0
174
     1
175
     0
176
     0
177
     0
178
     0
  0
DIMSTYLE
  2
ZHALF_INCH_SCALE
 70
     0
  3
"
  4

  5
ARCHTICK
  6

  7

 40
1.0
 41
1.125
 42
2.25
 43
3.0
 44
1.5
 45
0.0
 46
0.0
 47
0.0
 48
0.0
140
2.25
141
3.0
142
0.0
143
25.399999999999999
144
1.0
145
0.0
146
1.0
147
1.5
 71
     0
 72
     0
 73
     0
 74
     0
 75
     0
 76
     0
 77
     1
 78
     0
170
     0
171
     2
172
     0
173
     0
174
     1
175
     0
176
     0
177
     0
178
     0
  0
ENDTAB
  0
ENDSEC
  0
SECTION
  2
BLOCKS
  0
BLOCK
  8
0
  2
$MODEL_SPACE
 70
     0
 10
0.0
 20
0.0
 30
0.0
  3
$MODEL_SPACE
  1

  0
ENDBLK
  5
21
  8
0
  0
BLOCK
 67
     1
  8
0
  2
$PAPER_SPACE
 70
     0
 10
0.0
 20
0.0
 30
0.0
  3
$PAPER_SPACE
  1

  0
ENDBLK
  5
BAD5
 67
     1
  8
0
  0
BLOCK
  8
0
  2
_ARCHTICK
 70
     0
 10
0.0
 20
0.0
 30
0.0
  3
_ARCHTICK
  1

  0
POLYLINE
  5
158
  8
0
  6
BYBLOCK
 62
     0
 66
     1
 10
0.0
 20
0.0
 30
0.0
 40
0.15
 41
0.15
  0
VERTEX
  5
32B5E
  8
0
  6
BYBLOCK
 62
     0
 10
-0.5
 20
-0.5
 30
0.0
  0
VERTEX
  5
32B5F
  8
0
  6
BYBLOCK
 62
     0
 10
0.5
 20
0.5
 30
0.0
  0
SEQEND
  5
32B60
  8
0
  6
BYBLOCK
 62
     0
  0
ENDBLK
  5
15A
  8
0
  0
BLOCK
  8
0
  2
_OPEN30
 70
     0
 10
0.0
 20
0.0
 30
0.0
  3
_OPEN30
  1

  0
LINE
  5
15C
  8
0
  6
BYBLOCK
 62
     0
 10
-1.0
 20
0.26794919
 30
0.0
 11
0.0
 21
0.0
 31
0.0
  0
LINE
  5
15D
  8
0
  6
BYBLOCK
 62
     0
 10
0.0
 20
0.0
 30
0.0
 11
-1.0
 21
-0.26794919
 31
0.0
  0
LINE
  5
15E
  8
0
  6
BYBLOCK
 62
     0
 10
0.0
 20
0.0
 30
0.0
 11
-1.0
 21
0.0
 31
0.0
  0
ENDBLK
  5
160
  8
0
  0
BLOCK
  8
0
  2
ISO_A2_TITLE_BLOCK
 70
     2
 10
0.0
 20
0.0
 30
0.0
  3
ISO_A2_TITLE_BLOCK
  1

  0
LINE
  5
BDD
  8
FRAME_050
 10
299.5
 20
12.5
 30
0.0
 11
297.0
 21
7.5
 31
0.0
  0
LINE
  5
BDE
  8
FRAME_050
 10
294.5
 20
12.5
 30
0.0
 11
299.5
 21
12.5
 31
0.0
  0
LINE
  5
BDF
  8
FRAME_050
 10
247.0
 20
5.0
 30
0.0
 11
347.0
 21
5.0
 31
0.0
  0
LINE
  5
BE0
  8
FRAME_070
 10
584.0
 20
410.0
 30
0.0
 11
10.0
 21
410.0
 31
0.0
  0
LINE
  5
BE1
  8
FRAME_070
 10
10.0
 20
10.0
 30
0.0
 11
584.0
 21
10.0
 31
0.0
  0
LINE
  5
BE2
  8
FRAME_050
 10
12.5
 20
207.5
 30
0.0
 11
7.5
 21
210.0
 31
0.0
  0
LINE
  5
BE3
  8
FRAME_050
 10
12.5
 20
212.5
 30
0.0
 11
12.5
 21
207.5
 31
0.0
  0
LINE
  5
BE4
  8
FRAME_070
 10
10.0
 20
410.0
 30
0.0
 11
10.0
 21
10.0
 31
0.0
  0
LINE
  5
BE5
  8
FRAME_200
 10
0.0
 20
0.0
 30
0.0
 11
0.0
 21
10.0
 31
0.0
  0
LINE
  5
BE6
  8
FRAME_200
 10
0.0
 20
0.0
 30
0.0
 11
10.0
 21
0.0
 31
0.0
  0
TEXT
  5
BE7
  8
FRAME_050
 10
5.9000000000000004
 20
35.0
 30
0.0
 40
4.0
  1
H
  7
ISO_PROPORTIONAL
 72
     4
 11
7.5
 21
37.0
 31
0.0
  0
LINE
  5
BE8
  8
FRAME_050
 10
10.0
 20
60.0
 30
0.0
 11
5.0
 21
60.0
 31
0.0
  0
LINE
  5
BE9
  8
FRAME_050
 10
81.75
 20
5.0
 30
0.0
 11
81.75
 21
10.0
 31
0.0
  0
TEXT
  5
BEA
  8
FRAME_050
 10
44.874999999999993
 20
5.5
 30
0.0
 40
4.0
  1
1
  7
ISO_PROPORTIONAL
 72
     4
 11
45.875
 21
7.5
 31
0.0
  0
TEXT
  5
BEB
  8
FRAME_050
 10
6.0035533905932743
 20
85.0
 30
0.0
 40
4.0
  1
G
  7
ISO_PROPORTIONAL
 72
     4
 11
7.5
 21
87.0
 31
0.0
  0
LINE
  5
BEC
  8
FRAME_050
 10
10.0
 20
110.0
 30
0.0
 11
5.0
 21
110.0
 31
0.0
  0
TEXT
  5
BED
  8
FRAME_050
 10
6.0999999999999988
 20
135.0
 30
0.0
 40
4.0
  1
F
  7
ISO_PROPORTIONAL
 72
     4
 11
7.5
 21
137.0
 31
0.0
  0
LINE
  5
BEE
  8
FRAME_050
 10
10.0
 20
160.0
 30
0.0
 11
5.0
 21
160.0
 31
0.0
  0
TEXT
  5
BEF
  8
FRAME_050
 10
6.0999999999999988
 20
185.0
 30
0.0
 40
4.0
  1
E
  7
ISO_PROPORTIONAL
 72
     4
 11
7.5
 21
187.0
 31
0.0
  0
LINE
  5
BF0
  8
FRAME_050
 10
153.5
 20
5.0
 30
0.0
 11
153.5
 21
10.0
 31
0.0
  0
TEXT
  5
BF1
  8
FRAME_050
 10
116.1556692913386
 20
5.3996062992125982
 30
0.0
 40
4.0
  1
2
  7
ISO_PROPORTIONAL
 72
     4
 11
117.625
 21
7.5
 31
0.0
  0
TEXT
  5
BF2
  8
FRAME_050
 10
187.89215728752529
 20
5.5828427124746138
 30
0.0
 40
4.0
  1
3
  7
ISO_PROPORTIONAL
 72
     4
 11
189.375
 21
7.5
 31
0.0
  0
LINE
  5
BF3
  8
FRAME_050
 10
225.25
 20
5.0
 30
0.0
 11
225.25
 21
10.0
 31
0.0
  0
LINE
  5
BF4
  8
FRAME_050
 10
297.0
 20
7.5
 30
0.0
 11
294.5
 21
12.5
 31
0.0
  0
LINE
  5
BF5
  8
FRAME_050
 10
287.0
 20
5.0
 30
0.0
 11
287.0
 21
10.0
 31
0.0
  0
LINE
  5
BF6
  8
FRAME_050
 10
277.0
 20
5.0
 30
0.0
 11
277.0
 21
10.0
 31
0.0
  0
LINE
  5
BF7
  8
FRAME_050
 10
267.0
 20
5.0
 30
0.0
 11
267.0
 21
10.0
 31
0.0
  0
LINE
  5
BF8
  8
FRAME_050
 10
257.0
 20
5.0
 30
0.0
 11
257.0
 21
10.0
 31
0.0
  0
LINE
  5
BF9
  8
FRAME_050
 10
247.0
 20
5.0
 30
0.0
 11
247.0
 21
10.0
 31
0.0
  0
LINE
  5
BFA
  8
FRAME_050
 10
297.0
 20
10.0
 30
0.0
 11
297.0
 21
5.0
 31
0.0
  0
LINE
  5
BFB
  8
FRAME_050
 10
297.0
 20
10.0
 30
0.0
 11
297.0
 21
15.0
 31
0.0
  0
LINE
  5
BFC
  8
FRAME_050
 10
5.0
 20
210.0
 30
0.0
 11
15.0
 21
210.0
 31
0.0
  0
LINE
  5
BFD
  8
FRAME_050
 10
7.5
 20
210.0
 30
0.0
 11
12.5
 21
212.5
 31
0.0
  0
TEXT
  5
BFE
  8
FRAME_050
 10
5.7860912703473977
 20
235.0
 30
0.0
 40
4.0
  1
D
  7
ISO_PROPORTIONAL
 72
     4
 11
7.5
 21
237.0
 31
0.0
  0
LINE
  5
BFF
  8
FRAME_050
 10
10.0
 20
260.0
 30
0.0
 11
5.0
 21
260.0
 31
0.0
  0
TEXT
  5
C00
  8
FRAME_050
 10
6.1931980515339466
 20
285.0
 30
0.0
 40
4.0
  1
C
  7
ISO_PROPORTIONAL
 72
     4
 11
7.5
 21
287.0
 31
0.0
  0
LINE
  5
C01
  8
FRAME_050
 10
10.0
 20
310.0
 30
0.0
 11
5.0
 21
310.0
 31
0.0
  0
TEXT
  5
C02
  8
FRAME_050
 10
5.8999999999999959
 20
335.0
 30
0.0
 40
4.0
  1
B
  7
ISO_PROPORTIONAL
 72
     4
 11
7.5
 21
337.0
 31
0.0
  0
LINE
  5
C03
  8
FRAME_050
 10
10.0
 20
360.0
 30
0.0
 11
5.0
 21
360.0
 31
0.0
  0
TEXT
  5
C04
  8
FRAME_050
 10
5.6999999999999993
 20
385.0
 30
0.0
 40
4.0
  1
A
  7
ISO_PROPORTIONAL
 72
     4
 11
7.5
 21
387.0
 31
0.0
  0
LINE
  5
C05
  8
FRAME_200
 10
10.0
 20
420.0
 30
0.0
 11
0.0
 21
420.0
 31
0.0
  0
LINE
  5
C06
  8
FRAME_200
 10
0.0
 20
420.0
 30
0.0
 11
0.0
 21
410.0
 31
0.0
  0
TEXT
  5
C07
  8
FRAME_050
 10
44.874999999999993
 20
410.5
 30
0.0
 40
4.0
  1
1
  7
ISO_PROPORTIONAL
 72
     4
 11
45.875
 21
412.5
 31
0.0
  0
LINE
  5
C08
  8
FRAME_050
 10
81.75
 20
410.0
 30
0.0
 11
81.75
 21
415.0
 31
0.0
  0
TEXT
  5
C09
  8
FRAME_050
 10
116.1556692913386
 20
410.39960629921262
 30
0.0
 40
4.0
  1
2
  7
ISO_PROPORTIONAL
 72
     4
 11
117.625
 21
412.5
 31
0.0
  0
LINE
  5
C0A
  8
FRAME_050
 10
153.5
 20
410.0
 30
0.0
 11
153.5
 21
415.0
 31
0.0
  0
TEXT
  5
C0B
  8
FRAME_050
 10
187.89215728752529
 20
410.58284271247459
 30
0.0
 40
4.0
  1
3
  7
ISO_PROPORTIONAL
 72
     4
 11
189.375
 21
412.5
 31
0.0
  0
LINE
  5
C0C
  8
FRAME_050
 10
297.0
 20
405.0
 30
0.0
 11
297.0
 21
415.0
 31
0.0
  0
LINE
  5
C0D
  8
FRAME_050
 10
225.25
 20
410.0
 30
0.0
 11
225.25
 21
415.0
 31
0.0
  0
TEXT
  5
C0E
  8
FRAME_050
 10
259.52499999999998
 20
410.5
 30
0.0
 40
4.0
  1
4
  7
ISO_PROPORTIONAL
 72
     4
 11
261.125
 21
412.5
 31
0.0
  0
LINE
  5
C0F
  8
FRAME_070
 10
584.0
 20
10.0
 30
0.0
 11
584.0
 21
410.0
 31
0.0
  0
ATTDEF
  5
C10
  8
FRAME_025
 10
473.0
 20
31.75
 30
0.0
 40
2.5
  1
XXX - 00/00/00
  7
ISO_PROPORTIONAL
 11
473.0
 21
33.0
 31
0.0
  3
Approved by - Date
  2
APPROVED_BY_DATE
 70
     8
 74
     2
  0
TEXT
  5
C11
  8
FRAME_025
 10
448.0
 20
41.749999999999993
 30
0.0
 40
2.5
  1
Title/Name, designation, material, dimension etc
  7
ISO_PROPORTIONAL
 11
448.0
 21
43.0
 31
0.0
 73
     2
  0
TEXT
  5
C12
  8
FRAME_025
 10
473.0
 20
35.75
 30
0.0
 40
2.5
  1
Approved by - date
  7
ISO_PROPORTIONAL
 11
473.0
 21
37.0
 31
0.0
 73
     2
  0
LINE
  5
C13
  8
FRAME_070
 10
414.0
 20
46.0
 30
0.0
 11
584.0
 21
46.0
 31
0.0
  0
LINE
  5
C14
  8
FRAME_070
 10
414.0
 20
40.0
 30
0.0
 11
584.0
 21
40.0
 31
0.0
  0
LINE
  5
C15
  8
FRAME_070
 10
414.0
 20
30.0
 30
0.0
 11
584.0
 21
30.0
 31
0.0
  0
LINE
  5
C16
  8
FRAME_050
 10
368.75
 20
5.0
 30
0.0
 11
368.75
 21
10.0
 31
0.0
  0
LINE
  5
C17
  8
FRAME_050
 10
337.0
 20
5.0
 30
0.0
 11
337.0
 21
10.0
 31
0.0
  0
LINE
  5
C18
  8
FRAME_050
 10
327.0
 20
5.0
 30
0.0
 11
327.0
 21
10.0
 31
0.0
  0
LINE
  5
C19
  8
FRAME_050
 10
317.0
 20
5.0
 30
0.0
 11
317.0
 21
10.0
 31
0.0
  0
LINE
  5
C1A
  8
FRAME_050
 10
307.0
 20
5.0
 30
0.0
 11
307.0
 21
10.0
 31
0.0
  0
LINE
  5
C1B
  8
FRAME_050
 10
347.0
 20
5.0
 30
0.0
 11
347.0
 21
10.0
 31
0.0
  0
LINE
  5
C1C
  8
FRAME_050
 10
440.5
 20
5.0
 30
0.0
 11
440.5
 21
10.0
 31
0.0
  0
TEXT
  5
C1D
  8
FRAME_050
 10
403.24547244094481
 20
5.4102362204724406
 30
0.0
 40
4.0
  1
6
  7
ISO_PROPORTIONAL
 72
     4
 11
404.62499999999989
 21
7.5
 31
0.0
  0
TEXT
  5
C1E
  8
FRAME_050
 10
474.97500000000002
 20
5.5
 30
0.0
 40
4.0
  1
7
  7
ISO_PROPORTIONAL
 72
     4
 11
476.37499999999989
 21
7.5
 31
0.0
  0
TEXT
  5
C1F
  8
FRAME_025
 10
431.0
 20
41.749999999999993
 30
0.0
 40
2.5
  1
Quantity
  7
ISO_PROPORTIONAL
 11
431.0
 21
43.0
 31
0.0
 73
     2
  0
TEXT
  5
C20
  8
FRAME_025
 10
416.0
 20
41.749999999999993
 30
0.0
 40
2.5
  1
Itemref
  7
ISO_PROPORTIONAL
 11
416.0
 21
43.0
 31
0.0
 73
     2
  0
LINE
  5
C21
  8
FRAME_070
 10
414.0
 20
40.0
 30
0.0
 11
414.0
 21
46.0
 31
0.0
  0
LINE
  5
C22
  8
FRAME_070
 10
429.0
 20
40.0
 30
0.0
 11
429.0
 21
46.0
 31
0.0
  0
LINE
  5
C23
  8
FRAME_070
 10
414.0
 20
10.0
 30
0.0
 11
414.0
 21
40.0
 31
0.0
  0
ATTDEF
  5
C24
  8
FRAME_025
 10
416.0
 20
31.75
 30
0.0
 40
2.5
  1
XXX
  7
ISO_PROPORTIONAL
 11
416.0
 21
33.0
 31
0.0
  3
Designed by
  2
DESIGNED_BY
 70
     8
 74
     2
  0
TEXT
  5
C25
  8
FRAME_025
 10
416.0
 20
35.75
 30
0.0
 40
2.5
  1
Designed by
  7
ISO_PROPORTIONAL
 11
416.0
 21
37.0
 31
0.0
 73
     2
  0
LINE
  5
C26
  8
FRAME_070
 10
446.0
 20
40.0
 30
0.0
 11
446.0
 21
46.0
 31
0.0
  0
ATTDEF
  5
C27
  8
FRAME_025
 10
448.0
 20
31.75
 30
0.0
 40
2.5
  1
XXX
  7
ISO_PROPORTIONAL
 11
448.0
 21
33.0
 31
0.0
  3
Checked by
  2
CHECKED_BY
 70
     8
 74
     2
  0
TEXT
  5
C28
  8
FRAME_025
 10
448.0
 20
35.75
 30
0.0
 40
2.5
  1
Checked by
  7
ISO_PROPORTIONAL
 11
448.0
 21
37.0
 31
0.0
 73
     2
  0
ATTDEF
  5
C29
  8
FRAME_050
 10
444.74999999999989
 20
17.5
 30
0.0
 40
5.0
  1
XXX
  7
ISO_PROPORTIONAL
 72
     4
 11
451.49999999999989
 21
20.0
 31
0.0
  3
Owner
  2
OWNER
 70
     8
  0
LINE
  5
C2A
  8
FRAME_070
 10
446.0
 20
30.0
 30
0.0
 11
446.0
 21
40.0
 31
0.0
  0
LINE
  5
C2B
  8
FRAME_070
 10
471.0
 20
30.0
 30
0.0
 11
471.0
 21
40.0
 31
0.0
  0
LINE
  5
C2C
  8
FRAME_070
 10
489.0
 20
20.0
 30
0.0
 11
584.0
 21
20.0
 31
0.0
  0
LINE
  5
C2D
  8
FRAME_050
 10
512.25
 20
5.0
 30
0.0
 11
512.25
 21
10.0
 31
0.0
  0
TEXT
  5
C2E
  8
FRAME_050
 10
546.72499999999991
 20
5.5
 30
0.0
 40
4.0
  1
8
  7
ISO_PROPORTIONAL
 72
     4
 11
548.125
 21
7.5
 31
0.0
  0
ATTDEF
  5
C2F
  8
FRAME_050
 10
517.64999999999986
 20
13.5
 30
0.0
 40
3.0
  1
X
  7
ISO_PROPORTIONAL
 72
     4
 11
519.0
 21
15.0
 31
0.0
  3
Drawing number
  2
DRAWING_NUMBER
 70
     8
  0
ATTDEF
  5
C30
  8
FRAME_050
 10
529.75
 20
22.5
 30
0.0
 40
5.0
  1
XXX
  7
ISO_PROPORTIONAL
 72
     4
 11
536.5
 21
25.0
 31
0.0
  3
Title / Name
  2
TITLE
 70
     8
  0
LINE
  5
C31
  8
FRAME_070
 10
489.0
 20
10.0
 30
0.0
 11
489.0
 21
30.0
 31
0.0
  0
ATTDEF
  5
C32
  8
FRAME_025
 10
511.0
 20
31.75
 30
0.0
 40
2.5
  1
XXX
  7
ISO_PROPORTIONAL
 11
511.0
 21
33.0
 31
0.0
  3
Filename
  2
FILENAME
 70
     8
 74
     2
  0
TEXT
  5
C33
  8
FRAME_025
 10
511.0
 20
35.75
 30
0.0
 40
2.5
  1
Filename
  7
ISO_PROPORTIONAL
 11
511.0
 21
37.0
 31
0.0
 73
     2
  0
LINE
  5
C34
  8
FRAME_070
 10
509.0
 20
30.0
 30
0.0
 11
509.0
 21
40.0
 31
0.0
  0
TEXT
  5
C35
  8
FRAME_025
 10
536.0
 20
41.749999999999993
 30
0.0
 40
2.5
  1
Article No./Reference
  7
ISO_PROPORTIONAL
 11
536.0
 21
43.0
 31
0.0
 73
     2
  0
LINE
  5
C36
  8
FRAME_070
 10
534.0
 20
40.0
 30
0.0
 11
534.0
 21
46.0
 31
0.0
  0
ATTDEF
  5
C37
  8
FRAME_025
 10
551.0
 20
11.75
 30
0.0
 40
2.5
  1
0
  7
ISO_PROPORTIONAL
 11
551.0
 21
13.0
 31
0.0
  3
Edition
  2
EDITION
 70
     8
 74
     2
  0
TEXT
  5
C38
  8
FRAME_025
 10
551.0
 20
15.75
 30
0.0
 40
2.5
  1
Edition
  7
ISO_PROPORTIONAL
 11
551.0
 21
17.0
 31
0.0
 73
     2
  0
LINE
  5
C39
  8
FRAME_070
 10
549.0
 20
10.0
 30
0.0
 11
549.0
 21
20.0
 31
0.0
  0
ATTDEF
  5
C3A
  8
FRAME_025
 10
536.0
 20
31.75
 30
0.0
 40
2.5
  1
00/00/00
  7
ISO_PROPORTIONAL
 11
536.0
 21
33.0
 31
0.0
  3
Date
  2
DATE
 70
     8
 74
     2
  0
TEXT
  5
C3B
  8
FRAME_025
 10
536.0
 20
35.75
 30
0.0
 40
2.5
  1
Date
  7
ISO_PROPORTIONAL
 11
536.0
 21
37.0
 31
0.0
 73
     2
  0
LINE
  5
C3C
  8
FRAME_070
 10
534.0
 20
30.0
 30
0.0
 11
534.0
 21
40.0
 31
0.0
  0
ATTDEF
  5
C3D
  8
FRAME_025
 10
566.0
 20
11.75
 30
0.0
 40
2.5
  1
1/1
  7
ISO_PROPORTIONAL
 11
566.0
 21
13.0
 31
0.0
  3
Sheet
  2
SHEET
 70
     8
 74
     2
  0
TEXT
  5
C3E
  8
FRAME_025
 10
566.0
 20
15.75
 30
0.0
 40
2.5
  1
Sheet
  7
ISO_PROPORTIONAL
 11
566.0
 21
17.0
 31
0.0
 73
     2
  0
LINE
  5
C3F
  8
FRAME_070
 10
564.0
 20
10.0
 30
0.0
 11
564.0
 21
20.0
 31
0.0
  0
ATTDEF
  5
C40
  8
FRAME_025
 10
566.0
 20
31.75
 30
0.0
 40
2.5
  1
1:1
  7
ISO_PROPORTIONAL
 11
566.0
 21
33.0
 31
0.0
  3
Scale
  2
SCALE
 70
     8
 74
     2
  0
TEXT
  5
C41
  8
FRAME_025
 10
566.0
 20
35.75
 30
0.0
 40
2.5
  1
Scale
  7
ISO_PROPORTIONAL
 11
566.0
 21
37.0
 31
0.0
 73
     2
  0
LINE
  5
C42
  8
FRAME_070
 10
564.0
 20
30.0
 30
0.0
 11
564.0
 21
40.0
 31
0.0
  0
LINE
  5
C43
  8
FRAME_200
 10
594.0
 20
0.0
 30
0.0
 11
594.0
 21
10.0
 31
0.0
  0
LINE
  5
C44
  8
FRAME_200
 10
594.0
 20
0.0
 30
0.0
 11
584.0
 21
0.0
 31
0.0
  0
TEXT
  5
C45
  8
FRAME_050
 10
584.89999999999998
 20
35.0
 30
0.0
 40
4.0
  1
H
  7
ISO_PROPORTIONAL
 72
     4
 11
586.5
 21
37.0
 31
0.0
  0
LINE
  5
C46
  8
FRAME_050
 10
589.0
 20
60.0
 30
0.0
 11
584.0
 21
60.0
 31
0.0
  0
TEXT
  5
C47
  8
FRAME_050
 10
585.0035533905932
 20
85.0
 30
0.0
 40
4.0
  1
G
  7
ISO_PROPORTIONAL
 72
     4
 11
586.5
 21
87.0
 31
0.0
  0
LINE
  5
C48
  8
FRAME_050
 10
589.0
 20
110.0
 30
0.0
 11
584.0
 21
110.0
 31
0.0
  0
TEXT
  5
C49
  8
FRAME_050
 10
585.09999999999991
 20
135.0
 30
0.0
 40
4.0
  1
F
  7
ISO_PROPORTIONAL
 72
     4
 11
586.5
 21
137.0
 31
0.0
  0
LINE
  5
C4A
  8
FRAME_050
 10
589.0
 20
160.0
 30
0.0
 11
584.0
 21
160.0
 31
0.0
  0
TEXT
  5
C4B
  8
FRAME_050
 10
585.09999999999991
 20
185.0
 30
0.0
 40
4.0
  1
E
  7
ISO_PROPORTIONAL
 72
     4
 11
586.5
 21
187.0
 31
0.0
  0
LINE
  5
C4C
  8
FRAME_070
 10
414.0
 20
404.0
 30
0.0
 11
584.0
 21
404.0
 31
0.0
  0
TEXT
  5
C4D
  8
FRAME_050
 10
331.39215728752538
 20
410.58284271247459
 30
0.0
 40
4.0
  1
5
  7
ISO_PROPORTIONAL
 72
     4
 11
332.875
 21
412.5
 31
0.0
  0
LINE
  5
C4E
  8
FRAME_050
 10
368.75
 20
410.0
 30
0.0
 11
368.75
 21
415.0
 31
0.0
  0
TEXT
  5
C4F
  8
FRAME_025
 10
428.0
 20
405.75
 30
0.0
 40
2.5
  1
Revision note
  7
ISO_PROPORTIONAL
 11
428.0
 21
407.0
 31
0.0
 73
     2
  0
TEXT
  5
C50
  8
FRAME_025
 10
416.0
 20
405.75
 30
0.0
 40
2.5
  1
RevNo
  7
ISO_PROPORTIONAL
 11
416.0
 21
407.0
 31
0.0
 73
     2
  0
LINE
  5
C51
  8
FRAME_070
 10
426.0
 20
404.0
 30
0.0
 11
426.0
 21
410.0
 31
0.0
  0
LINE
  5
C52
  8
FRAME_070
 10
414.0
 20
404.0
 30
0.0
 11
414.0
 21
410.0
 31
0.0
  0
TEXT
  5
C53
  8
FRAME_050
 10
403.24547244094481
 20
410.41023622047243
 30
0.0
 40
4.0
  1
6
  7
ISO_PROPORTIONAL
 72
     4
 11
404.62499999999989
 21
412.5
 31
0.0
  0
LINE
  5
C54
  8
FRAME_050
 10
440.5
 20
410.0
 30
0.0
 11
440.5
 21
415.0
 31
0.0
  0
TEXT
  5
C55
  8
FRAME_050
 10
474.97500000000002
 20
410.5
 30
0.0
 40
4.0
  1
7
  7
ISO_PROPORTIONAL
 72
     4
 11
476.37499999999989
 21
412.5
 31
0.0
  0
LINE
  5
C56
  8
FRAME_050
 10
579.0
 20
210.0
 30
0.0
 11
589.0
 21
210.0
 31
0.0
  0
TEXT
  5
C57
  8
FRAME_050
 10
584.78609127034736
 20
235.0
 30
0.0
 40
4.0
  1
D
  7
ISO_PROPORTIONAL
 72
     4
 11
586.5
 21
237.0
 31
0.0
  0
LINE
  5
C58
  8
FRAME_050
 10
589.0
 20
260.0
 30
0.0
 11
584.0
 21
260.0
 31
0.0
  0
TEXT
  5
C59
  8
FRAME_050
 10
585.19319805153395
 20
285.0
 30
0.0
 40
4.0
  1
C
  7
ISO_PROPORTIONAL
 72
     4
 11
586.5
 21
287.0
 31
0.0
  0
LINE
  5
C5A
  8
FRAME_050
 10
589.0
 20
310.0
 30
0.0
 11
584.0
 21
310.0
 31
0.0
  0
TEXT
  5
C5B
  8
FRAME_050
 10
584.89999999999998
 20
335.0
 30
0.0
 40
4.0
  1
B
  7
ISO_PROPORTIONAL
 72
     4
 11
586.5
 21
337.0
 31
0.0
  0
TEXT
  5
C5C
  8
FRAME_025
 10
571.08299391850551
 20
405.75
 30
0.0
 40
2.5
  1
Checked
  7
ISO_PROPORTIONAL
 11
571.08299391850551
 21
407.0
 31
0.0
 73
     2
  0
TEXT
  5
C5D
  8
FRAME_025
 10
555.36099797283532
 20
405.75
 30
0.0
 40
2.5
  1
Signature
  7
ISO_PROPORTIONAL
 11
555.36099797283532
 21
407.0
 31
0.0
 73
     2
  0
TEXT
  5
C5E
  8
FRAME_025
 10
537.0
 20
405.75
 30
0.0
 40
2.5
  1
Date
  7
ISO_PROPORTIONAL
 11
537.0
 21
407.0
 31
0.0
 73
     2
  0
LINE
  5
C5F
  8
FRAME_070
 10
570.0
 20
404.0
 30
0.0
 11
570.0
 21
410.0
 31
0.0
  0
LINE
  5
C60
  8
FRAME_070
 10
555.0
 20
404.0
 30
0.0
 11
555.0
 21
410.0
 31
0.0
  0
LINE
  5
C61
  8
FRAME_070
 10
535.0
 20
404.0
 30
0.0
 11
535.0
 21
410.0
 31
0.0
  0
LINE
  5
C62
  8
FRAME_050
 10
512.25
 20
410.0
 30
0.0
 11
512.25
 21
415.0
 31
0.0
  0
TEXT
  5
C63
  8
FRAME_050
 10
546.72499999999991
 20
410.5
 30
0.0
 40
4.0
  1
8
  7
ISO_PROPORTIONAL
 72
     4
 11
548.125
 21
412.5
 31
0.0
  0
LINE
  5
C64
  8
FRAME_050
 10
589.0
 20
360.0
 30
0.0
 11
584.0
 21
360.0
 31
0.0
  0
TEXT
  5
C65
  8
FRAME_050
 10
584.70000000000005
 20
385.0
 30
0.0
 40
4.0
  1
A
  7
ISO_PROPORTIONAL
 72
     4
 11
586.5
 21
387.0
 31
0.0
  0
LINE
  5
C66
  8
FRAME_200
 10
594.0
 20
420.0
 30
0.0
 11
584.0
 21
420.0
 31
0.0
  0
LINE
  5
C67
  8
FRAME_200
 10
594.0
 20
410.0
 30
0.0
 11
594.0
 21
420.0
 31
0.0
  0
ENDBLK
  5
C69
  8
0
  0
BLOCK
  8
0
  2
WOBB001END
 70
     0
 10
0.0
 20
0.0
 30
0.0
  3
WOBB001END
  1

  0
LINE
  5
4D66
  8
0
  6
CONTINUOUS
 10
0.0
 20
0.0
 30
0.0
 11
0.8749999999999998
 21
0.0
 31
0.0
  0
ARC
  5
4D67
  8
0
  6
CONTINUOUS
 10
0.0331648379439287
 20
-0.5087238935900232
 30
0.0
 40
0.8790130605592325
 50
284.06490243660443
 51
312.19222981924361
  0
ARC
  5
4D68
  8
0
  6
CONTINUOUS
 10
0.2841534338796767
 20
-1.510548310625538
 30
0.0
 40
0.1537731892806598
 50
104.0649024366044
 51
179.4721730735024
  0
LINE
  5
4D69
  8
0
  6
CONTINUOUS
 10
0.0
 20
0.0
 30
0.0
 11
-0.0000000000000003
 21
-1.7501564476661919
 31
0.0
  0
ARC
  5
4D6A
  8
0
  6
CONTINUOUS
 10
0.1404622019506122
 20
-1.6303137183546199
 30
0.0
 40
0.1198427293115722
 50
275.0
 51
85.000000000000057
  0
LINE
  5
4D6B
  8
0
  6
CONTINUOUS
 10
-0.0000000000000003
 20
-1.7501564476661919
 30
0.0
 11
0.1456946485130855
 21
-1.7501564476661919
 31
0.0
  0
LINE
  5
4D6C
  8
0
  6
CONTINUOUS
 10
0.1377603739254348
 20
-1.7508506067459131
 30
0.0
 11
0.150907184036669
 21
-1.749700409899652
 31
0.0
  0
LINE
  5
4D6D
  8
0
  6
CONTINUOUS
 10
0.1303867696719884
 20
-1.5091317231818231
 30
0.0
 11
0.1509071840366689
 21
-1.5109270268095869
 31
0.0
  0
LINE
  5
4D6E
  8
0
  6
CONTINUOUS
 10
0.8749999999999998
 20
0.0
 30
0.0
 11
0.8749999999999996
 21
-0.8649327026588228
 31
0.0
  0
LINE
  5
4D6F
  8
0
  6
CONTINUOUS
 10
0.727014513830997
 20
-0.8726882933550612
 30
0.0
 11
0.727014513830997
 21
-0.9264923397184784
 31
0.0
  0
ARC
  5
4D70
  8
0
  6
CONTINUOUS
 10
0.41187090827646
 20
-0.9264923397184784
 30
0.0
 40
0.315143605554537
 50
312.19222981924361
 51
0.0
  0
LINE
  5
4D71
  8
0
  6
CONTINUOUS
 10
0.727014513830997
 20
-0.8726882933550612
 30
0.0
 11
0.8749999999999996
 21
-0.8649327026588228
 31
0.0
  0
ENDBLK
  5
4D72
  8
0
  0
BLOCK
  8
0
  2
A$C0A61123B
 70
     0
 10
0.0
 20
0.0
 30
0.0
  3
A$C0A61123B
  1

  0
LINE
  5
C0AD
  8
PROF
  6
CONTINUOUS
 10
4.9012016798694162
 20
13.325025853350891
 30
0.0000000000000002
 11
4.9012016798694162
 21
12.88585218805485
 31
0.0000000000000003
  0
INSERT
  5
C0AE
  8
0
  2
*U52
 10
0.0
 20
0.0
 30
0.0
  0
LINE
  5
C0AF
  8
PROF
 10
4.5198575031869259
 20
12.72227734589444
 30
0.0000000000000001
 11
4.5198575031869259
 21
12.88585218805485
 31
0.0000000000000001
  0
LINE
  5
C0B0
  8
PROF
  6
CONTINUOUS
 10
3.6306271195888371
 20
13.325025853350891
 30
0.0000000000000002
 11
4.9012016798694162
 21
13.325025853350891
 31
0.0000000000000002
  0
LINE
  5
C0B1
  8
PROF
 10
1.9750295148747341
 20
10.37671325491794
 30
0.0000000000000002
 11
1.9750295148747341
 21
10.11391186758919
 31
0.0000000000000002
  0
LINE
  5
C0B2
  8
PROF
 10
1.607967335755631
 20
10.11391186758919
 30
0.0000000000000001
 11
1.9750295148747341
 21
10.11391186758919
 31
0.0000000000000001
  0
LINE
  5
C0B3
  8
PROF
 10
1.9750295148747341
 20
10.11391186758919
 30
0.0000000000000001
 11
1.944958486898144
 21
10.11391186758919
 31
0.0000000000000001
  0
LINE
  5
C0B4
  8
PROF
 10
1.9750295148747341
 20
10.11391186758919
 30
0.0000000000000001
 11
1.944958486898144
 21
10.11391186758919
 31
0.0000000000000001
  0
LINE
  5
C0B5
  8
PROF
 10
0.3222605517169654
 20
7.5247473351056442
 30
-0.0000000000000002
 11
-0.0000008570117416
 21
7.5247473351056442
 31
0.0
  0
LINE
  5
C0B6
  8
PROF
 10
-0.0000008570117416
 20
7.5247473351056442
 30
0.0
 11
-0.0000008570117416
 21
9.1943336957369866
 31
0.0
  0
POLYLINE
  5
C0B7
  8
PROF
 66
     1
 10
0.0
 20
0.0
 30
0.0000000000000001
 70
     4
 75
     6
  0
VERTEX
  5
C0B8
  8
PROF
 10
1.607967335755631
 20
10.11391186758919
 30
0.0000000000000001
 70
    16
  0
VERTEX
  5
C0B9
  8
PROF
 10
1.607967335755631
 20
10.11391186758919
 30
0.0000000000000001
 70
     8
  0
VERTEX
  5
C0BA
  8
PROF
 10
1.646813232648582
 20
10.02198069336111
 30
0.0000000000000001
 70
     8
  0
VERTEX
  5
C0BB
  8
PROF
 10
1.67335966680929
 20
9.9344134163010267
 30
0.0000000000000001
 70
     8
  0
VERTEX
  5
C0BC
  8
PROF
 10
1.689008640046324
 20
9.8512576644480987
 30
0.0000000000000001
 70
     8
  0
VERTEX
  5
C0BD
  8
PROF
 10
1.695162154168258
 20
9.7725610658417281
 30
0.0000000000000001
 70
     8
  0
VERTEX
  5
C0BE
  8
PROF
 10
1.6932222109836059
 20
9.6983712485214255
 30
0.0000000000000001
 70
     8
  0
VERTEX
  5
C0BF
  8
PROF
 10
1.6845908123009961
 20
9.6287358405263603
 30
0.0000000000000001
 70
     8
  0
VERTEX
  5
C0C0
  8
PROF
 10
1.6706699599288859
 20
9.5637024698960431
 30
0.0000000000000001
 70
     8
  0
VERTEX
  5
C0C1
  8
PROF
 10
1.6528616556759621
 20
9.503318764669757
 30
0.0000000000000001
 70
     8
  0
VERTEX
  5
C0C2
  8
PROF
 10
1.6323562992730549
 20
9.4475843259650674
 30
0.0000000000000001
 70
     8
  0
VERTEX
  5
C0C3
  8
PROF
 10
1.609497882140658
 20
9.3963066472123273
 30
0.0000000000000001
 70
     8
  0
VERTEX
  5
C0C4
  8
PROF
 10
1.584418793621637
 20
9.3492451949202842
 30
0.0000000000000001
 70
     8
  0
VERTEX
  5
C0C5
  8
PROF
 10
1.557251423058744
 20
9.3061594355972375
 30
0.0000000000000001
 70
     8
  0
VERTEX
  5
C0C6
  8
PROF
 10
1.5281281597949601
 20
9.2668088357519292
 30
0.0000000000000001
 70
     8
  0
VERTEX
  5
C0C7
  8
PROF
 10
1.4971813931729789
 20
9.2309528618930017
 30
0.0000000000000001
 70
     8
  0
VERTEX
  5
C0C8
  8
PROF
 10
1.464543512535726
 20
9.1983509805288577
 30
0.0000000000000001
 70
     8
  0
VERTEX
  5
C0C9
  8
PROF
 10
1.4303469072260091
 20
9.1687626581682462
 30
0.0000000000000001
 70
     8
  0
VERTEX
  5
C0CA
  8
PROF
 10
1.3947360332574019
 20
9.1419547918675335
 30
0.0000000000000001
 70
     8
  0
VERTEX
  5
C0CB
  8
PROF
 10
1.3579036133264131
 20
9.1177240008747731
 30
0.0000000000000001
 70
     8
  0
VERTEX
  5
C0CC
  8
PROF
 10
1.3200544368004321
 20
9.0958743349860924
 30
0.0000000000000001
 70
     8
  0
VERTEX
  5
C0CD
  8
PROF
 10
1.281393293046676
 20
9.0762098439975034
 30
0.0000000000000001
 70
     8
  0
VERTEX
  5
C0CE
  8
PROF
 10
1.242124971432417
 20
9.0585345777049042
 30
0.0000000000000001
 70
     8
  0
VERTEX
  5
C0CF
  8
PROF
 10
1.2024542613249869
 20
9.0426525859044204
 30
0.0000000000000001
 70
     8
  0
VERTEX
  5
C0D0
  8
PROF
 10
1.1625859520916599
 20
9.0283679183919503
 30
0.0000000000000001
 70
     8
  0
VERTEX
  5
C0D1
  8
PROF
 10
1.1227248330997091
 20
9.0154846249635057
 30
0.0000000000000001
 70
     8
  0
VERTEX
  5
C0D2
  8
PROF
 10
1.0829726247361
 20
9.0034643862466055
 30
0.0000000000000001
 70
     8
  0
VERTEX
  5
C0D3
  8
PROF
 10
1.043018771466222
 20
8.9903994061946833
 30
0.0000000000000001
 70
     8
  0
VERTEX
  5
C0D4
  8
PROF
 10
1.002449648775211
 20
8.9740395195925657
 30
0.0000000000000001
 70
     8
  0
VERTEX
  5
C0D5
  8
PROF
 10
0.9608516321480919
 20
8.9521345612251935
 30
0.0000000000000001
 70
     8
  0
VERTEX
  5
C0D6
  8
PROF
 10
0.9178110970699435
 20
8.9224343658775052
 30
0.0000000000000001
 70
     8
  0
VERTEX
  5
C0D7
  8
PROF
 10
0.8729144190259034
 20
8.8826887683343312
 30
0.0000000000000001
 70
     8
  0
VERTEX
  5
C0D8
  8
PROF
 10
0.8257479735009951
 20
8.8306476033806121
 30
0.0000000000000001
 70
     8
  0
VERTEX
  5
C0D9
  8
PROF
 10
0.7758981359802988
 20
8.764060705801171
 30
0.0000000000000001
 70
     8
  0
VERTEX
  5
C0DA
  8
PROF
 10
1.729201901609656
 20
9.8629858761255491
 30
0.0000000000000001
 70
    16
  0
VERTEX
  5
C0DB
  8
PROF
 10
1.6793731231140889
 20
9.4532143012734196
 30
0.0000000000000001
 70
    16
  0
VERTEX
  5
C0DC
  8
PROF
 10
1.4455611507419801
 20
9.1391837193732481
 30
0.0000000000000001
 70
    16
  0
VERTEX
  5
C0DD
  8
PROF
 10
1.120463717273821
 20
9.0026267702428413
 30
0.0000000000000001
 70
    16
  0
VERTEX
  5
C0DE
  8
PROF
 10
0.9127765582653638
 20
8.9630202230383702
 30
0.0000000000000001
 70
    16
  0
VERTEX
  5
C0DF
  8
PROF
 10
0.7758981359802988
 20
8.764060705801171
 30
0.0000000000000001
 70
    16
  0
SEQEND
  5
C0E0
  8
PROF
  0
ARC
  5
C0E1
  8
PROF
 10
0.733429816733235
 20
8.4849506952165257
 30
0.0000000000000001
 40
0.2823224329524727
 50
269.73652020831901
 51
81.348449993176914
  0
LINE
  5
C0E2
  8
PROF
  6
CONTINUOUS
 10
-0.0000008570117416
 20
9.1943336957369866
 30
-0.0000000000000001
 11
3.6306271195888371
 21
13.325025853350891
 31
0.0000000000000002
  0
POLYLINE
  5
C0E3
  8
PROF
 66
     1
 10
0.0
 20
0.0
 30
0.0000000000000001
 70
     4
 75
     6
  0
VERTEX
  5
C0E4
  8
PROF
 10
4.5198575031869259
 20
12.72227734589444
 30
0.0000000000000001
 70
    16
  0
VERTEX
  5
C0E5
  8
PROF
 10
4.5198575031869259
 20
12.72227734589444
 30
0.0000000000000001
 70
     8
  0
VERTEX
  5
C0E6
  8
PROF
 10
4.4467035366886298
 20
12.741128108778071
 30
0.0000000000000001
 70
     8
  0
VERTEX
  5
C0E7
  8
PROF
 10
4.3786645761268801
 20
12.754675269913941
 30
0.0000000000000001
 70
     8
  0
VERTEX
  5
C0E8
  8
PROF
 10
4.3154364111440477
 20
12.76334314092332
 30
0.0000000000000001
 70
     8
  0
VERTEX
  5
C0E9
  8
PROF
 10
4.256714831382566
 20
12.76755603342724
 30
0.0000000000000001
 70
     8
  0
VERTEX
  5
C0EA
  8
PROF
 10
4.2021956264849791
 20
12.76773825904672
 30
0.0000000000000001
 70
     8
  0
VERTEX
  5
C0EB
  8
PROF
 10
4.1515745860935453
 20
12.764314129403139
 30
0.0000000000000001
 70
     8
  0
VERTEX
  5
C0EC
  8
PROF
 10
4.1045474998508658
 20
12.75770795611743
 30
0.0000000000000001
 70
     8
  0
VERTEX
  5
C0ED
  8
PROF
 10
4.0608101573993158
 20
12.748344050810831
 30
0.0000000000000001
 70
     8
  0
VERTEX
  5
C0EE
  8
PROF
 10
4.0200583483813261
 20
12.736646725104491
 30
0.0000000000000001
 70
     8
  0
VERTEX
  5
C0EF
  8
PROF
 10
3.9819878624393819
 20
12.72304029061945
 30
0.0000000000000001
 70
     8
  0
VERTEX
  5
C0F0
  8
PROF
 10
3.946294489215858
 20
12.707949058976959
 30
0.0000000000000001
 70
     8
  0
VERTEX
  5
C0F1
  8
PROF
 10
3.9126740183532429
 20
12.691797341798059
 30
0.0000000000000001
 70
     8
  0
VERTEX
  5
C0F2
  8
PROF
 10
3.8808638350742508
 20
12.67494295718654
 30
0.0000000000000001
 70
     8
  0
VERTEX
  5
C0F3
  8
PROF
 10
3.850767706922738
 20
12.65747774917668
 30
0.0000000000000001
 70
     8
  0
VERTEX
  5
C0F4
  8
PROF
 10
3.8223309970228452
 20
12.639427068285499
 30
0.0000000000000001
 70
     8
  0
VERTEX
  5
C0F5
  8
PROF
 10
3.7954990684987129
 20
12.62081626503004
 30
0.0000000000000001
 70
     8
  0
VERTEX
  5
C0F6
  8
PROF
 10
3.7702172844744828
 20
12.601670689926999
 30
0.0000000000000001
 70
     8
  0
VERTEX
  5
C0F7
  8
PROF
 10
3.746431008074353
 20
12.58201569349364
 30
0.0000000000000001
 70
     8
  0
VERTEX
  5
C0F8
  8
PROF
 10
3.7240856024224618
 20
12.56187662624666
 30
0.0000000000000001
 70
     8
  0
VERTEX
  5
C0F9
  8
PROF
 10
3.7031264306428961
 20
12.541278838703191
 30
0.0000000000000001
 70
     8
  0
VERTEX
  5
C0FA
  8
PROF
 10
3.6834988558599089
 20
12.520247681380051
 30
0.0000000000000001
 70
     8
  0
VERTEX
  5
C0FB
  8
PROF
 10
3.665148241197528
 20
12.49880850479428
 30
0.0000000000000001
 70
     8
  0
VERTEX
  5
C0FC
  8
PROF
 10
3.6480199497799499
 20
12.47698665946279
 30
0.0000000000000001
 70
     8
  0
VERTEX
  5
C0FD
  8
PROF
 10
3.6320593447313172
 20
12.45480749590263
 30
0.0000000000000001
 70
     8
  0
VERTEX
  5
C0FE
  8
PROF
 10
3.6171895848866589
 20
12.43223790353807
 30
0.0000000000000001
 70
     8
  0
VERTEX
  5
C0FF
  8
PROF
 10
3.6032450119242858
 20
12.40901092742285
 30
0.0000000000000001
 70
     8
  0
VERTEX
  5
C100
  8
PROF
 10
3.590037763233453
 20
12.38480115151844
 30
0.0000000000000001
 70
     8
  0
VERTEX
  5
C101
  8
PROF
 10
3.5773799762033032
 20
12.35928315978594
 30
0.0000000000000001
 70
     8
  0
VERTEX
  5
C102
  8
PROF
 10
3.5650837882230908
 20
12.33213153618658
 30
0.0000000000000001
 70
     8
  0
VERTEX
  5
C103
  8
PROF
 10
3.5529613366819599
 20
12.303020864681571
 30
0.0000000000000001
 70
     8
  0
VERTEX
  5
C104
  8
PROF
 10
3.540824758969165
 20
12.271625729232371
 30
0.0000000000000001
 70
     8
  0
VERTEX
  5
C105
  8
PROF
 10
3.5284861924738489
 20
12.23762071379997
 30
0.0000000000000001
 70
     8
  0
VERTEX
  5
C106
  8
PROF
 10
3.5157577745852668
 20
12.200680402345711
 30
0.0000000000000001
 70
     8
  0
VERTEX
  5
C107
  8
PROF
 10
3.5024516426926189
 20
12.16047937883093
 30
0.0000000000000001
 70
     8
  0
VERTEX
  5
C108
  8
PROF
 10
3.4883799341851041
 20
12.116692227216619
 30
0.0000000000000001
 70
     8
  0
VERTEX
  5
C109
  8
PROF
 10
3.4733547864519201
 20
12.06899353146423
 30
0.0000000000000001
 70
     8
  0
VERTEX
  5
C10A
  8
PROF
 10
3.45723654619428
 20
12.0172095445447
 30
0.0000000000000001
 70
     8
  0
VERTEX
  5
C10B
  8
PROF
 10
3.4400783973613889
 20
11.961773195467799
 30
0.0000000000000001
 70
     8
  0
VERTEX
  5
C10C
  8
PROF
 10
3.421981733214579
 20
11.90326908225302
 30
0.0000000000000001
 70
     8
  0
VERTEX
  5
C10D
  8
PROF
 10
3.4030479470150108
 20
11.842281802919951
 30
0.0000000000000001
 70
     8
  0
VERTEX
  5
C10E
  8
PROF
 10
3.383378432024017
 20
11.779395955487979
 30
0.0000000000000001
 70
     8
  0
VERTEX
  5
C10F
  8
PROF
 10
3.3630745815028709
 20
11.715196137976809
 30
0.0000000000000001
 70
     8
  0
VERTEX
  5
C110
  8
PROF
 10
3.3422377887127359
 20
11.650266948405831
 30
0.0000000000000001
 70
     8
  0
VERTEX
  5
C111
  8
PROF
 10
3.320969446915
 20
11.58519298479461
 30
0.0000000000000001
 70
     8
  0
VERTEX
  5
C112
  8
PROF
 10
3.2993709493707679
 20
11.520558845162549
 30
0.0000000000000001
 70
     8
  0
VERTEX
  5
C113
  8
PROF
 10
3.277543689341428
 20
11.456949127529469
 30
0.0000000000000001
 70
     8
  0
VERTEX
  5
C114
  8
PROF
 10
3.2555890600881412
 20
11.3949484299145
 30
0.0000000000000001
 70
     8
  0
VERTEX
  5
C115
  8
PROF
 10
3.233608454872182
 20
11.335141350337491
 30
0.0000000000000001
 70
     8
  0
VERTEX
  5
C116
  8
PROF
 10
3.2116715641212181
 20
11.27799544797778
 30
0.0000000000000001
 70
     8
  0
VERTEX
  5
C117
  8
PROF
 10
3.189721266927847
 20
11.22351012665467
 30
0.0000000000000001
 70
     8
  0
VERTEX
  5
C118
  8
PROF
 10
3.1676687395512881
 20
11.17156775134765
 30
0.0000000000000001
 70
     8
  0
VERTEX
  5
C119
  8
PROF
 10
3.1454251582505321
 20
11.12205068703588
 30
0.0000000000000001
 70
     8
  0
VERTEX
  5
C11A
  8
PROF
 10
3.122901699284625
 20
11.07484129869874
 30
0.0000000000000001
 70
     8
  0
VERTEX
  5
C11B
  8
PROF
 10
3.1000095389127291
 20
11.02982195131551
 30
0.0000000000000001
 70
     8
  0
VERTEX
  5
C11C
  8
PROF
 10
3.0766598533938909
 20
10.986875009865679
 30
0.0000000000000001
 70
     8
  0
VERTEX
  5
C11D
  8
PROF
 10
3.0527638189871591
 20
10.9458828393283
 30
0.0000000000000001
 70
     8
  0
VERTEX
  5
C11E
  8
PROF
 10
3.0282326119516361
 20
10.90672780468298
 30
0.0000000000000001
 70
     8
  0
VERTEX
  5
C11F
  8
PROF
 10
3.002977408546371
 20
10.869292270908771
 30
0.0000000000000001
 70
     8
  0
VERTEX
  5
C120
  8
PROF
 10
2.9769093850304098
 20
10.833458602985161
 30
0.0000000000000001
 70
     8
  0
VERTEX
  5
C121
  8
PROF
 10
2.9499397176628568
 20
10.799109165891419
 30
0.0000000000000001
 70
     8
  0
VERTEX
  5
C122
  8
PROF
 10
2.9220006098404379
 20
10.76614363969508
 30
0.0000000000000001
 70
     8
  0
VERTEX
  5
C123
  8
PROF
 10
2.8931083735103011
 20
10.7345309648158
 30
0.0000000000000001
 70
     8
  0
VERTEX
  5
C124
  8
PROF
 10
2.8633003477572738
 20
10.70425739676193
 30
0.0000000000000001
 70
     8
  0
VERTEX
  5
C125
  8
PROF
 10
2.8326138716660689
 20
10.67530919104115
 30
0.0000000000000001
 70
     8
  0
VERTEX
  5
C126
  8
PROF
 10
2.8010862843216269
 20
10.647672603161711
 30
0.0000000000000001
 70
     8
  0
VERTEX
  5
C127
  8
PROF
 10
2.7687549248087171
 20
10.62133388863162
 30
0.0000000000000001
 70
     8
  0
VERTEX
  5
C128
  8
PROF
 10
2.735657132212054
 20
10.5962793029588
 30
0.0000000000000001
 70
     8
  0
VERTEX
  5
C129
  8
PROF
 10
2.7018302456165202
 20
10.572495101651381
 30
0.0000000000000001
 70
     8
  0
VERTEX
  5
C12A
  8
PROF
 10
2.6673116041068852
 20
10.54996754021726
 30
0.0000000000000001
 70
     8
  0
VERTEX
  5
C12B
  8
PROF
 10
2.6321385467680321
 20
10.528682874164581
 30
0.0000000000000001
 70
     8
  0
VERTEX
  5
C12C
  8
PROF
 10
2.5963484126846188
 20
10.508627359001251
 30
0.0000000000000001
 70
     8
  0
VERTEX
  5
C12D
  8
PROF
 10
2.5599785409415849
 20
10.489787250235279
 30
0.0000000000000001
 70
     8
  0
VERTEX
  5
C12E
  8
PROF
 10
2.522998630314361
 20
10.472162234281081
 30
0.0000000000000001
 70
     8
  0
VERTEX
  5
C12F
  8
PROF
 10
2.4851078183409072
 20
10.455805721177621
 30
0.0000000000000001
 70
     8
  0
VERTEX
  5
C130
  8
PROF
 10
2.4459376022498982
 20
10.44078455187036
 30
0.0000000000000001
 70
     8
  0
VERTEX
  5
C131
  8
PROF
 10
2.4051194792701258
 20
10.42716556730465
 30
0.0000000000000001
 70
     8
  0
VERTEX
  5
C132
  8
PROF
 10
2.3622849466301541
 20
10.415015608425851
 30
0.0000000000000001
 70
     8
  0
VERTEX
  5
C133
  8
PROF
 10
2.3170655015587149
 20
10.40440151617929
 30
0.0000000000000001
 70
     8
  0
VERTEX
  5
C134
  8
PROF
 10
2.2690926412844301
 20
10.395390131510339
 30
0.0000000000000001
 70
     8
  0
VERTEX
  5
C135
  8
PROF
 10
2.2179978630360888
 20
10.388048295364451
 30
0.0000000000000001
 70
     8
  0
VERTEX
  5
C136
  8
PROF
 10
2.1634126640422551
 20
10.38244284868688
 30
0.0000000000000001
 70
     8
  0
VERTEX
  5
C137
  8
PROF
 10
2.104968541531604
 20
10.37864063242295
 30
0.0000000000000001
 70
     8
  0
VERTEX
  5
C138
  8
PROF
 10
2.0422969927328718
 20
10.37670848751816
 30
0.0000000000000001
 70
     8
  0
VERTEX
  5
C139
  8
PROF
 10
1.9750295148747341
 20
10.37671325491794
 30
0.0000000000000001
 70
     8
  0
VERTEX
  5
C13A
  8
PROF
 10
4.2166060115107484
 20
12.80885334975255
 30
0.0000000000000001
 70
    16
  0
VERTEX
  5
C13B
  8
PROF
 10
3.8702254102732918
 20
12.707065515763929
 30
0.0000000000000001
 70
    16
  0
VERTEX
  5
C13C
  8
PROF
 10
3.605346156896871
 20
12.46277472098552
 30
0.0000000000000001
 70
    16
  0
VERTEX
  5
C13D
  8
PROF
 10
3.500746030527238
 20
12.170680575709749
 30
0.0000000000000001
 70
    16
  0
VERTEX
  5
C13E
  8
PROF
 10
3.231798439705698
 20
11.26846416496107
 30
0.0000000000000001
 70
    16
  0
VERTEX
  5
C13F
  8
PROF
 10
2.9737109398832891
 20
10.76631086647069
 30
0.0000000000000001
 70
    16
  0
VERTEX
  5
C140
  8
PROF
 10
2.5729961067384011
 20
10.460947364504699
 30
0.0000000000000001
 70
    16
  0
VERTEX
  5
C141
  8
PROF
 10
2.253782621454604
 20
10.372731239449759
 30
0.0000000000000001
 70
    16
  0
VERTEX
  5
C142
  8
PROF
 10
1.9750295148747341
 20
10.37671325491794
 30
0.0000000000000001
 70
    16
  0
SEQEND
  5
C143
  8
PROF
  0
LINE
  5
C144
  8
PROF
 10
4.9012016798694162
 20
12.88585218805485
 30
0.0000000000000003
 11
4.5198575031869259
 21
12.88585218805485
 31
0.0000000000000003
  0
LINE
  5
C145
  8
PROF
 10
0.7321315362267457
 20
8.2026312473991538
 30
0.0000000000000006
 11
0.7321315362267457
 21
8.0511853963434987
 31
0.0000000000000006
  0
ARC
  5
C146
  8
PROF
 10
0.7977322214551919
 20
7.5773339332026799
 30
0.0000000000000006
 40
0.4783708383912012
 50
97.882010168942529
 51
186.31119505698649
  0
LINE
  5
C147
  8
FRAME_050
 10
7.8016377197432121
 20
17.99371054969447
 30
0.0
 11
7.8016377197432121
 21
0.0000000000002274
 31
0.0
  0
ENDBLK
  5
C149
  8
0
  0
BLOCK
  8
0
  2
A$C3A7C6791
 70
     0
 10
0.0
 20
0.0
 30
0.0
  3
A$C3A7C6791
  1

  0
ARC
  5
1A561
  8
0
 10
1.0342682520551421
 20
11.169869575314801
 30
0.0
 40
0.3900479059662017
 50
183.5871702804647
 51
250.12003892297869
  0
ARC
  5
1A562
  8
0
 10
0.3331235273064408
 20
14.96835148878222
 30
0.0
 40
0.279776987736341
 50
290.26301102890392
 51
72.509116341854423
  0
ARC
  5
1A563
  8
0
 10
0.7948887850711232
 20
10.60700392177659
 30
0.0
 40
0.2232361910347119
 50
300.2914142988875
 51
61.434469032044603
  0
LINE
  5
1A564
  8
0
 10
-0.0000015027120526
 20
9.7351929270671462
 30
0.0
 11
1.0332573394856579
 21
9.7351929270671462
 31
0.0
  0
LINE
  5
1A565
  8
0
 10
1.0332573394856579
 20
10.377304601683591
 30
0.0
 11
0.9074887268004658
 21
10.377304601683591
 31
0.0
  0
LINE
  5
1A566
  8
0
 10
0.6449845421777241
 20
11.145465432783791
 30
0.0
 11
0.5554296092705046
 21
11.181249222917581
 31
0.0
  0
LINE
  5
1A567
  8
0
 10
0.5554296092705046
 20
14.67010534946894
 30
0.0
 11
0.430018718777319
 21
14.67010534946894
 31
0.0
  0
LINE
  5
1A568
  8
0
 10
0.4172116339615855
 20
15.235192927067139
 30
0.0
 11
-0.0000015027120526
 21
15.235192927067139
 31
0.0
  0
LINE
  5
1A569
  8
0
 10
-0.0000015027120526
 20
15.235192927067139
 30
0.0
 11
-0.0000015027120526
 21
9.7351929270671462
 31
0.0
  0
LINE
  5
1A56A
  8
0
 10
1.0332573394856579
 20
9.7351929270671462
 30
0.0
 11
1.0332573394856579
 21
10.377304601683591
 31
0.0
  0
LINE
  5
1A56B
  8
0
 10
0.9074887268004658
 20
10.377304601683591
 30
0.0
 11
0.9074887268003521
 21
10.414245912577821
 31
0.0
  0
LINE
  5
1A56C
  8
0
 10
0.5554296092705046
 20
11.181249222917581
 30
0.0
 11
0.5554296092705046
 21
14.67010534946894
 31
0.0
  0
LINE
  5
1A56D
  8
0
 10
0.430018718777319
 20
14.67010534946894
 30
0.0
 11
0.4300187187771485
 21
14.705889139602959
 31
0.0
  0
INSERT
  5
1A56E
  8
0
  2
*U53
 10
0.0
 20
0.0
 30
0.0
  0
LINE
  5
1A56F
  8
FRAME_050
 10
5.1382720395286006
 20
17.993710579095019
 30
0.0
 11
5.1382720395286006
 21
0.0000000294007805
 31
0.0
  0
ENDBLK
  5
1A571
  8
0
  0
BLOCK
  8
0
  2
A$C212248C0
 70
     0
 10
0.0
 20
0.0
 30
0.0
  3
A$C212248C0
  1

  0
LINE
  5
2846E
  8
0
 10
-0.0000002092490945
 20
10.41741894345523
 30
0.0
 11
-0.000000218823061
 21
12.91741894345523
 31
0.0
  0
LINE
  5
2846F
  8
0
 10
0.8061752779508424
 20
10.41741894654251
 30
0.0
 11
0.80617527442746
 21
11.337459194522349
 31
0.0
  0
LINE
  5
28470
  8
0
 10
-0.0000002092490945
 20
10.41741894345523
 30
0.0
 11
0.8061752779508424
 21
10.41741894654251
 31
0.0
  0
LINE
  5
28471
  8
0
 10
-0.000000218823061
 20
12.91741894345523
 30
0.0
 11
0.1835338022692099
 21
12.91741894415804
 31
0.0
  0
LINE
  5
28472
  8
0
 10
0.5432593756756888
 20
11.33745919351543
 30
0.0
 11
0.8061752744275167
 21
11.337459194522349
 31
0.0
  0
LINE
  5
28473
  8
0
 10
0.5432593756756888
 20
11.33745919351543
 30
0.0
 11
0.54325937522907
 21
11.454074799268589
 31
0.0
  0
ARC
  5
28474
  8
0
 10
0.5406585726453841
 20
11.69407225899795
 30
0.0
 40
0.2400115514942006
 50
270.62087814899439
 51
10.065567101317541
  0
ARC
  5
28475
  8
0
 10
0.3766221072655185
 20
12.57830290724473
 30
0.0
 40
0.1204493443528103
 50
92.075522465847911
 51
186.90606997904499
  0
ARC
  5
28476
  8
0
 10
0.3522648873053527
 20
11.66572609276443
 30
0.0
 40
0.4304889887359197
 50
9.3978639632316945
 51
32.979139282634932
  0
ARC
  5
28477
  8
0
 10
-3.1652042745943159
 20
9.0577862235478506
 30
0.0
 40
4.8085319198703189
 50
36.234313076985558
 51
42.402692063571678
  0
LINE
  5
28478
  8
0
 10
0.1835338022692099
 20
12.91741894415804
 30
0.0
 11
0.3722598200128004
 21
12.698673231681139
 31
0.0
  0
ARC
  5
28479
  8
0
 10
0.9319226152692294
 20
12.72987725098619
 30
0.0
 40
0.6950054723870779
 50
193.8233761419454
 51
218.1708864341492
  0
LINE
  5
2847A
  8
0
 10
-0.0000002092490945
 20
10.41741894345523
 30
0.0
 11
-0.0000002092490945
 21
12.91741894345523
 31
0.0
  0
INSERT
  5
2847B
  8
0
  2
*U54
 10
0.0
 20
0.0
 30
0.0
  0
LINE
  5
2847C
  8
FRAME_050
 10
6.2588202718825414
 20
17.993710579095019
 30
0.0
 11
6.2588202718825414
 21
0.0000000294007805
 31
0.0
  0
ENDBLK
  5
2847E
  8
0
  0
BLOCK
  8
0
  2
A$C52DE5D80
 70
     0
 10
0.0
 20
0.0
 30
0.0
  3
A$C52DE5D80
  1

  0
INSERT
  5
2B89A
  8
0
  2
*U55
 10
0.0
 20
0.0
 30
0.0
  0
LINE
  5
2B89B
  8
0
 10
0.0000014767382481
 20
7.878552666495465
 30
0.0
 11
1.5240062297528421
 21
7.8785526664953522
 31
0.0
  0
LINE
  5
2B89C
  8
0
 10
1.5240062297528421
 20
8.3261365866769665
 30
0.0
 11
1.5240062297528421
 21
7.8785526664953522
 31
0.0
  0
LINE
  5
2B89D
  8
0
 10
1.394539806559862
 20
8.3261365866769665
 30
0.0
 11
1.5240062297528421
 21
8.3261365866769665
 31
0.0
  0
LINE
  5
2B89E
  8
0
 10
0.7472076905950758
 20
9.2582948336663549
 30
0.0
 11
0.8951693171012493
 21
9.2582948336665822
 31
0.0
  0
POLYLINE
  8
0
  5
32DC9
  62
7
  66
     1
 10
0.000000
 20
0.000000
 30
0.000000
  70
     8
  0
VERTEX
  8
0
  5
32DCA
 10
1.39454
 20
8.32614
 30
0.000000
  70
    32
  0
VERTEX
  8
0
  5
32DCB
 10
1.39468
 20
8.33131
 30
0.000000
  70
    32
  0
VERTEX
  8
0
  5
32DCC
 10
1.39482
 20
8.33649
 30
0.000000
  70
    32
  0
VERTEX
  8
0
  5
32DCD
 10
1.39495
 20
8.34167
 30
0.000000
  70
    32
  0
VERTEX
  8
0
  5
32DCE
 10
1.39508
 20
8.34684
 30
0.000000
  70
    32
  0
VERTEX
  8
0
  5
32DCF
 10
1.39521
 20
8.35201
 30
0.000000
  70
    32
  0
VERTEX
  8
0
  5
32DD0
 10
1.39532
 20
8.35718
 30
0.000000
  70
    32
  0
VERTEX
  8
0
  5
32DD1
 10
1.39542
 20
8.36234
 30
0.000000
  70
    32
  0
VERTEX
  8
0
  5
32DD2
 10
1.39552
 20
8.36749
 30
0.000000
  70
    32
  0
VERTEX
  8
0
  5
32DD3
 10
1.39559
 20
8.37264
 30
0.000000
  70
    32
  0
VERTEX
  8
0
  5
32DD4
 10
1.39566
 20
8.37779
 30
0.000000
  70
    32
  0
VERTEX
  8
0
  5
32DD5
 10
1.39570
 20
8.38292
 30
0.000000
  70
    32
  0
VERTEX
  8
0
  5
32DD6
 10
1.39573
 20
8.38805
 30
0.000000
  70
    32
  0
VERTEX
  8
0
  5
32DD7
 10
1.39574
 20
8.39316
 30
0.000000
  70
    32
  0
VERTEX
  8
0
  5
32DD8
 10
1.39572
 20
8.39827
 30
0.000000
  70
    32
  0
VERTEX
  8
0
  5
32DD9
 10
1.39569
 20
8.40337
 30
0.000000
  70
    32
  0
VERTEX
  8
0
  5
32DDA
 10
1.39562
 20
8.40845
 30
0.000000
  70
    32
  0
VERTEX
  8
0
  5
32DDB
 10
1.39553
 20
8.41352
 30
0.000000
  70
    32
  0
VERTEX
  8
0
  5
32DDC
 10
1.39541
 20
8.41858
 30
0.000000
  70
    32
  0
VERTEX
  8
0
  5
32DDD
 10
1.39526
 20
8.42363
 30
0.000000
  70
    32
  0
VERTEX
  8
0
  5
32DDE
 10
1.39507
 20
8.42866
 30
0.000000
  70
    32
  0
VERTEX
  8
0
  5
32DDF
 10
1.39486
 20
8.43367
 30
0.000000
  70
    32
  0
VERTEX
  8
0
  5
32DE0
 10
1.39460
 20
8.43867
 30
0.000000
  70
    32
  0
VERTEX
  8
0
  5
32DE1
 10
1.39431
 20
8.44365
 30
0.000000
  70
    32
  0
VERTEX
  8
0
  5
32DE2
 10
1.39398
 20
8.44862
 30
0.000000
  70
    32
  0
VERTEX
  8
0
  5
32DE3
 10
1.39361
 20
8.45356
 30
0.000000
  70
    32
  0
VERTEX
  8
0
  5
32DE4
 10
1.39320
 20
8.45849
 30
0.000000
  70
    32
  0
VERTEX
  8
0
  5
32DE5
 10
1.39274
 20
8.46339
 30
0.000000
  70
    32
  0
VERTEX
  8
0
  5
32DE6
 10
1.39224
 20
8.46828
 30
0.000000
  70
    32
  0
VERTEX
  8
0
  5
32DE7
 10
1.39168
 20
8.47314
 30
0.000000
  70
    32
  0
VERTEX
  8
0
  5
32DE8
 10
1.39108
 20
8.47798
 30
0.000000
  70
    32
  0
VERTEX
  8
0
  5
32DE9
 10
1.39043
 20
8.48280
 30
0.000000
  70
    32
  0
VERTEX
  8
0
  5
32DEA
 10
1.38973
 20
8.48759
 30
0.000000
  70
    32
  0
VERTEX
  8
0
  5
32DEB
 10
1.38897
 20
8.49236
 30
0.000000
  70
    32
  0
VERTEX
  8
0
  5
32DEC
 10
1.38815
 20
8.49711
 30
0.000000
  70
    32
  0
VERTEX
  8
0
  5
32DED
 10
1.38728
 20
8.50182
 30
0.000000
  70
    32
  0
VERTEX
  8
0
  5
32DEE
 10
1.38635
 20
8.50651
 30
0.000000
  70
    32
  0
VERTEX
  8
0
  5
32DEF
 10
1.38535
 20
8.51117
 30
0.000000
  70
    32
  0
VERTEX
  8
0
  5
32DF0
 10
1.38429
 20
8.51581
 30
0.000000
  70
    32
  0
VERTEX
  8
0
  5
32DF1
 10
1.38317
 20
8.52041
 30
0.000000
  70
    32
  0
VERTEX
  8
0
  5
32DF2
 10
1.38198
 20
8.52498
 30
0.000000
  70
    32
  0
VERTEX
  8
0
  5
32DF3
 10
1.38073
 20
8.52953
 30
0.000000
  70
    32
  0
VERTEX
  8
0
  5
32DF4
 10
1.37940
 20
8.53404
 30
0.000000
  70
    32
  0
VERTEX
  8
0
  5
32DF5
 10
1.37800
 20
8.53851
 30
0.000000
  70
    32
  0
VERTEX
  8
0
  5
32DF6
 10
1.37653
 20
8.54296
 30
0.000000
  70
    32
  0
VERTEX
  8
0
  5
32DF7
 10
1.37499
 20
8.54737
 30
0.000000
  70
    32
  0
VERTEX
  8
0
  5
32DF8
 10
1.37337
 20
8.55175
 30
0.000000
  70
    32
  0
VERTEX
  8
0
  5
32DF9
 10
1.37167
 20
8.55609
 30
0.000000
  70
    32
  0
VERTEX
  8
0
  5
32DFA
 10
1.36991
 20
8.56040
 30
0.000000
  70
    32
  0
VERTEX
  8
0
  5
32DFB
 10
1.36807
 20
8.56468
 30
0.000000
  70
    32
  0
VERTEX
  8
0
  5
32DFC
 10
1.36616
 20
8.56893
 30
0.000000
  70
    32
  0
VERTEX
  8
0
  5
32DFD
 10
1.36418
 20
8.57314
 30
0.000000
  70
    32
  0
VERTEX
  8
0
  5
32DFE
 10
1.36214
 20
8.57733
 30
0.000000
  70
    32
  0
VERTEX
  8
0
  5
32DFF
 10
1.36003
 20
8.58148
 30
0.000000
  70
    32
  0
VERTEX
  8
0
  5
32E00
 10
1.35785
 20
8.58560
 30
0.000000
  70
    32
  0
VERTEX
  8
0
  5
32E01
 10
1.35561
 20
8.58970
 30
0.000000
  70
    32
  0
VERTEX
  8
0
  5
32E02
 10
1.35330
 20
8.59377
 30
0.000000
  70
    32
  0
VERTEX
  8
0
  5
32E03
 10
1.35093
 20
8.59781
 30
0.000000
  70
    32
  0
VERTEX
  8
0
  5
32E04
 10
1.34851
 20
8.60182
 30
0.000000
  70
    32
  0
VERTEX
  8
0
  5
32E05
 10
1.34602
 20
8.60581
 30
0.000000
  70
    32
  0
VERTEX
  8
0
  5
32E06
 10
1.34347
 20
8.60976
 30
0.000000
  70
    32
  0
VERTEX
  8
0
  5
32E07
 10
1.34086
 20
8.61370
 30
0.000000
  70
    32
  0
VERTEX
  8
0
  5
32E08
 10
1.33820
 20
8.61761
 30
0.000000
  70
    32
  0
VERTEX
  8
0
  5
32E09
 10
1.33549
 20
8.62149
 30
0.000000
  70
    32
  0
VERTEX
  8
0
  5
32E0A
 10
1.33271
 20
8.62535
 30
0.000000
  70
    32
  0
VERTEX
  8
0
  5
32E0B
 10
1.32989
 20
8.62919
 30
0.000000
  70
    32
  0
VERTEX
  8
0
  5
32E0C
 10
1.32701
 20
8.63300
 30
0.000000
  70
    32
  0
VERTEX
  8
0
  5
32E0D
 10
1.32408
 20
8.63679
 30
0.000000
  70
    32
  0
VERTEX
  8
0
  5
32E0E
 10
1.32111
 20
8.64056
 30
0.000000
  70
    32
  0
VERTEX
  8
0
  5
32E0F
 10
1.31808
 20
8.64431
 30
0.000000
  70
    32
  0
VERTEX
  8
0
  5
32E10
 10
1.31501
 20
8.64803
 30
0.000000
  70
    32
  0
VERTEX
  8
0
  5
32E11
 10
1.31189
 20
8.65174
 30
0.000000
  70
    32
  0
VERTEX
  8
0
  5
32E12
 10
1.30872
 20
8.65543
 30
0.000000
  70
    32
  0
VERTEX
  8
0
  5
32E13
 10
1.30551
 20
8.65910
 30
0.000000
  70
    32
  0
VERTEX
  8
0
  5
32E14
 10
1.30226
 20
8.66275
 30
0.000000
  70
    32
  0
VERTEX
  8
0
  5
32E15
 10
1.29896
 20
8.66638
 30
0.000000
  70
    32
  0
VERTEX
  8
0
  5
32E16
 10
1.29563
 20
8.66999
 30
0.000000
  70
    32
  0
VERTEX
  8
0
  5
32E17
 10
1.29225
 20
8.67359
 30
0.000000
  70
    32
  0
VERTEX
  8
0
  5
32E18
 10
1.28884
 20
8.67717
 30
0.000000
  70
    32
  0
VERTEX
  8
0
  5
32E19
 10
1.28539
 20
8.68074
 30
0.000000
  70
    32
  0
VERTEX
  8
0
  5
32E1A
 10
1.28190
 20
8.68429
 30
0.000000
  70
    32
  0
VERTEX
  8
0
  5
32E1B
 10
1.27838
 20
8.68782
 30
0.000000
  70
    32
  0
VERTEX
  8
0
  5
32E1C
 10
1.27482
 20
8.69134
 30
0.000000
  70
    32
  0
VERTEX
  8
0
  5
32E1D
 10
1.27123
 20
8.69485
 30
0.000000
  70
    32
  0
VERTEX
  8
0
  5
32E1E
 10
1.26761
 20
8.69835
 30
0.000000
  70
    32
  0
VERTEX
  8
0
  5
32E1F
 10
1.26396
 20
8.70183
 30
0.000000
  70
    32
  0
VERTEX
  8
0
  5
32E20
 10
1.26028
 20
8.70530
 30
0.000000
  70
    32
  0
VERTEX
  8
0
  5
32E21
 10
1.25657
 20
8.70876
 30
0.000000
  70
    32
  0
VERTEX
  8
0
  5
32E22
 10
1.25283
 20
8.71220
 30
0.000000
  70
    32
  0
VERTEX
  8
0
  5
32E23
 10
1.24907
 20
8.71564
 30
0.000000
  70
    32
  0
VERTEX
  8
0
  5
32E24
 10
1.24528
 20
8.71907
 30
0.000000
  70
    32
  0
VERTEX
  8
0
  5
32E25
 10
1.24147
 20
8.72249
 30
0.000000
  70
    32
  0
VERTEX
  8
0
  5
32E26
 10
1.23764
 20
8.72590
 30
0.000000
  70
    32
  0
VERTEX
  8
0
  5
32E27
 10
1.23379
 20
8.72930
 30
0.000000
  70
    32
  0
VERTEX
  8
0
  5
32E28
 10
1.22991
 20
8.73270
 30
0.000000
  70
    32
  0
VERTEX
  8
0
  5
32E29
 10
1.22601
 20
8.73609
 30
0.000000
  70
    32
  0
VERTEX
  8
0
  5
32E2A
 10
1.22210
 20
8.73947
 30
0.000000
  70
    32
  0
VERTEX
  8
0
  5
32E2B
 10
1.21817
 20
8.74284
 30
0.000000
  70
    32
  0
VERTEX
  8
0
  5
32E2C
 10
1.21423
 20
8.74621
 30
0.000000
  70
    32
  0
VERTEX
  8
0
  5
32E2D
 10
1.21027
 20
8.74958
 30
0.000000
  70
    32
  0
VERTEX
  8
0
  5
32E2E
 10
1.20629
 20
8.75294
 30
0.000000
  70
    32
  0
VERTEX
  8
0
  5
32E2F
 10
1.20230
 20
8.75630
 30
0.000000
  70
    32
  0
VERTEX
  8
0
  5
32E30
 10
1.19831
 20
8.75965
 30
0.000000
  70
    32
  0
VERTEX
  8
0
  5
32E31
 10
1.19430
 20
8.76300
 30
0.000000
  70
    32
  0
VERTEX
  8
0
  5
32E32
 10
1.19028
 20
8.76636
 30
0.000000
  70
    32
  0
VERTEX
  8
0
  5
32E33
 10
1.18626
 20
8.76970
 30
0.000000
  70
    32
  0
VERTEX
  8
0
  5
32E34
 10
1.18222
 20
8.77305
 30
0.000000
  70
    32
  0
VERTEX
  8
0
  5
32E35
 10
1.17819
 20
8.77640
 30
0.000000
  70
    32
  0
VERTEX
  8
0
  5
32E36
 10
1.17414
 20
8.77975
 30
0.000000
  70
    32
  0
VERTEX
  8
0
  5
32E37
 10
1.17010
 20
8.78310
 30
0.000000
  70
    32
  0
VERTEX
  8
0
  5
32E38
 10
1.16605
 20
8.78645
 30
0.000000
  70
    32
  0
VERTEX
  8
0
  5
32E39
 10
1.16200
 20
8.78980
 30
0.000000
  70
    32
  0
VERTEX
  8
0
  5
32E3A
 10
1.15795
 20
8.79315
 30
0.000000
  70
    32
  0
VERTEX
  8
0
  5
32E3B
 10
1.15390
 20
8.79651
 30
0.000000
  70
    32
  0
VERTEX
  8
0
  5
32E3C
 10
1.14986
 20
8.79987
 30
0.000000
  70
    32
  0
VERTEX
  8
0
  5
32E3D
 10
1.14582
 20
8.80323
 30
0.000000
  70
    32
  0
VERTEX
  8
0
  5
32E3E
 10
1.14178
 20
8.80660
 30
0.000000
  70
    32
  0
VERTEX
  8
0
  5
32E3F
 10
1.13775
 20
8.80998
 30
0.000000
  70
    32
  0
VERTEX
  8
0
  5
32E40
 10
1.13372
 20
8.81336
 30
0.000000
  70
    32
  0
VERTEX
  8
0
  5
32E41
 10
1.12970
 20
8.81674
 30
0.000000
  70
    32
  0
VERTEX
  8
0
  5
32E42
 10
1.12569
 20
8.82014
 30
0.000000
  70
    32
  0
VERTEX
  8
0
  5
32E43
 10
1.12170
 20
8.82354
 30
0.000000
  70
    32
  0
VERTEX
  8
0
  5
32E44
 10
1.11771
 20
8.82695
 30
0.000000
  70
    32
  0
VERTEX
  8
0
  5
32E45
 10
1.11373
 20
8.83036
 30
0.000000
  70
    32
  0
VERTEX
  8
0
  5
32E46
 10
1.10977
 20
8.83379
 30
0.000000
  70
    32
  0
VERTEX
  8
0
  5
32E47
 10
1.10583
 20
8.83723
 30
0.000000
  70
    32
  0
VERTEX
  8
0
  5
32E48
 10
1.10190
 20
8.84067
 30
0.000000
  70
    32
  0
VERTEX
  8
0
  5
32E49
 10
1.09798
 20
8.84413
 30
0.000000
  70
    32
  0
VERTEX
  8
0
  5
32E4A
 10
1.09409
 20
8.84760
 30
0.000000
  70
    32
  0
VERTEX
  8
0
  5
32E4B
 10
1.09021
 20
8.85107
 30
0.000000
  70
    32
  0
VERTEX
  8
0
  5
32E4C
 10
1.08635
 20
8.85457
 30
0.000000
  70
    32
  0
VERTEX
  8
0
  5
32E4D
 10
1.08251
 20
8.85807
 30
0.000000
  70
    32
  0
VERTEX
  8
0
  5
32E4E
 10
1.07870
 20
8.86158
 30
0.000000
  70
    32
  0
VERTEX
  8
0
  5
32E4F
 10
1.07490
 20
8.86511
 30
0.000000
  70
    32
  0
VERTEX
  8
0
  5
32E50
 10
1.07113
 20
8.86865
 30
0.000000
  70
    32
  0
VERTEX
  8
0
  5
32E51
 10
1.06738
 20
8.87220
 30
0.000000
  70
    32
  0
VERTEX
  8
0
  5
32E52
 10
1.06365
 20
8.87576
 30
0.000000
  70
    32
  0
VERTEX
  8
0
  5
32E53
 10
1.05995
 20
8.87934
 30
0.000000
  70
    32
  0
VERTEX
  8
0
  5
32E54
 10
1.05628
 20
8.88294
 30
0.000000
  70
    32
  0
VERTEX
  8
0
  5
32E55
 10
1.05263
 20
8.88654
 30
0.000000
  70
    32
  0
VERTEX
  8
0
  5
32E56
 10
1.04900
 20
8.89016
 30
0.000000
  70
    32
  0
VERTEX
  8
0
  5
32E57
 10
1.04541
 20
8.89380
 30
0.000000
  70
    32
  0
VERTEX
  8
0
  5
32E58
 10
1.04185
 20
8.89745
 30
0.000000
  70
    32
  0
VERTEX
  8
0
  5
32E59
 10
1.03831
 20
8.90112
 30
0.000000
  70
    32
  0
VERTEX
  8
0
  5
32E5A
 10
1.03481
 20
8.90480
 30
0.000000
  70
    32
  0
VERTEX
  8
0
  5
32E5B
 10
1.03133
 20
8.90850
 30
0.000000
  70
    32
  0
VERTEX
  8
0
  5
32E5C
 10
1.02789
 20
8.91221
 30
0.000000
  70
    32
  0
VERTEX
  8
0
  5
32E5D
 10
1.02448
 20
8.91594
 30
0.000000
  70
    32
  0
VERTEX
  8
0
  5
32E5E
 10
1.02111
 20
8.91969
 30
0.000000
  70
    32
  0
VERTEX
  8
0
  5
32E5F
 10
1.01777
 20
8.92345
 30
0.000000
  70
    32
  0
VERTEX
  8
0
  5
32E60
 10
1.01446
 20
8.92723
 30
0.000000
  70
    32
  0
VERTEX
  8
0
  5
32E61
 10
1.01119
 20
8.93103
 30
0.000000
  70
    32
  0
VERTEX
  8
0
  5
32E62
 10
1.00796
 20
8.93484
 30
0.000000
  70
    32
  0
VERTEX
  8
0
  5
32E63
 10
1.00476
 20
8.93868
 30
0.000000
  70
    32
  0
VERTEX
  8
0
  5
32E64
 10
1.00160
 20
8.94253
 30
0.000000
  70
    32
  0
VERTEX
  8
0
  5
32E65
 10
0.998485
 20
8.94640
 30
0.000000
  70
    32
  0
VERTEX
  8
0
  5
32E66
 10
0.995407
 20
8.95029
 30
0.000000
  70
    32
  0
VERTEX
  8
0
  5
32E67
 10
0.992369
 20
8.95420
 30
0.000000
  70
    32
  0
VERTEX
  8
0
  5
32E68
 10
0.989373
 20
8.95813
 30
0.000000
  70
    32
  0
VERTEX
  8
0
  5
32E69
 10
0.986419
 20
8.96208
 30
0.000000
  70
    32
  0
VERTEX
  8
0
  5
32E6A
 10
0.983508
 20
8.96605
 30
0.000000
  70
    32
  0
VERTEX
  8
0
  5
32E6B
 10
0.980642
 20
8.97004
 30
0.000000
  70
    32
  0
VERTEX
  8
0
  5
32E6C
 10
0.977819
 20
8.97405
 30
0.000000
  70
    32
  0
VERTEX
  8
0
  5
32E6D
 10
0.975042
 20
8.97808
 30
0.000000
  70
    32
  0
VERTEX
  8
0
  5
32E6E
 10
0.972312
 20
8.98213
 30
0.000000
  70
    32
  0
VERTEX
  8
0
  5
32E6F
 10
0.969628
 20
8.98621
 30
0.000000
  70
    32
  0
VERTEX
  8
0
  5
32E70
 10
0.966993
 20
8.99030
 30
0.000000
  70
    32
  0
VERTEX
  8
0
  5
32E71
 10
0.964406
 20
8.99442
 30
0.000000
  70
    32
  0
VERTEX
  8
0
  5
32E72
 10
0.961868
 20
8.99856
 30
0.000000
  70
    32
  0
VERTEX
  8
0
  5
32E73
 10
0.959381
 20
9.00272
 30
0.000000
  70
    32
  0
VERTEX
  8
0
  5
32E74
 10
0.956944
 20
9.00691
 30
0.000000
  70
    32
  0
VERTEX
  8
0
  5
32E75
 10
0.954559
 20
9.01112
 30
0.000000
  70
    32
  0
VERTEX
  8
0
  5
32E76
 10
0.952227
 20
9.01535
 30
0.000000
  70
    32
  0
VERTEX
  8
0
  5
32E77
 10
0.949949
 20
9.01960
 30
0.000000
  70
    32
  0
VERTEX
  8
0
  5
32E78
 10
0.947724
 20
9.02388
 30
0.000000
  70
    32
  0
VERTEX
  8
0
  5
32E79
 10
0.945555
 20
9.02819
 30
0.000000
  70
    32
  0
VERTEX
  8
0
  5
32E7A
 10
0.943441
 20
9.03252
 30
0.000000
  70
    32
  0
VERTEX
  8
0
  5
32E7B
 10
0.941383
 20
9.03687
 30
0.000000
  70
    32
  0
VERTEX
  8
0
  5
32E7C
 10
0.939384
 20
9.04125
 30
0.000000
  70
    32
  0
VERTEX
  8
0
  5
32E7D
 10
0.937442
 20
9.04566
 30
0.000000
  70
    32
  0
VERTEX
  8
0
  5
32E7E
 10
0.935559
 20
9.05009
 30
0.000000
  70
    32
  0
VERTEX
  8
0
  5
32E7F
 10
0.933736
 20
9.05455
 30
0.000000
  70
    32
  0
VERTEX
  8
0
  5
32E80
 10
0.931973
 20
9.05903
 30
0.000000
  70
    32
  0
VERTEX
  8
0
  5
32E81
 10
0.930271
 20
9.06354
 30
0.000000
  70
    32
  0
VERTEX
  8
0
  5
32E82
 10
0.928629
 20
9.06808
 30
0.000000
  70
    32
  0
VERTEX
  8
0
  5
32E83
 10
0.927045
 20
9.07264
 30
0.000000
  70
    32
  0
VERTEX
  8
0
  5
32E84
 10
0.925517
 20
9.07722
 30
0.000000
  70
    32
  0
VERTEX
  8
0
  5
32E85
 10
0.924045
 20
9.08183
 30
0.000000
  70
    32
  0
VERTEX
  8
0
  5
32E86
 10
0.922626
 20
9.08647
 30
0.000000
  70
    32
  0
VERTEX
  8
0
  5
32E87
 10
0.921259
 20
9.09112
 30
0.000000
  70
    32
  0
VERTEX
  8
0
  5
32E88
 10
0.919943
 20
9.09580
 30
0.000000
  70
    32
  0
VERTEX
  8
0
  5
32E89
 10
0.918676
 20
9.10050
 30
0.000000
  70
    32
  0
VERTEX
  8
0
  5
32E8A
 10
0.917457
 20
9.10522
 30
0.000000
  70
    32
  0
VERTEX
  8
0
  5
32E8B
 10
0.916283
 20
9.10996
 30
0.000000
  70
    32
  0
VERTEX
  8
0
  5
32E8C
 10
0.915155
 20
9.11472
 30
0.000000
  70
    32
  0
VERTEX
  8
0
  5
32E8D
 10
0.914070
 20
9.11950
 30
0.000000
  70
    32
  0
VERTEX
  8
0
  5
32E8E
 10
0.913026
 20
9.12429
 30
0.000000
  70
    32
  0
VERTEX
  8
0
  5
32E8F
 10
0.912023
 20
9.12911
 30
0.000000
  70
    32
  0
VERTEX
  8
0
  5
32E90
 10
0.911058
 20
9.13394
 30
0.000000
  70
    32
  0
VERTEX
  8
0
  5
32E91
 10
0.910131
 20
9.13879
 30
0.000000
  70
    32
  0
VERTEX
  8
0
  5
32E92
 10
0.909239
 20
9.14365
 30
0.000000
  70
    32
  0
VERTEX
  8
0
  5
32E93
 10
0.908381
 20
9.14853
 30
0.000000
  70
    32
  0
VERTEX
  8
0
  5
32E94
 10
0.907557
 20
9.15342
 30
0.000000
  70
    32
  0
VERTEX
  8
0
  5
32E95
 10
0.906763
 20
9.15832
 30
0.000000
  70
    32
  0
VERTEX
  8
0
  5
32E96
 10
0.906000
 20
9.16324
 30
0.000000
  70
    32
  0
VERTEX
  8
0
  5
32E97
 10
0.905264
 20
9.16817
 30
0.000000
  70
    32
  0
VERTEX
  8
0
  5
32E98
 10
0.904556
 20
9.17312
 30
0.000000
  70
    32
  0
VERTEX
  8
0
  5
32E99
 10
0.903873
 20
9.17807
 30
0.000000
  70
    32
  0
VERTEX
  8
0
  5
32E9A
 10
0.903213
 20
9.18303
 30
0.000000
  70
    32
  0
VERTEX
  8
0
  5
32E9B
 10
0.902576
 20
9.18801
 30
0.000000
  70
    32
  0
VERTEX
  8
0
  5
32E9C
 10
0.901960
 20
9.19299
 30
0.000000
  70
    32
  0
VERTEX
  8
0
  5
32E9D
 10
0.901363
 20
9.19798
 30
0.000000
  70
    32
  0
VERTEX
  8
0
  5
32E9E
 10
0.900784
 20
9.20298
 30
0.000000
  70
    32
  0
VERTEX
  8
0
  5
32E9F
 10
0.900222
 20
9.20799
 30
0.000000
  70
    32
  0
VERTEX
  8
0
  5
32EA0
 10
0.899674
 20
9.21300
 30
0.000000
  70
    32
  0
VERTEX
  8
0
  5
32EA1
 10
0.899140
 20
9.21802
 30
0.000000
  70
    32
  0
VERTEX
  8
0
  5
32EA2
 10
0.898617
 20
9.22304
 30
0.000000
  70
    32
  0
VERTEX
  8
0
  5
32EA3
 10
0.898105
 20
9.22807
 30
0.000000
  70
    32
  0
VERTEX
  8
0
  5
32EA4
 10
0.897602
 20
9.23310
 30
0.000000
  70
    32
  0
VERTEX
  8
0
  5
32EA5
 10
0.897107
 20
9.23813
 30
0.000000
  70
    32
  0
VERTEX
  8
0
  5
32EA6
 10
0.896617
 20
9.24317
 30
0.000000
  70
    32
  0
VERTEX
  8
0
  5
32EA7
 10
0.896132
 20
9.24821
 30
0.000000
  70
    32
  0
VERTEX
  8
0
  5
32EA8
 10
0.895650
 20
9.25325
 30
0.000000
  70
    32
  0
VERTEX
  8
0
  5
32EA9
 10
0.895169
 20
9.25829
 30
0.000000
  70
    32
  0
SEQEND
  8
0
  5
32EAA
  0
LINE
  5
2B8A0
  8
0
  6
CONTINUOUS
 62
     7
 10
0.7472076905950758
 20
9.2582948336663549
 30
0.0
 11
0.7472076905949621
 21
11.826520277942111
 31
0.0
  0
LINE
  5
2B8A1
  8
0
  6
CONTINUOUS
 62
     7
 10
0.4997076905949598
 20
12.389020277942111
 30
0.0
 11
0.000001476738305
 21
12.389020277942111
 31
0.0
  0
ARC
  5
2B8A2
  8
0
 10
0.4997076905949598
 20
12.139020277942111
 30
0.0
 40
0.2500000000000009
 50
269.42703265506509
 51
90.0
  0
LINE
  5
2B8A3
  8
0
  6
CONTINUOUS
 62
     7
 10
0.7472076905949621
 20
11.826520277942111
 30
0.0
 11
0.5597076905949621
 21
11.826520277942111
 31
0.0
  0
LINE
  5
2B8A4
  8
0
  6
CONTINUOUS
 62
     7
 10
0.4972076905949621
 20
11.826520277942111
 30
0.0
 11
0.4972076905949621
 21
11.88903277828603
 31
0.0
  0
LINE
  5
2B8A5
  8
0
 10
0.0000014767382481
 20
7.878552666495465
 30
0.0
 11
0.000001476738305
 21
12.389020277942111
 31
0.0
  0
LINE
  5
2B8A6
  8
0
 10
0.7472076905949621
 20
11.826520277942111
 30
0.0
 11
0.4972076905949621
 21
11.826520277942111
 31
0.0
  0
LINE
  5
2B8A7
  8
FRAME_050
 10
6.5744546621590407
 20
17.993710579095019
 30
0.0
 11
6.5744546621590407
 21
0.0000000294007805
 31
0.0
  0
ENDBLK
  5
2B8A9
  8
0
  0
BLOCK
  8
0
  2
A$C06786640
 70
     0
 10
0.0
 20
0.0
 30
0.0
  3
A$C06786640
  1

  0
LINE
  5
30DBD
  8
0
  6
CONTINUOUS
 10
6.9421460747584538
 20
5.3373952998996401
 30
0.0
 11
7.6921460747585684
 21
5.3373952998996401
 31
0.0
  0
INSERT
  5
30DBE
  8
0
  2
*U84
 10
0.0
 20
0.0
 30
0.0
  0
ARC
  5
30DBF
  8
0
 10
7.6921460747584538
 20
1.3373952998996399
 30
0.0
 40
0.4375
 50
90.0
 51
180.0
  0
LINE
  5
30DC0
  8
0
  6
CONTINUOUS
 10
6.9421460747584538
 20
1.3373952998996399
 30
0.0
 11
7.2546460747584538
 21
1.3373952998996399
 31
0.0
  0
LINE
  5
30DC1
  8
0
  6
CONTINUOUS
 10
6.9421460747584538
 20
5.3373952998996401
 30
0.0
 11
6.9421460747584538
 21
1.3373952998996399
 31
0.0
  0
LINE
  5
30DC2
  8
0
  6
CONTINUOUS
 10
7.6921460747585684
 20
5.3373952998996401
 30
0.0
 11
7.6921460747584538
 21
1.7748952998996399
 31
0.0
  0
LINE
  5
30DC3
  8
FRAME_050
 10
13.38021391661823
 20
10.43596704186257
 30
0.0
 11
13.38021391661823
 21
-7.557743507831673
 31
0.0
  0
ENDBLK
  5
30DC5
  8
0
  0
BLOCK
  8
0
  2
*U52
 70
     1
 10
0.0
 20
0.0
 30
0.0
  3
*U52
  1

  0
TEXT
  5
32B6C
  8
0
 10
3.5177832928899071
 20
10.38601584255777
 30
0.0
 40
0.125
  1
Crown Moulding
  0
TEXT
  5
32B6D
  8
0
 10
3.5223876585106431
 20
10.17717091304435
 30
0.0
 40
0.125
  1
TL-AB509
  0
TEXT
  5
32B6E
  8
0
 10
3.5074661032582561
 20
9.9667059289606801
 30
0.0
 40
0.125
  1
1-5/16" x 7-9/16"
  0
TEXT
  5
32B6F
  8
0
 10
3.519403347460166
 20
9.7562409448770051
 30
0.0
 40
0.125
  1
800.66.TAGUE
  0
ENDBLK
  5
32B71
  8
0
  0
BLOCK
  8
0
  2
*U53
 70
     1
 10
0.0
 20
0.0
 30
0.0
  3
*U53
  1

  0
TEXT
  5
32B73
  8
0
 10
1.4086740032724709
 20
13.04264108713495
 30
0.0
 40
0.125
  1
Casing
  0
TEXT
  5
32B74
  8
0
 10
1.4132783688932069
 20
12.83379615762154
 30
0.0
 40
0.125
  1
TL-2019
  0
TEXT
  5
32B75
  8
0
 10
1.39835681364082
 20
12.62333117353786
 30
0.0
 40
0.125
  1
1-1/16" x 5-1/2"
  0
TEXT
  5
32B76
  8
0
 10
1.4102940578427301
 20
12.41286618945419
 30
0.0
 40
0.125
  1
800.66.TAGUE
  0
ENDBLK
  5
32B78
  8
0
  0
BLOCK
  8
0
  2
*U54
 70
     1
 10
0.0
 20
0.0
 30
0.0
  3
*U54
  1

  0
TEXT
  5
32B7A
  8
0
 10
1.9061884295105971
 20
11.78127341408482
 30
0.0
 40
0.125
  1
Casing
  0
TEXT
  5
32B7B
  8
0
 10
1.9107927951313339
 20
11.572428484571409
 30
0.0
 40
0.125
  1
TL-2318
  0
TEXT
  5
32B7C
  8
0
 10
1.8958712398789459
 20
11.361963500487731
 30
0.0
 40
0.125
  1
13/16" x 2-1/2"
  0
TEXT
  5
32B7D
  8
0
 10
1.907808484080856
 20
11.151498516404059
 30
0.0
 40
0.125
  1
800.66.TAGUE
  0
ENDBLK
  5
32B7F
  8
0
  0
BLOCK
  8
0
  2
*U55
 70
     1
 10
0.0
 20
0.0
 30
0.0
  3
*U55
  1

  0
TEXT
  5
32B81
  8
0
 10
2.2380648505203782
 20
10.70752122569969
 30
0.0
 40
0.125
  1
Casing Assembly
  0
TEXT
  5
32B82
  8
0
 10
2.242669216141115
 20
10.498676296186281
 30
0.0
 40
0.125
  1
TL-2225
  0
TEXT
  5
32B83
  8
0
 10
2.2277476608887281
 20
10.2882113121026
 30
0.0
 40
0.125
  1
1-9/16" x 4-1/2"
  0
TEXT
  5
32B84
  8
0
 10
2.239684905090638
 20
10.077746328018931
 30
0.0
 40
0.125
  1
800.66.TAGUE
  0
ENDBLK
  5
32B86
  8
0
  0
BLOCK
  8
0
  2
*U56
 70
     1
 10
0.0
 20
0.0
 30
0.0
  3
*U56
  1

  0
TEXT
  5
32B88
  8
0
 10
2.45740474597793
 20
2.5787099920155621
 30
0.0
 40
0.125
  1
Chair Rail
  0
TEXT
  5
32B89
  8
0
 10
2.462009111598666
 20
2.3698650625021469
 30
0.0
 40
0.125
  1
TL-300
  0
TEXT
  5
32B8A
  8
0
 10
2.4470875563462791
 20
2.1594000784184728
 30
0.0
 40
0.125
  1
1-1/16" x 2-15/16"
  0
TEXT
  5
32B8B
  8
0
 10
2.4590248005481889
 20
1.9489350943347981
 30
0.0
 40
0.125
  1
800.66.TAGUE
  0
ENDBLK
  5
32B8D
  8
0
  0
BLOCK
  8
0
  2
*U57
 70
     1
 10
0.0
 20
0.0
 30
0.0
  3
*U57
  1

  0
TEXT
  5
32B8F
  8
0
 10
2.296373382618786
 20
2.154638056947094
 30
0.0
 40
0.125
  1
Chair Rail
  0
TEXT
  5
32B90
  8
0
 10
2.3009777482395228
 20
1.945793127433679
 30
0.0
 40
0.125
  1
TL-384
  0
TEXT
  5
32B91
  8
0
 10
2.2860561929871359
 20
1.7353281433500041
 30
0.0
 40
0.125
  1
1-1/8" x 2-3/4"
  0
TEXT
  5
32B92
  8
0
 10
2.2979934371890458
 20
1.52486315926633
 30
0.0
 40
0.125
  1
800.66.TAGUE
  0
ENDBLK
  5
32B94
  8
0
  0
BLOCK
  8
0
  2
*U58
 70
     1
 10
0.0
 20
0.0
 30
0.0
  3
*U58
  1

  0
TEXT
  5
32B96
  8
0
 10
1.7903030854828661
 20
1.879104976913611
 30
0.0
 40
0.125
  1
Chair Rail
  0
TEXT
  5
32B97
  8
0
 10
1.7949074511036021
 20
1.6702600474001961
 30
0.0
 40
0.125
  1
TL-390
  0
TEXT
  5
32B98
  8
0
 10
1.7799858958512149
 20
1.4597950633165211
 30
0.0
 40
0.125
  1
11/16" x 2-9/16"
  0
TEXT
  5
32B99
  8
0
 10
1.791923140053125
 20
1.249330079232847
 30
0.0
 40
0.125
  1
800.66.TAGUE
  0
ENDBLK
  5
32B9B
  8
0
  0
BLOCK
  8
0
  2
*U59
 70
     1
 10
0.0
 20
0.0
 30
0.0
  3
*U59
  1

  0
TEXT
  5
32B9D
  8
0
 10
1.7790082072096181
 20
2.7163812729427419
 30
0.0
 40
0.125
  1
Chair Rail
  0
TEXT
  5
32B9E
  8
0
 10
1.7836125728303549
 20
2.5075363434293272
 30
0.0
 40
0.125
  1
TL-391
  0
TEXT
  5
32B9F
  8
0
 10
1.780372463689837
 20
2.2970713593456522
 30
0.0
 40
0.125
  1
3/4" x 3-1/2"
  0
TEXT
  5
32BA0
  8
0
 10
1.7806282617798781
 20
2.0866063752619781
 30
0.0
 40
0.125
  1
800.66.TAGUE
  0
ENDBLK
  5
32BA2
  8
0
  0
BLOCK
  8
0
  2
*U60
 70
     1
 10
0.0
 20
0.0
 30
0.0
  3
*U60
  1

  0
TEXT
  5
32BA4
  8
0
 10
1.979493109854592
 20
1.3931549873730249
 30
0.0
 40
0.125
  1
Chair Rail
  0
TEXT
  5
32BA5
  8
0
 10
1.984097475475328
 20
1.1843100578596091
 30
0.0
 40
0.125
  1
TL-393
  0
TEXT
  5
32BA6
  8
0
 10
1.9691759202229411
 20
0.9738450737759357
 30
0.0
 40
0.125
  1
1-1/4" x 2-1/2"
  0
TEXT
  5
32BA7
  8
0
 10
1.981113164424851
 20
0.7633800896922612
 30
0.0
 40
0.125
  1
800.66.TAGUE
  0
ENDBLK
  5
32BA9
  8
0
  0
BLOCK
  8
0
  2
*U61
 70
     1
 10
0.0
 20
0.0
 30
0.0
  3
*U61
  1

  0
TEXT
  5
32BAB
  8
0
 10
2.213601074382983
 20
2.6517246081325689
 30
0.0
 40
0.125
  1
Chair Rail
  0
TEXT
  5
32BAC
  8
0
 10
2.2182054400037199
 20
2.4428796786191538
 30
0.0
 40
0.125
  1
TL-538
  0
TEXT
  5
32BAD
  8
0
 10
2.2171822476435561
 20
2.2324146945354801
 30
0.0
 40
0.125
  1
27/32" x 3-1/4"
  0
TEXT
  5
32BAE
  8
0
 10
2.215221128953242
 20
2.021949710451806
 30
0.0
 40
0.125
  1
800.66.TAGUE
  0
ENDBLK
  5
32BB0
  8
0
  0
BLOCK
  8
0
  2
*U62
 70
     1
 10
0.0
 20
0.0
 30
0.0
  3
*U62
  1

  0
TEXT
  5
32BB2
  8
0
 10
2.143641095436839
 20
2.3625917493022981
 30
0.0
 40
0.125
  1
Chair Rail
  0
TEXT
  5
32BB3
  8
0
 10
2.148245461057575
 20
2.1537468197888829
 30
0.0
 40
0.125
  1
TL-2002
  0
TEXT
  5
32BB4
  8
0
 10
2.1450053519170571
 20
1.943281835705208
 30
0.0
 40
0.125
  1
3/4" x 3"
  0
TEXT
  5
32BB5
  8
0
 10
2.1452611500070979
 20
1.7328168516215341
 30
0.0
 40
0.125
  1
800.66.TAGUE
  0
ENDBLK
  5
32BB7
  8
0
  0
BLOCK
  8
0
  2
*U63
 70
     1
 10
0.0
 20
0.0
 30
0.0
  3
*U63
  1

  0
TEXT
  5
32BB9
  8
0
 10
2.0814022841362081
 20
2.4827230287430821
 30
0.0
 40
0.125
  1
Chair Rail
  0
TEXT
  5
32BBA
  8
0
 10
2.0860066497569441
 20
2.273878099229667
 30
0.0
 40
0.125
  1
TL-2003
  0
TEXT
  5
32BBB
  8
0
 10
2.0818286142862759
 20
2.063413115145992
 30
0.0
 40
0.125
  1
7/8" x 3-13/16"
  0
TEXT
  5
32BBC
  8
0
 10
2.083022338706467
 20
1.8529481310623179
 30
0.0
 40
0.125
  1
800.66.TAGUE
  0
ENDBLK
  5
32BBE
  8
0
  0
BLOCK
  8
0
  2
*U64
 70
     1
 10
0.0
 20
0.0
 30
0.0
  3
*U64
  1

  0
TEXT
  5
32BC0
  8
0
 10
2.396282120712645
 20
2.6371956792013558
 30
0.0
 40
0.125
  1
Chair Rail
  0
TEXT
  5
32BC1
  8
0
 10
2.4008864863333819
 20
2.4283507496879411
 30
0.0
 40
0.125
  1
TL-2097
  0
TEXT
  5
32BC2
  8
0
 10
2.3859649310809949
 20
2.2178857656042661
 30
0.0
 40
0.125
  1
1-1/4" x 2-7/8"
  0
TEXT
  5
32BC3
  8
0
 10
2.3979021752829048
 20
2.007420781520592
 30
0.0
 40
0.125
  1
800.66.TAGUE
  0
ENDBLK
  5
32BC5
  8
0
  0
BLOCK
  8
0
  2
*U65
 70
     1
 10
0.0
 20
0.0
 30
0.0
  3
*U65
  1

  0
TEXT
  5
32BC7
  8
0
 10
2.2497671895647828
 20
1.9038951213874651
 30
0.0
 40
0.125
  1
Chair Rail
  0
TEXT
  5
32BC8
  8
0
 10
2.2543715551855201
 20
1.6950501918740499
 30
0.0
 40
0.125
  1
TL-392
  0
TEXT
  5
32BC9
  8
0
 10
2.2394499999331319
 20
1.4845852077903761
 30
0.0
 40
0.125
  1
1-5/16" x 2-3/8"
  0
TEXT
  5
32BCA
  8
0
 10
2.2513872441350422
 20
1.2741202237067011
 30
0.0
 40
0.125
  1
800.66.TAGUE
  0
ENDBLK
  5
32BCC
  8
0
  0
BLOCK
  8
0
  2
*U66
 70
     1
 10
0.0
 20
0.0
 30
0.0
  3
*U66
  1

  0
TEXT
  5
32BCE
  8
0
 10
1.5498063030285369
 20
2.4826645605183031
 30
0.0
 40
0.125
  1
Chair Rail
  0
TEXT
  5
32BCF
  8
0
 10
1.5544106686492729
 20
2.2738196310048879
 30
0.0
 40
0.125
  1
TL-2152
  0
TEXT
  5
32BD0
  8
0
 10
1.539489113396886
 20
2.063354646921213
 30
0.0
 40
0.125
  1
1-9/32" x 3-15/16"
  0
TEXT
  5
32BD1
  8
0
 10
1.5514263575987961
 20
1.8528896628375391
 30
0.0
 40
0.125
  1
800.66.TAGUE
  0
ENDBLK
  5
32BD3
  8
0
  0
BLOCK
  8
0
  2
*U67
 70
     1
 10
0.0
 20
0.0
 30
0.0
  3
*U67
  1

  0
TEXT
  5
32BD5
  8
0
 10
1.425133411081934
 20
3.23616728770982
 30
0.0
 40
0.125
  1
Chair Rail
  0
TEXT
  5
32BD6
  8
0
 10
1.4297377767026711
 20
3.0273223581964048
 30
0.0
 40
0.125
  1
TL-2163
  0
TEXT
  5
32BD7
  8
0
 10
1.426497667562153
 20
2.8168573741127299
 30
0.0
 40
0.125
  1
3/4" x 2-3/8"
  0
TEXT
  5
32BD8
  8
0
 10
1.4267534656521941
 20
2.6063923900290562
 30
0.0
 40
0.125
  1
800.66.TAGUE
  0
ENDBLK
  5
32BDA
  8
0
  0
BLOCK
  8
0
  2
*U68
 70
     1
 10
0.0
 20
0.0
 30
0.0
  3
*U68
  1

  0
TEXT
  5
32BDC
  8
0
 10
1.3979859738694
 20
3.241688635672078
 30
0.0
 40
0.125
  1
Chair Rail
  0
TEXT
  5
32BDD
  8
0
 10
1.4025903394901369
 20
3.0328437061586628
 30
0.0
 40
0.125
  1
TL-2210
  0
TEXT
  5
32BDE
  8
0
 10
1.38766878423775
 20
2.8223787220749879
 30
0.0
 40
0.125
  1
11/16" x 3"
  0
TEXT
  5
32BDF
  8
0
 10
1.3996060284396601
 20
2.6119137379913142
 30
0.0
 40
0.125
  1
800.66.TAGUE
  0
ENDBLK
  5
32BE1
  8
0
  0
BLOCK
  8
0
  2
*U69
 70
     1
 10
0.0
 20
0.0
 30
0.0
  3
*U69
  1

  0
TEXT
  5
32BE3
  8
0
 10
1.9179554225799269
 20
1.5548149835556311
 30
0.0
 40
0.125
  1
Chamfer Strip
  0
TEXT
  5
32BE4
  8
0
 10
1.9225597882006631
 20
1.3459700540422159
 30
0.0
 40
0.125
  1
TL-994
  0
TEXT
  5
32BE5
  8
0
 10
1.9076382329482759
 20
1.137125124528801
 30
0.0
 40
0.125
  1
1" x 1"
  0
TEXT
  5
32BE6
  8
0
 10
1.9195754771501861
 20
0.9266601404451272
 30
0.0
 40
0.125
  1
800.66.TAGUE
  0
ENDBLK
  5
32BE8
  8
0
  0
BLOCK
  8
0
  2
*U70
 70
     1
 10
0.0
 20
0.0
 30
0.0
  3
*U70
  1

  0
TEXT
  5
32BEA
  8
0
 10
0.4278271454310577
 20
1.8307501971237501
 30
0.0
 40
0.125
  1
Chamfer Strip
  0
TEXT
  5
32BEB
  8
0
 10
0.4324315110517944
 20
1.6219052676103349
 30
0.0
 40
0.125
  1
TL-995
  0
TEXT
  5
32BEC
  8
0
 10
0.4175099557994069
 20
1.41144028352666
 30
0.0
 40
0.125
  1
11/16" x 11/16"
  0
TEXT
  5
32BED
  8
0
 10
0.4294472000013169
 20
1.2009752994429861
 30
0.0
 40
0.125
  1
800.66.TAGUE
  0
ENDBLK
  5
32BEF
  8
0
  0
BLOCK
  8
0
  2
*U71
 70
     1
 10
0.0
 20
0.0
 30
0.0
  3
*U71
  1

  0
TEXT
  5
32BF1
  8
0
 10
1.9926440979760729
 20
0.67862269993522
 30
0.0
 40
0.125
  1
Column Mouldings
  0
TEXT
  5
32BF2
  8
0
 10
1.9972484635968091
 20
0.4697777704218047
 30
0.0
 40
0.125
  1
TL-2212
  0
TEXT
  5
32BF3
  8
0
 10
1.9823269083444219
 20
0.2593127863381302
 30
0.0
 40
0.125
  1
1-13/16" x 1-7/8"
  0
TEXT
  5
32BF4
  8
0
 10
1.994264152546332
 20
0.0488478022544559
 30
0.0
 40
0.125
  1
800.66.TAGUE
  0
ENDBLK
  5
32BF6
  8
0
  0
BLOCK
  8
0
  2
*U72
 70
     1
 10
0.0
 20
0.0
 30
0.0
  3
*U72
  1

  0
TEXT
  5
32BF8
  8
0
 10
1.6834489538549959
 20
0.7751852708459115
 30
0.0
 40
0.125
  1
Column Mouldings
  0
TEXT
  5
32BF9
  8
0
 10
1.688053319475733
 20
0.5663403413324964
 30
0.0
 40
0.125
  1
TL-2215
  0
TEXT
  5
32BFA
  8
0
 10
1.673131764223345
 20
0.3558753572488219
 30
0.0
 40
0.125
  1
1/2" x 1"
  0
TEXT
  5
32BFB
  8
0
 10
1.6850690084252551
 20
0.1454103731651475
 30
0.0
 40
0.125
  1
800.66.TAGUE
  0
ENDBLK
  5
32BFD
  8
0
  0
BLOCK
  8
0
  2
*U73
 70
     1
 10
0.0
 20
0.0
 30
0.0
  3
*U73
  1

  0
TEXT
  5
32BFF
  8
0
 10
1.6834489538549959
 20
0.7751852708459115
 30
0.0
 40
0.125
  1
Column Mouldings
  0
TEXT
  5
32C00
  8
0
 10
1.688053319475733
 20
0.5663403413324964
 30
0.0
 40
0.125
  1
TL-2215
  0
TEXT
  5
32C01
  8
0
 10
1.673131764223345
 20
0.3558753572488219
 30
0.0
 40
0.125
  1
1/2" x 1"
  0
TEXT
  5
32C02
  8
0
 10
1.6850690084252551
 20
0.1454103731651475
 30
0.0
 40
0.125
  1
800.66.TAGUE
  0
ENDBLK
  5
32C04
  8
0
  0
BLOCK
  8
0
  2
*U74
 70
     1
 10
0.0
 20
0.0
 30
0.0
  3
*U74
  1

  0
TEXT
  5
32C06
  8
0
 10
2.2199536060229881
 20
0.9507943810130132
 30
0.0
 40
0.125
  1
Corner Moulding
  0
TEXT
  5
32C07
  8
0
 10
2.224557971643724
 20
0.7419494514995982
 30
0.0
 40
0.125
  1
TL-201
  0
TEXT
  5
32C08
  8
0
 10
2.2096364163913371
 20
0.5314844674159237
 30
0.0
 40
0.125
  1
1-3/8" x 1-3/8"
  0
TEXT
  5
32C09
  8
0
 10
2.221573660593247
 20
0.3210194833322493
 30
0.0
 40
0.125
  1
800.66.TAGUE
  0
ENDBLK
  5
32C0B
  8
0
  0
BLOCK
  8
0
  2
*U75
 70
     1
 10
0.0
 20
0.0
 30
0.0
  3
*U75
  1

  0
TEXT
  5
32C0D
  8
0
 10
1.9663332328677019
 20
0.8425411796803405
 30
0.0
 40
0.125
  1
Corner Moulding
  0
TEXT
  5
32C0E
  8
0
 10
1.9709375984884381
 20
0.6336962501669256
 30
0.0
 40
0.125
  1
TL-202
  0
TEXT
  5
32C0F
  8
0
 10
1.9560160432360509
 20
0.423231266083251
 30
0.0
 40
0.125
  1
1-1/8" x 1-1/8"
  0
TEXT
  5
32C10
  8
0
 10
1.9679532874379611
 20
0.2127662819995766
 30
0.0
 40
0.125
  1
800.66.TAGUE
  0
ENDBLK
  5
32C12
  8
0
  0
BLOCK
  8
0
  2
*U76
 70
     1
 10
0.0
 20
0.0
 30
0.0
  3
*U76
  1

  0
TEXT
  5
32C14
  8
0
 10
1.5905291641242101
 20
0.7214840869431943
 30
0.0
 40
0.125
  1
Corner Moulding
  0
TEXT
  5
32C15
  8
0
 10
1.5951335297449469
 20
0.5126391574297791
 30
0.0
 40
0.125
  1
TL-203
  0
TEXT
  5
32C16
  8
0
 10
1.5918934206044291
 20
0.3021741733461046
 30
0.0
 40
0.125
  1
3/4" x 3/4"
  0
TEXT
  5
32C17
  8
0
 10
1.592149218694469
 20
0.0917091892624302
 30
0.0
 40
0.125
  1
800.66.TAGUE
  0
ENDBLK
  5
32C19
  8
0
  0
BLOCK
  8
0
  2
*U77
 70
     1
 10
0.0
 20
0.0
 30
0.0
  3
*U77
  1

  0
TEXT
  5
32C1B
  8
0
 10
1.935358187968665
 20
1.031573183991797
 30
0.0
 40
0.125
  1
Corner Moulding
  0
TEXT
  5
32C1C
  8
0
 10
1.939962553589401
 20
0.8227282544783825
 30
0.0
 40
0.125
  1
TL-204
  0
TEXT
  5
32C1D
  8
0
 10
1.925040998337014
 20
0.6122632703947081
 30
0.0
 40
0.125
  1
1-3/8" x 1-3/8"
  0
TEXT
  5
32C1E
  8
0
 10
1.9369782425389239
 20
0.4017982863110337
 30
0.0
 40
0.125
  1
800.66.TAGUE
  0
ENDBLK
  5
32C20
  8
0
  0
BLOCK
  8
0
  2
*U78
 70
     1
 10
0.0
 20
0.0
 30
0.0
  3
*U78
  1

  0
TEXT
  5
32C22
  8
0
 10
1.8542205155787641
 20
0.9211791424976514
 30
0.0
 40
0.125
  1
Corner Moulding
  0
TEXT
  5
32C23
  8
0
 10
1.858824881199501
 20
0.7123342129842363
 30
0.0
 40
0.125
  1
TL-205
  0
TEXT
  5
32C24
  8
0
 10
1.8439033259471129
 20
0.5018692289005619
 30
0.0
 40
0.125
  1
1-1/8" x 1-1/8"
  0
TEXT
  5
32C25
  8
0
 10
1.855840570149023
 20
0.2914042448168874
 30
0.0
 40
0.125
  1
800.66.TAGUE
  0
ENDBLK
  5
32C27
  8
0
  0
BLOCK
  8
0
  2
*U79
 70
     1
 10
0.0
 20
0.0
 30
0.0
  3
*U79
  1

  0
TEXT
  5
32C29
  8
0
 10
1.334185060618698
 20
0.6786227981105119
 30
0.0
 40
0.125
  1
Corner Moulding
  0
TEXT
  5
32C2A
  8
0
 10
1.3387894262394351
 20
0.4697778685970966
 30
0.0
 40
0.125
  1
TL-206
  0
TEXT
  5
32C2B
  8
0
 10
1.3355493170989159
 20
0.2593128845134221
 30
0.0
 40
0.125
  1
3/4" x 3/4"
  0
TEXT
  5
32C2C
  8
0
 10
1.3358051151889569
 20
0.0488479004297477
 30
0.0
 40
0.125
  1
800.66.TAGUE
  0
ENDBLK
  5
32C2E
  8
0
  0
BLOCK
  8
0
  2
*U80
 70
     1
 10
0.0
 20
0.0
 30
0.0
  3
*U80
  1

  0
TEXT
  5
32C30
  8
0
 10
1.823849037637477
 20
0.8585475398531504
 30
0.0
 40
0.125
  1
Cove
  0
TEXT
  5
32C31
  8
0
 10
1.828453403258214
 20
0.6497026103397352
 30
0.0
 40
0.125
  1
TL-83
  0
TEXT
  5
32C32
  8
0
 10
1.825298560147709
 20
0.4392376262560608
 30
0.0
 40
0.125
  1
9/16" x 2-5/8"
  0
TEXT
  5
32C33
  8
0
 10
1.8254690922077359
 20
0.2287726421723863
 30
0.0
 40
0.125
  1
800.66.TAGUE
  0
ENDBLK
  5
32C35
  8
0
  0
BLOCK
  8
0
  2
*U81
 70
     1
 10
0.0
 20
0.0
 30
0.0
  3
*U81
  1

  0
TEXT
  5
32C37
  8
0
 10
1.4372220564187941
 20
0.6786219190419321
 30
0.0
 40
0.125
  1
Cove
  0
TEXT
  5
32C38
  8
0
 10
1.4418264220395309
 20
0.4697769895285169
 30
0.0
 40
0.125
  1
TL-86
  0
TEXT
  5
32C39
  8
0
 10
1.4386715789290261
 20
0.2593120054448424
 30
0.0
 40
0.125
  1
9/16" x 1-5/8"
  0
TEXT
  5
32C3A
  8
0
 10
1.438842110989053
 20
0.048847021361168
 30
0.0
 40
0.125
  1
800.66.TAGUE
  0
ENDBLK
  5
32C3C
  8
0
  0
BLOCK
  8
0
  2
*U82
 70
     1
 10
0.0
 20
0.0
 30
0.0
  3
*U82
  1

  0
TEXT
  5
32C3E
  8
0
 10
1.5163761963436611
 20
0.6786216177161056
 30
0.0
 40
0.125
  1
Cove
  0
TEXT
  5
32C3F
  8
0
 10
1.5209805619643979
 20
0.4697766882026904
 30
0.0
 40
0.125
  1
TL-100
  0
TEXT
  5
32C40
  8
0
 10
1.506059006712011
 20
0.2593117041190159
 30
0.0
 40
0.125
  1
11/16" x 11/16"
  0
TEXT
  5
32C41
  8
0
 10
1.5179962509139211
 20
0.0488467200353415
 30
0.0
 40
0.125
  1
800.66.TAGUE
  0
ENDBLK
  5
32C43
  8
0
  0
BLOCK
  8
0
  2
*U83
 70
     1
 10
0.0
 20
0.0
 30
0.0
  3
*U83
  1

  0
TEXT
  5
32C45
  8
0
 10
1.281862643234239
 20
0.6786219754701666
 30
0.0
 40
0.125
  1
Cove
  0
TEXT
  5
32C46
  8
0
 10
1.286467008854975
 20
0.4697770459567514
 30
0.0
 40
0.125
  1
TL-101
  0
TEXT
  5
32C47
  8
0
 10
1.2715454536025881
 20
0.259312061873077
 30
0.0
 40
0.125
  1
1/2" x 1/2"
  0
TEXT
  5
32C48
  8
0
 10
1.283482697804498
 20
0.0488470777894026
 30
0.0
 40
0.125
  1
800.66.TAGUE
  0
ENDBLK
  5
32C4A
  8
0
  0
BLOCK
  8
0
  2
*U84
 70
     1
 10
0.0
 20
0.0
 30
0.0
  3
*U84
  1

  0
TEXT
  5
32C4C
  8
0
 10
8.9871190848671514
 20
3.8959346082645121
 30
0.0
 40
0.125
  1
Cove
  0
TEXT
  5
32C4D
  8
0
 10
8.9917234504878873
 20
3.6870896787510969
 30
0.0
 40
0.125
  1
TL-542
  0
TEXT
  5
32C4E
  8
0
 10
8.9884833413473686
 20
3.4766246946674229
 30
0.0
 40
0.125
  1
3/4" x 4"
  0
TEXT
  5
32C4F
  8
0
 10
8.9887391394374099
 20
3.2661597105837492
 30
0.0
 40
0.125
  1
800.66.TAGUE
  0
ENDBLK
  5
32C51
  8
0
  0
BLOCK
  8
0
  2
*U85
 70
     1
 10
0.0
 20
0.0
 30
0.0
  3
*U85
  1

  0
TEXT
  5
32C53
  8
0
 10
2.0449744451125631
 20
2.5585391787528962
 30
0.0
 40
0.125
  1
Cove
  0
TEXT
  5
32C54
  8
0
 10
2.0495788107332991
 20
2.349694249239481
 30
0.0
 40
0.125
  1
TL-542
  0
TEXT
  5
32C55
  8
0
 10
2.0463387015927812
 20
2.139229265155806
 30
0.0
 40
0.125
  1
3/4" x 4"
  0
TEXT
  5
32C56
  8
0
 10
2.046594499682822
 20
1.9287642810721319
 30
0.0
 40
0.125
  1
800.66.TAGUE
  0
ENDBLK
  5
32C58
  8
0
  0
BLOCK
  8
0
  2
*U86
 70
     1
 10
0.0
 20
0.0
 30
0.0
  3
*U86
  1

  0
TEXT
  5
32C5A
  8
0
 10
1.972901825589735
 20
0.6861779570716795
 30
0.0
 40
0.125
  1
Cove
  0
TEXT
  5
32C5B
  8
0
 10
1.977506191210471
 20
0.4773330275582644
 30
0.0
 40
0.125
  1
TL-2285
  0
TEXT
  5
32C5C
  8
0
 10
1.9625846359580841
 20
0.2176457378811383
 30
0.0
 40
0.125
  1
1-
  0
TEXT
  5
32C5D
  8
0
 10
2.1127371939389841
 20
0.3048707378811382
 30
0.0
 40
0.087225
  1
3
  0
LINE
  5
32C5E
  8
0
 10
2.139480062265986
 20
0.233420200818031
 30
0.0
 11
2.2395404715874259
 21
0.3763212749442456
 31
0.0
  0
TEXT
  5
32C5F
  8
0
 10
2.202500802397374
 20
0.1885707378811383
 30
0.0
 40
0.087225
  1
4
  0
TEXT
  5
32C60
  8
0
 10
2.2702102498735002
 20
0.2176457378811383
 30
0.0
 40
0.125
  1
" x 1-
  0
TEXT
  5
32C61
  8
0
 10
2.6666963685638141
 20
0.3048707378811382
 30
0.0
 40
0.087225
  1
3
  0
LINE
  5
32C62
  8
0
 10
2.6934392368908151
 20
0.233420200818031
 30
0.0
 11
2.793499646212255
 21
0.3763212749442456
 31
0.0
  0
TEXT
  5
32C63
  8
0
 10
2.756459977022204
 20
0.1885707378811383
 30
0.0
 40
0.087225
  1
4
  0
TEXT
  5
32C64
  8
0
 10
2.8241694244983289
 20
0.2176457378811383
 30
0.0
 40
0.125
  1
"
  0
TEXT
  5
32C65
  8
0
 10
1.974521880159994
 20
0.0488474204641306
 30
0.0
 40
0.125
  1
800.66.TAGUE
  0
ENDBLK
  5
32C67
  8
0
  0
BLOCK
  8
0
  2
*U87
 70
     1
 10
0.0
 20
0.0
 30
0.0
  3
*U87
  1

  0
TEXT
  5
32C69
  8
0
 10
6.0916813895717663
 20
1.1589680224542569
 30
0.0
 40
0.125
  1
TL-539
  0
ENDBLK
  5
32C6B
  8
0
  0
BLOCK
  8
0
  2
*U88
 70
     1
 10
0.0
 20
0.0
 30
0.0
  3
*U88
  1

  0
INSERT
  5
32C6D
  8
0
  2
_OPEN30
 10
5.5297396917334254
 20
1.423040350996984
 30
0.0
 41
0.046875
 42
0.046875
 43
0.046875
 50
156.5115553320598
  0
POLYLINE
  5
32C6E
  8
0
 66
     1
 10
0.0
 20
0.0
 30
0.0
  0
VERTEX
  5
32C6F
  8
0
 10
5.5727306514936332
 20
1.404357658367275
 30
0.0
  0
VERTEX
  5
32C70
  8
0
 10
5.992991484785648
 20
1.221723820544298
 30
0.0
  0
VERTEX
  5
32C71
  8
0
 10
6.0332741590124206
 20
1.221723820544298
 30
0.0
  0
SEQEND
  5
32C72
  8
0
  0
ENDBLK
  5
32C74
  8
0
  0
BLOCK
  8
0
  2
*U89
 70
     1
 10
0.0
 20
0.0
 30
0.0
  3
*U89
  1

  0
TEXT
  5
32C76
  8
0
 10
8.2506161076617612
 20
3.659671552769634
 30
0.0
 40
0.125
  1
TL-25
  0
ENDBLK
  5
32C78
  8
0
  0
BLOCK
  8
0
  2
*U90
 70
     1
 10
0.0
 20
0.0
 30
0.0
  3
*U90
  1

  0
INSERT
  5
32C7A
  8
0
  2
_OPEN30
 10
7.5943396585593632
 20
4.1117705265849054
 30
0.0
 41
0.046875
 42
0.046875
 43
0.046875
 50
143.83030806409641
  0
POLYLINE
  5
32C7B
  8
0
 66
     1
 10
0.0
 20
0.0
 30
0.0
  0
VERTEX
  5
32C7C
  8
0
 10
7.6321805623951144
 20
4.0841058989551424
 30
0.0
  0
VERTEX
  5
32C7D
  8
0
 10
8.1269005109553518
 20
3.7224273508596748
 30
0.0
  0
VERTEX
  5
32C7E
  8
0
 10
8.1922088771024164
 20
3.7224273508596748
 30
0.0
  0
SEQEND
  5
32C7F
  8
0
  0
ENDBLK
  5
32C81
  8
0
  0
BLOCK
  8
0
  2
*U91
 70
     1
 10
0.0
 20
0.0
 30
0.0
  3
*U91
  1

  0
TEXT
  5
32C83
  8
0
 10
7.4510287652605358
 20
2.3081779177865811
 30
0.0
 40
0.125
  1
Crown Assembly
  0
TEXT
  5
32C84
  8
0
 10
7.4556331308812718
 20
2.0993329882731659
 30
0.0
 40
0.125
  1
TL-660
  0
TEXT
  5
32C85
  8
0
 10
7.4523930217407539
 20
1.888868004189491
 30
0.0
 40
0.125
  1
3-1/4" x 5-5/8"
  0
TEXT
  5
32C86
  8
0
 10
7.4526488198307952
 20
1.6784030201058171
 30
0.0
 40
0.125
  1
800.66.TAGUE
  0
ENDBLK
  5
32C88
  8
0
  0
BLOCK
  8
0
  2
*U92
 70
     1
 10
0.0
 20
0.0
 30
0.0
  3
*U92
  1

  0
TEXT
  5
32C8A
  8
0
 10
11.100877515101759
 20
4.3482389803681532
 30
0.0
 40
0.125
  1
Crown Assembly
  0
TEXT
  5
32C8B
  8
0
 10
11.1054818807225
 20
4.1393940508547384
 30
0.0
 40
0.125
  1
TL-661
  0
TEXT
  5
32C8C
  8
0
 10
11.1073577333828
 20
3.928929066771063
 30
0.0
 40
0.125
  1
4-1/2" x 9-3/8"
  0
TEXT
  5
32C8D
  8
0
 10
11.102497569672019
 20
3.7184640826873889
 30
0.0
 40
0.125
  1
800.66.TAGUE
  0
ENDBLK
  5
32C8F
  8
0
  0
BLOCK
  8
0
  2
*U93
 70
     1
 10
0.0
 20
0.0
 30
0.0
  3
*U93
  1

  0
TEXT
  5
32C91
  8
0
 10
9.9973648083120619
 20
4.7141156879961379
 30
0.0
 40
0.125
  1
TL-238
  0
ENDBLK
  5
32C93
  8
0
  0
BLOCK
  8
0
  2
*U94
 70
     1
 10
0.0
 20
0.0
 30
0.0
  3
*U94
  1

  0
INSERT
  5
32C95
  8
0
  2
_OPEN30
 10
9.1771961149673302
 20
5.3422014599419754
 30
0.0
 41
0.046875
 42
0.046875
 43
0.046875
 50
140.13823031629951
  0
POLYLINE
  5
32C96
  8
0
 66
     1
 10
0.0
 20
0.0
 30
0.0
  0
VERTEX
  5
32C97
  8
0
 10
9.2131770361390952
 20
5.3121575098582854
 30
0.0
  0
VERTEX
  5
32C98
  8
0
 10
9.8542406836302234
 20
4.7768714860861792
 30
0.0
  0
VERTEX
  5
32C99
  8
0
 10
9.938957577752717
 20
4.7768714860861792
 30
0.0
  0
SEQEND
  5
32C9A
  8
0
  0
ENDBLK
  5
32C9C
  8
0
  0
BLOCK
  8
0
  2
*U95
 70
     1
 10
0.0
 20
0.0
 30
0.0
  3
*U95
  1

  0
TEXT
  5
32C9E
  8
0
 10
9.2979572148710243
 20
1.0810665778271971
 30
0.0
 40
0.125
  1
TL-64
  0
ENDBLK
  5
32CA0
  8
0
  0
BLOCK
  8
0
  2
*U96
 70
     1
 10
0.0
 20
0.0
 30
0.0
  3
*U96
  1

  0
INSERT
  5
32CA2
  8
0
  2
_OPEN30
 10
8.6422745705577313
 20
1.642559297640787
 30
0.0
 41
0.046875
 42
0.046875
 43
0.046875
 50
135.79936825235271
  0
POLYLINE
  5
32CA3
  8
0
 66
     1
 10
0.0
 20
0.0
 30
0.0
  0
VERTEX
  5
32CA4
  8
0
 10
8.6758793949613793
 20
1.6098793129131279
 30
0.0
  0
VERTEX
  5
32CA5
  8
0
 10
9.1442411396712941
 20
1.1544073699477619
 30
0.0
  0
VERTEX
  5
32CA6
  8
0
 10
9.2395499843116795
 20
1.1438223759172379
 30
0.0
  0
SEQEND
  5
32CA7
  8
0
  0
ENDBLK
  5
32CA9
  8
0
  0
BLOCK
  8
0
  2
*U97
 70
     1
 10
0.0
 20
0.0
 30
0.0
  3
*U97
  1

  0
TEXT
  5
32CAB
  8
0
 10
8.7532801379956631
 20
2.9571153571353181
 30
0.0
 40
0.125
  1
1 x 6 Board
  0
ENDBLK
  5
32CAD
  8
0
  0
BLOCK
  8
0
  2
*U98
 70
     1
 10
0.0
 20
0.0
 30
0.0
  3
*U98
  1

  0
INSERT
  5
32CAF
  8
0
  2
_OPEN30
 10
8.1167699671577793
 20
3.019871155225359
 30
0.0
 41
0.046875
 42
0.046875
 43
0.046875
 50
180.0
  0
POLYLINE
  5
32CB0
  8
0
 66
     1
 10
0.0
 20
0.0
 30
0.0
  0
VERTEX
  5
32CB1
  8
0
 10
8.1636449671577793
 20
3.019871155225359
 30
0.0
  0
VERTEX
  5
32CB2
  8
0
 10
8.7097944626887056
 20
3.019871155225359
 30
0.0
  0
SEQEND
  5
32CB3
  8
0
  0
ENDBLK
  5
32CB5
  8
0
  0
BLOCK
  8
0
  2
*U99
 70
     1
 10
0.0
 20
0.0
 30
0.0
  3
*U99
  1

  0
TEXT
  5
32CB7
  8
0
 10
9.3508379695960624
 20
3.9746409328325849
 30
0.0
 40
0.125
  1
TL-54
  0
ENDBLK
  5
32CB9
  8
0
  0
BLOCK
  8
0
  2
*U100
 70
     1
 10
0.0
 20
0.0
 30
0.0
  3
*U100
  1

  0
INSERT
  5
32CBB
  8
0
  2
_OPEN30
 10
8.5596004878627241
 20
4.5802047155393657
 30
0.0
 41
0.046875
 42
0.046875
 43
0.046875
 50
140.0397693589118
  0
POLYLINE
  5
32CBC
  8
0
 66
     1
 10
0.0
 20
0.0
 30
0.0
  0
VERTEX
  5
32CBD
  8
0
 10
8.59552972636817
 20
4.5500989777902472
 30
0.0
  0
VERTEX
  5
32CBE
  8
0
 10
9.2077117660230652
 20
4.0371409328325853
 30
0.0
  0
VERTEX
  5
32CBF
  8
0
 10
9.2924307390367176
 20
4.0371409328325853
 30
0.0
  0
SEQEND
  5
32CC0
  8
0
  0
ENDBLK
  5
32CC2
  8
0
  0
BLOCK
  8
0
  2
*U101
 70
     1
 10
0.0
 20
0.0
 30
0.0
  3
*U101
  1

  0
TEXT
  5
32CC4
  8
0
 10
11.67173909884349
 20
7.0992410855625394
 30
0.0
 40
0.125
  1
TL-47
  0
ENDBLK
  5
32CC6
  8
0
  0
BLOCK
  8
0
  2
*U102
 70
     1
 10
0.0
 20
0.0
 30
0.0
  3
*U102
  1

  0
INSERT
  5
32CC8
  8
0
  2
_OPEN30
 10
10.865727544193421
 20
7.6405095440040887
 30
0.0
 41
0.046875
 42
0.046875
 43
0.046875
 50
143.72235556643869
  0
POLYLINE
  5
32CC9
  8
0
 66
     1
 10
0.0
 20
0.0
 30
0.0
  0
VERTEX
  5
32CCA
  8
0
 10
10.903516257235109
 20
7.6127736684698251
 30
0.0
  0
VERTEX
  5
32CCB
  8
0
 10
11.518025102534921
 20
7.1617410855625394
 30
0.0
  0
VERTEX
  5
32CCC
  8
0
 10
11.613331868284151
 20
7.1617410855625394
 30
0.0
  0
SEQEND
  5
32CCD
  8
0
  0
ENDBLK
  5
32CCF
  8
0
  0
BLOCK
  8
0
  2
*U103
 70
     1
 10
0.0
 20
0.0
 30
0.0
  3
*U103
  1

  0
TEXT
  5
32CD1
  8
0
 10
10.306078575796199
 20
1.991254863143028
 30
0.0
 40
0.125
  1
Crown Assembly
  0
TEXT
  5
32CD2
  8
0
 10
10.31068294141693
 20
1.7824099336296131
 30
0.0
 40
0.125
  1
TL-662
  0
TEXT
  5
32CD3
  8
0
 10
10.31255879407723
 20
1.5719449495459381
 30
0.0
 40
0.125
  1
4-3/8" x 5"
  0
TEXT
  5
32CD4
  8
0
 10
10.307698630366451
 20
1.361479965462264
 30
0.0
 40
0.125
  1
800.66.TAGUE
  0
ENDBLK
  5
32CD6
  8
0
  0
BLOCK
  8
0
  2
*U104
 70
     1
 10
0.0
 20
0.0
 30
0.0
  3
*U104
  1

  0
TEXT
  5
32CD8
  8
0
 10
8.4907133848708494
 20
0.0967622511747205
 30
0.0
 40
0.125
  1
TL-623
  0
ENDBLK
  5
32CDA
  8
0
  0
BLOCK
  8
0
  2
*U105
 70
     1
 10
0.0
 20
0.0
 30
0.0
  3
*U105
  1

  0
INSERT
  5
32CDC
  8
0
  2
_OPEN30
 10
7.8166701362065956
 20
0.6199995871735382
 30
0.0
 41
0.046875
 42
0.046875
 43
0.046875
 50
138.3966245586565
  0
POLYLINE
  5
32CDD
  8
0
 66
     1
 10
0.0
 20
0.0
 30
0.0
  0
VERTEX
  5
32CDE
  8
0
 10
7.8517213381880619
 20
0.588875980945235
 30
0.0
  0
VERTEX
  5
32CDF
  8
0
 10
8.3352614355432024
 20
0.1595180492647614
 30
0.0
  0
VERTEX
  5
32CE0
  8
0
 10
8.4323061543115045
 20
0.1595180492647614
 30
0.0
  0
SEQEND
  5
32CE1
  8
0
  0
ENDBLK
  5
32CE3
  8
0
  0
BLOCK
  8
0
  2
*U106
 70
     1
 10
0.0
 20
0.0
 30
0.0
  3
*U106
  1

  0
TEXT
  5
32CE5
  8
0
 10
9.5905632324050352
 20
2.4357622671589061
 30
0.0
 40
0.125
  1
TL-547
  0
ENDBLK
  5
32CE7
  8
0
  0
BLOCK
  8
0
  2
*U107
 70
     1
 10
0.0
 20
0.0
 30
0.0
  3
*U107
  1

  0
INSERT
  5
32CE9
  8
0
  2
_OPEN30
 10
8.9379372763926312
 20
3.012476083171463
 30
0.0
 41
0.046875
 42
0.046875
 43
0.046875
 50
134.64930297028991
  0
POLYLINE
  5
32CEA
  8
0
 66
     1
 10
0.0
 20
0.0
 30
0.0
  0
VERTEX
  5
32CEB
  8
0
 10
8.9708794087728574
 20
2.9791281965930958
 30
0.0
  0
VERTEX
  5
32CEC
  8
0
 10
9.4458944915828624
 20
2.4982622671589061
 30
0.0
  0
VERTEX
  5
32CED
  8
0
 10
9.5321560018456921
 20
2.4982622671589061
 30
0.0
  0
SEQEND
  5
32CEE
  8
0
  0
ENDBLK
  5
32CF0
  8
0
  0
BLOCK
  8
0
  2
*U108
 70
     1
 10
0.0
 20
0.0
 30
0.0
  3
*U108
  1

  0
TEXT
  5
32CF2
  8
0
 10
11.520691030397129
 20
3.912039811269675
 30
0.0
 40
0.125
  1
TL-623
  0
ENDBLK
  5
32CF4
  8
0
  0
BLOCK
  8
0
  2
*U109
 70
     1
 10
0.0
 20
0.0
 30
0.0
  3
*U109
  1

  0
INSERT
  5
32CF6
  8
0
  2
_OPEN30
 10
11.020454893837719
 20
4.3488596077285129
 30
0.0
 41
0.046875
 42
0.046875
 43
0.046875
 50
131.85755087258991
  0
POLYLINE
  5
32CF7
  8
0
 66
     1
 10
0.0
 20
0.0
 30
0.0
  0
VERTEX
  5
32CF8
  8
0
 10
11.051733687379979
 20
4.3139468206793472
 30
0.0
  0
VERTEX
  5
32CF9
  8
0
 10
11.36523908106949
 20
3.9640181370855312
 30
0.0
  0
VERTEX
  5
32CFA
  8
0
 10
11.46302804287723
 20
3.9642485872277571
 30
0.0
  0
SEQEND
  5
32CFB
  8
0
  0
ENDBLK
  5
32CFD
  8
0
  0
BLOCK
  8
0
  2
*U110
 70
     1
 10
0.0
 20
0.0
 30
0.0
  3
*U110
  1

  0
TEXT
  5
32CFF
  8
0
 10
9.2456145386519548
 20
1.830235825918082
 30
0.0
 40
0.125
  1
Crown Assembly
  0
TEXT
  5
32D00
  8
0
 10
9.2502189042726908
 20
1.621390896404667
 30
0.0
 40
0.125
  1
TL-663
  0
TEXT
  5
32D01
  8
0
 10
9.2491957119125274
 20
1.4109259123209921
 30
0.0
 40
0.125
  1
2-11/16" x 4-1/4"
  0
TEXT
  5
32D02
  8
0
 10
9.2472345932222133
 20
1.200460928237318
 30
0.0
 40
0.125
  1
800.66.TAGUE
  0
ENDBLK
  5
32D04
  8
0
  0
BLOCK
  8
0
  2
*U111
 70
     1
 10
0.0
 20
0.0
 30
0.0
  3
*U111
  1

  0
TEXT
  5
32D06
  8
0
 10
7.0011486317315006
 20
0.0994237416013103
 30
0.0
 40
0.125
  1
TL-56
  0
ENDBLK
  5
32D08
  8
0
  0
BLOCK
  8
0
  2
*U112
 70
     1
 10
0.0
 20
0.0
 30
0.0
  3
*U112
  1

  0
INSERT
  5
32D0A
  8
0
  2
_OPEN30
 10
6.1447636050547771
 20
0.8025867523464285
 30
0.0
 41
0.046875
 42
0.046875
 43
0.046875
 50
136.0557062383902
  0
POLYLINE
  5
32D0B
  8
0
 66
     1
 10
0.0
 20
0.0
 30
0.0
  0
VERTEX
  5
32D0C
  8
0
 10
6.1785143010030019
 20
0.7700574402109038
 30
0.0
  0
VERTEX
  5
32D0D
  8
0
 10
6.8092163001293784
 20
0.1621795396913512
 30
0.0
  0
VERTEX
  5
32D0E
  8
0
 10
6.9427414011721558
 20
0.1621795396913512
 30
0.0
  0
SEQEND
  5
32D0F
  8
0
  0
ENDBLK
  5
32D11
  8
0
  0
BLOCK
  8
0
  2
*U113
 70
     1
 10
0.0
 20
0.0
 30
0.0
  3
*U113
  1

  0
TEXT
  5
32D13
  8
0
 10
7.4758184206721721
 20
1.2018846043570841
 30
0.0
 40
0.125
  1
1-1/16" x 1-7/8"
  0
TEXT
  5
32D14
  8
0
 10
7.4943211491851329
 20
0.9914196202734098
 30
0.0
 40
0.125
  1
w/ 3/8" Bead
  0
ENDBLK
  5
32D16
  8
0
  0
BLOCK
  8
0
  2
*U114
 70
     1
 10
0.0
 20
0.0
 30
0.0
  3
*U114
  1

  0
INSERT
  5
32D18
  8
0
  2
_OPEN30
 10
6.8403616286130378
 20
1.6201217739683209
 30
0.0
 41
0.046875
 42
0.046875
 43
0.046875
 50
143.32430708272619
  0
POLYLINE
  5
32D19
  8
0
 66
     1
 10
0.0
 20
0.0
 30
0.0
  0
VERTEX
  5
32D1A
  8
0
 10
6.8779567430390864
 20
1.592124041983527
 30
0.0
  0
VERTEX
  5
32D1B
  8
0
 10
7.316611268313749
 20
1.265450429732254
 30
0.0
  0
VERTEX
  5
32D1C
  8
0
 10
7.4323327453652146
 20
1.265450429732254
 30
0.0
  0
SEQEND
  5
32D1D
  8
0
  0
ENDBLK
  5
32D1F
  8
0
  0
BLOCK
  8
0
  2
*U115
 70
     1
 10
0.0
 20
0.0
 30
0.0
  3
*U115
  1

  0
TEXT
  5
32D21
  8
0
 10
8.2206740073252771
 20
2.3682472913577719
 30
0.0
 40
0.125
  1
TL-71
  0
ENDBLK
  5
32D23
  8
0
  0
BLOCK
  8
0
  2
*U116
 70
     1
 10
0.0
 20
0.0
 30
0.0
  3
*U116
  1

  0
INSERT
  5
32D25
  8
0
  2
_OPEN30
 10
7.732786633242994
 20
2.897502127018015
 30
0.0
 41
0.046875
 42
0.046875
 43
0.046875
 50
127.3606991348481
  0
POLYLINE
  5
32D26
  8
0
 66
     1
 10
0.0
 20
0.0
 30
0.0
  0
VERTEX
  5
32D27
  8
0
 10
7.7612318262646021
 20
2.8602444215201781
 30
0.0
  0
VERTEX
  5
32D28
  8
0
 10
8.0821525476966372
 20
2.4399002980619571
 30
0.0
  0
VERTEX
  5
32D29
  8
0
 10
8.1622667767659323
 20
2.4310030894478132
 30
0.0
  0
SEQEND
  5
32D2A
  8
0
  0
ENDBLK
  5
32D2C
  8
0
  0
BLOCK
  8
0
  2
*U117
 70
     1
 10
0.0
 20
0.0
 30
0.0
  3
*U117
  1

  0
TEXT
  5
32D2E
  8
0
 10
8.3234330435333614
 20
1.414021240929644
 30
0.0
 40
0.125
  1
Crown Assembly
  0
TEXT
  5
32D2F
  8
0
 10
8.3280374091540974
 20
1.2051763114162291
 30
0.0
 40
0.125
  1
TL-664
  0
TEXT
  5
32D30
  8
0
 10
8.3247973000135786
 20
0.9947113273325546
 30
0.0
 40
0.125
  1
3-1/16" x 4-1/4"
  0
TEXT
  5
32D31
  8
0
 10
8.3250530981036182
 20
0.7842463432488803
 30
0.0
 40
0.125
  1
800.66.TAGUE
  0
ENDBLK
  5
32D33
  8
0
  0
BLOCK
  8
0
  2
*U118
 70
     1
 10
0.0
 20
0.0
 30
0.0
  3
*U118
  1

  0
TEXT
  5
32D35
  8
0
 10
6.7733031137018482
 20
0.0417615579446075
 30
0.0
 40
0.125
  1
TL-B3
  0
ENDBLK
  5
32D37
  8
0
  0
BLOCK
  8
0
  2
*U119
 70
     1
 10
0.0
 20
0.0
 30
0.0
  3
*U119
  1

  0
INSERT
  5
32D39
  8
0
  2
_OPEN30
 10
6.0277617672714987
 20
0.5589010370247252
 30
0.0
 41
0.046875
 42
0.046875
 43
0.046875
 50
143.10777595702231
  0
POLYLINE
  5
32D3A
  8
0
 66
     1
 10
0.0
 20
0.0
 30
0.0
  0
VERTEX
  5
32D3B
  8
0
 10
6.065250804980173
 20
0.5307614265676202
 30
0.0
  0
VERTEX
  5
32D3C
  8
0
 10
6.6427250972388938
 20
0.0973040047092582
 30
0.0
  0
VERTEX
  5
32D3D
  8
0
 10
6.716868750864136
 20
0.0942112590512352
 30
0.0
  0
SEQEND
  5
32D3E
  8
0
  0
ENDBLK
  5
32D40
  8
0
  0
BLOCK
  8
0
  2
*U120
 70
     1
 10
0.0
 20
0.0
 30
0.0
  3
*U120
  1

  0
TEXT
  5
32D42
  8
0
 10
7.886387182432661
 20
2.2482273942292861
 30
0.0
 40
0.125
  1
TL-49
  0
ENDBLK
  5
32D44
  8
0
  0
BLOCK
  8
0
  2
*U121
 70
     1
 10
0.0
 20
0.0
 30
0.0
  3
*U121
  1

  0
INSERT
  5
32D46
  8
0
  2
_OPEN30
 10
7.253797201372719
 20
2.7268635825205361
 30
0.0
 41
0.046875
 42
0.046875
 43
0.046875
 50
136.21869819866211
  0
POLYLINE
  5
32D47
  8
0
 66
     1
 10
0.0
 20
0.0
 30
0.0
  0
VERTEX
  5
32D48
  8
0
 10
7.2876402982734163
 20
2.6944304140479658
 30
0.0
  0
VERTEX
  5
32D49
  8
0
 10
7.6877566634765344
 20
2.310983192319326
 30
0.0
  0
VERTEX
  5
32D4A
  8
0
 10
7.8279799518733171
 20
2.310983192319326
 30
0.0
  0
SEQEND
  5
32D4B
  8
0
  0
ENDBLK
  5
32D4D
  8
0
  0
BLOCK
  8
0
  2
*U122
 70
     1
 10
0.0
 20
0.0
 30
0.0
  3
*U122
  1

  0
INSERT
  5
32D4F
  8
0
  6
CONTINUOUS
  2
_OPEN30
 10
16.890010925503759
 20
4.0998827605750421
 30
0.0
 41
0.046875
 42
0.046875
 43
0.046875
 50
220.32439975277339
  0
POLYLINE
  5
32D50
  8
0
  6
CONTINUOUS
 66
     1
 10
0.0
 20
0.0
 30
0.0
  0
VERTEX
  5
32D51
  8
0
  6
CONTINUOUS
 10
16.92574808899867
 20
4.1302162531259778
 30
0.0
  0
VERTEX
  5
32D52
  8
0
  6
CONTINUOUS
 10
17.378553106259119
 20
4.5145544678824763
 30
0.0
  0
VERTEX
  5
32D53
  8
0
  6
CONTINUOUS
 10
17.468327545948402
 20
4.5145544678824763
 30
0.0
  0
SEQEND
  5
32D54
  8
0
  6
CONTINUOUS
  0
ENDBLK
  5
32D56
  8
0
  0
BLOCK
  8
0
  2
*U123
 70
     1
 10
0.0
 20
0.0
 30
0.0
  3
*U123
  1

  0
TEXT
  5
32D58
  8
0
 10
17.526734776507741
 20
4.451798669792435
 30
0.0
 40
0.125
  1
TL-542
  0
ENDBLK
  5
32D5A
  8
0
  0
BLOCK
  8
0
  2
*U124
 70
     1
 10
0.0
 20
0.0
 30
0.0
  3
*U124
  1

  0
INSERT
  5
32D5C
  8
0
  6
CONTINUOUS
  2
_OPEN30
 10
13.390010925503759
 20
4.5373827605750421
 30
0.0
 41
0.046875
 42
0.046875
 43
0.046875
 50
110.44249644019671
  0
POLYLINE
  5
32D5D
  8
0
  6
CONTINUOUS
 66
     1
 10
0.0
 20
0.0
 30
0.0
  0
VERTEX
  5
32D5E
  8
0
  6
CONTINUOUS
 10
13.40638282250643
 20
4.4934597983168567
 30
0.0
  0
VERTEX
  5
32D5F
  8
0
  6
CONTINUOUS
 10
13.78538853520223
 20
3.4766531563219578
 30
0.0
  0
VERTEX
  5
32D60
  8
0
  6
CONTINUOUS
 10
13.93846127658429
 20
3.4766531563219578
 30
0.0
  0
SEQEND
  5
32D61
  8
0
  6
CONTINUOUS
  0
ENDBLK
  5
32D63
  8
0
  0
BLOCK
  8
0
  2
*U125
 70
     1
 10
0.0
 20
0.0
 30
0.0
  3
*U125
  1

  0
TEXT
  5
32D65
  8
0
 10
13.981946951891249
 20
3.413897358231917
 30
0.0
 40
0.125
  1
1 x 6 Board
  0
ENDBLK
  5
32D67
  8
0
  0
BLOCK
  8
0
  2
*U126
 70
     1
 10
0.0
 20
0.0
 30
0.0
  3
*U126
  1

  0
INSERT
  5
32D69
  8
0
  6
CONTINUOUS
  2
_OPEN30
 10
11.87770156644649
 20
2.3649564226565181
 30
0.0
 41
0.046875
 42
0.046875
 43
0.046875
 50
130.18882139360491
  0
POLYLINE
  5
32D6A
  8
0
  6
CONTINUOUS
 66
     1
 10
0.0
 20
0.0
 30
0.0
  0
VERTEX
  5
32D6B
  8
0
  6
CONTINUOUS
 10
11.907950409704521
 20
2.3291475814779599
 30
0.0
  0
VERTEX
  5
32D6C
  8
0
  6
CONTINUOUS
 10
12.248739654318509
 20
1.9257183385265071
 30
0.0
  0
VERTEX
  5
32D6D
  8
0
  6
CONTINUOUS
 10
12.312149687699391
 20
1.9257183385265071
 30
0.0
  0
SEQEND
  5
32D6E
  8
0
  6
CONTINUOUS
  0
ENDBLK
  5
32D70
  8
0
  0
BLOCK
  8
0
  2
*U127
 70
     1
 10
0.0
 20
0.0
 30
0.0
  3
*U127
  1

  0
TEXT
  5
32D72
  8
0
 10
12.37055691825873
 20
1.862962540436466
 30
0.0
 40
0.125
  1
TL-33
  0
ENDBLK
  5
32D74
  8
0
  0
BLOCK
  8
0
  2
*U128
 70
     1
 10
0.0
 20
0.0
 30
0.0
  3
*U128
  1

  0
INSERT
  5
32D76
  8
0
  6
CONTINUOUS
  2
_OPEN30
 10
18.394001282817442
 20
6.4209189786757861
 30
0.0
 41
0.046875
 42
0.046875
 43
0.046875
 50
123.0920274041645
  0
POLYLINE
  5
32D77
  8
0
  6
CONTINUOUS
 66
     1
 10
0.0
 20
0.0
 30
0.0
  0
VERTEX
  5
32D78
  8
0
  6
CONTINUOUS
 10
18.419594347917641
 20
6.38164735222899
 30
0.0
  0
VERTEX
  5
32D79
  8
0
  6
CONTINUOUS
 10
18.6491653891635
 20
6.0293789490693817
 30
0.0
  0
VERTEX
  5
32D7A
  8
0
  6
CONTINUOUS
 10
18.752054828682841
 20
6.0293789490693817
 30
0.0
  0
SEQEND
  5
32D7B
  8
0
  6
CONTINUOUS
  0
ENDBLK
  5
32D7D
  8
0
  0
BLOCK
  8
0
  2
*U129
 70
     1
 10
0.0
 20
0.0
 30
0.0
  3
*U129
  1

  0
TEXT
  5
32D7F
  8
0
 10
18.810462059242191
 20
5.9666231509793421
 30
0.0
 40
0.125
  1
TL-24
  0
ENDBLK
  5
32D81
  8
0
  0
BLOCK
  8
0
  2
*U130
 70
     1
 10
0.0
 20
0.0
 30
0.0
  3
*U130
  1

  0
TEXT
  5
32D83
  8
0
 10
15.59678431273241
 20
2.213317815843554
 30
0.0
 40
0.125
  1
Crown Assembly
  0
TEXT
  5
32D84
  8
0
 10
15.60138867835315
 20
2.0044728863301389
 30
0.0
 40
0.125
  1
TL-665
  0
TEXT
  5
32D85
  8
0
 10
15.59840436730267
 20
1.7940079022464639
 30
0.0
 40
0.125
  1
8-3/8" x 7-7/8"
  0
TEXT
  5
32D86
  8
0
 10
15.59840436730267
 20
1.58354291816279
 30
0.0
 40
0.125
  1
800.66.TAGUE
  0
ENDBLK
  5
32D88
  8
0
  0
BLOCK
  8
0
  2
*U131
 70
     1
 10
0.0
 20
0.0
 30
0.0
  3
*U131
  1

  0
TEXT
  5
32D8A
  8
0
 10
7.9349246968354574
 20
1.686007980218635
 30
0.0
 40
0.125
  1
Crown Assembly
  0
TEXT
  5
32D8B
  8
0
 10
7.9395290624561934
 20
1.47716305070522
 30
0.0
 40
0.125
  1
TL-667
  0
TEXT
  5
32D8C
  8
0
 10
7.93850587009603
 20
1.266698066621545
 30
0.0
 40
0.125
  1
2-5/16" x 3-3/4"
  0
TEXT
  5
32D8D
  8
0
 10
7.936544751405715
 20
1.056233082537871
 30
0.0
 40
0.125
  1
800.66.TAGUE
  0
ENDBLK
  5
32D8F
  8
0
  0
BLOCK
  8
0
  2
*U132
 70
     1
 10
0.0
 20
0.0
 30
0.0
  3
*U132
  1

  0
INSERT
  5
32D91
  8
0
  6
CONTINUOUS
  2
_OPEN30
 10
7.009055351416122
 20
3.050768134400982
 30
0.0
 41
0.046875
 42
0.046875
 43
0.046875
 50
142.35807926426151
  0
POLYLINE
  5
32D92
  8
0
  6
CONTINUOUS
 66
     1
 10
0.0
 20
0.0
 30
0.0
  0
VERTEX
  5
32D93
  8
0
  6
CONTINUOUS
 10
7.0461729927749328
 20
3.0221404148802331
 30
0.0
  0
VERTEX
  5
32D94
  8
0
  6
CONTINUOUS
 10
7.4803814790067227
 20
2.6872484793391318
 30
0.0
  0
VERTEX
  5
32D95
  8
0
  6
CONTINUOUS
 10
7.5548900131420851
 20
2.679804310467147
 30
0.0
  0
SEQEND
  5
32D96
  8
0
  6
CONTINUOUS
  0
ENDBLK
  5
32D98
  8
0
  0
BLOCK
  8
0
  2
*U133
 70
     1
 10
0.0
 20
0.0
 30
0.0
  3
*U133
  1

  0
TEXT
  5
32D9A
  8
0
 10
7.613297243701429
 20
2.617048512377107
 30
0.0
 40
0.125
  1
TL-71
  0
ENDBLK
  5
32D9C
  8
0
  0
BLOCK
  8
0
  2
*U134
 70
     1
 10
0.0
 20
0.0
 30
0.0
  3
*U134
  1

  0
INSERT
  5
32D9E
  8
0
  6
CONTINUOUS
  2
_OPEN30
 10
5.8181306020992452
 20
0.8521781666523793
 30
0.0
 41
0.046875
 42
0.046875
 43
0.046875
 50
142.35807926426151
  0
POLYLINE
  5
32D9F
  8
0
  6
CONTINUOUS
 66
     1
 10
0.0
 20
0.0
 30
0.0
  0
VERTEX
  5
32DA0
  8
0
  6
CONTINUOUS
 10
5.8552482434580551
 20
0.8235504471316302
 30
0.0
  0
VERTEX
  5
32DA1
  8
0
  6
CONTINUOUS
 10
6.2894567296898449
 20
0.4886585115905291
 30
0.0
  0
VERTEX
  5
32DA2
  8
0
  6
CONTINUOUS
 10
6.3639652638252073
 20
0.4812143427185447
 30
0.0
  0
SEQEND
  5
32DA3
  8
0
  6
CONTINUOUS
  0
ENDBLK
  5
32DA5
  8
0
  0
BLOCK
  8
0
  2
*U135
 70
     1
 10
0.0
 20
0.0
 30
0.0
  3
*U135
  1

  0
TEXT
  5
32DA7
  8
0
 10
1.551308446705467
 20
9.4290439625366549
 30
0.0
 40
0.125
  1
Crown Moulding Backer
  0
TEXT
  5
32DA8
  8
0
 10
1.5559128123262029
 20
9.2201990330232402
 30
0.0
 40
0.125
  1
TL-539
  0
TEXT
  5
32DA9
  8
0
 10
1.552757969215699
 20
9.0097340489395652
 30
0.0
 40
0.125
  1
9/16" x 3-5/16"
  0
TEXT
  5
32DAA
  8
0
 10
1.5529285012757259
 20
8.7992690648558902
 30
0.0
 40
0.125
  1
800.66.TAGUE
  0
ENDBLK
  5
32DAC
  8
0
  0
BLOCK
  8
0
  2
*U136
 70
     1
 10
0.0
 20
0.0
 30
0.0
  3
*U136
  1

  0
TEXT
  5
32DAE
  8
0
 10
1.787541778833746
 20
0.8152779313428641
 30
0.0
 40
0.125
  1
Crown Moulding
  0
TEXT
  5
32DAF
  8
0
 10
1.7921461444544831
 20
0.6064330018294492
 30
0.0
 40
0.125
  1
TL-23
  0
TEXT
  5
32DB0
  8
0
 10
1.787968108983814
 20
0.3959680177457746
 30
0.0
 40
0.125
  1
7/8" x 3-3/16"
  0
TEXT
  5
32DB1
  8
0
 10
1.7891618334040049
 20
0.1855030336621002
 30
0.0
 40
0.125
  1
800.66.TAGUE
  0
ENDBLK
  5
32DB3
  8
0
  0
BLOCK
  8
0
  2
*U137
 70
     1
 10
0.0
 20
0.0
 30
0.0
  3
*U137
  1

  0
TEXT
  5
32DB5
  8
0
 10
2.2018711328786691
 20
0.9729018122572075
 30
0.0
 40
0.125
  1
Crown
  0
TEXT
  5
32DB6
  8
0
 10
2.2064754984994059
 20
0.7640568827437924
 30
0.0
 40
0.125
  1
TL-24
  0
TEXT
  5
32DB7
  8
0
 10
2.191553943247019
 20
0.5535918986601179
 30
0.0
 40
0.125
  1
1" x 3-1/2"
  0
TEXT
  5
32DB8
  8
0
 10
2.2034911874489289
 20
0.3431269145764435
 30
0.0
 40
0.125
  1
800.66.TAGUE
  0
ENDBLK
  5
32DBA
  8
0
  0
BLOCK
  8
0
  2
*U138
 70
     1
 10
0.0
 20
0.0
 30
0.0
  3
*U138
  1

  0
TEXT
  5
32DBC
  8
0
 10
2.4799582647584422
 20
1.4094768675851279
 30
0.0
 40
0.125
  1
Crown Moulding
  0
TEXT
  5
32DBD
  8
0
 10
2.484562630379179
 20
1.200631938071713
 30
0.0
 40
0.125
  1
TL-25
  0
TEXT
  5
32DBE
  8
0
 10
2.4696410751267912
 20
0.9901669539880392
 30
0.0
 40
0.125
  1
1-1/8" x 4-13/16"
  0
TEXT
  5
32DBF
  8
0
 10
2.4815783193287011
 20
0.7797019699043649
 30
0.0
 40
0.125
  1
800.66.TAGUE
  0
ENDBLK
  5
32DC1
  8
0
  0
BLOCK
  8
0
  2
*U139
 70
     1
 10
0.0
 20
0.0
 30
0.0
  3
*U139
  1

  0
TEXT
  5
32DC3
  8
0
 10
-368.60974976253749
 20
855.36673706132683
 30
0.0
 40
0.125
  1
Crown Moulding
  0
TEXT
  5
32DC4
  8
0
 10
-368.60514539691678
 20
855.15789213181347
 30
0.0
 40
0.125
  1
TL-25
  0
TEXT
  5
32DC5
  8
0
 10
-368.62006695216922
 20
854.94742714772985
 30
0.0
 40
0.125
  1
1-1/8" x 4-13/16"
  0
TEXT
  5
32DC6
  8
0
 10
-368.60812970796729
 20
854.73696216364624
 30
0.0
 40
0.125
  1
800.66.TAGUE
  0
ENDBLK
  5
32DC8
  8
0
  0
ENDSEC
  0
SECTION
  2
ENTITIES
  0
LINE
  5
32B50
  8
0
 10
-368.89162393651787
 20
857.57490517345241
 30
0.0
 11
-371.08970699137399
 21
855.1711949941099
 31
0.0
  0
LINE
  5
32B51
  8
0
 10
-370.84153632389018
 20
853.95726019968845
 30
0.0
 11
-371.0897069913741
 21
853.95726019968845
 31
0.0
  0
LINE
  5
32B52
  8
0
 10
-370.32761106941598
 20
855.00091101738394
 30
0.0
 11
-370.34918418106048
 21
854.87454227167893
 31
0.0
  0
LINE
  5
32B53
  8
0
 10
-367.94148480958017
 20
857.57490517345241
 30
0.0
 11
-367.94148480958017
 21
857.32673450596872
 31
0.0
  0
LINE
  5
32B54
  8
0
 10
-367.94148480958017
 20
857.57490517345241
 30
0.0
 11
-368.89162393651787
 21
857.57490517345241
 31
0.0
  0
LINE
  5
32B55
  8
0
 10
-370.547223598698
 20
854.89630238034681
 30
0.0
 11
-370.34918418106048
 21
854.87454227167893
 31
0.0
  0
POLYLINE
  8
0
  5
32EAB
  66
     1
 10
0.000000
 20
0.000000
 30
0.000000
  70
     8
  0
VERTEX
  8
0
  5
32EAC
 10
-367.941
 20
857.327
 30
0.000000
  70
    32
  0
VERTEX
  8
0
  5
32EAD
 10
-367.949
 20
857.326
 30
0.000000
  70
    32
  0
VERTEX
  8
0
  5
32EAE
 10
-367.956
 20
857.325
 30
0.000000
  70
    32
  0
VERTEX
  8
0
  5
32EAF
 10
-367.964
 20
857.323
 30
0.000000
  70
    32
  0
VERTEX
  8
0
  5
32EB0
 10
-367.971
 20
857.322
 30
0.000000
  70
    32
  0
VERTEX
  8
0
  5
32EB1
 10
-367.978
 20
857.321
 30
0.000000
  70
    32
  0
VERTEX
  8
0
  5
32EB2
 10
-367.986
 20
857.320
 30
0.000000
  70
    32
  0
VERTEX
  8
0
  5
32EB3
 10
-367.993
 20
857.319
 30
0.000000
  70
    32
  0
VERTEX
  8
0
  5
32EB4
 10
-368.001
 20
857.318
 30
0.000000
  70
    32
  0
VERTEX
  8
0
  5
32EB5
 10
-368.008
 20
857.317
 30
0.000000
  70
    32
  0
VERTEX
  8
0
  5
32EB6
 10
-368.015
 20
857.316
 30
0.000000
  70
    32
  0
VERTEX
  8
0
  5
32EB7
 10
-368.023
 20
857.315
 30
0.000000
  70
    32
  0
VERTEX
  8
0
  5
32EB8
 10
-368.030
 20
857.314
 30
0.000000
  70
    32
  0
VERTEX
  8
0
  5
32EB9
 10
-368.038
 20
857.313
 30
0.000000
  70
    32
  0
VERTEX
  8
0
  5
32EBA
 10
-368.045
 20
857.311
 30
0.000000
  70
    32
  0
VERTEX
  8
0
  5
32EBB
 10
-368.052
 20
857.310
 30
0.000000
  70
    32
  0
VERTEX
  8
0
  5
32EBC
 10
-368.060
 20
857.309
 30
0.000000
  70
    32
  0
VERTEX
  8
0
  5
32EBD
 10
-368.067
 20
857.308
 30
0.000000
  70
    32
  0
VERTEX
  8
0
  5
32EBE
 10
-368.075
 20
857.307
 30
0.000000
  70
    32
  0
VERTEX
  8
0
  5
32EBF
 10
-368.082
 20
857.305
 30
0.000000
  70
    32
  0
VERTEX
  8
0
  5
32EC0
 10
-368.089
 20
857.304
 30
0.000000
  70
    32
  0
VERTEX
  8
0
  5
32EC1
 10
-368.097
 20
857.303
 30
0.000000
  70
    32
  0
VERTEX
  8
0
  5
32EC2
 10
-368.104
 20
857.301
 30
0.000000
  70
    32
  0
VERTEX
  8
0
  5
32EC3
 10
-368.111
 20
857.300
 30
0.000000
  70
    32
  0
VERTEX
  8
0
  5
32EC4
 10
-368.119
 20
857.299
 30
0.000000
  70
    32
  0
VERTEX
  8
0
  5
32EC5
 10
-368.126
 20
857.297
 30
0.000000
  70
    32
  0
VERTEX
  8
0
  5
32EC6
 10
-368.133
 20
857.295
 30
0.000000
  70
    32
  0
VERTEX
  8
0
  5
32EC7
 10
-368.141
 20
857.294
 30
0.000000
  70
    32
  0
VERTEX
  8
0
  5
32EC8
 10
-368.148
 20
857.292
 30
0.000000
  70
    32
  0
VERTEX
  8
0
  5
32EC9
 10
-368.155
 20
857.291
 30
0.000000
  70
    32
  0
VERTEX
  8
0
  5
32ECA
 10
-368.162
 20
857.289
 30
0.000000
  70
    32
  0
VERTEX
  8
0
  5
32ECB
 10
-368.170
 20
857.287
 30
0.000000
  70
    32
  0
VERTEX
  8
0
  5
32ECC
 10
-368.177
 20
857.285
 30
0.000000
  70
    32
  0
VERTEX
  8
0
  5
32ECD
 10
-368.184
 20
857.283
 30
0.000000
  70
    32
  0
VERTEX
  8
0
  5
32ECE
 10
-368.191
 20
857.281
 30
0.000000
  70
    32
  0
VERTEX
  8
0
  5
32ECF
 10
-368.199
 20
857.279
 30
0.000000
  70
    32
  0
VERTEX
  8
0
  5
32ED0
 10
-368.206
 20
857.277
 30
0.000000
  70
    32
  0
VERTEX
  8
0
  5
32ED1
 10
-368.213
 20
857.275
 30
0.000000
  70
    32
  0
VERTEX
  8
0
  5
32ED2
 10
-368.220
 20
857.272
 30
0.000000
  70
    32
  0
VERTEX
  8
0
  5
32ED3
 10
-368.227
 20
857.270
 30
0.000000
  70
    32
  0
VERTEX
  8
0
  5
32ED4
 10
-368.234
 20
857.268
 30
0.000000
  70
    32
  0
VERTEX
  8
0
  5
32ED5
 10
-368.241
 20
857.265
 30
0.000000
  70
    32
  0
VERTEX
  8
0
  5
32ED6
 10
-368.248
 20
857.263
 30
0.000000
  70
    32
  0
VERTEX
  8
0
  5
32ED7
 10
-368.255
 20
857.260
 30
0.000000
  70
    32
  0
VERTEX
  8
0
  5
32ED8
 10
-368.262
 20
857.257
 30
0.000000
  70
    32
  0
VERTEX
  8
0
  5
32ED9
 10
-368.269
 20
857.255
 30
0.000000
  70
    32
  0
VERTEX
  8
0
  5
32EDA
 10
-368.276
 20
857.252
 30
0.000000
  70
    32
  0
VERTEX
  8
0
  5
32EDB
 10
-368.283
 20
857.249
 30
0.000000
  70
    32
  0
VERTEX
  8
0
  5
32EDC
 10
-368.290
 20
857.246
 30
0.000000
  70
    32
  0
VERTEX
  8
0
  5
32EDD
 10
-368.297
 20
857.243
 30
0.000000
  70
    32
  0
VERTEX
  8
0
  5
32EDE
 10
-368.304
 20
857.239
 30
0.000000
  70
    32
  0
VERTEX
  8
0
  5
32EDF
 10
-368.311
 20
857.236
 30
0.000000
  70
    32
  0
VERTEX
  8
0
  5
32EE0
 10
-368.317
 20
857.233
 30
0.000000
  70
    32
  0
VERTEX
  8
0
  5
32EE1
 10
-368.324
 20
857.230
 30
0.000000
  70
    32
  0
VERTEX
  8
0
  5
32EE2
 10
-368.331
 20
857.226
 30
0.000000
  70
    32
  0
VERTEX
  8
0
  5
32EE3
 10
-368.338
 20
857.223
 30
0.000000
  70
    32
  0
VERTEX
  8
0
  5
32EE4
 10
-368.344
 20
857.219
 30
0.000000
  70
    32
  0
VERTEX
  8
0
  5
32EE5
 10
-368.351
 20
857.215
 30
0.000000
  70
    32
  0
VERTEX
  8
0
  5
32EE6
 10
-368.357
 20
857.212
 30
0.000000
  70
    32
  0
VERTEX
  8
0
  5
32EE7
 10
-368.364
 20
857.208
 30
0.000000
  70
    32
  0
VERTEX
  8
0
  5
32EE8
 10
-368.370
 20
857.204
 30
0.000000
  70
    32
  0
VERTEX
  8
0
  5
32EE9
 10
-368.377
 20
857.200
 30
0.000000
  70
    32
  0
VERTEX
  8
0
  5
32EEA
 10
-368.383
 20
857.196
 30
0.000000
  70
    32
  0
VERTEX
  8
0
  5
32EEB
 10
-368.389
 20
857.192
 30
0.000000
  70
    32
  0
VERTEX
  8
0
  5
32EEC
 10
-368.395
 20
857.188
 30
0.000000
  70
    32
  0
VERTEX
  8
0
  5
32EED
 10
-368.402
 20
857.184
 30
0.000000
  70
    32
  0
VERTEX
  8
0
  5
32EEE
 10
-368.408
 20
857.179
 30
0.000000
  70
    32
  0
VERTEX
  8
0
  5
32EEF
 10
-368.414
 20
857.175
 30
0.000000
  70
    32
  0
VERTEX
  8
0
  5
32EF0
 10
-368.420
 20
857.170
 30
0.000000
  70
    32
  0
VERTEX
  8
0
  5
32EF1
 10
-368.426
 20
857.166
 30
0.000000
  70
    32
  0
VERTEX
  8
0
  5
32EF2
 10
-368.432
 20
857.161
 30
0.000000
  70
    32
  0
VERTEX
  8
0
  5
32EF3
 10
-368.437
 20
857.157
 30
0.000000
  70
    32
  0
VERTEX
  8
0
  5
32EF4
 10
-368.443
 20
857.152
 30
0.000000
  70
    32
  0
VERTEX
  8
0
  5
32EF5
 10
-368.449
 20
857.147
 30
0.000000
  70
    32
  0
VERTEX
  8
0
  5
32EF6
 10
-368.455
 20
857.142
 30
0.000000
  70
    32
  0
VERTEX
  8
0
  5
32EF7
 10
-368.460
 20
857.137
 30
0.000000
  70
    32
  0
VERTEX
  8
0
  5
32EF8
 10
-368.466
 20
857.132
 30
0.000000
  70
    32
  0
VERTEX
  8
0
  5
32EF9
 10
-368.471
 20
857.127
 30
0.000000
  70
    32
  0
VERTEX
  8
0
  5
32EFA
 10
-368.477
 20
857.122
 30
0.000000
  70
    32
  0
VERTEX
  8
0
  5
32EFB
 10
-368.482
 20
857.117
 30
0.000000
  70
    32
  0
VERTEX
  8
0
  5
32EFC
 10
-368.488
 20
857.112
 30
0.000000
  70
    32
  0
VERTEX
  8
0
  5
32EFD
 10
-368.493
 20
857.107
 30
0.000000
  70
    32
  0
VERTEX
  8
0
  5
32EFE
 10
-368.498
 20
857.101
 30
0.000000
  70
    32
  0
VERTEX
  8
0
  5
32EFF
 10
-368.503
 20
857.096
 30
0.000000
  70
    32
  0
VERTEX
  8
0
  5
32F00
 10
-368.509
 20
857.091
 30
0.000000
  70
    32
  0
VERTEX
  8
0
  5
32F01
 10
-368.514
 20
857.085
 30
0.000000
  70
    32
  0
VERTEX
  8
0
  5
32F02
 10
-368.519
 20
857.080
 30
0.000000
  70
    32
  0
VERTEX
  8
0
  5
32F03
 10
-368.524
 20
857.074
 30
0.000000
  70
    32
  0
VERTEX
  8
0
  5
32F04
 10
-368.529
 20
857.069
 30
0.000000
  70
    32
  0
VERTEX
  8
0
  5
32F05
 10
-368.534
 20
857.063
 30
0.000000
  70
    32
  0
VERTEX
  8
0
  5
32F06
 10
-368.539
 20
857.058
 30
0.000000
  70
    32
  0
VERTEX
  8
0
  5
32F07
 10
-368.544
 20
857.052
 30
0.000000
  70
    32
  0
VERTEX
  8
0
  5
32F08
 10
-368.549
 20
857.046
 30
0.000000
  70
    32
  0
VERTEX
  8
0
  5
32F09
 10
-368.554
 20
857.041
 30
0.000000
  70
    32
  0
VERTEX
  8
0
  5
32F0A
 10
-368.559
 20
857.035
 30
0.000000
  70
    32
  0
VERTEX
  8
0
  5
32F0B
 10
-368.564
 20
857.030
 30
0.000000
  70
    32
  0
VERTEX
  8
0
  5
32F0C
 10
-368.569
 20
857.024
 30
0.000000
  70
    32
  0
VERTEX
  8
0
  5
32F0D
 10
-368.573
 20
857.018
 30
0.000000
  70
    32
  0
VERTEX
  8
0
  5
32F0E
 10
-368.578
 20
857.012
 30
0.000000
  70
    32
  0
VERTEX
  8
0
  5
32F0F
 10
-368.583
 20
857.007
 30
0.000000
  70
    32
  0
VERTEX
  8
0
  5
32F10
 10
-368.588
 20
857.001
 30
0.000000
  70
    32
  0
VERTEX
  8
0
  5
32F11
 10
-368.593
 20
856.995
 30
0.000000
  70
    32
  0
VERTEX
  8
0
  5
32F12
 10
-368.597
 20
856.989
 30
0.000000
  70
    32
  0
VERTEX
  8
0
  5
32F13
 10
-368.602
 20
856.984
 30
0.000000
  70
    32
  0
VERTEX
  8
0
  5
32F14
 10
-368.607
 20
856.978
 30
0.000000
  70
    32
  0
VERTEX
  8
0
  5
32F15
 10
-368.611
 20
856.972
 30
0.000000
  70
    32
  0
VERTEX
  8
0
  5
32F16
 10
-368.616
 20
856.966
 30
0.000000
  70
    32
  0
VERTEX
  8
0
  5
32F17
 10
-368.621
 20
856.960
 30
0.000000
  70
    32
  0
VERTEX
  8
0
  5
32F18
 10
-368.625
 20
856.954
 30
0.000000
  70
    32
  0
VERTEX
  8
0
  5
32F19
 10
-368.630
 20
856.948
 30
0.000000
  70
    32
  0
VERTEX
  8
0
  5
32F1A
 10
-368.634
 20
856.942
 30
0.000000
  70
    32
  0
VERTEX
  8
0
  5
32F1B
 10
-368.639
 20
856.936
 30
0.000000
  70
    32
  0
VERTEX
  8
0
  5
32F1C
 10
-368.643
 20
856.930
 30
0.000000
  70
    32
  0
VERTEX
  8
0
  5
32F1D
 10
-368.648
 20
856.924
 30
0.000000
  70
    32
  0
VERTEX
  8
0
  5
32F1E
 10
-368.652
 20
856.918
 30
0.000000
  70
    32
  0
VERTEX
  8
0
  5
32F1F
 10
-368.656
 20
856.912
 30
0.000000
  70
    32
  0
VERTEX
  8
0
  5
32F20
 10
-368.661
 20
856.906
 30
0.000000
  70
    32
  0
VERTEX
  8
0
  5
32F21
 10
-368.665
 20
856.900
 30
0.000000
  70
    32
  0
VERTEX
  8
0
  5
32F22
 10
-368.670
 20
856.894
 30
0.000000
  70
    32
  0
VERTEX
  8
0
  5
32F23
 10
-368.674
 20
856.888
 30
0.000000
  70
    32
  0
VERTEX
  8
0
  5
32F24
 10
-368.678
 20
856.882
 30
0.000000
  70
    32
  0
VERTEX
  8
0
  5
32F25
 10
-368.682
 20
856.876
 30
0.000000
  70
    32
  0
VERTEX
  8
0
  5
32F26
 10
-368.687
 20
856.870
 30
0.000000
  70
    32
  0
VERTEX
  8
0
  5
32F27
 10
-368.691
 20
856.864
 30
0.000000
  70
    32
  0
VERTEX
  8
0
  5
32F28
 10
-368.695
 20
856.857
 30
0.000000
  70
    32
  0
VERTEX
  8
0
  5
32F29
 10
-368.699
 20
856.851
 30
0.000000
  70
    32
  0
VERTEX
  8
0
  5
32F2A
 10
-368.704
 20
856.845
 30
0.000000
  70
    32
  0
VERTEX
  8
0
  5
32F2B
 10
-368.708
 20
856.839
 30
0.000000
  70
    32
  0
VERTEX
  8
0
  5
32F2C
 10
-368.712
 20
856.832
 30
0.000000
  70
    32
  0
VERTEX
  8
0
  5
32F2D
 10
-368.716
 20
856.826
 30
0.000000
  70
    32
  0
VERTEX
  8
0
  5
32F2E
 10
-368.720
 20
856.820
 30
0.000000
  70
    32
  0
VERTEX
  8
0
  5
32F2F
 10
-368.724
 20
856.814
 30
0.000000
  70
    32
  0
VERTEX
  8
0
  5
32F30
 10
-368.728
 20
856.807
 30
0.000000
  70
    32
  0
VERTEX
  8
0
  5
32F31
 10
-368.732
 20
856.801
 30
0.000000
  70
    32
  0
VERTEX
  8
0
  5
32F32
 10
-368.736
 20
856.795
 30
0.000000
  70
    32
  0
VERTEX
  8
0
  5
32F33
 10
-368.740
 20
856.788
 30
0.000000
  70
    32
  0
VERTEX
  8
0
  5
32F34
 10
-368.744
 20
856.782
 30
0.000000
  70
    32
  0
VERTEX
  8
0
  5
32F35
 10
-368.748
 20
856.775
 30
0.000000
  70
    32
  0
VERTEX
  8
0
  5
32F36
 10
-368.751
 20
856.769
 30
0.000000
  70
    32
  0
VERTEX
  8
0
  5
32F37
 10
-368.755
 20
856.763
 30
0.000000
  70
    32
  0
VERTEX
  8
0
  5
32F38
 10
-368.759
 20
856.756
 30
0.000000
  70
    32
  0
VERTEX
  8
0
  5
32F39
 10
-368.763
 20
856.750
 30
0.000000
  70
    32
  0
VERTEX
  8
0
  5
32F3A
 10
-368.767
 20
856.743
 30
0.000000
  70
    32
  0
VERTEX
  8
0
  5
32F3B
 10
-368.770
 20
856.737
 30
0.000000
  70
    32
  0
VERTEX
  8
0
  5
32F3C
 10
-368.774
 20
856.730
 30
0.000000
  70
    32
  0
VERTEX
  8
0
  5
32F3D
 10
-368.778
 20
856.724
 30
0.000000
  70
    32
  0
VERTEX
  8
0
  5
32F3E
 10
-368.781
 20
856.717
 30
0.000000
  70
    32
  0
VERTEX
  8
0
  5
32F3F
 10
-368.785
 20
856.711
 30
0.000000
  70
    32
  0
VERTEX
  8
0
  5
32F40
 10
-368.788
 20
856.704
 30
0.000000
  70
    32
  0
VERTEX
  8
0
  5
32F41
 10
-368.792
 20
856.697
 30
0.000000
  70
    32
  0
VERTEX
  8
0
  5
32F42
 10
-368.795
 20
856.691
 30
0.000000
  70
    32
  0
VERTEX
  8
0
  5
32F43
 10
-368.799
 20
856.684
 30
0.000000
  70
    32
  0
VERTEX
  8
0
  5
32F44
 10
-368.802
 20
856.677
 30
0.000000
  70
    32
  0
VERTEX
  8
0
  5
32F45
 10
-368.805
 20
856.671
 30
0.000000
  70
    32
  0
VERTEX
  8
0
  5
32F46
 10
-368.809
 20
856.664
 30
0.000000
  70
    32
  0
VERTEX
  8
0
  5
32F47
 10
-368.812
 20
856.657
 30
0.000000
  70
    32
  0
VERTEX
  8
0
  5
32F48
 10
-368.815
 20
856.651
 30
0.000000
  70
    32
  0
VERTEX
  8
0
  5
32F49
 10
-368.818
 20
856.644
 30
0.000000
  70
    32
  0
VERTEX
  8
0
  5
32F4A
 10
-368.822
 20
856.637
 30
0.000000
  70
    32
  0
VERTEX
  8
0
  5
32F4B
 10
-368.825
 20
856.630
 30
0.000000
  70
    32
  0
VERTEX
  8
0
  5
32F4C
 10
-368.828
 20
856.624
 30
0.000000
  70
    32
  0
VERTEX
  8
0
  5
32F4D
 10
-368.831
 20
856.617
 30
0.000000
  70
    32
  0
VERTEX
  8
0
  5
32F4E
 10
-368.834
 20
856.610
 30
0.000000
  70
    32
  0
VERTEX
  8
0
  5
32F4F
 10
-368.837
 20
856.603
 30
0.000000
  70
    32
  0
VERTEX
  8
0
  5
32F50
 10
-368.840
 20
856.596
 30
0.000000
  70
    32
  0
VERTEX
  8
0
  5
32F51
 10
-368.843
 20
856.590
 30
0.000000
  70
    32
  0
VERTEX
  8
0
  5
32F52
 10
-368.846
 20
856.583
 30
0.000000
  70
    32
  0
VERTEX
  8
0
  5
32F53
 10
-368.849
 20
856.576
 30
0.000000
  70
    32
  0
VERTEX
  8
0
  5
32F54
 10
-368.851
 20
856.569
 30
0.000000
  70
    32
  0
VERTEX
  8
0
  5
32F55
 10
-368.854
 20
856.562
 30
0.000000
  70
    32
  0
VERTEX
  8
0
  5
32F56
 10
-368.857
 20
856.555
 30
0.000000
  70
    32
  0
VERTEX
  8
0
  5
32F57
 10
-368.860
 20
856.548
 30
0.000000
  70
    32
  0
VERTEX
  8
0
  5
32F58
 10
-368.862
 20
856.541
 30
0.000000
  70
    32
  0
VERTEX
  8
0
  5
32F59
 10
-368.865
 20
856.534
 30
0.000000
  70
    32
  0
VERTEX
  8
0
  5
32F5A
 10
-368.868
 20
856.527
 30
0.000000
  70
    32
  0
VERTEX
  8
0
  5
32F5B
 10
-368.870
 20
856.520
 30
0.000000
  70
    32
  0
VERTEX
  8
0
  5
32F5C
 10
-368.873
 20
856.513
 30
0.000000
  70
    32
  0
VERTEX
  8
0
  5
32F5D
 10
-368.876
 20
856.506
 30
0.000000
  70
    32
  0
VERTEX
  8
0
  5
32F5E
 10
-368.878
 20
856.499
 30
0.000000
  70
    32
  0
VERTEX
  8
0
  5
32F5F
 10
-368.881
 20
856.492
 30
0.000000
  70
    32
  0
VERTEX
  8
0
  5
32F60
 10
-368.883
 20
856.485
 30
0.000000
  70
    32
  0
VERTEX
  8
0
  5
32F61
 10
-368.886
 20
856.478
 30
0.000000
  70
    32
  0
VERTEX
  8
0
  5
32F62
 10
-368.888
 20
856.471
 30
0.000000
  70
    32
  0
VERTEX
  8
0
  5
32F63
 10
-368.891
 20
856.464
 30
0.000000
  70
    32
  0
VERTEX
  8
0
  5
32F64
 10
-368.893
 20
856.457
 30
0.000000
  70
    32
  0
VERTEX
  8
0
  5
32F65
 10
-368.896
 20
856.450
 30
0.000000
  70
    32
  0
VERTEX
  8
0
  5
32F66
 10
-368.898
 20
856.443
 30
0.000000
  70
    32
  0
VERTEX
  8
0
  5
32F67
 10
-368.900
 20
856.436
 30
0.000000
  70
    32
  0
VERTEX
  8
0
  5
32F68
 10
-368.903
 20
856.429
 30
0.000000
  70
    32
  0
VERTEX
  8
0
  5
32F69
 10
-368.905
 20
856.422
 30
0.000000
  70
    32
  0
VERTEX
  8
0
  5
32F6A
 10
-368.908
 20
856.415
 30
0.000000
  70
    32
  0
VERTEX
  8
0
  5
32F6B
 10
-368.910
 20
856.407
 30
0.000000
  70
    32
  0
VERTEX
  8
0
  5
32F6C
 10
-368.912
 20
856.400
 30
0.000000
  70
    32
  0
VERTEX
  8
0
  5
32F6D
 10
-368.915
 20
856.393
 30
0.000000
  70
    32
  0
VERTEX
  8
0
  5
32F6E
 10
-368.917
 20
856.386
 30
0.000000
  70
    32
  0
VERTEX
  8
0
  5
32F6F
 10
-368.919
 20
856.379
 30
0.000000
  70
    32
  0
VERTEX
  8
0
  5
32F70
 10
-368.921
 20
856.372
 30
0.000000
  70
    32
  0
VERTEX
  8
0
  5
32F71
 10
-368.924
 20
856.365
 30
0.000000
  70
    32
  0
VERTEX
  8
0
  5
32F72
 10
-368.926
 20
856.358
 30
0.000000
  70
    32
  0
VERTEX
  8
0
  5
32F73
 10
-368.928
 20
856.350
 30
0.000000
  70
    32
  0
VERTEX
  8
0
  5
32F74
 10
-368.930
 20
856.343
 30
0.000000
  70
    32
  0
VERTEX
  8
0
  5
32F75
 10
-368.933
 20
856.336
 30
0.000000
  70
    32
  0
VERTEX
  8
0
  5
32F76
 10
-368.935
 20
856.329
 30
0.000000
  70
    32
  0
VERTEX
  8
0
  5
32F77
 10
-368.937
 20
856.322
 30
0.000000
  70
    32
  0
VERTEX
  8
0
  5
32F78
 10
-368.939
 20
856.315
 30
0.000000
  70
    32
  0
VERTEX
  8
0
  5
32F79
 10
-368.942
 20
856.308
 30
0.000000
  70
    32
  0
VERTEX
  8
0
  5
32F7A
 10
-368.944
 20
856.300
 30
0.000000
  70
    32
  0
VERTEX
  8
0
  5
32F7B
 10
-368.946
 20
856.293
 30
0.000000
  70
    32
  0
VERTEX
  8
0
  5
32F7C
 10
-368.948
 20
856.286
 30
0.000000
  70
    32
  0
VERTEX
  8
0
  5
32F7D
 10
-368.950
 20
856.279
 30
0.000000
  70
    32
  0
VERTEX
  8
0
  5
32F7E
 10
-368.953
 20
856.272
 30
0.000000
  70
    32
  0
VERTEX
  8
0
  5
32F7F
 10
-368.955
 20
856.265
 30
0.000000
  70
    32
  0
VERTEX
  8
0
  5
32F80
 10
-368.957
 20
856.257
 30
0.000000
  70
    32
  0
VERTEX
  8
0
  5
32F81
 10
-368.959
 20
856.250
 30
0.000000
  70
    32
  0
VERTEX
  8
0
  5
32F82
 10
-368.962
 20
856.243
 30
0.000000
  70
    32
  0
VERTEX
  8
0
  5
32F83
 10
-368.964
 20
856.236
 30
0.000000
  70
    32
  0
VERTEX
  8
0
  5
32F84
 10
-368.966
 20
856.229
 30
0.000000
  70
    32
  0
VERTEX
  8
0
  5
32F85
 10
-368.968
 20
856.222
 30
0.000000
  70
    32
  0
VERTEX
  8
0
  5
32F86
 10
-368.971
 20
856.215
 30
0.000000
  70
    32
  0
VERTEX
  8
0
  5
32F87
 10
-368.973
 20
856.207
 30
0.000000
  70
    32
  0
VERTEX
  8
0
  5
32F88
 10
-368.975
 20
856.200
 30
0.000000
  70
    32
  0
VERTEX
  8
0
  5
32F89
 10
-368.977
 20
856.193
 30
0.000000
  70
    32
  0
VERTEX
  8
0
  5
32F8A
 10
-368.980
 20
856.186
 30
0.000000
  70
    32
  0
VERTEX
  8
0
  5
32F8B
 10
-368.982
 20
856.179
 30
0.000000
  70
    32
  0
VERTEX
  8
0
  5
32F8C
 10
-368.984
 20
856.172
 30
0.000000
  70
    32
  0
VERTEX
  8
0
  5
32F8D
 10
-368.986
 20
856.165
 30
0.000000
  70
    32
  0
VERTEX
  8
0
  5
32F8E
 10
-368.989
 20
856.158
 30
0.000000
  70
    32
  0
VERTEX
  8
0
  5
32F8F
 10
-368.991
 20
856.150
 30
0.000000
  70
    32
  0
VERTEX
  8
0
  5
32F90
 10
-368.993
 20
856.143
 30
0.000000
  70
    32
  0
VERTEX
  8
0
  5
32F91
 10
-368.996
 20
856.136
 30
0.000000
  70
    32
  0
VERTEX
  8
0
  5
32F92
 10
-368.998
 20
856.129
 30
0.000000
  70
    32
  0
VERTEX
  8
0
  5
32F93
 10
-369.000
 20
856.122
 30
0.000000
  70
    32
  0
VERTEX
  8
0
  5
32F94
 10
-369.003
 20
856.115
 30
0.000000
  70
    32
  0
VERTEX
  8
0
  5
32F95
 10
-369.005
 20
856.108
 30
0.000000
  70
    32
  0
VERTEX
  8
0
  5
32F96
 10
-369.008
 20
856.101
 30
0.000000
  70
    32
  0
VERTEX
  8
0
  5
32F97
 10
-369.010
 20
856.094
 30
0.000000
  70
    32
  0
VERTEX
  8
0
  5
32F98
 10
-369.012
 20
856.087
 30
0.000000
  70
    32
  0
VERTEX
  8
0
  5
32F99
 10
-369.015
 20
856.080
 30
0.000000
  70
    32
  0
VERTEX
  8
0
  5
32F9A
 10
-369.017
 20
856.072
 30
0.000000
  70
    32
  0
VERTEX
  8
0
  5
32F9B
 10
-369.020
 20
856.065
 30
0.000000
  70
    32
  0
VERTEX
  8
0
  5
32F9C
 10
-369.022
 20
856.058
 30
0.000000
  70
    32
  0
VERTEX
  8
0
  5
32F9D
 10
-369.025
 20
856.051
 30
0.000000
  70
    32
  0
VERTEX
  8
0
  5
32F9E
 10
-369.027
 20
856.044
 30
0.000000
  70
    32
  0
VERTEX
  8
0
  5
32F9F
 10
-369.030
 20
856.037
 30
0.000000
  70
    32
  0
VERTEX
  8
0
  5
32FA0
 10
-369.032
 20
856.030
 30
0.000000
  70
    32
  0
VERTEX
  8
0
  5
32FA1
 10
-369.035
 20
856.023
 30
0.000000
  70
    32
  0
VERTEX
  8
0
  5
32FA2
 10
-369.037
 20
856.016
 30
0.000000
  70
    32
  0
VERTEX
  8
0
  5
32FA3
 10
-369.040
 20
856.009
 30
0.000000
  70
    32
  0
VERTEX
  8
0
  5
32FA4
 10
-369.043
 20
856.002
 30
0.000000
  70
    32
  0
VERTEX
  8
0
  5
32FA5
 10
-369.045
 20
855.995
 30
0.000000
  70
    32
  0
VERTEX
  8
0
  5
32FA6
 10
-369.048
 20
855.988
 30
0.000000
  70
    32
  0
VERTEX
  8
0
  5
32FA7
 10
-369.050
 20
855.981
 30
0.000000
  70
    32
  0
VERTEX
  8
0
  5
32FA8
 10
-369.053
 20
855.974
 30
0.000000
  70
    32
  0
VERTEX
  8
0
  5
32FA9
 10
-369.056
 20
855.967
 30
0.000000
  70
    32
  0
VERTEX
  8
0
  5
32FAA
 10
-369.059
 20
855.960
 30
0.000000
  70
    32
  0
VERTEX
  8
0
  5
32FAB
 10
-369.061
 20
855.953
 30
0.000000
  70
    32
  0
VERTEX
  8
0
  5
32FAC
 10
-369.064
 20
855.946
 30
0.000000
  70
    32
  0
VERTEX
  8
0
  5
32FAD
 10
-369.067
 20
855.940
 30
0.000000
  70
    32
  0
VERTEX
  8
0
  5
32FAE
 10
-369.070
 20
855.933
 30
0.000000
  70
    32
  0
VERTEX
  8
0
  5
32FAF
 10
-369.072
 20
855.926
 30
0.000000
  70
    32
  0
VERTEX
  8
0
  5
32FB0
 10
-369.075
 20
855.919
 30
0.000000
  70
    32
  0
VERTEX
  8
0
  5
32FB1
 10
-369.078
 20
855.912
 30
0.000000
  70
    32
  0
VERTEX
  8
0
  5
32FB2
 10
-369.081
 20
855.905
 30
0.000000
  70
    32
  0
VERTEX
  8
0
  5
32FB3
 10
-369.084
 20
855.898
 30
0.000000
  70
    32
  0
VERTEX
  8
0
  5
32FB4
 10
-369.087
 20
855.891
 30
0.000000
  70
    32
  0
VERTEX
  8
0
  5
32FB5
 10
-369.090
 20
855.884
 30
0.000000
  70
    32
  0
VERTEX
  8
0
  5
32FB6
 10
-369.093
 20
855.877
 30
0.000000
  70
    32
  0
VERTEX
  8
0
  5
32FB7
 10
-369.096
 20
855.871
 30
0.000000
  70
    32
  0
VERTEX
  8
0
  5
32FB8
 10
-369.099
 20
855.864
 30
0.000000
  70
    32
  0
VERTEX
  8
0
  5
32FB9
 10
-369.102
 20
855.857
 30
0.000000
  70
    32
  0
VERTEX
  8
0
  5
32FBA
 10
-369.105
 20
855.850
 30
0.000000
  70
    32
  0
VERTEX
  8
0
  5
32FBB
 10
-369.108
 20
855.843
 30
0.000000
  70
    32
  0
VERTEX
  8
0
  5
32FBC
 10
-369.111
 20
855.836
 30
0.000000
  70
    32
  0
VERTEX
  8
0
  5
32FBD
 10
-369.114
 20
855.830
 30
0.000000
  70
    32
  0
VERTEX
  8
0
  5
32FBE
 10
-369.117
 20
855.823
 30
0.000000
  70
    32
  0
VERTEX
  8
0
  5
32FBF
 10
-369.120
 20
855.816
 30
0.000000
  70
    32
  0
VERTEX
  8
0
  5
32FC0
 10
-369.123
 20
855.809
 30
0.000000
  70
    32
  0
VERTEX
  8
0
  5
32FC1
 10
-369.127
 20
855.803
 30
0.000000
  70
    32
  0
VERTEX
  8
0
  5
32FC2
 10
-369.130
 20
855.796
 30
0.000000
  70
    32
  0
VERTEX
  8
0
  5
32FC3
 10
-369.133
 20
855.789
 30
0.000000
  70
    32
  0
VERTEX
  8
0
  5
32FC4
 10
-369.136
 20
855.782
 30
0.000000
  70
    32
  0
VERTEX
  8
0
  5
32FC5
 10
-369.140
 20
855.776
 30
0.000000
  70
    32
  0
VERTEX
  8
0
  5
32FC6
 10
-369.143
 20
855.769
 30
0.000000
  70
    32
  0
VERTEX
  8
0
  5
32FC7
 10
-369.146
 20
855.762
 30
0.000000
  70
    32
  0
VERTEX
  8
0
  5
32FC8
 10
-369.150
 20
855.756
 30
0.000000
  70
    32
  0
VERTEX
  8
0
  5
32FC9
 10
-369.153
 20
855.749
 30
0.000000
  70
    32
  0
VERTEX
  8
0
  5
32FCA
 10
-369.157
 20
855.742
 30
0.000000
  70
    32
  0
VERTEX
  8
0
  5
32FCB
 10
-369.160
 20
855.736
 30
0.000000
  70
    32
  0
VERTEX
  8
0
  5
32FCC
 10
-369.164
 20
855.729
 30
0.000000
  70
    32
  0
VERTEX
  8
0
  5
32FCD
 10
-369.167
 20
855.722
 30
0.000000
  70
    32
  0
VERTEX
  8
0
  5
32FCE
 10
-369.171
 20
855.716
 30
0.000000
  70
    32
  0
VERTEX
  8
0
  5
32FCF
 10
-369.175
 20
855.709
 30
0.000000
  70
    32
  0
VERTEX
  8
0
  5
32FD0
 10
-369.178
 20
855.703
 30
0.000000
  70
    32
  0
VERTEX
  8
0
  5
32FD1
 10
-369.182
 20
855.696
 30
0.000000
  70
    32
  0
VERTEX
  8
0
  5
32FD2
 10
-369.186
 20
855.690
 30
0.000000
  70
    32
  0
VERTEX
  8
0
  5
32FD3
 10
-369.189
 20
855.683
 30
0.000000
  70
    32
  0
VERTEX
  8
0
  5
32FD4
 10
-369.193
 20
855.677
 30
0.000000
  70
    32
  0
VERTEX
  8
0
  5
32FD5
 10
-369.197
 20
855.670
 30
0.000000
  70
    32
  0
VERTEX
  8
0
  5
32FD6
 10
-369.201
 20
855.664
 30
0.000000
  70
    32
  0
VERTEX
  8
0
  5
32FD7
 10
-369.205
 20
855.658
 30
0.000000
  70
    32
  0
VERTEX
  8
0
  5
32FD8
 10
-369.209
 20
855.651
 30
0.000000
  70
    32
  0
VERTEX
  8
0
  5
32FD9
 10
-369.213
 20
855.645
 30
0.000000
  70
    32
  0
VERTEX
  8
0
  5
32FDA
 10
-369.217
 20
855.639
 30
0.000000
  70
    32
  0
VERTEX
  8
0
  5
32FDB
 10
-369.221
 20
855.632
 30
0.000000
  70
    32
  0
VERTEX
  8
0
  5
32FDC
 10
-369.225
 20
855.626
 30
0.000000
  70
    32
  0
VERTEX
  8
0
  5
32FDD
 10
-369.229
 20
855.620
 30
0.000000
  70
    32
  0
VERTEX
  8
0
  5
32FDE
 10
-369.233
 20
855.614
 30
0.000000
  70
    32
  0
VERTEX
  8
0
  5
32FDF
 10
-369.237
 20
855.607
 30
0.000000
  70
    32
  0
VERTEX
  8
0
  5
32FE0
 10
-369.241
 20
855.601
 30
0.000000
  70
    32
  0
VERTEX
  8
0
  5
32FE1
 10
-369.246
 20
855.595
 30
0.000000
  70
    32
  0
VERTEX
  8
0
  5
32FE2
 10
-369.250
 20
855.589
 30
0.000000
  70
    32
  0
VERTEX
  8
0
  5
32FE3
 10
-369.254
 20
855.583
 30
0.000000
  70
    32
  0
VERTEX
  8
0
  5
32FE4
 10
-369.259
 20
855.577
 30
0.000000
  70
    32
  0
VERTEX
  8
0
  5
32FE5
 10
-369.263
 20
855.571
 30
0.000000
  70
    32
  0
VERTEX
  8
0
  5
32FE6
 10
-369.268
 20
855.565
 30
0.000000
  70
    32
  0
VERTEX
  8
0
  5
32FE7
 10
-369.272
 20
855.559
 30
0.000000
  70
    32
  0
VERTEX
  8
0
  5
32FE8
 10
-369.277
 20
855.553
 30
0.000000
  70
    32
  0
VERTEX
  8
0
  5
32FE9
 10
-369.281
 20
855.547
 30
0.000000
  70
    32
  0
VERTEX
  8
0
  5
32FEA
 10
-369.286
 20
855.541
 30
0.000000
  70
    32
  0
VERTEX
  8
0
  5
32FEB
 10
-369.290
 20
855.535
 30
0.000000
  70
    32
  0
VERTEX
  8
0
  5
32FEC
 10
-369.295
 20
855.529
 30
0.000000
  70
    32
  0
VERTEX
  8
0
  5
32FED
 10
-369.300
 20
855.524
 30
0.000000
  70
    32
  0
VERTEX
  8
0
  5
32FEE
 10
-369.305
 20
855.518
 30
0.000000
  70
    32
  0
VERTEX
  8
0
  5
32FEF
 10
-369.309
 20
855.512
 30
0.000000
  70
    32
  0
VERTEX
  8
0
  5
32FF0
 10
-369.314
 20
855.507
 30
0.000000
  70
    32
  0
VERTEX
  8
0
  5
32FF1
 10
-369.319
 20
855.501
 30
0.000000
  70
    32
  0
VERTEX
  8
0
  5
32FF2
 10
-369.324
 20
855.495
 30
0.000000
  70
    32
  0
VERTEX
  8
0
  5
32FF3
 10
-369.329
 20
855.490
 30
0.000000
  70
    32
  0
VERTEX
  8
0
  5
32FF4
 10
-369.334
 20
855.484
 30
0.000000
  70
    32
  0
VERTEX
  8
0
  5
32FF5
 10
-369.339
 20
855.479
 30
0.000000
  70
    32
  0
VERTEX
  8
0
  5
32FF6
 10
-369.344
 20
855.473
 30
0.000000
  70
    32
  0
VERTEX
  8
0
  5
32FF7
 10
-369.349
 20
855.468
 30
0.000000
  70
    32
  0
VERTEX
  8
0
  5
32FF8
 10
-369.355
 20
855.462
 30
0.000000
  70
    32
  0
VERTEX
  8
0
  5
32FF9
 10
-369.360
 20
855.457
 30
0.000000
  70
    32
  0
VERTEX
  8
0
  5
32FFA
 10
-369.365
 20
855.451
 30
0.000000
  70
    32
  0
VERTEX
  8
0
  5
32FFB
 10
-369.370
 20
855.446
 30
0.000000
  70
    32
  0
VERTEX
  8
0
  5
32FFC
 10
-369.375
 20
855.441
 30
0.000000
  70
    32
  0
VERTEX
  8
0
  5
32FFD
 10
-369.381
 20
855.436
 30
0.000000
  70
    32
  0
VERTEX
  8
0
  5
32FFE
 10
-369.386
 20
855.430
 30
0.000000
  70
    32
  0
VERTEX
  8
0
  5
32FFF
 10
-369.392
 20
855.425
 30
0.000000
  70
    32
  0
VERTEX
  8
0
  5
33000
 10
-369.397
 20
855.420
 30
0.000000
  70
    32
  0
VERTEX
  8
0
  5
33001
 10
-369.402
 20
855.415
 30
0.000000
  70
    32
  0
VERTEX
  8
0
  5
33002
 10
-369.408
 20
855.410
 30
0.000000
  70
    32
  0
VERTEX
  8
0
  5
33003
 10
-369.413
 20
855.405
 30
0.000000
  70
    32
  0
VERTEX
  8
0
  5
33004
 10
-369.419
 20
855.399
 30
0.000000
  70
    32
  0
VERTEX
  8
0
  5
33005
 10
-369.424
 20
855.394
 30
0.000000
  70
    32
  0
VERTEX
  8
0
  5
33006
 10
-369.430
 20
855.389
 30
0.000000
  70
    32
  0
VERTEX
  8
0
  5
33007
 10
-369.436
 20
855.384
 30
0.000000
  70
    32
  0
VERTEX
  8
0
  5
33008
 10
-369.441
 20
855.380
 30
0.000000
  70
    32
  0
VERTEX
  8
0
  5
33009
 10
-369.447
 20
855.375
 30
0.000000
  70
    32
  0
VERTEX
  8
0
  5
3300A
 10
-369.453
 20
855.370
 30
0.000000
  70
    32
  0
VERTEX
  8
0
  5
3300B
 10
-369.458
 20
855.365
 30
0.000000
  70
    32
  0
VERTEX
  8
0
  5
3300C
 10
-369.464
 20
855.360
 30
0.000000
  70
    32
  0
VERTEX
  8
0
  5
3300D
 10
-369.470
 20
855.355
 30
0.000000
  70
    32
  0
VERTEX
  8
0
  5
3300E
 10
-369.476
 20
855.351
 30
0.000000
  70
    32
  0
VERTEX
  8
0
  5
3300F
 10
-369.482
 20
855.346
 30
0.000000
  70
    32
  0
VERTEX
  8
0
  5
33010
 10
-369.488
 20
855.341
 30
0.000000
  70
    32
  0
VERTEX
  8
0
  5
33011
 10
-369.493
 20
855.336
 30
0.000000
  70
    32
  0
VERTEX
  8
0
  5
33012
 10
-369.499
 20
855.332
 30
0.000000
  70
    32
  0
VERTEX
  8
0
  5
33013
 10
-369.505
 20
855.327
 30
0.000000
  70
    32
  0
VERTEX
  8
0
  5
33014
 10
-369.511
 20
855.323
 30
0.000000
  70
    32
  0
VERTEX
  8
0
  5
33015
 10
-369.517
 20
855.318
 30
0.000000
  70
    32
  0
VERTEX
  8
0
  5
33016
 10
-369.523
 20
855.313
 30
0.000000
  70
    32
  0
VERTEX
  8
0
  5
33017
 10
-369.529
 20
855.309
 30
0.000000
  70
    32
  0
VERTEX
  8
0
  5
33018
 10
-369.535
 20
855.304
 30
0.000000
  70
    32
  0
VERTEX
  8
0
  5
33019
 10
-369.541
 20
855.300
 30
0.000000
  70
    32
  0
VERTEX
  8
0
  5
3301A
 10
-369.547
 20
855.296
 30
0.000000
  70
    32
  0
VERTEX
  8
0
  5
3301B
 10
-369.554
 20
855.291
 30
0.000000
  70
    32
  0
VERTEX
  8
0
  5
3301C
 10
-369.560
 20
855.287
 30
0.000000
  70
    32
  0
VERTEX
  8
0
  5
3301D
 10
-369.566
 20
855.283
 30
0.000000
  70
    32
  0
VERTEX
  8
0
  5
3301E
 10
-369.572
 20
855.278
 30
0.000000
  70
    32
  0
VERTEX
  8
0
  5
3301F
 10
-369.578
 20
855.274
 30
0.000000
  70
    32
  0
VERTEX
  8
0
  5
33020
 10
-369.584
 20
855.270
 30
0.000000
  70
    32
  0
VERTEX
  8
0
  5
33021
 10
-369.590
 20
855.266
 30
0.000000
  70
    32
  0
VERTEX
  8
0
  5
33022
 10
-369.597
 20
855.261
 30
0.000000
  70
    32
  0
VERTEX
  8
0
  5
33023
 10
-369.603
 20
855.257
 30
0.000000
  70
    32
  0
VERTEX
  8
0
  5
33024
 10
-369.609
 20
855.253
 30
0.000000
  70
    32
  0
VERTEX
  8
0
  5
33025
 10
-369.615
 20
855.249
 30
0.000000
  70
    32
  0
VERTEX
  8
0
  5
33026
 10
-369.622
 20
855.245
 30
0.000000
  70
    32
  0
VERTEX
  8
0
  5
33027
 10
-369.628
 20
855.241
 30
0.000000
  70
    32
  0
VERTEX
  8
0
  5
33028
 10
-369.634
 20
855.237
 30
0.000000
  70
    32
  0
VERTEX
  8
0
  5
33029
 10
-369.641
 20
855.233
 30
0.000000
  70
    32
  0
VERTEX
  8
0
  5
3302A
 10
-369.647
 20
855.229
 30
0.000000
  70
    32
  0
VERTEX
  8
0
  5
3302B
 10
-369.653
 20
855.225
 30
0.000000
  70
    32
  0
VERTEX
  8
0
  5
3302C
 10
-369.660
 20
855.221
 30
0.000000
  70
    32
  0
VERTEX
  8
0
  5
3302D
 10
-369.666
 20
855.217
 30
0.000000
  70
    32
  0
VERTEX
  8
0
  5
3302E
 10
-369.673
 20
855.213
 30
0.000000
  70
    32
  0
VERTEX
  8
0
  5
3302F
 10
-369.679
 20
855.209
 30
0.000000
  70
    32
  0
VERTEX
  8
0
  5
33030
 10
-369.686
 20
855.206
 30
0.000000
  70
    32
  0
VERTEX
  8
0
  5
33031
 10
-369.692
 20
855.202
 30
0.000000
  70
    32
  0
VERTEX
  8
0
  5
33032
 10
-369.698
 20
855.198
 30
0.000000
  70
    32
  0
VERTEX
  8
0
  5
33033
 10
-369.705
 20
855.194
 30
0.000000
  70
    32
  0
VERTEX
  8
0
  5
33034
 10
-369.711
 20
855.191
 30
0.000000
  70
    32
  0
VERTEX
  8
0
  5
33035
 10
-369.718
 20
855.187
 30
0.000000
  70
    32
  0
VERTEX
  8
0
  5
33036
 10
-369.725
 20
855.184
 30
0.000000
  70
    32
  0
VERTEX
  8
0
  5
33037
 10
-369.731
 20
855.180
 30
0.000000
  70
    32
  0
VERTEX
  8
0
  5
33038
 10
-369.738
 20
855.176
 30
0.000000
  70
    32
  0
VERTEX
  8
0
  5
33039
 10
-369.744
 20
855.173
 30
0.000000
  70
    32
  0
VERTEX
  8
0
  5
3303A
 10
-369.751
 20
855.169
 30
0.000000
  70
    32
  0
VERTEX
  8
0
  5
3303B
 10
-369.757
 20
855.166
 30
0.000000
  70
    32
  0
VERTEX
  8
0
  5
3303C
 10
-369.764
 20
855.162
 30
0.000000
  70
    32
  0
VERTEX
  8
0
  5
3303D
 10
-369.771
 20
855.159
 30
0.000000
  70
    32
  0
VERTEX
  8
0
  5
3303E
 10
-369.777
 20
855.156
 30
0.000000
  70
    32
  0
VERTEX
  8
0
  5
3303F
 10
-369.784
 20
855.152
 30
0.000000
  70
    32
  0
VERTEX
  8
0
  5
33040
 10
-369.791
 20
855.149
 30
0.000000
  70
    32
  0
VERTEX
  8
0
  5
33041
 10
-369.797
 20
855.146
 30
0.000000
  70
    32
  0
VERTEX
  8
0
  5
33042
 10
-369.804
 20
855.142
 30
0.000000
  70
    32
  0
VERTEX
  8
0
  5
33043
 10
-369.811
 20
855.139
 30
0.000000
  70
    32
  0
VERTEX
  8
0
  5
33044
 10
-369.818
 20
855.136
 30
0.000000
  70
    32
  0
VERTEX
  8
0
  5
33045
 10
-369.824
 20
855.133
 30
0.000000
  70
    32
  0
VERTEX
  8
0
  5
33046
 10
-369.831
 20
855.130
 30
0.000000
  70
    32
  0
VERTEX
  8
0
  5
33047
 10
-369.838
 20
855.126
 30
0.000000
  70
    32
  0
VERTEX
  8
0
  5
33048
 10
-369.845
 20
855.123
 30
0.000000
  70
    32
  0
VERTEX
  8
0
  5
33049
 10
-369.852
 20
855.120
 30
0.000000
  70
    32
  0
VERTEX
  8
0
  5
3304A
 10
-369.858
 20
855.117
 30
0.000000
  70
    32
  0
VERTEX
  8
0
  5
3304B
 10
-369.865
 20
855.114
 30
0.000000
  70
    32
  0
VERTEX
  8
0
  5
3304C
 10
-369.872
 20
855.111
 30
0.000000
  70
    32
  0
VERTEX
  8
0
  5
3304D
 10
-369.879
 20
855.108
 30
0.000000
  70
    32
  0
VERTEX
  8
0
  5
3304E
 10
-369.886
 20
855.106
 30
0.000000
  70
    32
  0
VERTEX
  8
0
  5
3304F
 10
-369.893
 20
855.103
 30
0.000000
  70
    32
  0
VERTEX
  8
0
  5
33050
 10
-369.900
 20
855.100
 30
0.000000
  70
    32
  0
VERTEX
  8
0
  5
33051
 10
-369.907
 20
855.097
 30
0.000000
  70
    32
  0
VERTEX
  8
0
  5
33052
 10
-369.914
 20
855.094
 30
0.000000
  70
    32
  0
VERTEX
  8
0
  5
33053
 10
-369.921
 20
855.091
 30
0.000000
  70
    32
  0
VERTEX
  8
0
  5
33054
 10
-369.928
 20
855.089
 30
0.000000
  70
    32
  0
VERTEX
  8
0
  5
33055
 10
-369.935
 20
855.086
 30
0.000000
  70
    32
  0
VERTEX
  8
0
  5
33056
 10
-369.942
 20
855.083
 30
0.000000
  70
    32
  0
VERTEX
  8
0
  5
33057
 10
-369.949
 20
855.081
 30
0.000000
  70
    32
  0
VERTEX
  8
0
  5
33058
 10
-369.956
 20
855.078
 30
0.000000
  70
    32
  0
VERTEX
  8
0
  5
33059
 10
-369.963
 20
855.076
 30
0.000000
  70
    32
  0
VERTEX
  8
0
  5
3305A
 10
-369.970
 20
855.073
 30
0.000000
  70
    32
  0
VERTEX
  8
0
  5
3305B
 10
-369.977
 20
855.071
 30
0.000000
  70
    32
  0
VERTEX
  8
0
  5
3305C
 10
-369.984
 20
855.068
 30
0.000000
  70
    32
  0
VERTEX
  8
0
  5
3305D
 10
-369.991
 20
855.066
 30
0.000000
  70
    32
  0
VERTEX
  8
0
  5
3305E
 10
-369.998
 20
855.064
 30
0.000000
  70
    32
  0
VERTEX
  8
0
  5
3305F
 10
-370.005
 20
855.061
 30
0.000000
  70
    32
  0
VERTEX
  8
0
  5
33060
 10
-370.012
 20
855.059
 30
0.000000
  70
    32
  0
VERTEX
  8
0
  5
33061
 10
-370.019
 20
855.057
 30
0.000000
  70
    32
  0
VERTEX
  8
0
  5
33062
 10
-370.026
 20
855.055
 30
0.000000
  70
    32
  0
VERTEX
  8
0
  5
33063
 10
-370.034
 20
855.053
 30
0.000000
  70
    32
  0
VERTEX
  8
0
  5
33064
 10
-370.041
 20
855.050
 30
0.000000
  70
    32
  0
VERTEX
  8
0
  5
33065
 10
-370.048
 20
855.048
 30
0.000000
  70
    32
  0
VERTEX
  8
0
  5
33066
 10
-370.055
 20
855.046
 30
0.000000
  70
    32
  0
VERTEX
  8
0
  5
33067
 10
-370.062
 20
855.044
 30
0.000000
  70
    32
  0
VERTEX
  8
0
  5
33068
 10
-370.070
 20
855.042
 30
0.000000
  70
    32
  0
VERTEX
  8
0
  5
33069
 10
-370.077
 20
855.041
 30
0.000000
  70
    32
  0
VERTEX
  8
0
  5
3306A
 10
-370.084
 20
855.039
 30
0.000000
  70
    32
  0
VERTEX
  8
0
  5
3306B
 10
-370.091
 20
855.037
 30
0.000000
  70
    32
  0
VERTEX
  8
0
  5
3306C
 10
-370.099
 20
855.035
 30
0.000000
  70
    32
  0
VERTEX
  8
0
  5
3306D
 10
-370.106
 20
855.034
 30
0.000000
  70
    32
  0
VERTEX
  8
0
  5
3306E
 10
-370.113
 20
855.032
 30
0.000000
  70
    32
  0
VERTEX
  8
0
  5
3306F
 10
-370.121
 20
855.030
 30
0.000000
  70
    32
  0
VERTEX
  8
0
  5
33070
 10
-370.128
 20
855.029
 30
0.000000
  70
    32
  0
VERTEX
  8
0
  5
33071
 10
-370.135
 20
855.027
 30
0.000000
  70
    32
  0
VERTEX
  8
0
  5
33072
 10
-370.142
 20
855.026
 30
0.000000
  70
    32
  0
VERTEX
  8
0
  5
33073
 10
-370.150
 20
855.024
 30
0.000000
  70
    32
  0
VERTEX
  8
0
  5
33074
 10
-370.157
 20
855.023
 30
0.000000
  70
    32
  0
VERTEX
  8
0
  5
33075
 10
-370.164
 20
855.021
 30
0.000000
  70
    32
  0
VERTEX
  8
0
  5
33076
 10
-370.172
 20
855.020
 30
0.000000
  70
    32
  0
VERTEX
  8
0
  5
33077
 10
-370.179
 20
855.019
 30
0.000000
  70
    32
  0
VERTEX
  8
0
  5
33078
 10
-370.187
 20
855.018
 30
0.000000
  70
    32
  0
VERTEX
  8
0
  5
33079
 10
-370.194
 20
855.016
 30
0.000000
  70
    32
  0
VERTEX
  8
0
  5
3307A
 10
-370.201
 20
855.015
 30
0.000000
  70
    32
  0
VERTEX
  8
0
  5
3307B
 10
-370.209
 20
855.014
 30
0.000000
  70
    32
  0
VERTEX
  8
0
  5
3307C
 10
-370.216
 20
855.013
 30
0.000000
  70
    32
  0
VERTEX
  8
0
  5
3307D
 10
-370.224
 20
855.012
 30
0.000000
  70
    32
  0
VERTEX
  8
0
  5
3307E
 10
-370.231
 20
855.011
 30
0.000000
  70
    32
  0
VERTEX
  8
0
  5
3307F
 10
-370.238
 20
855.010
 30
0.000000
  70
    32
  0
VERTEX
  8
0
  5
33080
 10
-370.246
 20
855.009
 30
0.000000
  70
    32
  0
VERTEX
  8
0
  5
33081
 10
-370.253
 20
855.008
 30
0.000000
  70
    32
  0
VERTEX
  8
0
  5
33082
 10
-370.261
 20
855.007
 30
0.000000
  70
    32
  0
VERTEX
  8
0
  5
33083
 10
-370.268
 20
855.006
 30
0.000000
  70
    32
  0
VERTEX
  8
0
  5
33084
 10
-370.276
 20
855.006
 30
0.000000
  70
    32
  0
VERTEX
  8
0
  5
33085
 10
-370.283
 20
855.005
 30
0.000000
  70
    32
  0
VERTEX
  8
0
  5
33086
 10
-370.290
 20
855.004
 30
0.000000
  70
    32
  0
VERTEX
  8
0
  5
33087
 10
-370.298
 20
855.003
 30
0.000000
  70
    32
  0
VERTEX
  8
0
  5
33088
 10
-370.305
 20
855.003
 30
0.000000
  70
    32
  0
VERTEX
  8
0
  5
33089
 10
-370.313
 20
855.002
 30
0.000000
  70
    32
  0
VERTEX
  8
0
  5
3308A
 10
-370.320
 20
855.001
 30
0.000000
  70
    32
  0
VERTEX
  8
0
  5
3308B
 10
-370.328
 20
855.001
 30
0.000000
  70
    32
  0
SEQEND
  8
0
  5
3308C
  0
POLYLINE
  8
0
  5
3308D
  66
     1
 10
0.000000
 20
0.000000
 30
0.000000
  70
     8
  0
VERTEX
  8
0
  5
3308E
 10
-370.547
 20
854.896
 30
0.000000
  70
    32
  0
VERTEX
  8
0
  5
3308F
 10
-370.545
 20
854.894
 30
0.000000
  70
    32
  0
VERTEX
  8
0
  5
33090
 10
-370.542
 20
854.891
 30
0.000000
  70
    32
  0
VERTEX
  8
0
  5
33091
 10
-370.540
 20
854.889
 30
0.000000
  70
    32
  0
VERTEX
  8
0
  5
33092
 10
-370.538
 20
854.887
 30
0.000000
  70
    32
  0
VERTEX
  8
0
  5
33093
 10
-370.535
 20
854.884
 30
0.000000
  70
    32
  0
VERTEX
  8
0
  5
33094
 10
-370.533
 20
854.882
 30
0.000000
  70
    32
  0
VERTEX
  8
0
  5
33095
 10
-370.530
 20
854.879
 30
0.000000
  70
    32
  0
VERTEX
  8
0
  5
33096
 10
-370.528
 20
854.877
 30
0.000000
  70
    32
  0
VERTEX
  8
0
  5
33097
 10
-370.525
 20
854.874
 30
0.000000
  70
    32
  0
VERTEX
  8
0
  5
33098
 10
-370.523
 20
854.872
 30
0.000000
  70
    32
  0
VERTEX
  8
0
  5
33099
 10
-370.520
 20
854.870
 30
0.000000
  70
    32
  0
VERTEX
  8
0
  5
3309A
 10
-370.518
 20
854.867
 30
0.000000
  70
    32
  0
VERTEX
  8
0
  5
3309B
 10
-370.515
 20
854.865
 30
0.000000
  70
    32
  0
VERTEX
  8
0
  5
3309C
 10
-370.513
 20
854.862
 30
0.000000
  70
    32
  0
VERTEX
  8
0
  5
3309D
 10
-370.511
 20
854.860
 30
0.000000
  70
    32
  0
VERTEX
  8
0
  5
3309E
 10
-370.508
 20
854.858
 30
0.000000
  70
    32
  0
VERTEX
  8
0
  5
3309F
 10
-370.506
 20
854.855
 30
0.000000
  70
    32
  0
VERTEX
  8
0
  5
330A0
 10
-370.503
 20
854.853
 30
0.000000
  70
    32
  0
VERTEX
  8
0
  5
330A1
 10
-370.501
 20
854.851
 30
0.000000
  70
    32
  0
VERTEX
  8
0
  5
330A2
 10
-370.498
 20
854.848
 30
0.000000
  70
    32
  0
VERTEX
  8
0
  5
330A3
 10
-370.496
 20
854.846
 30
0.000000
  70
    32
  0
VERTEX
  8
0
  5
330A4
 10
-370.493
 20
854.843
 30
0.000000
  70
    32
  0
VERTEX
  8
0
  5
330A5
 10
-370.491
 20
854.841
 30
0.000000
  70
    32
  0
VERTEX
  8
0
  5
330A6
 10
-370.489
 20
854.838
 30
0.000000
  70
    32
  0
VERTEX
  8
0
  5
330A7
 10
-370.486
 20
854.836
 30
0.000000
  70
    32
  0
VERTEX
  8
0
  5
330A8
 10
-370.484
 20
854.834
 30
0.000000
  70
    32
  0
VERTEX
  8
0
  5
330A9
 10
-370.481
 20
854.831
 30
0.000000
  70
    32
  0
VERTEX
  8
0
  5
330AA
 10
-370.479
 20
854.829
 30
0.000000
  70
    32
  0
VERTEX
  8
0
  5
330AB
 10
-370.476
 20
854.826
 30
0.000000
  70
    32
  0
VERTEX
  8
0
  5
330AC
 10
-370.474
 20
854.824
 30
0.000000
  70
    32
  0
VERTEX
  8
0
  5
330AD
 10
-370.472
 20
854.821
 30
0.000000
  70
    32
  0
VERTEX
  8
0
  5
330AE
 10
-370.469
 20
854.819
 30
0.000000
  70
    32
  0
VERTEX
  8
0
  5
330AF
 10
-370.467
 20
854.816
 30
0.000000
  70
    32
  0
VERTEX
  8
0
  5
330B0
 10
-370.465
 20
854.814
 30
0.000000
  70
    32
  0
VERTEX
  8
0
  5
330B1
 10
-370.462
 20
854.811
 30
0.000000
  70
    32
  0
VERTEX
  8
0
  5
330B2
 10
-370.460
 20
854.809
 30
0.000000
  70
    32
  0
VERTEX
  8
0
  5
330B3
 10
-370.458
 20
854.806
 30
0.000000
  70
    32
  0
VERTEX
  8
0
  5
330B4
 10
-370.456
 20
854.803
 30
0.000000
  70
    32
  0
VERTEX
  8
0
  5
330B5
 10
-370.453
 20
854.801
 30
0.000000
  70
    32
  0
VERTEX
  8
0
  5
330B6
 10
-370.451
 20
854.798
 30
0.000000
  70
    32
  0
VERTEX
  8
0
  5
330B7
 10
-370.449
 20
854.795
 30
0.000000
  70
    32
  0
VERTEX
  8
0
  5
330B8
 10
-370.447
 20
854.793
 30
0.000000
  70
    32
  0
VERTEX
  8
0
  5
330B9
 10
-370.444
 20
854.790
 30
0.000000
  70
    32
  0
VERTEX
  8
0
  5
330BA
 10
-370.442
 20
854.787
 30
0.000000
  70
    32
  0
VERTEX
  8
0
  5
330BB
 10
-370.440
 20
854.785
 30
0.000000
  70
    32
  0
VERTEX
  8
0
  5
330BC
 10
-370.438
 20
854.782
 30
0.000000
  70
    32
  0
VERTEX
  8
0
  5
330BD
 10
-370.436
 20
854.779
 30
0.000000
  70
    32
  0
VERTEX
  8
0
  5
330BE
 10
-370.434
 20
854.776
 30
0.000000
  70
    32
  0
VERTEX
  8
0
  5
330BF
 10
-370.432
 20
854.774
 30
0.000000
  70
    32
  0
VERTEX
  8
0
  5
330C0
 10
-370.430
 20
854.771
 30
0.000000
  70
    32
  0
VERTEX
  8
0
  5
330C1
 10
-370.428
 20
854.768
 30
0.000000
  70
    32
  0
VERTEX
  8
0
  5
330C2
 10
-370.426
 20
854.765
 30
0.000000
  70
    32
  0
VERTEX
  8
0
  5
330C3
 10
-370.424
 20
854.762
 30
0.000000
  70
    32
  0
VERTEX
  8
0
  5
330C4
 10
-370.422
 20
854.759
 30
0.000000
  70
    32
  0
VERTEX
  8
0
  5
330C5
 10
-370.420
 20
854.757
 30
0.000000
  70
    32
  0
VERTEX
  8
0
  5
330C6
 10
-370.418
 20
854.754
 30
0.000000
  70
    32
  0
VERTEX
  8
0
  5
330C7
 10
-370.416
 20
854.751
 30
0.000000
  70
    32
  0
VERTEX
  8
0
  5
330C8
 10
-370.414
 20
854.748
 30
0.000000
  70
    32
  0
VERTEX
  8
0
  5
330C9
 10
-370.412
 20
854.745
 30
0.000000
  70
    32
  0
VERTEX
  8
0
  5
330CA
 10
-370.411
 20
854.742
 30
0.000000
  70
    32
  0
VERTEX
  8
0
  5
330CB
 10
-370.409
 20
854.739
 30
0.000000
  70
    32
  0
VERTEX
  8
0
  5
330CC
 10
-370.407
 20
854.736
 30
0.000000
  70
    32
  0
VERTEX
  8
0
  5
330CD
 10
-370.405
 20
854.733
 30
0.000000
  70
    32
  0
VERTEX
  8
0
  5
330CE
 10
-370.404
 20
854.730
 30
0.000000
  70
    32
  0
VERTEX
  8
0
  5
330CF
 10
-370.402
 20
854.727
 30
0.000000
  70
    32
  0
VERTEX
  8
0
  5
330D0
 10
-370.400
 20
854.724
 30
0.000000
  70
    32
  0
VERTEX
  8
0
  5
330D1
 10
-370.399
 20
854.721
 30
0.000000
  70
    32
  0
VERTEX
  8
0
  5
330D2
 10
-370.397
 20
854.718
 30
0.000000
  70
    32
  0
VERTEX
  8
0
  5
330D3
 10
-370.396
 20
854.715
 30
0.000000
  70
    32
  0
VERTEX
  8
0
  5
330D4
 10
-370.394
 20
854.712
 30
0.000000
  70
    32
  0
VERTEX
  8
0
  5
330D5
 10
-370.393
 20
854.708
 30
0.000000
  70
    32
  0
VERTEX
  8
0
  5
330D6
 10
-370.391
 20
854.705
 30
0.000000
  70
    32
  0
VERTEX
  8
0
  5
330D7
 10
-370.390
 20
854.702
 30
0.000000
  70
    32
  0
VERTEX
  8
0
  5
330D8
 10
-370.389
 20
854.699
 30
0.000000
  70
    32
  0
VERTEX
  8
0
  5
330D9
 10
-370.387
 20
854.696
 30
0.000000
  70
    32
  0
VERTEX
  8
0
  5
330DA
 10
-370.386
 20
854.693
 30
0.000000
  70
    32
  0
VERTEX
  8
0
  5
330DB
 10
-370.385
 20
854.689
 30
0.000000
  70
    32
  0
VERTEX
  8
0
  5
330DC
 10
-370.383
 20
854.686
 30
0.000000
  70
    32
  0
VERTEX
  8
0
  5
330DD
 10
-370.382
 20
854.683
 30
0.000000
  70
    32
  0
VERTEX
  8
0
  5
330DE
 10
-370.381
 20
854.680
 30
0.000000
  70
    32
  0
VERTEX
  8
0
  5
330DF
 10
-370.380
 20
854.676
 30
0.000000
  70
    32
  0
VERTEX
  8
0
  5
330E0
 10
-370.379
 20
854.673
 30
0.000000
  70
    32
  0
VERTEX
  8
0
  5
330E1
 10
-370.378
 20
854.670
 30
0.000000
  70
    32
  0
VERTEX
  8
0
  5
330E2
 10
-370.377
 20
854.666
 30
0.000000
  70
    32
  0
VERTEX
  8
0
  5
330E3
 10
-370.376
 20
854.663
 30
0.000000
  70
    32
  0
VERTEX
  8
0
  5
330E4
 10
-370.375
 20
854.660
 30
0.000000
  70
    32
  0
VERTEX
  8
0
  5
330E5
 10
-370.374
 20
854.656
 30
0.000000
  70
    32
  0
VERTEX
  8
0
  5
330E6
 10
-370.373
 20
854.653
 30
0.000000
  70
    32
  0
VERTEX
  8
0
  5
330E7
 10
-370.372
 20
854.649
 30
0.000000
  70
    32
  0
VERTEX
  8
0
  5
330E8
 10
-370.372
 20
854.646
 30
0.000000
  70
    32
  0
VERTEX
  8
0
  5
330E9
 10
-370.371
 20
854.643
 30
0.000000
  70
    32
  0
VERTEX
  8
0
  5
330EA
 10
-370.370
 20
854.639
 30
0.000000
  70
    32
  0
VERTEX
  8
0
  5
330EB
 10
-370.369
 20
854.636
 30
0.000000
  70
    32
  0
VERTEX
  8
0
  5
330EC
 10
-370.369
 20
854.632
 30
0.000000
  70
    32
  0
VERTEX
  8
0
  5
330ED
 10
-370.368
 20
854.629
 30
0.000000
  70
    32
  0
VERTEX
  8
0
  5
330EE
 10
-370.368
 20
854.625
 30
0.000000
  70
    32
  0
VERTEX
  8
0
  5
330EF
 10
-370.367
 20
854.622
 30
0.000000
  70
    32
  0
VERTEX
  8
0
  5
330F0
 10
-370.367
 20
854.619
 30
0.000000
  70
    32
  0
VERTEX
  8
0
  5
330F1
 10
-370.366
 20
854.615
 30
0.000000
  70
    32
  0
VERTEX
  8
0
  5
330F2
 10
-370.366
 20
854.612
 30
0.000000
  70
    32
  0
VERTEX
  8
0
  5
330F3
 10
-370.366
 20
854.608
 30
0.000000
  70
    32
  0
VERTEX
  8
0
  5
330F4
 10
-370.365
 20
854.605
 30
0.000000
  70
    32
  0
VERTEX
  8
0
  5
330F5
 10
-370.365
 20
854.601
 30
0.000000
  70
    32
  0
VERTEX
  8
0
  5
330F6
 10
-370.365
 20
854.598
 30
0.000000
  70
    32
  0
VERTEX
  8
0
  5
330F7
 10
-370.365
 20
854.594
 30
0.000000
  70
    32
  0
VERTEX
  8
0
  5
330F8
 10
-370.364
 20
854.591
 30
0.000000
  70
    32
  0
VERTEX
  8
0
  5
330F9
 10
-370.364
 20
854.587
 30
0.000000
  70
    32
  0
VERTEX
  8
0
  5
330FA
 10
-370.364
 20
854.584
 30
0.000000
  70
    32
  0
VERTEX
  8
0
  5
330FB
 10
-370.364
 20
854.580
 30
0.000000
  70
    32
  0
VERTEX
  8
0
  5
330FC
 10
-370.364
 20
854.577
 30
0.000000
  70
    32
  0
VERTEX
  8
0
  5
330FD
 10
-370.364
 20
854.573
 30
0.000000
  70
    32
  0
VERTEX
  8
0
  5
330FE
 10
-370.364
 20
854.570
 30
0.000000
  70
    32
  0
VERTEX
  8
0
  5
330FF
 10
-370.365
 20
854.566
 30
0.000000
  70
    32
  0
VERTEX
  8
0
  5
33100
 10
-370.365
 20
854.563
 30
0.000000
  70
    32
  0
VERTEX
  8
0
  5
33101
 10
-370.365
 20
854.559
 30
0.000000
  70
    32
  0
VERTEX
  8
0
  5
33102
 10
-370.365
 20
854.556
 30
0.000000
  70
    32
  0
VERTEX
  8
0
  5
33103
 10
-370.366
 20
854.552
 30
0.000000
  70
    32
  0
VERTEX
  8
0
  5
33104
 10
-370.366
 20
854.549
 30
0.000000
  70
    32
  0
VERTEX
  8
0
  5
33105
 10
-370.366
 20
854.545
 30
0.000000
  70
    32
  0
VERTEX
  8
0
  5
33106
 10
-370.367
 20
854.542
 30
0.000000
  70
    32
  0
VERTEX
  8
0
  5
33107
 10
-370.367
 20
854.538
 30
0.000000
  70
    32
  0
VERTEX
  8
0
  5
33108
 10
-370.368
 20
854.535
 30
0.000000
  70
    32
  0
VERTEX
  8
0
  5
33109
 10
-370.368
 20
854.532
 30
0.000000
  70
    32
  0
VERTEX
  8
0
  5
3310A
 10
-370.369
 20
854.528
 30
0.000000
  70
    32
  0
VERTEX
  8
0
  5
3310B
 10
-370.370
 20
854.525
 30
0.000000
  70
    32
  0
VERTEX
  8
0
  5
3310C
 10
-370.370
 20
854.521
 30
0.000000
  70
    32
  0
VERTEX
  8
0
  5
3310D
 10
-370.371
 20
854.518
 30
0.000000
  70
    32
  0
VERTEX
  8
0
  5
3310E
 10
-370.372
 20
854.514
 30
0.000000
  70
    32
  0
VERTEX
  8
0
  5
3310F
 10
-370.373
 20
854.511
 30
0.000000
  70
    32
  0
VERTEX
  8
0
  5
33110
 10
-370.373
 20
854.508
 30
0.000000
  70
    32
  0
VERTEX
  8
0
  5
33111
 10
-370.374
 20
854.504
 30
0.000000
  70
    32
  0
VERTEX
  8
0
  5
33112
 10
-370.375
 20
854.501
 30
0.000000
  70
    32
  0
VERTEX
  8
0
  5
33113
 10
-370.376
 20
854.498
 30
0.000000
  70
    32
  0
VERTEX
  8
0
  5
33114
 10
-370.377
 20
854.494
 30
0.000000
  70
    32
  0
VERTEX
  8
0
  5
33115
 10
-370.378
 20
854.491
 30
0.000000
  70
    32
  0
VERTEX
  8
0
  5
33116
 10
-370.380
 20
854.488
 30
0.000000
  70
    32
  0
VERTEX
  8
0
  5
33117
 10
-370.381
 20
854.485
 30
0.000000
  70
    32
  0
VERTEX
  8
0
  5
33118
 10
-370.382
 20
854.481
 30
0.000000
  70
    32
  0
VERTEX
  8
0
  5
33119
 10
-370.383
 20
854.478
 30
0.000000
  70
    32
  0
VERTEX
  8
0
  5
3311A
 10
-370.384
 20
854.475
 30
0.000000
  70
    32
  0
VERTEX
  8
0
  5
3311B
 10
-370.386
 20
854.472
 30
0.000000
  70
    32
  0
VERTEX
  8
0
  5
3311C
 10
-370.387
 20
854.468
 30
0.000000
  70
    32
  0
VERTEX
  8
0
  5
3311D
 10
-370.389
 20
854.465
 30
0.000000
  70
    32
  0
VERTEX
  8
0
  5
3311E
 10
-370.390
 20
854.462
 30
0.000000
  70
    32
  0
VERTEX
  8
0
  5
3311F
 10
-370.392
 20
854.459
 30
0.000000
  70
    32
  0
VERTEX
  8
0
  5
33120
 10
-370.393
 20
854.456
 30
0.000000
  70
    32
  0
VERTEX
  8
0
  5
33121
 10
-370.395
 20
854.453
 30
0.000000
  70
    32
  0
VERTEX
  8
0
  5
33122
 10
-370.396
 20
854.450
 30
0.000000
  70
    32
  0
VERTEX
  8
0
  5
33123
 10
-370.398
 20
854.447
 30
0.000000
  70
    32
  0
VERTEX
  8
0
  5
33124
 10
-370.399
 20
854.444
 30
0.000000
  70
    32
  0
VERTEX
  8
0
  5
33125
 10
-370.401
 20
854.440
 30
0.000000
  70
    32
  0
VERTEX
  8
0
  5
33126
 10
-370.403
 20
854.437
 30
0.000000
  70
    32
  0
VERTEX
  8
0
  5
33127
 10
-370.405
 20
854.434
 30
0.000000
  70
    32
  0
VERTEX
  8
0
  5
33128
 10
-370.407
 20
854.431
 30
0.000000
  70
    32
  0
VERTEX
  8
0
  5
33129
 10
-370.408
 20
854.429
 30
0.000000
  70
    32
  0
VERTEX
  8
0
  5
3312A
 10
-370.410
 20
854.426
 30
0.000000
  70
    32
  0
VERTEX
  8
0
  5
3312B
 10
-370.412
 20
854.423
 30
0.000000
  70
    32
  0
VERTEX
  8
0
  5
3312C
 10
-370.414
 20
854.420
 30
0.000000
  70
    32
  0
VERTEX
  8
0
  5
3312D
 10
-370.416
 20
854.417
 30
0.000000
  70
    32
  0
VERTEX
  8
0
  5
3312E
 10
-370.418
 20
854.414
 30
0.000000
  70
    32
  0
VERTEX
  8
0
  5
3312F
 10
-370.420
 20
854.411
 30
0.000000
  70
    32
  0
VERTEX
  8
0
  5
33130
 10
-370.422
 20
854.408
 30
0.000000
  70
    32
  0
VERTEX
  8
0
  5
33131
 10
-370.424
 20
854.406
 30
0.000000
  70
    32
  0
VERTEX
  8
0
  5
33132
 10
-370.426
 20
854.403
 30
0.000000
  70
    32
  0
VERTEX
  8
0
  5
33133
 10
-370.428
 20
854.400
 30
0.000000
  70
    32
  0
VERTEX
  8
0
  5
33134
 10
-370.431
 20
854.397
 30
0.000000
  70
    32
  0
VERTEX
  8
0
  5
33135
 10
-370.433
 20
854.395
 30
0.000000
  70
    32
  0
VERTEX
  8
0
  5
33136
 10
-370.435
 20
854.392
 30
0.000000
  70
    32
  0
VERTEX
  8
0
  5
33137
 10
-370.437
 20
854.389
 30
0.000000
  70
    32
  0
VERTEX
  8
0
  5
33138
 10
-370.440
 20
854.387
 30
0.000000
  70
    32
  0
VERTEX
  8
0
  5
33139
 10
-370.442
 20
854.384
 30
0.000000
  70
    32
  0
VERTEX
  8
0
  5
3313A
 10
-370.444
 20
854.381
 30
0.000000
  70
    32
  0
VERTEX
  8
0
  5
3313B
 10
-370.447
 20
854.379
 30
0.000000
  70
    32
  0
VERTEX
  8
0
  5
3313C
 10
-370.449
 20
854.376
 30
0.000000
  70
    32
  0
VERTEX
  8
0
  5
3313D
 10
-370.451
 20
854.374
 30
0.000000
  70
    32
  0
VERTEX
  8
0
  5
3313E
 10
-370.454
 20
854.371
 30
0.000000
  70
    32
  0
VERTEX
  8
0
  5
3313F
 10
-370.456
 20
854.369
 30
0.000000
  70
    32
  0
VERTEX
  8
0
  5
33140
 10
-370.459
 20
854.366
 30
0.000000
  70
    32
  0
VERTEX
  8
0
  5
33141
 10
-370.461
 20
854.364
 30
0.000000
  70
    32
  0
VERTEX
  8
0
  5
33142
 10
-370.464
 20
854.361
 30
0.000000
  70
    32
  0
VERTEX
  8
0
  5
33143
 10
-370.466
 20
854.359
 30
0.000000
  70
    32
  0
VERTEX
  8
0
  5
33144
 10
-370.469
 20
854.357
 30
0.000000
  70
    32
  0
VERTEX
  8
0
  5
33145
 10
-370.471
 20
854.354
 30
0.000000
  70
    32
  0
VERTEX
  8
0
  5
33146
 10
-370.474
 20
854.352
 30
0.000000
  70
    32
  0
VERTEX
  8
0
  5
33147
 10
-370.477
 20
854.350
 30
0.000000
  70
    32
  0
VERTEX
  8
0
  5
33148
 10
-370.479
 20
854.347
 30
0.000000
  70
    32
  0
VERTEX
  8
0
  5
33149
 10
-370.482
 20
854.345
 30
0.000000
  70
    32
  0
VERTEX
  8
0
  5
3314A
 10
-370.485
 20
854.343
 30
0.000000
  70
    32
  0
VERTEX
  8
0
  5
3314B
 10
-370.487
 20
854.341
 30
0.000000
  70
    32
  0
VERTEX
  8
0
  5
3314C
 10
-370.490
 20
854.338
 30
0.000000
  70
    32
  0
VERTEX
  8
0
  5
3314D
 10
-370.493
 20
854.336
 30
0.000000
  70
    32
  0
VERTEX
  8
0
  5
3314E
 10
-370.495
 20
854.334
 30
0.000000
  70
    32
  0
VERTEX
  8
0
  5
3314F
 10
-370.498
 20
854.332
 30
0.000000
  70
    32
  0
VERTEX
  8
0
  5
33150
 10
-370.501
 20
854.330
 30
0.000000
  70
    32
  0
VERTEX
  8
0
  5
33151
 10
-370.504
 20
854.328
 30
0.000000
  70
    32
  0
VERTEX
  8
0
  5
33152
 10
-370.506
 20
854.326
 30
0.000000
  70
    32
  0
VERTEX
  8
0
  5
33153
 10
-370.509
 20
854.324
 30
0.000000
  70
    32
  0
VERTEX
  8
0
  5
33154
 10
-370.512
 20
854.322
 30
0.000000
  70
    32
  0
VERTEX
  8
0
  5
33155
 10
-370.515
 20
854.320
 30
0.000000
  70
    32
  0
VERTEX
  8
0
  5
33156
 10
-370.518
 20
854.318
 30
0.000000
  70
    32
  0
VERTEX
  8
0
  5
33157
 10
-370.521
 20
854.316
 30
0.000000
  70
    32
  0
VERTEX
  8
0
  5
33158
 10
-370.523
 20
854.314
 30
0.000000
  70
    32
  0
VERTEX
  8
0
  5
33159
 10
-370.526
 20
854.312
 30
0.000000
  70
    32
  0
VERTEX
  8
0
  5
3315A
 10
-370.529
 20
854.311
 30
0.000000
  70
    32
  0
VERTEX
  8
0
  5
3315B
 10
-370.532
 20
854.309
 30
0.000000
  70
    32
  0
VERTEX
  8
0
  5
3315C
 10
-370.535
 20
854.307
 30
0.000000
  70
    32
  0
VERTEX
  8
0
  5
3315D
 10
-370.538
 20
854.305
 30
0.000000
  70
    32
  0
VERTEX
  8
0
  5
3315E
 10
-370.541
 20
854.303
 30
0.000000
  70
    32
  0
VERTEX
  8
0
  5
3315F
 10
-370.544
 20
854.302
 30
0.000000
  70
    32
  0
VERTEX
  8
0
  5
33160
 10
-370.547
 20
854.300
 30
0.000000
  70
    32
  0
VERTEX
  8
0
  5
33161
 10
-370.550
 20
854.298
 30
0.000000
  70
    32
  0
VERTEX
  8
0
  5
33162
 10
-370.553
 20
854.296
 30
0.000000
  70
    32
  0
VERTEX
  8
0
  5
33163
 10
-370.556
 20
854.295
 30
0.000000
  70
    32
  0
VERTEX
  8
0
  5
33164
 10
-370.559
 20
854.293
 30
0.000000
  70
    32
  0
VERTEX
  8
0
  5
33165
 10
-370.562
 20
854.291
 30
0.000000
  70
    32
  0
VERTEX
  8
0
  5
33166
 10
-370.565
 20
854.290
 30
0.000000
  70
    32
  0
VERTEX
  8
0
  5
33167
 10
-370.568
 20
854.288
 30
0.000000
  70
    32
  0
VERTEX
  8
0
  5
33168
 10
-370.571
 20
854.286
 30
0.000000
  70
    32
  0
VERTEX
  8
0
  5
33169
 10
-370.574
 20
854.285
 30
0.000000
  70
    32
  0
VERTEX
  8
0
  5
3316A
 10
-370.577
 20
854.283
 30
0.000000
  70
    32
  0
VERTEX
  8
0
  5
3316B
 10
-370.580
 20
854.282
 30
0.000000
  70
    32
  0
VERTEX
  8
0
  5
3316C
 10
-370.583
 20
854.280
 30
0.000000
  70
    32
  0
VERTEX
  8
0
  5
3316D
 10
-370.586
 20
854.278
 30
0.000000
  70
    32
  0
VERTEX
  8
0
  5
3316E
 10
-370.589
 20
854.277
 30
0.000000
  70
    32
  0
VERTEX
  8
0
  5
3316F
 10
-370.592
 20
854.275
 30
0.000000
  70
    32
  0
VERTEX
  8
0
  5
33170
 10
-370.595
 20
854.274
 30
0.000000
  70
    32
  0
VERTEX
  8
0
  5
33171
 10
-370.598
 20
854.272
 30
0.000000
  70
    32
  0
VERTEX
  8
0
  5
33172
 10
-370.602
 20
854.271
 30
0.000000
  70
    32
  0
VERTEX
  8
0
  5
33173
 10
-370.605
 20
854.269
 30
0.000000
  70
    32
  0
VERTEX
  8
0
  5
33174
 10
-370.608
 20
854.268
 30
0.000000
  70
    32
  0
VERTEX
  8
0
  5
33175
 10
-370.611
 20
854.266
 30
0.000000
  70
    32
  0
VERTEX
  8
0
  5
33176
 10
-370.614
 20
854.265
 30
0.000000
  70
    32
  0
VERTEX
  8
0
  5
33177
 10
-370.617
 20
854.263
 30
0.000000
  70
    32
  0
VERTEX
  8
0
  5
33178
 10
-370.620
 20
854.262
 30
0.000000
  70
    32
  0
VERTEX
  8
0
  5
33179
 10
-370.623
 20
854.260
 30
0.000000
  70
    32
  0
VERTEX
  8
0
  5
3317A
 10
-370.626
 20
854.259
 30
0.000000
  70
    32
  0
VERTEX
  8
0
  5
3317B
 10
-370.630
 20
854.257
 30
0.000000
  70
    32
  0
VERTEX
  8
0
  5
3317C
 10
-370.633
 20
854.256
 30
0.000000
  70
    32
  0
VERTEX
  8
0
  5
3317D
 10
-370.636
 20
854.254
 30
0.000000
  70
    32
  0
VERTEX
  8
0
  5
3317E
 10
-370.639
 20
854.253
 30
0.000000
  70
    32
  0
VERTEX
  8
0
  5
3317F
 10
-370.642
 20
854.251
 30
0.000000
  70
    32
  0
VERTEX
  8
0
  5
33180
 10
-370.645
 20
854.250
 30
0.000000
  70
    32
  0
VERTEX
  8
0
  5
33181
 10
-370.648
 20
854.248
 30
0.000000
  70
    32
  0
VERTEX
  8
0
  5
33182
 10
-370.651
 20
854.247
 30
0.000000
  70
    32
  0
VERTEX
  8
0
  5
33183
 10
-370.654
 20
854.245
 30
0.000000
  70
    32
  0
VERTEX
  8
0
  5
33184
 10
-370.657
 20
854.244
 30
0.000000
  70
    32
  0
VERTEX
  8
0
  5
33185
 10
-370.661
 20
854.242
 30
0.000000
  70
    32
  0
VERTEX
  8
0
  5
33186
 10
-370.664
 20
854.241
 30
0.000000
  70
    32
  0
VERTEX
  8
0
  5
33187
 10
-370.667
 20
854.239
 30
0.000000
  70
    32
  0
VERTEX
  8
0
  5
33188
 10
-370.670
 20
854.238
 30
0.000000
  70
    32
  0
VERTEX
  8
0
  5
33189
 10
-370.673
 20
854.236
 30
0.000000
  70
    32
  0
VERTEX
  8
0
  5
3318A
 10
-370.676
 20
854.234
 30
0.000000
  70
    32
  0
VERTEX
  8
0
  5
3318B
 10
-370.679
 20
854.233
 30
0.000000
  70
    32
  0
VERTEX
  8
0
  5
3318C
 10
-370.682
 20
854.231
 30
0.000000
  70
    32
  0
VERTEX
  8
0
  5
3318D
 10
-370.685
 20
854.230
 30
0.000000
  70
    32
  0
VERTEX
  8
0
  5
3318E
 10
-370.688
 20
854.228
 30
0.000000
  70
    32
  0
VERTEX
  8
0
  5
3318F
 10
-370.691
 20
854.226
 30
0.000000
  70
    32
  0
VERTEX
  8
0
  5
33190
 10
-370.694
 20
854.224
 30
0.000000
  70
    32
  0
VERTEX
  8
0
  5
33191
 10
-370.697
 20
854.223
 30
0.000000
  70
    32
  0
VERTEX
  8
0
  5
33192
 10
-370.700
 20
854.221
 30
0.000000
  70
    32
  0
VERTEX
  8
0
  5
33193
 10
-370.703
 20
854.219
 30
0.000000
  70
    32
  0
VERTEX
  8
0
  5
33194
 10
-370.706
 20
854.217
 30
0.000000
  70
    32
  0
VERTEX
  8
0
  5
33195
 10
-370.709
 20
854.216
 30
0.000000
  70
    32
  0
VERTEX
  8
0
  5
33196
 10
-370.711
 20
854.214
 30
0.000000
  70
    32
  0
VERTEX
  8
0
  5
33197
 10
-370.714
 20
854.212
 30
0.000000
  70
    32
  0
VERTEX
  8
0
  5
33198
 10
-370.717
 20
854.210
 30
0.000000
  70
    32
  0
VERTEX
  8
0
  5
33199
 10
-370.720
 20
854.208
 30
0.000000
  70
    32
  0
VERTEX
  8
0
  5
3319A
 10
-370.723
 20
854.206
 30
0.000000
  70
    32
  0
VERTEX
  8
0
  5
3319B
 10
-370.726
 20
854.204
 30
0.000000
  70
    32
  0
VERTEX
  8
0
  5
3319C
 10
-370.728
 20
854.202
 30
0.000000
  70
    32
  0
VERTEX
  8
0
  5
3319D
 10
-370.731
 20
854.200
 30
0.000000
  70
    32
  0
VERTEX
  8
0
  5
3319E
 10
-370.734
 20
854.198
 30
0.000000
  70
    32
  0
VERTEX
  8
0
  5
3319F
 10
-370.737
 20
854.196
 30
0.000000
  70
    32
  0
VERTEX
  8
0
  5
331A0
 10
-370.739
 20
854.194
 30
0.000000
  70
    32
  0
VERTEX
  8
0
  5
331A1
 10
-370.742
 20
854.191
 30
0.000000
  70
    32
  0
VERTEX
  8
0
  5
331A2
 10
-370.745
 20
854.189
 30
0.000000
  70
    32
  0
VERTEX
  8
0
  5
331A3
 10
-370.747
 20
854.187
 30
0.000000
  70
    32
  0
VERTEX
  8
0
  5
331A4
 10
-370.750
 20
854.184
 30
0.000000
  70
    32
  0
VERTEX
  8
0
  5
331A5
 10
-370.753
 20
854.182
 30
0.000000
  70
    32
  0
VERTEX
  8
0
  5
331A6
 10
-370.755
 20
854.180
 30
0.000000
  70
    32
  0
VERTEX
  8
0
  5
331A7
 10
-370.758
 20
854.177
 30
0.000000
  70
    32
  0
VERTEX
  8
0
  5
331A8
 10
-370.760
 20
854.175
 30
0.000000
  70
    32
  0
VERTEX
  8
0
  5
331A9
 10
-370.763
 20
854.173
 30
0.000000
  70
    32
  0
VERTEX
  8
0
  5
331AA
 10
-370.765
 20
854.170
 30
0.000000
  70
    32
  0
VERTEX
  8
0
  5
331AB
 10
-370.768
 20
854.167
 30
0.000000
  70
    32
  0
VERTEX
  8
0
  5
331AC
 10
-370.770
 20
854.165
 30
0.000000
  70
    32
  0
VERTEX
  8
0
  5
331AD
 10
-370.772
 20
854.162
 30
0.000000
  70
    32
  0
VERTEX
  8
0
  5
331AE
 10
-370.775
 20
854.160
 30
0.000000
  70
    32
  0
VERTEX
  8
0
  5
331AF
 10
-370.777
 20
854.157
 30
0.000000
  70
    32
  0
VERTEX
  8
0
  5
331B0
 10
-370.779
 20
854.154
 30
0.000000
  70
    32
  0
VERTEX
  8
0
  5
331B1
 10
-370.781
 20
854.152
 30
0.000000
  70
    32
  0
VERTEX
  8
0
  5
331B2
 10
-370.784
 20
854.149
 30
0.000000
  70
    32
  0
VERTEX
  8
0
  5
331B3
 10
-370.786
 20
854.146
 30
0.000000
  70
    32
  0
VERTEX
  8
0
  5
331B4
 10
-370.788
 20
854.144
 30
0.000000
  70
    32
  0
VERTEX
  8
0
  5
331B5
 10
-370.790
 20
854.141
 30
0.000000
  70
    32
  0
VERTEX
  8
0
  5
331B6
 10
-370.792
 20
854.138
 30
0.000000
  70
    32
  0
VERTEX
  8
0
  5
331B7
 10
-370.794
 20
854.135
 30
0.000000
  70
    32
  0
VERTEX
  8
0
  5
331B8
 10
-370.796
 20
854.132
 30
0.000000
  70
    32
  0
VERTEX
  8
0
  5
331B9
 10
-370.798
 20
854.129
 30
0.000000
  70
    32
  0
VERTEX
  8
0
  5
331BA
 10
-370.800
 20
854.126
 30
0.000000
  70
    32
  0
VERTEX
  8
0
  5
331BB
 10
-370.801
 20
854.123
 30
0.000000
  70
    32
  0
VERTEX
  8
0
  5
331BC
 10
-370.803
 20
854.120
 30
0.000000
  70
    32
  0
VERTEX
  8
0
  5
331BD
 10
-370.805
 20
854.117
 30
0.000000
  70
    32
  0
VERTEX
  8
0
  5
331BE
 10
-370.806
 20
854.114
 30
0.000000
  70
    32
  0
VERTEX
  8
0
  5
331BF
 10
-370.808
 20
854.111
 30
0.000000
  70
    32
  0
VERTEX
  8
0
  5
331C0
 10
-370.810
 20
854.108
 30
0.000000
  70
    32
  0
VERTEX
  8
0
  5
331C1
 10
-370.811
 20
854.105
 30
0.000000
  70
    32
  0
VERTEX
  8
0
  5
331C2
 10
-370.813
 20
854.102
 30
0.000000
  70
    32
  0
VERTEX
  8
0
  5
331C3
 10
-370.814
 20
854.099
 30
0.000000
  70
    32
  0
VERTEX
  8
0
  5
331C4
 10
-370.815
 20
854.096
 30
0.000000
  70
    32
  0
VERTEX
  8
0
  5
331C5
 10
-370.817
 20
854.093
 30
0.000000
  70
    32
  0
VERTEX
  8
0
  5
331C6
 10
-370.818
 20
854.089
 30
0.000000
  70
    32
  0
VERTEX
  8
0
  5
331C7
 10
-370.819
 20
854.086
 30
0.000000
  70
    32
  0
VERTEX
  8
0
  5
331C8
 10
-370.820
 20
854.083
 30
0.000000
  70
    32
  0
VERTEX
  8
0
  5
331C9
 10
-370.821
 20
854.080
 30
0.000000
  70
    32
  0
VERTEX
  8
0
  5
331CA
 10
-370.822
 20
854.077
 30
0.000000
  70
    32
  0
VERTEX
  8
0
  5
331CB
 10
-370.824
 20
854.073
 30
0.000000
  70
    32
  0
VERTEX
  8
0
  5
331CC
 10
-370.824
 20
854.070
 30
0.000000
  70
    32
  0
VERTEX
  8
0
  5
331CD
 10
-370.825
 20
854.067
 30
0.000000
  70
    32
  0
VERTEX
  8
0
  5
331CE
 10
-370.826
 20
854.063
 30
0.000000
  70
    32
  0
VERTEX
  8
0
  5
331CF
 10
-370.827
 20
854.060
 30
0.000000
  70
    32
  0
VERTEX
  8
0
  5
331D0
 10
-370.828
 20
854.057
 30
0.000000
  70
    32
  0
VERTEX
  8
0
  5
331D1
 10
-370.829
 20
854.053
 30
0.000000
  70
    32
  0
VERTEX
  8
0
  5
331D2
 10
-370.830
 20
854.050
 30
0.000000
  70
    32
  0
VERTEX
  8
0
  5
331D3
 10
-370.830
 20
854.047
 30
0.000000
  70
    32
  0
VERTEX
  8
0
  5
331D4
 10
-370.831
 20
854.043
 30
0.000000
  70
    32
  0
VERTEX
  8
0
  5
331D5
 10
-370.832
 20
854.040
 30
0.000000
  70
    32
  0
VERTEX
  8
0
  5
331D6
 10
-370.832
 20
854.036
 30
0.000000
  70
    32
  0
VERTEX
  8
0
  5
331D7
 10
-370.833
 20
854.033
 30
0.000000
  70
    32
  0
VERTEX
  8
0
  5
331D8
 10
-370.833
 20
854.030
 30
0.000000
  70
    32
  0
VERTEX
  8
0
  5
331D9
 10
-370.834
 20
854.026
 30
0.000000
  70
    32
  0
VERTEX
  8
0
  5
331DA
 10
-370.835
 20
854.023
 30
0.000000
  70
    32
  0
VERTEX
  8
0
  5
331DB
 10
-370.835
 20
854.019
 30
0.000000
  70
    32
  0
VERTEX
  8
0
  5
331DC
 10
-370.836
 20
854.016
 30
0.000000
  70
    32
  0
VERTEX
  8
0
  5
331DD
 10
-370.836
 20
854.012
 30
0.000000
  70
    32
  0
VERTEX
  8
0
  5
331DE
 10
-370.836
 20
854.009
 30
0.000000
  70
    32
  0
VERTEX
  8
0
  5
331DF
 10
-370.837
 20
854.006
 30
0.000000
  70
    32
  0
VERTEX
  8
0
  5
331E0
 10
-370.837
 20
854.002
 30
0.000000
  70
    32
  0
VERTEX
  8
0
  5
331E1
 10
-370.838
 20
853.999
 30
0.000000
  70
    32
  0
VERTEX
  8
0
  5
331E2
 10
-370.838
 20
853.995
 30
0.000000
  70
    32
  0
VERTEX
  8
0
  5
331E3
 10
-370.838
 20
853.992
 30
0.000000
  70
    32
  0
VERTEX
  8
0
  5
331E4
 10
-370.839
 20
853.988
 30
0.000000
  70
    32
  0
VERTEX
  8
0
  5
331E5
 10
-370.839
 20
853.985
 30
0.000000
  70
    32
  0
VERTEX
  8
0
  5
331E6
 10
-370.839
 20
853.981
 30
0.000000
  70
    32
  0
VERTEX
  8
0
  5
331E7
 10
-370.840
 20
853.978
 30
0.000000
  70
    32
  0
VERTEX
  8
0
  5
331E8
 10
-370.840
 20
853.974
 30
0.000000
  70
    32
  0
VERTEX
  8
0
  5
331E9
 10
-370.840
 20
853.971
 30
0.000000
  70
    32
  0
VERTEX
  8
0
  5
331EA
 10
-370.841
 20
853.968
 30
0.000000
  70
    32
  0
VERTEX
  8
0
  5
331EB
 10
-370.841
 20
853.964
 30
0.000000
  70
    32
  0
VERTEX
  8
0
  5
331EC
 10
-370.841
 20
853.961
 30
0.000000
  70
    32
  0
VERTEX
  8
0
  5
331ED
 10
-370.842
 20
853.957
 30
0.000000
  70
    32
  0
SEQEND
  8
0
  5
331EE
  0
LINE
  5
32B58
  8
0
 10
-371.08970699137399
 20
855.1711949941099
 30
0.0
 11
-371.0897069913741
 21
853.95726019968845
 31
0.0
  0
INSERT
  5
32B59
  8
0
  2
*U139
 10
0.0
 20
0.0
 30
0.0
  0
VIEWPORT
  5
BADA
 67
     1
  8
0
 10
5.249999665167536
 20
4.0168608648543138
 30
0.0
 40
16.023543186357209
 41
8.0117715931786062
 68
     2
 69
     1
1001
ACAD
1000
MVIEW
1002
{
1070
    16
1010
0.0
1020
0.0
1030
0.0
1010
0.0
1020
0.0
1030
1.0
1040
0.0
1040
8.0117715931786062
1040
5.249999665167536
1040
4.0168608648543138
1040
50.0
1040
0.0
1040
0.0
1070
     0
1070
   100
1070
     1
1070
     1
1070
     0
1070
     0
1070
     0
1070
     0
1040
0.0
1040
0.0
1040
0.0
1040
0.5
1040
0.5
1040
0.5
1040
0.5
1070
     0
1002
{
1002
}
1002
}
  0
VIEWPORT
  5
BADD
 67
     1
  8
0
 10
5.2499996294871929
 20
4.0166741807634683
 30
0.0
 40
10.44245679893058
 41
7.8813805131999892
 68
     1
 69
     2
1001
ACAD
1000
MVIEW
1002
{
1070
    16
1010
0.0
1020
0.0
1030
0.0
1010
0.0
1020
0.0
1030
1.0
1040
0.0
1040
7.8813805329734699
1040
-368.95727160887128
1040
855.35521626310174
1040
50.0
1040
0.0
1040
0.0
1070
     0
1070
   100
1070
     1
1070
     2
1070
     0
1070
     0
1070
     0
1070
     0
1040
0.0
1040
0.0
1040
0.0
1040
0.5
1040
0.5
1040
0.5
1040
0.5
1070
     0
1002
{
1002
}
1002
}
  0
ENDSEC
  0
EOF
