  0
SECTION
  2
HEADER
  9
$ACADVER
  1
AC1009
  9
$INSBASE
 10
0.0
 20
0.0
 30
0.0
  9
$EXTMIN
 10
-388.0615153254812
 20
830.71141642465341
 30
-0.0015258207003583
  9
$EXTMAX
 10
-378.7175518161597
 20
854.92308910391705
 30
0.0000000349246037
  9
$LIMMIN
 10
0.0
 20
0.0
  9
$LIMMAX
 10
1500.0
 20
1500.0
  9
$ORTHOMODE
 70
     0
  9
$REGENMODE
 70
     1
  9
$FILLMODE
 70
     1
  9
$QTEXTMODE
 70
     0
  9
$MIRRTEXT
 70
     1
  9
$DRAGMODE
 70
     2
  9
$LTSCALE
 40
1.0
  9
$OSMODE
 70
    37
  9
$ATTMODE
 70
     1
  9
$TEXTSIZE
 40
1.5
  9
$TRACEWID
 40
0.05
  9
$TEXTSTYLE
  7
STANDARD
  9
$CLAYER
  8
0
  9
$CELTYPE
  6
BYLAYER
  9
$CECOLOR
 62
   256
  9
$DIMSCALE
 40
1.0
  9
$DIMASZ
 40
0.75
  9
$DIMEXO
 40
1.5
  9
$DIMDLI
 40
2.0
  9
$DIMRND
 40
0.0
  9
$DIMDLE
 40
0.0
  9
$DIMEXE
 40
1.0
  9
$DIMTP
 40
0.0
  9
$DIMTM
 40
0.0
  9
$DIMTXT
 40
1.5
  9
$DIMCEN
 40
2.0
  9
$DIMTSZ
 40
0.0
  9
$DIMTOL
 70
     0
  9
$DIMLIM
 70
     0
  9
$DIMTIH
 70
     0
  9
$DIMTOH
 70
     0
  9
$DIMSE1
 70
     0
  9
$DIMSE2
 70
     0
  9
$DIMTAD
 70
     1
  9
$DIMZIN
 70
     0
  9
$DIMBLK
  1
ARCHTICK
  9
$DIMASO
 70
     1
  9
$DIMSHO
 70
     1
  9
$DIMPOST
  1
"
  9
$DIMAPOST
  1

  9
$DIMALT
 70
     0
  9
$DIMALTD
 70
     2
  9
$DIMALTF
 40
25.399999999999999
  9
$DIMLFAC
 40
1.0
  9
$DIMTOFL
 70
     0
  9
$DIMTVP
 40
0.0
  9
$DIMTIX
 70
     1
  9
$DIMSOXD
 70
     0
  9
$DIMSAH
 70
     0
  9
$DIMBLK1
  1

  9
$DIMBLK2
  1

  9
$DIMSTYLE
  2
THREE_QUARTER_INCH_SCALE
  9
$DIMCLRD
 70
     0
  9
$DIMCLRE
 70
     0
  9
$DIMCLRT
 70
     0
  9
$DIMTFAC
 40
1.0
  9
$DIMGAP
 40
1.0
  9
$LUNITS
 70
     2
  9
$LUPREC
 70
     4
  9
$SKETCHINC
 40
0.1
  9
$FILLETRAD
 40
0.0
  9
$AUNITS
 70
     0
  9
$AUPREC
 70
     0
  9
$MENU
  1
.
  9
$ELEVATION
 40
0.0
  9
$PELEVATION
 40
0.0
  9
$THICKNESS
 40
0.0
  9
$LIMCHECK
 70
     0
  9
$BLIPMODE
 70
     0
  9
$CHAMFERA
 40
0.5
  9
$CHAMFERB
 40
0.5
  9
$SKPOLY
 70
     0
  9
$TDCREATE
 40
2452089.395738773
  9
$TDUPDATE
 40
2453607.614949896
  9
$TDINDWG
 40
1.2942857292000001
  9
$TDUSRTIMER
 40
1.2942857292000001
  9
$USRTIMER
 70
     1
  9
$ANGBASE
 50
0.0
  9
$ANGDIR
 70
     0
  9
$PDMODE
 70
     0
  9
$PDSIZE
 40
10.0
  9
$PLINEWID
 40
0.0
  9
$COORDS
 70
     1
  9
$SPLFRAME
 70
     0
  9
$SPLINETYPE
 70
     6
  9
$SPLINESEGS
 70
     8
  9
$ATTDIA
 70
     0
  9
$ATTREQ
 70
     1
  9
$HANDLING
 70
     1
  9
$HANDSEED
  5
2658D
  9
$SURFTAB1
 70
     6
  9
$SURFTAB2
 70
     6
  9
$SURFTYPE
 70
     6
  9
$SURFU
 70
     6
  9
$SURFV
 70
     6
  9
$UCSNAME
  2

  9
$UCSORG
 10
0.0
 20
0.0
 30
0.0
  9
$UCSXDIR
 10
1.0
 20
0.0
 30
0.0
  9
$UCSYDIR
 10
0.0
 20
1.0
 30
0.0
  9
$PUCSNAME
  2

  9
$PUCSORG
 10
0.0
 20
0.0
 30
0.0
  9
$PUCSXDIR
 10
1.0
 20
0.0
 30
0.0
  9
$PUCSYDIR
 10
0.0
 20
1.0
 30
0.0
  9
$USERI1
 70
     0
  9
$USERI2
 70
     0
  9
$USERI3
 70
     0
  9
$USERI4
 70
     0
  9
$USERI5
 70
     0
  9
$USERR1
 40
0.0
  9
$USERR2
 40
0.0
  9
$USERR3
 40
0.0
  9
$USERR4
 40
0.0
  9
$USERR5
 40
0.0
  9
$WORLDVIEW
 70
     1
  9
$SHADEDGE
 70
     3
  9
$SHADEDIF
 70
    70
  9
$TILEMODE
 70
     0
  9
$MAXACTVP
 70
    64
  9
$PLIMCHECK
 70
     0
  9
$PEXTMIN
 10
0.0287712300219028
 20
0.0759839241634737
 30
0.0
  9
$PEXTMAX
 10
10.47122802895248
 20
7.957364437363462
 30
0.0
  9
$PLIMMIN
 10
-0.2500002402958907
 20
-0.2499999962453767
  9
$PLIMMAX
 10
10.74999951940821
 20
8.2499997634587316
  9
$UNITMODE
 70
     0
  9
$VISRETAIN
 70
     1
  9
$PLINEGEN
 70
     0
  9
$PSLTSCALE
 70
     1
  0
ENDSEC
  0
SECTION
  2
TABLES
  0
TABLE
  2
VPORT
 70
   149
  0
VPORT
  2
*ACTIVE
 70
     0
 10
0.0
 20
0.0
 11
1.0
 21
1.0
 12
-381.9741129214903
 22
844.25551152692162
 13
0.0
 23
0.0
 14
0.5
 24
0.5
 15
0.5
 25
0.5
 16
0.0
 26
0.0
 36
1.0
 17
0.0
 27
0.0
 37
0.0
 40
6.1892884984452179
 41
2.0
 42
50.0
 43
0.0
 44
0.0
 50
0.0
 51
0.0
 71
     0
 72
   100
 73
     1
 74
     2
 75
     0
 76
     0
 77
     0
 78
     0
  0
ENDTAB
  0
TABLE
  2
LTYPE
 70
     1
  0
LTYPE
  2
CONTINUOUS
 70
     0
  3
Solid line
 72
    65
 73
     0
 40
0.0
  0
ENDTAB
  0
TABLE
  2
LAYER
 70
    10
  0
LAYER
  2
0
 70
     0
 62
     7
  6
CONTINUOUS
  0
LAYER
  2
DEFPOINTS
 70
     0
 62
     7
  6
CONTINUOUS
  0
LAYER
  2
FRAME_200
 70
     0
 62
     8
  6
CONTINUOUS
  0
LAYER
  2
FRAME_070
 70
     0
 62
     5
  6
CONTINUOUS
  0
LAYER
  2
FRAME_050
 70
     0
 62
     6
  6
CONTINUOUS
  0
LAYER
  2
TITLE_BLOCK
 70
     0
 62
     7
  6
CONTINUOUS
  0
LAYER
  2
FRAME_025
 70
     0
 62
     7
  6
CONTINUOUS
  0
LAYER
  2
VIEWPORT
 70
     0
 62
     7
  6
CONTINUOUS
  0
LAYER
  2
PROF
 70
     0
 62
     7
  6
CONTINUOUS
  0
LAYER
  2
PROFILE
 70
     0
 62
     7
  6
CONTINUOUS
  0
ENDTAB
  0
TABLE
  2
STYLE
 70
     2
  0
STYLE
  2
STANDARD
 70
     0
 40
0.0
 41
1.0
 50
0.0
 71
     0
 42
1.5
  3
txt
  4

  0
STYLE
  2
ISO_PROPORTIONAL
 70
     0
 40
0.0
 41
1.0
 50
0.0
 71
     0
 42
2.5
  3
isocp.shx
  4

  0
ENDTAB
  0
TABLE
  2
VIEW
 70
   154
  0
ENDTAB
  0
TABLE
  2
UCS
 70
     0
  0
ENDTAB
  0
TABLE
  2
APPID
 70
     6
  0
APPID
  2
ACAD
 70
     0
  0
APPID
  2
DCO15
 70
     0
  0
APPID
  2
ACAD_EXEMPT_FROM_CAD_STANDARDS
 70
     0
  0
APPID
  2
ACAD_PSEXT
 70
     0
  0
APPID
  2
CONTENTBLOCKDESCRIPTION
 70
     0
  0
APPID
  2
CONTENTBLOCKICON
 70
     0
  0
ENDTAB
  0
TABLE
  2
DIMSTYLE
 70
     5
  0
DIMSTYLE
  2
FULL_SCALE
 70
     0
  3
"
  4

  5
ARCHTICK
  6

  7

 40
1.0
 41
0.046875
 42
0.09375
 43
0.125
 44
0.0625
 45
0.0
 46
0.0
 47
0.0
 48
0.0
140
0.125
141
0.125
142
0.0
143
25.399999999999999
144
1.0
145
0.0
146
1.0
147
0.0625
 71
     0
 72
     0
 73
     0
 74
     0
 75
     0
 76
     0
 77
     1
 78
     0
170
     0
171
     2
172
     0
173
     0
174
     1
175
     0
176
     0
177
     0
178
     0
  0
DIMSTYLE
  2
HALF_SCALE
 70
     0
  3
"
  4

  5
ARCHTICK
  6

  7

 40
1.0
 41
0.09375
 42
0.1875
 43
0.25
 44
0.125
 45
0.0
 46
0.0
 47
0.0
 48
0.0
140
0.25
141
0.25
142
0.0
143
25.399999999999999
144
1.0
145
0.0
146
1.0
147
0.125
 71
     0
 72
     0
 73
     0
 74
     0
 75
     0
 76
     0
 77
     1
 78
     0
170
     0
171
     2
172
     0
173
     0
174
     1
175
     0
176
     0
177
     0
178
     0
  0
DIMSTYLE
  2
INCH_SCALE
 70
     0
  3
"
  4

  5
ARCHTICK
  6

  7

 40
1.0
 41
0.5625
 42
1.125
 43
1.5
 44
0.75
 45
0.0
 46
0.0
 47
0.0
 48
0.0
140
1.125
141
1.5
142
0.0
143
25.399999999999999
144
1.0
145
0.0
146
1.0
147
0.75
 71
     0
 72
     0
 73
     0
 74
     0
 75
     0
 76
     0
 77
     1
 78
     0
170
     0
171
     2
172
     0
173
     0
174
     1
175
     0
176
     0
177
     0
178
     0
  0
DIMSTYLE
  2
THREE_QUARTER_INCH_SCALE
 70
     0
  3
"
  4

  5
ARCHTICK
  6

  7

 40
1.0
 41
0.75
 42
1.5
 43
2.0
 44
1.0
 45
0.0
 46
0.0
 47
0.0
 48
0.0
140
1.5
141
2.0
142
0.0
143
25.399999999999999
144
1.0
145
0.0
146
1.0
147
1.0
 71
     0
 72
     0
 73
     0
 74
     0
 75
     0
 76
     0
 77
     1
 78
     0
170
     0
171
     2
172
     0
173
     0
174
     1
175
     0
176
     0
177
     0
178
     0
  0
DIMSTYLE
  2
ZHALF_INCH_SCALE
 70
     0
  3
"
  4

  5
ARCHTICK
  6

  7

 40
1.0
 41
1.125
 42
2.25
 43
3.0
 44
1.5
 45
0.0
 46
0.0
 47
0.0
 48
0.0
140
2.25
141
3.0
142
0.0
143
25.399999999999999
144
1.0
145
0.0
146
1.0
147
1.5
 71
     0
 72
     0
 73
     0
 74
     0
 75
     0
 76
     0
 77
     1
 78
     0
170
     0
171
     2
172
     0
173
     0
174
     1
175
     0
176
     0
177
     0
178
     0
  0
ENDTAB
  0
ENDSEC
  0
SECTION
  2
BLOCKS
  0
BLOCK
  8
0
  2
$MODEL_SPACE
 70
     0
 10
0.0
 20
0.0
 30
0.0
  3
$MODEL_SPACE
  1

  0
ENDBLK
  5
21
  8
0
  0
BLOCK
 67
     1
  8
0
  2
$PAPER_SPACE
 70
     0
 10
0.0
 20
0.0
 30
0.0
  3
$PAPER_SPACE
  1

  0
ENDBLK
  5
BAD5
 67
     1
  8
0
  0
BLOCK
  8
0
  2
_ARCHTICK
 70
     0
 10
0.0
 20
0.0
 30
0.0
  3
_ARCHTICK
  1

  0
POLYLINE
  5
158
  8
0
  6
BYBLOCK
 62
     0
 66
     1
 10
0.0
 20
0.0
 30
0.0
 40
0.15
 41
0.15
  0
VERTEX
  5
260AF
  8
0
  6
BYBLOCK
 62
     0
 10
-0.5
 20
-0.5
 30
0.0
  0
VERTEX
  5
260B0
  8
0
  6
BYBLOCK
 62
     0
 10
0.5
 20
0.5
 30
0.0
  0
SEQEND
  5
260B1
  8
0
  6
BYBLOCK
 62
     0
  0
ENDBLK
  5
15A
  8
0
  0
BLOCK
  8
0
  2
_OPEN30
 70
     0
 10
0.0
 20
0.0
 30
0.0
  3
_OPEN30
  1

  0
LINE
  5
15C
  8
0
  6
BYBLOCK
 62
     0
 10
-1.0
 20
0.26794919
 30
0.0
 11
0.0
 21
0.0
 31
0.0
  0
LINE
  5
15D
  8
0
  6
BYBLOCK
 62
     0
 10
0.0
 20
0.0
 30
0.0
 11
-1.0
 21
-0.26794919
 31
0.0
  0
LINE
  5
15E
  8
0
  6
BYBLOCK
 62
     0
 10
0.0
 20
0.0
 30
0.0
 11
-1.0
 21
0.0
 31
0.0
  0
ENDBLK
  5
160
  8
0
  0
BLOCK
  8
0
  2
ISO_A2_TITLE_BLOCK
 70
     2
 10
0.0
 20
0.0
 30
0.0
  3
ISO_A2_TITLE_BLOCK
  1

  0
LINE
  5
BDD
  8
FRAME_050
 10
299.5
 20
12.5
 30
0.0
 11
297.0
 21
7.5
 31
0.0
  0
LINE
  5
BDE
  8
FRAME_050
 10
294.5
 20
12.5
 30
0.0
 11
299.5
 21
12.5
 31
0.0
  0
LINE
  5
BDF
  8
FRAME_050
 10
247.0
 20
5.0
 30
0.0
 11
347.0
 21
5.0
 31
0.0
  0
LINE
  5
BE0
  8
FRAME_070
 10
584.0
 20
410.0
 30
0.0
 11
10.0
 21
410.0
 31
0.0
  0
LINE
  5
BE1
  8
FRAME_070
 10
10.0
 20
10.0
 30
0.0
 11
584.0
 21
10.0
 31
0.0
  0
LINE
  5
BE2
  8
FRAME_050
 10
12.5
 20
207.5
 30
0.0
 11
7.5
 21
210.0
 31
0.0
  0
LINE
  5
BE3
  8
FRAME_050
 10
12.5
 20
212.5
 30
0.0
 11
12.5
 21
207.5
 31
0.0
  0
LINE
  5
BE4
  8
FRAME_070
 10
10.0
 20
410.0
 30
0.0
 11
10.0
 21
10.0
 31
0.0
  0
LINE
  5
BE5
  8
FRAME_200
 10
0.0
 20
0.0
 30
0.0
 11
0.0
 21
10.0
 31
0.0
  0
LINE
  5
BE6
  8
FRAME_200
 10
0.0
 20
0.0
 30
0.0
 11
10.0
 21
0.0
 31
0.0
  0
TEXT
  5
BE7
  8
FRAME_050
 10
5.9000000000000004
 20
35.0
 30
0.0
 40
4.0
  1
H
  7
ISO_PROPORTIONAL
 72
     4
 11
7.5
 21
37.0
 31
0.0
  0
LINE
  5
BE8
  8
FRAME_050
 10
10.0
 20
60.0
 30
0.0
 11
5.0
 21
60.0
 31
0.0
  0
LINE
  5
BE9
  8
FRAME_050
 10
81.75
 20
5.0
 30
0.0
 11
81.75
 21
10.0
 31
0.0
  0
TEXT
  5
BEA
  8
FRAME_050
 10
44.874999999999993
 20
5.5
 30
0.0
 40
4.0
  1
1
  7
ISO_PROPORTIONAL
 72
     4
 11
45.875
 21
7.5
 31
0.0
  0
TEXT
  5
BEB
  8
FRAME_050
 10
6.0035533905932743
 20
85.0
 30
0.0
 40
4.0
  1
G
  7
ISO_PROPORTIONAL
 72
     4
 11
7.5
 21
87.0
 31
0.0
  0
LINE
  5
BEC
  8
FRAME_050
 10
10.0
 20
110.0
 30
0.0
 11
5.0
 21
110.0
 31
0.0
  0
TEXT
  5
BED
  8
FRAME_050
 10
6.0999999999999988
 20
135.0
 30
0.0
 40
4.0
  1
F
  7
ISO_PROPORTIONAL
 72
     4
 11
7.5
 21
137.0
 31
0.0
  0
LINE
  5
BEE
  8
FRAME_050
 10
10.0
 20
160.0
 30
0.0
 11
5.0
 21
160.0
 31
0.0
  0
TEXT
  5
BEF
  8
FRAME_050
 10
6.0999999999999988
 20
185.0
 30
0.0
 40
4.0
  1
E
  7
ISO_PROPORTIONAL
 72
     4
 11
7.5
 21
187.0
 31
0.0
  0
LINE
  5
BF0
  8
FRAME_050
 10
153.5
 20
5.0
 30
0.0
 11
153.5
 21
10.0
 31
0.0
  0
TEXT
  5
BF1
  8
FRAME_050
 10
116.1556692913386
 20
5.3996062992125982
 30
0.0
 40
4.0
  1
2
  7
ISO_PROPORTIONAL
 72
     4
 11
117.625
 21
7.5
 31
0.0
  0
TEXT
  5
BF2
  8
FRAME_050
 10
187.89215728752529
 20
5.5828427124746138
 30
0.0
 40
4.0
  1
3
  7
ISO_PROPORTIONAL
 72
     4
 11
189.375
 21
7.5
 31
0.0
  0
LINE
  5
BF3
  8
FRAME_050
 10
225.25
 20
5.0
 30
0.0
 11
225.25
 21
10.0
 31
0.0
  0
LINE
  5
BF4
  8
FRAME_050
 10
297.0
 20
7.5
 30
0.0
 11
294.5
 21
12.5
 31
0.0
  0
LINE
  5
BF5
  8
FRAME_050
 10
287.0
 20
5.0
 30
0.0
 11
287.0
 21
10.0
 31
0.0
  0
LINE
  5
BF6
  8
FRAME_050
 10
277.0
 20
5.0
 30
0.0
 11
277.0
 21
10.0
 31
0.0
  0
LINE
  5
BF7
  8
FRAME_050
 10
267.0
 20
5.0
 30
0.0
 11
267.0
 21
10.0
 31
0.0
  0
LINE
  5
BF8
  8
FRAME_050
 10
257.0
 20
5.0
 30
0.0
 11
257.0
 21
10.0
 31
0.0
  0
LINE
  5
BF9
  8
FRAME_050
 10
247.0
 20
5.0
 30
0.0
 11
247.0
 21
10.0
 31
0.0
  0
LINE
  5
BFA
  8
FRAME_050
 10
297.0
 20
10.0
 30
0.0
 11
297.0
 21
5.0
 31
0.0
  0
LINE
  5
BFB
  8
FRAME_050
 10
297.0
 20
10.0
 30
0.0
 11
297.0
 21
15.0
 31
0.0
  0
LINE
  5
BFC
  8
FRAME_050
 10
5.0
 20
210.0
 30
0.0
 11
15.0
 21
210.0
 31
0.0
  0
LINE
  5
BFD
  8
FRAME_050
 10
7.5
 20
210.0
 30
0.0
 11
12.5
 21
212.5
 31
0.0
  0
TEXT
  5
BFE
  8
FRAME_050
 10
5.7860912703473977
 20
235.0
 30
0.0
 40
4.0
  1
D
  7
ISO_PROPORTIONAL
 72
     4
 11
7.5
 21
237.0
 31
0.0
  0
LINE
  5
BFF
  8
FRAME_050
 10
10.0
 20
260.0
 30
0.0
 11
5.0
 21
260.0
 31
0.0
  0
TEXT
  5
C00
  8
FRAME_050
 10
6.1931980515339466
 20
285.0
 30
0.0
 40
4.0
  1
C
  7
ISO_PROPORTIONAL
 72
     4
 11
7.5
 21
287.0
 31
0.0
  0
LINE
  5
C01
  8
FRAME_050
 10
10.0
 20
310.0
 30
0.0
 11
5.0
 21
310.0
 31
0.0
  0
TEXT
  5
C02
  8
FRAME_050
 10
5.8999999999999959
 20
335.0
 30
0.0
 40
4.0
  1
B
  7
ISO_PROPORTIONAL
 72
     4
 11
7.5
 21
337.0
 31
0.0
  0
LINE
  5
C03
  8
FRAME_050
 10
10.0
 20
360.0
 30
0.0
 11
5.0
 21
360.0
 31
0.0
  0
TEXT
  5
C04
  8
FRAME_050
 10
5.6999999999999993
 20
385.0
 30
0.0
 40
4.0
  1
A
  7
ISO_PROPORTIONAL
 72
     4
 11
7.5
 21
387.0
 31
0.0
  0
LINE
  5
C05
  8
FRAME_200
 10
10.0
 20
420.0
 30
0.0
 11
0.0
 21
420.0
 31
0.0
  0
LINE
  5
C06
  8
FRAME_200
 10
0.0
 20
420.0
 30
0.0
 11
0.0
 21
410.0
 31
0.0
  0
TEXT
  5
C07
  8
FRAME_050
 10
44.874999999999993
 20
410.5
 30
0.0
 40
4.0
  1
1
  7
ISO_PROPORTIONAL
 72
     4
 11
45.875
 21
412.5
 31
0.0
  0
LINE
  5
C08
  8
FRAME_050
 10
81.75
 20
410.0
 30
0.0
 11
81.75
 21
415.0
 31
0.0
  0
TEXT
  5
C09
  8
FRAME_050
 10
116.1556692913386
 20
410.39960629921262
 30
0.0
 40
4.0
  1
2
  7
ISO_PROPORTIONAL
 72
     4
 11
117.625
 21
412.5
 31
0.0
  0
LINE
  5
C0A
  8
FRAME_050
 10
153.5
 20
410.0
 30
0.0
 11
153.5
 21
415.0
 31
0.0
  0
TEXT
  5
C0B
  8
FRAME_050
 10
187.89215728752529
 20
410.58284271247459
 30
0.0
 40
4.0
  1
3
  7
ISO_PROPORTIONAL
 72
     4
 11
189.375
 21
412.5
 31
0.0
  0
LINE
  5
C0C
  8
FRAME_050
 10
297.0
 20
405.0
 30
0.0
 11
297.0
 21
415.0
 31
0.0
  0
LINE
  5
C0D
  8
FRAME_050
 10
225.25
 20
410.0
 30
0.0
 11
225.25
 21
415.0
 31
0.0
  0
TEXT
  5
C0E
  8
FRAME_050
 10
259.52499999999998
 20
410.5
 30
0.0
 40
4.0
  1
4
  7
ISO_PROPORTIONAL
 72
     4
 11
261.125
 21
412.5
 31
0.0
  0
LINE
  5
C0F
  8
FRAME_070
 10
584.0
 20
10.0
 30
0.0
 11
584.0
 21
410.0
 31
0.0
  0
ATTDEF
  5
C10
  8
FRAME_025
 10
473.0
 20
31.75
 30
0.0
 40
2.5
  1
XXX - 00/00/00
  7
ISO_PROPORTIONAL
 11
473.0
 21
33.0
 31
0.0
  3
Approved by - Date
  2
APPROVED_BY_DATE
 70
     8
 74
     2
  0
TEXT
  5
C11
  8
FRAME_025
 10
448.0
 20
41.749999999999993
 30
0.0
 40
2.5
  1
Title/Name, designation, material, dimension etc
  7
ISO_PROPORTIONAL
 11
448.0
 21
43.0
 31
0.0
 73
     2
  0
TEXT
  5
C12
  8
FRAME_025
 10
473.0
 20
35.75
 30
0.0
 40
2.5
  1
Approved by - date
  7
ISO_PROPORTIONAL
 11
473.0
 21
37.0
 31
0.0
 73
     2
  0
LINE
  5
C13
  8
FRAME_070
 10
414.0
 20
46.0
 30
0.0
 11
584.0
 21
46.0
 31
0.0
  0
LINE
  5
C14
  8
FRAME_070
 10
414.0
 20
40.0
 30
0.0
 11
584.0
 21
40.0
 31
0.0
  0
LINE
  5
C15
  8
FRAME_070
 10
414.0
 20
30.0
 30
0.0
 11
584.0
 21
30.0
 31
0.0
  0
LINE
  5
C16
  8
FRAME_050
 10
368.75
 20
5.0
 30
0.0
 11
368.75
 21
10.0
 31
0.0
  0
LINE
  5
C17
  8
FRAME_050
 10
337.0
 20
5.0
 30
0.0
 11
337.0
 21
10.0
 31
0.0
  0
LINE
  5
C18
  8
FRAME_050
 10
327.0
 20
5.0
 30
0.0
 11
327.0
 21
10.0
 31
0.0
  0
LINE
  5
C19
  8
FRAME_050
 10
317.0
 20
5.0
 30
0.0
 11
317.0
 21
10.0
 31
0.0
  0
LINE
  5
C1A
  8
FRAME_050
 10
307.0
 20
5.0
 30
0.0
 11
307.0
 21
10.0
 31
0.0
  0
LINE
  5
C1B
  8
FRAME_050
 10
347.0
 20
5.0
 30
0.0
 11
347.0
 21
10.0
 31
0.0
  0
LINE
  5
C1C
  8
FRAME_050
 10
440.5
 20
5.0
 30
0.0
 11
440.5
 21
10.0
 31
0.0
  0
TEXT
  5
C1D
  8
FRAME_050
 10
403.24547244094481
 20
5.4102362204724406
 30
0.0
 40
4.0
  1
6
  7
ISO_PROPORTIONAL
 72
     4
 11
404.62499999999989
 21
7.5
 31
0.0
  0
TEXT
  5
C1E
  8
FRAME_050
 10
474.97500000000002
 20
5.5
 30
0.0
 40
4.0
  1
7
  7
ISO_PROPORTIONAL
 72
     4
 11
476.37499999999989
 21
7.5
 31
0.0
  0
TEXT
  5
C1F
  8
FRAME_025
 10
431.0
 20
41.749999999999993
 30
0.0
 40
2.5
  1
Quantity
  7
ISO_PROPORTIONAL
 11
431.0
 21
43.0
 31
0.0
 73
     2
  0
TEXT
  5
C20
  8
FRAME_025
 10
416.0
 20
41.749999999999993
 30
0.0
 40
2.5
  1
Itemref
  7
ISO_PROPORTIONAL
 11
416.0
 21
43.0
 31
0.0
 73
     2
  0
LINE
  5
C21
  8
FRAME_070
 10
414.0
 20
40.0
 30
0.0
 11
414.0
 21
46.0
 31
0.0
  0
LINE
  5
C22
  8
FRAME_070
 10
429.0
 20
40.0
 30
0.0
 11
429.0
 21
46.0
 31
0.0
  0
LINE
  5
C23
  8
FRAME_070
 10
414.0
 20
10.0
 30
0.0
 11
414.0
 21
40.0
 31
0.0
  0
ATTDEF
  5
C24
  8
FRAME_025
 10
416.0
 20
31.75
 30
0.0
 40
2.5
  1
XXX
  7
ISO_PROPORTIONAL
 11
416.0
 21
33.0
 31
0.0
  3
Designed by
  2
DESIGNED_BY
 70
     8
 74
     2
  0
TEXT
  5
C25
  8
FRAME_025
 10
416.0
 20
35.75
 30
0.0
 40
2.5
  1
Designed by
  7
ISO_PROPORTIONAL
 11
416.0
 21
37.0
 31
0.0
 73
     2
  0
LINE
  5
C26
  8
FRAME_070
 10
446.0
 20
40.0
 30
0.0
 11
446.0
 21
46.0
 31
0.0
  0
ATTDEF
  5
C27
  8
FRAME_025
 10
448.0
 20
31.75
 30
0.0
 40
2.5
  1
XXX
  7
ISO_PROPORTIONAL
 11
448.0
 21
33.0
 31
0.0
  3
Checked by
  2
CHECKED_BY
 70
     8
 74
     2
  0
TEXT
  5
C28
  8
FRAME_025
 10
448.0
 20
35.75
 30
0.0
 40
2.5
  1
Checked by
  7
ISO_PROPORTIONAL
 11
448.0
 21
37.0
 31
0.0
 73
     2
  0
ATTDEF
  5
C29
  8
FRAME_050
 10
444.74999999999989
 20
17.5
 30
0.0
 40
5.0
  1
XXX
  7
ISO_PROPORTIONAL
 72
     4
 11
451.49999999999989
 21
20.0
 31
0.0
  3
Owner
  2
OWNER
 70
     8
  0
LINE
  5
C2A
  8
FRAME_070
 10
446.0
 20
30.0
 30
0.0
 11
446.0
 21
40.0
 31
0.0
  0
LINE
  5
C2B
  8
FRAME_070
 10
471.0
 20
30.0
 30
0.0
 11
471.0
 21
40.0
 31
0.0
  0
LINE
  5
C2C
  8
FRAME_070
 10
489.0
 20
20.0
 30
0.0
 11
584.0
 21
20.0
 31
0.0
  0
LINE
  5
C2D
  8
FRAME_050
 10
512.25
 20
5.0
 30
0.0
 11
512.25
 21
10.0
 31
0.0
  0
TEXT
  5
C2E
  8
FRAME_050
 10
546.72499999999991
 20
5.5
 30
0.0
 40
4.0
  1
8
  7
ISO_PROPORTIONAL
 72
     4
 11
548.125
 21
7.5
 31
0.0
  0
ATTDEF
  5
C2F
  8
FRAME_050
 10
517.64999999999986
 20
13.5
 30
0.0
 40
3.0
  1
X
  7
ISO_PROPORTIONAL
 72
     4
 11
519.0
 21
15.0
 31
0.0
  3
Drawing number
  2
DRAWING_NUMBER
 70
     8
  0
ATTDEF
  5
C30
  8
FRAME_050
 10
529.75
 20
22.5
 30
0.0
 40
5.0
  1
XXX
  7
ISO_PROPORTIONAL
 72
     4
 11
536.5
 21
25.0
 31
0.0
  3
Title / Name
  2
TITLE
 70
     8
  0
LINE
  5
C31
  8
FRAME_070
 10
489.0
 20
10.0
 30
0.0
 11
489.0
 21
30.0
 31
0.0
  0
ATTDEF
  5
C32
  8
FRAME_025
 10
511.0
 20
31.75
 30
0.0
 40
2.5
  1
XXX
  7
ISO_PROPORTIONAL
 11
511.0
 21
33.0
 31
0.0
  3
Filename
  2
FILENAME
 70
     8
 74
     2
  0
TEXT
  5
C33
  8
FRAME_025
 10
511.0
 20
35.75
 30
0.0
 40
2.5
  1
Filename
  7
ISO_PROPORTIONAL
 11
511.0
 21
37.0
 31
0.0
 73
     2
  0
LINE
  5
C34
  8
FRAME_070
 10
509.0
 20
30.0
 30
0.0
 11
509.0
 21
40.0
 31
0.0
  0
TEXT
  5
C35
  8
FRAME_025
 10
536.0
 20
41.749999999999993
 30
0.0
 40
2.5
  1
Article No./Reference
  7
ISO_PROPORTIONAL
 11
536.0
 21
43.0
 31
0.0
 73
     2
  0
LINE
  5
C36
  8
FRAME_070
 10
534.0
 20
40.0
 30
0.0
 11
534.0
 21
46.0
 31
0.0
  0
ATTDEF
  5
C37
  8
FRAME_025
 10
551.0
 20
11.75
 30
0.0
 40
2.5
  1
0
  7
ISO_PROPORTIONAL
 11
551.0
 21
13.0
 31
0.0
  3
Edition
  2
EDITION
 70
     8
 74
     2
  0
TEXT
  5
C38
  8
FRAME_025
 10
551.0
 20
15.75
 30
0.0
 40
2.5
  1
Edition
  7
ISO_PROPORTIONAL
 11
551.0
 21
17.0
 31
0.0
 73
     2
  0
LINE
  5
C39
  8
FRAME_070
 10
549.0
 20
10.0
 30
0.0
 11
549.0
 21
20.0
 31
0.0
  0
ATTDEF
  5
C3A
  8
FRAME_025
 10
536.0
 20
31.75
 30
0.0
 40
2.5
  1
00/00/00
  7
ISO_PROPORTIONAL
 11
536.0
 21
33.0
 31
0.0
  3
Date
  2
DATE
 70
     8
 74
     2
  0
TEXT
  5
C3B
  8
FRAME_025
 10
536.0
 20
35.75
 30
0.0
 40
2.5
  1
Date
  7
ISO_PROPORTIONAL
 11
536.0
 21
37.0
 31
0.0
 73
     2
  0
LINE
  5
C3C
  8
FRAME_070
 10
534.0
 20
30.0
 30
0.0
 11
534.0
 21
40.0
 31
0.0
  0
ATTDEF
  5
C3D
  8
FRAME_025
 10
566.0
 20
11.75
 30
0.0
 40
2.5
  1
1/1
  7
ISO_PROPORTIONAL
 11
566.0
 21
13.0
 31
0.0
  3
Sheet
  2
SHEET
 70
     8
 74
     2
  0
TEXT
  5
C3E
  8
FRAME_025
 10
566.0
 20
15.75
 30
0.0
 40
2.5
  1
Sheet
  7
ISO_PROPORTIONAL
 11
566.0
 21
17.0
 31
0.0
 73
     2
  0
LINE
  5
C3F
  8
FRAME_070
 10
564.0
 20
10.0
 30
0.0
 11
564.0
 21
20.0
 31
0.0
  0
ATTDEF
  5
C40
  8
FRAME_025
 10
566.0
 20
31.75
 30
0.0
 40
2.5
  1
1:1
  7
ISO_PROPORTIONAL
 11
566.0
 21
33.0
 31
0.0
  3
Scale
  2
SCALE
 70
     8
 74
     2
  0
TEXT
  5
C41
  8
FRAME_025
 10
566.0
 20
35.75
 30
0.0
 40
2.5
  1
Scale
  7
ISO_PROPORTIONAL
 11
566.0
 21
37.0
 31
0.0
 73
     2
  0
LINE
  5
C42
  8
FRAME_070
 10
564.0
 20
30.0
 30
0.0
 11
564.0
 21
40.0
 31
0.0
  0
LINE
  5
C43
  8
FRAME_200
 10
594.0
 20
0.0
 30
0.0
 11
594.0
 21
10.0
 31
0.0
  0
LINE
  5
C44
  8
FRAME_200
 10
594.0
 20
0.0
 30
0.0
 11
584.0
 21
0.0
 31
0.0
  0
TEXT
  5
C45
  8
FRAME_050
 10
584.89999999999998
 20
35.0
 30
0.0
 40
4.0
  1
H
  7
ISO_PROPORTIONAL
 72
     4
 11
586.5
 21
37.0
 31
0.0
  0
LINE
  5
C46
  8
FRAME_050
 10
589.0
 20
60.0
 30
0.0
 11
584.0
 21
60.0
 31
0.0
  0
TEXT
  5
C47
  8
FRAME_050
 10
585.0035533905932
 20
85.0
 30
0.0
 40
4.0
  1
G
  7
ISO_PROPORTIONAL
 72
     4
 11
586.5
 21
87.0
 31
0.0
  0
LINE
  5
C48
  8
FRAME_050
 10
589.0
 20
110.0
 30
0.0
 11
584.0
 21
110.0
 31
0.0
  0
TEXT
  5
C49
  8
FRAME_050
 10
585.09999999999991
 20
135.0
 30
0.0
 40
4.0
  1
F
  7
ISO_PROPORTIONAL
 72
     4
 11
586.5
 21
137.0
 31
0.0
  0
LINE
  5
C4A
  8
FRAME_050
 10
589.0
 20
160.0
 30
0.0
 11
584.0
 21
160.0
 31
0.0
  0
TEXT
  5
C4B
  8
FRAME_050
 10
585.09999999999991
 20
185.0
 30
0.0
 40
4.0
  1
E
  7
ISO_PROPORTIONAL
 72
     4
 11
586.5
 21
187.0
 31
0.0
  0
LINE
  5
C4C
  8
FRAME_070
 10
414.0
 20
404.0
 30
0.0
 11
584.0
 21
404.0
 31
0.0
  0
TEXT
  5
C4D
  8
FRAME_050
 10
331.39215728752538
 20
410.58284271247459
 30
0.0
 40
4.0
  1
5
  7
ISO_PROPORTIONAL
 72
     4
 11
332.875
 21
412.5
 31
0.0
  0
LINE
  5
C4E
  8
FRAME_050
 10
368.75
 20
410.0
 30
0.0
 11
368.75
 21
415.0
 31
0.0
  0
TEXT
  5
C4F
  8
FRAME_025
 10
428.0
 20
405.75
 30
0.0
 40
2.5
  1
Revision note
  7
ISO_PROPORTIONAL
 11
428.0
 21
407.0
 31
0.0
 73
     2
  0
TEXT
  5
C50
  8
FRAME_025
 10
416.0
 20
405.75
 30
0.0
 40
2.5
  1
RevNo
  7
ISO_PROPORTIONAL
 11
416.0
 21
407.0
 31
0.0
 73
     2
  0
LINE
  5
C51
  8
FRAME_070
 10
426.0
 20
404.0
 30
0.0
 11
426.0
 21
410.0
 31
0.0
  0
LINE
  5
C52
  8
FRAME_070
 10
414.0
 20
404.0
 30
0.0
 11
414.0
 21
410.0
 31
0.0
  0
TEXT
  5
C53
  8
FRAME_050
 10
403.24547244094481
 20
410.41023622047243
 30
0.0
 40
4.0
  1
6
  7
ISO_PROPORTIONAL
 72
     4
 11
404.62499999999989
 21
412.5
 31
0.0
  0
LINE
  5
C54
  8
FRAME_050
 10
440.5
 20
410.0
 30
0.0
 11
440.5
 21
415.0
 31
0.0
  0
TEXT
  5
C55
  8
FRAME_050
 10
474.97500000000002
 20
410.5
 30
0.0
 40
4.0
  1
7
  7
ISO_PROPORTIONAL
 72
     4
 11
476.37499999999989
 21
412.5
 31
0.0
  0
LINE
  5
C56
  8
FRAME_050
 10
579.0
 20
210.0
 30
0.0
 11
589.0
 21
210.0
 31
0.0
  0
TEXT
  5
C57
  8
FRAME_050
 10
584.78609127034736
 20
235.0
 30
0.0
 40
4.0
  1
D
  7
ISO_PROPORTIONAL
 72
     4
 11
586.5
 21
237.0
 31
0.0
  0
LINE
  5
C58
  8
FRAME_050
 10
589.0
 20
260.0
 30
0.0
 11
584.0
 21
260.0
 31
0.0
  0
TEXT
  5
C59
  8
FRAME_050
 10
585.19319805153395
 20
285.0
 30
0.0
 40
4.0
  1
C
  7
ISO_PROPORTIONAL
 72
     4
 11
586.5
 21
287.0
 31
0.0
  0
LINE
  5
C5A
  8
FRAME_050
 10
589.0
 20
310.0
 30
0.0
 11
584.0
 21
310.0
 31
0.0
  0
TEXT
  5
C5B
  8
FRAME_050
 10
584.89999999999998
 20
335.0
 30
0.0
 40
4.0
  1
B
  7
ISO_PROPORTIONAL
 72
     4
 11
586.5
 21
337.0
 31
0.0
  0
TEXT
  5
C5C
  8
FRAME_025
 10
571.08299391850551
 20
405.75
 30
0.0
 40
2.5
  1
Checked
  7
ISO_PROPORTIONAL
 11
571.08299391850551
 21
407.0
 31
0.0
 73
     2
  0
TEXT
  5
C5D
  8
FRAME_025
 10
555.36099797283532
 20
405.75
 30
0.0
 40
2.5
  1
Signature
  7
ISO_PROPORTIONAL
 11
555.36099797283532
 21
407.0
 31
0.0
 73
     2
  0
TEXT
  5
C5E
  8
FRAME_025
 10
537.0
 20
405.75
 30
0.0
 40
2.5
  1
Date
  7
ISO_PROPORTIONAL
 11
537.0
 21
407.0
 31
0.0
 73
     2
  0
LINE
  5
C5F
  8
FRAME_070
 10
570.0
 20
404.0
 30
0.0
 11
570.0
 21
410.0
 31
0.0
  0
LINE
  5
C60
  8
FRAME_070
 10
555.0
 20
404.0
 30
0.0
 11
555.0
 21
410.0
 31
0.0
  0
LINE
  5
C61
  8
FRAME_070
 10
535.0
 20
404.0
 30
0.0
 11
535.0
 21
410.0
 31
0.0
  0
LINE
  5
C62
  8
FRAME_050
 10
512.25
 20
410.0
 30
0.0
 11
512.25
 21
415.0
 31
0.0
  0
TEXT
  5
C63
  8
FRAME_050
 10
546.72499999999991
 20
410.5
 30
0.0
 40
4.0
  1
8
  7
ISO_PROPORTIONAL
 72
     4
 11
548.125
 21
412.5
 31
0.0
  0
LINE
  5
C64
  8
FRAME_050
 10
589.0
 20
360.0
 30
0.0
 11
584.0
 21
360.0
 31
0.0
  0
TEXT
  5
C65
  8
FRAME_050
 10
584.70000000000005
 20
385.0
 30
0.0
 40
4.0
  1
A
  7
ISO_PROPORTIONAL
 72
     4
 11
586.5
 21
387.0
 31
0.0
  0
LINE
  5
C66
  8
FRAME_200
 10
594.0
 20
420.0
 30
0.0
 11
584.0
 21
420.0
 31
0.0
  0
LINE
  5
C67
  8
FRAME_200
 10
594.0
 20
410.0
 30
0.0
 11
594.0
 21
420.0
 31
0.0
  0
ENDBLK
  5
C69
  8
0
  0
BLOCK
  8
0
  2
WOBB001END
 70
     0
 10
0.0
 20
0.0
 30
0.0
  3
WOBB001END
  1

  0
LINE
  5
4D66
  8
0
  6
CONTINUOUS
 10
0.0
 20
0.0
 30
0.0
 11
0.8749999999999998
 21
0.0
 31
0.0
  0
ARC
  5
4D67
  8
0
  6
CONTINUOUS
 10
0.0331648379439287
 20
-0.5087238935900232
 30
0.0
 40
0.8790130605592325
 50
284.06490243660443
 51
312.19222981924361
  0
ARC
  5
4D68
  8
0
  6
CONTINUOUS
 10
0.2841534338796767
 20
-1.510548310625538
 30
0.0
 40
0.1537731892806598
 50
104.0649024366044
 51
179.4721730735024
  0
LINE
  5
4D69
  8
0
  6
CONTINUOUS
 10
0.0
 20
0.0
 30
0.0
 11
-0.0000000000000003
 21
-1.7501564476661919
 31
0.0
  0
ARC
  5
4D6A
  8
0
  6
CONTINUOUS
 10
0.1404622019506122
 20
-1.6303137183546199
 30
0.0
 40
0.1198427293115722
 50
275.0
 51
85.000000000000057
  0
LINE
  5
4D6B
  8
0
  6
CONTINUOUS
 10
-0.0000000000000003
 20
-1.7501564476661919
 30
0.0
 11
0.1456946485130855
 21
-1.7501564476661919
 31
0.0
  0
LINE
  5
4D6C
  8
0
  6
CONTINUOUS
 10
0.1377603739254348
 20
-1.7508506067459131
 30
0.0
 11
0.150907184036669
 21
-1.749700409899652
 31
0.0
  0
LINE
  5
4D6D
  8
0
  6
CONTINUOUS
 10
0.1303867696719884
 20
-1.5091317231818231
 30
0.0
 11
0.1509071840366689
 21
-1.5109270268095869
 31
0.0
  0
LINE
  5
4D6E
  8
0
  6
CONTINUOUS
 10
0.8749999999999998
 20
0.0
 30
0.0
 11
0.8749999999999996
 21
-0.8649327026588228
 31
0.0
  0
LINE
  5
4D6F
  8
0
  6
CONTINUOUS
 10
0.727014513830997
 20
-0.8726882933550612
 30
0.0
 11
0.727014513830997
 21
-0.9264923397184784
 31
0.0
  0
ARC
  5
4D70
  8
0
  6
CONTINUOUS
 10
0.41187090827646
 20
-0.9264923397184784
 30
0.0
 40
0.315143605554537
 50
312.19222981924361
 51
0.0
  0
LINE
  5
4D71
  8
0
  6
CONTINUOUS
 10
0.727014513830997
 20
-0.8726882933550612
 30
0.0
 11
0.8749999999999996
 21
-0.8649327026588228
 31
0.0
  0
ENDBLK
  5
4D72
  8
0
  0
BLOCK
  8
0
  2
A$C0A61123B
 70
     0
 10
0.0
 20
0.0
 30
0.0
  3
A$C0A61123B
  1

  0
LINE
  5
C0AD
  8
PROF
  6
CONTINUOUS
 10
4.9012016798694162
 20
13.325025853350891
 30
0.0000000000000002
 11
4.9012016798694162
 21
12.88585218805485
 31
0.0000000000000003
  0
INSERT
  5
C0AE
  8
0
  2
*U140
 10
0.0
 20
0.0
 30
0.0
  0
LINE
  5
C0AF
  8
PROF
 10
4.5198575031869259
 20
12.72227734589444
 30
0.0000000000000001
 11
4.5198575031869259
 21
12.88585218805485
 31
0.0000000000000001
  0
LINE
  5
C0B0
  8
PROF
  6
CONTINUOUS
 10
3.6306271195888371
 20
13.325025853350891
 30
0.0000000000000002
 11
4.9012016798694162
 21
13.325025853350891
 31
0.0000000000000002
  0
LINE
  5
C0B1
  8
PROF
 10
1.9750295148747341
 20
10.37671325491794
 30
0.0000000000000002
 11
1.9750295148747341
 21
10.11391186758919
 31
0.0000000000000002
  0
LINE
  5
C0B2
  8
PROF
 10
1.607967335755631
 20
10.11391186758919
 30
0.0000000000000001
 11
1.9750295148747341
 21
10.11391186758919
 31
0.0000000000000001
  0
LINE
  5
C0B3
  8
PROF
 10
1.9750295148747341
 20
10.11391186758919
 30
0.0000000000000001
 11
1.944958486898144
 21
10.11391186758919
 31
0.0000000000000001
  0
LINE
  5
C0B4
  8
PROF
 10
1.9750295148747341
 20
10.11391186758919
 30
0.0000000000000001
 11
1.944958486898144
 21
10.11391186758919
 31
0.0000000000000001
  0
LINE
  5
C0B5
  8
PROF
 10
0.3222605517169654
 20
7.5247473351056442
 30
-0.0000000000000002
 11
-0.0000008570117416
 21
7.5247473351056442
 31
0.0
  0
LINE
  5
C0B6
  8
PROF
 10
-0.0000008570117416
 20
7.5247473351056442
 30
0.0
 11
-0.0000008570117416
 21
9.1943336957369866
 31
0.0
  0
POLYLINE
  5
C0B7
  8
PROF
 66
     1
 10
0.0
 20
0.0
 30
0.0000000000000001
 70
     4
 75
     6
  0
VERTEX
  5
C0B8
  8
PROF
 10
1.607967335755631
 20
10.11391186758919
 30
0.0000000000000001
 70
    16
  0
VERTEX
  5
C0B9
  8
PROF
 10
1.607967335755631
 20
10.11391186758919
 30
0.0000000000000001
 70
     8
  0
VERTEX
  5
C0BA
  8
PROF
 10
1.646813232648582
 20
10.02198069336111
 30
0.0000000000000001
 70
     8
  0
VERTEX
  5
C0BB
  8
PROF
 10
1.67335966680929
 20
9.9344134163010267
 30
0.0000000000000001
 70
     8
  0
VERTEX
  5
C0BC
  8
PROF
 10
1.689008640046324
 20
9.8512576644480987
 30
0.0000000000000001
 70
     8
  0
VERTEX
  5
C0BD
  8
PROF
 10
1.695162154168258
 20
9.7725610658417281
 30
0.0000000000000001
 70
     8
  0
VERTEX
  5
C0BE
  8
PROF
 10
1.6932222109836059
 20
9.6983712485214255
 30
0.0000000000000001
 70
     8
  0
VERTEX
  5
C0BF
  8
PROF
 10
1.6845908123009961
 20
9.6287358405263603
 30
0.0000000000000001
 70
     8
  0
VERTEX
  5
C0C0
  8
PROF
 10
1.6706699599288859
 20
9.5637024698960431
 30
0.0000000000000001
 70
     8
  0
VERTEX
  5
C0C1
  8
PROF
 10
1.6528616556759621
 20
9.503318764669757
 30
0.0000000000000001
 70
     8
  0
VERTEX
  5
C0C2
  8
PROF
 10
1.6323562992730549
 20
9.4475843259650674
 30
0.0000000000000001
 70
     8
  0
VERTEX
  5
C0C3
  8
PROF
 10
1.609497882140658
 20
9.3963066472123273
 30
0.0000000000000001
 70
     8
  0
VERTEX
  5
C0C4
  8
PROF
 10
1.584418793621637
 20
9.3492451949202842
 30
0.0000000000000001
 70
     8
  0
VERTEX
  5
C0C5
  8
PROF
 10
1.557251423058744
 20
9.3061594355972375
 30
0.0000000000000001
 70
     8
  0
VERTEX
  5
C0C6
  8
PROF
 10
1.5281281597949601
 20
9.2668088357519292
 30
0.0000000000000001
 70
     8
  0
VERTEX
  5
C0C7
  8
PROF
 10
1.4971813931729789
 20
9.2309528618930017
 30
0.0000000000000001
 70
     8
  0
VERTEX
  5
C0C8
  8
PROF
 10
1.464543512535726
 20
9.1983509805288577
 30
0.0000000000000001
 70
     8
  0
VERTEX
  5
C0C9
  8
PROF
 10
1.4303469072260091
 20
9.1687626581682462
 30
0.0000000000000001
 70
     8
  0
VERTEX
  5
C0CA
  8
PROF
 10
1.3947360332574019
 20
9.1419547918675335
 30
0.0000000000000001
 70
     8
  0
VERTEX
  5
C0CB
  8
PROF
 10
1.3579036133264131
 20
9.1177240008747731
 30
0.0000000000000001
 70
     8
  0
VERTEX
  5
C0CC
  8
PROF
 10
1.3200544368004321
 20
9.0958743349860924
 30
0.0000000000000001
 70
     8
  0
VERTEX
  5
C0CD
  8
PROF
 10
1.281393293046676
 20
9.0762098439975034
 30
0.0000000000000001
 70
     8
  0
VERTEX
  5
C0CE
  8
PROF
 10
1.242124971432417
 20
9.0585345777049042
 30
0.0000000000000001
 70
     8
  0
VERTEX
  5
C0CF
  8
PROF
 10
1.2024542613249869
 20
9.0426525859044204
 30
0.0000000000000001
 70
     8
  0
VERTEX
  5
C0D0
  8
PROF
 10
1.1625859520916599
 20
9.0283679183919503
 30
0.0000000000000001
 70
     8
  0
VERTEX
  5
C0D1
  8
PROF
 10
1.1227248330997091
 20
9.0154846249635057
 30
0.0000000000000001
 70
     8
  0
VERTEX
  5
C0D2
  8
PROF
 10
1.0829726247361
 20
9.0034643862466055
 30
0.0000000000000001
 70
     8
  0
VERTEX
  5
C0D3
  8
PROF
 10
1.043018771466222
 20
8.9903994061946833
 30
0.0000000000000001
 70
     8
  0
VERTEX
  5
C0D4
  8
PROF
 10
1.002449648775211
 20
8.9740395195925657
 30
0.0000000000000001
 70
     8
  0
VERTEX
  5
C0D5
  8
PROF
 10
0.9608516321480919
 20
8.9521345612251935
 30
0.0000000000000001
 70
     8
  0
VERTEX
  5
C0D6
  8
PROF
 10
0.9178110970699435
 20
8.9224343658775052
 30
0.0000000000000001
 70
     8
  0
VERTEX
  5
C0D7
  8
PROF
 10
0.8729144190259034
 20
8.8826887683343312
 30
0.0000000000000001
 70
     8
  0
VERTEX
  5
C0D8
  8
PROF
 10
0.8257479735009951
 20
8.8306476033806121
 30
0.0000000000000001
 70
     8
  0
VERTEX
  5
C0D9
  8
PROF
 10
0.7758981359802988
 20
8.764060705801171
 30
0.0000000000000001
 70
     8
  0
VERTEX
  5
C0DA
  8
PROF
 10
1.729201901609656
 20
9.8629858761255491
 30
0.0000000000000001
 70
    16
  0
VERTEX
  5
C0DB
  8
PROF
 10
1.6793731231140889
 20
9.4532143012734196
 30
0.0000000000000001
 70
    16
  0
VERTEX
  5
C0DC
  8
PROF
 10
1.4455611507419801
 20
9.1391837193732481
 30
0.0000000000000001
 70
    16
  0
VERTEX
  5
C0DD
  8
PROF
 10
1.120463717273821
 20
9.0026267702428413
 30
0.0000000000000001
 70
    16
  0
VERTEX
  5
C0DE
  8
PROF
 10
0.9127765582653638
 20
8.9630202230383702
 30
0.0000000000000001
 70
    16
  0
VERTEX
  5
C0DF
  8
PROF
 10
0.7758981359802988
 20
8.764060705801171
 30
0.0000000000000001
 70
    16
  0
SEQEND
  5
C0E0
  8
PROF
  0
ARC
  5
C0E1
  8
PROF
 10
0.733429816733235
 20
8.4849506952165257
 30
0.0000000000000001
 40
0.2823224329524727
 50
269.73652020831901
 51
81.348449993176914
  0
LINE
  5
C0E2
  8
PROF
  6
CONTINUOUS
 10
-0.0000008570117416
 20
9.1943336957369866
 30
-0.0000000000000001
 11
3.6306271195888371
 21
13.325025853350891
 31
0.0000000000000002
  0
POLYLINE
  5
C0E3
  8
PROF
 66
     1
 10
0.0
 20
0.0
 30
0.0000000000000001
 70
     4
 75
     6
  0
VERTEX
  5
C0E4
  8
PROF
 10
4.5198575031869259
 20
12.72227734589444
 30
0.0000000000000001
 70
    16
  0
VERTEX
  5
C0E5
  8
PROF
 10
4.5198575031869259
 20
12.72227734589444
 30
0.0000000000000001
 70
     8
  0
VERTEX
  5
C0E6
  8
PROF
 10
4.4467035366886298
 20
12.741128108778071
 30
0.0000000000000001
 70
     8
  0
VERTEX
  5
C0E7
  8
PROF
 10
4.3786645761268801
 20
12.754675269913941
 30
0.0000000000000001
 70
     8
  0
VERTEX
  5
C0E8
  8
PROF
 10
4.3154364111440477
 20
12.76334314092332
 30
0.0000000000000001
 70
     8
  0
VERTEX
  5
C0E9
  8
PROF
 10
4.256714831382566
 20
12.76755603342724
 30
0.0000000000000001
 70
     8
  0
VERTEX
  5
C0EA
  8
PROF
 10
4.2021956264849791
 20
12.76773825904672
 30
0.0000000000000001
 70
     8
  0
VERTEX
  5
C0EB
  8
PROF
 10
4.1515745860935453
 20
12.764314129403139
 30
0.0000000000000001
 70
     8
  0
VERTEX
  5
C0EC
  8
PROF
 10
4.1045474998508658
 20
12.75770795611743
 30
0.0000000000000001
 70
     8
  0
VERTEX
  5
C0ED
  8
PROF
 10
4.0608101573993158
 20
12.748344050810831
 30
0.0000000000000001
 70
     8
  0
VERTEX
  5
C0EE
  8
PROF
 10
4.0200583483813261
 20
12.736646725104491
 30
0.0000000000000001
 70
     8
  0
VERTEX
  5
C0EF
  8
PROF
 10
3.9819878624393819
 20
12.72304029061945
 30
0.0000000000000001
 70
     8
  0
VERTEX
  5
C0F0
  8
PROF
 10
3.946294489215858
 20
12.707949058976959
 30
0.0000000000000001
 70
     8
  0
VERTEX
  5
C0F1
  8
PROF
 10
3.9126740183532429
 20
12.691797341798059
 30
0.0000000000000001
 70
     8
  0
VERTEX
  5
C0F2
  8
PROF
 10
3.8808638350742508
 20
12.67494295718654
 30
0.0000000000000001
 70
     8
  0
VERTEX
  5
C0F3
  8
PROF
 10
3.850767706922738
 20
12.65747774917668
 30
0.0000000000000001
 70
     8
  0
VERTEX
  5
C0F4
  8
PROF
 10
3.8223309970228452
 20
12.639427068285499
 30
0.0000000000000001
 70
     8
  0
VERTEX
  5
C0F5
  8
PROF
 10
3.7954990684987129
 20
12.62081626503004
 30
0.0000000000000001
 70
     8
  0
VERTEX
  5
C0F6
  8
PROF
 10
3.7702172844744828
 20
12.601670689926999
 30
0.0000000000000001
 70
     8
  0
VERTEX
  5
C0F7
  8
PROF
 10
3.746431008074353
 20
12.58201569349364
 30
0.0000000000000001
 70
     8
  0
VERTEX
  5
C0F8
  8
PROF
 10
3.7240856024224618
 20
12.56187662624666
 30
0.0000000000000001
 70
     8
  0
VERTEX
  5
C0F9
  8
PROF
 10
3.7031264306428961
 20
12.541278838703191
 30
0.0000000000000001
 70
     8
  0
VERTEX
  5
C0FA
  8
PROF
 10
3.6834988558599089
 20
12.520247681380051
 30
0.0000000000000001
 70
     8
  0
VERTEX
  5
C0FB
  8
PROF
 10
3.665148241197528
 20
12.49880850479428
 30
0.0000000000000001
 70
     8
  0
VERTEX
  5
C0FC
  8
PROF
 10
3.6480199497799499
 20
12.47698665946279
 30
0.0000000000000001
 70
     8
  0
VERTEX
  5
C0FD
  8
PROF
 10
3.6320593447313172
 20
12.45480749590263
 30
0.0000000000000001
 70
     8
  0
VERTEX
  5
C0FE
  8
PROF
 10
3.6171895848866589
 20
12.43223790353807
 30
0.0000000000000001
 70
     8
  0
VERTEX
  5
C0FF
  8
PROF
 10
3.6032450119242858
 20
12.40901092742285
 30
0.0000000000000001
 70
     8
  0
VERTEX
  5
C100
  8
PROF
 10
3.590037763233453
 20
12.38480115151844
 30
0.0000000000000001
 70
     8
  0
VERTEX
  5
C101
  8
PROF
 10
3.5773799762033032
 20
12.35928315978594
 30
0.0000000000000001
 70
     8
  0
VERTEX
  5
C102
  8
PROF
 10
3.5650837882230908
 20
12.33213153618658
 30
0.0000000000000001
 70
     8
  0
VERTEX
  5
C103
  8
PROF
 10
3.5529613366819599
 20
12.303020864681571
 30
0.0000000000000001
 70
     8
  0
VERTEX
  5
C104
  8
PROF
 10
3.540824758969165
 20
12.271625729232371
 30
0.0000000000000001
 70
     8
  0
VERTEX
  5
C105
  8
PROF
 10
3.5284861924738489
 20
12.23762071379997
 30
0.0000000000000001
 70
     8
  0
VERTEX
  5
C106
  8
PROF
 10
3.5157577745852668
 20
12.200680402345711
 30
0.0000000000000001
 70
     8
  0
VERTEX
  5
C107
  8
PROF
 10
3.5024516426926189
 20
12.16047937883093
 30
0.0000000000000001
 70
     8
  0
VERTEX
  5
C108
  8
PROF
 10
3.4883799341851041
 20
12.116692227216619
 30
0.0000000000000001
 70
     8
  0
VERTEX
  5
C109
  8
PROF
 10
3.4733547864519201
 20
12.06899353146423
 30
0.0000000000000001
 70
     8
  0
VERTEX
  5
C10A
  8
PROF
 10
3.45723654619428
 20
12.0172095445447
 30
0.0000000000000001
 70
     8
  0
VERTEX
  5
C10B
  8
PROF
 10
3.4400783973613889
 20
11.961773195467799
 30
0.0000000000000001
 70
     8
  0
VERTEX
  5
C10C
  8
PROF
 10
3.421981733214579
 20
11.90326908225302
 30
0.0000000000000001
 70
     8
  0
VERTEX
  5
C10D
  8
PROF
 10
3.4030479470150108
 20
11.842281802919951
 30
0.0000000000000001
 70
     8
  0
VERTEX
  5
C10E
  8
PROF
 10
3.383378432024017
 20
11.779395955487979
 30
0.0000000000000001
 70
     8
  0
VERTEX
  5
C10F
  8
PROF
 10
3.3630745815028709
 20
11.715196137976809
 30
0.0000000000000001
 70
     8
  0
VERTEX
  5
C110
  8
PROF
 10
3.3422377887127359
 20
11.650266948405831
 30
0.0000000000000001
 70
     8
  0
VERTEX
  5
C111
  8
PROF
 10
3.320969446915
 20
11.58519298479461
 30
0.0000000000000001
 70
     8
  0
VERTEX
  5
C112
  8
PROF
 10
3.2993709493707679
 20
11.520558845162549
 30
0.0000000000000001
 70
     8
  0
VERTEX
  5
C113
  8
PROF
 10
3.277543689341428
 20
11.456949127529469
 30
0.0000000000000001
 70
     8
  0
VERTEX
  5
C114
  8
PROF
 10
3.2555890600881412
 20
11.3949484299145
 30
0.0000000000000001
 70
     8
  0
VERTEX
  5
C115
  8
PROF
 10
3.233608454872182
 20
11.335141350337491
 30
0.0000000000000001
 70
     8
  0
VERTEX
  5
C116
  8
PROF
 10
3.2116715641212181
 20
11.27799544797778
 30
0.0000000000000001
 70
     8
  0
VERTEX
  5
C117
  8
PROF
 10
3.189721266927847
 20
11.22351012665467
 30
0.0000000000000001
 70
     8
  0
VERTEX
  5
C118
  8
PROF
 10
3.1676687395512881
 20
11.17156775134765
 30
0.0000000000000001
 70
     8
  0
VERTEX
  5
C119
  8
PROF
 10
3.1454251582505321
 20
11.12205068703588
 30
0.0000000000000001
 70
     8
  0
VERTEX
  5
C11A
  8
PROF
 10
3.122901699284625
 20
11.07484129869874
 30
0.0000000000000001
 70
     8
  0
VERTEX
  5
C11B
  8
PROF
 10
3.1000095389127291
 20
11.02982195131551
 30
0.0000000000000001
 70
     8
  0
VERTEX
  5
C11C
  8
PROF
 10
3.0766598533938909
 20
10.986875009865679
 30
0.0000000000000001
 70
     8
  0
VERTEX
  5
C11D
  8
PROF
 10
3.0527638189871591
 20
10.9458828393283
 30
0.0000000000000001
 70
     8
  0
VERTEX
  5
C11E
  8
PROF
 10
3.0282326119516361
 20
10.90672780468298
 30
0.0000000000000001
 70
     8
  0
VERTEX
  5
C11F
  8
PROF
 10
3.002977408546371
 20
10.869292270908771
 30
0.0000000000000001
 70
     8
  0
VERTEX
  5
C120
  8
PROF
 10
2.9769093850304098
 20
10.833458602985161
 30
0.0000000000000001
 70
     8
  0
VERTEX
  5
C121
  8
PROF
 10
2.9499397176628568
 20
10.799109165891419
 30
0.0000000000000001
 70
     8
  0
VERTEX
  5
C122
  8
PROF
 10
2.9220006098404379
 20
10.76614363969508
 30
0.0000000000000001
 70
     8
  0
VERTEX
  5
C123
  8
PROF
 10
2.8931083735103011
 20
10.7345309648158
 30
0.0000000000000001
 70
     8
  0
VERTEX
  5
C124
  8
PROF
 10
2.8633003477572738
 20
10.70425739676193
 30
0.0000000000000001
 70
     8
  0
VERTEX
  5
C125
  8
PROF
 10
2.8326138716660689
 20
10.67530919104115
 30
0.0000000000000001
 70
     8
  0
VERTEX
  5
C126
  8
PROF
 10
2.8010862843216269
 20
10.647672603161711
 30
0.0000000000000001
 70
     8
  0
VERTEX
  5
C127
  8
PROF
 10
2.7687549248087171
 20
10.62133388863162
 30
0.0000000000000001
 70
     8
  0
VERTEX
  5
C128
  8
PROF
 10
2.735657132212054
 20
10.5962793029588
 30
0.0000000000000001
 70
     8
  0
VERTEX
  5
C129
  8
PROF
 10
2.7018302456165202
 20
10.572495101651381
 30
0.0000000000000001
 70
     8
  0
VERTEX
  5
C12A
  8
PROF
 10
2.6673116041068852
 20
10.54996754021726
 30
0.0000000000000001
 70
     8
  0
VERTEX
  5
C12B
  8
PROF
 10
2.6321385467680321
 20
10.528682874164581
 30
0.0000000000000001
 70
     8
  0
VERTEX
  5
C12C
  8
PROF
 10
2.5963484126846188
 20
10.508627359001251
 30
0.0000000000000001
 70
     8
  0
VERTEX
  5
C12D
  8
PROF
 10
2.5599785409415849
 20
10.489787250235279
 30
0.0000000000000001
 70
     8
  0
VERTEX
  5
C12E
  8
PROF
 10
2.522998630314361
 20
10.472162234281081
 30
0.0000000000000001
 70
     8
  0
VERTEX
  5
C12F
  8
PROF
 10
2.4851078183409072
 20
10.455805721177621
 30
0.0000000000000001
 70
     8
  0
VERTEX
  5
C130
  8
PROF
 10
2.4459376022498982
 20
10.44078455187036
 30
0.0000000000000001
 70
     8
  0
VERTEX
  5
C131
  8
PROF
 10
2.4051194792701258
 20
10.42716556730465
 30
0.0000000000000001
 70
     8
  0
VERTEX
  5
C132
  8
PROF
 10
2.3622849466301541
 20
10.415015608425851
 30
0.0000000000000001
 70
     8
  0
VERTEX
  5
C133
  8
PROF
 10
2.3170655015587149
 20
10.40440151617929
 30
0.0000000000000001
 70
     8
  0
VERTEX
  5
C134
  8
PROF
 10
2.2690926412844301
 20
10.395390131510339
 30
0.0000000000000001
 70
     8
  0
VERTEX
  5
C135
  8
PROF
 10
2.2179978630360888
 20
10.388048295364451
 30
0.0000000000000001
 70
     8
  0
VERTEX
  5
C136
  8
PROF
 10
2.1634126640422551
 20
10.38244284868688
 30
0.0000000000000001
 70
     8
  0
VERTEX
  5
C137
  8
PROF
 10
2.104968541531604
 20
10.37864063242295
 30
0.0000000000000001
 70
     8
  0
VERTEX
  5
C138
  8
PROF
 10
2.0422969927328718
 20
10.37670848751816
 30
0.0000000000000001
 70
     8
  0
VERTEX
  5
C139
  8
PROF
 10
1.9750295148747341
 20
10.37671325491794
 30
0.0000000000000001
 70
     8
  0
VERTEX
  5
C13A
  8
PROF
 10
4.2166060115107484
 20
12.80885334975255
 30
0.0000000000000001
 70
    16
  0
VERTEX
  5
C13B
  8
PROF
 10
3.8702254102732918
 20
12.707065515763929
 30
0.0000000000000001
 70
    16
  0
VERTEX
  5
C13C
  8
PROF
 10
3.605346156896871
 20
12.46277472098552
 30
0.0000000000000001
 70
    16
  0
VERTEX
  5
C13D
  8
PROF
 10
3.500746030527238
 20
12.170680575709749
 30
0.0000000000000001
 70
    16
  0
VERTEX
  5
C13E
  8
PROF
 10
3.231798439705698
 20
11.26846416496107
 30
0.0000000000000001
 70
    16
  0
VERTEX
  5
C13F
  8
PROF
 10
2.9737109398832891
 20
10.76631086647069
 30
0.0000000000000001
 70
    16
  0
VERTEX
  5
C140
  8
PROF
 10
2.5729961067384011
 20
10.460947364504699
 30
0.0000000000000001
 70
    16
  0
VERTEX
  5
C141
  8
PROF
 10
2.253782621454604
 20
10.372731239449759
 30
0.0000000000000001
 70
    16
  0
VERTEX
  5
C142
  8
PROF
 10
1.9750295148747341
 20
10.37671325491794
 30
0.0000000000000001
 70
    16
  0
SEQEND
  5
C143
  8
PROF
  0
LINE
  5
C144
  8
PROF
 10
4.9012016798694162
 20
12.88585218805485
 30
0.0000000000000003
 11
4.5198575031869259
 21
12.88585218805485
 31
0.0000000000000003
  0
LINE
  5
C145
  8
PROF
 10
0.7321315362267457
 20
8.2026312473991538
 30
0.0000000000000006
 11
0.7321315362267457
 21
8.0511853963434987
 31
0.0000000000000006
  0
ARC
  5
C146
  8
PROF
 10
0.7977322214551919
 20
7.5773339332026799
 30
0.0000000000000006
 40
0.4783708383912012
 50
97.882010168942529
 51
186.31119505698649
  0
LINE
  5
C147
  8
FRAME_050
 10
7.8016377197432121
 20
17.99371054969447
 30
0.0
 11
7.8016377197432121
 21
0.0000000000002274
 31
0.0
  0
ENDBLK
  5
C149
  8
0
  0
BLOCK
  8
0
  2
A$C3A7C6791
 70
     0
 10
0.0
 20
0.0
 30
0.0
  3
A$C3A7C6791
  1

  0
ARC
  5
1A561
  8
0
 10
1.0342682520551421
 20
11.169869575314801
 30
0.0
 40
0.3900479059662017
 50
183.5871702804647
 51
250.12003892297869
  0
ARC
  5
1A562
  8
0
 10
0.3331235273064408
 20
14.96835148878222
 30
0.0
 40
0.279776987736341
 50
290.26301102890392
 51
72.509116341854423
  0
ARC
  5
1A563
  8
0
 10
0.7948887850711232
 20
10.60700392177659
 30
0.0
 40
0.2232361910347119
 50
300.2914142988875
 51
61.434469032044603
  0
LINE
  5
1A564
  8
0
 10
-0.0000015027120526
 20
9.7351929270671462
 30
0.0
 11
1.0332573394856579
 21
9.7351929270671462
 31
0.0
  0
LINE
  5
1A565
  8
0
 10
1.0332573394856579
 20
10.377304601683591
 30
0.0
 11
0.9074887268004658
 21
10.377304601683591
 31
0.0
  0
LINE
  5
1A566
  8
0
 10
0.6449845421777241
 20
11.145465432783791
 30
0.0
 11
0.5554296092705046
 21
11.181249222917581
 31
0.0
  0
LINE
  5
1A567
  8
0
 10
0.5554296092705046
 20
14.67010534946894
 30
0.0
 11
0.430018718777319
 21
14.67010534946894
 31
0.0
  0
LINE
  5
1A568
  8
0
 10
0.4172116339615855
 20
15.235192927067139
 30
0.0
 11
-0.0000015027120526
 21
15.235192927067139
 31
0.0
  0
LINE
  5
1A569
  8
0
 10
-0.0000015027120526
 20
15.235192927067139
 30
0.0
 11
-0.0000015027120526
 21
9.7351929270671462
 31
0.0
  0
LINE
  5
1A56A
  8
0
 10
1.0332573394856579
 20
9.7351929270671462
 30
0.0
 11
1.0332573394856579
 21
10.377304601683591
 31
0.0
  0
LINE
  5
1A56B
  8
0
 10
0.9074887268004658
 20
10.377304601683591
 30
0.0
 11
0.9074887268003521
 21
10.414245912577821
 31
0.0
  0
LINE
  5
1A56C
  8
0
 10
0.5554296092705046
 20
11.181249222917581
 30
0.0
 11
0.5554296092705046
 21
14.67010534946894
 31
0.0
  0
LINE
  5
1A56D
  8
0
 10
0.430018718777319
 20
14.67010534946894
 30
0.0
 11
0.4300187187771485
 21
14.705889139602959
 31
0.0
  0
INSERT
  5
1A56E
  8
0
  2
*U265
 10
0.0
 20
0.0
 30
0.0
  0
LINE
  5
1A56F
  8
FRAME_050
 10
5.1382720395286006
 20
17.993710579095019
 30
0.0
 11
5.1382720395286006
 21
0.0000000294007805
 31
0.0
  0
ENDBLK
  5
1A571
  8
0
  0
BLOCK
  8
0
  2
*U140
 70
     1
 10
0.0
 20
0.0
 30
0.0
  3
*U140
  1

  0
TEXT
  5
260BD
  8
0
 10
3.5177832928899071
 20
10.38601584255777
 30
0.0
 40
0.125
  1
Crown Moulding
  0
TEXT
  5
260BE
  8
0
 10
3.5223876585106431
 20
10.17717091304435
 30
0.0
 40
0.125
  1
TL-AB509
  0
TEXT
  5
260BF
  8
0
 10
3.5074661032582561
 20
9.9667059289606801
 30
0.0
 40
0.125
  1
1-5/16" x 7-9/16"
  0
TEXT
  5
260C0
  8
0
 10
3.519403347460166
 20
9.7562409448770051
 30
0.0
 40
0.125
  1
800.66.TAGUE
  0
ENDBLK
  5
260C2
  8
0
  0
BLOCK
  8
0
  2
*U141
 70
     1
 10
0.0
 20
0.0
 30
0.0
  3
*U141
  1

  0
TEXT
  5
260C4
  8
0
 10
5.3066868277875692
 20
1.767659498411035
 30
0.0
 40
0.125
  1
Back Band
  0
TEXT
  5
260C5
  8
0
 10
5.3153839628489603
 20
1.55881456889762
 30
0.0
 40
0.125
  1
TL-1
  0
TEXT
  5
260C6
  8
0
 10
5.3004624075965721
 20
1.3483495848139451
 30
0.0
 40
0.125
  1
1-3/8" x 1-9/16"
  0
TEXT
  5
260C7
  8
0
 10
5.3123996517984819
 20
1.137884600730271
 30
0.0
 40
0.125
  1
800.66.TAGUE
  0
ENDBLK
  5
260C9
  8
0
  0
BLOCK
  8
0
  2
*U142
 70
     1
 10
0.0
 20
0.0
 30
0.0
  3
*U142
  1

  0
TEXT
  5
260CB
  8
0
 10
2.551252809835812
 20
0.9623111621543785
 30
0.0
 40
0.125
  1
Back Band
  0
TEXT
  5
260CC
  8
0
 10
2.5599499448972041
 20
0.7534662326409634
 30
0.0
 40
0.125
  1
TL-288
  0
TEXT
  5
260CD
  8
0
 10
2.5450283896448158
 20
0.5430012485572889
 30
0.0
 40
0.125
  1
1-11/16" x 1-13/16"
  0
TEXT
  5
260CE
  8
0
 10
2.5569656338467261
 20
0.3325362644736145
 30
0.0
 40
0.125
  1
800.66.TAGUE
  0
ENDBLK
  5
260D0
  8
0
  0
BLOCK
  8
0
  2
*U143
 70
     1
 10
0.0
 20
0.0
 30
0.0
  3
*U143
  1

  0
TEXT
  5
260D2
  8
0
 10
1.8364329238504911
 20
0.882982778245946
 30
0.0
 40
0.125
  1
Back Band
  0
TEXT
  5
260D3
  8
0
 10
1.845130058911882
 20
0.6741378487325309
 30
0.0
 40
0.125
  1
TL-289
  0
TEXT
  5
260D4
  8
0
 10
1.8302085036594951
 20
0.4636728646488565
 30
0.0
 40
0.125
  1
1-1/16" x 1-11/16"
  0
TEXT
  5
260D5
  8
0
 10
1.8421457478614049
 20
0.2532078805651821
 30
0.0
 40
0.125
  1
800.66.TAGUE
  0
ENDBLK
  5
260D7
  8
0
  0
BLOCK
  8
0
  2
*U144
 70
     1
 10
0.0
 20
0.0
 30
0.0
  3
*U144
  1

  0
TEXT
  5
260D9
  8
0
 10
1.929931786774016
 20
0.8512665098620573
 30
0.0
 40
0.125
  1
Back Band
  0
TEXT
  5
260DA
  8
0
 10
1.9386289218354069
 20
0.6424215803486422
 30
0.0
 40
0.125
  1
TL-601
  0
TEXT
  5
260DB
  8
0
 10
1.92370736658302
 20
0.4319565962649678
 30
0.0
 40
0.125
  1
1-5/16" x 1-3/8"
  0
TEXT
  5
260DC
  8
0
 10
1.9356446107849301
 20
0.2214916121812933
 30
0.0
 40
0.125
  1
800.66.TAGUE
  0
ENDBLK
  5
260DE
  8
0
  0
BLOCK
  8
0
  2
*U145
 70
     1
 10
0.0
 20
0.0
 30
0.0
  3
*U145
  1

  0
TEXT
  5
260E0
  8
0
 10
1.8237739904796331
 20
0.9081704084311468
 30
0.0
 40
0.125
  1
Back Band
  0
TEXT
  5
260E1
  8
0
 10
1.832471125541024
 20
0.6993254789177317
 30
0.0
 40
0.125
  1
TL-2075
  0
TEXT
  5
260E2
  8
0
 10
1.8175495702886371
 20
0.4888604948340573
 30
0.0
 40
0.125
  1
1-5/16" x 1-5/8"
  0
TEXT
  5
260E3
  8
0
 10
1.829486814490547
 20
0.2783955107503828
 30
0.0
 40
0.125
  1
800.66.TAGUE
  0
ENDBLK
  5
260E5
  8
0
  0
BLOCK
  8
0
  2
*U146
 70
     1
 10
0.0
 20
0.0
 30
0.0
  3
*U146
  1

  0
TEXT
  5
260E7
  8
0
 10
1.9545668919090351
 20
0.8644213446237927
 30
0.0
 40
0.125
  1
Back Band
  0
TEXT
  5
260E8
  8
0
 10
1.963264026970426
 20
0.6555764151103776
 30
0.0
 40
0.125
  1
TL-2208 
  0
TEXT
  5
260E9
  8
0
 10
1.9483424717180391
 20
0.4451114310267032
 30
0.0
 40
0.125
  1
1-3/8" x 1-5/8"
  0
TEXT
  5
260EA
  8
0
 10
1.960279715919949
 20
0.2346464469430287
 30
0.0
 40
0.125
  1
800.66.TAGUE
  0
ENDBLK
  5
260EC
  8
0
  0
BLOCK
  8
0
  2
*U147
 70
     1
 10
0.0
 20
0.0
 30
0.0
  3
*U147
  1

  0
TEXT
  5
260EE
  8
0
 10
2.7644474121262692
 20
0.8344220463493456
 30
0.0
 40
0.125
  1
Back Band
  0
TEXT
  5
260EF
  8
0
 10
2.7731445471876608
 20
0.6255771168359307
 30
0.0
 40
0.125
  1
TL-2221 
  0
TEXT
  5
260F0
  8
0
 10
2.7689665117169922
 20
0.4151121327522561
 30
0.0
 40
0.125
  1
7/8" x 1-3/4"
  0
TEXT
  5
260F1
  8
0
 10
2.7701602361371829
 20
0.2046471486685817
 30
0.0
 40
0.125
  1
800.66.TAGUE
  0
ENDBLK
  5
260F3
  8
0
  0
BLOCK
  8
0
  2
*U148
 70
     1
 10
0.0
 20
0.0
 30
0.0
  3
*U148
  1

  0
TEXT
  5
260F5
  8
0
 10
2.6915324485008609
 20
1.1836703361148011
 30
0.0
 40
0.125
  1
Back Band
  0
TEXT
  5
260F6
  8
0
 10
2.700229583562253
 20
0.974825406601386
 30
0.0
 40
0.125
  1
TL-2266
  0
TEXT
  5
260F7
  8
0
 10
2.685308028309866
 20
0.7643604225177115
 30
0.0
 40
0.125
  1
1-11/32" x 1-15/32"
  0
TEXT
  5
260F8
  8
0
 10
2.697245272511775
 20
0.5538954384340372
 30
0.0
 40
0.125
  1
800.66.TAGUE
  0
ENDBLK
  5
260FA
  8
0
  0
BLOCK
  8
0
  2
*U149
 70
     1
 10
0.0
 20
0.0
 30
0.0
  3
*U149
  1

  0
TEXT
  5
260FC
  8
0
 10
3.1852595440213172
 20
1.4826139655959869
 30
0.0
 40
0.125
  1
Back Band
  0
TEXT
  5
260FD
  8
0
 10
3.1939566790827079
 20
1.273769036082572
 30
0.0
 40
0.125
  1
TL-2293
  0
TEXT
  5
260FE
  8
0
 10
3.1790351238303209
 20
1.0147194680971241
 30
0.0
 40
0.125
  1
1-
  0
TEXT
  5
260FF
  8
0
 10
3.3285150010472382
 20
1.1040697409484199
 30
0.0
 40
0.0875
  1
7
  0
LINE
  5
26100
  8
0
 10
3.3553421833758441
 20
1.032393937073133
 30
0.0
 11
3.4557180597372761
 21
1.1757455448237071
 31
0.0
  0
TEXT
  5
26101
  8
0
 10
3.4151594985461009
 20
0.9855528014304578
 30
0.0
 40
0.0875
  1
8
  0
TEXT
  5
26102
  8
0
 10
3.483619594044054
 20
1.0147194680971241
 30
0.0
 40
0.125
  1
" x 2-
  0
TEXT
  5
26103
  8
0
 10
3.8794330319703851
 20
1.1040697409484199
 30
0.0
 40
0.0875
  1
7
  0
LINE
  5
26104
  8
0
 10
3.9062602142989902
 20
1.032393937073133
 30
0.0
 11
4.0066360906604244
 21
1.1757455448237071
 31
0.0
  0
TEXT
  5
26105
  8
0
 10
3.957721458527911
 20
0.9855528014304578
 30
0.0
 40
0.0875
  1
16
  0
TEXT
  5
26106
  8
0
 10
4.0939254148717028
 20
1.0147194680971241
 30
0.0
 40
0.125
  1
"
  0
TEXT
  5
26107
  8
0
 10
3.1909723680322308
 20
0.8459211506801169
 30
0.0
 40
0.125
  1
800.66.TAGUE
  0
ENDBLK
  5
26109
  8
0
  0
BLOCK
  8
0
  2
*U150
 70
     1
 10
0.0
 20
0.0
 30
0.0
  3
*U150
  1

  0
TEXT
  5
2610B
  8
0
 10
2.4900996379053408
 20
1.0092498715596481
 30
0.0
 40
0.125
  1
Baluster Stock
  0
TEXT
  5
2610C
  8
0
 10
2.4987967729667329
 20
0.800404942046233
 30
0.0
 40
0.125
  1
TL-236
  0
TEXT
  5
2610D
  8
0
 10
2.4838752177143451
 20
0.5899399579625585
 30
0.0
 40
0.125
  1
1-9/16" x 1-9/16"
  0
TEXT
  5
2610E
  8
0
 10
2.4958124619162549
 20
0.3794749738788841
 30
0.0
 40
0.125
  1
800.66.TAGUE
  0
ENDBLK
  5
26110
  8
0
  0
BLOCK
  8
0
  2
*U151
 70
     1
 10
0.0
 20
0.0
 30
0.0
  3
*U151
  1

  0
TEXT
  5
26112
  8
0
 10
2.3591545502839431
 20
0.9010435759007737
 30
0.0
 40
0.125
  1
Baluster Stock
  0
TEXT
  5
26113
  8
0
 10
2.3678516853453342
 20
0.6921986463873587
 30
0.0
 40
0.125
  1
TL-237
  0
TEXT
  5
26114
  8
0
 10
2.3529301300929468
 20
0.4817336623036842
 30
0.0
 40
0.125
  1
1-5/16" x 1-5/16"
  0
TEXT
  5
26115
  8
0
 10
2.3648673742948572
 20
0.2712686782200098
 30
0.0
 40
0.125
  1
800.66.TAGUE
  0
ENDBLK
  5
26117
  8
0
  0
BLOCK
  8
0
  2
*U152
 70
     1
 10
0.0
 20
0.0
 30
0.0
  3
*U152
  1

  0
TEXT
  5
26119
  8
0
 10
2.098510450655322
 20
0.7826568183311498
 30
0.0
 40
0.125
  1
Baluster Stock
  0
TEXT
  5
2611A
  8
0
 10
2.1072075857167132
 20
0.5738118888177346
 30
0.0
 40
0.125
  1
TL-238
  0
TEXT
  5
2611B
  8
0
 10
2.0922860304643258
 20
0.3633469047340601
 30
0.0
 40
0.125
  1
1-1/16" x 1-1/16"
  0
TEXT
  5
2611C
  8
0
 10
2.1042232746662362
 20
0.1528819206503857
 30
0.0
 40
0.125
  1
800.66.TAGUE
  0
ENDBLK
  5
2611E
  8
0
  0
BLOCK
  8
0
  2
*U153
 70
     1
 10
0.0
 20
0.0
 30
0.0
  3
*U153
  1

  0
TEXT
  5
26120
  8
0
 10
1.7835912292499461
 20
0.6784890753194919
 30
0.0
 40
0.125
  1
Baluster Stock
  0
TEXT
  5
26121
  8
0
 10
1.792288364311337
 20
0.4696441458060768
 30
0.0
 40
0.125
  1
TL-239
  0
TEXT
  5
26122
  8
0
 10
1.7890482551708189
 20
0.2591791617224023
 30
0.0
 40
0.125
  1
3/4" x 3/4"
  0
TEXT
  5
26123
  8
0
 10
1.78930405326086
 20
0.0487141776387279
 30
0.0
 40
0.125
  1
800.66.TAGUE
  0
ENDBLK
  5
26125
  8
0
  0
BLOCK
  8
0
  2
*U154
 70
     1
 10
0.0
 20
0.0
 30
0.0
  3
*U154
  1

  0
TEXT
  5
26127
  8
0
 10
2.750346038648086
 20
1.209669783574115
 30
0.0
 40
0.125
  1
Baluster Stock
  0
TEXT
  5
26128
  8
0
 10
2.7590431737094772
 20
1.0008248540607001
 30
0.0
 40
0.125
  1
TL-526
  0
TEXT
  5
26129
  8
0
 10
2.7441216184570898
 20
0.7903598699770261
 30
0.0
 40
0.125
  1
1-3/4" x 1-3/4"
  0
TEXT
  5
2612A
  8
0
 10
2.7560588626590001
 20
0.5798948858933518
 30
0.0
 40
0.125
  1
800.66.TAGUE
  0
ENDBLK
  5
2612C
  8
0
  0
BLOCK
  8
0
  2
*U155
 70
     1
 10
0.0
 20
0.0
 30
0.0
  3
*U155
  1

  0
TEXT
  5
2612E
  8
0
 10
4.1934393821158942
 20
3.6154353709422362
 30
0.0
 40
0.125
  1
Bar Rail
  0
TEXT
  5
2612F
  8
0
 10
4.2021365171772853
 20
3.4065904414288211
 30
0.0
 40
0.125
  1
TL-13
  0
TEXT
  5
26130
  8
0
 10
4.19898167406678
 20
3.1961254573451461
 30
0.0
 40
0.125
  1
5-1/2" x 1-5/8"
  0
TEXT
  5
26131
  8
0
 10
4.199152206126807
 20
2.985660473261472
 30
0.0
 40
0.125
  1
800.66.TAGUE
  0
ENDBLK
  5
26133
  8
0
  0
BLOCK
  8
0
  2
*U156
 70
     1
 10
0.0
 20
0.0
 30
0.0
  3
*U156
  1

  0
TEXT
  5
26135
  8
0
 10
2.7915496004018041
 20
1.6928133759646471
 30
0.0
 40
0.125
  1
Bar Rail
  0
TEXT
  5
26136
  8
0
 10
2.8002467354631961
 20
1.483968446451231
 30
0.0
 40
0.125
  1
TL-130
  0
TEXT
  5
26137
  8
0
 10
2.7853251802108079
 20
1.273503462367557
 30
0.0
 40
0.125
  1
1-11/16" x 2-1/4"
  0
TEXT
  5
26138
  8
0
 10
2.7972624244127182
 20
1.0630384782838831
 30
0.0
 40
0.125
  1
800.66.TAGUE
  0
ENDBLK
  5
2613A
  8
0
  0
BLOCK
  8
0
  2
*U157
 70
     1
 10
0.0
 20
0.0
 30
0.0
  3
*U157
  1

  0
TEXT
  5
2613C
  8
0
 10
0.7422973615718824
 20
1.83447380854534
 30
0.0
 40
0.125
  1
Bar Rail
  0
TEXT
  5
2613D
  8
0
 10
0.750994496633274
 20
1.625628879031924
 30
0.0
 40
0.125
  1
TL-537
  0
TEXT
  5
2613E
  8
0
 10
0.7360729413808864
 20
1.4151638949482499
 30
0.0
 40
0.125
  1
1-5/16" x 5-3/16" / 7/8" x 3-1/16"
  0
TEXT
  5
2613F
  8
0
 10
0.7480101855827965
 20
1.204698910864576
 30
0.0
 40
0.125
  1
800.66.TAGUE
  0
ENDBLK
  5
26141
  8
0
  0
BLOCK
  8
0
  2
*U158
 70
     1
 10
0.0
 20
0.0
 30
0.0
  3
*U158
  1

  0
TEXT
  5
26143
  8
0
 10
1.8164004611375999
 20
3.819697741885534
 30
0.0
 40
0.125
  1
Base Board Assembly
  0
TEXT
  5
26144
  8
0
 10
1.8250975961989919
 20
3.610852812372118
 30
0.0
 40
0.125
  1
TL-680
  0
TEXT
  5
26145
  8
0
 10
1.8101760409466039
 20
3.4003878282884439
 30
0.0
 40
0.125
  1
1-1/16" x 6-3/4"
  0
TEXT
  5
26146
  8
0
 10
1.822113285148514
 20
3.1899228442047698
 30
0.0
 40
0.125
  1
800.66.TAGUE
  0
ENDBLK
  5
26148
  8
0
  0
BLOCK
  8
0
  2
*U159
 70
     1
 10
0.0
 20
0.0
 30
0.0
  3
*U159
  1

  0
TEXT
  5
2614A
  8
0
 10
1.880121442934813
 20
2.5708737061797931
 30
0.0
 40
0.125
  1
TL-541
  0
ENDBLK
  5
2614C
  8
0
  0
BLOCK
  8
0
  2
*U160
 70
     1
 10
0.0
 20
0.0
 30
0.0
  3
*U160
  1

  0
INSERT
  5
2614E
  8
0
  2
_OPEN30
 10
0.9370004965966245
 20
1.998969839043752
 30
0.0
 41
0.046875
 42
0.046875
 43
0.046875
 50
220.2352165150823
  0
POLYLINE
  5
2614F
  8
0
 66
     1
 10
0.0
 20
0.0
 30
0.0
  0
VERTEX
  5
26150
  8
0
 10
0.9727848321090522
 20
2.0292476685058189
 30
0.0
  0
VERTEX
  5
26151
  8
0
 10
1.687083141229663
 20
2.633629504269833
 30
0.0
  0
VERTEX
  5
26152
  8
0
 10
1.8217142123754679
 20
2.633629504269833
 30
0.0
  0
SEQEND
  5
26153
  8
0
  0
ENDBLK
  5
26155
  8
0
  0
BLOCK
  8
0
  2
*U161
 70
     1
 10
0.0
 20
0.0
 30
0.0
  3
*U161
  1

  0
TEXT
  5
26157
  8
0
 10
1.8608875418177091
 20
6.6078272811635204
 30
0.0
 40
0.125
  1
TL-540
  0
TEXT
  5
26158
  8
0
 10
1.8649803112583641
 20
6.399238149740146
 30
0.0
 40
0.125
  1
 
  0
ENDBLK
  5
2615A
  8
0
  0
BLOCK
  8
0
  2
*U162
 70
     1
 10
0.0
 20
0.0
 30
0.0
  3
*U162
  1

  0
INSERT
  5
2615C
  8
0
  2
_OPEN30
 10
0.8157519259211198
 20
5.9858143171212532
 30
0.0
 41
0.046875
 42
0.046875
 43
0.046875
 50
218.1633806826421
  0
POLYLINE
  5
2615D
  8
0
 66
     1
 10
0.0
 20
0.0
 30
0.0
  0
VERTEX
  5
2615E
  8
0
 10
0.8526074872282775
 20
6.0147786611624072
 30
0.0
  0
VERTEX
  5
2615F
  8
0
 10
1.687083141229663
 20
6.6705830792535599
 30
0.0
  0
VERTEX
  5
26160
  8
0
 10
1.8024803112583641
 20
6.6705830792535599
 30
0.0
  0
SEQEND
  5
26161
  8
0
  0
ENDBLK
  5
26163
  8
0
  0
BLOCK
  8
0
  2
*U163
 70
     1
 10
0.0
 20
0.0
 30
0.0
  3
*U163
  1

  0
TEXT
  5
26165
  8
0
 10
1.200091944455248
 20
3.6095250915403758
 30
0.0
 40
0.125
  1
Base Board Assembly
  0
TEXT
  5
26166
  8
0
 10
1.2087890795166401
 20
3.4006801620269611
 30
0.0
 40
0.125
  1
TL-681
  0
TEXT
  5
26167
  8
0
 10
1.193867524264252
 20
3.190215177943287
 30
0.0
 40
0.125
  1
1" x 9-1/4"
  0
TEXT
  5
26168
  8
0
 10
1.2058047684661619
 20
2.979750193859612
 30
0.0
 40
0.125
  1
800.66.TAGUE
  0
ENDBLK
  5
2616A
  8
0
  0
BLOCK
  8
0
  2
*U164
 70
     1
 10
0.0
 20
0.0
 30
0.0
  3
*U164
  1

  0
INSERT
  5
2616C
  8
0
  6
CONTINUOUS
  2
_OPEN30
 10
0.7500005591156196
 20
6.587852449929982
 30
0.0
 41
0.046875
 42
0.046875
 43
0.046875
 50
224.09146837719419
  0
POLYLINE
  5
2616D
  8
0
  6
CONTINUOUS
 66
     1
 10
0.0
 20
0.0
 30
0.0
  0
VERTEX
  5
2616E
  8
0
  6
CONTINUOUS
 10
0.7836675863640283
 20
6.6204683494462451
 30
0.0
  0
VERTEX
  5
2616F
  8
0
  6
CONTINUOUS
 10
1.7133956757769511
 20
7.5211691365396973
 30
0.0
  0
VERTEX
  5
26170
  8
0
  6
CONTINUOUS
 10
1.9000752793112949
 20
7.5211691365396973
 30
0.0
  0
SEQEND
  5
26171
  8
0
  6
CONTINUOUS
  0
ENDBLK
  5
26173
  8
0
  0
BLOCK
  8
0
  2
*U165
 70
     1
 10
0.0
 20
0.0
 30
0.0
  3
*U165
  1

  0
TEXT
  5
26175
  8
0
 10
1.95848250987064
 20
7.458413338449656
 30
0.0
 40
0.125
  1
TL-602
  0
ENDBLK
  5
26177
  8
0
  0
BLOCK
  8
0
  2
*U166
 70
     1
 10
0.0
 20
0.0
 30
0.0
  3
*U166
  1

  0
INSERT
  5
26179
  8
0
  6
CONTINUOUS
  2
_OPEN30
 10
1.0000005591156189
 20
0.8124995480944789
 30
0.0
 41
0.046875
 42
0.046875
 43
0.046875
 50
224.09146837719419
  0
POLYLINE
  5
2617A
  8
0
  6
CONTINUOUS
 66
     1
 10
0.0
 20
0.0
 30
0.0
  0
VERTEX
  5
2617B
  8
0
  6
CONTINUOUS
 10
1.0336675863640279
 20
0.8451154476107411
 30
0.0
  0
VERTEX
  5
2617C
  8
0
  6
CONTINUOUS
 10
1.9633956757769511
 20
1.745816234704193
 30
0.0
  0
VERTEX
  5
2617D
  8
0
  6
CONTINUOUS
 10
2.1500752793112952
 20
1.745816234704193
 30
0.0
  0
SEQEND
  5
2617E
  8
0
  6
CONTINUOUS
  0
ENDBLK
  5
26180
  8
0
  0
BLOCK
  8
0
  2
*U167
 70
     1
 10
0.0
 20
0.0
 30
0.0
  3
*U167
  1

  0
TEXT
  5
26182
  8
0
 10
2.20848250987064
 20
1.6828046385241111
 30
0.0
 40
0.125
  1
TL-266
  0
ENDBLK
  5
26184
  8
0
  0
BLOCK
  8
0
  2
*U168
 70
     1
 10
0.0
 20
0.0
 30
0.0
  3
*U168
  1

  0
INSERT
  5
26186
  8
0
  6
CONTINUOUS
  2
_OPEN30
 10
0.7500004105942253
 20
6.3960963538685291
 30
0.0
 41
0.046875
 42
0.046875
 43
0.046875
 50
219.47434747209351
  0
POLYLINE
  5
26187
  8
0
  6
CONTINUOUS
 66
     1
 10
0.0
 20
0.0
 30
0.0
  0
VERTEX
  5
26188
  8
0
  6
CONTINUOUS
 10
0.7861836586409798
 20
6.4258963234286979
 30
0.0
  0
VERTEX
  5
26189
  8
0
  6
CONTINUOUS
 10
1.374056000801033
 20
6.9100589911637371
 30
0.0
  0
VERTEX
  5
2618A
  8
0
  6
CONTINUOUS
 10
1.5384924777565061
 20
6.9100589911637371
 30
0.0
  0
SEQEND
  5
2618B
  8
0
  6
CONTINUOUS
  0
ENDBLK
  5
2618D
  8
0
  0
BLOCK
  8
0
  2
*U169
 70
     1
 10
0.0
 20
0.0
 30
0.0
  3
*U169
  1

  0
TEXT
  5
2618F
  8
0
 10
1.5968997083158509
 20
6.8473031930736958
 30
0.0
 40
0.125
  1
TL-550
  0
ENDBLK
  5
26191
  8
0
  0
BLOCK
  8
0
  2
*U170
 70
     1
 10
0.0
 20
0.0
 30
0.0
  3
*U170
  1

  0
INSERT
  5
26193
  8
0
  6
CONTINUOUS
  2
_OPEN30
 10
0.7500004105942253
 20
2.53267018701797
 30
0.0
 41
0.046875
 42
0.046875
 43
0.046875
 50
222.22478218143399
  0
POLYLINE
  5
26194
  8
0
  6
CONTINUOUS
 66
     1
 10
0.0
 20
0.0
 30
0.0
  0
VERTEX
  5
26195
  8
0
  6
CONTINUOUS
 10
0.7847120037465148
 20
2.5641721064171099
 30
0.0
  0
VERTEX
  5
26196
  8
0
  6
CONTINUOUS
 10
1.5311175519539111
 20
3.2415598401215671
 30
0.0
  0
VERTEX
  5
26197
  8
0
  6
CONTINUOUS
 10
1.6247289838881891
 20
3.2416177465441929
 30
0.0
  0
SEQEND
  5
26198
  8
0
  6
CONTINUOUS
  0
ENDBLK
  5
2619A
  8
0
  0
BLOCK
  8
0
  2
*U171
 70
     1
 10
0.0
 20
0.0
 30
0.0
  3
*U171
  1

  0
TEXT
  5
2619C
  8
0
 10
1.6831362144475339
 20
3.178861948454152
 30
0.0
 40
0.125
  1
TL-551
  0
ENDBLK
  5
2619E
  8
0
  0
BLOCK
  8
0
  2
*U172
 70
     1
 10
0.0
 20
0.0
 30
0.0
  3
*U172
  1

  0
INSERT
  5
261A0
  8
0
  6
CONTINUOUS
  2
_OPEN30
 10
1.04738175721161
 20
0.4967917735383481
 30
0.0
 41
0.046875
 42
0.046875
 43
0.046875
 50
212.67418530855349
  0
POLYLINE
  5
261A1
  8
0
  6
CONTINUOUS
 66
     1
 10
0.0
 20
0.0
 30
0.0
  0
VERTEX
  5
261A2
  8
0
  6
CONTINUOUS
 10
1.0868389807680281
 20
0.5220977636240739
 30
0.0
  0
VERTEX
  5
261A3
  8
0
  6
CONTINUOUS
 10
1.4785839895729389
 20
0.7733444154513336
 30
0.0
  0
VERTEX
  5
261A4
  8
0
  6
CONTINUOUS
 10
1.535363721355395
 20
0.7733444154513336
 30
0.0
  0
SEQEND
  5
261A5
  8
0
  6
CONTINUOUS
  0
ENDBLK
  5
261A7
  8
0
  0
BLOCK
  8
0
  2
*U173
 70
     1
 10
0.0
 20
0.0
 30
0.0
  3
*U173
  1

  0
TEXT
  5
261A9
  8
0
 10
1.5937709519147401
 20
0.7105886173612928
 30
0.0
 40
0.125
  1
TL-127
  0
ENDBLK
  5
261AB
  8
0
  0
BLOCK
  8
0
  2
*U174
 70
     1
 10
0.0
 20
0.0
 30
0.0
  3
*U174
  1

  0
TEXT
  5
261AD
  8
0
 10
2.1409458709672249
 20
2.6869009874993699
 30
0.0
 40
0.125
  1
Base Board Assembly
  0
TEXT
  5
261AE
  8
0
 10
2.1496430060286169
 20
2.4780560579859552
 30
0.0
 40
0.125
  1
TL-682
  0
TEXT
  5
261AF
  8
0
 10
2.1347214507762291
 20
2.2675910739022811
 30
0.0
 40
0.125
  1
1-1/16" x 7-3/8"
  0
TEXT
  5
261B0
  8
0
 10
2.146658694978139
 20
2.057126089818607
 30
0.0
 40
0.125
  1
800.66.TAGUE
  0
ENDBLK
  5
261B2
  8
0
  0
BLOCK
  8
0
  2
*U175
 70
     1
 10
0.0
 20
0.0
 30
0.0
  3
*U175
  1

  0
TEXT
  5
261B4
  8
0
 10
2.290801695922692
 20
2.6689022993974731
 30
0.0
 40
0.125
  1
Base Board Assembly
  0
TEXT
  5
261B5
  8
0
 10
2.2994988309840831
 20
2.4600573698840571
 30
0.0
 40
0.125
  1
TL-683
  0
TEXT
  5
261B6
  8
0
 10
2.2845772757316962
 20
2.249592385800383
 30
0.0
 40
0.125
  1
1-1/8" x 5-15/16"
  0
TEXT
  5
261B7
  8
0
 10
2.2965145199336061
 20
2.0391274017167089
 30
0.0
 40
0.125
  1
800.66.TAGUE
  0
ENDBLK
  5
261B9
  8
0
  0
BLOCK
  8
0
  2
*U176
 70
     1
 10
0.0
 20
0.0
 30
0.0
  3
*U176
  1

  0
INSERT
  5
261BB
  8
0
  6
CONTINUOUS
  2
_OPEN30
 10
1.12500054900903
 20
5.65624955358237
 30
0.0
 41
0.046875
 42
0.046875
 43
0.046875
 50
212.76268937863
  0
POLYLINE
  5
261BC
  8
0
  6
CONTINUOUS
 66
     1
 10
0.0
 20
0.0
 30
0.0
  0
VERTEX
  5
261BD
  8
0
  6
CONTINUOUS
 10
1.164418635662722
 20
5.6816164625300907
 30
0.0
  0
VERTEX
  5
261BE
  8
0
  6
CONTINUOUS
 10
1.5566905795914741
 20
5.9340570939541522
 30
0.0
  0
VERTEX
  5
261BF
  8
0
  6
CONTINUOUS
 10
1.625384535953855
 20
5.9340570939541522
 30
0.0
  0
SEQEND
  5
261C0
  8
0
  6
CONTINUOUS
  0
ENDBLK
  5
261C2
  8
0
  0
BLOCK
  8
0
  2
*U177
 70
     1
 10
0.0
 20
0.0
 30
0.0
  3
*U177
  1

  0
TEXT
  5
261C4
  8
0
 10
1.6837917665132001
 20
5.8710454977740696
 30
0.0
 40
0.125
  1
TL-522
  0
ENDBLK
  5
261C6
  8
0
  0
BLOCK
  8
0
  2
*U178
 70
     1
 10
0.0
 20
0.0
 30
0.0
  3
*U178
  1

  0
INSERT
  5
261C8
  8
0
  6
CONTINUOUS
  2
_OPEN30
 10
1.2500005459876879
 20
0.2499995505611423
 30
0.0
 41
0.046875
 42
0.046875
 43
0.046875
 50
202.31861548713121
  0
POLYLINE
  5
261C9
  8
0
  6
CONTINUOUS
 66
     1
 10
0.0
 20
0.0
 30
0.0
  0
VERTEX
  5
261CA
  8
0
  6
CONTINUOUS
 10
1.293363970221912
 20
0.2678006478217807
 30
0.0
  0
VERTEX
  5
261CB
  8
0
  6
CONTINUOUS
 10
2.1572010681318261
 20
0.6224139761923198
 30
0.0
  0
VERTEX
  5
261CC
  8
0
  6
CONTINUOUS
 10
2.2687807536349851
 20
0.626210466030102
 30
0.0
  0
SEQEND
  5
261CD
  8
0
  6
CONTINUOUS
  0
ENDBLK
  5
261CF
  8
0
  0
BLOCK
  8
0
  2
*U179
 70
     1
 10
0.0
 20
0.0
 30
0.0
  3
*U179
  1

  0
TEXT
  5
261D1
  8
0
 10
2.3271879841943299
 20
0.5634546679400611
 30
0.0
 40
0.125
  1
TL-126
  0
ENDBLK
  5
261D3
  8
0
  0
BLOCK
  8
0
  2
*U180
 70
     1
 10
0.0
 20
0.0
 30
0.0
  3
*U180
  1

  0
INSERT
  5
261D5
  8
0
  6
CONTINUOUS
  2
_OPEN30
 10
0.7500005490090304
 20
2.74999955358237
 30
0.0
 41
0.046875
 42
0.046875
 43
0.046875
 50
202.16313132933621
  0
POLYLINE
  5
261D6
  8
0
  6
CONTINUOUS
 66
     1
 10
0.0
 20
0.0
 30
0.0
  0
VERTEX
  5
261D7
  8
0
  6
CONTINUOUS
 10
0.7934121205394016
 20
2.7676829096626911
 30
0.0
  0
VERTEX
  5
261D8
  8
0
  6
CONTINUOUS
 10
1.403356379662966
 20
3.0161388199879862
 30
0.0
  0
VERTEX
  5
261D9
  8
0
  6
CONTINUOUS
 10
1.4759478210543191
 20
3.0161388199879862
 30
0.0
  0
SEQEND
  5
261DA
  8
0
  6
CONTINUOUS
  0
ENDBLK
  5
261DC
  8
0
  0
BLOCK
  8
0
  2
*U181
 70
     1
 10
0.0
 20
0.0
 30
0.0
  3
*U181
  1

  0
TEXT
  5
261DE
  8
0
 10
1.5194334963612759
 20
2.9533830218979449
 30
0.0
 40
0.125
  1
1 x 6
  0
ENDBLK
  5
261E0
  8
0
  0
BLOCK
  8
0
  2
*U182
 70
     1
 10
0.0
 20
0.0
 30
0.0
  3
*U182
  1

  0
TEXT
  5
261E2
  8
0
 10
2.704137288033603
 20
3.332115229613577
 30
0.0
 40
0.125
  1
Base Board Assembly
  0
TEXT
  5
261E3
  8
0
 10
2.712834423094995
 20
3.1232703001001618
 30
0.0
 40
0.125
  1
TL-684
  0
TEXT
  5
261E4
  8
0
 10
2.6979128678426072
 20
2.9128053160164882
 30
0.0
 40
0.125
  1
1-1/4" x 7-1/8"
  0
TEXT
  5
261E5
  8
0
 10
2.7098501120445171
 20
2.7023403319328141
 30
0.0
 40
0.125
  1
800.66.TAGUE
  0
ENDBLK
  5
261E7
  8
0
  0
BLOCK
  8
0
  2
*U183
 70
     1
 10
0.0
 20
0.0
 30
0.0
  3
*U183
  1

  0
INSERT
  5
261E9
  8
0
  6
CONTINUOUS
  2
_OPEN30
 10
0.7451914169819816
 20
2.7500006434855768
 30
0.0
 41
0.046875
 42
0.046875
 43
0.046875
 50
202.16313132933621
  0
POLYLINE
  5
261EA
  8
0
  6
CONTINUOUS
 66
     1
 10
0.0
 20
0.0
 30
0.0
  0
VERTEX
  5
261EB
  8
0
  6
CONTINUOUS
 10
0.7886029885123529
 20
2.7676839995658988
 30
0.0
  0
VERTEX
  5
261EC
  8
0
  6
CONTINUOUS
 10
1.3985472476359171
 20
3.0161399098911938
 30
0.0
  0
VERTEX
  5
261ED
  8
0
  6
CONTINUOUS
 10
1.47113868902727
 20
3.0161399098911938
 30
0.0
  0
SEQEND
  5
261EE
  8
0
  6
CONTINUOUS
  0
ENDBLK
  5
261F0
  8
0
  0
BLOCK
  8
0
  2
*U184
 70
     1
 10
0.0
 20
0.0
 30
0.0
  3
*U184
  1

  0
TEXT
  5
261F2
  8
0
 10
1.5146243643342281
 20
2.953384111801153
 30
0.0
 40
0.125
  1
1 x 6
  0
ENDBLK
  5
261F4
  8
0
  0
BLOCK
  8
0
  2
*U185
 70
     1
 10
0.0
 20
0.0
 30
0.0
  3
*U185
  1

  0
INSERT
  5
261F6
  8
0
  6
CONTINUOUS
  2
_OPEN30
 10
1.1801914169819829
 20
0.4698936434855341
 30
0.0
 41
0.046875
 42
0.046875
 43
0.046875
 50
202.3186154871324
  0
POLYLINE
  5
261F7
  8
0
  6
CONTINUOUS
 66
     1
 10
0.0
 20
0.0
 30
0.0
  0
VERTEX
  5
261F8
  8
0
  6
CONTINUOUS
 10
1.2235548412162069
 20
0.4876947407461734
 30
0.0
  0
VERTEX
  5
261F9
  8
0
  6
CONTINUOUS
 10
2.0873919391260638
 20
0.8423080691167115
 30
0.0
  0
VERTEX
  5
261FA
  8
0
  6
CONTINUOUS
 10
2.1989716246292801
 20
0.8461045589546075
 30
0.0
  0
SEQEND
  5
261FB
  8
0
  6
CONTINUOUS
  0
ENDBLK
  5
261FD
  8
0
  0
BLOCK
  8
0
  2
*U186
 70
     1
 10
0.0
 20
0.0
 30
0.0
  3
*U186
  1

  0
TEXT
  5
261FF
  8
0
 10
2.2573788551886249
 20
0.7830929627745256
 30
0.0
 40
0.125
  1
TL-936
  0
ENDBLK
  5
26201
  8
0
  0
BLOCK
  8
0
  2
*U187
 70
     1
 10
0.0
 20
0.0
 30
0.0
  3
*U187
  1

  0
INSERT
  5
26203
  8
0
  6
CONTINUOUS
  2
_OPEN30
 10
1.1140370353124349
 20
6.0172615651794104
 30
0.0
 41
0.046875
 42
0.046875
 43
0.046875
 50
212.76268937861931
  0
POLYLINE
  5
26204
  8
0
  6
CONTINUOUS
 66
     1
 10
0.0
 20
0.0
 30
0.0
  0
VERTEX
  5
26205
  8
0
  6
CONTINUOUS
 10
1.153455121966132
 20
6.0426284741271239
 30
0.0
  0
VERTEX
  5
26206
  8
0
  6
CONTINUOUS
 10
1.5457270658948801
 20
6.2950691055510779
 30
0.0
  0
VERTEX
  5
26207
  8
0
  6
CONTINUOUS
 10
1.614421022257261
 20
6.2950691055510779
 30
0.0
  0
SEQEND
  5
26208
  8
0
  6
CONTINUOUS
  0
ENDBLK
  5
2620A
  8
0
  0
BLOCK
  8
0
  2
*U188
 70
     1
 10
0.0
 20
0.0
 30
0.0
  3
*U188
  1

  0
TEXT
  5
2620C
  8
0
 10
1.6728282528166061
 20
6.2320575093709971
 30
0.0
 40
0.125
  1
TL-64
  0
ENDBLK
  5
2620E
  8
0
  0
BLOCK
  8
0
  2
*U189
 70
     1
 10
0.0
 20
0.0
 30
0.0
  3
*U189
  1

  0
INSERT
  5
26210
  8
0
  2
_OPEN30
 10
0.7499984483362711
 20
3.323717158281283
 30
0.0
 41
0.046875
 42
0.046875
 43
0.046875
 50
223.3453603417224
  0
POLYLINE
  5
26211
  8
0
 66
     1
 10
0.0
 20
0.0
 30
0.0
  0
VERTEX
  5
26212
  8
0
 10
0.7840873347090377
 20
3.3558918913938451
 30
0.0
  0
VERTEX
  5
26213
  8
0
 10
1.5886209634041959
 20
4.1152494867193354
 30
0.0
  0
VERTEX
  5
26214
  8
0
 10
1.696609421136031
 20
4.1152494867193354
 30
0.0
  0
SEQEND
  5
26215
  8
0
  0
ENDBLK
  5
26217
  8
0
  0
BLOCK
  8
0
  2
*U190
 70
     1
 10
0.0
 20
0.0
 30
0.0
  3
*U190
  1

  0
TEXT
  5
26219
  8
0
 10
1.755016651695376
 20
4.0522378905392529
 30
0.0
 40
0.125
  1
TL-AB212
  0
ENDBLK
  5
2621B
  8
0
  0
BLOCK
  8
0
  2
*U191
 70
     1
 10
0.0
 20
0.0
 30
0.0
  3
*U191
  1

  0
INSERT
  5
2621D
  8
0
  2
_OPEN30
 10
1.044936595452554
 20
0.5089059855812366
 30
0.0
 41
0.046875
 42
0.046875
 43
0.046875
 50
218.32432662178419
  0
POLYLINE
  5
2621E
  8
0
 66
     1
 10
0.0
 20
0.0
 30
0.0
  0
VERTEX
  5
2621F
  8
0
 10
1.0817106495577451
 20
0.5379737438310308
 30
0.0
  0
VERTEX
  5
26220
  8
0
 10
1.624617115981436
 20
0.9671098372601819
 30
0.0
  0
VERTEX
  5
26221
  8
0
 10
1.7056084592803691
 20
0.9671098372601819
 30
0.0
  0
SEQEND
  5
26222
  8
0
  0
ENDBLK
  5
26224
  8
0
  0
BLOCK
  8
0
  2
*U192
 70
     1
 10
0.0
 20
0.0
 30
0.0
  3
*U192
  1

  0
TEXT
  5
26226
  8
0
 10
1.7640156898397139
 20
0.9043540391701409
 30
0.0
 40
0.125
  1
TL-AB027
  0
ENDBLK
  5
26228
  8
0
  0
BLOCK
  8
0
  2
*U193
 70
     1
 10
0.0
 20
0.0
 30
0.0
  3
*U193
  1

  0
TEXT
  5
2622A
  8
0
 10
2.1745549234235391
 20
2.6225473309813192
 30
0.0
 40
0.125
  1
Base Board Assembly
  0
TEXT
  5
2622B
  8
0
 10
2.1832520584849302
 20
2.413702401467904
 30
0.0
 40
0.125
  1
TL-685
  0
TEXT
  5
2622C
  8
0
 10
2.1683305032325428
 20
2.2032374173842291
 30
0.0
 40
0.125
  1
1-1/4" x 5-1/2"
  0
TEXT
  5
2622D
  8
0
 10
2.1802677474344532
 20
1.992772433300555
 30
0.0
 40
0.125
  1
800.66.TAGUE
  0
ENDBLK
  5
2622F
  8
0
  0
BLOCK
  8
0
  2
*U194
 70
     1
 10
0.0
 20
0.0
 30
0.0
  3
*U194
  1

  0
INSERT
  5
26231
  8
0
  2
_OPEN30
 10
1.237403731795552
 20
0.7228374639378217
 30
0.0
 41
0.046875
 42
0.046875
 43
0.046875
 50
218.32432662178419
  0
POLYLINE
  5
26232
  8
0
 66
     1
 10
0.0
 20
0.0
 30
0.0
  0
VERTEX
  5
26233
  8
0
 10
1.274177785900743
 20
0.7519052221876159
 30
0.0
  0
VERTEX
  5
26234
  8
0
 10
1.8170842523244339
 20
1.1810413156167661
 30
0.0
  0
VERTEX
  5
26235
  8
0
 10
1.898075595623367
 20
1.1810413156167661
 30
0.0
  0
SEQEND
  5
26236
  8
0
  0
ENDBLK
  5
26238
  8
0
  0
BLOCK
  8
0
  2
*U195
 70
     1
 10
0.0
 20
0.0
 30
0.0
  3
*U195
  1

  0
TEXT
  5
2623A
  8
0
 10
1.9564828261827121
 20
1.1180297194366851
 30
0.0
 40
0.125
  1
TL-AB205-2
  0
ENDBLK
  5
2623C
  8
0
  0
BLOCK
  8
0
  2
*U196
 70
     1
 10
0.0
 20
0.0
 30
0.0
  3
*U196
  1

  0
INSERT
  5
2623E
  8
0
  2
_OPEN30
 10
0.7805394140341379
 20
3.428009497764946
 30
0.0
 41
0.046875
 42
0.046875
 43
0.046875
 50
223.3453603417224
  0
POLYLINE
  5
2623F
  8
0
 66
     1
 10
0.0
 20
0.0
 30
0.0
  0
VERTEX
  5
26240
  8
0
 10
0.8146283004069044
 20
3.460184230877509
 30
0.0
  0
VERTEX
  5
26241
  8
0
 10
1.619161929102062
 20
4.219541826202998
 30
0.0
  0
VERTEX
  5
26242
  8
0
 10
1.727150386833898
 20
4.219541826202998
 30
0.0
  0
SEQEND
  5
26243
  8
0
  0
ENDBLK
  5
26245
  8
0
  0
BLOCK
  8
0
  2
*U197
 70
     1
 10
0.0
 20
0.0
 30
0.0
  3
*U197
  1

  0
TEXT
  5
26247
  8
0
 10
1.785557617393243
 20
4.1565302300229172
 30
0.0
 40
0.125
  1
TL-AB205-1
  0
ENDBLK
  5
26249
  8
0
  0
BLOCK
  8
0
  2
*U198
 70
     1
 10
0.0
 20
0.0
 30
0.0
  3
*U198
  1

  0
TEXT
  5
2624B
  8
0
 10
1.775461282784117
 20
2.9617887573592721
 30
0.0
 40
0.125
  1
Base Board Assembly
  0
TEXT
  5
2624C
  8
0
 10
1.784158417845509
 20
2.7529438278458569
 30
0.0
 40
0.125
  1
TL-686
  0
TEXT
  5
2624D
  8
0
 10
1.769236862593121
 20
2.5424788437621819
 30
0.0
 40
0.125
  1
1-1/4" x 6"
  0
TEXT
  5
2624E
  8
0
 10
1.7811741067950311
 20
2.3320138596785078
 30
0.0
 40
0.125
  1
800.66.TAGUE
  0
ENDBLK
  5
26250
  8
0
  0
BLOCK
  8
0
  2
*U199
 70
     1
 10
0.0
 20
0.0
 30
0.0
  3
*U199
  1

  0
TEXT
  5
26252
  8
0
 10
1.8629812104003169
 20
1.3751718201384611
 30
0.0
 40
0.125
  1
Base Board
  0
TEXT
  5
26253
  8
0
 10
1.8716783454617081
 20
1.1663268906250459
 30
0.0
 40
0.125
  1
TL-540
  0
TEXT
  5
26254
  8
0
 10
1.8567567902093209
 20
0.9558619065413724
 30
0.0
 40
0.125
  1
1-1/16" x 1-7/8"
  0
TEXT
  5
26255
  8
0
 10
1.8686940344112311
 20
0.745396922457698
 30
0.0
 40
0.125
  1
800.66.TAGUE
  0
ENDBLK
  5
26257
  8
0
  0
BLOCK
  8
0
  2
*U200
 70
     1
 10
0.0
 20
0.0
 30
0.0
  3
*U200
  1

  0
TEXT
  5
26259
  8
0
 10
2.095166123738732
 20
2.843700788541923
 30
0.0
 40
0.125
  1
Base Board
  0
TEXT
  5
2625A
  8
0
 10
2.1038632588001231
 20
2.6348558590285078
 30
0.0
 40
0.125
  1
TL-541
  0
TEXT
  5
2625B
  8
0
 10
2.0889417035477358
 20
2.4243908749448329
 30
0.0
 40
0.125
  1
1-5/16" x 5-1/8"
  0
TEXT
  5
2625C
  8
0
 10
2.1008789477496461
 20
2.2139258908611592
 30
0.0
 40
0.125
  1
800.66.TAGUE
  0
ENDBLK
  5
2625E
  8
0
  0
BLOCK
  8
0
  2
*U201
 70
     1
 10
0.0
 20
0.0
 30
0.0
  3
*U201
  1

  0
TEXT
  5
26260
  8
0
 10
1.3029084100507859
 20
2.5127676930541152
 30
0.0
 40
0.125
  1
Base Board
  0
TEXT
  5
26261
  8
0
 10
1.3116055451121771
 20
2.3039227635407
 30
0.0
 40
0.125
  1
TL-36
  0
TEXT
  5
26262
  8
0
 10
1.3084507020016729
 20
2.093457779457025
 30
0.0
 40
0.125
  1
9/16" x 5-1/16"
  0
TEXT
  5
26263
  8
0
 10
1.3086212340617001
 20
1.882992795373351
 30
0.0
 40
0.125
  1
800.66.TAGUE
  0
ENDBLK
  5
26265
  8
0
  0
BLOCK
  8
0
  2
*U202
 70
     1
 10
0.0
 20
0.0
 30
0.0
  3
*U202
  1

  0
TEXT
  5
26267
  8
0
 10
1.1612344098374301
 20
2.1628857347385511
 30
0.0
 40
0.125
  1
Base Board
  0
TEXT
  5
26268
  8
0
 10
1.169931544898821
 20
1.9540408052251359
 30
0.0
 40
0.125
  1
TL-543
  0
TEXT
  5
26269
  8
0
 10
1.1667767017883159
 20
1.743575821141462
 30
0.0
 40
0.125
  1
9/16" x 4-3/16"
  0
TEXT
  5
2626A
  8
0
 10
1.1669472338483431
 20
1.5331108370577871
 30
0.0
 40
0.125
  1
800.66.TAGUE
  0
ENDBLK
  5
2626C
  8
0
  0
BLOCK
  8
0
  2
*U203
 70
     1
 10
0.0
 20
0.0
 30
0.0
  3
*U203
  1

  0
TEXT
  5
2626E
  8
0
 10
1.038992604214154
 20
2.7540114932149891
 30
0.0
 40
0.125
  1
Base Board
  0
TEXT
  5
2626F
  8
0
 10
1.0476897392755451
 20
2.545166563701573
 30
0.0
 40
0.125
  1
TL-618
  0
TEXT
  5
26270
  8
0
 10
1.0445348961650409
 20
2.3347015796178989
 30
0.0
 40
0.125
  1
9/16" x 5-1/4"
  0
TEXT
  5
26271
  8
0
 10
1.0447054282250681
 20
2.1242365955342248
 30
0.0
 40
0.125
  1
800.66.TAGUE
  0
ENDBLK
  5
26273
  8
0
  0
BLOCK
  8
0
  2
*U204
 70
     1
 10
0.0
 20
0.0
 30
0.0
  3
*U204
  1

  0
TEXT
  5
26275
  8
0
 10
1.182401194441109
 20
1.819766214437663
 30
0.0
 40
0.125
  1
Base Board
  0
TEXT
  5
26276
  8
0
 10
1.1910983295024999
 20
1.610921284924248
 30
0.0
 40
0.125
  1
TL-623
  0
TEXT
  5
26277
  8
0
 10
1.1879434863919951
 20
1.400456300840573
 30
0.0
 40
0.125
  1
9/16" x 3-1/2"
  0
TEXT
  5
26278
  8
0
 10
1.188114018452022
 20
1.189991316756899
 30
0.0
 40
0.125
  1
800.66.TAGUE
  0
ENDBLK
  5
2627A
  8
0
  0
BLOCK
  8
0
  2
*U205
 70
     1
 10
0.0
 20
0.0
 30
0.0
  3
*U205
  1

  0
TEXT
  5
2627C
  8
0
 10
1.300654159433843
 20
1.884782119222677
 30
0.0
 40
0.125
  1
Base Board
  0
TEXT
  5
2627D
  8
0
 10
1.309351294495235
 20
1.6759371897092621
 30
0.0
 40
0.125
  1
TL-713
  0
TEXT
  5
2627E
  8
0
 10
1.30619645138473
 20
1.4654722056255871
 30
0.0
 40
0.125
  1
9/16" x 3-1/4"
  0
TEXT
  5
2627F
  8
0
 10
1.3063669834447571
 20
1.255007221541913
 30
0.0
 40
0.125
  1
800.66.TAGUE
  0
ENDBLK
  5
26281
  8
0
  0
BLOCK
  8
0
  2
*U206
 70
     1
 10
0.0
 20
0.0
 30
0.0
  3
*U206
  1

  0
TEXT
  5
26283
  8
0
 10
1.5968605762384229
 20
3.9529851600731258
 30
0.0
 40
0.125
  1
Base Board
  0
TEXT
  5
26284
  8
0
 10
1.6055577112998141
 20
3.7441402305597111
 30
0.0
 40
0.125
  1
TL-602
  0
TEXT
  5
26285
  8
0
 10
1.602317602159296
 20
3.5336752464760361
 30
0.0
 40
0.125
  1
3/4" x 9-1/4"
  0
TEXT
  5
26286
  8
0
 10
1.602573400249337
 20
3.3232102623923621
 30
0.0
 40
0.125
  1
800.66.TAGUE
  0
ENDBLK
  5
26288
  8
0
  0
BLOCK
  8
0
  2
*U207
 70
     1
 10
0.0
 20
0.0
 30
0.0
  3
*U207
  1

  0
TEXT
  5
2628A
  8
0
 10
1.524246887462577
 20
2.1988362265429942
 30
0.0
 40
0.125
  1
Base Board
  0
TEXT
  5
2628B
  8
0
 10
1.532944022523969
 20
1.989991297029579
 30
0.0
 40
0.125
  1
TL-603
  0
TEXT
  5
2628C
  8
0
 10
1.52970391338345
 20
1.779526312945904
 30
0.0
 40
0.125
  1
3/4" x 4-1/2"
  0
TEXT
  5
2628D
  8
0
 10
1.5299597114734911
 20
1.5690613288622299
 30
0.0
 40
0.125
  1
800.66.TAGUE
  0
ENDBLK
  5
2628F
  8
0
  0
BLOCK
  8
0
  2
*U208
 70
     1
 10
0.0
 20
0.0
 30
0.0
  3
*U208
  1

  0
TEXT
  5
26291
  8
0
 10
1.222563432627662
 20
2.8332029065544471
 30
0.0
 40
0.125
  1
Base Board
  0
TEXT
  5
26292
  8
0
 10
1.231260567689054
 20
2.6243579770410319
 30
0.0
 40
0.125
  1
TL-2143
  0
TEXT
  5
26293
  8
0
 10
1.228020458548535
 20
2.4138929929573569
 30
0.0
 40
0.125
  1
3/4" x 5-1/4"
  0
TEXT
  5
26294
  8
0
 10
1.2282762566385761
 20
2.2034280088736828
 30
0.0
 40
0.125
  1
800.66.TAGUE
  0
ENDBLK
  5
26296
  8
0
  0
BLOCK
  8
0
  2
*U209
 70
     1
 10
0.0
 20
0.0
 30
0.0
  3
*U209
  1

  0
TEXT
  5
26298
  8
0
 10
1.40527247153032
 20
2.9709364495405448
 30
0.0
 40
0.125
  1
Base Board
  0
TEXT
  5
26299
  8
0
 10
1.4139696065917109
 20
2.7620915200271301
 30
0.0
 40
0.125
  1
TL-2001
  0
TEXT
  5
2629A
  8
0
 10
1.410729497451193
 20
2.5516265359434551
 30
0.0
 40
0.125
  1
3/4" x 7-1/4"
  0
TEXT
  5
2629B
  8
0
 10
1.4109852955412341
 20
2.341161551859781
 30
0.0
 40
0.125
  1
800.66.TAGUE
  0
ENDBLK
  5
2629D
  8
0
  0
BLOCK
  8
0
  2
*U210
 70
     1
 10
0.0
 20
0.0
 30
0.0
  3
*U210
  1

  0
TEXT
  5
2629F
  8
0
 10
1.28063331752558
 20
2.7081572525072479
 30
0.0
 40
0.125
  1
Base Board
  0
TEXT
  5
262A0
  8
0
 10
1.289330452586972
 20
2.4993123229938332
 30
0.0
 40
0.125
  1
TL-2022
  0
TEXT
  5
262A1
  8
0
 10
1.286090343446453
 20
2.2888473389101591
 30
0.0
 40
0.125
  1
3/4" x 5-1/2"
  0
TEXT
  5
262A2
  8
0
 10
1.2863461415364941
 20
2.078382354826485
 30
0.0
 40
0.125
  1
800.66.TAGUE
  0
ENDBLK
  5
262A4
  8
0
  0
BLOCK
  8
0
  2
*U211
 70
     1
 10
0.0
 20
0.0
 30
0.0
  3
*U211
  1

  0
TEXT
  5
262A6
  8
0
 10
1.3261446082858399
 20
3.4366400904110601
 30
0.0
 40
0.125
  1
Base Board
  0
TEXT
  5
262A7
  8
0
 10
1.334841743347231
 20
3.227795160897645
 30
0.0
 40
0.125
  1
TL-2153
  0
TEXT
  5
262A8
  8
0
 10
1.3338185509870679
 20
3.01733017681397
 30
0.0
 40
0.125
  1
27/32" x 7-1/4"
  0
TEXT
  5
262A9
  8
0
 10
1.331857432296754
 20
2.8068651927302959
 30
0.0
 40
0.125
  1
800.66.TAGUE
  0
ENDBLK
  5
262AB
  8
0
  0
BLOCK
  8
0
  2
*U212
 70
     1
 10
0.0
 20
0.0
 30
0.0
  3
*U212
  1

  0
TEXT
  5
262AD
  8
0
 10
1.503489615688391
 20
2.5863204410039771
 30
0.0
 40
0.125
  1
Base Board
  0
TEXT
  5
262AE
  8
0
 10
1.5121867507497819
 20
2.377475511490561
 30
0.0
 40
0.125
  1
TL-2165
  0
TEXT
  5
262AF
  8
0
 10
1.5080087152791131
 20
2.1670105274068869
 30
0.0
 40
0.125
  1
7/8" x 6"
  0
TEXT
  5
262B0
  8
0
 10
1.509202439699304
 20
1.9565455433232131
 30
0.0
 40
0.125
  1
800.66.TAGUE
  0
ENDBLK
  5
262B2
  8
0
  0
BLOCK
  8
0
  2
*U213
 70
     1
 10
0.0
 20
0.0
 30
0.0
  3
*U213
  1

  0
TEXT
  5
262B4
  8
0
 10
1.5064754642446401
 20
2.3208047060226131
 30
0.0
 40
0.125
  1
Base Board
  0
TEXT
  5
262B5
  8
0
 10
1.5151725993060321
 20
2.111959776509198
 30
0.0
 40
0.125
  1
TL-2189
  0
TEXT
  5
262B6
  8
0
 10
1.511932490165514
 20
1.901494792425523
 30
0.0
 40
0.125
  1
3/4" x 4-7/8"
  0
TEXT
  5
262B7
  8
0
 10
1.512188288255554
 20
1.6910298083418489
 30
0.0
 40
0.125
  1
800.66.TAGUE
  0
ENDBLK
  5
262B9
  8
0
  0
BLOCK
  8
0
  2
*U214
 70
     1
 10
0.0
 20
0.0
 30
0.0
  3
*U214
  1

  0
TEXT
  5
262BB
  8
0
 10
1.548400335642536
 20
1.277467791325875
 30
0.0
 40
0.125
  1
Base Board
  0
TEXT
  5
262BC
  8
0
 10
1.557097470703928
 20
1.06862286181246
 30
0.0
 40
0.125
  1
TL-550
  0
TEXT
  5
262BD
  8
0
 10
1.553857361563409
 20
0.858157877728786
 30
0.0
 40
0.125
  1
3/4" x 2-3/16"
  0
TEXT
  5
262BE
  8
0
 10
1.5541131596534501
 20
0.6476928936451117
 30
0.0
 40
0.125
  1
800.66.TAGUE
  0
ENDBLK
  5
262C0
  8
0
  0
BLOCK
  8
0
  2
*U215
 70
     1
 10
0.0
 20
0.0
 30
0.0
  3
*U215
  1

  0
TEXT
  5
262C2
  8
0
 10
1.288066291210707
 20
2.8139586047301459
 30
0.0
 40
0.125
  1
Base Board
  0
TEXT
  5
262C3
  8
0
 10
1.2967634262720991
 20
2.6051136752167312
 30
0.0
 40
0.125
  1
TL-551
  0
TEXT
  5
262C4
  8
0
 10
1.2935233171315801
 20
2.3946486911330558
 30
0.0
 40
0.125
  1
3/4" x 5-1/2"
  0
TEXT
  5
262C5
  8
0
 10
1.2937791152216209
 20
2.1841837070493821
 30
0.0
 40
0.125
  1
800.66.TAGUE
  0
ENDBLK
  5
262C7
  8
0
  0
BLOCK
  8
0
  2
*U216
 70
     1
 10
0.0
 20
0.0
 30
0.0
  3
*U216
  1

  0
TEXT
  5
262C9
  8
0
 10
1.8159948421621079
 20
3.2870887232147652
 30
0.0
 40
0.125
  1
Base Board
  0
TEXT
  5
262CA
  8
0
 10
1.8246919772235
 20
3.07824379370135
 30
0.0
 40
0.125
  1
TL-2231
  0
TEXT
  5
262CB
  8
0
 10
1.8205139417528311
 20
2.8677788096176751
 30
0.0
 40
0.125
  1
7/8" x 6-3/8"
  0
TEXT
  5
262CC
  8
0
 10
1.821707666173022
 20
2.657313825534001
 30
0.0
 40
0.125
  1
800.66.TAGUE
  0
ENDBLK
  5
262CE
  8
0
  0
BLOCK
  8
0
  2
*U217
 70
     1
 10
0.0
 20
0.0
 30
0.0
  3
*U217
  1

  0
TEXT
  5
262D0
  8
0
 10
1.78408614611963
 20
2.2765211976219462
 30
0.0
 40
0.125
  1
Base Board
  0
TEXT
  5
262D1
  8
0
 10
1.7927832811810209
 20
2.067676268108531
 30
0.0
 40
0.125
  1
TL-2266
  0
TEXT
  5
262D2
  8
0
 10
1.7895431720405031
 20
1.857211284024856
 30
0.0
 40
0.125
  1
3/4" x 5-1/2"
  0
TEXT
  5
262D3
  8
0
 10
1.7897989701305439
 20
1.6467462999411819
 30
0.0
 40
0.125
  1
800.66.TAGUE
  0
ENDBLK
  5
262D5
  8
0
  0
BLOCK
  8
0
  2
*U218
 70
     1
 10
0.0
 20
0.0
 30
0.0
  3
*U218
  1

  0
TEXT
  5
262D7
  8
0
 10
1.6156709723986571
 20
2.0615835911685281
 30
0.0
 40
0.125
  1
Base Board
  0
TEXT
  5
262D8
  8
0
 10
1.624368107460048
 20
1.8527386616551129
 30
0.0
 40
0.125
  1
TL-2284
  0
TEXT
  5
262D9
  8
0
 10
1.623327861893882
 20
1.6799953692494729
 30
0.0
 40
0.0875
  1
3
  0
LINE
  5
262DA
  8
0
 10
1.6501550442224879
 20
1.6083195653741871
 30
0.0
 11
1.750530920583921
 21
1.7516711731247601
 31
0.0
  0
TEXT
  5
262DB
  8
0
 10
1.713374473990289
 20
1.5633287025828071
 30
0.0
 40
0.0875
  1
4
  0
TEXT
  5
262DC
  8
0
 10
1.7812973934991569
 20
1.592495369249473
 30
0.0
 40
0.125
  1
" x 4"
  0
TEXT
  5
262DD
  8
0
 10
1.621383796409571
 20
1.4236970518324661
 30
0.0
 40
0.125
  1
800.66.TAGUE
  0
ENDBLK
  5
262DF
  8
0
  0
BLOCK
  8
0
  2
*U219
 70
     1
 10
0.0
 20
0.0
 30
0.0
  3
*U219
  1

  0
TEXT
  5
262E1
  8
0
 10
1.985809015314014
 20
3.2420859682381429
 30
0.0
 40
0.125
  1
Base Board
  0
TEXT
  5
262E2
  8
0
 10
1.9945061503754049
 20
3.0332410387247282
 30
0.0
 40
0.125
  1
TL-2312
  0
TEXT
  5
262E3
  8
0
 10
1.991266041234887
 20
2.8227760546410532
 30
0.0
 40
0.125
  1
3/4" x 5-1/2"
  0
TEXT
  5
262E4
  8
0
 10
1.9915218393249281
 20
2.6123110705573791
 30
0.0
 40
0.125
  1
800.66.TAGUE
  0
ENDBLK
  5
262E6
  8
0
  0
BLOCK
  8
0
  2
*U220
 70
     1
 10
0.0
 20
0.0
 30
0.0
  3
*U220
  1

  0
TEXT
  5
262E8
  8
0
 10
1.5904625436382209
 20
1.187343171125592
 30
0.0
 40
0.125
  1
Base Cap
  0
TEXT
  5
262E9
  8
0
 10
1.5991596786996121
 20
0.9784982416121771
 30
0.0
 40
0.125
  1
TL-19
  0
TEXT
  5
262EA
  8
0
 10
1.595919569559094
 20
0.7680332575285026
 30
0.0
 40
0.125
  1
3/4" x 1-11/16"
  0
TEXT
  5
262EB
  8
0
 10
1.5961753676491339
 20
0.5575682734448283
 30
0.0
 40
0.125
  1
800.66.TAGUE
  0
ENDBLK
  5
262ED
  8
0
  0
BLOCK
  8
0
  2
*U221
 70
     1
 10
0.0
 20
0.0
 30
0.0
  3
*U221
  1

  0
TEXT
  5
262EF
  8
0
 10
1.4253430714126509
 20
0.9125752017053105
 30
0.0
 40
0.125
  1
Base Cap
  0
TEXT
  5
262F0
  8
0
 10
1.4340402064740421
 20
0.7037302721918956
 30
0.0
 40
0.125
  1
TL-163
  0
TEXT
  5
262F1
  8
0
 10
1.4191186512216549
 20
0.493265288108221
 30
0.0
 40
0.125
  1
11/16" x 1-3/8"
  0
TEXT
  5
262F2
  8
0
 10
1.431055895423565
 20
0.2828003040245466
 30
0.0
 40
0.125
  1
800.66.TAGUE
  0
ENDBLK
  5
262F4
  8
0
  0
BLOCK
  8
0
  2
*U222
 70
     1
 10
0.0
 20
0.0
 30
0.0
  3
*U222
  1

  0
TEXT
  5
262F6
  8
0
 10
1.7853447687182711
 20
1.162173847628553
 30
0.0
 40
0.125
  1
Base Cap
  0
TEXT
  5
262F7
  8
0
 10
1.794041903779662
 20
0.9533289181151381
 30
0.0
 40
0.125
  1
TL-215
  0
TEXT
  5
262F8
  8
0
 10
1.789863868308994
 20
0.7428639340314637
 30
0.0
 40
0.125
  1
7/8" x 1-15/16"
  0
TEXT
  5
262F9
  8
0
 10
1.791057592729185
 20
0.5323989499477893
 30
0.0
 40
0.125
  1
800.66.TAGUE
  0
ENDBLK
  5
262FB
  8
0
  0
BLOCK
  8
0
  2
*U223
 70
     1
 10
0.0
 20
0.0
 30
0.0
  3
*U223
  1

  0
TEXT
  5
262FD
  8
0
 10
1.5358763075020461
 20
8.1022165940801347
 30
0.0
 40
0.125
  1
Base Cap
  0
TEXT
  5
262FE
  8
0
 10
1.5445734425634381
 20
7.89337166456672
 30
0.0
 40
0.125
  1
TL-230
  0
TEXT
  5
262FF
  8
0
 10
1.540395407092769
 20
7.682906680483045
 30
0.0
 40
0.125
  1
7/8" x 1-15/16"
  0
TEXT
  5
26300
  8
0
 10
1.54158913151296
 20
7.4724416963993701
 30
0.0
 40
0.125
  1
800.66.TAGUE
  0
ENDBLK
  5
26302
  8
0
  0
BLOCK
  8
0
  2
*U224
 70
     1
 10
0.0
 20
0.0
 30
0.0
  3
*U224
  1

  0
TEXT
  5
26304
  8
0
 10
1.6109911707451761
 20
1.18025645756599
 30
0.0
 40
0.125
  1
Base Cap
  0
TEXT
  5
26305
  8
0
 10
1.619688305806567
 20
0.9714115280525753
 30
0.0
 40
0.125
  1
TL-406
  0
TEXT
  5
26306
  8
0
 10
1.615510270335899
 20
0.7609465439689008
 30
0.0
 40
0.125
  1
7/8" x 1-11/16"
  0
TEXT
  5
26307
  8
0
 10
1.6167039947560899
 20
0.5504815598852265
 30
0.0
 40
0.125
  1
800.66.TAGUE
  0
ENDBLK
  5
26309
  8
0
  0
BLOCK
  8
0
  2
*U225
 70
     1
 10
0.0
 20
0.0
 30
0.0
  3
*U225
  1

  0
TEXT
  5
2630B
  8
0
 10
1.322001327344235
 20
1.081186133431872
 30
0.0
 40
0.125
  1
Base Cap
  0
TEXT
  5
2630C
  8
0
 10
1.3306984624056259
 20
0.8723412039184573
 30
0.0
 40
0.125
  1
TL-314
  0
TEXT
  5
2630D
  8
0
 10
1.3274583532651081
 20
0.661876219834783
 30
0.0
 40
0.125
  1
3/4" x 1-3/8"
  0
TEXT
  5
2630E
  8
0
 10
1.3277141513551489
 20
0.4514112357511085
 30
0.0
 40
0.125
  1
800.66.TAGUE
  0
ENDBLK
  5
26310
  8
0
  0
BLOCK
  8
0
  2
*U226
 70
     1
 10
0.0
 20
0.0
 30
0.0
  3
*U226
  1

  0
TEXT
  5
26312
  8
0
 10
1.545356558052088
 20
0.8011638535049475
 30
0.0
 40
0.125
  1
Base Cap
  0
TEXT
  5
26313
  8
0
 10
1.554053693113479
 20
0.5923189239915323
 30
0.0
 40
0.125
  1
TL-2021
  0
TEXT
  5
26314
  8
0
 10
1.5498756576428101
 20
0.3818539399078579
 30
0.0
 40
0.125
  1
7/8" x 1"
  0
TEXT
  5
26315
  8
0
 10
1.551069382063001
 20
0.1713889558241834
 30
0.0
 40
0.125
  1
800.66.TAGUE
  0
ENDBLK
  5
26317
  8
0
  0
BLOCK
  8
0
  2
*U227
 70
     1
 10
0.0
 20
0.0
 30
0.0
  3
*U227
  1

  0
TEXT
  5
26319
  8
0
 10
1.849024073205253
 20
1.552839362160755
 30
0.0
 40
0.125
  1
Base Cap
  0
TEXT
  5
2631A
  8
0
 10
1.8577212082666441
 20
1.3439944326473401
 30
0.0
 40
0.125
  1
TL-2025
  0
TEXT
  5
2631B
  8
0
 10
1.842799653014257
 20
1.1335294485636651
 30
0.0
 40
0.125
  1
1-1/4" x 2"
  0
TEXT
  5
2631C
  8
0
 10
1.8547368972161671
 20
0.9230644644799912
 30
0.0
 40
0.125
  1
800.66.TAGUE
  0
ENDBLK
  5
2631E
  8
0
  0
BLOCK
  8
0
  2
*U228
 70
     1
 10
0.0
 20
0.0
 30
0.0
  3
*U228
  1

  0
TEXT
  5
26320
  8
0
 10
1.3718096514217379
 20
1.0633370050964159
 30
0.0
 40
0.125
  1
Base Cap
  0
TEXT
  5
26321
  8
0
 10
1.3805067864831291
 20
0.8544920755830013
 30
0.0
 40
0.125
  1
TL-2085
  0
TEXT
  5
26322
  8
0
 10
1.377266677342611
 20
0.6440270914993268
 30
0.0
 40
0.125
  1
3/4" x 1-5/16"
  0
TEXT
  5
26323
  8
0
 10
1.377522475432652
 20
0.4335621074156525
 30
0.0
 40
0.125
  1
800.66.TAGUE
  0
ENDBLK
  5
26325
  8
0
  0
BLOCK
  8
0
  2
*U229
 70
     1
 10
0.0
 20
0.0
 30
0.0
  3
*U229
  1

  0
TEXT
  5
26327
  8
0
 10
1.464885786847087
 20
0.8118267597790396
 30
0.0
 40
0.125
  1
Base Cap
  0
TEXT
  5
26328
  8
0
 10
1.4735829219084791
 20
0.6029818302656245
 30
0.0
 40
0.125
  1
TL-2147
  0
TEXT
  5
26329
  8
0
 10
1.4703428127679601
 20
0.39251684618195
 30
0.0
 40
0.125
  1
3/4" x 1-1/4"
  0
TEXT
  5
2632A
  8
0
 10
1.4705986108580009
 20
0.1820518620982756
 30
0.0
 40
0.125
  1
800.66.TAGUE
  0
ENDBLK
  5
2632C
  8
0
  0
BLOCK
  8
0
  2
*U230
 70
     1
 10
0.0
 20
0.0
 30
0.0
  3
*U230
  1

  0
TEXT
  5
2632E
  8
0
 10
1.771984131257607
 20
0.8092216071741109
 30
0.0
 40
0.125
  1
Base Cap
  0
TEXT
  5
2632F
  8
0
 10
1.7806812663189979
 20
0.6003766776606958
 30
0.0
 40
0.125
  1
TL-2086
  0
TEXT
  5
26330
  8
0
 10
1.7774411571784801
 20
0.3899116935770214
 30
0.0
 40
0.125
  1
3/4" x 1-1/4"
  0
TEXT
  5
26331
  8
0
 10
1.7776969552685209
 20
0.179446709493347
 30
0.0
 40
0.125
  1
800.66.TAGUE
  0
ENDBLK
  5
26333
  8
0
  0
BLOCK
  8
0
  2
*U231
 70
     1
 10
0.0
 20
0.0
 30
0.0
  3
*U231
  1

  0
TEXT
  5
26335
  8
0
 10
1.5885997392245299
 20
0.7688960449700222
 30
0.0
 40
0.125
  1
Base Cap
  0
TEXT
  5
26336
  8
0
 10
1.5972968742859219
 20
0.5600511154566071
 30
0.0
 40
0.125
  1
TL-2140
  0
TEXT
  5
26337
  8
0
 10
1.5941420311754171
 20
0.3495861313729326
 30
0.0
 40
0.125
  1
5/8" x 1-1/8"
  0
TEXT
  5
26338
  8
0
 10
1.594312563235444
 20
0.1391211472892582
 30
0.0
 40
0.125
  1
800.66.TAGUE
  0
ENDBLK
  5
2633A
  8
0
  0
BLOCK
  8
0
  2
*U232
 70
     1
 10
0.0
 20
0.0
 30
0.0
  3
*U232
  1

  0
TEXT
  5
2633C
  8
0
 10
1.599800712551807
 20
0.7455601950585038
 30
0.0
 40
0.125
  1
Base Cap
  0
TEXT
  5
2633D
  8
0
 10
1.608497847613199
 20
0.5367152655450888
 30
0.0
 40
0.125
  1
TL-2177
  0
TEXT
  5
2633E
  8
0
 10
1.593576292360811
 20
0.3262502814614142
 30
0.0
 40
0.125
  1
11/16" x 13/16"
  0
TEXT
  5
2633F
  8
0
 10
1.6055135365627211
 20
0.1157852973777398
 30
0.0
 40
0.125
  1
800.66.TAGUE
  0
ENDBLK
  5
26341
  8
0
  0
BLOCK
  8
0
  2
*U233
 70
     1
 10
0.0
 20
0.0
 30
0.0
  3
*U233
  1

  0
TEXT
  5
26343
  8
0
 10
1.409121497152835
 20
1.100665305216368
 30
0.0
 40
0.125
  1
Base Cap
  0
TEXT
  5
26344
  8
0
 10
1.4178186322142261
 20
0.8918203757029537
 30
0.0
 40
0.125
  1
TL-2223
  0
TEXT
  5
26345
  8
0
 10
1.4167954398540621
 20
0.6813553916192793
 30
0.0
 40
0.125
  1
23/32" x 1-21/32"
  0
TEXT
  5
26346
  8
0
 10
1.4148343211637491
 20
0.4708904075356049
 30
0.0
 40
0.125
  1
800.66.TAGUE
  0
ENDBLK
  5
26348
  8
0
  0
BLOCK
  8
0
  2
*U234
 70
     1
 10
0.0
 20
0.0
 30
0.0
  3
*U234
  1

  0
TEXT
  5
2634A
  8
0
 10
1.5836197280722599
 20
0.9903470469529498
 30
0.0
 40
0.125
  1
Base Cap
  0
TEXT
  5
2634B
  8
0
 10
1.5923168631336519
 20
0.7815021174395347
 30
0.0
 40
0.125
  1
TL-2305
  0
TEXT
  5
2634C
  8
0
 10
1.5881388276629831
 20
0.5710371333558603
 30
0.0
 40
0.125
  1
7/8" x 1-5/8"
  0
TEXT
  5
2634D
  8
0
 10
1.589332552083174
 20
0.3605721492721858
 30
0.0
 40
0.125
  1
800.66.TAGUE
  0
ENDBLK
  5
2634F
  8
0
  0
BLOCK
  8
0
  2
*U235
 70
     1
 10
0.0
 20
0.0
 30
0.0
  3
*U235
  1

  0
TEXT
  5
26351
  8
0
 10
1.6244313742592269
 20
0.7971099757234175
 30
0.0
 40
0.125
  1
Base Cap
  0
TEXT
  5
26352
  8
0
 10
1.633128509320618
 20
0.5882650462100023
 30
0.0
 40
0.125
  1
TL-2316
  0
TEXT
  5
26353
  8
0
 10
1.6299736662101141
 20
0.3778000621263279
 30
0.0
 40
0.125
  1
9/16" x 1"
  0
TEXT
  5
26354
  8
0
 10
1.630144198270141
 20
0.1673350780426535
 30
0.0
 40
0.125
  1
800.66.TAGUE
  0
ENDBLK
  5
26356
  8
0
  0
BLOCK
  8
0
  2
*U236
 70
     1
 10
0.0
 20
0.0
 30
0.0
  3
*U236
  1

  0
TEXT
  5
26358
  8
0
 10
2.115043862769066
 20
1.229933704569248
 30
0.0
 40
0.125
  1
Bed Moulding
  0
TEXT
  5
26359
  8
0
 10
2.123740997830458
 20
1.0216003712359141
 30
0.0
 40
0.125
  1
TL-5
  0
TEXT
  5
2635A
  8
0
 10
2.1088194425780711
 20
0.8111353871522405
 30
0.0
 40
0.125
  1
11/16" x 4-1/4"
  0
TEXT
  5
2635B
  8
0
 10
2.1207566867799801
 20
0.6006704030685662
 30
0.0
 40
0.125
  1
800.66.TAGUE
  0
ENDBLK
  5
2635D
  8
0
  0
BLOCK
  8
0
  2
*U237
 70
     1
 10
0.0
 20
0.0
 30
0.0
  3
*U237
  1

  0
TEXT
  5
2635F
  8
0
 10
1.629515168649714
 20
0.7172567633590461
 30
0.0
 40
0.125
  1
Bed Moulding
  0
TEXT
  5
26360
  8
0
 10
1.6382123037111049
 20
0.508411833845631
 30
0.0
 40
0.125
  1
TL-71
  0
TEXT
  5
26361
  8
0
 10
1.6350574606006001
 20
0.2979468497619565
 30
0.0
 40
0.125
  1
9/16" x 2-5/8"
  0
TEXT
  5
26362
  8
0
 10
1.6352279926606279
 20
0.0874818656782821
 30
0.0
 40
0.125
  1
800.66.TAGUE
  0
ENDBLK
  5
26364
  8
0
  0
BLOCK
  8
0
  2
*U238
 70
     1
 10
0.0
 20
0.0
 30
0.0
  3
*U238
  1

  0
TEXT
  5
26366
  8
0
 10
7.9006361773201483
 20
3.2038315196236899
 30
0.0
 40
0.125
  1
Bed Moulding
  0
TEXT
  5
26367
  8
0
 10
7.9093333123815386
 20
2.9954981862903569
 30
0.0
 40
0.125
  1
TL-75
  0
TEXT
  5
26368
  8
0
 10
7.9061784692710351
 20
2.7850332022066828
 30
0.0
 40
0.125
  1
9/16" x 1-5/8"
  0
TEXT
  5
26369
  8
0
 10
7.9063490013310611
 20
2.5745682181230078
 30
0.0
 40
0.125
  1
800.66.TAGUE
  0
ENDBLK
  5
2636B
  8
0
  0
BLOCK
  8
0
  2
*U239
 70
     1
 10
0.0
 20
0.0
 30
0.0
  3
*U239
  1

  0
TEXT
  5
2636D
  8
0
 10
2.2408914082736651
 20
1.3092809657421181
 30
0.0
 40
0.125
  1
Bed Moulding
  0
TEXT
  5
2636E
  8
0
 10
2.2495885433350562
 20
1.1004360362287029
 30
0.0
 40
0.125
  1
TL-2029
  0
TEXT
  5
2636F
  8
0
 10
2.2346669880826688
 20
0.8899710521450289
 30
0.0
 40
0.125
  1
1-5/16" x 5-1/2"
  0
TEXT
  5
26370
  8
0
 10
2.2466042322845792
 20
0.6795060680613546
 30
0.0
 40
0.125
  1
800.66.TAGUE
  0
ENDBLK
  5
26372
  8
0
  0
BLOCK
  8
0
  2
*U240
 70
     1
 10
0.0
 20
0.0
 30
0.0
  3
*U240
  1

  0
TEXT
  5
26374
  8
0
 10
1.741152150489806
 20
0.8721200061611398
 30
0.0
 40
0.125
  1
Bed Moulding
  0
TEXT
  5
26375
  8
0
 10
1.749849285551198
 20
0.6632750766477247
 30
0.0
 40
0.125
  1
TL-2131
  0
TEXT
  5
26376
  8
0
 10
1.73492773029881
 20
0.4528100925640503
 30
0.0
 40
0.125
  1
11/16" x 1-3/4"
  0
TEXT
  5
26377
  8
0
 10
1.7468649745007201
 20
0.2423451084803758
 30
0.0
 40
0.125
  1
800.66.TAGUE
  0
ENDBLK
  5
26379
  8
0
  0
BLOCK
  8
0
  2
*U241
 70
     1
 10
0.0
 20
0.0
 30
0.0
  3
*U241
  1

  0
TEXT
  5
2637B
  8
0
 10
1.736669936528789
 20
1.087407220742322
 30
0.0
 40
0.125
  1
Cabinet Head
  0
TEXT
  5
2637C
  8
0
 10
1.7412743021495249
 20
0.8785622912289078
 30
0.0
 40
0.125
  1
TL-39
  0
TEXT
  5
2637D
  8
0
 10
1.726352746897138
 20
0.6680973071452333
 30
0.0
 40
0.125
  1
1-1/8" x 2-1/4"
  0
TEXT
  5
2637E
  8
0
 10
1.7382899910990479
 20
0.457632323061559
 30
0.0
 40
0.125
  1
800.66.TAGUE
  0
ENDBLK
  5
26380
  8
0
  0
BLOCK
  8
0
  2
*U242
 70
     1
 10
0.0
 20
0.0
 30
0.0
  3
*U242
  1

  0
TEXT
  5
26382
  8
0
 10
1.360420595476431
 20
0.9856411059979723
 30
0.0
 40
0.125
  1
Cabinet Head
  0
TEXT
  5
26383
  8
0
 10
1.3650249610971681
 20
0.7767961764845573
 30
0.0
 40
0.125
  1
TL-210
  0
TEXT
  5
26384
  8
0
 10
1.3501034058447801
 20
0.5663311924008828
 30
0.0
 40
0.125
  1
11/16" x 1-5/8"
  0
TEXT
  5
26385
  8
0
 10
1.3620406500466899
 20
0.3558662083172084
 30
0.0
 40
0.125
  1
800.66.TAGUE
  0
ENDBLK
  5
26387
  8
0
  0
BLOCK
  8
0
  2
*U243
 70
     1
 10
0.0
 20
0.0
 30
0.0
  3
*U243
  1

  0
TEXT
  5
26389
  8
0
 10
1.689513912791232
 20
1.0073053043701219
 30
0.0
 40
0.125
  1
Cap Moulding
  0
TEXT
  5
2638A
  8
0
 10
1.6941182784119679
 20
0.7984603748567074
 30
0.0
 40
0.125
  1
TL-290
  0
TEXT
  5
2638B
  8
0
 10
1.679196723159581
 20
0.587995390773033
 30
0.0
 40
0.125
  1
11/16" x 1-3/8"
  0
TEXT
  5
2638C
  8
0
 10
1.6911339673614909
 20
0.3775304066893585
 30
0.0
 40
0.125
  1
800.66.TAGUE
  0
ENDBLK
  5
2638E
  8
0
  0
BLOCK
  8
0
  2
*U244
 70
     1
 10
0.0
 20
0.0
 30
0.0
  3
*U244
  1

  0
TEXT
  5
26390
  8
0
 10
2.5350454110569318
 20
1.19171859651705
 30
0.0
 40
0.125
  1
Cap Moulding
  0
TEXT
  5
26391
  8
0
 10
2.5396497766776691
 20
0.9828736670036357
 30
0.0
 40
0.125
  1
TL-2194
  0
TEXT
  5
26392
  8
0
 10
2.5247282214252809
 20
0.7724086829199611
 30
0.0
 40
0.125
  1
1-5/8" x 2"
  0
TEXT
  5
26393
  8
0
 10
2.5366654656271912
 20
0.5619436988362868
 30
0.0
 40
0.125
  1
800.66.TAGUE
  0
ENDBLK
  5
26395
  8
0
  0
BLOCK
  8
0
  2
*U245
 70
     1
 10
0.0
 20
0.0
 30
0.0
  3
*U245
  1

  0
TEXT
  5
26397
  8
0
 10
1.5935373926513181
 20
2.083424344800862
 30
0.0
 40
0.125
  1
Casing
  0
TEXT
  5
26398
  8
0
 10
1.598141758272055
 20
1.8745794152874471
 30
0.0
 40
0.125
  1
TL-34
  0
TEXT
  5
26399
  8
0
 10
1.5939637228013861
 20
1.6641144312037719
 30
0.0
 40
0.125
  1
7/8" x 3-11/16"
  0
TEXT
  5
2639A
  8
0
 10
1.595157447221577
 20
1.453649447120098
 30
0.0
 40
0.125
  1
800.66.TAGUE
  0
ENDBLK
  5
2639C
  8
0
  0
BLOCK
  8
0
  2
*U246
 70
     1
 10
0.0
 20
0.0
 30
0.0
  3
*U246
  1

  0
TEXT
  5
2639E
  8
0
 10
1.5662690242219
 20
2.1084973644994012
 30
0.0
 40
0.125
  1
Casing
  0
TEXT
  5
2639F
  8
0
 10
1.570873389842637
 20
1.899652434985986
 30
0.0
 40
0.125
  1
TL-38
  0
TEXT
  5
263A0
  8
0
 10
1.5666953543719679
 20
1.689187450902311
 30
0.0
 40
0.125
  1
7/8" x 3-13/16"
  0
TEXT
  5
263A1
  8
0
 10
1.5678890787921591
 20
1.4787224668186369
 30
0.0
 40
0.125
  1
800.66.TAGUE
  0
ENDBLK
  5
263A3
  8
0
  0
BLOCK
  8
0
  2
*U247
 70
     1
 10
0.0
 20
0.0
 30
0.0
  3
*U247
  1

  0
TEXT
  5
263A5
  8
0
 10
1.444573544634953
 20
1.9934166265428681
 30
0.0
 40
0.125
  1
Casing
  0
TEXT
  5
263A6
  8
0
 10
1.4491779102556901
 20
1.784571697029453
 30
0.0
 40
0.125
  1
TL-212
  0
TEXT
  5
263A7
  8
0
 10
1.445937801115172
 20
1.5741067129457791
 30
0.0
 40
0.125
  1
3/4" x 3-3/4"
  0
TEXT
  5
263A8
  8
0
 10
1.446193599205212
 20
1.3636417288621041
 30
0.0
 40
0.125
  1
800.66.TAGUE
  0
ENDBLK
  5
263AA
  8
0
  0
BLOCK
  8
0
  2
*U248
 70
     1
 10
0.0
 20
0.0
 30
0.0
  3
*U248
  1

  0
TEXT
  5
263AC
  8
0
 10
1.7897927446773321
 20
1.8760126601283831
 30
0.0
 40
0.125
  1
Casing
  0
TEXT
  5
263AD
  8
0
 10
1.7943971102980689
 20
1.6671677306149679
 30
0.0
 40
0.125
  1
TL-310
  0
TEXT
  5
263AE
  8
0
 10
1.779475555045682
 20
1.4567027465312929
 30
0.0
 40
0.125
  1
1-1/16" x 3-7/16"
  0
TEXT
  5
263AF
  8
0
 10
1.7914127992475919
 20
1.2462377624476191
 30
0.0
 40
0.125
  1
800.66.TAGUE
  0
ENDBLK
  5
263B1
  8
0
  0
BLOCK
  8
0
  2
*U249
 70
     1
 10
0.0
 20
0.0
 30
0.0
  3
*U249
  1

  0
TEXT
  5
263B3
  8
0
 10
1.6846224502081431
 20
1.926744489349987
 30
0.0
 40
0.125
  1
Casing
  0
TEXT
  5
263B4
  8
0
 10
1.689226815828879
 20
1.7178995598365721
 30
0.0
 40
0.125
  1
TL-311
  0
TEXT
  5
263B5
  8
0
 10
1.6743052605764921
 20
1.5074345757528971
 30
0.0
 40
0.125
  1
1" x 3-1/2"
  0
TEXT
  5
263B6
  8
0
 10
1.686242504778402
 20
1.296969591669223
 30
0.0
 40
0.125
  1
800.66.TAGUE
  0
ENDBLK
  5
263B8
  8
0
  0
BLOCK
  8
0
  2
*U250
 70
     1
 10
0.0
 20
0.0
 30
0.0
  3
*U250
  1

  0
TEXT
  5
263BA
  8
0
 10
1.520306519003928
 20
2.0258391013684491
 30
0.0
 40
0.125
  1
Casing
  0
TEXT
  5
263BB
  8
0
 10
1.5249108846246651
 20
1.816994171855034
 30
0.0
 40
0.125
  1
TL-312
  0
TEXT
  5
263BC
  8
0
 10
1.5207328491539971
 20
1.606529187771359
 30
0.0
 40
0.125
  1
7/8" x 3-7/8"
  0
TEXT
  5
263BD
  8
0
 10
1.5219265735741869
 20
1.3960642036876849
 30
0.0
 40
0.125
  1
800.66.TAGUE
  0
ENDBLK
  5
263BF
  8
0
  0
BLOCK
  8
0
  2
*U251
 70
     1
 10
0.0
 20
0.0
 30
0.0
  3
*U251
  1

  0
TEXT
  5
263C1
  8
0
 10
1.3328973168081331
 20
2.164714518610837
 30
0.0
 40
0.125
  1
Casing
  0
TEXT
  5
263C2
  8
0
 10
1.3375016824288699
 20
1.955869589097422
 30
0.0
 40
0.125
  1
TL-322
  0
TEXT
  5
263C3
  8
0
 10
1.334261573288352
 20
1.7454046050137479
 30
0.0
 40
0.125
  1
3/4" x 4"
  0
TEXT
  5
263C4
  8
0
 10
1.3345173713783931
 20
1.534939620930073
 30
0.0
 40
0.125
  1
800.66.TAGUE
  0
ENDBLK
  5
263C6
  8
0
  0
BLOCK
  8
0
  2
*U252
 70
     1
 10
0.0
 20
0.0
 30
0.0
  3
*U252
  1

  0
TEXT
  5
263C8
  8
0
 10
1.752676654927062
 20
1.326106447528802
 30
0.0
 40
0.125
  1
Casing
  0
TEXT
  5
263C9
  8
0
 10
1.7572810205477991
 20
1.1172615180153871
 30
0.0
 40
0.125
  1
TL-327
  0
TEXT
  5
263CA
  8
0
 10
1.7423594652954111
 20
0.9067965339317131
 30
0.0
 40
0.125
  1
11/16" x 2-1/4"
  0
TEXT
  5
263CB
  8
0
 10
1.754296709497321
 20
0.6963315498480388
 30
0.0
 40
0.125
  1
800.66.TAGUE
  0
ENDBLK
  5
263CD
  8
0
  0
BLOCK
  8
0
  2
*U253
 70
     1
 10
0.0
 20
0.0
 30
0.0
  3
*U253
  1

  0
TEXT
  5
263CF
  8
0
 10
1.353741116408945
 20
1.5097483307285
 30
0.0
 40
0.125
  1
Casing
  0
TEXT
  5
263D0
  8
0
 10
1.3583454820296821
 20
1.3009034012150851
 30
0.0
 40
0.125
  1
TL-331
  0
TEXT
  5
263D1
  8
0
 10
1.3434239267772941
 20
1.0904384171314101
 30
0.0
 40
0.125
  1
11/16" x 2-1/2"
  0
TEXT
  5
263D2
  8
0
 10
1.3553611709792039
 20
0.8799734330477367
 30
0.0
 40
0.125
  1
800.66.TAGUE
  0
ENDBLK
  5
263D4
  8
0
  0
BLOCK
  8
0
  2
*U254
 70
     1
 10
0.0
 20
0.0
 30
0.0
  3
*U254
  1

  0
TEXT
  5
263D6
  8
0
 10
1.5202473442910549
 20
2.054431738326131
 30
0.0
 40
0.125
  1
Casing
  0
TEXT
  5
263D7
  8
0
 10
1.5248517099117911
 20
1.8455868088127161
 30
0.0
 40
0.125
  1
TL-332
  0
TEXT
  5
263D8
  8
0
 10
1.5099301546594039
 20
1.635121824729042
 30
0.0
 40
0.125
  1
11/16" x 3-1/2"
  0
TEXT
  5
263D9
  8
0
 10
1.5218673988613141
 20
1.424656840645367
 30
0.0
 40
0.125
  1
800.66.TAGUE
  0
ENDBLK
  5
263DB
  8
0
  0
BLOCK
  8
0
  2
*U255
 70
     1
 10
0.0
 20
0.0
 30
0.0
  3
*U255
  1

  0
TEXT
  5
263DD
  8
0
 10
1.5320253747036969
 20
1.863596215278805
 30
0.0
 40
0.125
  1
Casing
  0
TEXT
  5
263DE
  8
0
 10
1.536629740324434
 20
1.6547512857653901
 30
0.0
 40
0.125
  1
TL-361
  0
TEXT
  5
263DF
  8
0
 10
1.5217081850720471
 20
1.444286301681716
 30
0.0
 40
0.125
  1
11/16" x 3-1/2"
  0
TEXT
  5
263E0
  8
0
 10
1.5336454292739561
 20
1.233821317598041
 30
0.0
 40
0.125
  1
800.66.TAGUE
  0
ENDBLK
  5
263E2
  8
0
  0
BLOCK
  8
0
  2
*U256
 70
     1
 10
0.0
 20
0.0
 30
0.0
  3
*U256
  1

  0
TEXT
  5
263E4
  8
0
 10
1.863826117951793
 20
1.4722460830886499
 30
0.0
 40
0.125
  1
Casing
  0
TEXT
  5
263E5
  8
0
 10
1.8684304835725289
 20
1.263401153575235
 30
0.0
 40
0.125
  1
TL-366
  0
TEXT
  5
263E6
  8
0
 10
1.853508928320142
 20
1.0529361694915611
 30
0.0
 40
0.125
  1
11/16" x 2-1/4"
  0
TEXT
  5
263E7
  8
0
 10
1.8654461725220519
 20
0.8424711854078868
 30
0.0
 40
0.125
  1
800.66.TAGUE
  0
ENDBLK
  5
263E9
  8
0
  0
BLOCK
  8
0
  2
*U257
 70
     1
 10
0.0
 20
0.0
 30
0.0
  3
*U257
  1

  0
TEXT
  5
263EB
  8
0
 10
1.5351274959142289
 20
1.561715576145063
 30
0.0
 40
0.125
  1
Casing
  0
TEXT
  5
263EC
  8
0
 10
1.5397318615349651
 20
1.352870646631648
 30
0.0
 40
0.125
  1
TL-376
  0
TEXT
  5
263ED
  8
0
 10
1.524810306282578
 20
1.142405662547973
 30
0.0
 40
0.125
  1
11/16" x 2-1/4"
  0
TEXT
  5
263EE
  8
0
 10
1.5367475504844881
 20
0.9319406784642996
 30
0.0
 40
0.125
  1
800.66.TAGUE
  0
ENDBLK
  5
263F0
  8
0
  0
BLOCK
  8
0
  2
*U258
 70
     1
 10
0.0
 20
0.0
 30
0.0
  3
*U258
  1

  0
TEXT
  5
263F2
  8
0
 10
1.521284911425572
 20
1.8194457406072091
 30
0.0
 40
0.125
  1
Casing
  0
TEXT
  5
263F3
  8
0
 10
1.5258892770463091
 20
1.6106008110937939
 30
0.0
 40
0.125
  1
TL-412
  0
TEXT
  5
263F4
  8
0
 10
1.510967721793921
 20
1.400135827010119
 30
0.0
 40
0.125
  1
11/16" x 3-1/2"
  0
TEXT
  5
263F5
  8
0
 10
1.5229049659958309
 20
1.1896708429264451
 30
0.0
 40
0.125
  1
800.66.TAGUE
  0
ENDBLK
  5
263F7
  8
0
  0
BLOCK
  8
0
  2
*U259
 70
     1
 10
0.0
 20
0.0
 30
0.0
  3
*U259
  1

  0
TEXT
  5
263F9
  8
0
 10
1.449823263841812
 20
2.0149514255241612
 30
0.0
 40
0.125
  1
Casing
  0
TEXT
  5
263FA
  8
0
 10
1.454427629462548
 20
1.8066180921908279
 30
0.0
 40
0.125
  1
TL-445
  0
TEXT
  5
263FB
  8
0
 10
1.4395060742101611
 20
1.5961531081071541
 30
0.0
 40
0.125
  1
11/16" x 3-1/4"
  0
TEXT
  5
263FC
  8
0
 10
1.451443318412071
 20
1.3856881240234791
 30
0.0
 40
0.125
  1
800.66.TAGUE
  0
ENDBLK
  5
263FE
  8
0
  0
BLOCK
  8
0
  2
*U260
 70
     1
 10
0.0
 20
0.0
 30
0.0
  3
*U260
  1

  0
TEXT
  5
26400
  8
0
 10
1.715600805711323
 20
1.45748262831252
 30
0.0
 40
0.125
  1
Casing
  0
TEXT
  5
26401
  8
0
 10
1.720205171332059
 20
1.248637698799105
 30
0.0
 40
0.125
  1
TL-452
  0
TEXT
  5
26402
  8
0
 10
1.705283616079672
 20
1.0381727147154309
 30
0.0
 40
0.125
  1
11/16" x 2-1/2"
  0
TEXT
  5
26403
  8
0
 10
1.7172208602815819
 20
0.8277077306317568
 30
0.0
 40
0.125
  1
800.66.TAGUE
  0
ENDBLK
  5
26405
  8
0
  0
BLOCK
  8
0
  2
*U261
 70
     1
 10
0.0
 20
0.0
 30
0.0
  3
*U261
  1

  0
TEXT
  5
26407
  8
0
 10
1.644662863092297
 20
2.4324649629210331
 30
0.0
 40
0.125
  1
Casing
  0
TEXT
  5
26408
  8
0
 10
1.6492672287130341
 20
2.2241316295876992
 30
0.0
 40
0.125
  1
TL-545
  0
TEXT
  5
26409
  8
0
 10
1.646027119572516
 20
2.0136666455040251
 30
0.0
 40
0.125
  1
3/4" x 5"
  0
TEXT
  5
2640A
  8
0
 10
1.6462829176625571
 20
1.8032016614203501
 30
0.0
 40
0.125
  1
800.66.TAGUE
  0
ENDBLK
  5
2640C
  8
0
  0
BLOCK
  8
0
  2
*U262
 70
     1
 10
0.0
 20
0.0
 30
0.0
  3
*U262
  1

  0
TEXT
  5
2640E
  8
0
 10
1.6083821826148079
 20
1.7190042649612149
 30
0.0
 40
0.125
  1
Casing
  0
TEXT
  5
2640F
  8
0
 10
1.612986548235545
 20
1.5101593354478
 30
0.0
 40
0.125
  1
TL-546
  0
TEXT
  5
26410
  8
0
 10
1.6097464390950269
 20
1.299694351364125
 30
0.0
 40
0.125
  1
3/4" x 2-7/8"
  0
TEXT
  5
26411
  8
0
 10
1.6100022371850671
 20
1.0892293672804509
 30
0.0
 40
0.125
  1
800.66.TAGUE
  0
ENDBLK
  5
26413
  8
0
  0
BLOCK
  8
0
  2
*U263
 70
     1
 10
0.0
 20
0.0
 30
0.0
  3
*U263
  1

  0
TEXT
  5
26415
  8
0
 10
1.611826571413677
 20
2.1893163161727371
 30
0.0
 40
0.125
  1
Casing
  0
TEXT
  5
26416
  8
0
 10
1.6164309370344141
 20
1.980471386659322
 30
0.0
 40
0.125
  1
TL-548
  0
TEXT
  5
26417
  8
0
 10
1.6131908278938949
 20
1.770006402575647
 30
0.0
 40
0.125
  1
3/4" x 3-7/16"
  0
TEXT
  5
26418
  8
0
 10
1.613446625983936
 20
1.5595414184919729
 30
0.0
 40
0.125
  1
800.66.TAGUE
  0
ENDBLK
  5
2641A
  8
0
  0
BLOCK
  8
0
  2
*U264
 70
     1
 10
0.0
 20
0.0
 30
0.0
  3
*U264
  1

  0
TEXT
  5
2641C
  8
0
 10
1.2473910737773839
 20
2.7744627332396181
 30
0.0
 40
0.125
  1
Casing
  0
TEXT
  5
2641D
  8
0
 10
1.2519954393981201
 20
2.5656178037262021
 30
0.0
 40
0.125
  1
TL-2018
  0
TEXT
  5
2641E
  8
0
 10
1.2370738841457329
 20
2.355152819642528
 30
0.0
 40
0.125
  1
1-1/16" x 4-1/2"
  0
TEXT
  5
2641F
  8
0
 10
1.2490111283476431
 20
2.1446878355588539
 30
0.0
 40
0.125
  1
800.66.TAGUE
  0
ENDBLK
  5
26421
  8
0
  0
BLOCK
  8
0
  2
*U265
 70
     1
 10
0.0
 20
0.0
 30
0.0
  3
*U265
  1

  0
TEXT
  5
26423
  8
0
 10
1.4086740032724709
 20
13.04264108713495
 30
0.0
 40
0.125
  1
Casing
  0
TEXT
  5
26424
  8
0
 10
1.4132783688932069
 20
12.83379615762154
 30
0.0
 40
0.125
  1
TL-2019
  0
TEXT
  5
26425
  8
0
 10
1.39835681364082
 20
12.62333117353786
 30
0.0
 40
0.125
  1
1-1/16" x 5-1/2"
  0
TEXT
  5
26426
  8
0
 10
1.4102940578427301
 20
12.41286618945419
 30
0.0
 40
0.125
  1
800.66.TAGUE
  0
ENDBLK
  5
26428
  8
0
  0
BLOCK
  8
0
  2
*U266
 70
     1
 10
0.0
 20
0.0
 30
0.0
  3
*U266
  1

  0
TEXT
  5
2642A
  8
0
 10
1.4086740032724709
 20
3.3074481400532401
 30
0.0
 40
0.125
  1
Casing
  0
TEXT
  5
2642B
  8
0
 10
1.4132783688932069
 20
3.0986032105398249
 30
0.0
 40
0.125
  1
TL-2019
  0
TEXT
  5
2642C
  8
0
 10
1.39835681364082
 20
2.8881382264561508
 30
0.0
 40
0.125
  1
1-1/16" x 5-1/2"
  0
TEXT
  5
2642D
  8
0
 10
1.4102940578427301
 20
2.6776732423724772
 30
0.0
 40
0.125
  1
800.66.TAGUE
  0
ENDBLK
  5
2642F
  8
0
  0
BLOCK
  8
0
  2
*U267
 70
     1
 10
0.0
 20
0.0
 30
0.0
  3
*U267
  1

  0
TEXT
  5
26431
  8
0
 10
1.507291999899484
 20
1.8983804600503771
 30
0.0
 40
0.125
  1
Casing
  0
TEXT
  5
26432
  8
0
 10
1.51189636552022
 20
1.6895355305369619
 30
0.0
 40
0.125
  1
TL-B3
  0
TEXT
  5
26433
  8
0
 10
1.5086562563797019
 20
1.4790705464532881
 30
0.0
 40
0.125
  1
3/4" x 3-1/2"
  0
TEXT
  5
26434
  8
0
 10
1.508912054469743
 20
1.2686055623696131
 30
0.0
 40
0.125
  1
800.66.TAGUE
  0
ENDBLK
  5
26436
  8
0
  0
BLOCK
  8
0
  2
*U268
 70
     1
 10
0.0
 20
0.0
 30
0.0
  3
*U268
  1

  0
TEXT
  5
26438
  8
0
 10
1.63765621551588
 20
2.2121098391850338
 30
0.0
 40
0.125
  1
Casing
  0
TEXT
  5
26439
  8
0
 10
1.642260581136616
 20
2.0032649096716191
 30
0.0
 40
0.125
  1
TL-600
  0
TEXT
  5
2643A
  8
0
 10
1.638082545665948
 20
1.7927999255879441
 30
0.0
 40
0.125
  1
7/8" x 3-3/4"
  0
TEXT
  5
2643B
  8
0
 10
1.639276270086139
 20
1.58233494150427
 30
0.0
 40
0.125
  1
800.66.TAGUE
  0
ENDBLK
  5
2643D
  8
0
  0
BLOCK
  8
0
  2
*U269
 70
     1
 10
0.0
 20
0.0
 30
0.0
  3
*U269
  1

  0
TEXT
  5
2643F
  8
0
 10
1.181403088863225
 20
2.596347862400437
 30
0.0
 40
0.125
  1
Casing
  0
TEXT
  5
26440
  8
0
 10
1.1860074544839609
 20
2.387502932887021
 30
0.0
 40
0.125
  1
TL-2056
  0
TEXT
  5
26441
  8
0
 10
1.171085899231574
 20
2.1770379488033469
 30
0.0
 40
0.125
  1
1" x 4-1/4"
  0
TEXT
  5
26442
  8
0
 10
1.1830231434334839
 20
1.966572964719673
 30
0.0
 40
0.125
  1
800.66.TAGUE
  0
ENDBLK
  5
26444
  8
0
  0
BLOCK
  8
0
  2
*U270
 70
     1
 10
0.0
 20
0.0
 30
0.0
  3
*U270
  1

  0
TEXT
  5
26446
  8
0
 10
1.566807269343802
 20
2.1619067565476531
 30
0.0
 40
0.125
  1
Casing
  0
TEXT
  5
26447
  8
0
 10
1.5714116349645391
 20
1.9530618270342379
 30
0.0
 40
0.125
  1
TL-2008
  0
TEXT
  5
26448
  8
0
 10
1.56723359949387
 20
1.7425968429505629
 30
0.0
 40
0.125
  1
7/8" x 3-3/4"
  0
TEXT
  5
26449
  8
0
 10
1.5684273239140609
 20
1.5321318588668891
 30
0.0
 40
0.125
  1
800.66.TAGUE
  0
ENDBLK
  5
2644B
  8
0
  0
BLOCK
  8
0
  2
*U271
 70
     1
 10
0.0
 20
0.0
 30
0.0
  3
*U271
  1

  0
TEXT
  5
2644D
  8
0
 10
1.7608832556955789
 20
2.6231890073942319
 30
0.0
 40
0.125
  1
Casing
  0
TEXT
  5
2644E
  8
0
 10
1.765487621316316
 20
2.4143440778808172
 30
0.0
 40
0.125
  1
TL-2113
  0
TEXT
  5
2644F
  8
0
 10
1.750566066063928
 20
2.2038790937971431
 30
0.0
 40
0.125
  1
1-3/8" x 3-3/4"
  0
TEXT
  5
26450
  8
0
 10
1.7625033102658381
 20
1.9934141097134681
 30
0.0
 40
0.125
  1
800.66.TAGUE
  0
ENDBLK
  5
26452
  8
0
  0
BLOCK
  8
0
  2
*U272
 70
     1
 10
0.0
 20
0.0
 30
0.0
  3
*U272
  1

  0
TEXT
  5
26454
  8
0
 10
1.882662245739515
 20
2.0477187364191578
 30
0.0
 40
0.125
  1
Casing
  0
TEXT
  5
26455
  8
0
 10
1.887266611360251
 20
1.8388738069057431
 30
0.0
 40
0.125
  1
TL-2166
  0
TEXT
  5
26456
  8
0
 10
1.8723450561078641
 20
1.6284088228220679
 30
0.0
 40
0.125
  1
1-1/8" x 2-3/8"
  0
TEXT
  5
26457
  8
0
 10
1.8842823003097739
 20
1.417943838738394
 30
0.0
 40
0.125
  1
800.66.TAGUE
  0
ENDBLK
  5
26459
  8
0
  0
BLOCK
  8
0
  2
*U273
 70
     1
 10
0.0
 20
0.0
 30
0.0
  3
*U273
  1

  0
TEXT
  5
2645B
  8
0
 10
1.4725338863188191
 20
2.68154143214828
 30
0.0
 40
0.125
  1
Casing
  0
TEXT
  5
2645C
  8
0
 10
1.4771382519395551
 20
2.4726965026348648
 30
0.0
 40
0.125
  1
TL-2167
  0
TEXT
  5
2645D
  8
0
 10
1.4729602164688871
 20
2.2622315185511912
 30
0.0
 40
0.125
  1
7/8" x 4-3/8"
  0
TEXT
  5
2645E
  8
0
 10
1.474153940889078
 20
2.0517665344675171
 30
0.0
 40
0.125
  1
800.66.TAGUE
  0
ENDBLK
  5
26460
  8
0
  0
BLOCK
  8
0
  2
*U274
 70
     1
 10
0.0
 20
0.0
 30
0.0
  3
*U274
  1

  0
TEXT
  5
26462
  8
0
 10
1.510960258956378
 20
2.1823485407814061
 30
0.0
 40
0.125
  1
Casing
  0
TEXT
  5
26463
  8
0
 10
1.5123245154365961
 20
1.971883556697732
 30
0.0
 40
0.125
  1
3/4" x 3-1/2" w/ 1/4" Bead
  0
TEXT
  5
26464
  8
0
 10
1.5125803135266369
 20
1.761418572614057
 30
0.0
 40
0.125
  1
800.66.TAGUE
  0
ENDBLK
  5
26466
  8
0
  0
BLOCK
  8
0
  2
*U275
 70
     1
 10
0.0
 20
0.0
 30
0.0
  3
*U275
  1

  0
TEXT
  5
26468
  8
0
 10
1.8617124589241929
 20
2.809361495964497
 30
0.0
 40
0.125
  1
Casing
  0
TEXT
  5
26469
  8
0
 10
1.8663168245449291
 20
2.600516566451081
 30
0.0
 40
0.125
  1
TL-2026
  0
TEXT
  5
2646A
  8
0
 10
1.8621387890742609
 20
2.3900515823674069
 30
0.0
 40
0.125
  1
7/8" x 5-1/16"
  0
TEXT
  5
2646B
  8
0
 10
1.8633325134944521
 20
2.1795865982837328
 30
0.0
 40
0.125
  1
800.66.TAGUE
  0
ENDBLK
  5
2646D
  8
0
  0
BLOCK
  8
0
  2
*U276
 70
     1
 10
0.0
 20
0.0
 30
0.0
  3
*U276
  1

  0
TEXT
  5
2646F
  8
0
 10
1.516908149010963
 20
2.1944099456046771
 30
0.0
 40
0.125
  1
Casing
  0
TEXT
  5
26470
  8
0
 10
1.5215125146316999
 20
1.9855650160912619
 30
0.0
 40
0.125
  1
TL-2106
  0
TEXT
  5
26471
  8
0
 10
1.506590959379313
 20
1.7751000320075869
 30
0.0
 40
0.125
  1
15/16" x 3-1/2"
  0
TEXT
  5
26472
  8
0
 10
1.5185282035812231
 20
1.5646350479239131
 30
0.0
 40
0.125
  1
800.66.TAGUE
  0
ENDBLK
  5
26474
  8
0
  0
BLOCK
  8
0
  2
*U277
 70
     1
 10
0.0
 20
0.0
 30
0.0
  3
*U277
  1

  0
TEXT
  5
26476
  8
0
 10
1.9420920778562489
 20
2.6286745445871862
 30
0.0
 40
0.125
  1
Casing
  0
TEXT
  5
26477
  8
0
 10
1.946696443476986
 20
2.419829615073771
 30
0.0
 40
0.125
  1
TL-2107
  0
TEXT
  5
26478
  8
0
 10
1.931774888224598
 20
2.2093646309900961
 30
0.0
 40
0.125
  1
1-1/8" x 3-7/8"
  0
TEXT
  5
26479
  8
0
 10
1.9437121324265081
 20
1.998899646906422
 30
0.0
 40
0.125
  1
800.66.TAGUE
  0
ENDBLK
  5
2647B
  8
0
  0
BLOCK
  8
0
  2
*U278
 70
     1
 10
0.0
 20
0.0
 30
0.0
  3
*U278
  1

  0
TEXT
  5
2647D
  8
0
 10
2.1221156602351572
 20
2.1104209249928241
 30
0.0
 40
0.125
  1
Casing
  0
TEXT
  5
2647E
  8
0
 10
2.126720025855894
 20
1.9015759954794089
 30
0.0
 40
0.125
  1
TL-2109
  0
TEXT
  5
2647F
  8
0
 10
2.1117984706035071
 20
1.6911110113957351
 30
0.0
 40
0.125
  1
1-7/16" x 4-1/4"
  0
TEXT
  5
26480
  8
0
 10
2.123735714805417
 20
1.480646027312061
 30
0.0
 40
0.125
  1
800.66.TAGUE
  0
ENDBLK
  5
26482
  8
0
  0
BLOCK
  8
0
  2
*U279
 70
     1
 10
0.0
 20
0.0
 30
0.0
  3
*U279
  1

  0
TEXT
  5
26484
  8
0
 10
1.9395148625860421
 20
3.2332732845096799
 30
0.0
 40
0.125
  1
Casing
  0
TEXT
  5
26485
  8
0
 10
1.9484677957374741
 20
3.0244283549962652
 30
0.0
 40
0.125
  1
AB-137
  0
TEXT
  5
26486
  8
0
 10
1.9291976729543909
 20
2.8139633709125902
 30
0.0
 40
0.125
  1
1-9/16" x 5-1/2"
  0
TEXT
  5
26487
  8
0
 10
1.941134917156301
 20
2.6034983868289161
 30
0.0
 40
0.125
  1
800.66.TAGUE
  0
ENDBLK
  5
26489
  8
0
  0
BLOCK
  8
0
  2
*U280
 70
     1
 10
0.0
 20
0.0
 30
0.0
  3
*U280
  1

  0
TEXT
  5
2648B
  8
0
 10
1.8469634001896551
 20
1.8146748757402671
 30
0.0
 40
0.125
  1
Casing
  0
TEXT
  5
2648C
  8
0
 10
1.851567765810392
 20
1.6058299462268519
 30
0.0
 40
0.125
  1
TL-2151
  0
TEXT
  5
2648D
  8
0
 10
1.847389730339724
 20
1.3953649621431781
 30
0.0
 40
0.125
  1
7/8" x 2-15/16"
  0
TEXT
  5
2648E
  8
0
 10
1.848583454759914
 20
1.1848999780595031
 30
0.0
 40
0.125
  1
800.66.TAGUE
  0
ENDBLK
  5
26490
  8
0
  0
BLOCK
  8
0
  2
*U281
 70
     1
 10
0.0
 20
0.0
 30
0.0
  3
*U281
  1

  0
TEXT
  5
26492
  8
0
 10
1.2155109582168719
 20
2.3777075454089678
 30
0.0
 40
0.125
  1
Casing
  0
TEXT
  5
26493
  8
0
 10
1.220115323837609
 20
2.1688626158955531
 30
0.0
 40
0.125
  1
TL-2146
  0
TEXT
  5
26494
  8
0
 10
1.205193768585221
 20
1.9583976318118781
 30
0.0
 40
0.125
  1
15/16" x 3-3/4"
  0
TEXT
  5
26495
  8
0
 10
1.2171310127871311
 20
1.747932647728204
 30
0.0
 40
0.125
  1
800.66.TAGUE
  0
ENDBLK
  5
26497
  8
0
  0
BLOCK
  8
0
  2
*U282
 70
     1
 10
0.0
 20
0.0
 30
0.0
  3
*U282
  1

  0
TEXT
  5
26499
  8
0
 10
1.0490029597574211
 20
2.6121442491900249
 30
0.0
 40
0.125
  1
Casing
  0
TEXT
  5
2649A
  8
0
 10
1.053607325378157
 20
2.4032993196766101
 30
0.0
 40
0.125
  1
TL-2160
  0
TEXT
  5
2649B
  8
0
 10
1.0386857701257699
 20
2.1928343355929361
 30
0.0
 40
0.125
  1
13/16" x 3-3/4"
  0
TEXT
  5
2649C
  8
0
 10
1.05062301432768
 20
1.9823693515092611
 30
0.0
 40
0.125
  1
800.66.TAGUE
  0
ENDBLK
  5
2649E
  8
0
  0
BLOCK
  8
0
  2
*U283
 70
     1
 10
0.0
 20
0.0
 30
0.0
  3
*U283
  1

  0
TEXT
  5
264A0
  8
0
 10
1.424758348422277
 20
2.0506624914647928
 30
0.0
 40
0.125
  1
Casing
  0
TEXT
  5
264A1
  8
0
 10
1.4293627140430141
 20
1.8418175619513779
 30
0.0
 40
0.125
  1
TL-2164
  0
TEXT
  5
264A2
  8
0
 10
1.426122604902496
 20
1.6313525778677029
 30
0.0
 40
0.125
  1
3/4" x 3-1/2"
  0
TEXT
  5
264A3
  8
0
 10
1.4263784029925359
 20
1.4208875937840291
 30
0.0
 40
0.125
  1
800.66.TAGUE
  0
ENDBLK
  5
264A5
  8
0
  0
BLOCK
  8
0
  2
*U284
 70
     1
 10
0.0
 20
0.0
 30
0.0
  3
*U284
  1

  0
TEXT
  5
264A7
  8
0
 10
2.7314568973245961
 20
2.1677132042112972
 30
0.0
 40
0.125
  1
Casing
  0
TEXT
  5
264A8
  8
0
 10
2.736061262945332
 20
1.9572482201276229
 30
0.0
 40
0.125
  1
TL-2161 / Tl-2162
  0
TEXT
  5
264A9
  8
0
 10
2.7211397076929451
 20
1.746783236043949
 30
0.0
 40
0.125
  1
1-9/32" x 3-13/16"
  0
TEXT
  5
264AA
  8
0
 10
2.733076951894855
 20
1.5363182519602741
 30
0.0
 40
0.125
  1
800.66.TAGUE
  0
ENDBLK
  5
264AC
  8
0
  0
BLOCK
  8
0
  2
*U285
 70
     1
 10
0.0
 20
0.0
 30
0.0
  3
*U285
  1

  0
TEXT
  5
264B2
  8
0
 10
1.7775671720797901
 20
1.1296199632941111
 30
0.0
 40
0.125
  1
TL-2162
  0
TEXT
  5
264B3
  8
0
 10
1.7626456168274021
 20
0.9191549792104375
 30
0.0
 40
0.125
  1
1-7/32" x 1-9/32"
  0
ENDBLK
  5
264B5
  8
0
  0
BLOCK
  8
0
  2
*U286
 70
     1
 10
0.0
 20
0.0
 30
0.0
  3
*U286
  1

  0
TEXT
  5
264B7
  8
0
 10
1.1624621155843951
 20
2.649270246500588
 30
0.0
 40
0.125
  1
TL-2161
  0
TEXT
  5
264B8
  8
0
 10
1.147540560332007
 20
2.4396152897020431
 30
0.0
 40
0.125
  1
19/32" x 2-13/32"
  0
ENDBLK
  5
264BA
  8
0
  0
BLOCK
  8
0
  2
*U287
 70
     1
 10
0.0
 20
0.0
 30
0.0
  3
*U287
  1

  0
INSERT
  5
264BC
  8
0
  2
_OPEN30
 10
0.5956433484502101
 20
2.1596052674265129
 30
0.0
 41
0.046875
 42
0.046875
 43
0.046875
 50
233.0048332483891
  0
POLYLINE
  5
264BD
  8
0
 66
     1
 10
0.0
 20
0.0
 30
0.0
  0
VERTEX
  5
264BE
  8
0
 10
0.6238502696018772
 20
2.197043686518986
 30
0.0
  0
VERTEX
  5
264BF
  8
0
 10
1.011849205474334
 20
2.7120260445906288
 30
0.0
  0
VERTEX
  5
264C0
  8
0
 10
1.10405488502505
 20
2.7120260445906288
 30
0.0
  0
SEQEND
  5
264C1
  8
0
  0
ENDBLK
  5
264C3
  8
0
  0
BLOCK
  8
0
  2
*U288
 70
     1
 10
0.0
 20
0.0
 30
0.0
  3
*U288
  1

  0
TEXT
  5
264C5
  8
0
 10
1.105181323344913
 20
2.0947880342686331
 30
0.0
 40
0.125
  1
Casing
  0
TEXT
  5
264C6
  8
0
 10
1.109785688965649
 20
1.885943104755218
 30
0.0
 40
0.125
  1
TL-2168
  0
TEXT
  5
264C7
  8
0
 10
1.105607653494981
 20
1.675478120671543
 30
0.0
 40
0.125
  1
7/8" x 2-3/4"
  0
TEXT
  5
264C8
  8
0
 10
1.106801377915172
 20
1.4650131365878689
 30
0.0
 40
0.125
  1
800.66.TAGUE
  0
ENDBLK
  5
264CA
  8
0
  0
BLOCK
  8
0
  2
*U289
 70
     1
 10
0.0
 20
0.0
 30
0.0
  3
*U289
  1

  0
TEXT
  5
264CC
  8
0
 10
1.384055801306862
 20
2.1394862186629249
 30
0.0
 40
0.125
  1
Casing
  0
TEXT
  5
264CD
  8
0
 10
1.388660166927598
 20
1.9306412891495099
 30
0.0
 40
0.125
  1
TL-2180
  0
TEXT
  5
264CE
  8
0
 10
1.3854200577870801
 20
1.7201763050658361
 30
0.0
 40
0.125
  1
3/4" x 3-1/2"
  0
TEXT
  5
264CF
  8
0
 10
1.3856758558771209
 20
1.5097113209821611
 30
0.0
 40
0.125
  1
800.66.TAGUE
  0
ENDBLK
  5
264D1
  8
0
  0
BLOCK
  8
0
  2
*U290
 70
     1
 10
0.0
 20
0.0
 30
0.0
  3
*U290
  1

  0
TEXT
  5
264D3
  8
0
 10
1.3886551090457471
 20
1.9241695677066151
 30
0.0
 40
0.125
  1
Casing
  0
TEXT
  5
264D4
  8
0
 10
1.3932594746664839
 20
1.715324638193199
 30
0.0
 40
0.125
  1
TL-2192
  0
TEXT
  5
264D5
  8
0
 10
1.378337919414097
 20
1.5048596541095249
 30
0.0
 40
0.125
  1
11/16" x 3"
  0
TEXT
  5
264D6
  8
0
 10
1.3902751636160069
 20
1.2943946700258511
 30
0.0
 40
0.125
  1
800.66.TAGUE
  0
ENDBLK
  5
264D8
  8
0
  0
BLOCK
  8
0
  2
*U291
 70
     1
 10
0.0
 20
0.0
 30
0.0
  3
*U291
  1

  0
TEXT
  5
264DA
  8
0
 10
1.735844248321631
 20
1.632650773737752
 30
0.0
 40
0.125
  1
Casing
  0
TEXT
  5
264DB
  8
0
 10
1.7404486139423681
 20
1.4238058442243371
 30
0.0
 40
0.125
  1
TL-2216
  0
TEXT
  5
264DC
  8
0
 10
1.72552705868998
 20
1.213340860140663
 30
0.0
 40
0.125
  1
1-5/16" x 2-7/8"
  0
TEXT
  5
264DD
  8
0
 10
1.7374643028918899
 20
1.002875876056988
 30
0.0
 40
0.125
  1
800.66.TAGUE
  0
ENDBLK
  5
264DF
  8
0
  0
BLOCK
  8
0
  2
*U292
 70
     1
 10
0.0
 20
0.0
 30
0.0
  3
*U292
  1

  0
TEXT
  5
264E1
  8
0
 10
1.8313353790551661
 20
2.283538324422822
 30
0.0
 40
0.125
  1
Casing
  0
TEXT
  5
264E2
  8
0
 10
1.8359397446759029
 20
2.0746933949094069
 30
0.0
 40
0.125
  1
TL-2217
  0
TEXT
  5
264E3
  8
0
 10
1.8210181894235149
 20
1.864228410825733
 30
0.0
 40
0.125
  1
1" x 3-15/16"
  0
TEXT
  5
264E4
  8
0
 10
1.832955433625425
 20
1.653763426742058
 30
0.0
 40
0.125
  1
800.66.TAGUE
  0
ENDBLK
  5
264E6
  8
0
  0
BLOCK
  8
0
  2
*U293
 70
     1
 10
0.0
 20
0.0
 30
0.0
  3
*U293
  1

  0
TEXT
  5
264E8
  8
0
 10
2.3132503487693481
 20
2.7003342730909181
 30
0.0
 40
0.125
  1
Casing
  0
TEXT
  5
264E9
  8
0
 10
2.3178547143900849
 20
2.491489343577503
 30
0.0
 40
0.125
  1
TL-2228 
  0
TEXT
  5
264EA
  8
0
 10
2.302933159137698
 20
2.281024359493828
 30
0.0
 40
0.125
  1
1-1/4" x 4-3/4"
  0
TEXT
  5
264EB
  8
0
 10
2.3148704033396079
 20
2.0705593754101539
 30
0.0
 40
0.125
  1
800.66.TAGUE
  0
ENDBLK
  5
264ED
  8
0
  0
BLOCK
  8
0
  2
*U294
 70
     1
 10
0.0
 20
0.0
 30
0.0
  3
*U294
  1

  0
TEXT
  5
264EF
  8
0
 10
1.3915095624424549
 20
2.383385039296301
 30
0.0
 40
0.125
  1
Casing
  0
TEXT
  5
264F0
  8
0
 10
1.396113928063192
 20
2.1745401097828858
 30
0.0
 40
0.125
  1
TL-2229
  0
TEXT
  5
264F1
  8
0
 10
1.391935892592524
 20
1.9640751256992119
 30
0.0
 40
0.125
  1
7/8" x 3-3/4"
  0
TEXT
  5
264F2
  8
0
 10
1.3931296170127141
 20
1.753610141615537
 30
0.0
 40
0.125
  1
800.66.TAGUE
  0
ENDBLK
  5
264F4
  8
0
  0
BLOCK
  8
0
  2
*U295
 70
     1
 10
0.0
 20
0.0
 30
0.0
  3
*U295
  1

  0
TEXT
  5
264F6
  8
0
 10
1.87310343834
 20
2.0357620146510431
 30
0.0
 40
0.125
  1
Casing
  0
TEXT
  5
264F7
  8
0
 10
1.8777078039607371
 20
1.826917085137628
 30
0.0
 40
0.125
  1
TL-2233
  0
TEXT
  5
264F8
  8
0
 10
1.8627862487083491
 20
1.616452101053953
 30
0.0
 40
0.125
  1
13/16" x 3-3/16"
  0
TEXT
  5
264F9
  8
0
 10
1.874723492910259
 20
1.4059871169702789
 30
0.0
 40
0.125
  1
800.66.TAGUE
  0
ENDBLK
  5
264FB
  8
0
  0
BLOCK
  8
0
  2
*U296
 70
     1
 10
0.0
 20
0.0
 30
0.0
  3
*U296
  1

  0
TEXT
  5
264FD
  8
0
 10
1.7459153653937609
 20
1.9448879538140471
 30
0.0
 40
0.125
  1
Casing
  0
TEXT
  5
264FE
  8
0
 10
1.7505197310144971
 20
1.736043024300632
 30
0.0
 40
0.125
  1
TL-2250
  0
TEXT
  5
264FF
  8
0
 10
1.73559817576211
 20
1.5255780402169581
 30
0.0
 40
0.125
  1
1" x 3-1/2"
  0
TEXT
  5
26500
  8
0
 10
1.7475354199640201
 20
1.3151130561332831
 30
0.0
 40
0.125
  1
800.66.TAGUE
  0
ENDBLK
  5
26502
  8
0
  0
BLOCK
  8
0
  2
*U297
 70
     1
 10
0.0
 20
0.0
 30
0.0
  3
*U297
  1

  0
TEXT
  5
26504
  8
0
 10
1.494383524796238
 20
1.9408940816920379
 30
0.0
 40
0.125
  1
Casing
  0
TEXT
  5
26505
  8
0
 10
1.4989878904169751
 20
1.7320491521786221
 30
0.0
 40
0.125
  1
TL-2251
  0
TEXT
  5
26506
  8
0
 10
1.484066335164588
 20
1.521584168094948
 30
0.0
 40
0.125
  1
11/16" x 2-13/16"
  0
TEXT
  5
26507
  8
0
 10
1.4960035793664981
 20
1.3111191840112739
 30
0.0
 40
0.125
  1
800.66.TAGUE
  0
ENDBLK
  5
26509
  8
0
  0
BLOCK
  8
0
  2
*U298
 70
     1
 10
0.0
 20
0.0
 30
0.0
  3
*U298
  1

  0
TEXT
  5
2650B
  8
0
 10
2.2056141602761028
 20
2.266239753984352
 30
0.0
 40
0.125
  1
Casing
  0
TEXT
  5
2650C
  8
0
 10
2.2102185258968401
 20
2.0573948244709368
 30
0.0
 40
0.125
  1
TL-2252
  0
TEXT
  5
2650D
  8
0
 10
2.1952969706444532
 20
1.8469298403872629
 30
0.0
 40
0.125
  1
1-1/2" x 3-1/2"
  0
TEXT
  5
2650E
  8
0
 10
2.2072342148463631
 20
1.636464856303588
 30
0.0
 40
0.125
  1
800.66.TAGUE
  0
ENDBLK
  5
26510
  8
0
  0
BLOCK
  8
0
  2
*U299
 70
     1
 10
0.0
 20
0.0
 30
0.0
  3
*U299
  1

  0
TEXT
  5
26512
  8
0
 10
1.4486104250858931
 20
2.7966822092987669
 30
0.0
 40
0.125
  1
Casing
  0
TEXT
  5
26513
  8
0
 10
1.45321479070663
 20
2.5878372797853522
 30
0.0
 40
0.125
  1
TL-2262
  0
TEXT
  5
26514
  8
0
 10
1.449974681566111
 20
2.3773722957016772
 30
0.0
 40
0.125
  1
3/4" x 4-9/16"
  0
TEXT
  5
26515
  8
0
 10
1.450230479656152
 20
2.1669073116180031
 30
0.0
 40
0.125
  1
800.66.TAGUE
  0
ENDBLK
  5
26517
  8
0
  0
BLOCK
  8
0
  2
*U300
 70
     1
 10
0.0
 20
0.0
 30
0.0
  3
*U300
  1

  0
TEXT
  5
26519
  8
0
 10
1.2700763979575289
 20
2.7966822092987669
 30
0.0
 40
0.125
  1
Casing
  0
TEXT
  5
2651A
  8
0
 10
1.2746807635782651
 20
2.5878372797853522
 30
0.0
 40
0.125
  1
TL-2263
  0
TEXT
  5
2651B
  8
0
 10
1.271440654437747
 20
2.3773722957016772
 30
0.0
 40
0.125
  1
3/4" x 5-3/8"
  0
TEXT
  5
2651C
  8
0
 10
1.2716964525277881
 20
2.1669073116180031
 30
0.0
 40
0.125
  1
800.66.TAGUE
  0
ENDBLK
  5
2651E
  8
0
  0
BLOCK
  8
0
  2
*U301
 70
     1
 10
0.0
 20
0.0
 30
0.0
  3
*U301
  1

  0
TEXT
  5
26520
  8
0
 10
1.35392311646459
 20
0.8401630564883522
 30
0.0
 40
0.125
  1
Casing
  0
TEXT
  5
26521
  8
0
 10
1.358527482085327
 20
0.6313181269749371
 30
0.0
 40
0.125
  1
TL-2264
  0
TEXT
  5
26522
  8
0
 10
1.3552873729448081
 20
0.4208531428912626
 30
0.0
 40
0.125
  1
3/4" x 2-1/2"
  0
TEXT
  5
26523
  8
0
 10
1.3555431710348489
 20
0.2103881588075882
 30
0.0
 40
0.125
  1
800.66.TAGUE
  0
ENDBLK
  5
26525
  8
0
  0
BLOCK
  8
0
  2
*U302
 70
     1
 10
0.0
 20
0.0
 30
0.0
  3
*U302
  1

  0
TEXT
  5
26527
  8
0
 10
1.6100124769691651
 20
3.5240080799240028
 30
0.0
 40
0.125
  1
Casing
  0
TEXT
  5
26528
  8
0
 10
1.614616842589901
 20
3.3151631504105881
 30
0.0
 40
0.125
  1
TL-2267
  0
TEXT
  5
26529
  8
0
 10
1.6114619994793971
 20
3.1046981663269131
 30
0.0
 40
0.125
  1
5/8" x 5-9/16"
  0
TEXT
  5
2652A
  8
0
 10
1.611632531539424
 20
2.894233182243239
 30
0.0
 40
0.125
  1
800.66.TAGUE
  0
ENDBLK
  5
2652C
  8
0
  0
BLOCK
  8
0
  2
*U303
 70
     1
 10
0.0
 20
0.0
 30
0.0
  3
*U303
  1

  0
TEXT
  5
2652E
  8
0
 10
1.7300385356994969
 20
3.5240080799240028
 30
0.0
 40
0.125
  1
Casing
  0
TEXT
  5
2652F
  8
0
 10
1.7346429013202329
 20
3.3151631504105881
 30
0.0
 40
0.125
  1
TL-2268
  0
TEXT
  5
26530
  8
0
 10
1.731488058209729
 20
3.1046981663269131
 30
0.0
 40
0.125
  1
5/8" x 3-3/4"
  0
TEXT
  5
26531
  8
0
 10
1.7316585902697561
 20
2.894233182243239
 30
0.0
 40
0.125
  1
800.66.TAGUE
  0
ENDBLK
  5
26533
  8
0
  0
BLOCK
  8
0
  2
*U304
 70
     1
 10
0.0
 20
0.0
 30
0.0
  3
*U304
  1

  0
TEXT
  5
26535
  8
0
 10
1.702429561101529
 20
3.0113749150933851
 30
0.0
 40
0.125
  1
Casing
  0
TEXT
  5
26536
  8
0
 10
1.7070339267222661
 20
2.8025299855799699
 30
0.0
 40
0.125
  1
TL-2273
  0
TEXT
  5
26537
  8
0
 10
1.700553708441229
 20
2.5920650014962958
 30
0.0
 40
0.125
  1
(2 Piece)
  0
TEXT
  5
26538
  8
0
 10
1.692112371469878
 20
2.3816000174126222
 30
0.0
 40
0.125
  1
15/16" x 4-1/4"
  0
TEXT
  5
26539
  8
0
 10
1.7040496156717879
 20
2.1711350333289472
 30
0.0
 40
0.125
  1
800.66.TAGUE
  0
ENDBLK
  5
2653B
  8
0
  0
BLOCK
  8
0
  2
*U305
 70
     1
 10
0.0
 20
0.0
 30
0.0
  3
*U305
  1

  0
TEXT
  5
2653D
  8
0
 10
1.814658211065681
 20
2.4638364444534928
 30
0.0
 40
0.125
  1
Casing
  0
TEXT
  5
2653E
  8
0
 10
1.8192625766864181
 20
2.2549915149400781
 30
0.0
 40
0.125
  1
TL-2274
  0
TEXT
  5
2653F
  8
0
 10
1.8043410214340301
 20
2.0445265308564031
 30
0.0
 40
0.125
  1
13/16" x 3-3/4"
  0
TEXT
  5
26540
  8
0
 10
1.81627826563594
 20
1.834061546772729
 30
0.0
 40
0.125
  1
800.66.TAGUE
  0
ENDBLK
  5
26542
  8
0
  0
BLOCK
  8
0
  2
*U306
 70
     1
 10
0.0
 20
0.0
 30
0.0
  3
*U306
  1

  0
TEXT
  5
26544
  8
0
 10
2.0187695351766921
 20
2.0591011086625191
 30
0.0
 40
0.125
  1
Casing
  0
TEXT
  5
26545
  8
0
 10
2.023373900797429
 20
1.850256179149103
 30
0.0
 40
0.125
  1
TL-2288
  0
TEXT
  5
26546
  8
0
 10
2.0201337916569111
 20
1.6397911950654289
 30
0.0
 40
0.125
  1
3/4" x 3-3/4"
  0
TEXT
  5
26547
  8
0
 10
2.020389589746951
 20
1.4293262109817551
 30
0.0
 40
0.125
  1
800.66.TAGUE
  0
ENDBLK
  5
26549
  8
0
  0
BLOCK
  8
0
  2
*U307
 70
     1
 10
0.0
 20
0.0
 30
0.0
  3
*U307
  1

  0
TEXT
  5
2654B
  8
0
 10
2.1323396999586959
 20
2.058842744993187
 30
0.0
 40
0.125
  1
Casing
  0
TEXT
  5
2654C
  8
0
 10
2.1369440655794332
 20
1.849997815479772
 30
0.0
 40
0.125
  1
TL-2292
  0
TEXT
  5
2654D
  8
0
 10
2.1220225103270458
 20
1.587963936443846
 30
0.0
 40
0.125
  1
1-
  0
TEXT
  5
2654E
  8
0
 10
2.272218622196077
 20
1.6773142092951421
 30
0.0
 40
0.0875
  1
5
  0
LINE
  5
2654F
  8
0
 10
2.2997023529557881
 20
1.6056384054198549
 30
0.0
 11
2.4000782293172209
 21
1.748990013170429
 31
0.0
  0
TEXT
  5
26550
  8
0
 10
2.351163597184708
 20
1.558797269777179
 30
0.0
 40
0.0875
  1
16
  0
TEXT
  5
26551
  8
0
 10
2.4873675535285011
 20
1.587963936443846
 30
0.0
 40
0.125
  1
" x 4-
  0
TEXT
  5
26552
  8
0
 10
2.8756605276076281
 20
1.6773142092951421
 30
0.0
 40
0.0875
  1
15
  0
LINE
  5
26553
  8
0
 10
2.9711268640972159
 20
1.6056384054198549
 30
0.0
 11
3.0715027404586488
 21
1.748990013170429
 31
0.0
  0
TEXT
  5
26554
  8
0
 10
3.0225881083261359
 20
1.558797269777179
 30
0.0
 40
0.0875
  1
16
  0
TEXT
  5
26555
  8
0
 10
3.158792064669929
 20
1.587963936443846
 30
0.0
 40
0.125
  1
"
  0
TEXT
  5
26556
  8
0
 10
2.1339597545289561
 20
1.4191656190268389
 30
0.0
 40
0.125
  1
800.66.TAGUE
  0
ENDBLK
  5
26558
  8
0
  0
BLOCK
  8
0
  2
*U308
 70
     1
 10
0.0
 20
0.0
 30
0.0
  3
*U308
  1

  0
TEXT
  5
2655A
  8
0
 10
1.618263192279106
 20
1.1598393046174511
 30
0.0
 40
0.125
  1
Casing
  0
TEXT
  5
2655B
  8
0
 10
1.622867557899843
 20
0.950994375104036
 30
0.0
 40
0.125
  1
TL-2297
  0
TEXT
  5
2655C
  8
0
 10
1.621886998554686
 20
0.7782510826983971
 30
0.0
 40
0.0875
  1
5
  0
LINE
  5
2655D
  8
0
 10
1.626960327340498
 20
0.7636677493650637
 30
0.0
 11
1.6849753341617799
 21
0.7636677493650637
 31
0.0
  0
TEXT
  5
2655E
  8
0
 10
1.622185429659734
 20
0.6597341431804342
 30
0.0
 40
0.0875
  1
8
  0
TEXT
  5
2655F
  8
0
 10
1.6908245838207161
 20
0.6597341431804342
 30
0.0
 40
0.125
  1
"x 2-
  0
TEXT
  5
26560
  8
0
 10
2.0389572577634172
 20
0.7782510826983971
 30
0.0
 40
0.0875
  1
3
  0
LINE
  5
26561
  8
0
 10
2.0439112141072102
 20
0.7636677493650637
 30
0.0
 11
2.101568103602435
 21
0.7636677493650637
 31
0.0
  0
TEXT
  5
26562
  8
0
 10
2.0389572577634172
 20
0.6597341431804342
 30
0.0
 40
0.0875
  1
8
  0
TEXT
  5
26563
  8
0
 10
2.1074173532613711
 20
0.6597341431804342
 30
0.0
 40
0.125
  1
"
  0
TEXT
  5
26564
  8
0
 10
1.6198832468493649
 20
0.4909358257634266
 30
0.0
 40
0.125
  1
800.66.TAGUE
  0
ENDBLK
  5
26566
  8
0
  0
BLOCK
  8
0
  2
*U309
 70
     1
 10
0.0
 20
0.0
 30
0.0
  3
*U309
  1

  0
TEXT
  5
26568
  8
0
 10
1.892040805761984
 20
1.3272283447324911
 30
0.0
 40
0.125
  1
Casing
  0
TEXT
  5
26569
  8
0
 10
1.8966451713827199
 20
1.1183834152190759
 30
0.0
 40
0.125
  1
TL-2298
  0
TEXT
  5
2656A
  8
0
 10
1.8956049258165539
 20
0.9456401228134371
 30
0.0
 40
0.0875
  1
3
  0
LINE
  5
2656B
  8
0
 10
1.9224321081451601
 20
0.8739643189381503
 30
0.0
 11
2.0228079845065929
 21
1.0173159266887231
 31
0.0
  0
TEXT
  5
2656C
  8
0
 10
1.985651537912962
 20
0.8289734561467703
 30
0.0
 40
0.0875
  1
4
  0
TEXT
  5
2656D
  8
0
 10
2.0535744574218291
 20
0.8581401228134371
 30
0.0
 40
0.125
  1
" x 3"
  0
TEXT
  5
2656E
  8
0
 10
1.8936608603322429
 20
0.6893418053964294
 30
0.0
 40
0.125
  1
800.66.TAGUE
  0
ENDBLK
  5
26570
  8
0
  0
BLOCK
  8
0
  2
*U310
 70
     1
 10
0.0
 20
0.0
 30
0.0
  3
*U310
  1

  0
TEXT
  5
26572
  8
0
 10
2.2835738038492979
 20
1.7544184293141301
 30
0.0
 40
0.125
  1
Casing
  0
TEXT
  5
26573
  8
0
 10
2.2881781694700352
 20
1.5455734998007149
 30
0.0
 40
0.125
  1
TL-2301
  0
TEXT
  5
26574
  8
0
 10
2.2732566142176469
 20
1.3351085157170399
 30
0.0
 40
0.125
  1
1-1/2" x 5"
  0
TEXT
  5
26575
  8
0
 10
2.2851938584195568
 20
1.1246435316333661
 30
0.0
 40
0.125
  1
800.66.TAGUE
  0
ENDBLK
  5
26577
  8
0
  0
BLOCK
  8
0
  2
*U311
 70
     1
 10
0.0
 20
0.0
 30
0.0
  3
*U311
  1

  0
TEXT
  5
26579
  8
0
 10
1.6582458032537251
 20
2.0798603824239459
 30
0.0
 40
0.125
  1
Casing
  0
TEXT
  5
2657A
  8
0
 10
1.662850168874461
 20
1.871015452910531
 30
0.0
 40
0.125
  1
TL-2303
  0
TEXT
  5
2657B
  8
0
 10
1.6596100597339429
 20
1.6605504688268571
 30
0.0
 40
0.125
  1
3/4" x 3-1/2"
  0
TEXT
  5
2657C
  8
0
 10
1.659865857823984
 20
1.4500854847431821
 30
0.0
 40
0.125
  1
800.66.TAGUE
  0
ENDBLK
  5
2657E
  8
0
  0
BLOCK
  8
0
  2
*U312
 70
     1
 10
0.0
 20
0.0
 30
0.0
  3
*U312
  1

  0
TEXT
  5
26580
  8
0
 10
1.431203172034974
 20
1.5392983848263539
 30
0.0
 40
0.125
  1
Casing
  0
TEXT
  5
26581
  8
0
 10
1.43580753765571
 20
1.330453455312939
 30
0.0
 40
0.125
  1
TL-2306
  0
TEXT
  5
26582
  8
0
 10
1.4325674285151919
 20
1.119988471229264
 30
0.0
 40
0.125
  1
3/4" x 2-3/4"
  0
TEXT
  5
26583
  8
0
 10
1.432823226605233
 20
0.9095234871455904
 30
0.0
 40
0.125
  1
800.66.TAGUE
  0
ENDBLK
  5
26585
  8
0
  0
BLOCK
  8
0
  2
*U313
 70
     1
 10
0.0
 20
0.0
 30
0.0
  3
*U313
  1

  0
TEXT
  5
26587
  8
0
 10
-381.47939082744119
 20
844.30700017349056
 30
0.0
 40
0.125
  1
Casing
  0
TEXT
  5
26588
  8
0
 10
-381.47478646182037
 20
844.0981552439772
 30
0.0
 40
0.125
  1
TL-2306
  0
TEXT
  5
26589
  8
0
 10
-381.47802657096088
 20
843.88769025989336
 30
0.0
 40
0.125
  1
3/4" x 2-3/4"
  0
TEXT
  5
2658A
  8
0
 10
-381.47777077287088
 20
843.67722527580975
 30
0.0
 40
0.125
  1
800.66.TAGUE
  0
ENDBLK
  5
2658C
  8
0
  0
ENDSEC
  0
SECTION
  2
ENTITIES
  0
LINE
  5
26098
  8
0
 10
-382.91059381869451
 20
845.30542151318298
 30
0.0
 11
-382.83740611866818
 21
845.30542151318298
 31
0.0
  0
LINE
  5
26099
  8
0
 10
-382.46808194397198
 20
845.08017863937175
 30
0.0
 11
-382.46808194397198
 21
845.05565915016848
 31
0.0
  0
ARC
  5
2609A
  8
0
 10
-382.26342180244541
 20
845.35780567340134
 30
0.0
 40
0.3649360149826382
 50
235.88809573042721
 51
264.81938353554369
  0
LINE
  5
2609B
  8
0
 10
-382.29637394108119
 20
844.99436042086575
 30
0.0
 11
-382.29637394108119
 21
844.83191878443665
 31
0.0
  0
ARC
  5
2609C
  8
0
 10
-382.29028274961462
 20
844.69778737791125
 30
0.0
 40
0.134269642249973
 50
15.009204084488349
 51
92.600136383711174
  0
LINE
  5
2609D
  8
0
 10
-382.16059381869451
 20
844.73255975238806
 30
0.0
 11
-382.16059381869451
 21
844.32201273529472
 31
0.0
  0
LINE
  5
2609E
  8
0
 10
-382.16059381869451
 20
844.04083026019714
 30
0.0
 11
-382.16059381869451
 21
843.51724061801815
 31
0.0
  0
LINE
  5
2609F
  8
0
 10
-382.16059381869451
 20
843.23605814292046
 30
0.0
 11
-382.16059381869451
 21
842.76770129191425
 31
0.0
  0
LINE
  5
260A0
  8
0
 10
-382.91059381869451
 20
845.30542151318298
 30
0.0
 11
-382.91059381869451
 21
842.76770129191402
 31
0.0
  0
LINE
  5
260A1
  8
0
 10
-382.16059381869451
 20
842.76770129191425
 30
0.0
 11
-382.91059381869451
 21
842.76770129191402
 31
0.0
  0
ARC
  5
260A2
  8
0
 10
-382.6001721711126
 20
845.27900062306867
 30
0.0
 40
0.2387006688453911
 50
303.59864389019089
 51
173.64512164304301
  0
ARC
  5
260A3
  8
0
 10
-382.32197600477451
 20
844.34930341670577
 30
0.0
 40
0.1636734287409212
 50
292.40309236060909
 51
350.40175072612442
  0
LINE
  5
260A4
  8
0
 10
-382.25959674255699
 20
844.19798316386084
 30
0.0
 11
-382.25959674255699
 21
844.16485983163136
 31
0.0
  0
ARC
  5
260A5
  8
0
 10
-382.32197600477451
 20
844.01353957878655
 30
0.0
 40
0.1636734287409212
 50
9.5982492736576877
 51
67.596907639390921
  0
ARC
  5
260A6
  8
0
 10
-382.32197600477451
 20
843.54453129942931
 30
0.0
 40
0.1636734287409212
 50
292.40309236060909
 51
350.40175072612442
  0
LINE
  5
260A7
  8
0
 10
-382.25959674255699
 20
843.39321104658427
 30
0.0
 11
-382.25959674255699
 21
843.36008771435502
 31
0.0
  0
ARC
  5
260A8
  8
0
 10
-382.32197600477451
 20
843.20876746151021
 30
0.0
 40
0.1636734287409212
 50
9.5982492736576877
 51
67.596907639390921
  0
INSERT
  5
260A9
  8
0
  2
*U313
 10
0.0
 20
0.0
 30
0.0
  0
VIEWPORT
  5
BADA
 67
     1
  8
0
 10
5.249999665167536
 20
4.0168608648543138
 30
0.0
 40
16.023543186357209
 41
8.0117715931786062
 68
     1
 69
     1
1001
ACAD
1000
MVIEW
1002
{
1070
    16
1010
0.0
1020
0.0
1030
0.0
1010
0.0
1020
0.0
1030
1.0
1040
0.0
1040
8.0117715931786062
1040
5.249999665167536
1040
4.0168608648543138
1040
50.0
1040
0.0
1040
0.0
1070
     0
1070
   100
1070
     1
1070
     1
1070
     0
1070
     0
1070
     0
1070
     0
1040
0.0
1040
0.0
1040
0.0
1040
0.5
1040
0.5
1040
0.5
1040
0.5
1070
     0
1002
{
1002
}
1002
}
  0
VIEWPORT
  5
BADD
 67
     1
  8
0
 10
5.2499996294871929
 20
4.0166741807634683
 30
0.0
 40
10.44245679893058
 41
7.8813805131999892
 68
     2
 69
     2
1001
ACAD
1000
MVIEW
1002
{
1070
    16
1010
0.0
1020
0.0
1030
0.0
1010
0.0
1020
0.0
1030
1.0
1040
0.0
1040
7.8813805595704487
1040
-381.83667212757211
1040
843.94897006645783
1040
50.0
1040
0.0
1040
0.0
1070
     0
1070
   100
1070
     1
1070
     2
1070
     0
1070
     0
1070
     0
1070
     0
1040
0.0
1040
0.0
1040
0.0
1040
0.5
1040
0.5
1040
0.5
1040
0.5
1070
     0
1002
{
1002
}
1002
}
  0
ENDSEC
  0
EOF
