  0
SECTION
  2
HEADER
  9
$ACADVER
  1
AC1009
  9
$INSBASE
 10
0.0
 20
0.0
 30
0.0
  9
$EXTMIN
 10
-389.93991053657271
 20
834.65667183693085
 30
0.0
  9
$EXTMAX
 10
-383.9430257495203
 20
843.05086629103664
 30
0.0
  9
$LIMMIN
 10
0.0
 20
0.0
  9
$LIMMAX
 10
1500.0
 20
1500.0
  9
$ORTHOMODE
 70
     0
  9
$REGENMODE
 70
     1
  9
$FILLMODE
 70
     1
  9
$QTEXTMODE
 70
     0
  9
$MIRRTEXT
 70
     1
  9
$DRAGMODE
 70
     2
  9
$LTSCALE
 40
1.0
  9
$OSMODE
 70
    37
  9
$ATTMODE
 70
     1
  9
$TEXTSIZE
 40
1.5
  9
$TRACEWID
 40
0.05
  9
$TEXTSTYLE
  7
STANDARD
  9
$CLAYER
  8
0
  9
$CELTYPE
  6
BYLAYER
  9
$CECOLOR
 62
   256
  9
$DIMSCALE
 40
1.0
  9
$DIMASZ
 40
0.75
  9
$DIMEXO
 40
1.5
  9
$DIMDLI
 40
2.0
  9
$DIMRND
 40
0.0
  9
$DIMDLE
 40
0.0
  9
$DIMEXE
 40
1.0
  9
$DIMTP
 40
0.0
  9
$DIMTM
 40
0.0
  9
$DIMTXT
 40
1.5
  9
$DIMCEN
 40
2.0
  9
$DIMTSZ
 40
0.0
  9
$DIMTOL
 70
     0
  9
$DIMLIM
 70
     0
  9
$DIMTIH
 70
     0
  9
$DIMTOH
 70
     0
  9
$DIMSE1
 70
     0
  9
$DIMSE2
 70
     0
  9
$DIMTAD
 70
     1
  9
$DIMZIN
 70
     0
  9
$DIMBLK
  1
ARCHTICK
  9
$DIMASO
 70
     1
  9
$DIMSHO
 70
     1
  9
$DIMPOST
  1
"
  9
$DIMAPOST
  1

  9
$DIMALT
 70
     0
  9
$DIMALTD
 70
     2
  9
$DIMALTF
 40
25.399999999999999
  9
$DIMLFAC
 40
1.0
  9
$DIMTOFL
 70
     0
  9
$DIMTVP
 40
0.0
  9
$DIMTIX
 70
     1
  9
$DIMSOXD
 70
     0
  9
$DIMSAH
 70
     0
  9
$DIMBLK1
  1

  9
$DIMBLK2
  1

  9
$DIMSTYLE
  2
THREE_QUARTER_INCH_SCALE
  9
$DIMCLRD
 70
     0
  9
$DIMCLRE
 70
     0
  9
$DIMCLRT
 70
     0
  9
$DIMTFAC
 40
1.0
  9
$DIMGAP
 40
1.0
  9
$LUNITS
 70
     2
  9
$LUPREC
 70
     4
  9
$SKETCHINC
 40
0.1
  9
$FILLETRAD
 40
0.0
  9
$AUNITS
 70
     0
  9
$AUPREC
 70
     0
  9
$MENU
  1
.
  9
$ELEVATION
 40
0.0
  9
$PELEVATION
 40
0.0
  9
$THICKNESS
 40
0.0
  9
$LIMCHECK
 70
     0
  9
$BLIPMODE
 70
     0
  9
$CHAMFERA
 40
0.5
  9
$CHAMFERB
 40
0.5
  9
$SKPOLY
 70
     0
  9
$TDCREATE
 40
2452089.395738773
  9
$TDUPDATE
 40
2453612.346952755
  9
$TDINDWG
 40
1.0283216435
  9
$TDUSRTIMER
 40
1.0283212847000001
  9
$USRTIMER
 70
     1
  9
$ANGBASE
 50
0.0
  9
$ANGDIR
 70
     0
  9
$PDMODE
 70
     0
  9
$PDSIZE
 40
10.0
  9
$PLINEWID
 40
0.0
  9
$COORDS
 70
     1
  9
$SPLFRAME
 70
     0
  9
$SPLINETYPE
 70
     6
  9
$SPLINESEGS
 70
     8
  9
$ATTDIA
 70
     0
  9
$ATTREQ
 70
     1
  9
$HANDLING
 70
     1
  9
$HANDSEED
  5
10234
  9
$SURFTAB1
 70
     6
  9
$SURFTAB2
 70
     6
  9
$SURFTYPE
 70
     6
  9
$SURFU
 70
     6
  9
$SURFV
 70
     6
  9
$UCSNAME
  2

  9
$UCSORG
 10
0.0
 20
0.0
 30
0.0
  9
$UCSXDIR
 10
1.0
 20
0.0
 30
0.0
  9
$UCSYDIR
 10
0.0
 20
1.0
 30
0.0
  9
$PUCSNAME
  2

  9
$PUCSORG
 10
0.0
 20
0.0
 30
0.0
  9
$PUCSXDIR
 10
1.0
 20
0.0
 30
0.0
  9
$PUCSYDIR
 10
0.0
 20
1.0
 30
0.0
  9
$USERI1
 70
     0
  9
$USERI2
 70
     0
  9
$USERI3
 70
     0
  9
$USERI4
 70
     0
  9
$USERI5
 70
     0
  9
$USERR1
 40
0.0
  9
$USERR2
 40
0.0
  9
$USERR3
 40
0.0
  9
$USERR4
 40
0.0
  9
$USERR5
 40
0.0
  9
$WORLDVIEW
 70
     1
  9
$SHADEDGE
 70
     3
  9
$SHADEDIF
 70
    70
  9
$TILEMODE
 70
     0
  9
$MAXACTVP
 70
    64
  9
$PLIMCHECK
 70
     0
  9
$PEXTMIN
 10
0.0282895744820628
 20
0.0759353784799721
 30
-0.0015258207003583
  9
$PEXTMAX
 10
10.47170975585299
 20
7.9577863512286546
 30
0.0000000349246037
  9
$PLIMMIN
 10
-0.1682389550263349
 20
-0.2033427855578579
  9
$PLIMMAX
 10
10.754640548407011
 20
8.2370640492290015
  9
$UNITMODE
 70
     0
  9
$VISRETAIN
 70
     1
  9
$PLINEGEN
 70
     0
  9
$PSLTSCALE
 70
     1
  0
ENDSEC
  0
SECTION
  2
TABLES
  0
TABLE
  2
VPORT
 70
     1
  0
VPORT
  2
*ACTIVE
 70
     0
 10
0.0
 20
0.0
 11
1.0
 21
1.0
 12
-386.52380251144001
 22
838.09204166179234
 13
0.0
 23
0.0
 14
0.5
 24
0.5
 15
0.5
 25
0.5
 16
0.0
 26
0.0
 36
1.0
 17
0.0
 27
0.0
 37
0.0
 40
3.930952126162941
 41
2.0226628895184122
 42
50.0
 43
0.0
 44
0.0
 50
0.0
 51
0.0
 71
     0
 72
   100
 73
     1
 74
     2
 75
     0
 76
     0
 77
     0
 78
     0
  0
ENDTAB
  0
TABLE
  2
LTYPE
 70
     1
  0
LTYPE
  2
CONTINUOUS
 70
     0
  3
Solid line
 72
    65
 73
     0
 40
0.0
  0
ENDTAB
  0
TABLE
  2
LAYER
 70
    10
  0
LAYER
  2
0
 70
     0
 62
     7
  6
CONTINUOUS
  0
LAYER
  2
DEFPOINTS
 70
     0
 62
     7
  6
CONTINUOUS
  0
LAYER
  2
FRAME_200
 70
     0
 62
     8
  6
CONTINUOUS
  0
LAYER
  2
FRAME_070
 70
     0
 62
     5
  6
CONTINUOUS
  0
LAYER
  2
FRAME_050
 70
     0
 62
     6
  6
CONTINUOUS
  0
LAYER
  2
TITLE_BLOCK
 70
     0
 62
     7
  6
CONTINUOUS
  0
LAYER
  2
FRAME_025
 70
     0
 62
     7
  6
CONTINUOUS
  0
LAYER
  2
VIEWPORT
 70
     0
 62
     7
  6
CONTINUOUS
  0
LAYER
  2
PROF
 70
     0
 62
     7
  6
CONTINUOUS
  0
LAYER
  2
PROFILE
 70
     0
 62
     7
  6
CONTINUOUS
  0
ENDTAB
  0
TABLE
  2
STYLE
 70
     2
  0
STYLE
  2
STANDARD
 70
     0
 40
0.0
 41
1.0
 50
0.0
 71
     0
 42
1.5
  3
txt
  4

  0
STYLE
  2
ISO_PROPORTIONAL
 70
     0
 40
0.0
 41
1.0
 50
0.0
 71
     0
 42
2.5
  3
isocp.shx
  4

  0
ENDTAB
  0
TABLE
  2
VIEW
 70
     0
  0
ENDTAB
  0
TABLE
  2
UCS
 70
     0
  0
ENDTAB
  0
TABLE
  2
APPID
 70
     6
  0
APPID
  2
ACAD
 70
     0
  0
APPID
  2
DCO15
 70
     0
  0
APPID
  2
ACAD_EXEMPT_FROM_CAD_STANDARDS
 70
     0
  0
APPID
  2
ACAD_PSEXT
 70
     0
  0
APPID
  2
CONTENTBLOCKDESCRIPTION
 70
     0
  0
APPID
  2
CONTENTBLOCKICON
 70
     0
  0
ENDTAB
  0
TABLE
  2
DIMSTYLE
 70
    10
  0
DIMSTYLE
  2
FULL_SCALE
 70
     0
  3
"
  4

  5

  6

  7

 40
1.0
 41
0.046875
 42
0.09375
 43
0.125
 44
0.0625
 45
0.0
 46
0.0
 47
0.0
 48
0.0
140
0.125
141
0.125
142
0.0
143
25.399999999999999
144
1.0
145
0.0
146
1.0
147
0.0625
 71
     0
 72
     0
 73
     0
 74
     0
 75
     0
 76
     0
 77
     1
 78
     0
170
     0
171
     2
172
     0
173
     0
174
     1
175
     0
176
     0
177
     0
178
     0
  0
DIMSTYLE
  2
HALF_SCALE
 70
     0
  3
"
  4

  5

  6

  7

 40
1.0
 41
0.09375
 42
0.1875
 43
0.25
 44
0.125
 45
0.0
 46
0.0
 47
0.0
 48
0.0
140
0.25
141
0.25
142
0.0
143
25.399999999999999
144
1.0
145
0.0
146
1.0
147
0.125
 71
     0
 72
     0
 73
     0
 74
     0
 75
     0
 76
     0
 77
     1
 78
     0
170
     0
171
     2
172
     0
173
     0
174
     1
175
     0
176
     0
177
     0
178
     0
  0
DIMSTYLE
  2
INCH_SCALE
 70
     0
  3
"
  4

  5

  6

  7

 40
1.0
 41
0.5625
 42
1.125
 43
1.5
 44
0.75
 45
0.0
 46
0.0
 47
0.0
 48
0.0
140
1.125
141
1.5
142
0.0
143
25.399999999999999
144
1.0
145
0.0
146
1.0
147
0.75
 71
     0
 72
     0
 73
     0
 74
     0
 75
     0
 76
     0
 77
     1
 78
     0
170
     0
171
     2
172
     0
173
     0
174
     1
175
     0
176
     0
177
     0
178
     0
  0
DIMSTYLE
  2
THREE_QUARTER_INCH_SCALE
 70
     0
  3
"
  4

  5

  6

  7

 40
1.0
 41
0.75
 42
1.5
 43
2.0
 44
1.0
 45
0.0
 46
0.0
 47
0.0
 48
0.0
140
1.5
141
2.0
142
0.0
143
25.399999999999999
144
1.0
145
0.0
146
1.0
147
1.0
 71
     0
 72
     0
 73
     0
 74
     0
 75
     0
 76
     0
 77
     1
 78
     0
170
     0
171
     2
172
     0
173
     0
174
     1
175
     0
176
     0
177
     0
178
     0
  0
DIMSTYLE
  2
ZHALF_INCH_SCALE
 70
     0
  3
"
  4

  5

  6

  7

 40
1.0
 41
1.125
 42
2.25
 43
3.0
 44
1.5
 45
0.0
 46
0.0
 47
0.0
 48
0.0
140
2.25
141
3.0
142
0.0
143
25.399999999999999
144
1.0
145
0.0
146
1.0
147
1.5
 71
     0
 72
     0
 73
     0
 74
     0
 75
     0
 76
     0
 77
     1
 78
     0
170
     0
171
     2
172
     0
173
     0
174
     1
175
     0
176
     0
177
     0
178
     0
  0
DIMSTYLE
  2
FULL_SCALE0
 70
     0
  3
"
  4

  5
ARCHTICK
  6

  7

 40
1.0
 41
0.046875
 42
0.09375
 43
0.125
 44
0.0625
 45
0.0
 46
0.0
 47
0.0
 48
0.0
140
0.125
141
0.125
142
0.0
143
25.399999999999999
144
1.0
145
0.0
146
1.0
147
0.0625
 71
     0
 72
     0
 73
     0
 74
     0
 75
     0
 76
     0
 77
     1
 78
     0
170
     0
171
     2
172
     0
173
     0
174
     1
175
     0
176
     0
177
     0
178
     0
  0
DIMSTYLE
  2
HALF_SCALE0
 70
     0
  3
"
  4

  5
ARCHTICK
  6

  7

 40
1.0
 41
0.09375
 42
0.1875
 43
0.25
 44
0.125
 45
0.0
 46
0.0
 47
0.0
 48
0.0
140
0.25
141
0.25
142
0.0
143
25.399999999999999
144
1.0
145
0.0
146
1.0
147
0.125
 71
     0
 72
     0
 73
     0
 74
     0
 75
     0
 76
     0
 77
     1
 78
     0
170
     0
171
     2
172
     0
173
     0
174
     1
175
     0
176
     0
177
     0
178
     0
  0
DIMSTYLE
  2
INCH_SCALE0
 70
     0
  3
"
  4

  5
ARCHTICK
  6

  7

 40
1.0
 41
0.5625
 42
1.125
 43
1.5
 44
0.75
 45
0.0
 46
0.0
 47
0.0
 48
0.0
140
1.125
141
1.5
142
0.0
143
25.399999999999999
144
1.0
145
0.0
146
1.0
147
0.75
 71
     0
 72
     0
 73
     0
 74
     0
 75
     0
 76
     0
 77
     1
 78
     0
170
     0
171
     2
172
     0
173
     0
174
     1
175
     0
176
     0
177
     0
178
     0
  0
DIMSTYLE
  2
THREE_QUARTER_INCH_SCALE0
 70
     0
  3
"
  4

  5
ARCHTICK
  6

  7

 40
1.0
 41
0.75
 42
1.5
 43
2.0
 44
1.0
 45
0.0
 46
0.0
 47
0.0
 48
0.0
140
1.5
141
2.0
142
0.0
143
25.399999999999999
144
1.0
145
0.0
146
1.0
147
1.0
 71
     0
 72
     0
 73
     0
 74
     0
 75
     0
 76
     0
 77
     1
 78
     0
170
     0
171
     2
172
     0
173
     0
174
     1
175
     0
176
     0
177
     0
178
     0
  0
DIMSTYLE
  2
ZHALF_INCH_SCALE0
 70
     0
  3
"
  4

  5
ARCHTICK
  6

  7

 40
1.0
 41
1.125
 42
2.25
 43
3.0
 44
1.5
 45
0.0
 46
0.0
 47
0.0
 48
0.0
140
2.25
141
3.0
142
0.0
143
25.399999999999999
144
1.0
145
0.0
146
1.0
147
1.5
 71
     0
 72
     0
 73
     0
 74
     0
 75
     0
 76
     0
 77
     1
 78
     0
170
     0
171
     2
172
     0
173
     0
174
     1
175
     0
176
     0
177
     0
178
     0
  0
ENDTAB
  0
ENDSEC
  0
SECTION
  2
BLOCKS
  0
BLOCK
  8
0
  2
$MODEL_SPACE
 70
     0
 10
0.0
 20
0.0
 30
0.0
  3
$MODEL_SPACE
  1

  0
ENDBLK
  5
C9DC
  8
0
  0
BLOCK
 67
     1
  8
0
  2
$PAPER_SPACE
 70
     0
 10
0.0
 20
0.0
 30
0.0
  3
$PAPER_SPACE
  1

  0
ENDBLK
  5
C9D8
 67
     1
  8
0
  0
BLOCK
  8
0
  2
_ARCHTICK
 70
     0
 10
0.0
 20
0.0
 30
0.0
  3
_ARCHTICK
  1

  0
POLYLINE
  5
158
  8
0
  6
BYBLOCK
 62
     0
 66
     1
 10
0.0
 20
0.0
 30
0.0
 40
0.15
 41
0.15
  0
VERTEX
  5
FE8C
  8
0
  6
BYBLOCK
 62
     0
 10
-0.5
 20
-0.5
 30
0.0
  0
VERTEX
  5
FE8D
  8
0
  6
BYBLOCK
 62
     0
 10
0.5
 20
0.5
 30
0.0
  0
SEQEND
  5
FE8E
  8
0
  6
BYBLOCK
 62
     0
  0
ENDBLK
  5
15A
  8
0
  0
BLOCK
  8
0
  2
_OPEN30
 70
     0
 10
0.0
 20
0.0
 30
0.0
  3
_OPEN30
  1

  0
LINE
  5
15C
  8
0
  6
BYBLOCK
 62
     0
 10
-1.0
 20
0.26794919
 30
0.0
 11
0.0
 21
0.0
 31
0.0
  0
LINE
  5
15D
  8
0
  6
BYBLOCK
 62
     0
 10
0.0
 20
0.0
 30
0.0
 11
-1.0
 21
-0.26794919
 31
0.0
  0
LINE
  5
15E
  8
0
  6
BYBLOCK
 62
     0
 10
0.0
 20
0.0
 30
0.0
 11
-1.0
 21
0.0
 31
0.0
  0
ENDBLK
  5
160
  8
0
  0
BLOCK
  8
0
  2
ISO_A2_TITLE_BLOCK
 70
     2
 10
0.0
 20
0.0
 30
0.0
  3
ISO_A2_TITLE_BLOCK
  1

  0
LINE
  5
BDD
  8
FRAME_050
 10
299.5
 20
12.5
 30
0.0
 11
297.0
 21
7.5
 31
0.0
  0
LINE
  5
BDE
  8
FRAME_050
 10
294.5
 20
12.5
 30
0.0
 11
299.5
 21
12.5
 31
0.0
  0
LINE
  5
BDF
  8
FRAME_050
 10
247.0
 20
5.0
 30
0.0
 11
347.0
 21
5.0
 31
0.0
  0
LINE
  5
BE0
  8
FRAME_070
 10
584.0
 20
410.0
 30
0.0
 11
10.0
 21
410.0
 31
0.0
  0
LINE
  5
BE1
  8
FRAME_070
 10
10.0
 20
10.0
 30
0.0
 11
584.0
 21
10.0
 31
0.0
  0
LINE
  5
BE2
  8
FRAME_050
 10
12.5
 20
207.5
 30
0.0
 11
7.5
 21
210.0
 31
0.0
  0
LINE
  5
BE3
  8
FRAME_050
 10
12.5
 20
212.5
 30
0.0
 11
12.5
 21
207.5
 31
0.0
  0
LINE
  5
BE4
  8
FRAME_070
 10
10.0
 20
410.0
 30
0.0
 11
10.0
 21
10.0
 31
0.0
  0
LINE
  5
BE5
  8
FRAME_200
 10
0.0
 20
0.0
 30
0.0
 11
0.0
 21
10.0
 31
0.0
  0
LINE
  5
BE6
  8
FRAME_200
 10
0.0
 20
0.0
 30
0.0
 11
10.0
 21
0.0
 31
0.0
  0
TEXT
  5
BE7
  8
FRAME_050
 10
5.9000000000000004
 20
35.0
 30
0.0
 40
4.0
  1
H
  7
ISO_PROPORTIONAL
 72
     4
 11
7.5
 21
37.0
 31
0.0
  0
LINE
  5
BE8
  8
FRAME_050
 10
10.0
 20
60.0
 30
0.0
 11
5.0
 21
60.0
 31
0.0
  0
LINE
  5
BE9
  8
FRAME_050
 10
81.75
 20
5.0
 30
0.0
 11
81.75
 21
10.0
 31
0.0
  0
TEXT
  5
BEA
  8
FRAME_050
 10
44.874999999999993
 20
5.5
 30
0.0
 40
4.0
  1
1
  7
ISO_PROPORTIONAL
 72
     4
 11
45.875
 21
7.5
 31
0.0
  0
TEXT
  5
BEB
  8
FRAME_050
 10
6.0035533905932743
 20
85.0
 30
0.0
 40
4.0
  1
G
  7
ISO_PROPORTIONAL
 72
     4
 11
7.5
 21
87.0
 31
0.0
  0
LINE
  5
BEC
  8
FRAME_050
 10
10.0
 20
110.0
 30
0.0
 11
5.0
 21
110.0
 31
0.0
  0
TEXT
  5
BED
  8
FRAME_050
 10
6.0999999999999988
 20
135.0
 30
0.0
 40
4.0
  1
F
  7
ISO_PROPORTIONAL
 72
     4
 11
7.5
 21
137.0
 31
0.0
  0
LINE
  5
BEE
  8
FRAME_050
 10
10.0
 20
160.0
 30
0.0
 11
5.0
 21
160.0
 31
0.0
  0
TEXT
  5
BEF
  8
FRAME_050
 10
6.0999999999999988
 20
185.0
 30
0.0
 40
4.0
  1
E
  7
ISO_PROPORTIONAL
 72
     4
 11
7.5
 21
187.0
 31
0.0
  0
LINE
  5
BF0
  8
FRAME_050
 10
153.5
 20
5.0
 30
0.0
 11
153.5
 21
10.0
 31
0.0
  0
TEXT
  5
BF1
  8
FRAME_050
 10
116.1556692913386
 20
5.3996062992125982
 30
0.0
 40
4.0
  1
2
  7
ISO_PROPORTIONAL
 72
     4
 11
117.625
 21
7.5
 31
0.0
  0
TEXT
  5
BF2
  8
FRAME_050
 10
187.89215728752529
 20
5.5828427124746138
 30
0.0
 40
4.0
  1
3
  7
ISO_PROPORTIONAL
 72
     4
 11
189.375
 21
7.5
 31
0.0
  0
LINE
  5
BF3
  8
FRAME_050
 10
225.25
 20
5.0
 30
0.0
 11
225.25
 21
10.0
 31
0.0
  0
LINE
  5
BF4
  8
FRAME_050
 10
297.0
 20
7.5
 30
0.0
 11
294.5
 21
12.5
 31
0.0
  0
LINE
  5
BF5
  8
FRAME_050
 10
287.0
 20
5.0
 30
0.0
 11
287.0
 21
10.0
 31
0.0
  0
LINE
  5
BF6
  8
FRAME_050
 10
277.0
 20
5.0
 30
0.0
 11
277.0
 21
10.0
 31
0.0
  0
LINE
  5
BF7
  8
FRAME_050
 10
267.0
 20
5.0
 30
0.0
 11
267.0
 21
10.0
 31
0.0
  0
LINE
  5
BF8
  8
FRAME_050
 10
257.0
 20
5.0
 30
0.0
 11
257.0
 21
10.0
 31
0.0
  0
LINE
  5
BF9
  8
FRAME_050
 10
247.0
 20
5.0
 30
0.0
 11
247.0
 21
10.0
 31
0.0
  0
LINE
  5
BFA
  8
FRAME_050
 10
297.0
 20
10.0
 30
0.0
 11
297.0
 21
5.0
 31
0.0
  0
LINE
  5
BFB
  8
FRAME_050
 10
297.0
 20
10.0
 30
0.0
 11
297.0
 21
15.0
 31
0.0
  0
LINE
  5
BFC
  8
FRAME_050
 10
5.0
 20
210.0
 30
0.0
 11
15.0
 21
210.0
 31
0.0
  0
LINE
  5
BFD
  8
FRAME_050
 10
7.5
 20
210.0
 30
0.0
 11
12.5
 21
212.5
 31
0.0
  0
TEXT
  5
BFE
  8
FRAME_050
 10
5.7860912703473977
 20
235.0
 30
0.0
 40
4.0
  1
D
  7
ISO_PROPORTIONAL
 72
     4
 11
7.5
 21
237.0
 31
0.0
  0
LINE
  5
BFF
  8
FRAME_050
 10
10.0
 20
260.0
 30
0.0
 11
5.0
 21
260.0
 31
0.0
  0
TEXT
  5
C00
  8
FRAME_050
 10
6.1931980515339466
 20
285.0
 30
0.0
 40
4.0
  1
C
  7
ISO_PROPORTIONAL
 72
     4
 11
7.5
 21
287.0
 31
0.0
  0
LINE
  5
C01
  8
FRAME_050
 10
10.0
 20
310.0
 30
0.0
 11
5.0
 21
310.0
 31
0.0
  0
TEXT
  5
C02
  8
FRAME_050
 10
5.8999999999999959
 20
335.0
 30
0.0
 40
4.0
  1
B
  7
ISO_PROPORTIONAL
 72
     4
 11
7.5
 21
337.0
 31
0.0
  0
LINE
  5
C03
  8
FRAME_050
 10
10.0
 20
360.0
 30
0.0
 11
5.0
 21
360.0
 31
0.0
  0
TEXT
  5
C04
  8
FRAME_050
 10
5.6999999999999993
 20
385.0
 30
0.0
 40
4.0
  1
A
  7
ISO_PROPORTIONAL
 72
     4
 11
7.5
 21
387.0
 31
0.0
  0
LINE
  5
C05
  8
FRAME_200
 10
10.0
 20
420.0
 30
0.0
 11
0.0
 21
420.0
 31
0.0
  0
LINE
  5
C06
  8
FRAME_200
 10
0.0
 20
420.0
 30
0.0
 11
0.0
 21
410.0
 31
0.0
  0
TEXT
  5
C07
  8
FRAME_050
 10
44.874999999999993
 20
410.5
 30
0.0
 40
4.0
  1
1
  7
ISO_PROPORTIONAL
 72
     4
 11
45.875
 21
412.5
 31
0.0
  0
LINE
  5
C08
  8
FRAME_050
 10
81.75
 20
410.0
 30
0.0
 11
81.75
 21
415.0
 31
0.0
  0
TEXT
  5
C09
  8
FRAME_050
 10
116.1556692913386
 20
410.39960629921262
 30
0.0
 40
4.0
  1
2
  7
ISO_PROPORTIONAL
 72
     4
 11
117.625
 21
412.5
 31
0.0
  0
LINE
  5
C0A
  8
FRAME_050
 10
153.5
 20
410.0
 30
0.0
 11
153.5
 21
415.0
 31
0.0
  0
TEXT
  5
C0B
  8
FRAME_050
 10
187.89215728752529
 20
410.58284271247459
 30
0.0
 40
4.0
  1
3
  7
ISO_PROPORTIONAL
 72
     4
 11
189.375
 21
412.5
 31
0.0
  0
LINE
  5
C0C
  8
FRAME_050
 10
297.0
 20
405.0
 30
0.0
 11
297.0
 21
415.0
 31
0.0
  0
LINE
  5
C0D
  8
FRAME_050
 10
225.25
 20
410.0
 30
0.0
 11
225.25
 21
415.0
 31
0.0
  0
TEXT
  5
C0E
  8
FRAME_050
 10
259.52499999999998
 20
410.5
 30
0.0
 40
4.0
  1
4
  7
ISO_PROPORTIONAL
 72
     4
 11
261.125
 21
412.5
 31
0.0
  0
LINE
  5
C0F
  8
FRAME_070
 10
584.0
 20
10.0
 30
0.0
 11
584.0
 21
410.0
 31
0.0
  0
ATTDEF
  5
C10
  8
FRAME_025
 10
473.0
 20
31.75
 30
0.0
 40
2.5
  1
XXX - 00/00/00
  7
ISO_PROPORTIONAL
 11
473.0
 21
33.0
 31
0.0
  3
Approved by - Date
  2
APPROVED_BY_DATE
 70
     8
 74
     2
  0
TEXT
  5
C11
  8
FRAME_025
 10
448.0
 20
41.749999999999993
 30
0.0
 40
2.5
  1
Title/Name, designation, material, dimension etc
  7
ISO_PROPORTIONAL
 11
448.0
 21
43.0
 31
0.0
 73
     2
  0
TEXT
  5
C12
  8
FRAME_025
 10
473.0
 20
35.75
 30
0.0
 40
2.5
  1
Approved by - date
  7
ISO_PROPORTIONAL
 11
473.0
 21
37.0
 31
0.0
 73
     2
  0
LINE
  5
C13
  8
FRAME_070
 10
414.0
 20
46.0
 30
0.0
 11
584.0
 21
46.0
 31
0.0
  0
LINE
  5
C14
  8
FRAME_070
 10
414.0
 20
40.0
 30
0.0
 11
584.0
 21
40.0
 31
0.0
  0
LINE
  5
C15
  8
FRAME_070
 10
414.0
 20
30.0
 30
0.0
 11
584.0
 21
30.0
 31
0.0
  0
LINE
  5
C16
  8
FRAME_050
 10
368.75
 20
5.0
 30
0.0
 11
368.75
 21
10.0
 31
0.0
  0
LINE
  5
C17
  8
FRAME_050
 10
337.0
 20
5.0
 30
0.0
 11
337.0
 21
10.0
 31
0.0
  0
LINE
  5
C18
  8
FRAME_050
 10
327.0
 20
5.0
 30
0.0
 11
327.0
 21
10.0
 31
0.0
  0
LINE
  5
C19
  8
FRAME_050
 10
317.0
 20
5.0
 30
0.0
 11
317.0
 21
10.0
 31
0.0
  0
LINE
  5
C1A
  8
FRAME_050
 10
307.0
 20
5.0
 30
0.0
 11
307.0
 21
10.0
 31
0.0
  0
LINE
  5
C1B
  8
FRAME_050
 10
347.0
 20
5.0
 30
0.0
 11
347.0
 21
10.0
 31
0.0
  0
LINE
  5
C1C
  8
FRAME_050
 10
440.5
 20
5.0
 30
0.0
 11
440.5
 21
10.0
 31
0.0
  0
TEXT
  5
C1D
  8
FRAME_050
 10
403.24547244094481
 20
5.4102362204724406
 30
0.0
 40
4.0
  1
6
  7
ISO_PROPORTIONAL
 72
     4
 11
404.62499999999989
 21
7.5
 31
0.0
  0
TEXT
  5
C1E
  8
FRAME_050
 10
474.97499999999991
 20
5.5
 30
0.0
 40
4.0
  1
7
  7
ISO_PROPORTIONAL
 72
     4
 11
476.37499999999989
 21
7.5
 31
0.0
  0
TEXT
  5
C1F
  8
FRAME_025
 10
431.0
 20
41.749999999999993
 30
0.0
 40
2.5
  1
Quantity
  7
ISO_PROPORTIONAL
 11
431.0
 21
43.0
 31
0.0
 73
     2
  0
TEXT
  5
C20
  8
FRAME_025
 10
416.0
 20
41.749999999999993
 30
0.0
 40
2.5
  1
Itemref
  7
ISO_PROPORTIONAL
 11
416.0
 21
43.0
 31
0.0
 73
     2
  0
LINE
  5
C21
  8
FRAME_070
 10
414.0
 20
40.0
 30
0.0
 11
414.0
 21
46.0
 31
0.0
  0
LINE
  5
C22
  8
FRAME_070
 10
429.0
 20
40.0
 30
0.0
 11
429.0
 21
46.0
 31
0.0
  0
LINE
  5
C23
  8
FRAME_070
 10
414.0
 20
10.0
 30
0.0
 11
414.0
 21
40.0
 31
0.0
  0
ATTDEF
  5
C24
  8
FRAME_025
 10
416.0
 20
31.75
 30
0.0
 40
2.5
  1
XXX
  7
ISO_PROPORTIONAL
 11
416.0
 21
33.0
 31
0.0
  3
Designed by
  2
DESIGNED_BY
 70
     8
 74
     2
  0
TEXT
  5
C25
  8
FRAME_025
 10
416.0
 20
35.75
 30
0.0
 40
2.5
  1
Designed by
  7
ISO_PROPORTIONAL
 11
416.0
 21
37.0
 31
0.0
 73
     2
  0
LINE
  5
C26
  8
FRAME_070
 10
446.0
 20
40.0
 30
0.0
 11
446.0
 21
46.0
 31
0.0
  0
ATTDEF
  5
C27
  8
FRAME_025
 10
448.0
 20
31.75
 30
0.0
 40
2.5
  1
XXX
  7
ISO_PROPORTIONAL
 11
448.0
 21
33.0
 31
0.0
  3
Checked by
  2
CHECKED_BY
 70
     8
 74
     2
  0
TEXT
  5
C28
  8
FRAME_025
 10
448.0
 20
35.75
 30
0.0
 40
2.5
  1
Checked by
  7
ISO_PROPORTIONAL
 11
448.0
 21
37.0
 31
0.0
 73
     2
  0
ATTDEF
  5
C29
  8
FRAME_050
 10
444.74999999999989
 20
17.5
 30
0.0
 40
5.0
  1
XXX
  7
ISO_PROPORTIONAL
 72
     4
 11
451.49999999999989
 21
20.0
 31
0.0
  3
Owner
  2
OWNER
 70
     8
  0
LINE
  5
C2A
  8
FRAME_070
 10
446.0
 20
30.0
 30
0.0
 11
446.0
 21
40.0
 31
0.0
  0
LINE
  5
C2B
  8
FRAME_070
 10
471.0
 20
30.0
 30
0.0
 11
471.0
 21
40.0
 31
0.0
  0
LINE
  5
C2C
  8
FRAME_070
 10
489.0
 20
20.0
 30
0.0
 11
584.0
 21
20.0
 31
0.0
  0
LINE
  5
C2D
  8
FRAME_050
 10
512.25
 20
5.0
 30
0.0
 11
512.25
 21
10.0
 31
0.0
  0
TEXT
  5
C2E
  8
FRAME_050
 10
546.72499999999991
 20
5.5
 30
0.0
 40
4.0
  1
8
  7
ISO_PROPORTIONAL
 72
     4
 11
548.125
 21
7.5
 31
0.0
  0
ATTDEF
  5
C2F
  8
FRAME_050
 10
517.64999999999986
 20
13.5
 30
0.0
 40
3.0
  1
X
  7
ISO_PROPORTIONAL
 72
     4
 11
519.0
 21
15.0
 31
0.0
  3
Drawing number
  2
DRAWING_NUMBER
 70
     8
  0
ATTDEF
  5
C30
  8
FRAME_050
 10
529.75
 20
22.5
 30
0.0
 40
5.0
  1
XXX
  7
ISO_PROPORTIONAL
 72
     4
 11
536.5
 21
25.0
 31
0.0
  3
Title / Name
  2
TITLE
 70
     8
  0
LINE
  5
C31
  8
FRAME_070
 10
489.0
 20
10.0
 30
0.0
 11
489.0
 21
30.0
 31
0.0
  0
ATTDEF
  5
C32
  8
FRAME_025
 10
511.0
 20
31.75
 30
0.0
 40
2.5
  1
XXX
  7
ISO_PROPORTIONAL
 11
511.0
 21
33.0
 31
0.0
  3
Filename
  2
FILENAME
 70
     8
 74
     2
  0
TEXT
  5
C33
  8
FRAME_025
 10
511.0
 20
35.75
 30
0.0
 40
2.5
  1
Filename
  7
ISO_PROPORTIONAL
 11
511.0
 21
37.0
 31
0.0
 73
     2
  0
LINE
  5
C34
  8
FRAME_070
 10
509.0
 20
30.0
 30
0.0
 11
509.0
 21
40.0
 31
0.0
  0
TEXT
  5
C35
  8
FRAME_025
 10
536.0
 20
41.749999999999993
 30
0.0
 40
2.5
  1
Article No./Reference
  7
ISO_PROPORTIONAL
 11
536.0
 21
43.0
 31
0.0
 73
     2
  0
LINE
  5
C36
  8
FRAME_070
 10
534.0
 20
40.0
 30
0.0
 11
534.0
 21
46.0
 31
0.0
  0
ATTDEF
  5
C37
  8
FRAME_025
 10
551.0
 20
11.75
 30
0.0
 40
2.5
  1
0
  7
ISO_PROPORTIONAL
 11
551.0
 21
13.0
 31
0.0
  3
Edition
  2
EDITION
 70
     8
 74
     2
  0
TEXT
  5
C38
  8
FRAME_025
 10
551.0
 20
15.75
 30
0.0
 40
2.5
  1
Edition
  7
ISO_PROPORTIONAL
 11
551.0
 21
17.0
 31
0.0
 73
     2
  0
LINE
  5
C39
  8
FRAME_070
 10
549.0
 20
10.0
 30
0.0
 11
549.0
 21
20.0
 31
0.0
  0
ATTDEF
  5
C3A
  8
FRAME_025
 10
536.0
 20
31.75
 30
0.0
 40
2.5
  1
00/00/00
  7
ISO_PROPORTIONAL
 11
536.0
 21
33.0
 31
0.0
  3
Date
  2
DATE
 70
     8
 74
     2
  0
TEXT
  5
C3B
  8
FRAME_025
 10
536.0
 20
35.75
 30
0.0
 40
2.5
  1
Date
  7
ISO_PROPORTIONAL
 11
536.0
 21
37.0
 31
0.0
 73
     2
  0
LINE
  5
C3C
  8
FRAME_070
 10
534.0
 20
30.0
 30
0.0
 11
534.0
 21
40.0
 31
0.0
  0
ATTDEF
  5
C3D
  8
FRAME_025
 10
566.0
 20
11.75
 30
0.0
 40
2.5
  1
1/1
  7
ISO_PROPORTIONAL
 11
566.0
 21
13.0
 31
0.0
  3
Sheet
  2
SHEET
 70
     8
 74
     2
  0
TEXT
  5
C3E
  8
FRAME_025
 10
566.0
 20
15.75
 30
0.0
 40
2.5
  1
Sheet
  7
ISO_PROPORTIONAL
 11
566.0
 21
17.0
 31
0.0
 73
     2
  0
LINE
  5
C3F
  8
FRAME_070
 10
564.0
 20
10.0
 30
0.0
 11
564.0
 21
20.0
 31
0.0
  0
ATTDEF
  5
C40
  8
FRAME_025
 10
566.0
 20
31.75
 30
0.0
 40
2.5
  1
1:1
  7
ISO_PROPORTIONAL
 11
566.0
 21
33.0
 31
0.0
  3
Scale
  2
SCALE
 70
     8
 74
     2
  0
TEXT
  5
C41
  8
FRAME_025
 10
566.0
 20
35.75
 30
0.0
 40
2.5
  1
Scale
  7
ISO_PROPORTIONAL
 11
566.0
 21
37.0
 31
0.0
 73
     2
  0
LINE
  5
C42
  8
FRAME_070
 10
564.0
 20
30.0
 30
0.0
 11
564.0
 21
40.0
 31
0.0
  0
LINE
  5
C43
  8
FRAME_200
 10
594.0
 20
0.0
 30
0.0
 11
594.0
 21
10.0
 31
0.0
  0
LINE
  5
C44
  8
FRAME_200
 10
594.0
 20
0.0
 30
0.0
 11
584.0
 21
0.0
 31
0.0
  0
TEXT
  5
C45
  8
FRAME_050
 10
584.89999999999998
 20
35.0
 30
0.0
 40
4.0
  1
H
  7
ISO_PROPORTIONAL
 72
     4
 11
586.5
 21
37.0
 31
0.0
  0
LINE
  5
C46
  8
FRAME_050
 10
589.0
 20
60.0
 30
0.0
 11
584.0
 21
60.0
 31
0.0
  0
TEXT
  5
C47
  8
FRAME_050
 10
585.0035533905932
 20
85.0
 30
0.0
 40
4.0
  1
G
  7
ISO_PROPORTIONAL
 72
     4
 11
586.5
 21
87.0
 31
0.0
  0
LINE
  5
C48
  8
FRAME_050
 10
589.0
 20
110.0
 30
0.0
 11
584.0
 21
110.0
 31
0.0
  0
TEXT
  5
C49
  8
FRAME_050
 10
585.09999999999991
 20
135.0
 30
0.0
 40
4.0
  1
F
  7
ISO_PROPORTIONAL
 72
     4
 11
586.5
 21
137.0
 31
0.0
  0
LINE
  5
C4A
  8
FRAME_050
 10
589.0
 20
160.0
 30
0.0
 11
584.0
 21
160.0
 31
0.0
  0
TEXT
  5
C4B
  8
FRAME_050
 10
585.09999999999991
 20
185.0
 30
0.0
 40
4.0
  1
E
  7
ISO_PROPORTIONAL
 72
     4
 11
586.5
 21
187.0
 31
0.0
  0
LINE
  5
C4C
  8
FRAME_070
 10
414.0
 20
404.0
 30
0.0
 11
584.0
 21
404.0
 31
0.0
  0
TEXT
  5
C4D
  8
FRAME_050
 10
331.39215728752538
 20
410.58284271247459
 30
0.0
 40
4.0
  1
5
  7
ISO_PROPORTIONAL
 72
     4
 11
332.875
 21
412.5
 31
0.0
  0
LINE
  5
C4E
  8
FRAME_050
 10
368.75
 20
410.0
 30
0.0
 11
368.75
 21
415.0
 31
0.0
  0
TEXT
  5
C4F
  8
FRAME_025
 10
428.0
 20
405.75
 30
0.0
 40
2.5
  1
Revision note
  7
ISO_PROPORTIONAL
 11
428.0
 21
407.0
 31
0.0
 73
     2
  0
TEXT
  5
C50
  8
FRAME_025
 10
416.0
 20
405.75
 30
0.0
 40
2.5
  1
RevNo
  7
ISO_PROPORTIONAL
 11
416.0
 21
407.0
 31
0.0
 73
     2
  0
LINE
  5
C51
  8
FRAME_070
 10
426.0
 20
404.0
 30
0.0
 11
426.0
 21
410.0
 31
0.0
  0
LINE
  5
C52
  8
FRAME_070
 10
414.0
 20
404.0
 30
0.0
 11
414.0
 21
410.0
 31
0.0
  0
TEXT
  5
C53
  8
FRAME_050
 10
403.24547244094481
 20
410.41023622047243
 30
0.0
 40
4.0
  1
6
  7
ISO_PROPORTIONAL
 72
     4
 11
404.62499999999989
 21
412.5
 31
0.0
  0
LINE
  5
C54
  8
FRAME_050
 10
440.5
 20
410.0
 30
0.0
 11
440.5
 21
415.0
 31
0.0
  0
TEXT
  5
C55
  8
FRAME_050
 10
474.97499999999991
 20
410.5
 30
0.0
 40
4.0
  1
7
  7
ISO_PROPORTIONAL
 72
     4
 11
476.37499999999989
 21
412.5
 31
0.0
  0
LINE
  5
C56
  8
FRAME_050
 10
579.0
 20
210.0
 30
0.0
 11
589.0
 21
210.0
 31
0.0
  0
TEXT
  5
C57
  8
FRAME_050
 10
584.78609127034736
 20
235.0
 30
0.0
 40
4.0
  1
D
  7
ISO_PROPORTIONAL
 72
     4
 11
586.5
 21
237.0
 31
0.0
  0
LINE
  5
C58
  8
FRAME_050
 10
589.0
 20
260.0
 30
0.0
 11
584.0
 21
260.0
 31
0.0
  0
TEXT
  5
C59
  8
FRAME_050
 10
585.19319805153395
 20
285.0
 30
0.0
 40
4.0
  1
C
  7
ISO_PROPORTIONAL
 72
     4
 11
586.5
 21
287.0
 31
0.0
  0
LINE
  5
C5A
  8
FRAME_050
 10
589.0
 20
310.0
 30
0.0
 11
584.0
 21
310.0
 31
0.0
  0
TEXT
  5
C5B
  8
FRAME_050
 10
584.89999999999998
 20
335.0
 30
0.0
 40
4.0
  1
B
  7
ISO_PROPORTIONAL
 72
     4
 11
586.5
 21
337.0
 31
0.0
  0
TEXT
  5
C5C
  8
FRAME_025
 10
571.08299391850551
 20
405.75
 30
0.0
 40
2.5
  1
Checked
  7
ISO_PROPORTIONAL
 11
571.08299391850551
 21
407.0
 31
0.0
 73
     2
  0
TEXT
  5
C5D
  8
FRAME_025
 10
555.36099797283521
 20
405.75
 30
0.0
 40
2.5
  1
Signature
  7
ISO_PROPORTIONAL
 11
555.36099797283521
 21
407.0
 31
0.0
 73
     2
  0
TEXT
  5
C5E
  8
FRAME_025
 10
537.0
 20
405.75
 30
0.0
 40
2.5
  1
Date
  7
ISO_PROPORTIONAL
 11
537.0
 21
407.0
 31
0.0
 73
     2
  0
LINE
  5
C5F
  8
FRAME_070
 10
570.0
 20
404.0
 30
0.0
 11
570.0
 21
410.0
 31
0.0
  0
LINE
  5
C60
  8
FRAME_070
 10
555.0
 20
404.0
 30
0.0
 11
555.0
 21
410.0
 31
0.0
  0
LINE
  5
C61
  8
FRAME_070
 10
535.0
 20
404.0
 30
0.0
 11
535.0
 21
410.0
 31
0.0
  0
LINE
  5
C62
  8
FRAME_050
 10
512.25
 20
410.0
 30
0.0
 11
512.25
 21
415.0
 31
0.0
  0
TEXT
  5
C63
  8
FRAME_050
 10
546.72499999999991
 20
410.5
 30
0.0
 40
4.0
  1
8
  7
ISO_PROPORTIONAL
 72
     4
 11
548.125
 21
412.5
 31
0.0
  0
LINE
  5
C64
  8
FRAME_050
 10
589.0
 20
360.0
 30
0.0
 11
584.0
 21
360.0
 31
0.0
  0
TEXT
  5
C65
  8
FRAME_050
 10
584.70000000000005
 20
385.0
 30
0.0
 40
4.0
  1
A
  7
ISO_PROPORTIONAL
 72
     4
 11
586.5
 21
387.0
 31
0.0
  0
LINE
  5
C66
  8
FRAME_200
 10
594.0
 20
420.0
 30
0.0
 11
584.0
 21
420.0
 31
0.0
  0
LINE
  5
C67
  8
FRAME_200
 10
594.0
 20
410.0
 30
0.0
 11
594.0
 21
420.0
 31
0.0
  0
ENDBLK
  5
C69
  8
0
  0
BLOCK
  8
0
  2
WOBB001END
 70
     0
 10
0.0
 20
0.0
 30
0.0
  3
WOBB001END
  1

  0
LINE
  5
4D66
  8
0
  6
CONTINUOUS
 10
0.0
 20
0.0
 30
0.0
 11
0.8749999999999998
 21
0.0
 31
0.0
  0
ARC
  5
4D67
  8
0
  6
CONTINUOUS
 10
0.0331648379439287
 20
-0.5087238935900234
 30
0.0
 40
0.8790130605592325
 50
284.06490243660443
 51
312.19222981924361
  0
ARC
  5
4D68
  8
0
  6
CONTINUOUS
 10
0.2841534338796767
 20
-1.510548310625538
 30
0.0
 40
0.1537731892806598
 50
104.0649024366044
 51
179.4721730735024
  0
LINE
  5
4D69
  8
0
  6
CONTINUOUS
 10
0.0
 20
0.0
 30
0.0
 11
-0.0000000000000003
 21
-1.7501564476661911
 31
0.0
  0
ARC
  5
4D6A
  8
0
  6
CONTINUOUS
 10
0.1404622019506122
 20
-1.630313718354619
 30
0.0
 40
0.1198427293115722
 50
275.0
 51
85.000000000000057
  0
LINE
  5
4D6B
  8
0
  6
CONTINUOUS
 10
-0.0000000000000003
 20
-1.7501564476661911
 30
0.0
 11
0.1456946485130855
 21
-1.7501564476661911
 31
0.0
  0
LINE
  5
4D6C
  8
0
  6
CONTINUOUS
 10
0.1377603739254348
 20
-1.7508506067459131
 30
0.0
 11
0.150907184036669
 21
-1.7497004098996509
 31
0.0
  0
LINE
  5
4D6D
  8
0
  6
CONTINUOUS
 10
0.1303867696719884
 20
-1.5091317231818231
 30
0.0
 11
0.1509071840366689
 21
-1.510927026809586
 31
0.0
  0
LINE
  5
4D6E
  8
0
  6
CONTINUOUS
 10
0.8749999999999998
 20
0.0
 30
0.0
 11
0.8749999999999996
 21
-0.8649327026588228
 31
0.0
  0
LINE
  5
4D6F
  8
0
  6
CONTINUOUS
 10
0.727014513830997
 20
-0.872688293355061
 30
0.0
 11
0.727014513830997
 21
-0.9264923397184784
 31
0.0
  0
ARC
  5
4D70
  8
0
  6
CONTINUOUS
 10
0.41187090827646
 20
-0.9264923397184784
 30
0.0
 40
0.3151436055545369
 50
312.19222981924361
 51
0.0
  0
LINE
  5
4D71
  8
0
  6
CONTINUOUS
 10
0.727014513830997
 20
-0.872688293355061
 30
0.0
 11
0.8749999999999996
 21
-0.8649327026588228
 31
0.0
  0
ENDBLK
  5
4D72
  8
0
  0
BLOCK
  8
0
  2
A$C0A61123B
 70
     0
 10
0.0
 20
0.0
 30
0.0
  3
A$C0A61123B
  1

  0
LINE
  5
C0AD
  8
PROF
  6
CONTINUOUS
 10
4.9012016798694162
 20
13.325025853350891
 30
0.0000000000000002
 11
4.9012016798694162
 21
12.88585218805485
 31
0.0000000000000003
  0
INSERT
  5
C0AE
  8
0
  2
*U7
 10
0.0
 20
0.0
 30
0.0
  0
LINE
  5
C0AF
  8
PROF
 10
4.519857503186925
 20
12.72227734589444
 30
0.0000000000000001
 11
4.519857503186925
 21
12.88585218805485
 31
0.0000000000000001
  0
LINE
  5
C0B0
  8
PROF
  6
CONTINUOUS
 10
3.6306271195888362
 20
13.325025853350891
 30
0.0000000000000002
 11
4.9012016798694162
 21
13.325025853350891
 31
0.0000000000000002
  0
LINE
  5
C0B1
  8
PROF
 10
1.9750295148747341
 20
10.37671325491794
 30
0.0000000000000002
 11
1.9750295148747341
 21
10.11391186758919
 31
0.0000000000000002
  0
LINE
  5
C0B2
  8
PROF
 10
1.6079673357556299
 20
10.11391186758919
 30
0.0000000000000001
 11
1.9750295148747341
 21
10.11391186758919
 31
0.0000000000000001
  0
LINE
  5
C0B3
  8
PROF
 10
1.9750295148747341
 20
10.11391186758919
 30
0.0000000000000001
 11
1.944958486898144
 21
10.11391186758919
 31
0.0000000000000001
  0
LINE
  5
C0B4
  8
PROF
 10
1.9750295148747341
 20
10.11391186758919
 30
0.0000000000000001
 11
1.944958486898144
 21
10.11391186758919
 31
0.0000000000000001
  0
LINE
  5
C0B5
  8
PROF
 10
0.3222605517169654
 20
7.5247473351056451
 30
-0.0000000000000002
 11
-0.0000008570117416
 21
7.5247473351056451
 31
0.0
  0
LINE
  5
C0B6
  8
PROF
 10
-0.0000008570117416
 20
7.5247473351056451
 30
0.0
 11
-0.0000008570117416
 21
9.1943336957369848
 31
0.0
  0
POLYLINE
  5
C0B7
  8
PROF
 66
     1
 10
0.0
 20
0.0
 30
0.0000000000000001
 70
     4
 75
     6
  0
VERTEX
  5
C0B8
  8
PROF
 10
1.6079673357556299
 20
10.11391186758919
 30
0.0000000000000001
 70
    16
  0
VERTEX
  5
C0B9
  8
PROF
 10
1.6079673357556299
 20
10.11391186758919
 30
0.0000000000000001
 70
     8
  0
VERTEX
  5
C0BA
  8
PROF
 10
1.6468132326485809
 20
10.02198069336111
 30
0.0000000000000001
 70
     8
  0
VERTEX
  5
C0BB
  8
PROF
 10
1.67335966680929
 20
9.9344134163010231
 30
0.0000000000000001
 70
     8
  0
VERTEX
  5
C0BC
  8
PROF
 10
1.6890086400463229
 20
9.8512576644480951
 30
0.0000000000000001
 70
     8
  0
VERTEX
  5
C0BD
  8
PROF
 10
1.6951621541682571
 20
9.7725610658417281
 30
0.0000000000000001
 70
     8
  0
VERTEX
  5
C0BE
  8
PROF
 10
1.693222210983605
 20
9.6983712485214237
 30
0.0000000000000001
 70
     8
  0
VERTEX
  5
C0BF
  8
PROF
 10
1.6845908123009961
 20
9.6287358405263603
 30
0.0000000000000001
 70
     8
  0
VERTEX
  5
C0C0
  8
PROF
 10
1.670669959928885
 20
9.5637024698960431
 30
0.0000000000000001
 70
     8
  0
VERTEX
  5
C0C1
  8
PROF
 10
1.6528616556759621
 20
9.5033187646697552
 30
0.0000000000000001
 70
     8
  0
VERTEX
  5
C0C2
  8
PROF
 10
1.632356299273054
 20
9.4475843259650691
 30
0.0000000000000001
 70
     8
  0
VERTEX
  5
C0C3
  8
PROF
 10
1.609497882140658
 20
9.3963066472123273
 30
0.0000000000000001
 70
     8
  0
VERTEX
  5
C0C4
  8
PROF
 10
1.584418793621637
 20
9.3492451949202842
 30
0.0000000000000001
 70
     8
  0
VERTEX
  5
C0C5
  8
PROF
 10
1.5572514230587431
 20
9.3061594355972357
 30
0.0000000000000001
 70
     8
  0
VERTEX
  5
C0C6
  8
PROF
 10
1.5281281597949601
 20
9.2668088357519274
 30
0.0000000000000001
 70
     8
  0
VERTEX
  5
C0C7
  8
PROF
 10
1.497181393172978
 20
9.2309528618929981
 30
0.0000000000000001
 70
     8
  0
VERTEX
  5
C0C8
  8
PROF
 10
1.4645435125357249
 20
9.1983509805288541
 30
0.0000000000000001
 70
     8
  0
VERTEX
  5
C0C9
  8
PROF
 10
1.4303469072260091
 20
9.1687626581682462
 30
0.0000000000000001
 70
     8
  0
VERTEX
  5
C0CA
  8
PROF
 10
1.394736033257401
 20
9.1419547918675335
 30
0.0000000000000001
 70
     8
  0
VERTEX
  5
C0CB
  8
PROF
 10
1.3579036133264131
 20
9.1177240008747713
 30
0.0000000000000001
 70
     8
  0
VERTEX
  5
C0CC
  8
PROF
 10
1.3200544368004321
 20
9.0958743349860924
 30
0.0000000000000001
 70
     8
  0
VERTEX
  5
C0CD
  8
PROF
 10
1.281393293046676
 20
9.0762098439975034
 30
0.0000000000000001
 70
     8
  0
VERTEX
  5
C0CE
  8
PROF
 10
1.2421249714324161
 20
9.0585345777049042
 30
0.0000000000000001
 70
     8
  0
VERTEX
  5
C0CF
  8
PROF
 10
1.202454261324986
 20
9.0426525859044187
 30
0.0000000000000001
 70
     8
  0
VERTEX
  5
C0D0
  8
PROF
 10
1.162585952091659
 20
9.0283679183919503
 30
0.0000000000000001
 70
     8
  0
VERTEX
  5
C0D1
  8
PROF
 10
1.1227248330997091
 20
9.0154846249635021
 30
0.0000000000000001
 70
     8
  0
VERTEX
  5
C0D2
  8
PROF
 10
1.0829726247361
 20
9.0034643862466055
 30
0.0000000000000001
 70
     8
  0
VERTEX
  5
C0D3
  8
PROF
 10
1.043018771466222
 20
8.9903994061946833
 30
0.0000000000000001
 70
     8
  0
VERTEX
  5
C0D4
  8
PROF
 10
1.002449648775211
 20
8.9740395195925622
 30
0.0000000000000001
 70
     8
  0
VERTEX
  5
C0D5
  8
PROF
 10
0.9608516321480919
 20
8.9521345612251935
 30
0.0000000000000001
 70
     8
  0
VERTEX
  5
C0D6
  8
PROF
 10
0.9178110970699435
 20
8.9224343658775052
 30
0.0000000000000001
 70
     8
  0
VERTEX
  5
C0D7
  8
PROF
 10
0.8729144190259033
 20
8.8826887683343312
 30
0.0000000000000001
 70
     8
  0
VERTEX
  5
C0D8
  8
PROF
 10
0.8257479735009949
 20
8.8306476033806121
 30
0.0000000000000001
 70
     8
  0
VERTEX
  5
C0D9
  8
PROF
 10
0.7758981359802988
 20
8.764060705801171
 30
0.0000000000000001
 70
     8
  0
VERTEX
  5
C0DA
  8
PROF
 10
1.7292019016096549
 20
9.8629858761255491
 30
0.0000000000000001
 70
    16
  0
VERTEX
  5
C0DB
  8
PROF
 10
1.679373123114088
 20
9.4532143012734213
 30
0.0000000000000001
 70
    16
  0
VERTEX
  5
C0DC
  8
PROF
 10
1.4455611507419801
 20
9.1391837193732481
 30
0.0000000000000001
 70
    16
  0
VERTEX
  5
C0DD
  8
PROF
 10
1.1204637172738201
 20
9.0026267702428413
 30
0.0000000000000001
 70
    16
  0
VERTEX
  5
C0DE
  8
PROF
 10
0.9127765582653638
 20
8.9630202230383702
 30
0.0000000000000001
 70
    16
  0
VERTEX
  5
C0DF
  8
PROF
 10
0.7758981359802988
 20
8.764060705801171
 30
0.0000000000000001
 70
    16
  0
SEQEND
  5
C0E0
  8
PROF
  0
ARC
  5
C0E1
  8
PROF
 10
0.733429816733235
 20
8.4849506952165257
 30
0.0000000000000001
 40
0.2823224329524727
 50
269.73652020831901
 51
81.348449993176914
  0
LINE
  5
C0E2
  8
PROF
  6
CONTINUOUS
 10
-0.0000008570117416
 20
9.1943336957369848
 30
-0.0000000000000001
 11
3.6306271195888362
 21
13.325025853350891
 31
0.0000000000000002
  0
POLYLINE
  5
C0E3
  8
PROF
 66
     1
 10
0.0
 20
0.0
 30
0.0000000000000001
 70
     4
 75
     6
  0
VERTEX
  5
C0E4
  8
PROF
 10
4.519857503186925
 20
12.72227734589444
 30
0.0000000000000001
 70
    16
  0
VERTEX
  5
C0E5
  8
PROF
 10
4.519857503186925
 20
12.72227734589444
 30
0.0000000000000001
 70
     8
  0
VERTEX
  5
C0E6
  8
PROF
 10
4.4467035366886289
 20
12.741128108778071
 30
0.0000000000000001
 70
     8
  0
VERTEX
  5
C0E7
  8
PROF
 10
4.3786645761268801
 20
12.754675269913941
 30
0.0000000000000001
 70
     8
  0
VERTEX
  5
C0E8
  8
PROF
 10
4.3154364111440469
 20
12.76334314092332
 30
0.0000000000000001
 70
     8
  0
VERTEX
  5
C0E9
  8
PROF
 10
4.256714831382566
 20
12.76755603342724
 30
0.0000000000000001
 70
     8
  0
VERTEX
  5
C0EA
  8
PROF
 10
4.2021956264849791
 20
12.76773825904672
 30
0.0000000000000001
 70
     8
  0
VERTEX
  5
C0EB
  8
PROF
 10
4.1515745860935436
 20
12.764314129403139
 30
0.0000000000000001
 70
     8
  0
VERTEX
  5
C0EC
  8
PROF
 10
4.1045474998508649
 20
12.75770795611743
 30
0.0000000000000001
 70
     8
  0
VERTEX
  5
C0ED
  8
PROF
 10
4.0608101573993149
 20
12.748344050810831
 30
0.0000000000000001
 70
     8
  0
VERTEX
  5
C0EE
  8
PROF
 10
4.0200583483813261
 20
12.736646725104491
 30
0.0000000000000001
 70
     8
  0
VERTEX
  5
C0EF
  8
PROF
 10
3.981987862439381
 20
12.72304029061945
 30
0.0000000000000001
 70
     8
  0
VERTEX
  5
C0F0
  8
PROF
 10
3.946294489215858
 20
12.707949058976959
 30
0.0000000000000001
 70
     8
  0
VERTEX
  5
C0F1
  8
PROF
 10
3.912674018353242
 20
12.691797341798059
 30
0.0000000000000001
 70
     8
  0
VERTEX
  5
C0F2
  8
PROF
 10
3.8808638350742499
 20
12.67494295718654
 30
0.0000000000000001
 70
     8
  0
VERTEX
  5
C0F3
  8
PROF
 10
3.850767706922738
 20
12.65747774917668
 30
0.0000000000000001
 70
     8
  0
VERTEX
  5
C0F4
  8
PROF
 10
3.8223309970228438
 20
12.639427068285499
 30
0.0000000000000001
 70
     8
  0
VERTEX
  5
C0F5
  8
PROF
 10
3.795499068498712
 20
12.62081626503004
 30
0.0000000000000001
 70
     8
  0
VERTEX
  5
C0F6
  8
PROF
 10
3.7702172844744819
 20
12.601670689926999
 30
0.0000000000000001
 70
     8
  0
VERTEX
  5
C0F7
  8
PROF
 10
3.7464310080743521
 20
12.58201569349364
 30
0.0000000000000001
 70
     8
  0
VERTEX
  5
C0F8
  8
PROF
 10
3.7240856024224609
 20
12.56187662624666
 30
0.0000000000000001
 70
     8
  0
VERTEX
  5
C0F9
  8
PROF
 10
3.7031264306428961
 20
12.541278838703191
 30
0.0000000000000001
 70
     8
  0
VERTEX
  5
C0FA
  8
PROF
 10
3.683498855859908
 20
12.520247681380051
 30
0.0000000000000001
 70
     8
  0
VERTEX
  5
C0FB
  8
PROF
 10
3.665148241197528
 20
12.49880850479428
 30
0.0000000000000001
 70
     8
  0
VERTEX
  5
C0FC
  8
PROF
 10
3.648019949779949
 20
12.47698665946279
 30
0.0000000000000001
 70
     8
  0
VERTEX
  5
C0FD
  8
PROF
 10
3.6320593447313159
 20
12.45480749590263
 30
0.0000000000000001
 70
     8
  0
VERTEX
  5
C0FE
  8
PROF
 10
3.617189584886658
 20
12.43223790353807
 30
0.0000000000000001
 70
     8
  0
VERTEX
  5
C0FF
  8
PROF
 10
3.6032450119242849
 20
12.40901092742285
 30
0.0000000000000001
 70
     8
  0
VERTEX
  5
C100
  8
PROF
 10
3.590037763233453
 20
12.38480115151844
 30
0.0000000000000001
 70
     8
  0
VERTEX
  5
C101
  8
PROF
 10
3.5773799762033032
 20
12.35928315978594
 30
0.0000000000000001
 70
     8
  0
VERTEX
  5
C102
  8
PROF
 10
3.5650837882230899
 20
12.33213153618658
 30
0.0000000000000001
 70
     8
  0
VERTEX
  5
C103
  8
PROF
 10
3.552961336681959
 20
12.303020864681571
 30
0.0000000000000001
 70
     8
  0
VERTEX
  5
C104
  8
PROF
 10
3.540824758969165
 20
12.271625729232371
 30
0.0000000000000001
 70
     8
  0
VERTEX
  5
C105
  8
PROF
 10
3.528486192473848
 20
12.23762071379997
 30
0.0000000000000001
 70
     8
  0
VERTEX
  5
C106
  8
PROF
 10
3.5157577745852659
 20
12.200680402345711
 30
0.0000000000000001
 70
     8
  0
VERTEX
  5
C107
  8
PROF
 10
3.502451642692618
 20
12.16047937883093
 30
0.0000000000000001
 70
     8
  0
VERTEX
  5
C108
  8
PROF
 10
3.4883799341851041
 20
12.116692227216619
 30
0.0000000000000001
 70
     8
  0
VERTEX
  5
C109
  8
PROF
 10
3.4733547864519201
 20
12.06899353146423
 30
0.0000000000000001
 70
     8
  0
VERTEX
  5
C10A
  8
PROF
 10
3.45723654619428
 20
12.0172095445447
 30
0.0000000000000001
 70
     8
  0
VERTEX
  5
C10B
  8
PROF
 10
3.440078397361388
 20
11.961773195467799
 30
0.0000000000000001
 70
     8
  0
VERTEX
  5
C10C
  8
PROF
 10
3.4219817332145781
 20
11.90326908225302
 30
0.0000000000000001
 70
     8
  0
VERTEX
  5
C10D
  8
PROF
 10
3.4030479470150099
 20
11.842281802919951
 30
0.0000000000000001
 70
     8
  0
VERTEX
  5
C10E
  8
PROF
 10
3.383378432024017
 20
11.779395955487979
 30
0.0000000000000001
 70
     8
  0
VERTEX
  5
C10F
  8
PROF
 10
3.36307458150287
 20
11.7151961379768
 30
0.0000000000000001
 70
     8
  0
VERTEX
  5
C110
  8
PROF
 10
3.342237788712735
 20
11.650266948405831
 30
0.0000000000000001
 70
     8
  0
VERTEX
  5
C111
  8
PROF
 10
3.3209694469149991
 20
11.58519298479461
 30
0.0000000000000001
 70
     8
  0
VERTEX
  5
C112
  8
PROF
 10
3.299370949370767
 20
11.52055884516254
 30
0.0000000000000001
 70
     8
  0
VERTEX
  5
C113
  8
PROF
 10
3.277543689341428
 20
11.456949127529461
 30
0.0000000000000001
 70
     8
  0
VERTEX
  5
C114
  8
PROF
 10
3.2555890600881399
 20
11.3949484299145
 30
0.0000000000000001
 70
     8
  0
VERTEX
  5
C115
  8
PROF
 10
3.2336084548721811
 20
11.335141350337491
 30
0.0000000000000001
 70
     8
  0
VERTEX
  5
C116
  8
PROF
 10
3.2116715641212181
 20
11.277995447977769
 30
0.0000000000000001
 70
     8
  0
VERTEX
  5
C117
  8
PROF
 10
3.1897212669278461
 20
11.22351012665467
 30
0.0000000000000001
 70
     8
  0
VERTEX
  5
C118
  8
PROF
 10
3.1676687395512881
 20
11.17156775134765
 30
0.0000000000000001
 70
     8
  0
VERTEX
  5
C119
  8
PROF
 10
3.1454251582505321
 20
11.12205068703588
 30
0.0000000000000001
 70
     8
  0
VERTEX
  5
C11A
  8
PROF
 10
3.122901699284625
 20
11.07484129869874
 30
0.0000000000000001
 70
     8
  0
VERTEX
  5
C11B
  8
PROF
 10
3.1000095389127278
 20
11.02982195131551
 30
0.0000000000000001
 70
     8
  0
VERTEX
  5
C11C
  8
PROF
 10
3.07665985339389
 20
10.986875009865679
 30
0.0000000000000001
 70
     8
  0
VERTEX
  5
C11D
  8
PROF
 10
3.0527638189871591
 20
10.9458828393283
 30
0.0000000000000001
 70
     8
  0
VERTEX
  5
C11E
  8
PROF
 10
3.0282326119516361
 20
10.90672780468298
 30
0.0000000000000001
 70
     8
  0
VERTEX
  5
C11F
  8
PROF
 10
3.0029774085463701
 20
10.869292270908771
 30
0.0000000000000001
 70
     8
  0
VERTEX
  5
C120
  8
PROF
 10
2.9769093850304089
 20
10.833458602985161
 30
0.0000000000000001
 70
     8
  0
VERTEX
  5
C121
  8
PROF
 10
2.9499397176628559
 20
10.799109165891419
 30
0.0000000000000001
 70
     8
  0
VERTEX
  5
C122
  8
PROF
 10
2.922000609840437
 20
10.76614363969508
 30
0.0000000000000001
 70
     8
  0
VERTEX
  5
C123
  8
PROF
 10
2.8931083735102998
 20
10.7345309648158
 30
0.0000000000000001
 70
     8
  0
VERTEX
  5
C124
  8
PROF
 10
2.8633003477572729
 20
10.70425739676193
 30
0.0000000000000001
 70
     8
  0
VERTEX
  5
C125
  8
PROF
 10
2.8326138716660689
 20
10.67530919104115
 30
0.0000000000000001
 70
     8
  0
VERTEX
  5
C126
  8
PROF
 10
2.801086284321626
 20
10.647672603161711
 30
0.0000000000000001
 70
     8
  0
VERTEX
  5
C127
  8
PROF
 10
2.7687549248087162
 20
10.62133388863162
 30
0.0000000000000001
 70
     8
  0
VERTEX
  5
C128
  8
PROF
 10
2.7356571322120531
 20
10.5962793029588
 30
0.0000000000000001
 70
     8
  0
VERTEX
  5
C129
  8
PROF
 10
2.7018302456165202
 20
10.572495101651381
 30
0.0000000000000001
 70
     8
  0
VERTEX
  5
C12A
  8
PROF
 10
2.6673116041068838
 20
10.54996754021726
 30
0.0000000000000001
 70
     8
  0
VERTEX
  5
C12B
  8
PROF
 10
2.6321385467680321
 20
10.528682874164581
 30
0.0000000000000001
 70
     8
  0
VERTEX
  5
C12C
  8
PROF
 10
2.5963484126846179
 20
10.508627359001251
 30
0.0000000000000001
 70
     8
  0
VERTEX
  5
C12D
  8
PROF
 10
2.5599785409415841
 20
10.489787250235279
 30
0.0000000000000001
 70
     8
  0
VERTEX
  5
C12E
  8
PROF
 10
2.522998630314361
 20
10.472162234281081
 30
0.0000000000000001
 70
     8
  0
VERTEX
  5
C12F
  8
PROF
 10
2.4851078183409072
 20
10.455805721177621
 30
0.0000000000000001
 70
     8
  0
VERTEX
  5
C130
  8
PROF
 10
2.4459376022498982
 20
10.44078455187036
 30
0.0000000000000001
 70
     8
  0
VERTEX
  5
C131
  8
PROF
 10
2.4051194792701249
 20
10.42716556730465
 30
0.0000000000000001
 70
     8
  0
VERTEX
  5
C132
  8
PROF
 10
2.3622849466301541
 20
10.415015608425851
 30
0.0000000000000001
 70
     8
  0
VERTEX
  5
C133
  8
PROF
 10
2.317065501558714
 20
10.40440151617929
 30
0.0000000000000001
 70
     8
  0
VERTEX
  5
C134
  8
PROF
 10
2.2690926412844301
 20
10.395390131510339
 30
0.0000000000000001
 70
     8
  0
VERTEX
  5
C135
  8
PROF
 10
2.2179978630360879
 20
10.388048295364451
 30
0.0000000000000001
 70
     8
  0
VERTEX
  5
C136
  8
PROF
 10
2.1634126640422551
 20
10.38244284868688
 30
0.0000000000000001
 70
     8
  0
VERTEX
  5
C137
  8
PROF
 10
2.1049685415316031
 20
10.37864063242295
 30
0.0000000000000001
 70
     8
  0
VERTEX
  5
C138
  8
PROF
 10
2.0422969927328709
 20
10.37670848751816
 30
0.0000000000000001
 70
     8
  0
VERTEX
  5
C139
  8
PROF
 10
1.9750295148747341
 20
10.37671325491794
 30
0.0000000000000001
 70
     8
  0
VERTEX
  5
C13A
  8
PROF
 10
4.2166060115107484
 20
12.80885334975255
 30
0.0000000000000001
 70
    16
  0
VERTEX
  5
C13B
  8
PROF
 10
3.8702254102732909
 20
12.707065515763929
 30
0.0000000000000001
 70
    16
  0
VERTEX
  5
C13C
  8
PROF
 10
3.605346156896871
 20
12.46277472098552
 30
0.0000000000000001
 70
    16
  0
VERTEX
  5
C13D
  8
PROF
 10
3.500746030527238
 20
12.170680575709749
 30
0.0000000000000001
 70
    16
  0
VERTEX
  5
C13E
  8
PROF
 10
3.231798439705698
 20
11.26846416496107
 30
0.0000000000000001
 70
    16
  0
VERTEX
  5
C13F
  8
PROF
 10
2.9737109398832882
 20
10.76631086647069
 30
0.0000000000000001
 70
    16
  0
VERTEX
  5
C140
  8
PROF
 10
2.5729961067384002
 20
10.460947364504699
 30
0.0000000000000001
 70
    16
  0
VERTEX
  5
C141
  8
PROF
 10
2.2537826214546031
 20
10.372731239449759
 30
0.0000000000000001
 70
    16
  0
VERTEX
  5
C142
  8
PROF
 10
1.9750295148747341
 20
10.37671325491794
 30
0.0000000000000001
 70
    16
  0
SEQEND
  5
C143
  8
PROF
  0
LINE
  5
C144
  8
PROF
 10
4.9012016798694162
 20
12.88585218805485
 30
0.0000000000000003
 11
4.519857503186925
 21
12.88585218805485
 31
0.0000000000000003
  0
LINE
  5
C145
  8
PROF
 10
0.7321315362267457
 20
8.2026312473991556
 30
0.0000000000000006
 11
0.7321315362267457
 21
8.0511853963434952
 31
0.0000000000000006
  0
ARC
  5
C146
  8
PROF
 10
0.7977322214551919
 20
7.577333933202679
 30
0.0000000000000006
 40
0.4783708383912013
 50
97.882010168942557
 51
186.31119505698641
  0
LINE
  5
C147
  8
FRAME_050
 10
7.8016377197432121
 20
17.99371054969447
 30
0.0
 11
7.8016377197432121
 21
0.0000000000002274
 31
0.0
  0
ENDBLK
  5
C149
  8
0
  0
BLOCK
  8
0
  2
*U7
 70
     1
 10
0.0
 20
0.0
 30
0.0
  3
*U7
  1

  0
TEXT
  5
C8C3
  8
0
 10
3.5177832928899071
 20
10.38601584255777
 30
0.0
 40
0.125
  1
Crown Moulding
  0
TEXT
  5
C8C4
  8
0
 10
3.5223876585106431
 20
10.17717091304435
 30
0.0
 40
0.125
  1
TL-AB509
  0
TEXT
  5
C8C5
  8
0
 10
3.5074661032582561
 20
9.9667059289606801
 30
0.0
 40
0.125
  1
1-5/16" x 7-9/16"
  0
TEXT
  5
C8C6
  8
0
 10
3.519403347460166
 20
9.7562409448770051
 30
0.0
 40
0.125
  1
800.66.TAGUE
  0
ENDBLK
  5
C8C8
  8
0
  0
BLOCK
  8
0
  2
*U8
 70
     1
 10
0.0
 20
0.0
 30
0.0
  3
*U8
  1

  0
TEXT
  5
C8CA
  8
0
 10
5.3066868277875692
 20
1.767659498411035
 30
0.0
 40
0.125
  1
Back Band
  0
TEXT
  5
C8CB
  8
0
 10
5.3153839628489603
 20
1.55881456889762
 30
0.0
 40
0.125
  1
TL-1
  0
TEXT
  5
C8CC
  8
0
 10
5.3004624075965721
 20
1.3483495848139451
 30
0.0
 40
0.125
  1
1-3/8" x 1-9/16"
  0
TEXT
  5
C8CD
  8
0
 10
5.3123996517984811
 20
1.1378846007302701
 30
0.0
 40
0.125
  1
800.66.TAGUE
  0
ENDBLK
  5
C8CF
  8
0
  0
BLOCK
  8
0
  2
*U9
 70
     1
 10
0.0
 20
0.0
 30
0.0
  3
*U9
  1

  0
TEXT
  5
C8D1
  8
0
 10
-385.7580743253551
 20
838.2627455404056
 30
0.0
 40
0.125
  1
Back Band
  0
TEXT
  5
C8D2
  8
0
 10
-385.74937719029373
 20
838.05390061089247
 30
0.0
 40
0.125
  1
TL-1
  0
TEXT
  5
C8D3
  8
0
 10
-385.76429874554611
 20
837.84343562680851
 30
0.0
 40
0.125
  1
1-3/8" x 1-9/16"
  0
TEXT
  5
C8D4
  8
0
 10
-385.75236150134418
 20
837.63297064272513
 30
0.0
 40
0.125
  1
800.66.TAGUE
  0
ENDBLK
  5
C8D6
  8
0
  0
BLOCK
  8
0
  2
*D21
 70
     1
 10
0.0
 20
0.0
 30
0.0
  3
*D21
  1

  0
LINE
  5
CDAB
  8
0
 62
     0
 10
-346.64573732984462
 20
509.42191863586828
 30
0.0
 11
-346.03266106471222
 21
509.42191863586828
 31
0.0
  0
LINE
  5
CDAC
  8
0
 62
     0
 10
-347.59461414974379
 20
507.61166709199199
 30
0.0
 11
-346.03266106471222
 21
507.61166709199199
 31
0.0
  0
LINE
  5
CDAD
  8
0
 62
     0
 10
-346.09516106471222
 20
509.42191863586828
 30
0.0
 11
-346.09516106471222
 21
507.61166709199199
 31
0.0
  0
INSERT
  5
CDAE
  8
0
 62
     0
  2
_ARCHTICK
 10
-346.09516106471222
 20
509.42191863586828
 30
0.0
 41
0.046875
 42
0.046875
 43
0.046875
 50
90.0
  0
INSERT
  5
CDAF
  8
0
 62
     0
  2
_ARCHTICK
 10
-346.09516106471222
 20
507.61166709199199
 30
0.0
 41
0.046875
 42
0.046875
 43
0.046875
 50
270.0
  0
INSERT
  5
CDB0
  8
0
  2
*U79
 10
0.0
 20
0.0
 30
0.0
  0
POINT
  5
CDB1
  8
DEFPOINTS
 62
     0
 10
-346.73948732984462
 20
509.42191863586828
 30
0.0
  0
POINT
  5
CDB2
  8
DEFPOINTS
 62
     0
 10
-347.68836414974379
 20
507.61166709199199
 30
0.0
  0
POINT
  5
CDB3
  8
DEFPOINTS
 62
     0
 10
-346.09516106471222
 20
507.61166709199199
 30
0.0
  0
ENDBLK
  5
CDB4
  8
0
  0
BLOCK
  8
0
  2
*D23
 70
     1
 10
0.0
 20
0.0
 30
0.0
  3
*D23
  1

  0
LINE
  5
CDEB
  8
0
 62
     0
 10
-387.02714157709249
 20
839.57969957928674
 30
0.0
 11
-386.41406531196009
 21
839.57969957928674
 31
0.0
  0
LINE
  5
CDEC
  8
0
 62
     0
 10
-387.97601839699172
 20
837.76944803541039
 30
0.0
 11
-386.41406531196009
 21
837.76944803541039
 31
0.0
  0
LINE
  5
CDED
  8
0
 62
     0
 10
-386.47656531196009
 20
839.57969957928674
 30
0.0
 11
-386.47656531196009
 21
837.76944803541039
 31
0.0
  0
INSERT
  5
CDEE
  8
0
 62
     0
  2
_ARCHTICK
 10
-386.47656531196009
 20
839.57969957928674
 30
0.0
 41
0.046875
 42
0.046875
 43
0.046875
 50
90.0
  0
INSERT
  5
CDEF
  8
0
 62
     0
  2
_ARCHTICK
 10
-386.47656531196009
 20
837.76944803541039
 30
0.0
 41
0.046875
 42
0.046875
 43
0.046875
 50
270.0
  0
INSERT
  5
CDF0
  8
0
  2
*U81
 10
0.0
 20
0.0
 30
0.0
  0
POINT
  5
CDF1
  8
DEFPOINTS
 62
     0
 10
-387.12089157709249
 20
839.57969957928674
 30
0.0
  0
POINT
  5
CDF2
  8
DEFPOINTS
 62
     0
 10
-388.06976839699172
 20
837.76944803541039
 30
0.0
  0
POINT
  5
CDF3
  8
DEFPOINTS
 62
     0
 10
-386.47656531196009
 20
837.76944803541039
 30
0.0
  0
ENDBLK
  5
CDEA
  8
0
  0
BLOCK
  8
0
  2
*U68
 70
     1
 10
0.0
 20
0.0
 30
0.0
  3
*U68
  1

  0
TEXT
  5
FE9C
  8
0
 10
2.0520856342580478
 20
1.4053520973297959
 30
0.0
 40
0.125
  1
Exterior Casing
  0
TEXT
  5
FE9D
  8
0
 10
2.0520856342580478
 20
1.1970187639964629
 30
0.0
 40
0.125
  1
TL-180
  0
TEXT
  5
FE9E
  8
0
 10
2.0520856342580478
 20
0.9886854306631298
 30
0.0
 40
0.125
  1
1-1/4" x 2"
  0
TEXT
  5
FE9F
  8
0
 10
2.0520856342580478
 20
0.7803520973297964
 30
0.0
 40
0.125
  1
800.66.TAGUE
  0
ENDBLK
  5
FEA1
  8
0
  0
BLOCK
  8
0
  2
*U69
 70
     1
 10
0.0
 20
0.0
 30
0.0
  3
*U69
  1

  0
TEXT
  5
FEA3
  8
0
 10
1.875832532300876
 20
1.1538771312937111
 30
0.0
 40
0.125
  1
Exterior Casing
  0
TEXT
  5
FEA4
  8
0
 10
1.875832532300876
 20
0.9455437979603782
 30
0.0
 40
0.125
  1
TL-544
  0
TEXT
  5
FEA5
  8
0
 10
1.875832532300876
 20
0.7372104646270449
 30
0.0
 40
0.125
  1
1-1/8" x 1-9/16"
  0
TEXT
  5
FEA6
  8
0
 10
1.875832532300876
 20
0.5288771312937115
 30
0.0
 40
0.125
  1
800.66.TAGUE
  0
ENDBLK
  5
FEA8
  8
0
  0
BLOCK
  8
0
  2
*U70
 70
     1
 10
0.0
 20
0.0
 30
0.0
  3
*U70
  1

  0
TEXT
  5
FEAA
  8
0
 10
2.2653468102219558
 20
1.612015904330746
 30
0.0
 40
0.125
  1
Exterior Casing
  0
TEXT
  5
FEAB
  8
0
 10
2.2653468102219558
 20
1.403682570997413
 30
0.0
 40
0.125
  1
TL-2023
  0
TEXT
  5
FEAC
  8
0
 10
2.2653468102219558
 20
1.19534923766408
 30
0.0
 40
0.125
  1
1-13/16" x 3" 
  0
TEXT
  5
FEAD
  8
0
 10
2.2653468102219558
 20
0.9870159043307467
 30
0.0
 40
0.125
  1
800.66.TAGUE
  0
ENDBLK
  5
FEAF
  8
0
  0
BLOCK
  8
0
  2
*U71
 70
     1
 10
0.0
 20
0.0
 30
0.0
  3
*U71
  1

  0
TEXT
  5
FEB1
  8
0
 10
2.0898675486657221
 20
0.9145072342178082
 30
0.0
 40
0.125
  1
Exterior Casing
  0
TEXT
  5
FEB2
  8
0
 10
2.0898675486657221
 20
0.706173900884475
 30
0.0
 40
0.125
  1
TL-2087
  0
TEXT
  5
FEB3
  8
0
 10
2.0898675486657221
 20
0.4978405675511416
 30
0.0
 40
0.125
  1
7/8" x 1-7/16"
  0
TEXT
  5
FEB4
  8
0
 10
2.0898675486657221
 20
0.2895072342178082
 30
0.0
 40
0.125
  1
800.66.TAGUE
  0
ENDBLK
  5
FEB6
  8
0
  0
BLOCK
  8
0
  2
*U72
 70
     1
 10
0.0
 20
0.0
 30
0.0
  3
*U72
  1

  0
TEXT
  5
FEB8
  8
0
 10
2.1806631076311191
 20
0.8419101546792263
 30
0.0
 40
0.125
  1
Exterior Casing
  0
TEXT
  5
FEB9
  8
0
 10
2.1806631076311191
 20
0.6335768213458931
 30
0.0
 40
0.125
  1
TL-2158
  0
TEXT
  5
FEBA
  8
0
 10
2.1806631076311191
 20
0.4252434880125597
 30
0.0
 40
0.125
  1
1-1/16" x 1-5/16"
  0
TEXT
  5
FEBB
  8
0
 10
2.1806631076311191
 20
0.2169101546792262
 30
0.0
 40
0.125
  1
800.66.TAGUE
  0
ENDBLK
  5
FEBD
  8
0
  0
BLOCK
  8
0
  2
*U73
 70
     1
 10
0.0
 20
0.0
 30
0.0
  3
*U73
  1

  0
TEXT
  5
FEBF
  8
0
 10
2.2408536425556909
 20
1.2992247915469759
 30
0.0
 40
0.125
  1
Exterior Casing
  0
TEXT
  5
FEC0
  8
0
 10
2.2408536425556909
 20
1.090891458213642
 30
0.0
 40
0.125
  1
TL-2174
  0
TEXT
  5
FEC1
  8
0
 10
2.2408536425556909
 20
0.8825581248803095
 30
0.0
 40
0.125
  1
1-3/8" x 1-7/16"
  0
TEXT
  5
FEC2
  8
0
 10
2.2408536425556909
 20
0.6742247915469762
 30
0.0
 40
0.125
  1
800.66.TAGUE
  0
ENDBLK
  5
FEC4
  8
0
  0
BLOCK
  8
0
  2
*U74
 70
     1
 10
0.0
 20
0.0
 30
0.0
  3
*U74
  1

  0
TEXT
  5
FEC6
  8
0
 10
2.8048346441314029
 20
1.129982283289336
 30
0.0
 40
0.125
  1
Exterior Casing
  0
TEXT
  5
FEC7
  8
0
 10
2.8048346441314029
 20
0.9216489499560037
 30
0.0
 40
0.125
  1
TL-2175
  0
TEXT
  5
FEC8
  8
0
 10
2.8048346441314029
 20
0.7133156166226704
 30
0.0
 40
0.125
  1
1-9/32" x 1-29/32"
  0
TEXT
  5
FEC9
  8
0
 10
2.8048346441314029
 20
0.504982283289337
 30
0.0
 40
0.125
  1
800.66.TAGUE
  0
ENDBLK
  5
FECB
  8
0
  0
BLOCK
  8
0
  2
*U75
 70
     1
 10
0.0
 20
0.0
 30
0.0
  3
*U75
  1

  0
TEXT
  5
FECD
  8
0
 10
2.5484960182450891
 20
0.679430053902138
 30
0.0
 40
0.125
  1
Exterior Casing
  0
TEXT
  5
FECE
  8
0
 10
2.5484960182450891
 20
0.4710967205688046
 30
0.0
 40
0.125
  1
TL-2176
  0
TEXT
  5
FECF
  8
0
 10
2.5484960182450891
 20
0.2627633872354712
 30
0.0
 40
0.125
  1
19/32" x 1-5/8"
  0
TEXT
  5
FED0
  8
0
 10
2.5484960182450891
 20
0.0544300539021379
 30
0.0
 40
0.125
  1
800.66.TAGUE
  0
ENDBLK
  5
FED2
  8
0
  0
BLOCK
  8
0
  2
*U76
 70
     1
 10
0.0
 20
0.0
 30
0.0
  3
*U76
  1

  0
TEXT
  5
FED4
  8
0
 10
2.105732231568993
 20
0.7255830389262883
 30
0.0
 40
0.125
  1
Exterior Casing
  0
TEXT
  5
FED5
  8
0
 10
2.105732231568993
 20
0.5172497055929551
 30
0.0
 40
0.125
  1
TL-2108
  0
TEXT
  5
FED6
  8
0
 10
2.105732231568993
 20
0.3089163722596217
 30
0.0
 40
0.125
  1
15/16" x 1-1/16"
  0
TEXT
  5
FED7
  8
0
 10
2.105732231568993
 20
0.1005830389262883
 30
0.0
 40
0.125
  1
800.66.TAGUE
  0
ENDBLK
  5
FED9
  8
0
  0
BLOCK
  8
0
  2
*U77
 70
     1
 10
0.0
 20
0.0
 30
0.0
  3
*U77
  1

  0
TEXT
  5
FEDB
  8
0
 10
0.0469294570366401
 20
0.67943073463357
 30
0.0
 40
0.125
  1
Exterior Casing
  0
TEXT
  5
FEDC
  8
0
 10
0.0469294570366401
 20
0.4710974013002366
 30
0.0
 40
0.125
  1
TL-2206
  0
TEXT
  5
FEDD
  8
0
 10
0.0469294570366401
 20
0.2627640679669033
 30
0.0
 40
0.125
  1
1-3/32" x 1-23/32"
  0
TEXT
  5
FEDE
  8
0
 10
0.0469294570366401
 20
0.05443073463357
 30
0.0
 40
0.125
  1
800.66.TAGUE
  0
ENDBLK
  5
FEE0
  8
0
  0
BLOCK
  8
0
  2
*U78
 70
     1
 10
0.0
 20
0.0
 30
0.0
  3
*U78
  1

  0
TEXT
  5
FEE2
  8
0
 10
0.0449853036485593
 20
0.6794309447934666
 30
0.0
 40
0.125
  1
Exterior Casing
  0
TEXT
  5
FEE3
  8
0
 10
0.0449853036485593
 20
0.4710976114601333
 30
0.0
 40
0.125
  1
TL-2207
  0
TEXT
  5
FEE4
  8
0
 10
0.0449853036485593
 20
0.2627642781267999
 30
0.0
 40
0.125
  1
1-1/8" x 2-15/16"
  0
TEXT
  5
FEE5
  8
0
 10
0.0449853036485593
 20
0.0544309447934666
 30
0.0
 40
0.125
  1
800.66.TAGUE
  0
ENDBLK
  5
FEE7
  8
0
  0
BLOCK
  8
0
  2
*U79
 70
     1
 10
0.0
 20
0.0
 30
0.0
  3
*U79
  1

  0
TEXT
  5
FEE9
  8
0
 62
     0
 10
-346.15979271546257
 20
508.16262619726342
 30
0.0
 40
0.125
  1
Cutter
 50
90.0
  0
ENDBLK
  5
FEEB
  8
0
  0
BLOCK
  8
0
  2
*U80
 70
     1
 10
0.0
 20
0.0
 30
0.0
  3
*U80
  1

  0
TEXT
  5
FEED
  8
0
 10
3.5112004937425918
 20
2.3236705000861089
 30
0.0
 40
0.125
  1
Exterior Casing
  0
TEXT
  5
FEEE
  8
0
 10
3.5112004937425918
 20
2.1153371667527749
 30
0.0
 40
0.125
  1
TL-2242
  0
TEXT
  5
FEEF
  8
0
 10
3.5112004937425918
 20
1.9070038334194419
 30
0.0
 40
0.125
  1
2" x 4-1/2"
  0
TEXT
  5
FEF0
  8
0
 10
3.5112004937425918
 20
1.6986705000861091
 30
0.0
 40
0.125
  1
800.66.TAGUE
  0
ENDBLK
  5
FEF2
  8
0
  0
BLOCK
  8
0
  2
*U81
 70
     1
 10
0.0
 20
0.0
 30
0.0
  3
*U81
  1

  0
TEXT
  5
FEF4
  8
0
 62
     0
 10
-386.5390653119602
 20
838.32040714068194
 30
0.0
 40
0.125
  1
Cutter
 50
90.0
  0
ENDBLK
  5
FEF6
  8
0
  0
BLOCK
  8
0
  2
*U82
 70
     1
 10
0.0
 20
0.0
 30
0.0
  3
*U82
  1

  0
TEXT
  5
FEF8
  8
0
 10
1.983241637717696
 20
1.2297917133489591
 30
0.0
 40
0.125
  1
Exterior Casing
  0
TEXT
  5
FEF9
  8
0
 10
1.983241637717696
 20
1.0214583800156249
 30
0.0
 40
0.125
  1
TL-2254
  0
TEXT
  5
FEFA
  8
0
 10
1.983241637717696
 20
0.8131250466822924
 30
0.0
 40
0.125
  1
1-1/4" x 1-3/4"
  0
TEXT
  5
FEFB
  8
0
 10
1.983241637717696
 20
0.6047917133489591
 30
0.0
 40
0.125
  1
800.66.TAGUE
  0
ENDBLK
  5
FEFD
  8
0
  0
BLOCK
  8
0
  2
*U83
 70
     1
 10
0.0
 20
0.0
 30
0.0
  3
*U83
  1

  0
TEXT
  5
FEFF
  8
0
 10
2.2285402119240412
 20
3.7215677387475798
 30
0.0
 40
0.125
  1
Exterior Jamb
  0
TEXT
  5
FF00
  8
0
 10
2.2285402119240412
 20
3.5132344054142468
 30
0.0
 40
0.125
  1
TL-2126
  0
TEXT
  5
FF01
  8
0
 10
2.2285402119240412
 20
3.3049010720809142
 30
0.0
 40
0.125
  1
1-1/4" x 6-5/8"
  0
TEXT
  5
FF02
  8
0
 10
2.2285402119240412
 20
3.0965677387475798
 30
0.0
 40
0.125
  1
800.66.TAGUE
  0
ENDBLK
  5
FF04
  8
0
  0
BLOCK
  8
0
  2
*U84
 70
     1
 10
0.0
 20
0.0
 30
0.0
  3
*U84
  1

  0
TEXT
  5
FF06
  8
0
 10
2.025590122046196
 20
3.8877018206065941
 30
0.0
 40
0.125
  1
Exterior Jamb
  0
TEXT
  5
FF07
  8
0
 10
2.025590122046196
 20
3.6793684872732602
 30
0.0
 40
0.125
  1
TL-2127
  0
TEXT
  5
FF08
  8
0
 10
2.025590122046196
 20
3.4710351539399271
 30
0.0
 40
0.125
  1
1-1/4" x 6-5/8"
  0
TEXT
  5
FF09
  8
0
 10
2.025590122046196
 20
3.2627018206065941
 30
0.0
 40
0.125
  1
800.66.TAGUE
  0
ENDBLK
  5
FF0B
  8
0
  0
BLOCK
  8
0
  2
*U85
 70
     1
 10
0.0
 20
0.0
 30
0.0
  3
*U85
  1

  0
TEXT
  5
FF0D
  8
0
 10
1.8279899277385421
 20
2.0085009357213721
 30
0.0
 40
0.125
  1
Fluting
  0
TEXT
  5
FF0E
  8
0
 10
1.8279899277385421
 20
1.800167602388038
 30
0.0
 40
0.125
  1
TL-123
  0
TEXT
  5
FF0F
  8
0
 10
1.8279899277385421
 20
1.5918342690547049
 30
0.0
 40
0.125
  1
3/4" x 3-1/2"
  0
TEXT
  5
FF10
  8
0
 10
1.8279899277385421
 20
1.3835009357213719
 30
0.0
 40
0.125
  1
800.66.TAGUE
  0
ENDBLK
  5
FF12
  8
0
  0
BLOCK
  8
0
  2
*U86
 70
     1
 10
0.0
 20
0.0
 30
0.0
  3
*U86
  1

  0
TEXT
  5
FF14
  8
0
 10
1.9710461263608181
 20
3.9608870512416838
 30
0.0
 40
0.125
  1
Fluting
  0
TEXT
  5
FF15
  8
0
 10
1.9710461263608181
 20
3.7525537179083499
 30
0.0
 40
0.125
  1
TL-343
  0
TEXT
  5
FF16
  8
0
 10
1.9710461263608181
 20
3.5442203845750169
 30
0.0
 40
0.125
  1
7/8" x 7-3/16"
  0
TEXT
  5
FF17
  8
0
 10
1.9710461263608181
 20
3.3358870512416838
 30
0.0
 40
0.125
  1
800.66.TAGUE
  0
ENDBLK
  5
FF19
  8
0
  0
BLOCK
  8
0
  2
*U87
 70
     1
 10
0.0
 20
0.0
 30
0.0
  3
*U87
  1

  0
TEXT
  5
FF1B
  8
0
 10
1.4662897697170929
 20
3.8395028676267202
 30
0.0
 40
0.125
  1
Fluting
  0
TEXT
  5
FF1C
  8
0
 10
1.4662897697170929
 20
3.6311695342933858
 30
0.0
 40
0.125
  1
TL-2183
  0
TEXT
  5
FF1D
  8
0
 10
1.4662897697170929
 20
3.4228362009600528
 30
0.0
 40
0.125
  1
3/4" x 7-1/4"
  0
TEXT
  5
FF1E
  8
0
 10
1.4662897697170929
 20
3.2145028676267202
 30
0.0
 40
0.125
  1
800.66.TAGUE
  0
ENDBLK
  5
FF20
  8
0
  0
BLOCK
  8
0
  2
*U88
 70
     1
 10
0.0
 20
0.0
 30
0.0
  3
*U88
  1

  0
TEXT
  5
FF22
  8
0
 10
2.0951853732560148
 20
2.6676693683394879
 30
0.0
 40
0.125
  1
Fluting
  0
TEXT
  5
FF23
  8
0
 10
2.0951853732560148
 20
2.4593360350061548
 30
0.0
 40
0.125
  1
TL-2276
  0
TEXT
  5
FF24
  8
0
 10
2.0951853732560148
 20
2.2510027016728218
 30
0.0
 40
0.125
  1
11/16" x 3"
  0
TEXT
  5
FF25
  8
0
 10
2.0951853732560148
 20
2.0426693683394879
 30
0.0
 40
0.125
  1
800.66.TAGUE
  0
ENDBLK
  5
FF27
  8
0
  0
BLOCK
  8
0
  2
*U89
 70
     1
 10
0.0
 20
0.0
 30
0.0
  3
*U89
  1

  0
TEXT
  5
FF29
  8
0
 10
2.4586482925877808
 20
1.0775582798773931
 30
0.0
 40
0.125
  1
Full Round
  0
TEXT
  5
FF2A
  8
0
 10
2.4586482925877808
 20
0.8692249465440607
 30
0.0
 40
0.125
  1
TL-232
  0
TEXT
  5
FF2B
  8
0
 10
2.4586482925877808
 20
0.6608916132107274
 30
0.0
 40
0.125
  1
1-7/16" x 1-7/16"
  0
TEXT
  5
FF2C
  8
0
 10
2.4586482925877808
 20
0.452558279877394
 30
0.0
 40
0.125
  1
800.66.TAGUE
  0
ENDBLK
  5
FF2E
  8
0
  0
BLOCK
  8
0
  2
*U90
 70
     1
 10
0.0
 20
0.0
 30
0.0
  3
*U90
  1

  0
TEXT
  5
FF30
  8
0
 10
2.339763263951113
 20
0.912090443150646
 30
0.0
 40
0.125
  1
Full Round
  0
TEXT
  5
FF31
  8
0
 10
2.339763263951113
 20
0.7037571098173128
 30
0.0
 40
0.125
  1
TL-233
  0
TEXT
  5
FF32
  8
0
 10
2.339763263951113
 20
0.4954237764839795
 30
0.0
 40
0.125
  1
1-3/16" x 1-3/16"
  0
TEXT
  5
FF33
  8
0
 10
2.339763263951113
 20
0.287090443150646
 30
0.0
 40
0.125
  1
800.66.TAGUE
  0
ENDBLK
  5
FF35
  8
0
  0
BLOCK
  8
0
  2
*U91
 70
     1
 10
0.0
 20
0.0
 30
0.0
  3
*U91
  1

  0
TEXT
  5
FF37
  8
0
 10
2.2927598682417729
 20
0.8643692839127652
 30
0.0
 40
0.125
  1
Full Round
  0
TEXT
  5
FF38
  8
0
 10
2.2927598682417729
 20
0.6560359505794321
 30
0.0
 40
0.125
  1
TL-234
  0
TEXT
  5
FF39
  8
0
 10
2.2927598682417729
 20
0.4477026172460987
 30
0.0
 40
0.125
  1
1-1/16" x 1-1/16"
  0
TEXT
  5
FF3A
  8
0
 10
2.2927598682417729
 20
0.2393692839127652
 30
0.0
 40
0.125
  1
800.66.TAGUE
  0
ENDBLK
  5
FF3C
  8
0
  0
BLOCK
  8
0
  2
*U92
 70
     1
 10
0.0
 20
0.0
 30
0.0
  3
*U92
  1

  0
TEXT
  5
FF3E
  8
0
 10
2.0765905058337921
 20
1.0252762384561711
 30
0.0
 40
0.125
  1
Glass Bead
  0
TEXT
  5
FF3F
  8
0
 10
2.0765905058337921
 20
0.8169429051228387
 30
0.0
 40
0.125
  1
TL-145
  0
TEXT
  5
FF40
  8
0
 10
2.0765905058337921
 20
0.6086095717895054
 30
0.0
 40
0.125
  1
11/16" x 3/4"
  0
TEXT
  5
FF41
  8
0
 10
2.0765905058337921
 20
0.400276238456172
 30
0.0
 40
0.125
  1
800.66.TAGUE
  0
ENDBLK
  5
FF43
  8
0
  0
BLOCK
  8
0
  2
*U93
 70
     1
 10
0.0
 20
0.0
 30
0.0
  3
*U93
  1

  0
TEXT
  5
FF45
  8
0
 10
1.468683703905185
 20
0.7455079879047162
 30
0.0
 40
0.125
  1
Glass Bead
  0
TEXT
  5
FF46
  8
0
 10
1.468683703905185
 20
0.537174654571383
 30
0.0
 40
0.125
  1
TL-147
  0
TEXT
  5
FF47
  8
0
 10
1.468683703905185
 20
0.3288413212380496
 30
0.0
 40
0.125
  1
1/2" x 9/16"
  0
TEXT
  5
FF48
  8
0
 10
1.468683703905185
 20
0.1205079879047162
 30
0.0
 40
0.125
  1
800.66.TAGUE
  0
ENDBLK
  5
FF4A
  8
0
  0
BLOCK
  8
0
  2
*U94
 70
     1
 10
0.0
 20
0.0
 30
0.0
  3
*U94
  1

  0
TEXT
  5
FF4C
  8
0
 10
1.584020839760341
 20
0.6794303041602916
 30
0.0
 40
0.125
  1
Glass Bead
  0
TEXT
  5
FF4D
  8
0
 10
1.584020839760341
 20
0.4710969708269583
 30
0.0
 40
0.125
  1
TL-152
  0
TEXT
  5
FF4E
  8
0
 10
1.584020839760341
 20
0.262763637493625
 30
0.0
 40
0.125
  1
3/8" x 11/16"
  0
TEXT
  5
FF4F
  8
0
 10
1.584020839760341
 20
0.0544303041602916
 30
0.0
 40
0.125
  1
800.66.TAGUE
  0
ENDBLK
  5
FF51
  8
0
  0
BLOCK
  8
0
  2
*U95
 70
     1
 10
0.0
 20
0.0
 30
0.0
  3
*U95
  1

  0
TEXT
  5
FF53
  8
0
 10
1.3526095965341931
 20
0.7381811042487243
 30
0.0
 40
0.125
  1
Glass Bead
  0
TEXT
  5
FF54
  8
0
 10
1.3526095965341931
 20
0.5298477709153912
 30
0.0
 40
0.125
  1
TL-2142
  0
TEXT
  5
FF55
  8
0
 10
1.3526095965341931
 20
0.3215144375820577
 30
0.0
 40
0.125
  1
11/32" x 29/32"
  0
TEXT
  5
FF56
  8
0
 10
1.3526095965341931
 20
0.1131811042487243
 30
0.0
 40
0.125
  1
800.66.TAGUE
  0
ENDBLK
  5
FF58
  8
0
  0
BLOCK
  8
0
  2
*U96
 70
     1
 10
0.0
 20
0.0
 30
0.0
  3
*U96
  1

  0
TEXT
  5
FF5A
  8
0
 10
1.3435544091540801
 20
0.6794309539541246
 30
0.0
 40
0.125
  1
Glass Bead
  0
TEXT
  5
FF5B
  8
0
 10
1.3435544091540801
 20
0.4710976206207913
 30
0.0
 40
0.125
  1
TL-2149
  0
TEXT
  5
FF5C
  8
0
 10
1.3435544091540801
 20
0.2627642872874579
 30
0.0
 40
0.125
  1
3/8" x 1/2"
  0
TEXT
  5
FF5D
  8
0
 10
1.3435544091540801
 20
0.0544309539541246
 30
0.0
 40
0.125
  1
800.66.TAGUE
  0
ENDBLK
  5
FF5F
  8
0
  0
BLOCK
  8
0
  2
*U97
 70
     1
 10
0.0
 20
0.0
 30
0.0
  3
*U97
  1

  0
TEXT
  5
FF61
  8
0
 10
1.488844305553698
 20
0.6807937379744545
 30
0.0
 40
0.125
  1
Glass Bead
  0
TEXT
  5
FF62
  8
0
 10
1.488844305553698
 20
0.4724604046411212
 30
0.0
 40
0.125
  1
TL-2155
  0
TEXT
  5
FF63
  8
0
 10
1.488844305553698
 20
0.2641270713077878
 30
0.0
 40
0.125
  1
1/2" x 13/16"
  0
TEXT
  5
FF64
  8
0
 10
1.488844305553698
 20
0.0557937379744544
 30
0.0
 40
0.125
  1
800.66.TAGUE
  0
ENDBLK
  5
FF66
  8
0
  0
BLOCK
  8
0
  2
*U98
 70
     1
 10
0.0
 20
0.0
 30
0.0
  3
*U98
  1

  0
TEXT
  5
FF68
  8
0
 10
1.52304343587059
 20
0.6794307504626432
 30
0.0
 40
0.125
  1
Glass Bead
  0
TEXT
  5
FF69
  8
0
 10
1.52304343587059
 20
0.4710974171293099
 30
0.0
 40
0.125
  1
TL-2218
  0
TEXT
  5
FF6A
  8
0
 10
1.52304343587059
 20
0.2627640837959765
 30
0.0
 40
0.125
  1
1/4" x 5/8"
  0
TEXT
  5
FF6B
  8
0
 10
1.52304343587059
 20
0.0544307504626431
 30
0.0
 40
0.125
  1
800.66.TAGUE
  0
ENDBLK
  5
FF6D
  8
0
  0
BLOCK
  8
0
  2
*U99
 70
     1
 10
0.0
 20
0.0
 30
0.0
  3
*U99
  1

  0
TEXT
  5
FF6F
  8
0
 10
2.8235364504146778
 20
0.7161662597191026
 30
0.0
 40
0.125
  1
Half Round
  0
TEXT
  5
FF70
  8
0
 10
2.8235364504146778
 20
0.5078329263857692
 30
0.0
 40
0.125
  1
TL-6
  0
TEXT
  5
FF71
  8
0
 10
2.8235364504146778
 20
0.2994995930524358
 30
0.0
 40
0.125
  1
7/8" x 1-3/4"
  0
TEXT
  5
FF72
  8
0
 10
2.8235364504146778
 20
0.0911662597191025
 30
0.0
 40
0.125
  1
800.66.TAGUE
  0
ENDBLK
  5
FF74
  8
0
  0
BLOCK
  8
0
  2
*U100
 70
     1
 10
0.0
 20
0.0
 30
0.0
  3
*U100
  1

  0
TEXT
  5
FF76
  8
0
 10
2.8316039409763221
 20
0.7222806133900122
 30
0.0
 40
0.125
  1
Half Round
  0
TEXT
  5
FF77
  8
0
 10
2.8316039409763221
 20
0.5139472800566788
 30
0.0
 40
0.125
  1
TL-7
  0
TEXT
  5
FF78
  8
0
 10
2.8316039409763221
 20
0.3056139467233454
 30
0.0
 40
0.125
  1
1" x 2"
  0
TEXT
  5
FF79
  8
0
 10
2.8316039409763221
 20
0.0972806133900122
 30
0.0
 40
0.125
  1
800.66.TAGUE
  0
ENDBLK
  5
FF7B
  8
0
  0
BLOCK
  8
0
  2
*U101
 70
     1
 10
0.0
 20
0.0
 30
0.0
  3
*U101
  1

  0
TEXT
  5
FF7D
  8
0
 10
4.3092556456276148
 20
0.8292621657587915
 30
0.0
 40
0.125
  1
Half Round
  0
TEXT
  5
FF7E
  8
0
 10
4.3092556456276148
 20
0.6209288324254582
 30
0.0
 40
0.125
  1
TL-8
  0
TEXT
  5
FF7F
  8
0
 10
4.3092556456276148
 20
0.4125954990921248
 30
0.0
 40
0.125
  1
1-1/2" x 3"
  0
TEXT
  5
FF80
  8
0
 10
4.3092556456276148
 20
0.2042621657587915
 30
0.0
 40
0.125
  1
800.66.TAGUE
  0
ENDBLK
  5
FF82
  8
0
  0
BLOCK
  8
0
  2
*U102
 70
     1
 10
0.0
 20
0.0
 30
0.0
  3
*U102
  1

  0
TEXT
  5
FF84
  8
0
 10
2.524104426630799
 20
0.6794299200373644
 30
0.0
 40
0.125
  1
Half Round
  0
TEXT
  5
FF85
  8
0
 10
2.524104426630799
 20
0.471096586704031
 30
0.0
 40
0.125
  1
TL-116
  0
TEXT
  5
FF86
  8
0
 10
2.524104426630799
 20
0.2627632533706976
 30
0.0
 40
0.125
  1
3/4" x 1-1/2"
  0
TEXT
  5
FF87
  8
0
 10
2.524104426630799
 20
0.0544299200373644
 30
0.0
 40
0.125
  1
800.66.TAGUE
  0
ENDBLK
  5
FF89
  8
0
  0
BLOCK
  8
0
  2
*U103
 70
     1
 10
0.0
 20
0.0
 30
0.0
  3
*U103
  1

  0
TEXT
  5
FF8B
  8
0
 10
2.4691699319003528
 20
0.6794301275302815
 30
0.0
 40
0.125
  1
Half Round
  0
TEXT
  5
FF8C
  8
0
 10
2.4691699319003528
 20
0.4710967941969481
 30
0.0
 40
0.125
  1
TL-119
  0
TEXT
  5
FF8D
  8
0
 10
2.4691699319003528
 20
0.2627634608636147
 30
0.0
 40
0.125
  1
5/8" x 1-1/4"
  0
TEXT
  5
FF8E
  8
0
 10
2.4691699319003528
 20
0.0544301275302814
 30
0.0
 40
0.125
  1
800.66.TAGUE
  0
ENDBLK
  5
FF90
  8
0
  0
BLOCK
  8
0
  2
*U104
 70
     1
 10
0.0
 20
0.0
 30
0.0
  3
*U104
  1

  0
TEXT
  5
FF92
  8
0
 10
1.96218194837894
 20
0.679429735423696
 30
0.0
 40
0.125
  1
Half Round
  0
TEXT
  5
FF93
  8
0
 10
1.96218194837894
 20
0.4710964020903626
 30
0.0
 40
0.125
  1
TL-120
  0
TEXT
  5
FF94
  8
0
 10
1.96218194837894
 20
0.2627630687570293
 30
0.0
 40
0.125
  1
1/2" x 1"
  0
TEXT
  5
FF95
  8
0
 10
1.96218194837894
 20
0.054429735423696
 30
0.0
 40
0.125
  1
800.66.TAGUE
  0
ENDBLK
  5
FF97
  8
0
  0
BLOCK
  8
0
  2
*U105
 70
     1
 10
0.0
 20
0.0
 30
0.0
  3
*U105
  1

  0
TEXT
  5
FF99
  8
0
 10
1.51989036816559
 20
0.679429754589819
 30
0.0
 40
0.125
  1
Half Round
  0
TEXT
  5
FF9A
  8
0
 10
1.51989036816559
 20
0.4710964212564856
 30
0.0
 40
0.125
  1
TL-122
  0
TEXT
  5
FF9B
  8
0
 10
1.51989036816559
 20
0.2627630879231522
 30
0.0
 40
0.125
  1
11/32" x 11/16"
  0
TEXT
  5
FF9C
  8
0
 10
1.51989036816559
 20
0.0544297545898189
 30
0.0
 40
0.125
  1
800.66.TAGUE
  0
ENDBLK
  5
FF9E
  8
0
  0
BLOCK
  8
0
  2
*U106
 70
     1
 10
0.0
 20
0.0
 30
0.0
  3
*U106
  1

  0
TEXT
  5
FFA0
  8
0
 10
1.332760358760481
 20
0.6794306489528026
 30
0.0
 40
0.125
  1
Half Round
  0
TEXT
  5
FFA1
  8
0
 10
1.332760358760481
 20
0.4710973156194692
 30
0.0
 40
0.125
  1
TL-124
  0
TEXT
  5
FFA2
  8
0
 10
1.332760358760481
 20
0.2627639822861358
 30
0.0
 40
0.125
  1
1/4" x 1/2"
  0
TEXT
  5
FFA3
  8
0
 10
1.332760358760481
 20
0.0544306489528026
 30
0.0
 40
0.125
  1
800.66.TAGUE
  0
ENDBLK
  5
FFA5
  8
0
  0
BLOCK
  8
0
  2
*U107
 70
     1
 10
0.0
 20
0.0
 30
0.0
  3
*U107
  1

  0
TEXT
  5
FFA7
  8
0
 10
2.6263646070054838
 20
2.827461056571678
 30
0.0
 40
0.125
  1
Hand Rail
  0
TEXT
  5
FFA8
  8
0
 10
2.6263646070054838
 20
2.6191277232383441
 30
0.0
 40
0.125
  1
TL-14
  0
TEXT
  5
FFA9
  8
0
 10
2.6263646070054838
 20
2.410794389905011
 30
0.0
 40
0.125
  1
1-5/8" x 5-1/4"
  0
TEXT
  5
FFAA
  8
0
 10
2.6263646070054838
 20
2.202461056571678
 30
0.0
 40
0.125
  1
800.66.TAGUE
  0
ENDBLK
  5
FFAC
  8
0
  0
BLOCK
  8
0
  2
*U108
 70
     1
 10
0.0
 20
0.0
 30
0.0
  3
*U108
  1

  0
TEXT
  5
FFAE
  8
0
 10
2.2830209502855041
 20
2.755934710444194
 30
0.0
 40
0.125
  1
Hand Rail
  0
TEXT
  5
FFAF
  8
0
 10
2.2830209502855041
 20
2.5476013771108601
 30
0.0
 40
0.125
  1
TL-15
  0
TEXT
  5
FFB0
  8
0
 10
2.2830209502855041
 20
2.3392680437775271
 30
0.0
 40
0.125
  1
1-3/8" x 5-1/2"
  0
TEXT
  5
FFB1
  8
0
 10
2.2830209502855041
 20
2.130934710444194
 30
0.0
 40
0.125
  1
800.66.TAGUE
  0
ENDBLK
  5
FFB3
  8
0
  0
BLOCK
  8
0
  2
*U109
 70
     1
 10
0.0
 20
0.0
 30
0.0
  3
*U109
  1

  0
TEXT
  5
FFB5
  8
0
 10
3.5100871080940119
 20
1.046126857764647
 30
0.0
 40
0.125
  1
Hand Rail
  0
TEXT
  5
FFB6
  8
0
 10
3.5100871080940119
 20
0.8377935244313146
 30
0.0
 40
0.125
  1
TL-96
  0
TEXT
  5
FFB7
  8
0
 10
3.5100871080940119
 20
0.6294601910979814
 30
0.0
 40
0.125
  1
1-1/4" x 2-1/4"
  0
TEXT
  5
FFB8
  8
0
 10
3.5100871080940119
 20
0.4211268577646479
 30
0.0
 40
0.125
  1
800.66.TAGUE
  0
ENDBLK
  5
FFBA
  8
0
  0
BLOCK
  8
0
  2
*U110
 70
     1
 10
0.0
 20
0.0
 30
0.0
  3
*U110
  1

  0
TEXT
  5
FFBC
  8
0
 10
2.3417636350062589
 20
4.2171919217870482
 30
0.0
 40
0.125
  1
Hand Rail
  0
TEXT
  5
FFBD
  8
0
 10
2.3417636350062589
 20
4.0088585884537151
 30
0.0
 40
0.125
  1
TL-117
  0
TEXT
  5
FFBE
  8
0
 10
2.3417636350062589
 20
3.8005252551203812
 30
0.0
 40
0.125
  1
1-1/4" x 8-1/8"
  0
TEXT
  5
FFBF
  8
0
 10
2.3417636350062589
 20
3.5921919217870482
 30
0.0
 40
0.125
  1
800.66.TAGUE
  0
ENDBLK
  5
FFC1
  8
0
  0
BLOCK
  8
0
  2
*U111
 70
     1
 10
0.0
 20
0.0
 30
0.0
  3
*U111
  1

  0
TEXT
  5
FFC3
  8
0
 10
2.7125232555794119
 20
1.098442957172892
 30
0.0
 40
0.125
  1
Hand Rail
  0
TEXT
  5
FFC4
  8
0
 10
2.7125232555794119
 20
0.8901096238395592
 30
0.0
 40
0.125
  1
TL-231
  0
TEXT
  5
FFC5
  8
0
 10
2.7125232555794119
 20
0.6817762905062259
 30
0.0
 40
0.125
  1
1-1/2" x 1-11/16"
  0
TEXT
  5
FFC6
  8
0
 10
2.7125232555794119
 20
0.4734429571728925
 30
0.0
 40
0.125
  1
800.66.TAGUE
  0
ENDBLK
  5
FFC8
  8
0
  0
BLOCK
  8
0
  2
*U112
 70
     1
 10
0.0
 20
0.0
 30
0.0
  3
*U112
  1

  0
TEXT
  5
FFCA
  8
0
 10
2.960252587020249
 20
0.6772989443436474
 30
0.0
 40
0.125
  1
Lattice
  0
TEXT
  5
FFCB
  8
0
 10
2.960252587020249
 20
0.468965611010314
 30
0.0
 40
0.125
  1
TL-266
  0
TEXT
  5
FFCC
  8
0
 10
2.960252587020249
 20
0.2606322776769806
 30
0.0
 40
0.125
  1
1/4" x 1-5/8"
  0
TEXT
  5
FFCD
  8
0
 10
2.960252587020249
 20
0.0522989443436472
 30
0.0
 40
0.125
  1
800.66.TAGUE
  0
ENDBLK
  5
FFCF
  8
0
  0
BLOCK
  8
0
  2
*U113
 70
     1
 10
0.0
 20
0.0
 30
0.0
  3
*U113
  1

  0
TEXT
  5
FFD1
  8
0
 10
2.5177643903332401
 20
0.6772985360157691
 30
0.0
 40
0.125
  1
Lattice
  0
TEXT
  5
FFD2
  8
0
 10
2.5177643903332401
 20
0.4689652026824358
 30
0.0
 40
0.125
  1
TL-267
  0
TEXT
  5
FFD3
  8
0
 10
2.5177643903332401
 20
0.2606318693491024
 30
0.0
 40
0.125
  1
1/4" x 1-3/8"
  0
TEXT
  5
FFD4
  8
0
 10
2.5177643903332401
 20
0.0522985360157691
 30
0.0
 40
0.125
  1
800.66.TAGUE
  0
ENDBLK
  5
FFD6
  8
0
  0
BLOCK
  8
0
  2
*U114
 70
     1
 10
0.0
 20
0.0
 30
0.0
  3
*U114
  1

  0
TEXT
  5
FFD8
  8
0
 10
2.3872073702682419
 20
0.6772987437404936
 30
0.0
 40
0.125
  1
Lattice
  0
TEXT
  5
FFD9
  8
0
 10
2.3872073702682419
 20
0.4689654104071603
 30
0.0
 40
0.125
  1
TL-268
  0
TEXT
  5
FFDA
  8
0
 10
2.3872073702682419
 20
0.260632077073827
 30
0.0
 40
0.125
  1
1/4" x 1-1/8"
  0
TEXT
  5
FFDB
  8
0
 10
2.3872073702682419
 20
0.0522987437404936
 30
0.0
 40
0.125
  1
800.66.TAGUE
  0
ENDBLK
  5
FFDD
  8
0
  0
BLOCK
  8
0
  2
*U115
 70
     1
 10
0.0
 20
0.0
 30
0.0
  3
*U115
  1

  0
TEXT
  5
FFDF
  8
0
 10
1.7198452767448771
 20
0.6772982915522335
 30
0.0
 40
0.125
  1
Lattice
  0
TEXT
  5
FFE0
  8
0
 10
1.7198452767448771
 20
0.4689649582189002
 30
0.0
 40
0.125
  1
TL-269
  0
TEXT
  5
FFE1
  8
0
 10
1.7198452767448771
 20
0.2606316248855668
 30
0.0
 40
0.125
  1
1/4" x 3/4"
  0
TEXT
  5
FFE2
  8
0
 10
1.7198452767448771
 20
0.0522982915522334
 30
0.0
 40
0.125
  1
800.66.TAGUE
  0
ENDBLK
  5
FFE4
  8
0
  0
BLOCK
  8
0
  2
*U116
 70
     1
 10
0.0
 20
0.0
 30
0.0
  3
*U116
  1

  0
TEXT
  5
FFE6
  8
0
 10
2.0085733028087129
 20
0.6772989387914095
 30
0.0
 40
0.125
  1
Lattice
  0
TEXT
  5
FFE7
  8
0
 10
2.0085733028087129
 20
0.4689656054580762
 30
0.0
 40
0.125
  1
TL-270
  0
TEXT
  5
FFE8
  8
0
 10
2.0085733028087129
 20
0.2606322721247428
 30
0.0
 40
0.125
  1
1/4" x 7/8"
  0
TEXT
  5
FFE9
  8
0
 10
2.0085733028087129
 20
0.0522989387914095
 30
0.0
 40
0.125
  1
800.66.TAGUE
  0
ENDBLK
  5
FFEB
  8
0
  0
BLOCK
  8
0
  2
*U117
 70
     1
 10
0.0
 20
0.0
 30
0.0
  3
*U117
  1

  0
TEXT
  5
FFED
  8
0
 10
2.940701223973178
 20
0.6772980715210224
 30
0.0
 40
0.125
  1
Lattice
  0
TEXT
  5
FFEE
  8
0
 10
2.940701223973178
 20
0.4689647381876891
 30
0.0
 40
0.125
  1
TL-962
  0
TEXT
  5
FFEF
  8
0
 10
2.940701223973178
 20
0.2606314048543558
 30
0.0
 40
0.125
  1
1/4" x 2"
  0
TEXT
  5
FFF0
  8
0
 10
2.940701223973178
 20
0.0522980715210224
 30
0.0
 40
0.125
  1
800.66.TAGUE
  0
ENDBLK
  5
FFF2
  8
0
  0
BLOCK
  8
0
  2
*U118
 70
     1
 10
0.0
 20
0.0
 30
0.0
  3
*U118
  1

  0
TEXT
  5
FFF4
  8
0
 10
1.983768624240724
 20
1.1498699559202801
 30
0.0
 40
0.125
  1
Lip Moulding
  0
TEXT
  5
FFF5
  8
0
 10
1.983768624240724
 20
0.9415366225869473
 30
0.0
 40
0.125
  1
TL-18
  0
TEXT
  5
FFF6
  8
0
 10
1.983768624240724
 20
0.7332032892536139
 30
0.0
 40
0.125
  1
3/4" x 1-15/16"
  0
TEXT
  5
FFF7
  8
0
 10
1.983768624240724
 20
0.5248699559202806
 30
0.0
 40
0.125
  1
800.66.TAGUE
  0
ENDBLK
  5
FFF9
  8
0
  0
BLOCK
  8
0
  2
*U119
 70
     1
 10
0.0
 20
0.0
 30
0.0
  3
*U119
  1

  0
TEXT
  5
FFFB
  8
0
 10
2.2853728967398861
 20
1.2855052394233999
 30
0.0
 40
0.125
  1
Lip Moulding
  0
TEXT
  5
FFFC
  8
0
 10
2.2853728967398861
 20
1.0771719060900671
 30
0.0
 40
0.125
  1
TL-530
  0
TEXT
  5
FFFD
  8
0
 10
2.2853728967398861
 20
0.8688385727567342
 30
0.0
 40
0.125
  1
5/8" x 1-5/8"
  0
TEXT
  5
FFFE
  8
0
 10
2.2853728967398861
 20
0.6605052394234008
 30
0.0
 40
0.125
  1
800.66.TAGUE
  0
ENDBLK
  5
10000
  8
0
  0
BLOCK
  8
0
  2
*U120
 70
     1
 10
0.0
 20
0.0
 30
0.0
  3
*U120
  1

  0
TEXT
  5
10002
  8
0
 10
2.269200201813987
 20
1.1997502285778401
 30
0.0
 40
0.125
  1
Lip Moulding
  0
TEXT
  5
10003
  8
0
 10
2.269200201813987
 20
0.9914168952445077
 30
0.0
 40
0.125
  1
TL-532
  0
TEXT
  5
10004
  8
0
 10
2.269200201813987
 20
0.7830835619111745
 30
0.0
 40
0.125
  1
3/4" x 1-3/4"
  0
TEXT
  5
10005
  8
0
 10
2.269200201813987
 20
0.574750228577841
 30
0.0
 40
0.125
  1
800.66.TAGUE
  0
ENDBLK
  5
10007
  8
0
  0
BLOCK
  8
0
  2
*U121
 70
     1
 10
0.0
 20
0.0
 30
0.0
  3
*U121
  1

  0
TEXT
  5
10009
  8
0
 10
1.8892783014391621
 20
1.241449235052527
 30
0.0
 40
0.125
  1
Lip Moulding
  0
TEXT
  5
1000A
  8
0
 10
1.8892783014391621
 20
1.033115901719194
 30
0.0
 40
0.125
  1
TL-2169
  0
TEXT
  5
1000B
  8
0
 10
1.8892783014391621
 20
0.8247825683858613
 30
0.0
 40
0.125
  1
11/16" x 1-7/8"
  0
TEXT
  5
1000C
  8
0
 10
1.8892783014391621
 20
0.6164492350525279
 30
0.0
 40
0.125
  1
800.66.TAGUE
  0
ENDBLK
  5
1000E
  8
0
  0
BLOCK
  8
0
  2
*U122
 70
     1
 10
0.0
 20
0.0
 30
0.0
  3
*U122
  1

  0
TEXT
  5
10010
  8
0
 10
1.620143794977025
 20
1.0038028284741349
 30
0.0
 40
0.125
  1
Lip Moulding
  0
TEXT
  5
10011
  8
0
 10
1.620143794977025
 20
0.7954694951408026
 30
0.0
 40
0.125
  1
TL-2179
  0
TEXT
  5
10012
  8
0
 10
1.620143794977025
 20
0.5871361618074693
 30
0.0
 40
0.125
  1
3/4" x 1-1/4"
  0
TEXT
  5
10013
  8
0
 10
1.620143794977025
 20
0.3788028284741358
 30
0.0
 40
0.125
  1
800.66.TAGUE
  0
ENDBLK
  5
10015
  8
0
  0
BLOCK
  8
0
  2
*U123
 70
     1
 10
0.0
 20
0.0
 30
0.0
  3
*U123
  1

  0
TEXT
  5
10017
  8
0
 10
1.9163743563030939
 20
1.019442403193352
 30
0.0
 40
0.125
  1
Lip Moulding
  0
TEXT
  5
10018
  8
0
 10
1.9163743563030939
 20
0.811109069860019
 30
0.0
 40
0.125
  1
TL-2181
  0
TEXT
  5
10019
  8
0
 10
1.9163743563030939
 20
0.6027757365266857
 30
0.0
 40
0.125
  1
3/4" x 1-11/16"
  0
TEXT
  5
1001A
  8
0
 10
1.9163743563030939
 20
0.3944424031933522
 30
0.0
 40
0.125
  1
800.66.TAGUE
  0
ENDBLK
  5
1001C
  8
0
  0
BLOCK
  8
0
  2
*U124
 70
     1
 10
0.0
 20
0.0
 30
0.0
  3
*U124
  1

  0
TEXT
  5
1001E
  8
0
 10
2.0010341316657332
 20
0.9876257387668374
 30
0.0
 40
0.125
  1
Lip Moulding
  0
TEXT
  5
1001F
  8
0
 10
2.0010341316657332
 20
0.7792924054335043
 30
0.0
 40
0.125
  1
TL-2211
  0
TEXT
  5
10020
  8
0
 10
2.0010341316657332
 20
0.5709590721001709
 30
0.0
 40
0.125
  1
1" x 1-15/32"
  0
TEXT
  5
10021
  8
0
 10
2.0010341316657332
 20
0.3626257387668375
 30
0.0
 40
0.125
  1
800.66.TAGUE
  0
ENDBLK
  5
10023
  8
0
  0
BLOCK
  8
0
  2
*U125
 70
     1
 10
0.0
 20
0.0
 30
0.0
  3
*U125
  1

  0
TEXT
  5
10025
  8
0
 10
1.9547841412725111
 20
1.2443911534714971
 30
0.0
 40
0.125
  1
Lip Mldg
  0
TEXT
  5
10026
  8
0
 10
1.9547841412725111
 20
1.0360578201381629
 30
0.0
 40
0.125
  1
TL-2302
  0
TEXT
  5
10027
  8
0
 10
1.9547841412725111
 20
0.8277244868048304
 30
0.0
 40
0.125
  1
13/16" x 1-3/4"
  0
TEXT
  5
10028
  8
0
 10
1.9547841412725111
 20
0.6193911534714971
 30
0.0
 40
0.125
  1
800.66.TAGUE
  0
ENDBLK
  5
1002A
  8
0
  0
BLOCK
  8
0
  2
*U126
 70
     1
 10
0.0
 20
0.0
 30
0.0
  3
*U126
  1

  0
TEXT
  5
1002C
  8
0
 10
-386.32422641313599
 20
839.433945760499
 30
0.0
 40
0.125
  1
Lip Mldg
  0
TEXT
  5
1002D
  8
0
 10
-386.32422641313599
 20
839.22561242716552
 30
0.0
 40
0.125
  1
TL-2302
  0
TEXT
  5
1002E
  8
0
 10
-386.32422641313599
 20
839.01727909383237
 30
0.0
 40
0.125
  1
13/16" x 1-3/4"
  0
TEXT
  5
1002F
  8
0
 10
-386.32422641313599
 20
838.80894576049889
 30
0.0
 40
0.125
  1
800.66.TAGUE
  0
ENDBLK
  5
10031
  8
0
  0
ENDSEC
  0
SECTION
  2
ENTITIES
  0
LINE
  5
FE83
  8
0
 10
-387.91797188172649
 20
838.1895547285834
 30
0.0
 11
-387.85409589411711
 21
838.43384762463143
 31
0.0
  0
LINE
  5
FE84
  8
0
 10
-387.85409589411711
 20
838.43384762463143
 30
0.0
 11
-388.27900962876851
 21
838.54766591422003
 31
0.0
  0
LINE
  5
FE85
  8
0
 10
-388.27900962876851
 20
838.54766591422003
 30
0.0
 11
-388.27900962876851
 21
839.93141808881103
 31
0.0
  0
LINE
  5
FE86
  8
0
 10
-388.03416924612822
 20
839.68821037639816
 30
0.0
 11
-387.94926313726421
 21
839.66699271892696
 31
0.0
  0
LINE
  5
FE87
  8
0
 10
-387.94926313726421
 20
839.66699271892696
 30
0.0
 11
-387.95987642178869
 21
839.43966049193955
 31
0.0
  0
LINE
  5
FE88
  8
0
 10
-387.95987642178869
 20
839.43966049193955
 30
0.0
 11
-388.0432663351969
 21
839.43966049193955
 31
0.0
  0
ARC
  5
FE89
  8
0
 10
-388.25942762741113
 20
839.70628568274606
 30
0.0
 40
0.2259824219663453
 50
355.41227043642931
 51
94.971071965118327
  0
POLYLINE
  8
0
  5
10032
  66
     1
 10
0.000000
 20
0.000000
 30
0.000000
  70
     8
  0
VERTEX
  8
0
  5
10033
 10
-388.043
 20
839.440
 30
0.000000
  70
    32
  0
VERTEX
  8
0
  5
10034
 10
-388.047
 20
839.440
 30
0.000000
  70
    32
  0
VERTEX
  8
0
  5
10035
 10
-388.050
 20
839.439
 30
0.000000
  70
    32
  0
VERTEX
  8
0
  5
10036
 10
-388.053
 20
839.438
 30
0.000000
  70
    32
  0
VERTEX
  8
0
  5
10037
 10
-388.057
 20
839.437
 30
0.000000
  70
    32
  0
VERTEX
  8
0
  5
10038
 10
-388.060
 20
839.436
 30
0.000000
  70
    32
  0
VERTEX
  8
0
  5
10039
 10
-388.063
 20
839.434
 30
0.000000
  70
    32
  0
VERTEX
  8
0
  5
1003A
 10
-388.065
 20
839.432
 30
0.000000
  70
    32
  0
VERTEX
  8
0
  5
1003B
 10
-388.068
 20
839.430
 30
0.000000
  70
    32
  0
VERTEX
  8
0
  5
1003C
 10
-388.071
 20
839.427
 30
0.000000
  70
    32
  0
VERTEX
  8
0
  5
1003D
 10
-388.073
 20
839.425
 30
0.000000
  70
    32
  0
VERTEX
  8
0
  5
1003E
 10
-388.076
 20
839.422
 30
0.000000
  70
    32
  0
VERTEX
  8
0
  5
1003F
 10
-388.078
 20
839.419
 30
0.000000
  70
    32
  0
VERTEX
  8
0
  5
10040
 10
-388.080
 20
839.416
 30
0.000000
  70
    32
  0
VERTEX
  8
0
  5
10041
 10
-388.082
 20
839.412
 30
0.000000
  70
    32
  0
VERTEX
  8
0
  5
10042
 10
-388.084
 20
839.409
 30
0.000000
  70
    32
  0
VERTEX
  8
0
  5
10043
 10
-388.086
 20
839.405
 30
0.000000
  70
    32
  0
VERTEX
  8
0
  5
10044
 10
-388.088
 20
839.401
 30
0.000000
  70
    32
  0
VERTEX
  8
0
  5
10045
 10
-388.090
 20
839.398
 30
0.000000
  70
    32
  0
VERTEX
  8
0
  5
10046
 10
-388.091
 20
839.394
 30
0.000000
  70
    32
  0
VERTEX
  8
0
  5
10047
 10
-388.093
 20
839.390
 30
0.000000
  70
    32
  0
VERTEX
  8
0
  5
10048
 10
-388.094
 20
839.386
 30
0.000000
  70
    32
  0
VERTEX
  8
0
  5
10049
 10
-388.095
 20
839.382
 30
0.000000
  70
    32
  0
VERTEX
  8
0
  5
1004A
 10
-388.096
 20
839.378
 30
0.000000
  70
    32
  0
VERTEX
  8
0
  5
1004B
 10
-388.097
 20
839.374
 30
0.000000
  70
    32
  0
VERTEX
  8
0
  5
1004C
 10
-388.098
 20
839.370
 30
0.000000
  70
    32
  0
VERTEX
  8
0
  5
1004D
 10
-388.099
 20
839.366
 30
0.000000
  70
    32
  0
VERTEX
  8
0
  5
1004E
 10
-388.099
 20
839.362
 30
0.000000
  70
    32
  0
VERTEX
  8
0
  5
1004F
 10
-388.100
 20
839.358
 30
0.000000
  70
    32
  0
VERTEX
  8
0
  5
10050
 10
-388.100
 20
839.354
 30
0.000000
  70
    32
  0
VERTEX
  8
0
  5
10051
 10
-388.101
 20
839.351
 30
0.000000
  70
    32
  0
VERTEX
  8
0
  5
10052
 10
-388.101
 20
839.347
 30
0.000000
  70
    32
  0
VERTEX
  8
0
  5
10053
 10
-388.101
 20
839.343
 30
0.000000
  70
    32
  0
VERTEX
  8
0
  5
10054
 10
-388.101
 20
839.340
 30
0.000000
  70
    32
  0
VERTEX
  8
0
  5
10055
 10
-388.101
 20
839.336
 30
0.000000
  70
    32
  0
VERTEX
  8
0
  5
10056
 10
-388.101
 20
839.332
 30
0.000000
  70
    32
  0
VERTEX
  8
0
  5
10057
 10
-388.100
 20
839.329
 30
0.000000
  70
    32
  0
VERTEX
  8
0
  5
10058
 10
-388.100
 20
839.325
 30
0.000000
  70
    32
  0
VERTEX
  8
0
  5
10059
 10
-388.099
 20
839.322
 30
0.000000
  70
    32
  0
VERTEX
  8
0
  5
1005A
 10
-388.099
 20
839.318
 30
0.000000
  70
    32
  0
VERTEX
  8
0
  5
1005B
 10
-388.098
 20
839.315
 30
0.000000
  70
    32
  0
VERTEX
  8
0
  5
1005C
 10
-388.098
 20
839.311
 30
0.000000
  70
    32
  0
VERTEX
  8
0
  5
1005D
 10
-388.097
 20
839.308
 30
0.000000
  70
    32
  0
VERTEX
  8
0
  5
1005E
 10
-388.096
 20
839.305
 30
0.000000
  70
    32
  0
VERTEX
  8
0
  5
1005F
 10
-388.095
 20
839.301
 30
0.000000
  70
    32
  0
VERTEX
  8
0
  5
10060
 10
-388.095
 20
839.298
 30
0.000000
  70
    32
  0
VERTEX
  8
0
  5
10061
 10
-388.094
 20
839.294
 30
0.000000
  70
    32
  0
VERTEX
  8
0
  5
10062
 10
-388.093
 20
839.291
 30
0.000000
  70
    32
  0
VERTEX
  8
0
  5
10063
 10
-388.092
 20
839.288
 30
0.000000
  70
    32
  0
VERTEX
  8
0
  5
10064
 10
-388.091
 20
839.284
 30
0.000000
  70
    32
  0
VERTEX
  8
0
  5
10065
 10
-388.089
 20
839.281
 30
0.000000
  70
    32
  0
VERTEX
  8
0
  5
10066
 10
-388.088
 20
839.278
 30
0.000000
  70
    32
  0
VERTEX
  8
0
  5
10067
 10
-388.087
 20
839.275
 30
0.000000
  70
    32
  0
VERTEX
  8
0
  5
10068
 10
-388.086
 20
839.271
 30
0.000000
  70
    32
  0
VERTEX
  8
0
  5
10069
 10
-388.085
 20
839.268
 30
0.000000
  70
    32
  0
VERTEX
  8
0
  5
1006A
 10
-388.083
 20
839.265
 30
0.000000
  70
    32
  0
VERTEX
  8
0
  5
1006B
 10
-388.082
 20
839.261
 30
0.000000
  70
    32
  0
VERTEX
  8
0
  5
1006C
 10
-388.081
 20
839.258
 30
0.000000
  70
    32
  0
VERTEX
  8
0
  5
1006D
 10
-388.079
 20
839.255
 30
0.000000
  70
    32
  0
VERTEX
  8
0
  5
1006E
 10
-388.078
 20
839.252
 30
0.000000
  70
    32
  0
VERTEX
  8
0
  5
1006F
 10
-388.077
 20
839.248
 30
0.000000
  70
    32
  0
VERTEX
  8
0
  5
10070
 10
-388.075
 20
839.245
 30
0.000000
  70
    32
  0
VERTEX
  8
0
  5
10071
 10
-388.074
 20
839.242
 30
0.000000
  70
    32
  0
VERTEX
  8
0
  5
10072
 10
-388.072
 20
839.239
 30
0.000000
  70
    32
  0
VERTEX
  8
0
  5
10073
 10
-388.071
 20
839.235
 30
0.000000
  70
    32
  0
VERTEX
  8
0
  5
10074
 10
-388.069
 20
839.232
 30
0.000000
  70
    32
  0
VERTEX
  8
0
  5
10075
 10
-388.068
 20
839.229
 30
0.000000
  70
    32
  0
VERTEX
  8
0
  5
10076
 10
-388.066
 20
839.226
 30
0.000000
  70
    32
  0
VERTEX
  8
0
  5
10077
 10
-388.065
 20
839.223
 30
0.000000
  70
    32
  0
VERTEX
  8
0
  5
10078
 10
-388.063
 20
839.219
 30
0.000000
  70
    32
  0
VERTEX
  8
0
  5
10079
 10
-388.061
 20
839.216
 30
0.000000
  70
    32
  0
VERTEX
  8
0
  5
1007A
 10
-388.060
 20
839.213
 30
0.000000
  70
    32
  0
VERTEX
  8
0
  5
1007B
 10
-388.058
 20
839.210
 30
0.000000
  70
    32
  0
VERTEX
  8
0
  5
1007C
 10
-388.056
 20
839.207
 30
0.000000
  70
    32
  0
VERTEX
  8
0
  5
1007D
 10
-388.054
 20
839.204
 30
0.000000
  70
    32
  0
VERTEX
  8
0
  5
1007E
 10
-388.053
 20
839.201
 30
0.000000
  70
    32
  0
VERTEX
  8
0
  5
1007F
 10
-388.051
 20
839.198
 30
0.000000
  70
    32
  0
VERTEX
  8
0
  5
10080
 10
-388.049
 20
839.195
 30
0.000000
  70
    32
  0
VERTEX
  8
0
  5
10081
 10
-388.047
 20
839.192
 30
0.000000
  70
    32
  0
VERTEX
  8
0
  5
10082
 10
-388.045
 20
839.189
 30
0.000000
  70
    32
  0
VERTEX
  8
0
  5
10083
 10
-388.043
 20
839.186
 30
0.000000
  70
    32
  0
VERTEX
  8
0
  5
10084
 10
-388.041
 20
839.183
 30
0.000000
  70
    32
  0
VERTEX
  8
0
  5
10085
 10
-388.039
 20
839.180
 30
0.000000
  70
    32
  0
VERTEX
  8
0
  5
10086
 10
-388.037
 20
839.177
 30
0.000000
  70
    32
  0
VERTEX
  8
0
  5
10087
 10
-388.035
 20
839.174
 30
0.000000
  70
    32
  0
VERTEX
  8
0
  5
10088
 10
-388.033
 20
839.171
 30
0.000000
  70
    32
  0
VERTEX
  8
0
  5
10089
 10
-388.031
 20
839.168
 30
0.000000
  70
    32
  0
VERTEX
  8
0
  5
1008A
 10
-388.028
 20
839.165
 30
0.000000
  70
    32
  0
VERTEX
  8
0
  5
1008B
 10
-388.026
 20
839.162
 30
0.000000
  70
    32
  0
VERTEX
  8
0
  5
1008C
 10
-388.024
 20
839.160
 30
0.000000
  70
    32
  0
VERTEX
  8
0
  5
1008D
 10
-388.022
 20
839.157
 30
0.000000
  70
    32
  0
VERTEX
  8
0
  5
1008E
 10
-388.019
 20
839.154
 30
0.000000
  70
    32
  0
VERTEX
  8
0
  5
1008F
 10
-388.017
 20
839.151
 30
0.000000
  70
    32
  0
VERTEX
  8
0
  5
10090
 10
-388.015
 20
839.149
 30
0.000000
  70
    32
  0
VERTEX
  8
0
  5
10091
 10
-388.012
 20
839.146
 30
0.000000
  70
    32
  0
VERTEX
  8
0
  5
10092
 10
-388.010
 20
839.144
 30
0.000000
  70
    32
  0
VERTEX
  8
0
  5
10093
 10
-388.007
 20
839.141
 30
0.000000
  70
    32
  0
VERTEX
  8
0
  5
10094
 10
-388.005
 20
839.138
 30
0.000000
  70
    32
  0
VERTEX
  8
0
  5
10095
 10
-388.002
 20
839.136
 30
0.000000
  70
    32
  0
VERTEX
  8
0
  5
10096
 10
-388.000
 20
839.133
 30
0.000000
  70
    32
  0
VERTEX
  8
0
  5
10097
 10
-387.997
 20
839.131
 30
0.000000
  70
    32
  0
VERTEX
  8
0
  5
10098
 10
-387.994
 20
839.128
 30
0.000000
  70
    32
  0
VERTEX
  8
0
  5
10099
 10
-387.992
 20
839.126
 30
0.000000
  70
    32
  0
VERTEX
  8
0
  5
1009A
 10
-387.989
 20
839.124
 30
0.000000
  70
    32
  0
VERTEX
  8
0
  5
1009B
 10
-387.986
 20
839.121
 30
0.000000
  70
    32
  0
VERTEX
  8
0
  5
1009C
 10
-387.984
 20
839.119
 30
0.000000
  70
    32
  0
VERTEX
  8
0
  5
1009D
 10
-387.981
 20
839.117
 30
0.000000
  70
    32
  0
VERTEX
  8
0
  5
1009E
 10
-387.978
 20
839.114
 30
0.000000
  70
    32
  0
VERTEX
  8
0
  5
1009F
 10
-387.975
 20
839.112
 30
0.000000
  70
    32
  0
VERTEX
  8
0
  5
100A0
 10
-387.972
 20
839.110
 30
0.000000
  70
    32
  0
VERTEX
  8
0
  5
100A1
 10
-387.970
 20
839.108
 30
0.000000
  70
    32
  0
VERTEX
  8
0
  5
100A2
 10
-387.967
 20
839.106
 30
0.000000
  70
    32
  0
VERTEX
  8
0
  5
100A3
 10
-387.964
 20
839.104
 30
0.000000
  70
    32
  0
VERTEX
  8
0
  5
100A4
 10
-387.961
 20
839.102
 30
0.000000
  70
    32
  0
VERTEX
  8
0
  5
100A5
 10
-387.958
 20
839.100
 30
0.000000
  70
    32
  0
VERTEX
  8
0
  5
100A6
 10
-387.955
 20
839.098
 30
0.000000
  70
    32
  0
VERTEX
  8
0
  5
100A7
 10
-387.952
 20
839.096
 30
0.000000
  70
    32
  0
VERTEX
  8
0
  5
100A8
 10
-387.949
 20
839.094
 30
0.000000
  70
    32
  0
VERTEX
  8
0
  5
100A9
 10
-387.946
 20
839.092
 30
0.000000
  70
    32
  0
VERTEX
  8
0
  5
100AA
 10
-387.943
 20
839.090
 30
0.000000
  70
    32
  0
VERTEX
  8
0
  5
100AB
 10
-387.940
 20
839.088
 30
0.000000
  70
    32
  0
VERTEX
  8
0
  5
100AC
 10
-387.937
 20
839.087
 30
0.000000
  70
    32
  0
VERTEX
  8
0
  5
100AD
 10
-387.933
 20
839.085
 30
0.000000
  70
    32
  0
VERTEX
  8
0
  5
100AE
 10
-387.930
 20
839.083
 30
0.000000
  70
    32
  0
VERTEX
  8
0
  5
100AF
 10
-387.927
 20
839.082
 30
0.000000
  70
    32
  0
VERTEX
  8
0
  5
100B0
 10
-387.924
 20
839.080
 30
0.000000
  70
    32
  0
VERTEX
  8
0
  5
100B1
 10
-387.921
 20
839.079
 30
0.000000
  70
    32
  0
VERTEX
  8
0
  5
100B2
 10
-387.918
 20
839.077
 30
0.000000
  70
    32
  0
VERTEX
  8
0
  5
100B3
 10
-387.914
 20
839.076
 30
0.000000
  70
    32
  0
VERTEX
  8
0
  5
100B4
 10
-387.911
 20
839.074
 30
0.000000
  70
    32
  0
VERTEX
  8
0
  5
100B5
 10
-387.908
 20
839.073
 30
0.000000
  70
    32
  0
VERTEX
  8
0
  5
100B6
 10
-387.905
 20
839.071
 30
0.000000
  70
    32
  0
VERTEX
  8
0
  5
100B7
 10
-387.901
 20
839.070
 30
0.000000
  70
    32
  0
VERTEX
  8
0
  5
100B8
 10
-387.898
 20
839.069
 30
0.000000
  70
    32
  0
VERTEX
  8
0
  5
100B9
 10
-387.895
 20
839.068
 30
0.000000
  70
    32
  0
VERTEX
  8
0
  5
100BA
 10
-387.891
 20
839.066
 30
0.000000
  70
    32
  0
VERTEX
  8
0
  5
100BB
 10
-387.888
 20
839.065
 30
0.000000
  70
    32
  0
VERTEX
  8
0
  5
100BC
 10
-387.885
 20
839.064
 30
0.000000
  70
    32
  0
VERTEX
  8
0
  5
100BD
 10
-387.881
 20
839.063
 30
0.000000
  70
    32
  0
VERTEX
  8
0
  5
100BE
 10
-387.878
 20
839.062
 30
0.000000
  70
    32
  0
VERTEX
  8
0
  5
100BF
 10
-387.874
 20
839.061
 30
0.000000
  70
    32
  0
VERTEX
  8
0
  5
100C0
 10
-387.871
 20
839.060
 30
0.000000
  70
    32
  0
VERTEX
  8
0
  5
100C1
 10
-387.868
 20
839.059
 30
0.000000
  70
    32
  0
VERTEX
  8
0
  5
100C2
 10
-387.864
 20
839.058
 30
0.000000
  70
    32
  0
VERTEX
  8
0
  5
100C3
 10
-387.861
 20
839.057
 30
0.000000
  70
    32
  0
VERTEX
  8
0
  5
100C4
 10
-387.857
 20
839.056
 30
0.000000
  70
    32
  0
VERTEX
  8
0
  5
100C5
 10
-387.854
 20
839.055
 30
0.000000
  70
    32
  0
VERTEX
  8
0
  5
100C6
 10
-387.851
 20
839.054
 30
0.000000
  70
    32
  0
VERTEX
  8
0
  5
100C7
 10
-387.847
 20
839.053
 30
0.000000
  70
    32
  0
VERTEX
  8
0
  5
100C8
 10
-387.844
 20
839.052
 30
0.000000
  70
    32
  0
VERTEX
  8
0
  5
100C9
 10
-387.840
 20
839.051
 30
0.000000
  70
    32
  0
VERTEX
  8
0
  5
100CA
 10
-387.837
 20
839.050
 30
0.000000
  70
    32
  0
VERTEX
  8
0
  5
100CB
 10
-387.833
 20
839.049
 30
0.000000
  70
    32
  0
VERTEX
  8
0
  5
100CC
 10
-387.830
 20
839.048
 30
0.000000
  70
    32
  0
VERTEX
  8
0
  5
100CD
 10
-387.827
 20
839.047
 30
0.000000
  70
    32
  0
VERTEX
  8
0
  5
100CE
 10
-387.823
 20
839.047
 30
0.000000
  70
    32
  0
VERTEX
  8
0
  5
100CF
 10
-387.820
 20
839.046
 30
0.000000
  70
    32
  0
VERTEX
  8
0
  5
100D0
 10
-387.816
 20
839.045
 30
0.000000
  70
    32
  0
VERTEX
  8
0
  5
100D1
 10
-387.813
 20
839.044
 30
0.000000
  70
    32
  0
VERTEX
  8
0
  5
100D2
 10
-387.809
 20
839.043
 30
0.000000
  70
    32
  0
VERTEX
  8
0
  5
100D3
 10
-387.806
 20
839.042
 30
0.000000
  70
    32
  0
VERTEX
  8
0
  5
100D4
 10
-387.803
 20
839.041
 30
0.000000
  70
    32
  0
VERTEX
  8
0
  5
100D5
 10
-387.799
 20
839.040
 30
0.000000
  70
    32
  0
VERTEX
  8
0
  5
100D6
 10
-387.796
 20
839.039
 30
0.000000
  70
    32
  0
VERTEX
  8
0
  5
100D7
 10
-387.792
 20
839.038
 30
0.000000
  70
    32
  0
VERTEX
  8
0
  5
100D8
 10
-387.789
 20
839.037
 30
0.000000
  70
    32
  0
VERTEX
  8
0
  5
100D9
 10
-387.786
 20
839.036
 30
0.000000
  70
    32
  0
VERTEX
  8
0
  5
100DA
 10
-387.782
 20
839.035
 30
0.000000
  70
    32
  0
VERTEX
  8
0
  5
100DB
 10
-387.779
 20
839.033
 30
0.000000
  70
    32
  0
VERTEX
  8
0
  5
100DC
 10
-387.776
 20
839.032
 30
0.000000
  70
    32
  0
VERTEX
  8
0
  5
100DD
 10
-387.772
 20
839.031
 30
0.000000
  70
    32
  0
VERTEX
  8
0
  5
100DE
 10
-387.769
 20
839.030
 30
0.000000
  70
    32
  0
VERTEX
  8
0
  5
100DF
 10
-387.766
 20
839.029
 30
0.000000
  70
    32
  0
VERTEX
  8
0
  5
100E0
 10
-387.762
 20
839.027
 30
0.000000
  70
    32
  0
VERTEX
  8
0
  5
100E1
 10
-387.759
 20
839.026
 30
0.000000
  70
    32
  0
VERTEX
  8
0
  5
100E2
 10
-387.756
 20
839.025
 30
0.000000
  70
    32
  0
VERTEX
  8
0
  5
100E3
 10
-387.752
 20
839.023
 30
0.000000
  70
    32
  0
VERTEX
  8
0
  5
100E4
 10
-387.749
 20
839.022
 30
0.000000
  70
    32
  0
VERTEX
  8
0
  5
100E5
 10
-387.746
 20
839.020
 30
0.000000
  70
    32
  0
VERTEX
  8
0
  5
100E6
 10
-387.743
 20
839.019
 30
0.000000
  70
    32
  0
VERTEX
  8
0
  5
100E7
 10
-387.740
 20
839.017
 30
0.000000
  70
    32
  0
VERTEX
  8
0
  5
100E8
 10
-387.736
 20
839.016
 30
0.000000
  70
    32
  0
VERTEX
  8
0
  5
100E9
 10
-387.733
 20
839.014
 30
0.000000
  70
    32
  0
VERTEX
  8
0
  5
100EA
 10
-387.730
 20
839.013
 30
0.000000
  70
    32
  0
VERTEX
  8
0
  5
100EB
 10
-387.727
 20
839.011
 30
0.000000
  70
    32
  0
VERTEX
  8
0
  5
100EC
 10
-387.724
 20
839.009
 30
0.000000
  70
    32
  0
VERTEX
  8
0
  5
100ED
 10
-387.721
 20
839.008
 30
0.000000
  70
    32
  0
VERTEX
  8
0
  5
100EE
 10
-387.718
 20
839.006
 30
0.000000
  70
    32
  0
VERTEX
  8
0
  5
100EF
 10
-387.714
 20
839.004
 30
0.000000
  70
    32
  0
VERTEX
  8
0
  5
100F0
 10
-387.711
 20
839.002
 30
0.000000
  70
    32
  0
VERTEX
  8
0
  5
100F1
 10
-387.708
 20
839.001
 30
0.000000
  70
    32
  0
VERTEX
  8
0
  5
100F2
 10
-387.705
 20
838.999
 30
0.000000
  70
    32
  0
VERTEX
  8
0
  5
100F3
 10
-387.702
 20
838.997
 30
0.000000
  70
    32
  0
VERTEX
  8
0
  5
100F4
 10
-387.699
 20
838.995
 30
0.000000
  70
    32
  0
VERTEX
  8
0
  5
100F5
 10
-387.696
 20
838.993
 30
0.000000
  70
    32
  0
VERTEX
  8
0
  5
100F6
 10
-387.693
 20
838.991
 30
0.000000
  70
    32
  0
VERTEX
  8
0
  5
100F7
 10
-387.690
 20
838.989
 30
0.000000
  70
    32
  0
VERTEX
  8
0
  5
100F8
 10
-387.687
 20
838.987
 30
0.000000
  70
    32
  0
VERTEX
  8
0
  5
100F9
 10
-387.684
 20
838.985
 30
0.000000
  70
    32
  0
VERTEX
  8
0
  5
100FA
 10
-387.681
 20
838.983
 30
0.000000
  70
    32
  0
VERTEX
  8
0
  5
100FB
 10
-387.678
 20
838.981
 30
0.000000
  70
    32
  0
VERTEX
  8
0
  5
100FC
 10
-387.675
 20
838.979
 30
0.000000
  70
    32
  0
VERTEX
  8
0
  5
100FD
 10
-387.672
 20
838.977
 30
0.000000
  70
    32
  0
VERTEX
  8
0
  5
100FE
 10
-387.670
 20
838.975
 30
0.000000
  70
    32
  0
VERTEX
  8
0
  5
100FF
 10
-387.667
 20
838.973
 30
0.000000
  70
    32
  0
VERTEX
  8
0
  5
10100
 10
-387.664
 20
838.971
 30
0.000000
  70
    32
  0
VERTEX
  8
0
  5
10101
 10
-387.661
 20
838.969
 30
0.000000
  70
    32
  0
VERTEX
  8
0
  5
10102
 10
-387.658
 20
838.966
 30
0.000000
  70
    32
  0
VERTEX
  8
0
  5
10103
 10
-387.655
 20
838.964
 30
0.000000
  70
    32
  0
VERTEX
  8
0
  5
10104
 10
-387.653
 20
838.962
 30
0.000000
  70
    32
  0
VERTEX
  8
0
  5
10105
 10
-387.650
 20
838.960
 30
0.000000
  70
    32
  0
VERTEX
  8
0
  5
10106
 10
-387.647
 20
838.957
 30
0.000000
  70
    32
  0
VERTEX
  8
0
  5
10107
 10
-387.644
 20
838.955
 30
0.000000
  70
    32
  0
VERTEX
  8
0
  5
10108
 10
-387.641
 20
838.953
 30
0.000000
  70
    32
  0
VERTEX
  8
0
  5
10109
 10
-387.639
 20
838.951
 30
0.000000
  70
    32
  0
VERTEX
  8
0
  5
1010A
 10
-387.636
 20
838.948
 30
0.000000
  70
    32
  0
VERTEX
  8
0
  5
1010B
 10
-387.633
 20
838.946
 30
0.000000
  70
    32
  0
VERTEX
  8
0
  5
1010C
 10
-387.631
 20
838.944
 30
0.000000
  70
    32
  0
VERTEX
  8
0
  5
1010D
 10
-387.628
 20
838.941
 30
0.000000
  70
    32
  0
VERTEX
  8
0
  5
1010E
 10
-387.625
 20
838.939
 30
0.000000
  70
    32
  0
VERTEX
  8
0
  5
1010F
 10
-387.623
 20
838.936
 30
0.000000
  70
    32
  0
VERTEX
  8
0
  5
10110
 10
-387.620
 20
838.934
 30
0.000000
  70
    32
  0
VERTEX
  8
0
  5
10111
 10
-387.617
 20
838.932
 30
0.000000
  70
    32
  0
VERTEX
  8
0
  5
10112
 10
-387.615
 20
838.929
 30
0.000000
  70
    32
  0
VERTEX
  8
0
  5
10113
 10
-387.612
 20
838.927
 30
0.000000
  70
    32
  0
VERTEX
  8
0
  5
10114
 10
-387.610
 20
838.924
 30
0.000000
  70
    32
  0
VERTEX
  8
0
  5
10115
 10
-387.607
 20
838.922
 30
0.000000
  70
    32
  0
VERTEX
  8
0
  5
10116
 10
-387.605
 20
838.919
 30
0.000000
  70
    32
  0
VERTEX
  8
0
  5
10117
 10
-387.602
 20
838.916
 30
0.000000
  70
    32
  0
VERTEX
  8
0
  5
10118
 10
-387.600
 20
838.914
 30
0.000000
  70
    32
  0
VERTEX
  8
0
  5
10119
 10
-387.597
 20
838.911
 30
0.000000
  70
    32
  0
VERTEX
  8
0
  5
1011A
 10
-387.595
 20
838.909
 30
0.000000
  70
    32
  0
VERTEX
  8
0
  5
1011B
 10
-387.592
 20
838.906
 30
0.000000
  70
    32
  0
VERTEX
  8
0
  5
1011C
 10
-387.590
 20
838.903
 30
0.000000
  70
    32
  0
VERTEX
  8
0
  5
1011D
 10
-387.588
 20
838.901
 30
0.000000
  70
    32
  0
VERTEX
  8
0
  5
1011E
 10
-387.585
 20
838.898
 30
0.000000
  70
    32
  0
VERTEX
  8
0
  5
1011F
 10
-387.583
 20
838.895
 30
0.000000
  70
    32
  0
VERTEX
  8
0
  5
10120
 10
-387.581
 20
838.893
 30
0.000000
  70
    32
  0
VERTEX
  8
0
  5
10121
 10
-387.578
 20
838.890
 30
0.000000
  70
    32
  0
VERTEX
  8
0
  5
10122
 10
-387.576
 20
838.887
 30
0.000000
  70
    32
  0
VERTEX
  8
0
  5
10123
 10
-387.574
 20
838.884
 30
0.000000
  70
    32
  0
VERTEX
  8
0
  5
10124
 10
-387.572
 20
838.882
 30
0.000000
  70
    32
  0
VERTEX
  8
0
  5
10125
 10
-387.570
 20
838.879
 30
0.000000
  70
    32
  0
VERTEX
  8
0
  5
10126
 10
-387.567
 20
838.876
 30
0.000000
  70
    32
  0
VERTEX
  8
0
  5
10127
 10
-387.565
 20
838.873
 30
0.000000
  70
    32
  0
VERTEX
  8
0
  5
10128
 10
-387.563
 20
838.870
 30
0.000000
  70
    32
  0
VERTEX
  8
0
  5
10129
 10
-387.561
 20
838.867
 30
0.000000
  70
    32
  0
VERTEX
  8
0
  5
1012A
 10
-387.559
 20
838.865
 30
0.000000
  70
    32
  0
VERTEX
  8
0
  5
1012B
 10
-387.557
 20
838.862
 30
0.000000
  70
    32
  0
VERTEX
  8
0
  5
1012C
 10
-387.555
 20
838.859
 30
0.000000
  70
    32
  0
VERTEX
  8
0
  5
1012D
 10
-387.553
 20
838.856
 30
0.000000
  70
    32
  0
VERTEX
  8
0
  5
1012E
 10
-387.551
 20
838.853
 30
0.000000
  70
    32
  0
VERTEX
  8
0
  5
1012F
 10
-387.549
 20
838.850
 30
0.000000
  70
    32
  0
VERTEX
  8
0
  5
10130
 10
-387.547
 20
838.847
 30
0.000000
  70
    32
  0
VERTEX
  8
0
  5
10131
 10
-387.545
 20
838.844
 30
0.000000
  70
    32
  0
VERTEX
  8
0
  5
10132
 10
-387.544
 20
838.841
 30
0.000000
  70
    32
  0
VERTEX
  8
0
  5
10133
 10
-387.542
 20
838.838
 30
0.000000
  70
    32
  0
VERTEX
  8
0
  5
10134
 10
-387.540
 20
838.834
 30
0.000000
  70
    32
  0
VERTEX
  8
0
  5
10135
 10
-387.538
 20
838.831
 30
0.000000
  70
    32
  0
VERTEX
  8
0
  5
10136
 10
-387.537
 20
838.828
 30
0.000000
  70
    32
  0
VERTEX
  8
0
  5
10137
 10
-387.535
 20
838.825
 30
0.000000
  70
    32
  0
VERTEX
  8
0
  5
10138
 10
-387.533
 20
838.822
 30
0.000000
  70
    32
  0
VERTEX
  8
0
  5
10139
 10
-387.532
 20
838.819
 30
0.000000
  70
    32
  0
VERTEX
  8
0
  5
1013A
 10
-387.530
 20
838.816
 30
0.000000
  70
    32
  0
VERTEX
  8
0
  5
1013B
 10
-387.529
 20
838.812
 30
0.000000
  70
    32
  0
VERTEX
  8
0
  5
1013C
 10
-387.527
 20
838.809
 30
0.000000
  70
    32
  0
VERTEX
  8
0
  5
1013D
 10
-387.526
 20
838.806
 30
0.000000
  70
    32
  0
VERTEX
  8
0
  5
1013E
 10
-387.524
 20
838.803
 30
0.000000
  70
    32
  0
VERTEX
  8
0
  5
1013F
 10
-387.523
 20
838.799
 30
0.000000
  70
    32
  0
VERTEX
  8
0
  5
10140
 10
-387.521
 20
838.796
 30
0.000000
  70
    32
  0
VERTEX
  8
0
  5
10141
 10
-387.520
 20
838.793
 30
0.000000
  70
    32
  0
VERTEX
  8
0
  5
10142
 10
-387.518
 20
838.789
 30
0.000000
  70
    32
  0
VERTEX
  8
0
  5
10143
 10
-387.517
 20
838.786
 30
0.000000
  70
    32
  0
VERTEX
  8
0
  5
10144
 10
-387.516
 20
838.783
 30
0.000000
  70
    32
  0
VERTEX
  8
0
  5
10145
 10
-387.515
 20
838.779
 30
0.000000
  70
    32
  0
VERTEX
  8
0
  5
10146
 10
-387.513
 20
838.776
 30
0.000000
  70
    32
  0
VERTEX
  8
0
  5
10147
 10
-387.512
 20
838.773
 30
0.000000
  70
    32
  0
VERTEX
  8
0
  5
10148
 10
-387.511
 20
838.769
 30
0.000000
  70
    32
  0
VERTEX
  8
0
  5
10149
 10
-387.510
 20
838.766
 30
0.000000
  70
    32
  0
VERTEX
  8
0
  5
1014A
 10
-387.509
 20
838.763
 30
0.000000
  70
    32
  0
VERTEX
  8
0
  5
1014B
 10
-387.508
 20
838.759
 30
0.000000
  70
    32
  0
VERTEX
  8
0
  5
1014C
 10
-387.506
 20
838.756
 30
0.000000
  70
    32
  0
VERTEX
  8
0
  5
1014D
 10
-387.505
 20
838.752
 30
0.000000
  70
    32
  0
VERTEX
  8
0
  5
1014E
 10
-387.504
 20
838.749
 30
0.000000
  70
    32
  0
VERTEX
  8
0
  5
1014F
 10
-387.503
 20
838.745
 30
0.000000
  70
    32
  0
VERTEX
  8
0
  5
10150
 10
-387.502
 20
838.742
 30
0.000000
  70
    32
  0
VERTEX
  8
0
  5
10151
 10
-387.502
 20
838.739
 30
0.000000
  70
    32
  0
VERTEX
  8
0
  5
10152
 10
-387.501
 20
838.735
 30
0.000000
  70
    32
  0
VERTEX
  8
0
  5
10153
 10
-387.500
 20
838.732
 30
0.000000
  70
    32
  0
VERTEX
  8
0
  5
10154
 10
-387.499
 20
838.728
 30
0.000000
  70
    32
  0
VERTEX
  8
0
  5
10155
 10
-387.498
 20
838.725
 30
0.000000
  70
    32
  0
VERTEX
  8
0
  5
10156
 10
-387.497
 20
838.721
 30
0.000000
  70
    32
  0
VERTEX
  8
0
  5
10157
 10
-387.497
 20
838.718
 30
0.000000
  70
    32
  0
VERTEX
  8
0
  5
10158
 10
-387.496
 20
838.714
 30
0.000000
  70
    32
  0
VERTEX
  8
0
  5
10159
 10
-387.495
 20
838.711
 30
0.000000
  70
    32
  0
VERTEX
  8
0
  5
1015A
 10
-387.495
 20
838.707
 30
0.000000
  70
    32
  0
VERTEX
  8
0
  5
1015B
 10
-387.494
 20
838.704
 30
0.000000
  70
    32
  0
VERTEX
  8
0
  5
1015C
 10
-387.493
 20
838.700
 30
0.000000
  70
    32
  0
VERTEX
  8
0
  5
1015D
 10
-387.493
 20
838.697
 30
0.000000
  70
    32
  0
VERTEX
  8
0
  5
1015E
 10
-387.492
 20
838.693
 30
0.000000
  70
    32
  0
VERTEX
  8
0
  5
1015F
 10
-387.492
 20
838.690
 30
0.000000
  70
    32
  0
VERTEX
  8
0
  5
10160
 10
-387.491
 20
838.686
 30
0.000000
  70
    32
  0
VERTEX
  8
0
  5
10161
 10
-387.491
 20
838.683
 30
0.000000
  70
    32
  0
VERTEX
  8
0
  5
10162
 10
-387.490
 20
838.679
 30
0.000000
  70
    32
  0
VERTEX
  8
0
  5
10163
 10
-387.490
 20
838.676
 30
0.000000
  70
    32
  0
VERTEX
  8
0
  5
10164
 10
-387.490
 20
838.672
 30
0.000000
  70
    32
  0
VERTEX
  8
0
  5
10165
 10
-387.489
 20
838.669
 30
0.000000
  70
    32
  0
VERTEX
  8
0
  5
10166
 10
-387.489
 20
838.665
 30
0.000000
  70
    32
  0
VERTEX
  8
0
  5
10167
 10
-387.489
 20
838.661
 30
0.000000
  70
    32
  0
VERTEX
  8
0
  5
10168
 10
-387.488
 20
838.658
 30
0.000000
  70
    32
  0
VERTEX
  8
0
  5
10169
 10
-387.488
 20
838.654
 30
0.000000
  70
    32
  0
VERTEX
  8
0
  5
1016A
 10
-387.488
 20
838.651
 30
0.000000
  70
    32
  0
VERTEX
  8
0
  5
1016B
 10
-387.488
 20
838.647
 30
0.000000
  70
    32
  0
VERTEX
  8
0
  5
1016C
 10
-387.488
 20
838.644
 30
0.000000
  70
    32
  0
VERTEX
  8
0
  5
1016D
 10
-387.487
 20
838.640
 30
0.000000
  70
    32
  0
VERTEX
  8
0
  5
1016E
 10
-387.487
 20
838.637
 30
0.000000
  70
    32
  0
VERTEX
  8
0
  5
1016F
 10
-387.487
 20
838.633
 30
0.000000
  70
    32
  0
VERTEX
  8
0
  5
10170
 10
-387.487
 20
838.630
 30
0.000000
  70
    32
  0
VERTEX
  8
0
  5
10171
 10
-387.487
 20
838.626
 30
0.000000
  70
    32
  0
VERTEX
  8
0
  5
10172
 10
-387.487
 20
838.623
 30
0.000000
  70
    32
  0
VERTEX
  8
0
  5
10173
 10
-387.487
 20
838.619
 30
0.000000
  70
    32
  0
VERTEX
  8
0
  5
10174
 10
-387.487
 20
838.615
 30
0.000000
  70
    32
  0
VERTEX
  8
0
  5
10175
 10
-387.487
 20
838.612
 30
0.000000
  70
    32
  0
VERTEX
  8
0
  5
10176
 10
-387.487
 20
838.608
 30
0.000000
  70
    32
  0
VERTEX
  8
0
  5
10177
 10
-387.488
 20
838.605
 30
0.000000
  70
    32
  0
VERTEX
  8
0
  5
10178
 10
-387.488
 20
838.601
 30
0.000000
  70
    32
  0
VERTEX
  8
0
  5
10179
 10
-387.488
 20
838.598
 30
0.000000
  70
    32
  0
VERTEX
  8
0
  5
1017A
 10
-387.488
 20
838.594
 30
0.000000
  70
    32
  0
VERTEX
  8
0
  5
1017B
 10
-387.488
 20
838.591
 30
0.000000
  70
    32
  0
VERTEX
  8
0
  5
1017C
 10
-387.489
 20
838.587
 30
0.000000
  70
    32
  0
VERTEX
  8
0
  5
1017D
 10
-387.489
 20
838.583
 30
0.000000
  70
    32
  0
VERTEX
  8
0
  5
1017E
 10
-387.489
 20
838.580
 30
0.000000
  70
    32
  0
VERTEX
  8
0
  5
1017F
 10
-387.489
 20
838.576
 30
0.000000
  70
    32
  0
VERTEX
  8
0
  5
10180
 10
-387.490
 20
838.573
 30
0.000000
  70
    32
  0
VERTEX
  8
0
  5
10181
 10
-387.490
 20
838.569
 30
0.000000
  70
    32
  0
VERTEX
  8
0
  5
10182
 10
-387.490
 20
838.565
 30
0.000000
  70
    32
  0
VERTEX
  8
0
  5
10183
 10
-387.491
 20
838.562
 30
0.000000
  70
    32
  0
VERTEX
  8
0
  5
10184
 10
-387.491
 20
838.558
 30
0.000000
  70
    32
  0
VERTEX
  8
0
  5
10185
 10
-387.492
 20
838.555
 30
0.000000
  70
    32
  0
VERTEX
  8
0
  5
10186
 10
-387.492
 20
838.551
 30
0.000000
  70
    32
  0
VERTEX
  8
0
  5
10187
 10
-387.493
 20
838.548
 30
0.000000
  70
    32
  0
VERTEX
  8
0
  5
10188
 10
-387.493
 20
838.544
 30
0.000000
  70
    32
  0
VERTEX
  8
0
  5
10189
 10
-387.494
 20
838.540
 30
0.000000
  70
    32
  0
VERTEX
  8
0
  5
1018A
 10
-387.494
 20
838.537
 30
0.000000
  70
    32
  0
VERTEX
  8
0
  5
1018B
 10
-387.495
 20
838.533
 30
0.000000
  70
    32
  0
VERTEX
  8
0
  5
1018C
 10
-387.495
 20
838.530
 30
0.000000
  70
    32
  0
VERTEX
  8
0
  5
1018D
 10
-387.496
 20
838.526
 30
0.000000
  70
    32
  0
VERTEX
  8
0
  5
1018E
 10
-387.497
 20
838.523
 30
0.000000
  70
    32
  0
VERTEX
  8
0
  5
1018F
 10
-387.497
 20
838.519
 30
0.000000
  70
    32
  0
VERTEX
  8
0
  5
10190
 10
-387.498
 20
838.515
 30
0.000000
  70
    32
  0
VERTEX
  8
0
  5
10191
 10
-387.499
 20
838.512
 30
0.000000
  70
    32
  0
VERTEX
  8
0
  5
10192
 10
-387.499
 20
838.508
 30
0.000000
  70
    32
  0
VERTEX
  8
0
  5
10193
 10
-387.500
 20
838.505
 30
0.000000
  70
    32
  0
VERTEX
  8
0
  5
10194
 10
-387.501
 20
838.501
 30
0.000000
  70
    32
  0
VERTEX
  8
0
  5
10195
 10
-387.502
 20
838.498
 30
0.000000
  70
    32
  0
VERTEX
  8
0
  5
10196
 10
-387.503
 20
838.494
 30
0.000000
  70
    32
  0
VERTEX
  8
0
  5
10197
 10
-387.504
 20
838.491
 30
0.000000
  70
    32
  0
VERTEX
  8
0
  5
10198
 10
-387.504
 20
838.487
 30
0.000000
  70
    32
  0
VERTEX
  8
0
  5
10199
 10
-387.505
 20
838.484
 30
0.000000
  70
    32
  0
VERTEX
  8
0
  5
1019A
 10
-387.506
 20
838.480
 30
0.000000
  70
    32
  0
VERTEX
  8
0
  5
1019B
 10
-387.507
 20
838.477
 30
0.000000
  70
    32
  0
VERTEX
  8
0
  5
1019C
 10
-387.508
 20
838.473
 30
0.000000
  70
    32
  0
VERTEX
  8
0
  5
1019D
 10
-387.509
 20
838.470
 30
0.000000
  70
    32
  0
VERTEX
  8
0
  5
1019E
 10
-387.510
 20
838.467
 30
0.000000
  70
    32
  0
VERTEX
  8
0
  5
1019F
 10
-387.511
 20
838.463
 30
0.000000
  70
    32
  0
VERTEX
  8
0
  5
101A0
 10
-387.513
 20
838.460
 30
0.000000
  70
    32
  0
VERTEX
  8
0
  5
101A1
 10
-387.514
 20
838.456
 30
0.000000
  70
    32
  0
VERTEX
  8
0
  5
101A2
 10
-387.515
 20
838.453
 30
0.000000
  70
    32
  0
VERTEX
  8
0
  5
101A3
 10
-387.516
 20
838.450
 30
0.000000
  70
    32
  0
VERTEX
  8
0
  5
101A4
 10
-387.517
 20
838.446
 30
0.000000
  70
    32
  0
VERTEX
  8
0
  5
101A5
 10
-387.519
 20
838.443
 30
0.000000
  70
    32
  0
VERTEX
  8
0
  5
101A6
 10
-387.520
 20
838.439
 30
0.000000
  70
    32
  0
VERTEX
  8
0
  5
101A7
 10
-387.521
 20
838.436
 30
0.000000
  70
    32
  0
VERTEX
  8
0
  5
101A8
 10
-387.523
 20
838.433
 30
0.000000
  70
    32
  0
VERTEX
  8
0
  5
101A9
 10
-387.524
 20
838.430
 30
0.000000
  70
    32
  0
VERTEX
  8
0
  5
101AA
 10
-387.525
 20
838.426
 30
0.000000
  70
    32
  0
VERTEX
  8
0
  5
101AB
 10
-387.527
 20
838.423
 30
0.000000
  70
    32
  0
VERTEX
  8
0
  5
101AC
 10
-387.528
 20
838.420
 30
0.000000
  70
    32
  0
VERTEX
  8
0
  5
101AD
 10
-387.530
 20
838.417
 30
0.000000
  70
    32
  0
VERTEX
  8
0
  5
101AE
 10
-387.531
 20
838.413
 30
0.000000
  70
    32
  0
VERTEX
  8
0
  5
101AF
 10
-387.533
 20
838.410
 30
0.000000
  70
    32
  0
VERTEX
  8
0
  5
101B0
 10
-387.535
 20
838.407
 30
0.000000
  70
    32
  0
VERTEX
  8
0
  5
101B1
 10
-387.536
 20
838.404
 30
0.000000
  70
    32
  0
VERTEX
  8
0
  5
101B2
 10
-387.538
 20
838.401
 30
0.000000
  70
    32
  0
VERTEX
  8
0
  5
101B3
 10
-387.540
 20
838.398
 30
0.000000
  70
    32
  0
VERTEX
  8
0
  5
101B4
 10
-387.541
 20
838.395
 30
0.000000
  70
    32
  0
VERTEX
  8
0
  5
101B5
 10
-387.543
 20
838.392
 30
0.000000
  70
    32
  0
VERTEX
  8
0
  5
101B6
 10
-387.545
 20
838.389
 30
0.000000
  70
    32
  0
VERTEX
  8
0
  5
101B7
 10
-387.547
 20
838.386
 30
0.000000
  70
    32
  0
VERTEX
  8
0
  5
101B8
 10
-387.549
 20
838.383
 30
0.000000
  70
    32
  0
VERTEX
  8
0
  5
101B9
 10
-387.551
 20
838.380
 30
0.000000
  70
    32
  0
VERTEX
  8
0
  5
101BA
 10
-387.553
 20
838.377
 30
0.000000
  70
    32
  0
VERTEX
  8
0
  5
101BB
 10
-387.554
 20
838.374
 30
0.000000
  70
    32
  0
VERTEX
  8
0
  5
101BC
 10
-387.557
 20
838.371
 30
0.000000
  70
    32
  0
VERTEX
  8
0
  5
101BD
 10
-387.559
 20
838.368
 30
0.000000
  70
    32
  0
VERTEX
  8
0
  5
101BE
 10
-387.561
 20
838.365
 30
0.000000
  70
    32
  0
VERTEX
  8
0
  5
101BF
 10
-387.563
 20
838.362
 30
0.000000
  70
    32
  0
VERTEX
  8
0
  5
101C0
 10
-387.565
 20
838.360
 30
0.000000
  70
    32
  0
VERTEX
  8
0
  5
101C1
 10
-387.567
 20
838.357
 30
0.000000
  70
    32
  0
VERTEX
  8
0
  5
101C2
 10
-387.569
 20
838.354
 30
0.000000
  70
    32
  0
VERTEX
  8
0
  5
101C3
 10
-387.571
 20
838.351
 30
0.000000
  70
    32
  0
VERTEX
  8
0
  5
101C4
 10
-387.574
 20
838.349
 30
0.000000
  70
    32
  0
VERTEX
  8
0
  5
101C5
 10
-387.576
 20
838.346
 30
0.000000
  70
    32
  0
VERTEX
  8
0
  5
101C6
 10
-387.578
 20
838.343
 30
0.000000
  70
    32
  0
VERTEX
  8
0
  5
101C7
 10
-387.581
 20
838.341
 30
0.000000
  70
    32
  0
VERTEX
  8
0
  5
101C8
 10
-387.583
 20
838.338
 30
0.000000
  70
    32
  0
VERTEX
  8
0
  5
101C9
 10
-387.586
 20
838.335
 30
0.000000
  70
    32
  0
VERTEX
  8
0
  5
101CA
 10
-387.588
 20
838.333
 30
0.000000
  70
    32
  0
VERTEX
  8
0
  5
101CB
 10
-387.590
 20
838.330
 30
0.000000
  70
    32
  0
VERTEX
  8
0
  5
101CC
 10
-387.593
 20
838.328
 30
0.000000
  70
    32
  0
VERTEX
  8
0
  5
101CD
 10
-387.595
 20
838.325
 30
0.000000
  70
    32
  0
VERTEX
  8
0
  5
101CE
 10
-387.598
 20
838.323
 30
0.000000
  70
    32
  0
VERTEX
  8
0
  5
101CF
 10
-387.600
 20
838.320
 30
0.000000
  70
    32
  0
VERTEX
  8
0
  5
101D0
 10
-387.603
 20
838.318
 30
0.000000
  70
    32
  0
VERTEX
  8
0
  5
101D1
 10
-387.606
 20
838.315
 30
0.000000
  70
    32
  0
VERTEX
  8
0
  5
101D2
 10
-387.608
 20
838.313
 30
0.000000
  70
    32
  0
VERTEX
  8
0
  5
101D3
 10
-387.611
 20
838.310
 30
0.000000
  70
    32
  0
VERTEX
  8
0
  5
101D4
 10
-387.614
 20
838.308
 30
0.000000
  70
    32
  0
VERTEX
  8
0
  5
101D5
 10
-387.616
 20
838.306
 30
0.000000
  70
    32
  0
VERTEX
  8
0
  5
101D6
 10
-387.619
 20
838.303
 30
0.000000
  70
    32
  0
VERTEX
  8
0
  5
101D7
 10
-387.622
 20
838.301
 30
0.000000
  70
    32
  0
VERTEX
  8
0
  5
101D8
 10
-387.625
 20
838.299
 30
0.000000
  70
    32
  0
VERTEX
  8
0
  5
101D9
 10
-387.627
 20
838.296
 30
0.000000
  70
    32
  0
VERTEX
  8
0
  5
101DA
 10
-387.630
 20
838.294
 30
0.000000
  70
    32
  0
VERTEX
  8
0
  5
101DB
 10
-387.633
 20
838.292
 30
0.000000
  70
    32
  0
VERTEX
  8
0
  5
101DC
 10
-387.636
 20
838.290
 30
0.000000
  70
    32
  0
VERTEX
  8
0
  5
101DD
 10
-387.638
 20
838.288
 30
0.000000
  70
    32
  0
VERTEX
  8
0
  5
101DE
 10
-387.641
 20
838.285
 30
0.000000
  70
    32
  0
VERTEX
  8
0
  5
101DF
 10
-387.644
 20
838.283
 30
0.000000
  70
    32
  0
VERTEX
  8
0
  5
101E0
 10
-387.647
 20
838.281
 30
0.000000
  70
    32
  0
VERTEX
  8
0
  5
101E1
 10
-387.650
 20
838.279
 30
0.000000
  70
    32
  0
VERTEX
  8
0
  5
101E2
 10
-387.653
 20
838.277
 30
0.000000
  70
    32
  0
VERTEX
  8
0
  5
101E3
 10
-387.656
 20
838.275
 30
0.000000
  70
    32
  0
VERTEX
  8
0
  5
101E4
 10
-387.659
 20
838.272
 30
0.000000
  70
    32
  0
VERTEX
  8
0
  5
101E5
 10
-387.662
 20
838.270
 30
0.000000
  70
    32
  0
VERTEX
  8
0
  5
101E6
 10
-387.665
 20
838.268
 30
0.000000
  70
    32
  0
VERTEX
  8
0
  5
101E7
 10
-387.668
 20
838.266
 30
0.000000
  70
    32
  0
VERTEX
  8
0
  5
101E8
 10
-387.671
 20
838.264
 30
0.000000
  70
    32
  0
VERTEX
  8
0
  5
101E9
 10
-387.674
 20
838.262
 30
0.000000
  70
    32
  0
VERTEX
  8
0
  5
101EA
 10
-387.677
 20
838.260
 30
0.000000
  70
    32
  0
VERTEX
  8
0
  5
101EB
 10
-387.680
 20
838.258
 30
0.000000
  70
    32
  0
VERTEX
  8
0
  5
101EC
 10
-387.683
 20
838.256
 30
0.000000
  70
    32
  0
VERTEX
  8
0
  5
101ED
 10
-387.686
 20
838.254
 30
0.000000
  70
    32
  0
VERTEX
  8
0
  5
101EE
 10
-387.689
 20
838.252
 30
0.000000
  70
    32
  0
VERTEX
  8
0
  5
101EF
 10
-387.692
 20
838.250
 30
0.000000
  70
    32
  0
VERTEX
  8
0
  5
101F0
 10
-387.695
 20
838.248
 30
0.000000
  70
    32
  0
VERTEX
  8
0
  5
101F1
 10
-387.698
 20
838.247
 30
0.000000
  70
    32
  0
VERTEX
  8
0
  5
101F2
 10
-387.701
 20
838.245
 30
0.000000
  70
    32
  0
VERTEX
  8
0
  5
101F3
 10
-387.704
 20
838.243
 30
0.000000
  70
    32
  0
VERTEX
  8
0
  5
101F4
 10
-387.707
 20
838.241
 30
0.000000
  70
    32
  0
VERTEX
  8
0
  5
101F5
 10
-387.710
 20
838.239
 30
0.000000
  70
    32
  0
VERTEX
  8
0
  5
101F6
 10
-387.713
 20
838.237
 30
0.000000
  70
    32
  0
VERTEX
  8
0
  5
101F7
 10
-387.716
 20
838.236
 30
0.000000
  70
    32
  0
VERTEX
  8
0
  5
101F8
 10
-387.719
 20
838.234
 30
0.000000
  70
    32
  0
VERTEX
  8
0
  5
101F9
 10
-387.723
 20
838.232
 30
0.000000
  70
    32
  0
VERTEX
  8
0
  5
101FA
 10
-387.726
 20
838.231
 30
0.000000
  70
    32
  0
VERTEX
  8
0
  5
101FB
 10
-387.729
 20
838.229
 30
0.000000
  70
    32
  0
VERTEX
  8
0
  5
101FC
 10
-387.732
 20
838.227
 30
0.000000
  70
    32
  0
VERTEX
  8
0
  5
101FD
 10
-387.735
 20
838.226
 30
0.000000
  70
    32
  0
VERTEX
  8
0
  5
101FE
 10
-387.739
 20
838.224
 30
0.000000
  70
    32
  0
VERTEX
  8
0
  5
101FF
 10
-387.742
 20
838.223
 30
0.000000
  70
    32
  0
VERTEX
  8
0
  5
10200
 10
-387.745
 20
838.221
 30
0.000000
  70
    32
  0
VERTEX
  8
0
  5
10201
 10
-387.748
 20
838.220
 30
0.000000
  70
    32
  0
VERTEX
  8
0
  5
10202
 10
-387.751
 20
838.218
 30
0.000000
  70
    32
  0
VERTEX
  8
0
  5
10203
 10
-387.755
 20
838.217
 30
0.000000
  70
    32
  0
VERTEX
  8
0
  5
10204
 10
-387.758
 20
838.216
 30
0.000000
  70
    32
  0
VERTEX
  8
0
  5
10205
 10
-387.761
 20
838.214
 30
0.000000
  70
    32
  0
VERTEX
  8
0
  5
10206
 10
-387.765
 20
838.213
 30
0.000000
  70
    32
  0
VERTEX
  8
0
  5
10207
 10
-387.768
 20
838.212
 30
0.000000
  70
    32
  0
VERTEX
  8
0
  5
10208
 10
-387.771
 20
838.211
 30
0.000000
  70
    32
  0
VERTEX
  8
0
  5
10209
 10
-387.774
 20
838.209
 30
0.000000
  70
    32
  0
VERTEX
  8
0
  5
1020A
 10
-387.778
 20
838.208
 30
0.000000
  70
    32
  0
VERTEX
  8
0
  5
1020B
 10
-387.781
 20
838.207
 30
0.000000
  70
    32
  0
VERTEX
  8
0
  5
1020C
 10
-387.785
 20
838.206
 30
0.000000
  70
    32
  0
VERTEX
  8
0
  5
1020D
 10
-387.788
 20
838.205
 30
0.000000
  70
    32
  0
VERTEX
  8
0
  5
1020E
 10
-387.791
 20
838.204
 30
0.000000
  70
    32
  0
VERTEX
  8
0
  5
1020F
 10
-387.795
 20
838.203
 30
0.000000
  70
    32
  0
VERTEX
  8
0
  5
10210
 10
-387.798
 20
838.202
 30
0.000000
  70
    32
  0
VERTEX
  8
0
  5
10211
 10
-387.802
 20
838.201
 30
0.000000
  70
    32
  0
VERTEX
  8
0
  5
10212
 10
-387.805
 20
838.200
 30
0.000000
  70
    32
  0
VERTEX
  8
0
  5
10213
 10
-387.808
 20
838.200
 30
0.000000
  70
    32
  0
VERTEX
  8
0
  5
10214
 10
-387.812
 20
838.199
 30
0.000000
  70
    32
  0
VERTEX
  8
0
  5
10215
 10
-387.815
 20
838.198
 30
0.000000
  70
    32
  0
VERTEX
  8
0
  5
10216
 10
-387.819
 20
838.198
 30
0.000000
  70
    32
  0
VERTEX
  8
0
  5
10217
 10
-387.822
 20
838.197
 30
0.000000
  70
    32
  0
VERTEX
  8
0
  5
10218
 10
-387.826
 20
838.196
 30
0.000000
  70
    32
  0
VERTEX
  8
0
  5
10219
 10
-387.829
 20
838.196
 30
0.000000
  70
    32
  0
VERTEX
  8
0
  5
1021A
 10
-387.833
 20
838.195
 30
0.000000
  70
    32
  0
VERTEX
  8
0
  5
1021B
 10
-387.836
 20
838.195
 30
0.000000
  70
    32
  0
VERTEX
  8
0
  5
1021C
 10
-387.840
 20
838.194
 30
0.000000
  70
    32
  0
VERTEX
  8
0
  5
1021D
 10
-387.843
 20
838.194
 30
0.000000
  70
    32
  0
VERTEX
  8
0
  5
1021E
 10
-387.847
 20
838.193
 30
0.000000
  70
    32
  0
VERTEX
  8
0
  5
1021F
 10
-387.850
 20
838.193
 30
0.000000
  70
    32
  0
VERTEX
  8
0
  5
10220
 10
-387.854
 20
838.193
 30
0.000000
  70
    32
  0
VERTEX
  8
0
  5
10221
 10
-387.857
 20
838.192
 30
0.000000
  70
    32
  0
VERTEX
  8
0
  5
10222
 10
-387.861
 20
838.192
 30
0.000000
  70
    32
  0
VERTEX
  8
0
  5
10223
 10
-387.865
 20
838.192
 30
0.000000
  70
    32
  0
VERTEX
  8
0
  5
10224
 10
-387.868
 20
838.191
 30
0.000000
  70
    32
  0
VERTEX
  8
0
  5
10225
 10
-387.872
 20
838.191
 30
0.000000
  70
    32
  0
VERTEX
  8
0
  5
10226
 10
-387.875
 20
838.191
 30
0.000000
  70
    32
  0
VERTEX
  8
0
  5
10227
 10
-387.879
 20
838.191
 30
0.000000
  70
    32
  0
VERTEX
  8
0
  5
10228
 10
-387.882
 20
838.191
 30
0.000000
  70
    32
  0
VERTEX
  8
0
  5
10229
 10
-387.886
 20
838.190
 30
0.000000
  70
    32
  0
VERTEX
  8
0
  5
1022A
 10
-387.890
 20
838.190
 30
0.000000
  70
    32
  0
VERTEX
  8
0
  5
1022B
 10
-387.893
 20
838.190
 30
0.000000
  70
    32
  0
VERTEX
  8
0
  5
1022C
 10
-387.897
 20
838.190
 30
0.000000
  70
    32
  0
VERTEX
  8
0
  5
1022D
 10
-387.900
 20
838.190
 30
0.000000
  70
    32
  0
VERTEX
  8
0
  5
1022E
 10
-387.904
 20
838.190
 30
0.000000
  70
    32
  0
VERTEX
  8
0
  5
1022F
 10
-387.907
 20
838.190
 30
0.000000
  70
    32
  0
VERTEX
  8
0
  5
10230
 10
-387.911
 20
838.190
 30
0.000000
  70
    32
  0
VERTEX
  8
0
  5
10231
 10
-387.914
 20
838.190
 30
0.000000
  70
    32
  0
VERTEX
  8
0
  5
10232
 10
-387.918
 20
838.190
 30
0.000000
  70
    32
  0
SEQEND
  8
0
  5
10233
  0
INSERT
  5
FE8B
  8
0
  2
*U126
 10
0.0
 20
0.0
 30
0.0
  0
VIEWPORT
  5
BADA
 67
     1
  8
0
 10
5.249999665167528
 20
4.016860864854312
 30
0.0
 40
16.259362384438411
 41
8.0158201110956853
 68
     2
 69
     1
1001
ACAD
1000
MVIEW
1002
{
1070
    16
1010
0.0
1020
0.0
1030
0.0
1010
0.0
1020
0.0
1030
1.0
1040
0.0
1040
8.0158201110956853
1040
5.249999665167528
1040
4.016860864854312
1040
50.0
1040
0.0
1040
0.0
1070
     0
1070
   100
1070
     1
1070
     1
1070
     0
1070
     0
1070
     0
1070
     0
1040
0.0
1040
0.0
1040
0.0
1040
0.5
1040
0.5
1040
0.5
1040
0.5
1070
     0
1002
{
1002
}
1002
}
  0
VIEWPORT
  5
BADD
 67
     1
  8
0
 10
5.249999629487192
 20
4.0166741807634683
 30
0.0
 40
10.44245679893058
 41
7.8813805131999892
 68
     1
 69
     2
1001
ACAD
1000
MVIEW
1002
{
1070
    16
1010
0.0
1020
0.0
1030
0.0
1010
0.0
1020
0.0
1030
1.0
1040
0.0
1040
7.8813805131999892
1040
-386.95948185412709
1040
838.98450758524882
1040
50.0
1040
0.0
1040
0.0
1070
     0
1070
   100
1070
     1
1070
     2
1070
     0
1070
     0
1070
     0
1070
     0
1040
0.0
1040
0.0
1040
0.0
1040
0.5
1040
0.5
1040
0.5
1040
0.5
1070
     0
1002
{
1002
}
1002
}
  0
ENDSEC
  0
EOF
