  0
SECTION
  2
HEADER
  9
$ACADVER
  1
AC1009
  9
$INSBASE
 10
0.0
 20
0.0
 30
0.0
  9
$EXTMIN
 10
-367.31996827390282
 20
857.02125437767472
 30
0.0
  9
$EXTMAX
 10
-363.7273951286279
 20
859.6421440879742
 30
0.0
  9
$LIMMIN
 10
0.0
 20
0.0
  9
$LIMMAX
 10
1500.0
 20
1500.0
  9
$ORTHOMODE
 70
     0
  9
$REGENMODE
 70
     1
  9
$FILLMODE
 70
     1
  9
$QTEXTMODE
 70
     0
  9
$MIRRTEXT
 70
     1
  9
$DRAGMODE
 70
     2
  9
$LTSCALE
 40
1.0
  9
$OSMODE
 70
    63
  9
$ATTMODE
 70
     1
  9
$TEXTSIZE
 40
1.5
  9
$TRACEWID
 40
0.05
  9
$TEXTSTYLE
  7
STANDARD
  9
$CLAYER
  8
0
  9
$CELTYPE
  6
BYLAYER
  9
$CECOLOR
 62
   256
  9
$DIMSCALE
 40
1.0
  9
$DIMASZ
 40
0.75
  9
$DIMEXO
 40
1.5
  9
$DIMDLI
 40
2.0
  9
$DIMRND
 40
0.0
  9
$DIMDLE
 40
0.0
  9
$DIMEXE
 40
1.0
  9
$DIMTP
 40
0.0
  9
$DIMTM
 40
0.0
  9
$DIMTXT
 40
1.5
  9
$DIMCEN
 40
2.0
  9
$DIMTSZ
 40
0.0
  9
$DIMTOL
 70
     0
  9
$DIMLIM
 70
     0
  9
$DIMTIH
 70
     0
  9
$DIMTOH
 70
     0
  9
$DIMSE1
 70
     0
  9
$DIMSE2
 70
     0
  9
$DIMTAD
 70
     1
  9
$DIMZIN
 70
     0
  9
$DIMBLK
  1
ARCHTICK
  9
$DIMASO
 70
     1
  9
$DIMSHO
 70
     1
  9
$DIMPOST
  1
"
  9
$DIMAPOST
  1

  9
$DIMALT
 70
     0
  9
$DIMALTD
 70
     2
  9
$DIMALTF
 40
25.399999999999999
  9
$DIMLFAC
 40
1.0
  9
$DIMTOFL
 70
     0
  9
$DIMTVP
 40
0.0
  9
$DIMTIX
 70
     1
  9
$DIMSOXD
 70
     0
  9
$DIMSAH
 70
     0
  9
$DIMBLK1
  1

  9
$DIMBLK2
  1

  9
$DIMSTYLE
  2
THREE_QUARTER_INCH_SCALE
  9
$DIMCLRD
 70
     0
  9
$DIMCLRE
 70
     0
  9
$DIMCLRT
 70
     0
  9
$DIMTFAC
 40
1.0
  9
$DIMGAP
 40
1.0
  9
$LUNITS
 70
     2
  9
$LUPREC
 70
     4
  9
$SKETCHINC
 40
0.1
  9
$FILLETRAD
 40
0.0
  9
$AUNITS
 70
     0
  9
$AUPREC
 70
     0
  9
$MENU
  1
.
  9
$ELEVATION
 40
0.0
  9
$PELEVATION
 40
0.0
  9
$THICKNESS
 40
0.0
  9
$LIMCHECK
 70
     0
  9
$BLIPMODE
 70
     0
  9
$CHAMFERA
 40
0.5
  9
$CHAMFERB
 40
0.5
  9
$SKPOLY
 70
     0
  9
$TDCREATE
 40
2452089.395738773
  9
$TDUPDATE
 40
2453621.577354155
  9
$TDINDWG
 40
1.6725250231
  9
$TDUSRTIMER
 40
1.6725250231
  9
$USRTIMER
 70
     1
  9
$ANGBASE
 50
0.0
  9
$ANGDIR
 70
     0
  9
$PDMODE
 70
     0
  9
$PDSIZE
 40
10.0
  9
$PLINEWID
 40
0.0
  9
$COORDS
 70
     0
  9
$SPLFRAME
 70
     0
  9
$SPLINETYPE
 70
     6
  9
$SPLINESEGS
 70
     8
  9
$ATTDIA
 70
     0
  9
$ATTREQ
 70
     1
  9
$HANDLING
 70
     1
  9
$HANDSEED
  5
3B3F9
  9
$SURFTAB1
 70
     6
  9
$SURFTAB2
 70
     6
  9
$SURFTYPE
 70
     6
  9
$SURFU
 70
     6
  9
$SURFV
 70
     6
  9
$UCSNAME
  2

  9
$UCSORG
 10
0.0
 20
0.0
 30
0.0
  9
$UCSXDIR
 10
1.0
 20
0.0
 30
0.0
  9
$UCSYDIR
 10
0.0
 20
1.0
 30
0.0
  9
$PUCSNAME
  2

  9
$PUCSORG
 10
0.0
 20
0.0
 30
0.0
  9
$PUCSXDIR
 10
1.0
 20
0.0
 30
0.0
  9
$PUCSYDIR
 10
0.0
 20
1.0
 30
0.0
  9
$USERI1
 70
     0
  9
$USERI2
 70
     0
  9
$USERI3
 70
     0
  9
$USERI4
 70
     0
  9
$USERI5
 70
     0
  9
$USERR1
 40
0.0
  9
$USERR2
 40
0.0
  9
$USERR3
 40
0.0
  9
$USERR4
 40
0.0
  9
$USERR5
 40
0.0
  9
$WORLDVIEW
 70
     1
  9
$SHADEDGE
 70
     3
  9
$SHADEDIF
 70
    70
  9
$TILEMODE
 70
     0
  9
$MAXACTVP
 70
    64
  9
$PLIMCHECK
 70
     0
  9
$PEXTMIN
 10
0.0287712300219028
 20
0.0759839241634737
 30
0.0
  9
$PEXTMAX
 10
10.47122802895248
 20
7.957364437363462
 30
0.0
  9
$PLIMMIN
 10
-0.2500002402958907
 20
-0.2499999962453767
  9
$PLIMMAX
 10
10.74999951940821
 20
8.2499997634587316
  9
$UNITMODE
 70
     0
  9
$VISRETAIN
 70
     1
  9
$PLINEGEN
 70
     0
  9
$PSLTSCALE
 70
     1
  0
ENDSEC
  0
SECTION
  2
TABLES
  0
TABLE
  2
VPORT
 70
     1
  0
VPORT
  2
*ACTIVE
 70
     0
 10
0.0
 20
0.0
 11
1.0
 21
1.0
 12
-380.70010693656201
 22
845.16779400026962
 13
0.0
 23
0.0
 14
0.5
 24
0.5
 15
0.5
 25
0.5
 16
0.0
 26
0.0
 36
1.0
 17
0.0
 27
0.0
 37
0.0
 40
8.8173627230431642
 41
2.0
 42
50.0
 43
0.0
 44
0.0
 50
0.0
 51
0.0
 71
     0
 72
   100
 73
     1
 74
     2
 75
     0
 76
     0
 77
     0
 78
     0
  0
ENDTAB
  0
TABLE
  2
LTYPE
 70
     1
  0
LTYPE
  2
CONTINUOUS
 70
     0
  3
Solid line
 72
    65
 73
     0
 40
0.0
  0
ENDTAB
  0
TABLE
  2
LAYER
 70
    10
  0
LAYER
  2
0
 70
     0
 62
     7
  6
CONTINUOUS
  0
LAYER
  2
DEFPOINTS
 70
     0
 62
     7
  6
CONTINUOUS
  0
LAYER
  2
FRAME_200
 70
     0
 62
     8
  6
CONTINUOUS
  0
LAYER
  2
FRAME_070
 70
     0
 62
     5
  6
CONTINUOUS
  0
LAYER
  2
FRAME_050
 70
     0
 62
     6
  6
CONTINUOUS
  0
LAYER
  2
TITLE_BLOCK
 70
     0
 62
     7
  6
CONTINUOUS
  0
LAYER
  2
FRAME_025
 70
     0
 62
     7
  6
CONTINUOUS
  0
LAYER
  2
VIEWPORT
 70
     0
 62
     7
  6
CONTINUOUS
  0
LAYER
  2
PROF
 70
     0
 62
     7
  6
CONTINUOUS
  0
LAYER
  2
PROFILE
 70
     0
 62
     7
  6
CONTINUOUS
  0
ENDTAB
  0
TABLE
  2
STYLE
 70
     2
  0
STYLE
  2
STANDARD
 70
     0
 40
0.0
 41
1.0
 50
0.0
 71
     0
 42
1.5
  3
txt
  4

  0
STYLE
  2
ISO_PROPORTIONAL
 70
     0
 40
0.0
 41
1.0
 50
0.0
 71
     0
 42
2.5
  3
isocp.shx
  4

  0
ENDTAB
  0
TABLE
  2
VIEW
 70
     1
  0
ENDTAB
  0
TABLE
  2
UCS
 70
     0
  0
ENDTAB
  0
TABLE
  2
APPID
 70
     6
  0
APPID
  2
ACAD
 70
     0
  0
APPID
  2
DCO15
 70
     0
  0
APPID
  2
ACAD_EXEMPT_FROM_CAD_STANDARDS
 70
     0
  0
APPID
  2
ACAD_PSEXT
 70
     0
  0
APPID
  2
CONTENTBLOCKDESCRIPTION
 70
     0
  0
APPID
  2
CONTENTBLOCKICON
 70
     0
  0
ENDTAB
  0
TABLE
  2
DIMSTYLE
 70
     5
  0
DIMSTYLE
  2
FULL_SCALE
 70
     0
  3
"
  4

  5
ARCHTICK
  6

  7

 40
1.0
 41
0.046875
 42
0.09375
 43
0.125
 44
0.0625
 45
0.0
 46
0.0
 47
0.0
 48
0.0
140
0.125
141
0.125
142
0.0
143
25.399999999999999
144
1.0
145
0.0
146
1.0
147
0.0625
 71
     0
 72
     0
 73
     0
 74
     0
 75
     0
 76
     0
 77
     1
 78
     0
170
     0
171
     2
172
     0
173
     0
174
     1
175
     0
176
     0
177
     0
178
     0
  0
DIMSTYLE
  2
HALF_SCALE
 70
     0
  3
"
  4

  5
ARCHTICK
  6

  7

 40
1.0
 41
0.09375
 42
0.1875
 43
0.25
 44
0.125
 45
0.0
 46
0.0
 47
0.0
 48
0.0
140
0.25
141
0.25
142
0.0
143
25.399999999999999
144
1.0
145
0.0
146
1.0
147
0.125
 71
     0
 72
     0
 73
     0
 74
     0
 75
     0
 76
     0
 77
     1
 78
     0
170
     0
171
     2
172
     0
173
     0
174
     1
175
     0
176
     0
177
     0
178
     0
  0
DIMSTYLE
  2
INCH_SCALE
 70
     0
  3
"
  4

  5
ARCHTICK
  6

  7

 40
1.0
 41
0.5625
 42
1.125
 43
1.5
 44
0.75
 45
0.0
 46
0.0
 47
0.0
 48
0.0
140
1.125
141
1.5
142
0.0
143
25.399999999999999
144
1.0
145
0.0
146
1.0
147
0.75
 71
     0
 72
     0
 73
     0
 74
     0
 75
     0
 76
     0
 77
     1
 78
     0
170
     0
171
     2
172
     0
173
     0
174
     1
175
     0
176
     0
177
     0
178
     0
  0
DIMSTYLE
  2
THREE_QUARTER_INCH_SCALE
 70
     0
  3
"
  4

  5
ARCHTICK
  6

  7

 40
1.0
 41
0.75
 42
1.5
 43
2.0
 44
1.0
 45
0.0
 46
0.0
 47
0.0
 48
0.0
140
1.5
141
2.0
142
0.0
143
25.399999999999999
144
1.0
145
0.0
146
1.0
147
1.0
 71
     0
 72
     0
 73
     0
 74
     0
 75
     0
 76
     0
 77
     1
 78
     0
170
     0
171
     2
172
     0
173
     0
174
     1
175
     0
176
     0
177
     0
178
     0
  0
DIMSTYLE
  2
ZHALF_INCH_SCALE
 70
     0
  3
"
  4

  5
ARCHTICK
  6

  7

 40
1.0
 41
1.125
 42
2.25
 43
3.0
 44
1.5
 45
0.0
 46
0.0
 47
0.0
 48
0.0
140
2.25
141
3.0
142
0.0
143
25.399999999999999
144
1.0
145
0.0
146
1.0
147
1.5
 71
     0
 72
     0
 73
     0
 74
     0
 75
     0
 76
     0
 77
     1
 78
     0
170
     0
171
     2
172
     0
173
     0
174
     1
175
     0
176
     0
177
     0
178
     0
  0
ENDTAB
  0
ENDSEC
  0
SECTION
  2
BLOCKS
  0
BLOCK
  8
0
  2
$MODEL_SPACE
 70
     0
 10
0.0
 20
0.0
 30
0.0
  3
$MODEL_SPACE
  1

  0
ENDBLK
  5
21
  8
0
  0
BLOCK
 67
     1
  8
0
  2
$PAPER_SPACE
 70
     0
 10
0.0
 20
0.0
 30
0.0
  3
$PAPER_SPACE
  1

  0
ENDBLK
  5
BAD5
 67
     1
  8
0
  0
BLOCK
  8
0
  2
_ARCHTICK
 70
     0
 10
0.0
 20
0.0
 30
0.0
  3
_ARCHTICK
  1

  0
POLYLINE
  5
158
  8
0
  6
BYBLOCK
 62
     0
 66
     1
 10
0.0
 20
0.0
 30
0.0
 40
0.15
 41
0.15
  0
VERTEX
  5
3AEF3
  8
0
  6
BYBLOCK
 62
     0
 10
-0.5
 20
-0.5
 30
0.0
  0
VERTEX
  5
3AEF4
  8
0
  6
BYBLOCK
 62
     0
 10
0.5
 20
0.5
 30
0.0
  0
SEQEND
  5
3AEF5
  8
0
  6
BYBLOCK
 62
     0
  0
ENDBLK
  5
15A
  8
0
  0
BLOCK
  8
0
  2
_OPEN30
 70
     0
 10
0.0
 20
0.0
 30
0.0
  3
_OPEN30
  1

  0
LINE
  5
15C
  8
0
  6
BYBLOCK
 62
     0
 10
-1.0
 20
0.26794919
 30
0.0
 11
0.0
 21
0.0
 31
0.0
  0
LINE
  5
15D
  8
0
  6
BYBLOCK
 62
     0
 10
0.0
 20
0.0
 30
0.0
 11
-1.0
 21
-0.26794919
 31
0.0
  0
LINE
  5
15E
  8
0
  6
BYBLOCK
 62
     0
 10
0.0
 20
0.0
 30
0.0
 11
-1.0
 21
0.0
 31
0.0
  0
ENDBLK
  5
160
  8
0
  0
BLOCK
  8
0
  2
ISO_A2_TITLE_BLOCK
 70
     2
 10
0.0
 20
0.0
 30
0.0
  3
ISO_A2_TITLE_BLOCK
  1

  0
LINE
  5
BDD
  8
FRAME_050
 10
299.5
 20
12.5
 30
0.0
 11
297.0
 21
7.5
 31
0.0
  0
LINE
  5
BDE
  8
FRAME_050
 10
294.5
 20
12.5
 30
0.0
 11
299.5
 21
12.5
 31
0.0
  0
LINE
  5
BDF
  8
FRAME_050
 10
247.0
 20
5.0
 30
0.0
 11
347.0
 21
5.0
 31
0.0
  0
LINE
  5
BE0
  8
FRAME_070
 10
584.0
 20
410.0
 30
0.0
 11
10.0
 21
410.0
 31
0.0
  0
LINE
  5
BE1
  8
FRAME_070
 10
10.0
 20
10.0
 30
0.0
 11
584.0
 21
10.0
 31
0.0
  0
LINE
  5
BE2
  8
FRAME_050
 10
12.5
 20
207.5
 30
0.0
 11
7.5
 21
210.0
 31
0.0
  0
LINE
  5
BE3
  8
FRAME_050
 10
12.5
 20
212.5
 30
0.0
 11
12.5
 21
207.5
 31
0.0
  0
LINE
  5
BE4
  8
FRAME_070
 10
10.0
 20
410.0
 30
0.0
 11
10.0
 21
10.0
 31
0.0
  0
LINE
  5
BE5
  8
FRAME_200
 10
0.0
 20
0.0
 30
0.0
 11
0.0
 21
10.0
 31
0.0
  0
LINE
  5
BE6
  8
FRAME_200
 10
0.0
 20
0.0
 30
0.0
 11
10.0
 21
0.0
 31
0.0
  0
TEXT
  5
BE7
  8
FRAME_050
 10
5.9000000000000004
 20
35.0
 30
0.0
 40
4.0
  1
H
  7
ISO_PROPORTIONAL
 72
     4
 11
7.5
 21
37.0
 31
0.0
  0
LINE
  5
BE8
  8
FRAME_050
 10
10.0
 20
60.0
 30
0.0
 11
5.0
 21
60.0
 31
0.0
  0
LINE
  5
BE9
  8
FRAME_050
 10
81.75
 20
5.0
 30
0.0
 11
81.75
 21
10.0
 31
0.0
  0
TEXT
  5
BEA
  8
FRAME_050
 10
44.874999999999993
 20
5.5
 30
0.0
 40
4.0
  1
1
  7
ISO_PROPORTIONAL
 72
     4
 11
45.875
 21
7.5
 31
0.0
  0
TEXT
  5
BEB
  8
FRAME_050
 10
6.0035533905932743
 20
85.0
 30
0.0
 40
4.0
  1
G
  7
ISO_PROPORTIONAL
 72
     4
 11
7.5
 21
87.0
 31
0.0
  0
LINE
  5
BEC
  8
FRAME_050
 10
10.0
 20
110.0
 30
0.0
 11
5.0
 21
110.0
 31
0.0
  0
TEXT
  5
BED
  8
FRAME_050
 10
6.0999999999999988
 20
135.0
 30
0.0
 40
4.0
  1
F
  7
ISO_PROPORTIONAL
 72
     4
 11
7.5
 21
137.0
 31
0.0
  0
LINE
  5
BEE
  8
FRAME_050
 10
10.0
 20
160.0
 30
0.0
 11
5.0
 21
160.0
 31
0.0
  0
TEXT
  5
BEF
  8
FRAME_050
 10
6.0999999999999988
 20
185.0
 30
0.0
 40
4.0
  1
E
  7
ISO_PROPORTIONAL
 72
     4
 11
7.5
 21
187.0
 31
0.0
  0
LINE
  5
BF0
  8
FRAME_050
 10
153.5
 20
5.0
 30
0.0
 11
153.5
 21
10.0
 31
0.0
  0
TEXT
  5
BF1
  8
FRAME_050
 10
116.1556692913386
 20
5.3996062992125982
 30
0.0
 40
4.0
  1
2
  7
ISO_PROPORTIONAL
 72
     4
 11
117.625
 21
7.5
 31
0.0
  0
TEXT
  5
BF2
  8
FRAME_050
 10
187.89215728752529
 20
5.5828427124746138
 30
0.0
 40
4.0
  1
3
  7
ISO_PROPORTIONAL
 72
     4
 11
189.375
 21
7.5
 31
0.0
  0
LINE
  5
BF3
  8
FRAME_050
 10
225.25
 20
5.0
 30
0.0
 11
225.25
 21
10.0
 31
0.0
  0
LINE
  5
BF4
  8
FRAME_050
 10
297.0
 20
7.5
 30
0.0
 11
294.5
 21
12.5
 31
0.0
  0
LINE
  5
BF5
  8
FRAME_050
 10
287.0
 20
5.0
 30
0.0
 11
287.0
 21
10.0
 31
0.0
  0
LINE
  5
BF6
  8
FRAME_050
 10
277.0
 20
5.0
 30
0.0
 11
277.0
 21
10.0
 31
0.0
  0
LINE
  5
BF7
  8
FRAME_050
 10
267.0
 20
5.0
 30
0.0
 11
267.0
 21
10.0
 31
0.0
  0
LINE
  5
BF8
  8
FRAME_050
 10
257.0
 20
5.0
 30
0.0
 11
257.0
 21
10.0
 31
0.0
  0
LINE
  5
BF9
  8
FRAME_050
 10
247.0
 20
5.0
 30
0.0
 11
247.0
 21
10.0
 31
0.0
  0
LINE
  5
BFA
  8
FRAME_050
 10
297.0
 20
10.0
 30
0.0
 11
297.0
 21
5.0
 31
0.0
  0
LINE
  5
BFB
  8
FRAME_050
 10
297.0
 20
10.0
 30
0.0
 11
297.0
 21
15.0
 31
0.0
  0
LINE
  5
BFC
  8
FRAME_050
 10
5.0
 20
210.0
 30
0.0
 11
15.0
 21
210.0
 31
0.0
  0
LINE
  5
BFD
  8
FRAME_050
 10
7.5
 20
210.0
 30
0.0
 11
12.5
 21
212.5
 31
0.0
  0
TEXT
  5
BFE
  8
FRAME_050
 10
5.7860912703473977
 20
235.0
 30
0.0
 40
4.0
  1
D
  7
ISO_PROPORTIONAL
 72
     4
 11
7.5
 21
237.0
 31
0.0
  0
LINE
  5
BFF
  8
FRAME_050
 10
10.0
 20
260.0
 30
0.0
 11
5.0
 21
260.0
 31
0.0
  0
TEXT
  5
C00
  8
FRAME_050
 10
6.1931980515339466
 20
285.0
 30
0.0
 40
4.0
  1
C
  7
ISO_PROPORTIONAL
 72
     4
 11
7.5
 21
287.0
 31
0.0
  0
LINE
  5
C01
  8
FRAME_050
 10
10.0
 20
310.0
 30
0.0
 11
5.0
 21
310.0
 31
0.0
  0
TEXT
  5
C02
  8
FRAME_050
 10
5.8999999999999959
 20
335.0
 30
0.0
 40
4.0
  1
B
  7
ISO_PROPORTIONAL
 72
     4
 11
7.5
 21
337.0
 31
0.0
  0
LINE
  5
C03
  8
FRAME_050
 10
10.0
 20
360.0
 30
0.0
 11
5.0
 21
360.0
 31
0.0
  0
TEXT
  5
C04
  8
FRAME_050
 10
5.6999999999999993
 20
385.0
 30
0.0
 40
4.0
  1
A
  7
ISO_PROPORTIONAL
 72
     4
 11
7.5
 21
387.0
 31
0.0
  0
LINE
  5
C05
  8
FRAME_200
 10
10.0
 20
420.0
 30
0.0
 11
0.0
 21
420.0
 31
0.0
  0
LINE
  5
C06
  8
FRAME_200
 10
0.0
 20
420.0
 30
0.0
 11
0.0
 21
410.0
 31
0.0
  0
TEXT
  5
C07
  8
FRAME_050
 10
44.874999999999993
 20
410.5
 30
0.0
 40
4.0
  1
1
  7
ISO_PROPORTIONAL
 72
     4
 11
45.875
 21
412.5
 31
0.0
  0
LINE
  5
C08
  8
FRAME_050
 10
81.75
 20
410.0
 30
0.0
 11
81.75
 21
415.0
 31
0.0
  0
TEXT
  5
C09
  8
FRAME_050
 10
116.1556692913386
 20
410.39960629921262
 30
0.0
 40
4.0
  1
2
  7
ISO_PROPORTIONAL
 72
     4
 11
117.625
 21
412.5
 31
0.0
  0
LINE
  5
C0A
  8
FRAME_050
 10
153.5
 20
410.0
 30
0.0
 11
153.5
 21
415.0
 31
0.0
  0
TEXT
  5
C0B
  8
FRAME_050
 10
187.89215728752529
 20
410.58284271247459
 30
0.0
 40
4.0
  1
3
  7
ISO_PROPORTIONAL
 72
     4
 11
189.375
 21
412.5
 31
0.0
  0
LINE
  5
C0C
  8
FRAME_050
 10
297.0
 20
405.0
 30
0.0
 11
297.0
 21
415.0
 31
0.0
  0
LINE
  5
C0D
  8
FRAME_050
 10
225.25
 20
410.0
 30
0.0
 11
225.25
 21
415.0
 31
0.0
  0
TEXT
  5
C0E
  8
FRAME_050
 10
259.52499999999998
 20
410.5
 30
0.0
 40
4.0
  1
4
  7
ISO_PROPORTIONAL
 72
     4
 11
261.125
 21
412.5
 31
0.0
  0
LINE
  5
C0F
  8
FRAME_070
 10
584.0
 20
10.0
 30
0.0
 11
584.0
 21
410.0
 31
0.0
  0
ATTDEF
  5
C10
  8
FRAME_025
 10
473.0
 20
31.75
 30
0.0
 40
2.5
  1
XXX - 00/00/00
  7
ISO_PROPORTIONAL
 11
473.0
 21
33.0
 31
0.0
  3
Approved by - Date
  2
APPROVED_BY_DATE
 70
     8
 74
     2
  0
TEXT
  5
C11
  8
FRAME_025
 10
448.0
 20
41.749999999999993
 30
0.0
 40
2.5
  1
Title/Name, designation, material, dimension etc
  7
ISO_PROPORTIONAL
 11
448.0
 21
43.0
 31
0.0
 73
     2
  0
TEXT
  5
C12
  8
FRAME_025
 10
473.0
 20
35.75
 30
0.0
 40
2.5
  1
Approved by - date
  7
ISO_PROPORTIONAL
 11
473.0
 21
37.0
 31
0.0
 73
     2
  0
LINE
  5
C13
  8
FRAME_070
 10
414.0
 20
46.0
 30
0.0
 11
584.0
 21
46.0
 31
0.0
  0
LINE
  5
C14
  8
FRAME_070
 10
414.0
 20
40.0
 30
0.0
 11
584.0
 21
40.0
 31
0.0
  0
LINE
  5
C15
  8
FRAME_070
 10
414.0
 20
30.0
 30
0.0
 11
584.0
 21
30.0
 31
0.0
  0
LINE
  5
C16
  8
FRAME_050
 10
368.75
 20
5.0
 30
0.0
 11
368.75
 21
10.0
 31
0.0
  0
LINE
  5
C17
  8
FRAME_050
 10
337.0
 20
5.0
 30
0.0
 11
337.0
 21
10.0
 31
0.0
  0
LINE
  5
C18
  8
FRAME_050
 10
327.0
 20
5.0
 30
0.0
 11
327.0
 21
10.0
 31
0.0
  0
LINE
  5
C19
  8
FRAME_050
 10
317.0
 20
5.0
 30
0.0
 11
317.0
 21
10.0
 31
0.0
  0
LINE
  5
C1A
  8
FRAME_050
 10
307.0
 20
5.0
 30
0.0
 11
307.0
 21
10.0
 31
0.0
  0
LINE
  5
C1B
  8
FRAME_050
 10
347.0
 20
5.0
 30
0.0
 11
347.0
 21
10.0
 31
0.0
  0
LINE
  5
C1C
  8
FRAME_050
 10
440.5
 20
5.0
 30
0.0
 11
440.5
 21
10.0
 31
0.0
  0
TEXT
  5
C1D
  8
FRAME_050
 10
403.24547244094481
 20
5.4102362204724406
 30
0.0
 40
4.0
  1
6
  7
ISO_PROPORTIONAL
 72
     4
 11
404.62499999999989
 21
7.5
 31
0.0
  0
TEXT
  5
C1E
  8
FRAME_050
 10
474.97500000000002
 20
5.5
 30
0.0
 40
4.0
  1
7
  7
ISO_PROPORTIONAL
 72
     4
 11
476.37499999999989
 21
7.5
 31
0.0
  0
TEXT
  5
C1F
  8
FRAME_025
 10
431.0
 20
41.749999999999993
 30
0.0
 40
2.5
  1
Quantity
  7
ISO_PROPORTIONAL
 11
431.0
 21
43.0
 31
0.0
 73
     2
  0
TEXT
  5
C20
  8
FRAME_025
 10
416.0
 20
41.749999999999993
 30
0.0
 40
2.5
  1
Itemref
  7
ISO_PROPORTIONAL
 11
416.0
 21
43.0
 31
0.0
 73
     2
  0
LINE
  5
C21
  8
FRAME_070
 10
414.0
 20
40.0
 30
0.0
 11
414.0
 21
46.0
 31
0.0
  0
LINE
  5
C22
  8
FRAME_070
 10
429.0
 20
40.0
 30
0.0
 11
429.0
 21
46.0
 31
0.0
  0
LINE
  5
C23
  8
FRAME_070
 10
414.0
 20
10.0
 30
0.0
 11
414.0
 21
40.0
 31
0.0
  0
ATTDEF
  5
C24
  8
FRAME_025
 10
416.0
 20
31.75
 30
0.0
 40
2.5
  1
XXX
  7
ISO_PROPORTIONAL
 11
416.0
 21
33.0
 31
0.0
  3
Designed by
  2
DESIGNED_BY
 70
     8
 74
     2
  0
TEXT
  5
C25
  8
FRAME_025
 10
416.0
 20
35.75
 30
0.0
 40
2.5
  1
Designed by
  7
ISO_PROPORTIONAL
 11
416.0
 21
37.0
 31
0.0
 73
     2
  0
LINE
  5
C26
  8
FRAME_070
 10
446.0
 20
40.0
 30
0.0
 11
446.0
 21
46.0
 31
0.0
  0
ATTDEF
  5
C27
  8
FRAME_025
 10
448.0
 20
31.75
 30
0.0
 40
2.5
  1
XXX
  7
ISO_PROPORTIONAL
 11
448.0
 21
33.0
 31
0.0
  3
Checked by
  2
CHECKED_BY
 70
     8
 74
     2
  0
TEXT
  5
C28
  8
FRAME_025
 10
448.0
 20
35.75
 30
0.0
 40
2.5
  1
Checked by
  7
ISO_PROPORTIONAL
 11
448.0
 21
37.0
 31
0.0
 73
     2
  0
ATTDEF
  5
C29
  8
FRAME_050
 10
444.74999999999989
 20
17.5
 30
0.0
 40
5.0
  1
XXX
  7
ISO_PROPORTIONAL
 72
     4
 11
451.49999999999989
 21
20.0
 31
0.0
  3
Owner
  2
OWNER
 70
     8
  0
LINE
  5
C2A
  8
FRAME_070
 10
446.0
 20
30.0
 30
0.0
 11
446.0
 21
40.0
 31
0.0
  0
LINE
  5
C2B
  8
FRAME_070
 10
471.0
 20
30.0
 30
0.0
 11
471.0
 21
40.0
 31
0.0
  0
LINE
  5
C2C
  8
FRAME_070
 10
489.0
 20
20.0
 30
0.0
 11
584.0
 21
20.0
 31
0.0
  0
LINE
  5
C2D
  8
FRAME_050
 10
512.25
 20
5.0
 30
0.0
 11
512.25
 21
10.0
 31
0.0
  0
TEXT
  5
C2E
  8
FRAME_050
 10
546.72499999999991
 20
5.5
 30
0.0
 40
4.0
  1
8
  7
ISO_PROPORTIONAL
 72
     4
 11
548.125
 21
7.5
 31
0.0
  0
ATTDEF
  5
C2F
  8
FRAME_050
 10
517.64999999999986
 20
13.5
 30
0.0
 40
3.0
  1
X
  7
ISO_PROPORTIONAL
 72
     4
 11
519.0
 21
15.0
 31
0.0
  3
Drawing number
  2
DRAWING_NUMBER
 70
     8
  0
ATTDEF
  5
C30
  8
FRAME_050
 10
529.75
 20
22.5
 30
0.0
 40
5.0
  1
XXX
  7
ISO_PROPORTIONAL
 72
     4
 11
536.5
 21
25.0
 31
0.0
  3
Title / Name
  2
TITLE
 70
     8
  0
LINE
  5
C31
  8
FRAME_070
 10
489.0
 20
10.0
 30
0.0
 11
489.0
 21
30.0
 31
0.0
  0
ATTDEF
  5
C32
  8
FRAME_025
 10
511.0
 20
31.75
 30
0.0
 40
2.5
  1
XXX
  7
ISO_PROPORTIONAL
 11
511.0
 21
33.0
 31
0.0
  3
Filename
  2
FILENAME
 70
     8
 74
     2
  0
TEXT
  5
C33
  8
FRAME_025
 10
511.0
 20
35.75
 30
0.0
 40
2.5
  1
Filename
  7
ISO_PROPORTIONAL
 11
511.0
 21
37.0
 31
0.0
 73
     2
  0
LINE
  5
C34
  8
FRAME_070
 10
509.0
 20
30.0
 30
0.0
 11
509.0
 21
40.0
 31
0.0
  0
TEXT
  5
C35
  8
FRAME_025
 10
536.0
 20
41.749999999999993
 30
0.0
 40
2.5
  1
Article No./Reference
  7
ISO_PROPORTIONAL
 11
536.0
 21
43.0
 31
0.0
 73
     2
  0
LINE
  5
C36
  8
FRAME_070
 10
534.0
 20
40.0
 30
0.0
 11
534.0
 21
46.0
 31
0.0
  0
ATTDEF
  5
C37
  8
FRAME_025
 10
551.0
 20
11.75
 30
0.0
 40
2.5
  1
0
  7
ISO_PROPORTIONAL
 11
551.0
 21
13.0
 31
0.0
  3
Edition
  2
EDITION
 70
     8
 74
     2
  0
TEXT
  5
C38
  8
FRAME_025
 10
551.0
 20
15.75
 30
0.0
 40
2.5
  1
Edition
  7
ISO_PROPORTIONAL
 11
551.0
 21
17.0
 31
0.0
 73
     2
  0
LINE
  5
C39
  8
FRAME_070
 10
549.0
 20
10.0
 30
0.0
 11
549.0
 21
20.0
 31
0.0
  0
ATTDEF
  5
C3A
  8
FRAME_025
 10
536.0
 20
31.75
 30
0.0
 40
2.5
  1
00/00/00
  7
ISO_PROPORTIONAL
 11
536.0
 21
33.0
 31
0.0
  3
Date
  2
DATE
 70
     8
 74
     2
  0
TEXT
  5
C3B
  8
FRAME_025
 10
536.0
 20
35.75
 30
0.0
 40
2.5
  1
Date
  7
ISO_PROPORTIONAL
 11
536.0
 21
37.0
 31
0.0
 73
     2
  0
LINE
  5
C3C
  8
FRAME_070
 10
534.0
 20
30.0
 30
0.0
 11
534.0
 21
40.0
 31
0.0
  0
ATTDEF
  5
C3D
  8
FRAME_025
 10
566.0
 20
11.75
 30
0.0
 40
2.5
  1
1/1
  7
ISO_PROPORTIONAL
 11
566.0
 21
13.0
 31
0.0
  3
Sheet
  2
SHEET
 70
     8
 74
     2
  0
TEXT
  5
C3E
  8
FRAME_025
 10
566.0
 20
15.75
 30
0.0
 40
2.5
  1
Sheet
  7
ISO_PROPORTIONAL
 11
566.0
 21
17.0
 31
0.0
 73
     2
  0
LINE
  5
C3F
  8
FRAME_070
 10
564.0
 20
10.0
 30
0.0
 11
564.0
 21
20.0
 31
0.0
  0
ATTDEF
  5
C40
  8
FRAME_025
 10
566.0
 20
31.75
 30
0.0
 40
2.5
  1
1:1
  7
ISO_PROPORTIONAL
 11
566.0
 21
33.0
 31
0.0
  3
Scale
  2
SCALE
 70
     8
 74
     2
  0
TEXT
  5
C41
  8
FRAME_025
 10
566.0
 20
35.75
 30
0.0
 40
2.5
  1
Scale
  7
ISO_PROPORTIONAL
 11
566.0
 21
37.0
 31
0.0
 73
     2
  0
LINE
  5
C42
  8
FRAME_070
 10
564.0
 20
30.0
 30
0.0
 11
564.0
 21
40.0
 31
0.0
  0
LINE
  5
C43
  8
FRAME_200
 10
594.0
 20
0.0
 30
0.0
 11
594.0
 21
10.0
 31
0.0
  0
LINE
  5
C44
  8
FRAME_200
 10
594.0
 20
0.0
 30
0.0
 11
584.0
 21
0.0
 31
0.0
  0
TEXT
  5
C45
  8
FRAME_050
 10
584.89999999999998
 20
35.0
 30
0.0
 40
4.0
  1
H
  7
ISO_PROPORTIONAL
 72
     4
 11
586.5
 21
37.0
 31
0.0
  0
LINE
  5
C46
  8
FRAME_050
 10
589.0
 20
60.0
 30
0.0
 11
584.0
 21
60.0
 31
0.0
  0
TEXT
  5
C47
  8
FRAME_050
 10
585.0035533905932
 20
85.0
 30
0.0
 40
4.0
  1
G
  7
ISO_PROPORTIONAL
 72
     4
 11
586.5
 21
87.0
 31
0.0
  0
LINE
  5
C48
  8
FRAME_050
 10
589.0
 20
110.0
 30
0.0
 11
584.0
 21
110.0
 31
0.0
  0
TEXT
  5
C49
  8
FRAME_050
 10
585.09999999999991
 20
135.0
 30
0.0
 40
4.0
  1
F
  7
ISO_PROPORTIONAL
 72
     4
 11
586.5
 21
137.0
 31
0.0
  0
LINE
  5
C4A
  8
FRAME_050
 10
589.0
 20
160.0
 30
0.0
 11
584.0
 21
160.0
 31
0.0
  0
TEXT
  5
C4B
  8
FRAME_050
 10
585.09999999999991
 20
185.0
 30
0.0
 40
4.0
  1
E
  7
ISO_PROPORTIONAL
 72
     4
 11
586.5
 21
187.0
 31
0.0
  0
LINE
  5
C4C
  8
FRAME_070
 10
414.0
 20
404.0
 30
0.0
 11
584.0
 21
404.0
 31
0.0
  0
TEXT
  5
C4D
  8
FRAME_050
 10
331.39215728752538
 20
410.58284271247459
 30
0.0
 40
4.0
  1
5
  7
ISO_PROPORTIONAL
 72
     4
 11
332.875
 21
412.5
 31
0.0
  0
LINE
  5
C4E
  8
FRAME_050
 10
368.75
 20
410.0
 30
0.0
 11
368.75
 21
415.0
 31
0.0
  0
TEXT
  5
C4F
  8
FRAME_025
 10
428.0
 20
405.75
 30
0.0
 40
2.5
  1
Revision note
  7
ISO_PROPORTIONAL
 11
428.0
 21
407.0
 31
0.0
 73
     2
  0
TEXT
  5
C50
  8
FRAME_025
 10
416.0
 20
405.75
 30
0.0
 40
2.5
  1
RevNo
  7
ISO_PROPORTIONAL
 11
416.0
 21
407.0
 31
0.0
 73
     2
  0
LINE
  5
C51
  8
FRAME_070
 10
426.0
 20
404.0
 30
0.0
 11
426.0
 21
410.0
 31
0.0
  0
LINE
  5
C52
  8
FRAME_070
 10
414.0
 20
404.0
 30
0.0
 11
414.0
 21
410.0
 31
0.0
  0
TEXT
  5
C53
  8
FRAME_050
 10
403.24547244094481
 20
410.41023622047243
 30
0.0
 40
4.0
  1
6
  7
ISO_PROPORTIONAL
 72
     4
 11
404.62499999999989
 21
412.5
 31
0.0
  0
LINE
  5
C54
  8
FRAME_050
 10
440.5
 20
410.0
 30
0.0
 11
440.5
 21
415.0
 31
0.0
  0
TEXT
  5
C55
  8
FRAME_050
 10
474.97500000000002
 20
410.5
 30
0.0
 40
4.0
  1
7
  7
ISO_PROPORTIONAL
 72
     4
 11
476.37499999999989
 21
412.5
 31
0.0
  0
LINE
  5
C56
  8
FRAME_050
 10
579.0
 20
210.0
 30
0.0
 11
589.0
 21
210.0
 31
0.0
  0
TEXT
  5
C57
  8
FRAME_050
 10
584.78609127034736
 20
235.0
 30
0.0
 40
4.0
  1
D
  7
ISO_PROPORTIONAL
 72
     4
 11
586.5
 21
237.0
 31
0.0
  0
LINE
  5
C58
  8
FRAME_050
 10
589.0
 20
260.0
 30
0.0
 11
584.0
 21
260.0
 31
0.0
  0
TEXT
  5
C59
  8
FRAME_050
 10
585.19319805153395
 20
285.0
 30
0.0
 40
4.0
  1
C
  7
ISO_PROPORTIONAL
 72
     4
 11
586.5
 21
287.0
 31
0.0
  0
LINE
  5
C5A
  8
FRAME_050
 10
589.0
 20
310.0
 30
0.0
 11
584.0
 21
310.0
 31
0.0
  0
TEXT
  5
C5B
  8
FRAME_050
 10
584.89999999999998
 20
335.0
 30
0.0
 40
4.0
  1
B
  7
ISO_PROPORTIONAL
 72
     4
 11
586.5
 21
337.0
 31
0.0
  0
TEXT
  5
C5C
  8
FRAME_025
 10
571.08299391850551
 20
405.75
 30
0.0
 40
2.5
  1
Checked
  7
ISO_PROPORTIONAL
 11
571.08299391850551
 21
407.0
 31
0.0
 73
     2
  0
TEXT
  5
C5D
  8
FRAME_025
 10
555.36099797283532
 20
405.75
 30
0.0
 40
2.5
  1
Signature
  7
ISO_PROPORTIONAL
 11
555.36099797283532
 21
407.0
 31
0.0
 73
     2
  0
TEXT
  5
C5E
  8
FRAME_025
 10
537.0
 20
405.75
 30
0.0
 40
2.5
  1
Date
  7
ISO_PROPORTIONAL
 11
537.0
 21
407.0
 31
0.0
 73
     2
  0
LINE
  5
C5F
  8
FRAME_070
 10
570.0
 20
404.0
 30
0.0
 11
570.0
 21
410.0
 31
0.0
  0
LINE
  5
C60
  8
FRAME_070
 10
555.0
 20
404.0
 30
0.0
 11
555.0
 21
410.0
 31
0.0
  0
LINE
  5
C61
  8
FRAME_070
 10
535.0
 20
404.0
 30
0.0
 11
535.0
 21
410.0
 31
0.0
  0
LINE
  5
C62
  8
FRAME_050
 10
512.25
 20
410.0
 30
0.0
 11
512.25
 21
415.0
 31
0.0
  0
TEXT
  5
C63
  8
FRAME_050
 10
546.72499999999991
 20
410.5
 30
0.0
 40
4.0
  1
8
  7
ISO_PROPORTIONAL
 72
     4
 11
548.125
 21
412.5
 31
0.0
  0
LINE
  5
C64
  8
FRAME_050
 10
589.0
 20
360.0
 30
0.0
 11
584.0
 21
360.0
 31
0.0
  0
TEXT
  5
C65
  8
FRAME_050
 10
584.70000000000005
 20
385.0
 30
0.0
 40
4.0
  1
A
  7
ISO_PROPORTIONAL
 72
     4
 11
586.5
 21
387.0
 31
0.0
  0
LINE
  5
C66
  8
FRAME_200
 10
594.0
 20
420.0
 30
0.0
 11
584.0
 21
420.0
 31
0.0
  0
LINE
  5
C67
  8
FRAME_200
 10
594.0
 20
410.0
 30
0.0
 11
594.0
 21
420.0
 31
0.0
  0
ENDBLK
  5
C69
  8
0
  0
BLOCK
  8
0
  2
WOBB001END
 70
     0
 10
0.0
 20
0.0
 30
0.0
  3
WOBB001END
  1

  0
LINE
  5
4D66
  8
0
  6
CONTINUOUS
 10
0.0
 20
0.0
 30
0.0
 11
0.8749999999999998
 21
0.0
 31
0.0
  0
ARC
  5
4D67
  8
0
  6
CONTINUOUS
 10
0.0331648379439287
 20
-0.5087238935900232
 30
0.0
 40
0.8790130605592325
 50
284.06490243660443
 51
312.19222981924361
  0
ARC
  5
4D68
  8
0
  6
CONTINUOUS
 10
0.2841534338796767
 20
-1.510548310625538
 30
0.0
 40
0.1537731892806598
 50
104.0649024366044
 51
179.4721730735024
  0
LINE
  5
4D69
  8
0
  6
CONTINUOUS
 10
0.0
 20
0.0
 30
0.0
 11
-0.0000000000000003
 21
-1.7501564476661919
 31
0.0
  0
ARC
  5
4D6A
  8
0
  6
CONTINUOUS
 10
0.1404622019506122
 20
-1.6303137183546199
 30
0.0
 40
0.1198427293115722
 50
275.0
 51
85.000000000000057
  0
LINE
  5
4D6B
  8
0
  6
CONTINUOUS
 10
-0.0000000000000003
 20
-1.7501564476661919
 30
0.0
 11
0.1456946485130855
 21
-1.7501564476661919
 31
0.0
  0
LINE
  5
4D6C
  8
0
  6
CONTINUOUS
 10
0.1377603739254348
 20
-1.7508506067459131
 30
0.0
 11
0.150907184036669
 21
-1.749700409899652
 31
0.0
  0
LINE
  5
4D6D
  8
0
  6
CONTINUOUS
 10
0.1303867696719884
 20
-1.5091317231818231
 30
0.0
 11
0.1509071840366689
 21
-1.5109270268095869
 31
0.0
  0
LINE
  5
4D6E
  8
0
  6
CONTINUOUS
 10
0.8749999999999998
 20
0.0
 30
0.0
 11
0.8749999999999996
 21
-0.8649327026588228
 31
0.0
  0
LINE
  5
4D6F
  8
0
  6
CONTINUOUS
 10
0.727014513830997
 20
-0.8726882933550612
 30
0.0
 11
0.727014513830997
 21
-0.9264923397184784
 31
0.0
  0
ARC
  5
4D70
  8
0
  6
CONTINUOUS
 10
0.41187090827646
 20
-0.9264923397184784
 30
0.0
 40
0.315143605554537
 50
312.19222981924361
 51
0.0
  0
LINE
  5
4D71
  8
0
  6
CONTINUOUS
 10
0.727014513830997
 20
-0.8726882933550612
 30
0.0
 11
0.8749999999999996
 21
-0.8649327026588228
 31
0.0
  0
ENDBLK
  5
4D72
  8
0
  0
BLOCK
  8
0
  2
A$C0A61123B
 70
     0
 10
0.0
 20
0.0
 30
0.0
  3
A$C0A61123B
  1

  0
LINE
  5
C0AD
  8
PROF
  6
CONTINUOUS
 10
4.9012016798694162
 20
13.325025853350891
 30
0.0000000000000002
 11
4.9012016798694162
 21
12.88585218805485
 31
0.0000000000000003
  0
INSERT
  5
C0AE
  8
0
  2
*U10
 10
0.0
 20
0.0
 30
0.0
  0
LINE
  5
C0AF
  8
PROF
 10
4.5198575031869259
 20
12.72227734589444
 30
0.0000000000000001
 11
4.5198575031869259
 21
12.88585218805485
 31
0.0000000000000001
  0
LINE
  5
C0B0
  8
PROF
  6
CONTINUOUS
 10
3.6306271195888371
 20
13.325025853350891
 30
0.0000000000000002
 11
4.9012016798694162
 21
13.325025853350891
 31
0.0000000000000002
  0
LINE
  5
C0B1
  8
PROF
 10
1.9750295148747341
 20
10.37671325491794
 30
0.0000000000000002
 11
1.9750295148747341
 21
10.11391186758919
 31
0.0000000000000002
  0
LINE
  5
C0B2
  8
PROF
 10
1.607967335755631
 20
10.11391186758919
 30
0.0000000000000001
 11
1.9750295148747341
 21
10.11391186758919
 31
0.0000000000000001
  0
LINE
  5
C0B3
  8
PROF
 10
1.9750295148747341
 20
10.11391186758919
 30
0.0000000000000001
 11
1.944958486898144
 21
10.11391186758919
 31
0.0000000000000001
  0
LINE
  5
C0B4
  8
PROF
 10
1.9750295148747341
 20
10.11391186758919
 30
0.0000000000000001
 11
1.944958486898144
 21
10.11391186758919
 31
0.0000000000000001
  0
LINE
  5
C0B5
  8
PROF
 10
0.3222605517169654
 20
7.5247473351056442
 30
-0.0000000000000002
 11
-0.0000008570117416
 21
7.5247473351056442
 31
0.0
  0
LINE
  5
C0B6
  8
PROF
 10
-0.0000008570117416
 20
7.5247473351056442
 30
0.0
 11
-0.0000008570117416
 21
9.1943336957369866
 31
0.0
  0
POLYLINE
  5
C0B7
  8
PROF
 66
     1
 10
0.0
 20
0.0
 30
0.0000000000000001
 70
     4
 75
     6
  0
VERTEX
  5
C0B8
  8
PROF
 10
1.607967335755631
 20
10.11391186758919
 30
0.0000000000000001
 70
    16
  0
VERTEX
  5
C0B9
  8
PROF
 10
1.607967335755631
 20
10.11391186758919
 30
0.0000000000000001
 70
     8
  0
VERTEX
  5
C0BA
  8
PROF
 10
1.646813232648582
 20
10.02198069336111
 30
0.0000000000000001
 70
     8
  0
VERTEX
  5
C0BB
  8
PROF
 10
1.67335966680929
 20
9.9344134163010267
 30
0.0000000000000001
 70
     8
  0
VERTEX
  5
C0BC
  8
PROF
 10
1.689008640046324
 20
9.8512576644480987
 30
0.0000000000000001
 70
     8
  0
VERTEX
  5
C0BD
  8
PROF
 10
1.695162154168258
 20
9.7725610658417281
 30
0.0000000000000001
 70
     8
  0
VERTEX
  5
C0BE
  8
PROF
 10
1.6932222109836059
 20
9.6983712485214255
 30
0.0000000000000001
 70
     8
  0
VERTEX
  5
C0BF
  8
PROF
 10
1.6845908123009961
 20
9.6287358405263603
 30
0.0000000000000001
 70
     8
  0
VERTEX
  5
C0C0
  8
PROF
 10
1.6706699599288859
 20
9.5637024698960431
 30
0.0000000000000001
 70
     8
  0
VERTEX
  5
C0C1
  8
PROF
 10
1.6528616556759621
 20
9.503318764669757
 30
0.0000000000000001
 70
     8
  0
VERTEX
  5
C0C2
  8
PROF
 10
1.6323562992730549
 20
9.4475843259650674
 30
0.0000000000000001
 70
     8
  0
VERTEX
  5
C0C3
  8
PROF
 10
1.609497882140658
 20
9.3963066472123273
 30
0.0000000000000001
 70
     8
  0
VERTEX
  5
C0C4
  8
PROF
 10
1.584418793621637
 20
9.3492451949202842
 30
0.0000000000000001
 70
     8
  0
VERTEX
  5
C0C5
  8
PROF
 10
1.557251423058744
 20
9.3061594355972375
 30
0.0000000000000001
 70
     8
  0
VERTEX
  5
C0C6
  8
PROF
 10
1.5281281597949601
 20
9.2668088357519292
 30
0.0000000000000001
 70
     8
  0
VERTEX
  5
C0C7
  8
PROF
 10
1.4971813931729789
 20
9.2309528618930017
 30
0.0000000000000001
 70
     8
  0
VERTEX
  5
C0C8
  8
PROF
 10
1.464543512535726
 20
9.1983509805288577
 30
0.0000000000000001
 70
     8
  0
VERTEX
  5
C0C9
  8
PROF
 10
1.4303469072260091
 20
9.1687626581682462
 30
0.0000000000000001
 70
     8
  0
VERTEX
  5
C0CA
  8
PROF
 10
1.3947360332574019
 20
9.1419547918675335
 30
0.0000000000000001
 70
     8
  0
VERTEX
  5
C0CB
  8
PROF
 10
1.3579036133264131
 20
9.1177240008747731
 30
0.0000000000000001
 70
     8
  0
VERTEX
  5
C0CC
  8
PROF
 10
1.3200544368004321
 20
9.0958743349860924
 30
0.0000000000000001
 70
     8
  0
VERTEX
  5
C0CD
  8
PROF
 10
1.281393293046676
 20
9.0762098439975034
 30
0.0000000000000001
 70
     8
  0
VERTEX
  5
C0CE
  8
PROF
 10
1.242124971432417
 20
9.0585345777049042
 30
0.0000000000000001
 70
     8
  0
VERTEX
  5
C0CF
  8
PROF
 10
1.2024542613249869
 20
9.0426525859044204
 30
0.0000000000000001
 70
     8
  0
VERTEX
  5
C0D0
  8
PROF
 10
1.1625859520916599
 20
9.0283679183919503
 30
0.0000000000000001
 70
     8
  0
VERTEX
  5
C0D1
  8
PROF
 10
1.1227248330997091
 20
9.0154846249635057
 30
0.0000000000000001
 70
     8
  0
VERTEX
  5
C0D2
  8
PROF
 10
1.0829726247361
 20
9.0034643862466055
 30
0.0000000000000001
 70
     8
  0
VERTEX
  5
C0D3
  8
PROF
 10
1.043018771466222
 20
8.9903994061946833
 30
0.0000000000000001
 70
     8
  0
VERTEX
  5
C0D4
  8
PROF
 10
1.002449648775211
 20
8.9740395195925657
 30
0.0000000000000001
 70
     8
  0
VERTEX
  5
C0D5
  8
PROF
 10
0.9608516321480919
 20
8.9521345612251935
 30
0.0000000000000001
 70
     8
  0
VERTEX
  5
C0D6
  8
PROF
 10
0.9178110970699435
 20
8.9224343658775052
 30
0.0000000000000001
 70
     8
  0
VERTEX
  5
C0D7
  8
PROF
 10
0.8729144190259034
 20
8.8826887683343312
 30
0.0000000000000001
 70
     8
  0
VERTEX
  5
C0D8
  8
PROF
 10
0.8257479735009951
 20
8.8306476033806121
 30
0.0000000000000001
 70
     8
  0
VERTEX
  5
C0D9
  8
PROF
 10
0.7758981359802988
 20
8.764060705801171
 30
0.0000000000000001
 70
     8
  0
VERTEX
  5
C0DA
  8
PROF
 10
1.729201901609656
 20
9.8629858761255491
 30
0.0000000000000001
 70
    16
  0
VERTEX
  5
C0DB
  8
PROF
 10
1.6793731231140889
 20
9.4532143012734196
 30
0.0000000000000001
 70
    16
  0
VERTEX
  5
C0DC
  8
PROF
 10
1.4455611507419801
 20
9.1391837193732481
 30
0.0000000000000001
 70
    16
  0
VERTEX
  5
C0DD
  8
PROF
 10
1.120463717273821
 20
9.0026267702428413
 30
0.0000000000000001
 70
    16
  0
VERTEX
  5
C0DE
  8
PROF
 10
0.9127765582653638
 20
8.9630202230383702
 30
0.0000000000000001
 70
    16
  0
VERTEX
  5
C0DF
  8
PROF
 10
0.7758981359802988
 20
8.764060705801171
 30
0.0000000000000001
 70
    16
  0
SEQEND
  5
C0E0
  8
PROF
  0
ARC
  5
C0E1
  8
PROF
 10
0.733429816733235
 20
8.4849506952165257
 30
0.0000000000000001
 40
0.2823224329524727
 50
269.73652020831901
 51
81.348449993176914
  0
LINE
  5
C0E2
  8
PROF
  6
CONTINUOUS
 10
-0.0000008570117416
 20
9.1943336957369866
 30
-0.0000000000000001
 11
3.6306271195888371
 21
13.325025853350891
 31
0.0000000000000002
  0
POLYLINE
  5
C0E3
  8
PROF
 66
     1
 10
0.0
 20
0.0
 30
0.0000000000000001
 70
     4
 75
     6
  0
VERTEX
  5
C0E4
  8
PROF
 10
4.5198575031869259
 20
12.72227734589444
 30
0.0000000000000001
 70
    16
  0
VERTEX
  5
C0E5
  8
PROF
 10
4.5198575031869259
 20
12.72227734589444
 30
0.0000000000000001
 70
     8
  0
VERTEX
  5
C0E6
  8
PROF
 10
4.4467035366886298
 20
12.741128108778071
 30
0.0000000000000001
 70
     8
  0
VERTEX
  5
C0E7
  8
PROF
 10
4.3786645761268801
 20
12.754675269913941
 30
0.0000000000000001
 70
     8
  0
VERTEX
  5
C0E8
  8
PROF
 10
4.3154364111440477
 20
12.76334314092332
 30
0.0000000000000001
 70
     8
  0
VERTEX
  5
C0E9
  8
PROF
 10
4.256714831382566
 20
12.76755603342724
 30
0.0000000000000001
 70
     8
  0
VERTEX
  5
C0EA
  8
PROF
 10
4.2021956264849791
 20
12.76773825904672
 30
0.0000000000000001
 70
     8
  0
VERTEX
  5
C0EB
  8
PROF
 10
4.1515745860935453
 20
12.764314129403139
 30
0.0000000000000001
 70
     8
  0
VERTEX
  5
C0EC
  8
PROF
 10
4.1045474998508658
 20
12.75770795611743
 30
0.0000000000000001
 70
     8
  0
VERTEX
  5
C0ED
  8
PROF
 10
4.0608101573993158
 20
12.748344050810831
 30
0.0000000000000001
 70
     8
  0
VERTEX
  5
C0EE
  8
PROF
 10
4.0200583483813261
 20
12.736646725104491
 30
0.0000000000000001
 70
     8
  0
VERTEX
  5
C0EF
  8
PROF
 10
3.9819878624393819
 20
12.72304029061945
 30
0.0000000000000001
 70
     8
  0
VERTEX
  5
C0F0
  8
PROF
 10
3.946294489215858
 20
12.707949058976959
 30
0.0000000000000001
 70
     8
  0
VERTEX
  5
C0F1
  8
PROF
 10
3.9126740183532429
 20
12.691797341798059
 30
0.0000000000000001
 70
     8
  0
VERTEX
  5
C0F2
  8
PROF
 10
3.8808638350742508
 20
12.67494295718654
 30
0.0000000000000001
 70
     8
  0
VERTEX
  5
C0F3
  8
PROF
 10
3.850767706922738
 20
12.65747774917668
 30
0.0000000000000001
 70
     8
  0
VERTEX
  5
C0F4
  8
PROF
 10
3.8223309970228452
 20
12.639427068285499
 30
0.0000000000000001
 70
     8
  0
VERTEX
  5
C0F5
  8
PROF
 10
3.7954990684987129
 20
12.62081626503004
 30
0.0000000000000001
 70
     8
  0
VERTEX
  5
C0F6
  8
PROF
 10
3.7702172844744828
 20
12.601670689926999
 30
0.0000000000000001
 70
     8
  0
VERTEX
  5
C0F7
  8
PROF
 10
3.746431008074353
 20
12.58201569349364
 30
0.0000000000000001
 70
     8
  0
VERTEX
  5
C0F8
  8
PROF
 10
3.7240856024224618
 20
12.56187662624666
 30
0.0000000000000001
 70
     8
  0
VERTEX
  5
C0F9
  8
PROF
 10
3.7031264306428961
 20
12.541278838703191
 30
0.0000000000000001
 70
     8
  0
VERTEX
  5
C0FA
  8
PROF
 10
3.6834988558599089
 20
12.520247681380051
 30
0.0000000000000001
 70
     8
  0
VERTEX
  5
C0FB
  8
PROF
 10
3.665148241197528
 20
12.49880850479428
 30
0.0000000000000001
 70
     8
  0
VERTEX
  5
C0FC
  8
PROF
 10
3.6480199497799499
 20
12.47698665946279
 30
0.0000000000000001
 70
     8
  0
VERTEX
  5
C0FD
  8
PROF
 10
3.6320593447313172
 20
12.45480749590263
 30
0.0000000000000001
 70
     8
  0
VERTEX
  5
C0FE
  8
PROF
 10
3.6171895848866589
 20
12.43223790353807
 30
0.0000000000000001
 70
     8
  0
VERTEX
  5
C0FF
  8
PROF
 10
3.6032450119242858
 20
12.40901092742285
 30
0.0000000000000001
 70
     8
  0
VERTEX
  5
C100
  8
PROF
 10
3.590037763233453
 20
12.38480115151844
 30
0.0000000000000001
 70
     8
  0
VERTEX
  5
C101
  8
PROF
 10
3.5773799762033032
 20
12.35928315978594
 30
0.0000000000000001
 70
     8
  0
VERTEX
  5
C102
  8
PROF
 10
3.5650837882230908
 20
12.33213153618658
 30
0.0000000000000001
 70
     8
  0
VERTEX
  5
C103
  8
PROF
 10
3.5529613366819599
 20
12.303020864681571
 30
0.0000000000000001
 70
     8
  0
VERTEX
  5
C104
  8
PROF
 10
3.540824758969165
 20
12.271625729232371
 30
0.0000000000000001
 70
     8
  0
VERTEX
  5
C105
  8
PROF
 10
3.5284861924738489
 20
12.23762071379997
 30
0.0000000000000001
 70
     8
  0
VERTEX
  5
C106
  8
PROF
 10
3.5157577745852668
 20
12.200680402345711
 30
0.0000000000000001
 70
     8
  0
VERTEX
  5
C107
  8
PROF
 10
3.5024516426926189
 20
12.16047937883093
 30
0.0000000000000001
 70
     8
  0
VERTEX
  5
C108
  8
PROF
 10
3.4883799341851041
 20
12.116692227216619
 30
0.0000000000000001
 70
     8
  0
VERTEX
  5
C109
  8
PROF
 10
3.4733547864519201
 20
12.06899353146423
 30
0.0000000000000001
 70
     8
  0
VERTEX
  5
C10A
  8
PROF
 10
3.45723654619428
 20
12.0172095445447
 30
0.0000000000000001
 70
     8
  0
VERTEX
  5
C10B
  8
PROF
 10
3.4400783973613889
 20
11.961773195467799
 30
0.0000000000000001
 70
     8
  0
VERTEX
  5
C10C
  8
PROF
 10
3.421981733214579
 20
11.90326908225302
 30
0.0000000000000001
 70
     8
  0
VERTEX
  5
C10D
  8
PROF
 10
3.4030479470150108
 20
11.842281802919951
 30
0.0000000000000001
 70
     8
  0
VERTEX
  5
C10E
  8
PROF
 10
3.383378432024017
 20
11.779395955487979
 30
0.0000000000000001
 70
     8
  0
VERTEX
  5
C10F
  8
PROF
 10
3.3630745815028709
 20
11.715196137976809
 30
0.0000000000000001
 70
     8
  0
VERTEX
  5
C110
  8
PROF
 10
3.3422377887127359
 20
11.650266948405831
 30
0.0000000000000001
 70
     8
  0
VERTEX
  5
C111
  8
PROF
 10
3.320969446915
 20
11.58519298479461
 30
0.0000000000000001
 70
     8
  0
VERTEX
  5
C112
  8
PROF
 10
3.2993709493707679
 20
11.520558845162549
 30
0.0000000000000001
 70
     8
  0
VERTEX
  5
C113
  8
PROF
 10
3.277543689341428
 20
11.456949127529469
 30
0.0000000000000001
 70
     8
  0
VERTEX
  5
C114
  8
PROF
 10
3.2555890600881412
 20
11.3949484299145
 30
0.0000000000000001
 70
     8
  0
VERTEX
  5
C115
  8
PROF
 10
3.233608454872182
 20
11.335141350337491
 30
0.0000000000000001
 70
     8
  0
VERTEX
  5
C116
  8
PROF
 10
3.2116715641212181
 20
11.27799544797778
 30
0.0000000000000001
 70
     8
  0
VERTEX
  5
C117
  8
PROF
 10
3.189721266927847
 20
11.22351012665467
 30
0.0000000000000001
 70
     8
  0
VERTEX
  5
C118
  8
PROF
 10
3.1676687395512881
 20
11.17156775134765
 30
0.0000000000000001
 70
     8
  0
VERTEX
  5
C119
  8
PROF
 10
3.1454251582505321
 20
11.12205068703588
 30
0.0000000000000001
 70
     8
  0
VERTEX
  5
C11A
  8
PROF
 10
3.122901699284625
 20
11.07484129869874
 30
0.0000000000000001
 70
     8
  0
VERTEX
  5
C11B
  8
PROF
 10
3.1000095389127291
 20
11.02982195131551
 30
0.0000000000000001
 70
     8
  0
VERTEX
  5
C11C
  8
PROF
 10
3.0766598533938909
 20
10.986875009865679
 30
0.0000000000000001
 70
     8
  0
VERTEX
  5
C11D
  8
PROF
 10
3.0527638189871591
 20
10.9458828393283
 30
0.0000000000000001
 70
     8
  0
VERTEX
  5
C11E
  8
PROF
 10
3.0282326119516361
 20
10.90672780468298
 30
0.0000000000000001
 70
     8
  0
VERTEX
  5
C11F
  8
PROF
 10
3.002977408546371
 20
10.869292270908771
 30
0.0000000000000001
 70
     8
  0
VERTEX
  5
C120
  8
PROF
 10
2.9769093850304098
 20
10.833458602985161
 30
0.0000000000000001
 70
     8
  0
VERTEX
  5
C121
  8
PROF
 10
2.9499397176628568
 20
10.799109165891419
 30
0.0000000000000001
 70
     8
  0
VERTEX
  5
C122
  8
PROF
 10
2.9220006098404379
 20
10.76614363969508
 30
0.0000000000000001
 70
     8
  0
VERTEX
  5
C123
  8
PROF
 10
2.8931083735103011
 20
10.7345309648158
 30
0.0000000000000001
 70
     8
  0
VERTEX
  5
C124
  8
PROF
 10
2.8633003477572738
 20
10.70425739676193
 30
0.0000000000000001
 70
     8
  0
VERTEX
  5
C125
  8
PROF
 10
2.8326138716660689
 20
10.67530919104115
 30
0.0000000000000001
 70
     8
  0
VERTEX
  5
C126
  8
PROF
 10
2.8010862843216269
 20
10.647672603161711
 30
0.0000000000000001
 70
     8
  0
VERTEX
  5
C127
  8
PROF
 10
2.7687549248087171
 20
10.62133388863162
 30
0.0000000000000001
 70
     8
  0
VERTEX
  5
C128
  8
PROF
 10
2.735657132212054
 20
10.5962793029588
 30
0.0000000000000001
 70
     8
  0
VERTEX
  5
C129
  8
PROF
 10
2.7018302456165202
 20
10.572495101651381
 30
0.0000000000000001
 70
     8
  0
VERTEX
  5
C12A
  8
PROF
 10
2.6673116041068852
 20
10.54996754021726
 30
0.0000000000000001
 70
     8
  0
VERTEX
  5
C12B
  8
PROF
 10
2.6321385467680321
 20
10.528682874164581
 30
0.0000000000000001
 70
     8
  0
VERTEX
  5
C12C
  8
PROF
 10
2.5963484126846188
 20
10.508627359001251
 30
0.0000000000000001
 70
     8
  0
VERTEX
  5
C12D
  8
PROF
 10
2.5599785409415849
 20
10.489787250235279
 30
0.0000000000000001
 70
     8
  0
VERTEX
  5
C12E
  8
PROF
 10
2.522998630314361
 20
10.472162234281081
 30
0.0000000000000001
 70
     8
  0
VERTEX
  5
C12F
  8
PROF
 10
2.4851078183409072
 20
10.455805721177621
 30
0.0000000000000001
 70
     8
  0
VERTEX
  5
C130
  8
PROF
 10
2.4459376022498982
 20
10.44078455187036
 30
0.0000000000000001
 70
     8
  0
VERTEX
  5
C131
  8
PROF
 10
2.4051194792701258
 20
10.42716556730465
 30
0.0000000000000001
 70
     8
  0
VERTEX
  5
C132
  8
PROF
 10
2.3622849466301541
 20
10.415015608425851
 30
0.0000000000000001
 70
     8
  0
VERTEX
  5
C133
  8
PROF
 10
2.3170655015587149
 20
10.40440151617929
 30
0.0000000000000001
 70
     8
  0
VERTEX
  5
C134
  8
PROF
 10
2.2690926412844301
 20
10.395390131510339
 30
0.0000000000000001
 70
     8
  0
VERTEX
  5
C135
  8
PROF
 10
2.2179978630360888
 20
10.388048295364451
 30
0.0000000000000001
 70
     8
  0
VERTEX
  5
C136
  8
PROF
 10
2.1634126640422551
 20
10.38244284868688
 30
0.0000000000000001
 70
     8
  0
VERTEX
  5
C137
  8
PROF
 10
2.104968541531604
 20
10.37864063242295
 30
0.0000000000000001
 70
     8
  0
VERTEX
  5
C138
  8
PROF
 10
2.0422969927328718
 20
10.37670848751816
 30
0.0000000000000001
 70
     8
  0
VERTEX
  5
C139
  8
PROF
 10
1.9750295148747341
 20
10.37671325491794
 30
0.0000000000000001
 70
     8
  0
VERTEX
  5
C13A
  8
PROF
 10
4.2166060115107484
 20
12.80885334975255
 30
0.0000000000000001
 70
    16
  0
VERTEX
  5
C13B
  8
PROF
 10
3.8702254102732918
 20
12.707065515763929
 30
0.0000000000000001
 70
    16
  0
VERTEX
  5
C13C
  8
PROF
 10
3.605346156896871
 20
12.46277472098552
 30
0.0000000000000001
 70
    16
  0
VERTEX
  5
C13D
  8
PROF
 10
3.500746030527238
 20
12.170680575709749
 30
0.0000000000000001
 70
    16
  0
VERTEX
  5
C13E
  8
PROF
 10
3.231798439705698
 20
11.26846416496107
 30
0.0000000000000001
 70
    16
  0
VERTEX
  5
C13F
  8
PROF
 10
2.9737109398832891
 20
10.76631086647069
 30
0.0000000000000001
 70
    16
  0
VERTEX
  5
C140
  8
PROF
 10
2.5729961067384011
 20
10.460947364504699
 30
0.0000000000000001
 70
    16
  0
VERTEX
  5
C141
  8
PROF
 10
2.253782621454604
 20
10.372731239449759
 30
0.0000000000000001
 70
    16
  0
VERTEX
  5
C142
  8
PROF
 10
1.9750295148747341
 20
10.37671325491794
 30
0.0000000000000001
 70
    16
  0
SEQEND
  5
C143
  8
PROF
  0
LINE
  5
C144
  8
PROF
 10
4.9012016798694162
 20
12.88585218805485
 30
0.0000000000000003
 11
4.5198575031869259
 21
12.88585218805485
 31
0.0000000000000003
  0
LINE
  5
C145
  8
PROF
 10
0.7321315362267457
 20
8.2026312473991538
 30
0.0000000000000006
 11
0.7321315362267457
 21
8.0511853963434987
 31
0.0000000000000006
  0
ARC
  5
C146
  8
PROF
 10
0.7977322214551919
 20
7.5773339332026799
 30
0.0000000000000006
 40
0.4783708383912012
 50
97.882010168942529
 51
186.31119505698649
  0
LINE
  5
C147
  8
FRAME_050
 10
7.8016377197432121
 20
17.99371054969447
 30
0.0
 11
7.8016377197432121
 21
0.0000000000002274
 31
0.0
  0
ENDBLK
  5
C149
  8
0
  0
BLOCK
  8
0
  2
A$C3A7C6791
 70
     0
 10
0.0
 20
0.0
 30
0.0
  3
A$C3A7C6791
  1

  0
ARC
  5
1A561
  8
0
 10
1.0342682520551421
 20
11.169869575314801
 30
0.0
 40
0.3900479059662017
 50
183.5871702804647
 51
250.12003892297869
  0
ARC
  5
1A562
  8
0
 10
0.3331235273064408
 20
14.96835148878222
 30
0.0
 40
0.279776987736341
 50
290.26301102890392
 51
72.509116341854423
  0
ARC
  5
1A563
  8
0
 10
0.7948887850711232
 20
10.60700392177659
 30
0.0
 40
0.2232361910347119
 50
300.2914142988875
 51
61.434469032044603
  0
LINE
  5
1A564
  8
0
 10
-0.0000015027120526
 20
9.7351929270671462
 30
0.0
 11
1.0332573394856579
 21
9.7351929270671462
 31
0.0
  0
LINE
  5
1A565
  8
0
 10
1.0332573394856579
 20
10.377304601683591
 30
0.0
 11
0.9074887268004658
 21
10.377304601683591
 31
0.0
  0
LINE
  5
1A566
  8
0
 10
0.6449845421777241
 20
11.145465432783791
 30
0.0
 11
0.5554296092705046
 21
11.181249222917581
 31
0.0
  0
LINE
  5
1A567
  8
0
 10
0.5554296092705046
 20
14.67010534946894
 30
0.0
 11
0.430018718777319
 21
14.67010534946894
 31
0.0
  0
LINE
  5
1A568
  8
0
 10
0.4172116339615855
 20
15.235192927067139
 30
0.0
 11
-0.0000015027120526
 21
15.235192927067139
 31
0.0
  0
LINE
  5
1A569
  8
0
 10
-0.0000015027120526
 20
15.235192927067139
 30
0.0
 11
-0.0000015027120526
 21
9.7351929270671462
 31
0.0
  0
LINE
  5
1A56A
  8
0
 10
1.0332573394856579
 20
9.7351929270671462
 30
0.0
 11
1.0332573394856579
 21
10.377304601683591
 31
0.0
  0
LINE
  5
1A56B
  8
0
 10
0.9074887268004658
 20
10.377304601683591
 30
0.0
 11
0.9074887268003521
 21
10.414245912577821
 31
0.0
  0
LINE
  5
1A56C
  8
0
 10
0.5554296092705046
 20
11.181249222917581
 30
0.0
 11
0.5554296092705046
 21
14.67010534946894
 31
0.0
  0
LINE
  5
1A56D
  8
0
 10
0.430018718777319
 20
14.67010534946894
 30
0.0
 11
0.4300187187771485
 21
14.705889139602959
 31
0.0
  0
INSERT
  5
1A56E
  8
0
  2
*U11
 10
0.0
 20
0.0
 30
0.0
  0
LINE
  5
1A56F
  8
FRAME_050
 10
5.1382720395286006
 20
17.993710579095019
 30
0.0
 11
5.1382720395286006
 21
0.0000000294007805
 31
0.0
  0
ENDBLK
  5
1A571
  8
0
  0
BLOCK
  8
0
  2
A$C212248C0
 70
     0
 10
0.0
 20
0.0
 30
0.0
  3
A$C212248C0
  1

  0
LINE
  5
2846E
  8
0
 10
-0.0000002092490945
 20
10.41741894345523
 30
0.0
 11
-0.000000218823061
 21
12.91741894345523
 31
0.0
  0
LINE
  5
2846F
  8
0
 10
0.8061752779508424
 20
10.41741894654251
 30
0.0
 11
0.80617527442746
 21
11.337459194522349
 31
0.0
  0
LINE
  5
28470
  8
0
 10
-0.0000002092490945
 20
10.41741894345523
 30
0.0
 11
0.8061752779508424
 21
10.41741894654251
 31
0.0
  0
LINE
  5
28471
  8
0
 10
-0.000000218823061
 20
12.91741894345523
 30
0.0
 11
0.1835338022692099
 21
12.91741894415804
 31
0.0
  0
LINE
  5
28472
  8
0
 10
0.5432593756756888
 20
11.33745919351543
 30
0.0
 11
0.8061752744275167
 21
11.337459194522349
 31
0.0
  0
LINE
  5
28473
  8
0
 10
0.5432593756756888
 20
11.33745919351543
 30
0.0
 11
0.54325937522907
 21
11.454074799268589
 31
0.0
  0
ARC
  5
28474
  8
0
 10
0.5406585726453841
 20
11.69407225899795
 30
0.0
 40
0.2400115514942006
 50
270.62087814899439
 51
10.065567101317541
  0
ARC
  5
28475
  8
0
 10
0.3766221072655185
 20
12.57830290724473
 30
0.0
 40
0.1204493443528103
 50
92.075522465847911
 51
186.90606997904499
  0
ARC
  5
28476
  8
0
 10
0.3522648873053527
 20
11.66572609276443
 30
0.0
 40
0.4304889887359197
 50
9.3978639632316945
 51
32.979139282634932
  0
ARC
  5
28477
  8
0
 10
-3.1652042745943159
 20
9.0577862235478506
 30
0.0
 40
4.8085319198703189
 50
36.234313076985558
 51
42.402692063571678
  0
LINE
  5
28478
  8
0
 10
0.1835338022692099
 20
12.91741894415804
 30
0.0
 11
0.3722598200128004
 21
12.698673231681139
 31
0.0
  0
ARC
  5
28479
  8
0
 10
0.9319226152692294
 20
12.72987725098619
 30
0.0
 40
0.6950054723870779
 50
193.8233761419454
 51
218.1708864341492
  0
LINE
  5
2847A
  8
0
 10
-0.0000002092490945
 20
10.41741894345523
 30
0.0
 11
-0.0000002092490945
 21
12.91741894345523
 31
0.0
  0
INSERT
  5
2847B
  8
0
  2
*U12
 10
0.0
 20
0.0
 30
0.0
  0
LINE
  5
2847C
  8
FRAME_050
 10
6.2588202718825414
 20
17.993710579095019
 30
0.0
 11
6.2588202718825414
 21
0.0000000294007805
 31
0.0
  0
ENDBLK
  5
2847E
  8
0
  0
BLOCK
  8
0
  2
A$C52DE5D80
 70
     0
 10
0.0
 20
0.0
 30
0.0
  3
A$C52DE5D80
  1

  0
INSERT
  5
2B89A
  8
0
  2
*U13
 10
0.0
 20
0.0
 30
0.0
  0
LINE
  5
2B89B
  8
0
 10
0.0000014767382481
 20
7.878552666495465
 30
0.0
 11
1.5240062297528421
 21
7.8785526664953522
 31
0.0
  0
LINE
  5
2B89C
  8
0
 10
1.5240062297528421
 20
8.3261365866769665
 30
0.0
 11
1.5240062297528421
 21
7.8785526664953522
 31
0.0
  0
LINE
  5
2B89D
  8
0
 10
1.394539806559862
 20
8.3261365866769665
 30
0.0
 11
1.5240062297528421
 21
8.3261365866769665
 31
0.0
  0
LINE
  5
2B89E
  8
0
 10
0.7472076905950758
 20
9.2582948336663549
 30
0.0
 11
0.8951693171012493
 21
9.2582948336665822
 31
0.0
  0
POLYLINE
  8
0
  5
3AF31
  62
7
  66
     1
 10
0.000000
 20
0.000000
 30
0.000000
  70
     8
  0
VERTEX
  8
0
  5
3AF32
 10
1.39454
 20
8.32614
 30
0.000000
  70
    32
  0
VERTEX
  8
0
  5
3AF33
 10
1.39468
 20
8.33131
 30
0.000000
  70
    32
  0
VERTEX
  8
0
  5
3AF34
 10
1.39482
 20
8.33649
 30
0.000000
  70
    32
  0
VERTEX
  8
0
  5
3AF35
 10
1.39495
 20
8.34167
 30
0.000000
  70
    32
  0
VERTEX
  8
0
  5
3AF36
 10
1.39508
 20
8.34684
 30
0.000000
  70
    32
  0
VERTEX
  8
0
  5
3AF37
 10
1.39521
 20
8.35201
 30
0.000000
  70
    32
  0
VERTEX
  8
0
  5
3AF38
 10
1.39532
 20
8.35718
 30
0.000000
  70
    32
  0
VERTEX
  8
0
  5
3AF39
 10
1.39542
 20
8.36234
 30
0.000000
  70
    32
  0
VERTEX
  8
0
  5
3AF3A
 10
1.39552
 20
8.36749
 30
0.000000
  70
    32
  0
VERTEX
  8
0
  5
3AF3B
 10
1.39559
 20
8.37264
 30
0.000000
  70
    32
  0
VERTEX
  8
0
  5
3AF3C
 10
1.39566
 20
8.37779
 30
0.000000
  70
    32
  0
VERTEX
  8
0
  5
3AF3D
 10
1.39570
 20
8.38292
 30
0.000000
  70
    32
  0
VERTEX
  8
0
  5
3AF3E
 10
1.39573
 20
8.38805
 30
0.000000
  70
    32
  0
VERTEX
  8
0
  5
3AF3F
 10
1.39574
 20
8.39316
 30
0.000000
  70
    32
  0
VERTEX
  8
0
  5
3AF40
 10
1.39572
 20
8.39827
 30
0.000000
  70
    32
  0
VERTEX
  8
0
  5
3AF41
 10
1.39569
 20
8.40337
 30
0.000000
  70
    32
  0
VERTEX
  8
0
  5
3AF42
 10
1.39562
 20
8.40845
 30
0.000000
  70
    32
  0
VERTEX
  8
0
  5
3AF43
 10
1.39553
 20
8.41352
 30
0.000000
  70
    32
  0
VERTEX
  8
0
  5
3AF44
 10
1.39541
 20
8.41858
 30
0.000000
  70
    32
  0
VERTEX
  8
0
  5
3AF45
 10
1.39526
 20
8.42363
 30
0.000000
  70
    32
  0
VERTEX
  8
0
  5
3AF46
 10
1.39507
 20
8.42866
 30
0.000000
  70
    32
  0
VERTEX
  8
0
  5
3AF47
 10
1.39486
 20
8.43367
 30
0.000000
  70
    32
  0
VERTEX
  8
0
  5
3AF48
 10
1.39460
 20
8.43867
 30
0.000000
  70
    32
  0
VERTEX
  8
0
  5
3AF49
 10
1.39431
 20
8.44365
 30
0.000000
  70
    32
  0
VERTEX
  8
0
  5
3AF4A
 10
1.39398
 20
8.44862
 30
0.000000
  70
    32
  0
VERTEX
  8
0
  5
3AF4B
 10
1.39361
 20
8.45356
 30
0.000000
  70
    32
  0
VERTEX
  8
0
  5
3AF4C
 10
1.39320
 20
8.45849
 30
0.000000
  70
    32
  0
VERTEX
  8
0
  5
3AF4D
 10
1.39274
 20
8.46339
 30
0.000000
  70
    32
  0
VERTEX
  8
0
  5
3AF4E
 10
1.39224
 20
8.46828
 30
0.000000
  70
    32
  0
VERTEX
  8
0
  5
3AF4F
 10
1.39168
 20
8.47314
 30
0.000000
  70
    32
  0
VERTEX
  8
0
  5
3AF50
 10
1.39108
 20
8.47798
 30
0.000000
  70
    32
  0
VERTEX
  8
0
  5
3AF51
 10
1.39043
 20
8.48280
 30
0.000000
  70
    32
  0
VERTEX
  8
0
  5
3AF52
 10
1.38973
 20
8.48759
 30
0.000000
  70
    32
  0
VERTEX
  8
0
  5
3AF53
 10
1.38897
 20
8.49236
 30
0.000000
  70
    32
  0
VERTEX
  8
0
  5
3AF54
 10
1.38815
 20
8.49711
 30
0.000000
  70
    32
  0
VERTEX
  8
0
  5
3AF55
 10
1.38728
 20
8.50182
 30
0.000000
  70
    32
  0
VERTEX
  8
0
  5
3AF56
 10
1.38635
 20
8.50651
 30
0.000000
  70
    32
  0
VERTEX
  8
0
  5
3AF57
 10
1.38535
 20
8.51117
 30
0.000000
  70
    32
  0
VERTEX
  8
0
  5
3AF58
 10
1.38429
 20
8.51581
 30
0.000000
  70
    32
  0
VERTEX
  8
0
  5
3AF59
 10
1.38317
 20
8.52041
 30
0.000000
  70
    32
  0
VERTEX
  8
0
  5
3AF5A
 10
1.38198
 20
8.52498
 30
0.000000
  70
    32
  0
VERTEX
  8
0
  5
3AF5B
 10
1.38073
 20
8.52953
 30
0.000000
  70
    32
  0
VERTEX
  8
0
  5
3AF5C
 10
1.37940
 20
8.53404
 30
0.000000
  70
    32
  0
VERTEX
  8
0
  5
3AF5D
 10
1.37800
 20
8.53851
 30
0.000000
  70
    32
  0
VERTEX
  8
0
  5
3AF5E
 10
1.37653
 20
8.54296
 30
0.000000
  70
    32
  0
VERTEX
  8
0
  5
3AF5F
 10
1.37499
 20
8.54737
 30
0.000000
  70
    32
  0
VERTEX
  8
0
  5
3AF60
 10
1.37337
 20
8.55175
 30
0.000000
  70
    32
  0
VERTEX
  8
0
  5
3AF61
 10
1.37167
 20
8.55609
 30
0.000000
  70
    32
  0
VERTEX
  8
0
  5
3AF62
 10
1.36991
 20
8.56040
 30
0.000000
  70
    32
  0
VERTEX
  8
0
  5
3AF63
 10
1.36807
 20
8.56468
 30
0.000000
  70
    32
  0
VERTEX
  8
0
  5
3AF64
 10
1.36616
 20
8.56893
 30
0.000000
  70
    32
  0
VERTEX
  8
0
  5
3AF65
 10
1.36418
 20
8.57314
 30
0.000000
  70
    32
  0
VERTEX
  8
0
  5
3AF66
 10
1.36214
 20
8.57733
 30
0.000000
  70
    32
  0
VERTEX
  8
0
  5
3AF67
 10
1.36003
 20
8.58148
 30
0.000000
  70
    32
  0
VERTEX
  8
0
  5
3AF68
 10
1.35785
 20
8.58560
 30
0.000000
  70
    32
  0
VERTEX
  8
0
  5
3AF69
 10
1.35561
 20
8.58970
 30
0.000000
  70
    32
  0
VERTEX
  8
0
  5
3AF6A
 10
1.35330
 20
8.59377
 30
0.000000
  70
    32
  0
VERTEX
  8
0
  5
3AF6B
 10
1.35093
 20
8.59781
 30
0.000000
  70
    32
  0
VERTEX
  8
0
  5
3AF6C
 10
1.34851
 20
8.60182
 30
0.000000
  70
    32
  0
VERTEX
  8
0
  5
3AF6D
 10
1.34602
 20
8.60581
 30
0.000000
  70
    32
  0
VERTEX
  8
0
  5
3AF6E
 10
1.34347
 20
8.60976
 30
0.000000
  70
    32
  0
VERTEX
  8
0
  5
3AF6F
 10
1.34086
 20
8.61370
 30
0.000000
  70
    32
  0
VERTEX
  8
0
  5
3AF70
 10
1.33820
 20
8.61761
 30
0.000000
  70
    32
  0
VERTEX
  8
0
  5
3AF71
 10
1.33549
 20
8.62149
 30
0.000000
  70
    32
  0
VERTEX
  8
0
  5
3AF72
 10
1.33271
 20
8.62535
 30
0.000000
  70
    32
  0
VERTEX
  8
0
  5
3AF73
 10
1.32989
 20
8.62919
 30
0.000000
  70
    32
  0
VERTEX
  8
0
  5
3AF74
 10
1.32701
 20
8.63300
 30
0.000000
  70
    32
  0
VERTEX
  8
0
  5
3AF75
 10
1.32408
 20
8.63679
 30
0.000000
  70
    32
  0
VERTEX
  8
0
  5
3AF76
 10
1.32111
 20
8.64056
 30
0.000000
  70
    32
  0
VERTEX
  8
0
  5
3AF77
 10
1.31808
 20
8.64431
 30
0.000000
  70
    32
  0
VERTEX
  8
0
  5
3AF78
 10
1.31501
 20
8.64803
 30
0.000000
  70
    32
  0
VERTEX
  8
0
  5
3AF79
 10
1.31189
 20
8.65174
 30
0.000000
  70
    32
  0
VERTEX
  8
0
  5
3AF7A
 10
1.30872
 20
8.65543
 30
0.000000
  70
    32
  0
VERTEX
  8
0
  5
3AF7B
 10
1.30551
 20
8.65910
 30
0.000000
  70
    32
  0
VERTEX
  8
0
  5
3AF7C
 10
1.30226
 20
8.66275
 30
0.000000
  70
    32
  0
VERTEX
  8
0
  5
3AF7D
 10
1.29896
 20
8.66638
 30
0.000000
  70
    32
  0
VERTEX
  8
0
  5
3AF7E
 10
1.29563
 20
8.66999
 30
0.000000
  70
    32
  0
VERTEX
  8
0
  5
3AF7F
 10
1.29225
 20
8.67359
 30
0.000000
  70
    32
  0
VERTEX
  8
0
  5
3AF80
 10
1.28884
 20
8.67717
 30
0.000000
  70
    32
  0
VERTEX
  8
0
  5
3AF81
 10
1.28539
 20
8.68074
 30
0.000000
  70
    32
  0
VERTEX
  8
0
  5
3AF82
 10
1.28190
 20
8.68429
 30
0.000000
  70
    32
  0
VERTEX
  8
0
  5
3AF83
 10
1.27838
 20
8.68782
 30
0.000000
  70
    32
  0
VERTEX
  8
0
  5
3AF84
 10
1.27482
 20
8.69134
 30
0.000000
  70
    32
  0
VERTEX
  8
0
  5
3AF85
 10
1.27123
 20
8.69485
 30
0.000000
  70
    32
  0
VERTEX
  8
0
  5
3AF86
 10
1.26761
 20
8.69835
 30
0.000000
  70
    32
  0
VERTEX
  8
0
  5
3AF87
 10
1.26396
 20
8.70183
 30
0.000000
  70
    32
  0
VERTEX
  8
0
  5
3AF88
 10
1.26028
 20
8.70530
 30
0.000000
  70
    32
  0
VERTEX
  8
0
  5
3AF89
 10
1.25657
 20
8.70876
 30
0.000000
  70
    32
  0
VERTEX
  8
0
  5
3AF8A
 10
1.25283
 20
8.71220
 30
0.000000
  70
    32
  0
VERTEX
  8
0
  5
3AF8B
 10
1.24907
 20
8.71564
 30
0.000000
  70
    32
  0
VERTEX
  8
0
  5
3AF8C
 10
1.24528
 20
8.71907
 30
0.000000
  70
    32
  0
VERTEX
  8
0
  5
3AF8D
 10
1.24147
 20
8.72249
 30
0.000000
  70
    32
  0
VERTEX
  8
0
  5
3AF8E
 10
1.23764
 20
8.72590
 30
0.000000
  70
    32
  0
VERTEX
  8
0
  5
3AF8F
 10
1.23379
 20
8.72930
 30
0.000000
  70
    32
  0
VERTEX
  8
0
  5
3AF90
 10
1.22991
 20
8.73270
 30
0.000000
  70
    32
  0
VERTEX
  8
0
  5
3AF91
 10
1.22601
 20
8.73609
 30
0.000000
  70
    32
  0
VERTEX
  8
0
  5
3AF92
 10
1.22210
 20
8.73947
 30
0.000000
  70
    32
  0
VERTEX
  8
0
  5
3AF93
 10
1.21817
 20
8.74284
 30
0.000000
  70
    32
  0
VERTEX
  8
0
  5
3AF94
 10
1.21423
 20
8.74621
 30
0.000000
  70
    32
  0
VERTEX
  8
0
  5
3AF95
 10
1.21027
 20
8.74958
 30
0.000000
  70
    32
  0
VERTEX
  8
0
  5
3AF96
 10
1.20629
 20
8.75294
 30
0.000000
  70
    32
  0
VERTEX
  8
0
  5
3AF97
 10
1.20230
 20
8.75630
 30
0.000000
  70
    32
  0
VERTEX
  8
0
  5
3AF98
 10
1.19831
 20
8.75965
 30
0.000000
  70
    32
  0
VERTEX
  8
0
  5
3AF99
 10
1.19430
 20
8.76300
 30
0.000000
  70
    32
  0
VERTEX
  8
0
  5
3AF9A
 10
1.19028
 20
8.76636
 30
0.000000
  70
    32
  0
VERTEX
  8
0
  5
3AF9B
 10
1.18626
 20
8.76970
 30
0.000000
  70
    32
  0
VERTEX
  8
0
  5
3AF9C
 10
1.18222
 20
8.77305
 30
0.000000
  70
    32
  0
VERTEX
  8
0
  5
3AF9D
 10
1.17819
 20
8.77640
 30
0.000000
  70
    32
  0
VERTEX
  8
0
  5
3AF9E
 10
1.17414
 20
8.77975
 30
0.000000
  70
    32
  0
VERTEX
  8
0
  5
3AF9F
 10
1.17010
 20
8.78310
 30
0.000000
  70
    32
  0
VERTEX
  8
0
  5
3AFA0
 10
1.16605
 20
8.78645
 30
0.000000
  70
    32
  0
VERTEX
  8
0
  5
3AFA1
 10
1.16200
 20
8.78980
 30
0.000000
  70
    32
  0
VERTEX
  8
0
  5
3AFA2
 10
1.15795
 20
8.79315
 30
0.000000
  70
    32
  0
VERTEX
  8
0
  5
3AFA3
 10
1.15390
 20
8.79651
 30
0.000000
  70
    32
  0
VERTEX
  8
0
  5
3AFA4
 10
1.14986
 20
8.79987
 30
0.000000
  70
    32
  0
VERTEX
  8
0
  5
3AFA5
 10
1.14582
 20
8.80323
 30
0.000000
  70
    32
  0
VERTEX
  8
0
  5
3AFA6
 10
1.14178
 20
8.80660
 30
0.000000
  70
    32
  0
VERTEX
  8
0
  5
3AFA7
 10
1.13775
 20
8.80998
 30
0.000000
  70
    32
  0
VERTEX
  8
0
  5
3AFA8
 10
1.13372
 20
8.81336
 30
0.000000
  70
    32
  0
VERTEX
  8
0
  5
3AFA9
 10
1.12970
 20
8.81674
 30
0.000000
  70
    32
  0
VERTEX
  8
0
  5
3AFAA
 10
1.12569
 20
8.82014
 30
0.000000
  70
    32
  0
VERTEX
  8
0
  5
3AFAB
 10
1.12170
 20
8.82354
 30
0.000000
  70
    32
  0
VERTEX
  8
0
  5
3AFAC
 10
1.11771
 20
8.82695
 30
0.000000
  70
    32
  0
VERTEX
  8
0
  5
3AFAD
 10
1.11373
 20
8.83036
 30
0.000000
  70
    32
  0
VERTEX
  8
0
  5
3AFAE
 10
1.10977
 20
8.83379
 30
0.000000
  70
    32
  0
VERTEX
  8
0
  5
3AFAF
 10
1.10583
 20
8.83723
 30
0.000000
  70
    32
  0
VERTEX
  8
0
  5
3AFB0
 10
1.10190
 20
8.84067
 30
0.000000
  70
    32
  0
VERTEX
  8
0
  5
3AFB1
 10
1.09798
 20
8.84413
 30
0.000000
  70
    32
  0
VERTEX
  8
0
  5
3AFB2
 10
1.09409
 20
8.84760
 30
0.000000
  70
    32
  0
VERTEX
  8
0
  5
3AFB3
 10
1.09021
 20
8.85107
 30
0.000000
  70
    32
  0
VERTEX
  8
0
  5
3AFB4
 10
1.08635
 20
8.85457
 30
0.000000
  70
    32
  0
VERTEX
  8
0
  5
3AFB5
 10
1.08251
 20
8.85807
 30
0.000000
  70
    32
  0
VERTEX
  8
0
  5
3AFB6
 10
1.07870
 20
8.86158
 30
0.000000
  70
    32
  0
VERTEX
  8
0
  5
3AFB7
 10
1.07490
 20
8.86511
 30
0.000000
  70
    32
  0
VERTEX
  8
0
  5
3AFB8
 10
1.07113
 20
8.86865
 30
0.000000
  70
    32
  0
VERTEX
  8
0
  5
3AFB9
 10
1.06738
 20
8.87220
 30
0.000000
  70
    32
  0
VERTEX
  8
0
  5
3AFBA
 10
1.06365
 20
8.87576
 30
0.000000
  70
    32
  0
VERTEX
  8
0
  5
3AFBB
 10
1.05995
 20
8.87934
 30
0.000000
  70
    32
  0
VERTEX
  8
0
  5
3AFBC
 10
1.05628
 20
8.88294
 30
0.000000
  70
    32
  0
VERTEX
  8
0
  5
3AFBD
 10
1.05263
 20
8.88654
 30
0.000000
  70
    32
  0
VERTEX
  8
0
  5
3AFBE
 10
1.04900
 20
8.89016
 30
0.000000
  70
    32
  0
VERTEX
  8
0
  5
3AFBF
 10
1.04541
 20
8.89380
 30
0.000000
  70
    32
  0
VERTEX
  8
0
  5
3AFC0
 10
1.04185
 20
8.89745
 30
0.000000
  70
    32
  0
VERTEX
  8
0
  5
3AFC1
 10
1.03831
 20
8.90112
 30
0.000000
  70
    32
  0
VERTEX
  8
0
  5
3AFC2
 10
1.03481
 20
8.90480
 30
0.000000
  70
    32
  0
VERTEX
  8
0
  5
3AFC3
 10
1.03133
 20
8.90850
 30
0.000000
  70
    32
  0
VERTEX
  8
0
  5
3AFC4
 10
1.02789
 20
8.91221
 30
0.000000
  70
    32
  0
VERTEX
  8
0
  5
3AFC5
 10
1.02448
 20
8.91594
 30
0.000000
  70
    32
  0
VERTEX
  8
0
  5
3AFC6
 10
1.02111
 20
8.91969
 30
0.000000
  70
    32
  0
VERTEX
  8
0
  5
3AFC7
 10
1.01777
 20
8.92345
 30
0.000000
  70
    32
  0
VERTEX
  8
0
  5
3AFC8
 10
1.01446
 20
8.92723
 30
0.000000
  70
    32
  0
VERTEX
  8
0
  5
3AFC9
 10
1.01119
 20
8.93103
 30
0.000000
  70
    32
  0
VERTEX
  8
0
  5
3AFCA
 10
1.00796
 20
8.93484
 30
0.000000
  70
    32
  0
VERTEX
  8
0
  5
3AFCB
 10
1.00476
 20
8.93868
 30
0.000000
  70
    32
  0
VERTEX
  8
0
  5
3AFCC
 10
1.00160
 20
8.94253
 30
0.000000
  70
    32
  0
VERTEX
  8
0
  5
3AFCD
 10
0.998485
 20
8.94640
 30
0.000000
  70
    32
  0
VERTEX
  8
0
  5
3AFCE
 10
0.995407
 20
8.95029
 30
0.000000
  70
    32
  0
VERTEX
  8
0
  5
3AFCF
 10
0.992369
 20
8.95420
 30
0.000000
  70
    32
  0
VERTEX
  8
0
  5
3AFD0
 10
0.989373
 20
8.95813
 30
0.000000
  70
    32
  0
VERTEX
  8
0
  5
3AFD1
 10
0.986419
 20
8.96208
 30
0.000000
  70
    32
  0
VERTEX
  8
0
  5
3AFD2
 10
0.983508
 20
8.96605
 30
0.000000
  70
    32
  0
VERTEX
  8
0
  5
3AFD3
 10
0.980642
 20
8.97004
 30
0.000000
  70
    32
  0
VERTEX
  8
0
  5
3AFD4
 10
0.977819
 20
8.97405
 30
0.000000
  70
    32
  0
VERTEX
  8
0
  5
3AFD5
 10
0.975042
 20
8.97808
 30
0.000000
  70
    32
  0
VERTEX
  8
0
  5
3AFD6
 10
0.972312
 20
8.98213
 30
0.000000
  70
    32
  0
VERTEX
  8
0
  5
3AFD7
 10
0.969628
 20
8.98621
 30
0.000000
  70
    32
  0
VERTEX
  8
0
  5
3AFD8
 10
0.966993
 20
8.99030
 30
0.000000
  70
    32
  0
VERTEX
  8
0
  5
3AFD9
 10
0.964406
 20
8.99442
 30
0.000000
  70
    32
  0
VERTEX
  8
0
  5
3AFDA
 10
0.961868
 20
8.99856
 30
0.000000
  70
    32
  0
VERTEX
  8
0
  5
3AFDB
 10
0.959381
 20
9.00272
 30
0.000000
  70
    32
  0
VERTEX
  8
0
  5
3AFDC
 10
0.956944
 20
9.00691
 30
0.000000
  70
    32
  0
VERTEX
  8
0
  5
3AFDD
 10
0.954559
 20
9.01112
 30
0.000000
  70
    32
  0
VERTEX
  8
0
  5
3AFDE
 10
0.952227
 20
9.01535
 30
0.000000
  70
    32
  0
VERTEX
  8
0
  5
3AFDF
 10
0.949949
 20
9.01960
 30
0.000000
  70
    32
  0
VERTEX
  8
0
  5
3AFE0
 10
0.947724
 20
9.02388
 30
0.000000
  70
    32
  0
VERTEX
  8
0
  5
3AFE1
 10
0.945555
 20
9.02819
 30
0.000000
  70
    32
  0
VERTEX
  8
0
  5
3AFE2
 10
0.943441
 20
9.03252
 30
0.000000
  70
    32
  0
VERTEX
  8
0
  5
3AFE3
 10
0.941383
 20
9.03687
 30
0.000000
  70
    32
  0
VERTEX
  8
0
  5
3AFE4
 10
0.939384
 20
9.04125
 30
0.000000
  70
    32
  0
VERTEX
  8
0
  5
3AFE5
 10
0.937442
 20
9.04566
 30
0.000000
  70
    32
  0
VERTEX
  8
0
  5
3AFE6
 10
0.935559
 20
9.05009
 30
0.000000
  70
    32
  0
VERTEX
  8
0
  5
3AFE7
 10
0.933736
 20
9.05455
 30
0.000000
  70
    32
  0
VERTEX
  8
0
  5
3AFE8
 10
0.931973
 20
9.05903
 30
0.000000
  70
    32
  0
VERTEX
  8
0
  5
3AFE9
 10
0.930271
 20
9.06354
 30
0.000000
  70
    32
  0
VERTEX
  8
0
  5
3AFEA
 10
0.928629
 20
9.06808
 30
0.000000
  70
    32
  0
VERTEX
  8
0
  5
3AFEB
 10
0.927045
 20
9.07264
 30
0.000000
  70
    32
  0
VERTEX
  8
0
  5
3AFEC
 10
0.925517
 20
9.07722
 30
0.000000
  70
    32
  0
VERTEX
  8
0
  5
3AFED
 10
0.924045
 20
9.08183
 30
0.000000
  70
    32
  0
VERTEX
  8
0
  5
3AFEE
 10
0.922626
 20
9.08647
 30
0.000000
  70
    32
  0
VERTEX
  8
0
  5
3AFEF
 10
0.921259
 20
9.09112
 30
0.000000
  70
    32
  0
VERTEX
  8
0
  5
3AFF0
 10
0.919943
 20
9.09580
 30
0.000000
  70
    32
  0
VERTEX
  8
0
  5
3AFF1
 10
0.918676
 20
9.10050
 30
0.000000
  70
    32
  0
VERTEX
  8
0
  5
3AFF2
 10
0.917457
 20
9.10522
 30
0.000000
  70
    32
  0
VERTEX
  8
0
  5
3AFF3
 10
0.916283
 20
9.10996
 30
0.000000
  70
    32
  0
VERTEX
  8
0
  5
3AFF4
 10
0.915155
 20
9.11472
 30
0.000000
  70
    32
  0
VERTEX
  8
0
  5
3AFF5
 10
0.914070
 20
9.11950
 30
0.000000
  70
    32
  0
VERTEX
  8
0
  5
3AFF6
 10
0.913026
 20
9.12429
 30
0.000000
  70
    32
  0
VERTEX
  8
0
  5
3AFF7
 10
0.912023
 20
9.12911
 30
0.000000
  70
    32
  0
VERTEX
  8
0
  5
3AFF8
 10
0.911058
 20
9.13394
 30
0.000000
  70
    32
  0
VERTEX
  8
0
  5
3AFF9
 10
0.910131
 20
9.13879
 30
0.000000
  70
    32
  0
VERTEX
  8
0
  5
3AFFA
 10
0.909239
 20
9.14365
 30
0.000000
  70
    32
  0
VERTEX
  8
0
  5
3AFFB
 10
0.908381
 20
9.14853
 30
0.000000
  70
    32
  0
VERTEX
  8
0
  5
3AFFC
 10
0.907557
 20
9.15342
 30
0.000000
  70
    32
  0
VERTEX
  8
0
  5
3AFFD
 10
0.906763
 20
9.15832
 30
0.000000
  70
    32
  0
VERTEX
  8
0
  5
3AFFE
 10
0.906000
 20
9.16324
 30
0.000000
  70
    32
  0
VERTEX
  8
0
  5
3AFFF
 10
0.905264
 20
9.16817
 30
0.000000
  70
    32
  0
VERTEX
  8
0
  5
3B000
 10
0.904556
 20
9.17312
 30
0.000000
  70
    32
  0
VERTEX
  8
0
  5
3B001
 10
0.903873
 20
9.17807
 30
0.000000
  70
    32
  0
VERTEX
  8
0
  5
3B002
 10
0.903213
 20
9.18303
 30
0.000000
  70
    32
  0
VERTEX
  8
0
  5
3B003
 10
0.902576
 20
9.18801
 30
0.000000
  70
    32
  0
VERTEX
  8
0
  5
3B004
 10
0.901960
 20
9.19299
 30
0.000000
  70
    32
  0
VERTEX
  8
0
  5
3B005
 10
0.901363
 20
9.19798
 30
0.000000
  70
    32
  0
VERTEX
  8
0
  5
3B006
 10
0.900784
 20
9.20298
 30
0.000000
  70
    32
  0
VERTEX
  8
0
  5
3B007
 10
0.900222
 20
9.20799
 30
0.000000
  70
    32
  0
VERTEX
  8
0
  5
3B008
 10
0.899674
 20
9.21300
 30
0.000000
  70
    32
  0
VERTEX
  8
0
  5
3B009
 10
0.899140
 20
9.21802
 30
0.000000
  70
    32
  0
VERTEX
  8
0
  5
3B00A
 10
0.898617
 20
9.22304
 30
0.000000
  70
    32
  0
VERTEX
  8
0
  5
3B00B
 10
0.898105
 20
9.22807
 30
0.000000
  70
    32
  0
VERTEX
  8
0
  5
3B00C
 10
0.897602
 20
9.23310
 30
0.000000
  70
    32
  0
VERTEX
  8
0
  5
3B00D
 10
0.897107
 20
9.23813
 30
0.000000
  70
    32
  0
VERTEX
  8
0
  5
3B00E
 10
0.896617
 20
9.24317
 30
0.000000
  70
    32
  0
VERTEX
  8
0
  5
3B00F
 10
0.896132
 20
9.24821
 30
0.000000
  70
    32
  0
VERTEX
  8
0
  5
3B010
 10
0.895650
 20
9.25325
 30
0.000000
  70
    32
  0
VERTEX
  8
0
  5
3B011
 10
0.895169
 20
9.25829
 30
0.000000
  70
    32
  0
SEQEND
  8
0
  5
3B012
  0
LINE
  5
2B8A0
  8
0
  6
CONTINUOUS
 62
     7
 10
0.7472076905950758
 20
9.2582948336663549
 30
0.0
 11
0.7472076905949621
 21
11.826520277942111
 31
0.0
  0
LINE
  5
2B8A1
  8
0
  6
CONTINUOUS
 62
     7
 10
0.4997076905949598
 20
12.389020277942111
 30
0.0
 11
0.000001476738305
 21
12.389020277942111
 31
0.0
  0
ARC
  5
2B8A2
  8
0
 10
0.4997076905949598
 20
12.139020277942111
 30
0.0
 40
0.2500000000000009
 50
269.42703265506509
 51
90.0
  0
LINE
  5
2B8A3
  8
0
  6
CONTINUOUS
 62
     7
 10
0.7472076905949621
 20
11.826520277942111
 30
0.0
 11
0.5597076905949621
 21
11.826520277942111
 31
0.0
  0
LINE
  5
2B8A4
  8
0
  6
CONTINUOUS
 62
     7
 10
0.4972076905949621
 20
11.826520277942111
 30
0.0
 11
0.4972076905949621
 21
11.88903277828603
 31
0.0
  0
LINE
  5
2B8A5
  8
0
 10
0.0000014767382481
 20
7.878552666495465
 30
0.0
 11
0.000001476738305
 21
12.389020277942111
 31
0.0
  0
LINE
  5
2B8A6
  8
0
 10
0.7472076905949621
 20
11.826520277942111
 30
0.0
 11
0.4972076905949621
 21
11.826520277942111
 31
0.0
  0
LINE
  5
2B8A7
  8
FRAME_050
 10
6.5744546621590407
 20
17.993710579095019
 30
0.0
 11
6.5744546621590407
 21
0.0000000294007805
 31
0.0
  0
ENDBLK
  5
2B8A9
  8
0
  0
BLOCK
  8
0
  2
A$C06786640
 70
     0
 10
0.0
 20
0.0
 30
0.0
  3
A$C06786640
  1

  0
LINE
  5
30DBD
  8
0
  6
CONTINUOUS
 10
6.9421460747584538
 20
5.3373952998996401
 30
0.0
 11
7.6921460747585684
 21
5.3373952998996401
 31
0.0
  0
INSERT
  5
30DBE
  8
0
  2
*U14
 10
0.0
 20
0.0
 30
0.0
  0
ARC
  5
30DBF
  8
0
 10
7.6921460747584538
 20
1.3373952998996399
 30
0.0
 40
0.4375
 50
90.0
 51
180.0
  0
LINE
  5
30DC0
  8
0
  6
CONTINUOUS
 10
6.9421460747584538
 20
1.3373952998996399
 30
0.0
 11
7.2546460747584538
 21
1.3373952998996399
 31
0.0
  0
LINE
  5
30DC1
  8
0
  6
CONTINUOUS
 10
6.9421460747584538
 20
5.3373952998996401
 30
0.0
 11
6.9421460747584538
 21
1.3373952998996399
 31
0.0
  0
LINE
  5
30DC2
  8
0
  6
CONTINUOUS
 10
7.6921460747585684
 20
5.3373952998996401
 30
0.0
 11
7.6921460747584538
 21
1.7748952998996399
 31
0.0
  0
LINE
  5
30DC3
  8
FRAME_050
 10
13.38021391661823
 20
10.43596704186257
 30
0.0
 11
13.38021391661823
 21
-7.557743507831673
 31
0.0
  0
ENDBLK
  5
30DC5
  8
0
  0
BLOCK
  8
0
  2
A$C006841A6
 70
     0
 10
0.0
 20
0.0
 30
0.0
  3
A$C006841A6
  1

  0
INSERT
  5
34022
  8
0
  2
*U15
 10
0.0
 20
0.0
 30
0.0
  0
LINE
  5
34023
  8
0
 10
-0.0000012266760336
 20
0.7057871426268321
 30
0.0
 11
2.5393763673180838
 21
3.3106501187010049
 31
0.0
  0
LINE
  5
34024
  8
0
 10
3.4634478700036189
 20
3.012327822558404
 30
0.0
 11
3.478000177132571
 21
3.3106501187010049
 31
0.0
  0
LINE
  5
34025
  8
0
 10
1.701702382336975
 20
1.129493727227213
 30
0.0
 11
1.7292664227074961
 21
1.297540905015353
 31
0.0
  0
LINE
  5
34026
  8
0
 10
0.6694049012536425
 20
0.3638079250974897
 30
0.0
 11
0.6894674062073705
 21
0.4758716487958737
 31
0.0
  0
LINE
  5
34027
  8
0
 10
-0.0000012266760336
 20
0.7057871426268321
 30
0.0
 11
-0.0000012266760336
 21
0.0000002468748335
 31
0.0
  0
LINE
  5
34028
  8
0
 10
3.478000177132571
 20
3.3106501187010049
 30
0.0
 11
2.5393763673180838
 21
3.3106501187010049
 31
0.0
  0
LINE
  5
34029
  8
0
 10
3.354305566536822
 20
3.0123278225585182
 30
0.0
 11
3.4634478700036189
 21
3.012327822558404
 31
0.0
  0
LINE
  5
3402A
  8
0
 10
2.7940417420739432
 20
2.5321016873045892
 30
0.0
 11
2.859527124153999
 21
2.6121393765134822
 31
0.0
  0
LINE
  5
3402B
  8
0
 10
1.7292664227074961
 20
1.297540905015353
 30
0.0
 11
1.7845876698514751
 21
1.297540905015353
 31
0.0
  0
LINE
  5
3402C
  8
0
 10
1.5789240968102829
 20
1.1496325100583811
 30
0.0
 11
1.701702382336975
 21
1.129493727227213
 31
0.0
  0
LINE
  5
3402D
  8
0
 10
-0.0000012266760336
 20
0.0000002468748335
 30
0.0
 11
0.2910449159020913
 21
0.0000002468748335
 31
0.0
  0
POLYLINE
  8
0
  5
3B013
  66
     1
 10
0.000000
 20
0.000000
 30
0.000000
  70
     8
  0
VERTEX
  8
0
  5
3B014
 10
1.78459
 20
1.29754
 30
0.000000
  70
    32
  0
VERTEX
  8
0
  5
3B015
 10
1.78417
 20
1.30428
 30
0.000000
  70
    32
  0
VERTEX
  8
0
  5
3B016
 10
1.78375
 20
1.31103
 30
0.000000
  70
    32
  0
VERTEX
  8
0
  5
3B017
 10
1.78333
 20
1.31777
 30
0.000000
  70
    32
  0
VERTEX
  8
0
  5
3B018
 10
1.78291
 20
1.32451
 30
0.000000
  70
    32
  0
VERTEX
  8
0
  5
3B019
 10
1.78250
 20
1.33126
 30
0.000000
  70
    32
  0
VERTEX
  8
0
  5
3B01A
 10
1.78209
 20
1.33800
 30
0.000000
  70
    32
  0
VERTEX
  8
0
  5
3B01B
 10
1.78168
 20
1.34474
 30
0.000000
  70
    32
  0
VERTEX
  8
0
  5
3B01C
 10
1.78128
 20
1.35149
 30
0.000000
  70
    32
  0
VERTEX
  8
0
  5
3B01D
 10
1.78088
 20
1.35823
 30
0.000000
  70
    32
  0
VERTEX
  8
0
  5
3B01E
 10
1.78049
 20
1.36497
 30
0.000000
  70
    32
  0
VERTEX
  8
0
  5
3B01F
 10
1.78011
 20
1.37171
 30
0.000000
  70
    32
  0
VERTEX
  8
0
  5
3B020
 10
1.77973
 20
1.37846
 30
0.000000
  70
    32
  0
VERTEX
  8
0
  5
3B021
 10
1.77936
 20
1.38520
 30
0.000000
  70
    32
  0
VERTEX
  8
0
  5
3B022
 10
1.77900
 20
1.39194
 30
0.000000
  70
    32
  0
VERTEX
  8
0
  5
3B023
 10
1.77865
 20
1.39868
 30
0.000000
  70
    32
  0
VERTEX
  8
0
  5
3B024
 10
1.77831
 20
1.40542
 30
0.000000
  70
    32
  0
VERTEX
  8
0
  5
3B025
 10
1.77798
 20
1.41217
 30
0.000000
  70
    32
  0
VERTEX
  8
0
  5
3B026
 10
1.77766
 20
1.41891
 30
0.000000
  70
    32
  0
VERTEX
  8
0
  5
3B027
 10
1.77736
 20
1.42565
 30
0.000000
  70
    32
  0
VERTEX
  8
0
  5
3B028
 10
1.77706
 20
1.43239
 30
0.000000
  70
    32
  0
VERTEX
  8
0
  5
3B029
 10
1.77679
 20
1.43913
 30
0.000000
  70
    32
  0
VERTEX
  8
0
  5
3B02A
 10
1.77652
 20
1.44587
 30
0.000000
  70
    32
  0
VERTEX
  8
0
  5
3B02B
 10
1.77627
 20
1.45261
 30
0.000000
  70
    32
  0
VERTEX
  8
0
  5
3B02C
 10
1.77603
 20
1.45935
 30
0.000000
  70
    32
  0
VERTEX
  8
0
  5
3B02D
 10
1.77582
 20
1.46609
 30
0.000000
  70
    32
  0
VERTEX
  8
0
  5
3B02E
 10
1.77561
 20
1.47282
 30
0.000000
  70
    32
  0
VERTEX
  8
0
  5
3B02F
 10
1.77543
 20
1.47956
 30
0.000000
  70
    32
  0
VERTEX
  8
0
  5
3B030
 10
1.77526
 20
1.48630
 30
0.000000
  70
    32
  0
VERTEX
  8
0
  5
3B031
 10
1.77512
 20
1.49304
 30
0.000000
  70
    32
  0
VERTEX
  8
0
  5
3B032
 10
1.77499
 20
1.49977
 30
0.000000
  70
    32
  0
VERTEX
  8
0
  5
3B033
 10
1.77488
 20
1.50651
 30
0.000000
  70
    32
  0
VERTEX
  8
0
  5
3B034
 10
1.77479
 20
1.51325
 30
0.000000
  70
    32
  0
VERTEX
  8
0
  5
3B035
 10
1.77473
 20
1.51998
 30
0.000000
  70
    32
  0
VERTEX
  8
0
  5
3B036
 10
1.77469
 20
1.52672
 30
0.000000
  70
    32
  0
VERTEX
  8
0
  5
3B037
 10
1.77467
 20
1.53345
 30
0.000000
  70
    32
  0
VERTEX
  8
0
  5
3B038
 10
1.77467
 20
1.54019
 30
0.000000
  70
    32
  0
VERTEX
  8
0
  5
3B039
 10
1.77470
 20
1.54692
 30
0.000000
  70
    32
  0
VERTEX
  8
0
  5
3B03A
 10
1.77475
 20
1.55365
 30
0.000000
  70
    32
  0
VERTEX
  8
0
  5
3B03B
 10
1.77483
 20
1.56039
 30
0.000000
  70
    32
  0
VERTEX
  8
0
  5
3B03C
 10
1.77493
 20
1.56712
 30
0.000000
  70
    32
  0
VERTEX
  8
0
  5
3B03D
 10
1.77506
 20
1.57385
 30
0.000000
  70
    32
  0
VERTEX
  8
0
  5
3B03E
 10
1.77522
 20
1.58058
 30
0.000000
  70
    32
  0
VERTEX
  8
0
  5
3B03F
 10
1.77541
 20
1.58731
 30
0.000000
  70
    32
  0
VERTEX
  8
0
  5
3B040
 10
1.77563
 20
1.59404
 30
0.000000
  70
    32
  0
VERTEX
  8
0
  5
3B041
 10
1.77587
 20
1.60077
 30
0.000000
  70
    32
  0
VERTEX
  8
0
  5
3B042
 10
1.77615
 20
1.60749
 30
0.000000
  70
    32
  0
VERTEX
  8
0
  5
3B043
 10
1.77646
 20
1.61422
 30
0.000000
  70
    32
  0
VERTEX
  8
0
  5
3B044
 10
1.77680
 20
1.62095
 30
0.000000
  70
    32
  0
VERTEX
  8
0
  5
3B045
 10
1.77717
 20
1.62767
 30
0.000000
  70
    32
  0
VERTEX
  8
0
  5
3B046
 10
1.77757
 20
1.63440
 30
0.000000
  70
    32
  0
VERTEX
  8
0
  5
3B047
 10
1.77801
 20
1.64112
 30
0.000000
  70
    32
  0
VERTEX
  8
0
  5
3B048
 10
1.77848
 20
1.64785
 30
0.000000
  70
    32
  0
VERTEX
  8
0
  5
3B049
 10
1.77899
 20
1.65457
 30
0.000000
  70
    32
  0
VERTEX
  8
0
  5
3B04A
 10
1.77953
 20
1.66129
 30
0.000000
  70
    32
  0
VERTEX
  8
0
  5
3B04B
 10
1.78011
 20
1.66801
 30
0.000000
  70
    32
  0
VERTEX
  8
0
  5
3B04C
 10
1.78073
 20
1.67473
 30
0.000000
  70
    32
  0
VERTEX
  8
0
  5
3B04D
 10
1.78138
 20
1.68145
 30
0.000000
  70
    32
  0
VERTEX
  8
0
  5
3B04E
 10
1.78208
 20
1.68817
 30
0.000000
  70
    32
  0
VERTEX
  8
0
  5
3B04F
 10
1.78281
 20
1.69489
 30
0.000000
  70
    32
  0
VERTEX
  8
0
  5
3B050
 10
1.78358
 20
1.70161
 30
0.000000
  70
    32
  0
VERTEX
  8
0
  5
3B051
 10
1.78439
 20
1.70832
 30
0.000000
  70
    32
  0
VERTEX
  8
0
  5
3B052
 10
1.78524
 20
1.71504
 30
0.000000
  70
    32
  0
VERTEX
  8
0
  5
3B053
 10
1.78614
 20
1.72175
 30
0.000000
  70
    32
  0
VERTEX
  8
0
  5
3B054
 10
1.78707
 20
1.72847
 30
0.000000
  70
    32
  0
VERTEX
  8
0
  5
3B055
 10
1.78805
 20
1.73518
 30
0.000000
  70
    32
  0
VERTEX
  8
0
  5
3B056
 10
1.78907
 20
1.74189
 30
0.000000
  70
    32
  0
VERTEX
  8
0
  5
3B057
 10
1.79013
 20
1.74859
 30
0.000000
  70
    32
  0
VERTEX
  8
0
  5
3B058
 10
1.79122
 20
1.75530
 30
0.000000
  70
    32
  0
VERTEX
  8
0
  5
3B059
 10
1.79236
 20
1.76200
 30
0.000000
  70
    32
  0
VERTEX
  8
0
  5
3B05A
 10
1.79354
 20
1.76869
 30
0.000000
  70
    32
  0
VERTEX
  8
0
  5
3B05B
 10
1.79476
 20
1.77539
 30
0.000000
  70
    32
  0
VERTEX
  8
0
  5
3B05C
 10
1.79603
 20
1.78208
 30
0.000000
  70
    32
  0
VERTEX
  8
0
  5
3B05D
 10
1.79733
 20
1.78876
 30
0.000000
  70
    32
  0
VERTEX
  8
0
  5
3B05E
 10
1.79867
 20
1.79544
 30
0.000000
  70
    32
  0
VERTEX
  8
0
  5
3B05F
 10
1.80005
 20
1.80212
 30
0.000000
  70
    32
  0
VERTEX
  8
0
  5
3B060
 10
1.80147
 20
1.80879
 30
0.000000
  70
    32
  0
VERTEX
  8
0
  5
3B061
 10
1.80293
 20
1.81545
 30
0.000000
  70
    32
  0
VERTEX
  8
0
  5
3B062
 10
1.80443
 20
1.82211
 30
0.000000
  70
    32
  0
VERTEX
  8
0
  5
3B063
 10
1.80597
 20
1.82876
 30
0.000000
  70
    32
  0
VERTEX
  8
0
  5
3B064
 10
1.80755
 20
1.83541
 30
0.000000
  70
    32
  0
VERTEX
  8
0
  5
3B065
 10
1.80917
 20
1.84204
 30
0.000000
  70
    32
  0
VERTEX
  8
0
  5
3B066
 10
1.81083
 20
1.84868
 30
0.000000
  70
    32
  0
VERTEX
  8
0
  5
3B067
 10
1.81253
 20
1.85530
 30
0.000000
  70
    32
  0
VERTEX
  8
0
  5
3B068
 10
1.81427
 20
1.86192
 30
0.000000
  70
    32
  0
VERTEX
  8
0
  5
3B069
 10
1.81604
 20
1.86852
 30
0.000000
  70
    32
  0
VERTEX
  8
0
  5
3B06A
 10
1.81786
 20
1.87512
 30
0.000000
  70
    32
  0
VERTEX
  8
0
  5
3B06B
 10
1.81971
 20
1.88171
 30
0.000000
  70
    32
  0
VERTEX
  8
0
  5
3B06C
 10
1.82161
 20
1.88829
 30
0.000000
  70
    32
  0
VERTEX
  8
0
  5
3B06D
 10
1.82354
 20
1.89487
 30
0.000000
  70
    32
  0
VERTEX
  8
0
  5
3B06E
 10
1.82551
 20
1.90143
 30
0.000000
  70
    32
  0
VERTEX
  8
0
  5
3B06F
 10
1.82752
 20
1.90798
 30
0.000000
  70
    32
  0
VERTEX
  8
0
  5
3B070
 10
1.82957
 20
1.91452
 30
0.000000
  70
    32
  0
VERTEX
  8
0
  5
3B071
 10
1.83165
 20
1.92105
 30
0.000000
  70
    32
  0
VERTEX
  8
0
  5
3B072
 10
1.83378
 20
1.92757
 30
0.000000
  70
    32
  0
VERTEX
  8
0
  5
3B073
 10
1.83594
 20
1.93408
 30
0.000000
  70
    32
  0
VERTEX
  8
0
  5
3B074
 10
1.83814
 20
1.94058
 30
0.000000
  70
    32
  0
VERTEX
  8
0
  5
3B075
 10
1.84038
 20
1.94706
 30
0.000000
  70
    32
  0
VERTEX
  8
0
  5
3B076
 10
1.84266
 20
1.95353
 30
0.000000
  70
    32
  0
VERTEX
  8
0
  5
3B077
 10
1.84497
 20
1.95999
 30
0.000000
  70
    32
  0
VERTEX
  8
0
  5
3B078
 10
1.84733
 20
1.96644
 30
0.000000
  70
    32
  0
VERTEX
  8
0
  5
3B079
 10
1.84972
 20
1.97287
 30
0.000000
  70
    32
  0
VERTEX
  8
0
  5
3B07A
 10
1.85214
 20
1.97929
 30
0.000000
  70
    32
  0
VERTEX
  8
0
  5
3B07B
 10
1.85461
 20
1.98570
 30
0.000000
  70
    32
  0
VERTEX
  8
0
  5
3B07C
 10
1.85711
 20
1.99209
 30
0.000000
  70
    32
  0
VERTEX
  8
0
  5
3B07D
 10
1.85965
 20
1.99846
 30
0.000000
  70
    32
  0
VERTEX
  8
0
  5
3B07E
 10
1.86223
 20
2.00483
 30
0.000000
  70
    32
  0
VERTEX
  8
0
  5
3B07F
 10
1.86484
 20
2.01117
 30
0.000000
  70
    32
  0
VERTEX
  8
0
  5
3B080
 10
1.86749
 20
2.01750
 30
0.000000
  70
    32
  0
VERTEX
  8
0
  5
3B081
 10
1.87018
 20
2.02382
 30
0.000000
  70
    32
  0
VERTEX
  8
0
  5
3B082
 10
1.87290
 20
2.03012
 30
0.000000
  70
    32
  0
VERTEX
  8
0
  5
3B083
 10
1.87566
 20
2.03640
 30
0.000000
  70
    32
  0
VERTEX
  8
0
  5
3B084
 10
1.87846
 20
2.04266
 30
0.000000
  70
    32
  0
VERTEX
  8
0
  5
3B085
 10
1.88130
 20
2.04891
 30
0.000000
  70
    32
  0
VERTEX
  8
0
  5
3B086
 10
1.88417
 20
2.05514
 30
0.000000
  70
    32
  0
VERTEX
  8
0
  5
3B087
 10
1.88707
 20
2.06136
 30
0.000000
  70
    32
  0
VERTEX
  8
0
  5
3B088
 10
1.89002
 20
2.06755
 30
0.000000
  70
    32
  0
VERTEX
  8
0
  5
3B089
 10
1.89300
 20
2.07373
 30
0.000000
  70
    32
  0
VERTEX
  8
0
  5
3B08A
 10
1.89601
 20
2.07989
 30
0.000000
  70
    32
  0
VERTEX
  8
0
  5
3B08B
 10
1.89906
 20
2.08602
 30
0.000000
  70
    32
  0
VERTEX
  8
0
  5
3B08C
 10
1.90215
 20
2.09214
 30
0.000000
  70
    32
  0
VERTEX
  8
0
  5
3B08D
 10
1.90527
 20
2.09824
 30
0.000000
  70
    32
  0
VERTEX
  8
0
  5
3B08E
 10
1.90843
 20
2.10432
 30
0.000000
  70
    32
  0
VERTEX
  8
0
  5
3B08F
 10
1.91163
 20
2.11038
 30
0.000000
  70
    32
  0
VERTEX
  8
0
  5
3B090
 10
1.91486
 20
2.11642
 30
0.000000
  70
    32
  0
VERTEX
  8
0
  5
3B091
 10
1.91812
 20
2.12244
 30
0.000000
  70
    32
  0
VERTEX
  8
0
  5
3B092
 10
1.92142
 20
2.12843
 30
0.000000
  70
    32
  0
VERTEX
  8
0
  5
3B093
 10
1.92476
 20
2.13441
 30
0.000000
  70
    32
  0
VERTEX
  8
0
  5
3B094
 10
1.92813
 20
2.14036
 30
0.000000
  70
    32
  0
VERTEX
  8
0
  5
3B095
 10
1.93154
 20
2.14629
 30
0.000000
  70
    32
  0
VERTEX
  8
0
  5
3B096
 10
1.93498
 20
2.15220
 30
0.000000
  70
    32
  0
VERTEX
  8
0
  5
3B097
 10
1.93845
 20
2.15808
 30
0.000000
  70
    32
  0
VERTEX
  8
0
  5
3B098
 10
1.94196
 20
2.16395
 30
0.000000
  70
    32
  0
VERTEX
  8
0
  5
3B099
 10
1.94551
 20
2.16978
 30
0.000000
  70
    32
  0
VERTEX
  8
0
  5
3B09A
 10
1.94909
 20
2.17560
 30
0.000000
  70
    32
  0
VERTEX
  8
0
  5
3B09B
 10
1.95270
 20
2.18139
 30
0.000000
  70
    32
  0
VERTEX
  8
0
  5
3B09C
 10
1.95635
 20
2.18715
 30
0.000000
  70
    32
  0
VERTEX
  8
0
  5
3B09D
 10
1.96003
 20
2.19289
 30
0.000000
  70
    32
  0
VERTEX
  8
0
  5
3B09E
 10
1.96375
 20
2.19861
 30
0.000000
  70
    32
  0
VERTEX
  8
0
  5
3B09F
 10
1.96750
 20
2.20430
 30
0.000000
  70
    32
  0
VERTEX
  8
0
  5
3B0A0
 10
1.97128
 20
2.20996
 30
0.000000
  70
    32
  0
VERTEX
  8
0
  5
3B0A1
 10
1.97510
 20
2.21560
 30
0.000000
  70
    32
  0
VERTEX
  8
0
  5
3B0A2
 10
1.97895
 20
2.22121
 30
0.000000
  70
    32
  0
VERTEX
  8
0
  5
3B0A3
 10
1.98284
 20
2.22680
 30
0.000000
  70
    32
  0
VERTEX
  8
0
  5
3B0A4
 10
1.98676
 20
2.23236
 30
0.000000
  70
    32
  0
VERTEX
  8
0
  5
3B0A5
 10
1.99071
 20
2.23789
 30
0.000000
  70
    32
  0
VERTEX
  8
0
  5
3B0A6
 10
1.99470
 20
2.24339
 30
0.000000
  70
    32
  0
VERTEX
  8
0
  5
3B0A7
 10
1.99872
 20
2.24886
 30
0.000000
  70
    32
  0
VERTEX
  8
0
  5
3B0A8
 10
2.00277
 20
2.25431
 30
0.000000
  70
    32
  0
VERTEX
  8
0
  5
3B0A9
 10
2.00686
 20
2.25973
 30
0.000000
  70
    32
  0
VERTEX
  8
0
  5
3B0AA
 10
2.01098
 20
2.26512
 30
0.000000
  70
    32
  0
VERTEX
  8
0
  5
3B0AB
 10
2.01513
 20
2.27048
 30
0.000000
  70
    32
  0
VERTEX
  8
0
  5
3B0AC
 10
2.01932
 20
2.27581
 30
0.000000
  70
    32
  0
VERTEX
  8
0
  5
3B0AD
 10
2.02354
 20
2.28111
 30
0.000000
  70
    32
  0
VERTEX
  8
0
  5
3B0AE
 10
2.02779
 20
2.28637
 30
0.000000
  70
    32
  0
VERTEX
  8
0
  5
3B0AF
 10
2.03207
 20
2.29161
 30
0.000000
  70
    32
  0
VERTEX
  8
0
  5
3B0B0
 10
2.03639
 20
2.29682
 30
0.000000
  70
    32
  0
VERTEX
  8
0
  5
3B0B1
 10
2.04073
 20
2.30200
 30
0.000000
  70
    32
  0
VERTEX
  8
0
  5
3B0B2
 10
2.04511
 20
2.30714
 30
0.000000
  70
    32
  0
VERTEX
  8
0
  5
3B0B3
 10
2.04953
 20
2.31226
 30
0.000000
  70
    32
  0
VERTEX
  8
0
  5
3B0B4
 10
2.05397
 20
2.31734
 30
0.000000
  70
    32
  0
VERTEX
  8
0
  5
3B0B5
 10
2.05845
 20
2.32239
 30
0.000000
  70
    32
  0
VERTEX
  8
0
  5
3B0B6
 10
2.06296
 20
2.32741
 30
0.000000
  70
    32
  0
VERTEX
  8
0
  5
3B0B7
 10
2.06749
 20
2.33240
 30
0.000000
  70
    32
  0
VERTEX
  8
0
  5
3B0B8
 10
2.07206
 20
2.33735
 30
0.000000
  70
    32
  0
VERTEX
  8
0
  5
3B0B9
 10
2.07666
 20
2.34228
 30
0.000000
  70
    32
  0
VERTEX
  8
0
  5
3B0BA
 10
2.08129
 20
2.34717
 30
0.000000
  70
    32
  0
VERTEX
  8
0
  5
3B0BB
 10
2.08595
 20
2.35204
 30
0.000000
  70
    32
  0
VERTEX
  8
0
  5
3B0BC
 10
2.09065
 20
2.35688
 30
0.000000
  70
    32
  0
VERTEX
  8
0
  5
3B0BD
 10
2.09537
 20
2.36168
 30
0.000000
  70
    32
  0
VERTEX
  8
0
  5
3B0BE
 10
2.10011
 20
2.36646
 30
0.000000
  70
    32
  0
VERTEX
  8
0
  5
3B0BF
 10
2.10489
 20
2.37120
 30
0.000000
  70
    32
  0
VERTEX
  8
0
  5
3B0C0
 10
2.10970
 20
2.37592
 30
0.000000
  70
    32
  0
VERTEX
  8
0
  5
3B0C1
 10
2.11454
 20
2.38060
 30
0.000000
  70
    32
  0
VERTEX
  8
0
  5
3B0C2
 10
2.11940
 20
2.38526
 30
0.000000
  70
    32
  0
VERTEX
  8
0
  5
3B0C3
 10
2.12429
 20
2.38989
 30
0.000000
  70
    32
  0
VERTEX
  8
0
  5
3B0C4
 10
2.12921
 20
2.39449
 30
0.000000
  70
    32
  0
VERTEX
  8
0
  5
3B0C5
 10
2.13416
 20
2.39906
 30
0.000000
  70
    32
  0
VERTEX
  8
0
  5
3B0C6
 10
2.13913
 20
2.40360
 30
0.000000
  70
    32
  0
VERTEX
  8
0
  5
3B0C7
 10
2.14413
 20
2.40812
 30
0.000000
  70
    32
  0
VERTEX
  8
0
  5
3B0C8
 10
2.14916
 20
2.41260
 30
0.000000
  70
    32
  0
VERTEX
  8
0
  5
3B0C9
 10
2.15421
 20
2.41706
 30
0.000000
  70
    32
  0
VERTEX
  8
0
  5
3B0CA
 10
2.15929
 20
2.42149
 30
0.000000
  70
    32
  0
VERTEX
  8
0
  5
3B0CB
 10
2.16440
 20
2.42590
 30
0.000000
  70
    32
  0
VERTEX
  8
0
  5
3B0CC
 10
2.16953
 20
2.43027
 30
0.000000
  70
    32
  0
VERTEX
  8
0
  5
3B0CD
 10
2.17468
 20
2.43462
 30
0.000000
  70
    32
  0
VERTEX
  8
0
  5
3B0CE
 10
2.17986
 20
2.43894
 30
0.000000
  70
    32
  0
VERTEX
  8
0
  5
3B0CF
 10
2.18507
 20
2.44324
 30
0.000000
  70
    32
  0
VERTEX
  8
0
  5
3B0D0
 10
2.19030
 20
2.44751
 30
0.000000
  70
    32
  0
VERTEX
  8
0
  5
3B0D1
 10
2.19555
 20
2.45175
 30
0.000000
  70
    32
  0
VERTEX
  8
0
  5
3B0D2
 10
2.20083
 20
2.45596
 30
0.000000
  70
    32
  0
VERTEX
  8
0
  5
3B0D3
 10
2.20613
 20
2.46015
 30
0.000000
  70
    32
  0
VERTEX
  8
0
  5
3B0D4
 10
2.21146
 20
2.46432
 30
0.000000
  70
    32
  0
VERTEX
  8
0
  5
3B0D5
 10
2.21681
 20
2.46845
 30
0.000000
  70
    32
  0
VERTEX
  8
0
  5
3B0D6
 10
2.22218
 20
2.47257
 30
0.000000
  70
    32
  0
VERTEX
  8
0
  5
3B0D7
 10
2.22757
 20
2.47665
 30
0.000000
  70
    32
  0
VERTEX
  8
0
  5
3B0D8
 10
2.23299
 20
2.48071
 30
0.000000
  70
    32
  0
VERTEX
  8
0
  5
3B0D9
 10
2.23843
 20
2.48475
 30
0.000000
  70
    32
  0
VERTEX
  8
0
  5
3B0DA
 10
2.24389
 20
2.48876
 30
0.000000
  70
    32
  0
VERTEX
  8
0
  5
3B0DB
 10
2.24937
 20
2.49275
 30
0.000000
  70
    32
  0
VERTEX
  8
0
  5
3B0DC
 10
2.25488
 20
2.49671
 30
0.000000
  70
    32
  0
VERTEX
  8
0
  5
3B0DD
 10
2.26040
 20
2.50065
 30
0.000000
  70
    32
  0
VERTEX
  8
0
  5
3B0DE
 10
2.26594
 20
2.50456
 30
0.000000
  70
    32
  0
VERTEX
  8
0
  5
3B0DF
 10
2.27151
 20
2.50845
 30
0.000000
  70
    32
  0
VERTEX
  8
0
  5
3B0E0
 10
2.27710
 20
2.51232
 30
0.000000
  70
    32
  0
VERTEX
  8
0
  5
3B0E1
 10
2.28270
 20
2.51616
 30
0.000000
  70
    32
  0
VERTEX
  8
0
  5
3B0E2
 10
2.28833
 20
2.51998
 30
0.000000
  70
    32
  0
VERTEX
  8
0
  5
3B0E3
 10
2.29397
 20
2.52378
 30
0.000000
  70
    32
  0
VERTEX
  8
0
  5
3B0E4
 10
2.29963
 20
2.52755
 30
0.000000
  70
    32
  0
VERTEX
  8
0
  5
3B0E5
 10
2.30532
 20
2.53130
 30
0.000000
  70
    32
  0
VERTEX
  8
0
  5
3B0E6
 10
2.31102
 20
2.53503
 30
0.000000
  70
    32
  0
VERTEX
  8
0
  5
3B0E7
 10
2.31674
 20
2.53873
 30
0.000000
  70
    32
  0
VERTEX
  8
0
  5
3B0E8
 10
2.32248
 20
2.54240
 30
0.000000
  70
    32
  0
VERTEX
  8
0
  5
3B0E9
 10
2.32824
 20
2.54603
 30
0.000000
  70
    32
  0
VERTEX
  8
0
  5
3B0EA
 10
2.33403
 20
2.54963
 30
0.000000
  70
    32
  0
VERTEX
  8
0
  5
3B0EB
 10
2.33983
 20
2.55319
 30
0.000000
  70
    32
  0
VERTEX
  8
0
  5
3B0EC
 10
2.34567
 20
2.55670
 30
0.000000
  70
    32
  0
VERTEX
  8
0
  5
3B0ED
 10
2.35152
 20
2.56016
 30
0.000000
  70
    32
  0
VERTEX
  8
0
  5
3B0EE
 10
2.35741
 20
2.56357
 30
0.000000
  70
    32
  0
VERTEX
  8
0
  5
3B0EF
 10
2.36332
 20
2.56691
 30
0.000000
  70
    32
  0
VERTEX
  8
0
  5
3B0F0
 10
2.36925
 20
2.57020
 30
0.000000
  70
    32
  0
VERTEX
  8
0
  5
3B0F1
 10
2.37522
 20
2.57341
 30
0.000000
  70
    32
  0
VERTEX
  8
0
  5
3B0F2
 10
2.38122
 20
2.57656
 30
0.000000
  70
    32
  0
VERTEX
  8
0
  5
3B0F3
 10
2.38725
 20
2.57963
 30
0.000000
  70
    32
  0
VERTEX
  8
0
  5
3B0F4
 10
2.39331
 20
2.58263
 30
0.000000
  70
    32
  0
VERTEX
  8
0
  5
3B0F5
 10
2.39940
 20
2.58554
 30
0.000000
  70
    32
  0
VERTEX
  8
0
  5
3B0F6
 10
2.40553
 20
2.58836
 30
0.000000
  70
    32
  0
VERTEX
  8
0
  5
3B0F7
 10
2.41169
 20
2.59109
 30
0.000000
  70
    32
  0
VERTEX
  8
0
  5
3B0F8
 10
2.41789
 20
2.59373
 30
0.000000
  70
    32
  0
VERTEX
  8
0
  5
3B0F9
 10
2.42413
 20
2.59627
 30
0.000000
  70
    32
  0
VERTEX
  8
0
  5
3B0FA
 10
2.43040
 20
2.59870
 30
0.000000
  70
    32
  0
VERTEX
  8
0
  5
3B0FB
 10
2.43671
 20
2.60103
 30
0.000000
  70
    32
  0
VERTEX
  8
0
  5
3B0FC
 10
2.44306
 20
2.60324
 30
0.000000
  70
    32
  0
VERTEX
  8
0
  5
3B0FD
 10
2.44946
 20
2.60534
 30
0.000000
  70
    32
  0
VERTEX
  8
0
  5
3B0FE
 10
2.45589
 20
2.60732
 30
0.000000
  70
    32
  0
VERTEX
  8
0
  5
3B0FF
 10
2.46237
 20
2.60918
 30
0.000000
  70
    32
  0
VERTEX
  8
0
  5
3B100
 10
2.46889
 20
2.61091
 30
0.000000
  70
    32
  0
VERTEX
  8
0
  5
3B101
 10
2.47546
 20
2.61251
 30
0.000000
  70
    32
  0
VERTEX
  8
0
  5
3B102
 10
2.48207
 20
2.61397
 30
0.000000
  70
    32
  0
VERTEX
  8
0
  5
3B103
 10
2.48872
 20
2.61530
 30
0.000000
  70
    32
  0
VERTEX
  8
0
  5
3B104
 10
2.49540
 20
2.61649
 30
0.000000
  70
    32
  0
VERTEX
  8
0
  5
3B105
 10
2.50212
 20
2.61754
 30
0.000000
  70
    32
  0
VERTEX
  8
0
  5
3B106
 10
2.50887
 20
2.61846
 30
0.000000
  70
    32
  0
VERTEX
  8
0
  5
3B107
 10
2.51564
 20
2.61924
 30
0.000000
  70
    32
  0
VERTEX
  8
0
  5
3B108
 10
2.52243
 20
2.61989
 30
0.000000
  70
    32
  0
VERTEX
  8
0
  5
3B109
 10
2.52923
 20
2.62039
 30
0.000000
  70
    32
  0
VERTEX
  8
0
  5
3B10A
 10
2.53605
 20
2.62076
 30
0.000000
  70
    32
  0
VERTEX
  8
0
  5
3B10B
 10
2.54287
 20
2.62099
 30
0.000000
  70
    32
  0
VERTEX
  8
0
  5
3B10C
 10
2.54969
 20
2.62108
 30
0.000000
  70
    32
  0
VERTEX
  8
0
  5
3B10D
 10
2.55651
 20
2.62104
 30
0.000000
  70
    32
  0
VERTEX
  8
0
  5
3B10E
 10
2.56333
 20
2.62085
 30
0.000000
  70
    32
  0
VERTEX
  8
0
  5
3B10F
 10
2.57014
 20
2.62052
 30
0.000000
  70
    32
  0
VERTEX
  8
0
  5
3B110
 10
2.57693
 20
2.62006
 30
0.000000
  70
    32
  0
VERTEX
  8
0
  5
3B111
 10
2.58370
 20
2.61945
 30
0.000000
  70
    32
  0
VERTEX
  8
0
  5
3B112
 10
2.59046
 20
2.61870
 30
0.000000
  70
    32
  0
VERTEX
  8
0
  5
3B113
 10
2.59718
 20
2.61782
 30
0.000000
  70
    32
  0
VERTEX
  8
0
  5
3B114
 10
2.60388
 20
2.61679
 30
0.000000
  70
    32
  0
VERTEX
  8
0
  5
3B115
 10
2.61053
 20
2.61562
 30
0.000000
  70
    32
  0
VERTEX
  8
0
  5
3B116
 10
2.61715
 20
2.61430
 30
0.000000
  70
    32
  0
VERTEX
  8
0
  5
3B117
 10
2.62373
 20
2.61285
 30
0.000000
  70
    32
  0
VERTEX
  8
0
  5
3B118
 10
2.63026
 20
2.61125
 30
0.000000
  70
    32
  0
VERTEX
  8
0
  5
3B119
 10
2.63674
 20
2.60951
 30
0.000000
  70
    32
  0
VERTEX
  8
0
  5
3B11A
 10
2.64317
 20
2.60763
 30
0.000000
  70
    32
  0
VERTEX
  8
0
  5
3B11B
 10
2.64956
 20
2.60563
 30
0.000000
  70
    32
  0
VERTEX
  8
0
  5
3B11C
 10
2.65590
 20
2.60350
 30
0.000000
  70
    32
  0
VERTEX
  8
0
  5
3B11D
 10
2.66221
 20
2.60125
 30
0.000000
  70
    32
  0
VERTEX
  8
0
  5
3B11E
 10
2.66847
 20
2.59889
 30
0.000000
  70
    32
  0
VERTEX
  8
0
  5
3B11F
 10
2.67470
 20
2.59642
 30
0.000000
  70
    32
  0
VERTEX
  8
0
  5
3B120
 10
2.68089
 20
2.59385
 30
0.000000
  70
    32
  0
VERTEX
  8
0
  5
3B121
 10
2.68704
 20
2.59117
 30
0.000000
  70
    32
  0
VERTEX
  8
0
  5
3B122
 10
2.69316
 20
2.58841
 30
0.000000
  70
    32
  0
VERTEX
  8
0
  5
3B123
 10
2.69926
 20
2.58555
 30
0.000000
  70
    32
  0
VERTEX
  8
0
  5
3B124
 10
2.70532
 20
2.58261
 30
0.000000
  70
    32
  0
VERTEX
  8
0
  5
3B125
 10
2.71136
 20
2.57960
 30
0.000000
  70
    32
  0
VERTEX
  8
0
  5
3B126
 10
2.71737
 20
2.57651
 30
0.000000
  70
    32
  0
VERTEX
  8
0
  5
3B127
 10
2.72336
 20
2.57335
 30
0.000000
  70
    32
  0
VERTEX
  8
0
  5
3B128
 10
2.72932
 20
2.57013
 30
0.000000
  70
    32
  0
VERTEX
  8
0
  5
3B129
 10
2.73527
 20
2.56686
 30
0.000000
  70
    32
  0
VERTEX
  8
0
  5
3B12A
 10
2.74120
 20
2.56353
 30
0.000000
  70
    32
  0
VERTEX
  8
0
  5
3B12B
 10
2.74711
 20
2.56016
 30
0.000000
  70
    32
  0
VERTEX
  8
0
  5
3B12C
 10
2.75301
 20
2.55674
 30
0.000000
  70
    32
  0
VERTEX
  8
0
  5
3B12D
 10
2.75889
 20
2.55329
 30
0.000000
  70
    32
  0
VERTEX
  8
0
  5
3B12E
 10
2.76477
 20
2.54980
 30
0.000000
  70
    32
  0
VERTEX
  8
0
  5
3B12F
 10
2.77063
 20
2.54629
 30
0.000000
  70
    32
  0
VERTEX
  8
0
  5
3B130
 10
2.77649
 20
2.54276
 30
0.000000
  70
    32
  0
VERTEX
  8
0
  5
3B131
 10
2.78234
 20
2.53922
 30
0.000000
  70
    32
  0
VERTEX
  8
0
  5
3B132
 10
2.78819
 20
2.53566
 30
0.000000
  70
    32
  0
VERTEX
  8
0
  5
3B133
 10
2.79404
 20
2.53210
 30
0.000000
  70
    32
  0
SEQEND
  8
0
  5
3B134
  0
ARC
  5
3402F
  8
0
 10
3.0617125534294578
 20
2.868121924086608
 30
0.0
 40
0.3261993446855973
 50
231.69688545872461
 51
26.236608528874651
  0
ARC
  5
34030
  8
0
 10
0.6122563205008192
 20
0.0445914175862754
 30
0.0
 40
0.3242917497404281
 50
79.849998631994751
 51
187.90339593985709
  0
ARC
  5
34031
  8
0
 10
0.9549503586443962
 20
1.049380567529397
 30
0.0
 40
0.631976010542801
 50
245.1601149185781
 51
9.1275312838388327
  0
ENDBLK
  5
34033
  8
0
  0
BLOCK
  8
0
  2
*U10
 70
     1
 10
0.0
 20
0.0
 30
0.0
  3
*U10
  1

  0
TEXT
  5
3AF01
  8
0
 10
3.5177832928899071
 20
10.38601584255777
 30
0.0
 40
0.125
  1
Crown Moulding
  0
TEXT
  5
3AF02
  8
0
 10
3.5223876585106431
 20
10.17717091304435
 30
0.0
 40
0.125
  1
TL-AB509
  0
TEXT
  5
3AF03
  8
0
 10
3.5074661032582561
 20
9.9667059289606801
 30
0.0
 40
0.125
  1
1-5/16" x 7-9/16"
  0
TEXT
  5
3AF04
  8
0
 10
3.519403347460166
 20
9.7562409448770051
 30
0.0
 40
0.125
  1
800.66.TAGUE
  0
ENDBLK
  5
3AF06
  8
0
  0
BLOCK
  8
0
  2
*U11
 70
     1
 10
0.0
 20
0.0
 30
0.0
  3
*U11
  1

  0
TEXT
  5
3AF08
  8
0
 10
1.4086740032724709
 20
13.04264108713495
 30
0.0
 40
0.125
  1
Casing
  0
TEXT
  5
3AF09
  8
0
 10
1.4132783688932069
 20
12.83379615762154
 30
0.0
 40
0.125
  1
TL-2019
  0
TEXT
  5
3AF0A
  8
0
 10
1.39835681364082
 20
12.62333117353786
 30
0.0
 40
0.125
  1
1-1/16" x 5-1/2"
  0
TEXT
  5
3AF0B
  8
0
 10
1.4102940578427301
 20
12.41286618945419
 30
0.0
 40
0.125
  1
800.66.TAGUE
  0
ENDBLK
  5
3AF0D
  8
0
  0
BLOCK
  8
0
  2
*U12
 70
     1
 10
0.0
 20
0.0
 30
0.0
  3
*U12
  1

  0
TEXT
  5
3AF0F
  8
0
 10
1.9061884295105971
 20
11.78127341408482
 30
0.0
 40
0.125
  1
Casing
  0
TEXT
  5
3AF10
  8
0
 10
1.9107927951313339
 20
11.572428484571409
 30
0.0
 40
0.125
  1
TL-2318
  0
TEXT
  5
3AF11
  8
0
 10
1.8958712398789459
 20
11.361963500487731
 30
0.0
 40
0.125
  1
13/16" x 2-1/2"
  0
TEXT
  5
3AF12
  8
0
 10
1.907808484080856
 20
11.151498516404059
 30
0.0
 40
0.125
  1
800.66.TAGUE
  0
ENDBLK
  5
3AF14
  8
0
  0
BLOCK
  8
0
  2
*U13
 70
     1
 10
0.0
 20
0.0
 30
0.0
  3
*U13
  1

  0
TEXT
  5
3AF16
  8
0
 10
2.2380648505203782
 20
10.70752122569969
 30
0.0
 40
0.125
  1
Casing Assembly
  0
TEXT
  5
3AF17
  8
0
 10
2.242669216141115
 20
10.498676296186281
 30
0.0
 40
0.125
  1
TL-2225
  0
TEXT
  5
3AF18
  8
0
 10
2.2277476608887281
 20
10.2882113121026
 30
0.0
 40
0.125
  1
1-9/16" x 4-1/2"
  0
TEXT
  5
3AF19
  8
0
 10
2.239684905090638
 20
10.077746328018931
 30
0.0
 40
0.125
  1
800.66.TAGUE
  0
ENDBLK
  5
3AF1B
  8
0
  0
BLOCK
  8
0
  2
*U14
 70
     1
 10
0.0
 20
0.0
 30
0.0
  3
*U14
  1

  0
TEXT
  5
3AF1D
  8
0
 10
8.9871190848671514
 20
3.8959346082645121
 30
0.0
 40
0.125
  1
Cove
  0
TEXT
  5
3AF1E
  8
0
 10
8.9917234504878873
 20
3.6870896787510969
 30
0.0
 40
0.125
  1
TL-542
  0
TEXT
  5
3AF1F
  8
0
 10
8.9884833413473686
 20
3.4766246946674229
 30
0.0
 40
0.125
  1
3/4" x 4"
  0
TEXT
  5
3AF20
  8
0
 10
8.9887391394374099
 20
3.2661597105837492
 30
0.0
 40
0.125
  1
800.66.TAGUE
  0
ENDBLK
  5
3AF22
  8
0
  0
BLOCK
  8
0
  2
*U15
 70
     1
 10
0.0
 20
0.0
 30
0.0
  3
*U15
  1

  0
TEXT
  5
3AF24
  8
0
 10
2.4033085465245891
 20
1.114063668743499
 30
0.0
 40
0.125
  1
Crown Moulding
  0
TEXT
  5
3AF25
  8
0
 10
2.407912912145326
 20
0.9052187392300845
 30
0.0
 40
0.125
  1
TL-735
  0
TEXT
  5
3AF26
  8
0
 10
2.3929913568929391
 20
0.6947537551464099
 30
0.0
 40
0.125
  1
1-1/16" x 4-13/16"
  0
TEXT
  5
3AF27
  8
0
 10
2.4049286010948481
 20
0.4842887710627356
 30
0.0
 40
0.125
  1
800.66.TAGUE
  0
ENDBLK
  5
3AF29
  8
0
  0
BLOCK
  8
0
  2
*U16
 70
     1
 10
0.0
 20
0.0
 30
0.0
  3
*U16
  1

  0
TEXT
  5
3AF2B
  8
0
 10
-364.91318980802771
 20
858.13615274275207
 30
0.0
 40
0.125
  1
Crown
  0
TEXT
  5
3AF2C
  8
0
 10
-364.908585442407
 20
857.9273078132386
 30
0.0
 40
0.125
  1
TL-2300
  0
TEXT
  5
3AF2D
  8
0
 10
-364.91182555154751
 20
857.71684282915498
 30
0.0
 40
0.125
  1
3/4" x 3-1/2"
  0
TEXT
  5
3AF2E
  8
0
 10
-364.91156975345751
 20
857.50637784507126
 30
0.0
 40
0.125
  1
800.66.TAGUE
  0
ENDBLK
  5
3AF30
  8
0
  0
ENDSEC
  0
SECTION
  2
ENTITIES
  0
LINE
  5
3AED8
  8
0
 10
-367.31996827390282
 20
857.02125437767495
 30
0.0
 11
-367.11601057375458
 21
857.02125437767495
 31
0.0
  0
LINE
  5
3AED9
  8
0
 10
-366.52630731340003
 20
857.72145447641458
 30
0.0
 11
-366.37555590478581
 21
857.72145447641458
 31
0.0
  0
LINE
  5
3AEDA
  8
0
 10
-366.37555590478581
 20
857.72145447641458
 30
0.0
 11
-366.37555590478581
 21
857.89428869730432
 31
0.0
  0
LINE
  5
3AEDB
  8
0
 10
-365.00028356980039
 20
859.04830349958229
 30
0.0
 11
-365.00028356980039
 21
859.6421440879742
 31
0.0
  0
POLYLINE
  8
0
  5
3B135
  66
     1
 10
0.000000
 20
0.000000
 30
0.000000
  70
     8
  0
VERTEX
  8
0
  5
3B136
 10
-365.000
 20
859.048
 30
0.000000
  70
    32
  0
VERTEX
  8
0
  5
3B137
 10
-365.005
 20
859.048
 30
0.000000
  70
    32
  0
VERTEX
  8
0
  5
3B138
 10
-365.010
 20
859.048
 30
0.000000
  70
    32
  0
VERTEX
  8
0
  5
3B139
 10
-365.016
 20
859.048
 30
0.000000
  70
    32
  0
VERTEX
  8
0
  5
3B13A
 10
-365.021
 20
859.048
 30
0.000000
  70
    32
  0
VERTEX
  8
0
  5
3B13B
 10
-365.026
 20
859.048
 30
0.000000
  70
    32
  0
VERTEX
  8
0
  5
3B13C
 10
-365.031
 20
859.047
 30
0.000000
  70
    32
  0
VERTEX
  8
0
  5
3B13D
 10
-365.036
 20
859.047
 30
0.000000
  70
    32
  0
VERTEX
  8
0
  5
3B13E
 10
-365.041
 20
859.047
 30
0.000000
  70
    32
  0
VERTEX
  8
0
  5
3B13F
 10
-365.046
 20
859.047
 30
0.000000
  70
    32
  0
VERTEX
  8
0
  5
3B140
 10
-365.051
 20
859.046
 30
0.000000
  70
    32
  0
VERTEX
  8
0
  5
3B141
 10
-365.057
 20
859.046
 30
0.000000
  70
    32
  0
VERTEX
  8
0
  5
3B142
 10
-365.062
 20
859.046
 30
0.000000
  70
    32
  0
VERTEX
  8
0
  5
3B143
 10
-365.067
 20
859.046
 30
0.000000
  70
    32
  0
VERTEX
  8
0
  5
3B144
 10
-365.072
 20
859.045
 30
0.000000
  70
    32
  0
VERTEX
  8
0
  5
3B145
 10
-365.077
 20
859.045
 30
0.000000
  70
    32
  0
VERTEX
  8
0
  5
3B146
 10
-365.082
 20
859.044
 30
0.000000
  70
    32
  0
VERTEX
  8
0
  5
3B147
 10
-365.087
 20
859.044
 30
0.000000
  70
    32
  0
VERTEX
  8
0
  5
3B148
 10
-365.092
 20
859.044
 30
0.000000
  70
    32
  0
VERTEX
  8
0
  5
3B149
 10
-365.098
 20
859.043
 30
0.000000
  70
    32
  0
VERTEX
  8
0
  5
3B14A
 10
-365.103
 20
859.043
 30
0.000000
  70
    32
  0
VERTEX
  8
0
  5
3B14B
 10
-365.108
 20
859.042
 30
0.000000
  70
    32
  0
VERTEX
  8
0
  5
3B14C
 10
-365.113
 20
859.042
 30
0.000000
  70
    32
  0
VERTEX
  8
0
  5
3B14D
 10
-365.118
 20
859.041
 30
0.000000
  70
    32
  0
VERTEX
  8
0
  5
3B14E
 10
-365.123
 20
859.040
 30
0.000000
  70
    32
  0
VERTEX
  8
0
  5
3B14F
 10
-365.128
 20
859.040
 30
0.000000
  70
    32
  0
VERTEX
  8
0
  5
3B150
 10
-365.133
 20
859.039
 30
0.000000
  70
    32
  0
VERTEX
  8
0
  5
3B151
 10
-365.138
 20
859.038
 30
0.000000
  70
    32
  0
VERTEX
  8
0
  5
3B152
 10
-365.143
 20
859.038
 30
0.000000
  70
    32
  0
VERTEX
  8
0
  5
3B153
 10
-365.148
 20
859.037
 30
0.000000
  70
    32
  0
VERTEX
  8
0
  5
3B154
 10
-365.153
 20
859.036
 30
0.000000
  70
    32
  0
VERTEX
  8
0
  5
3B155
 10
-365.158
 20
859.035
 30
0.000000
  70
    32
  0
VERTEX
  8
0
  5
3B156
 10
-365.163
 20
859.034
 30
0.000000
  70
    32
  0
VERTEX
  8
0
  5
3B157
 10
-365.168
 20
859.033
 30
0.000000
  70
    32
  0
VERTEX
  8
0
  5
3B158
 10
-365.173
 20
859.032
 30
0.000000
  70
    32
  0
VERTEX
  8
0
  5
3B159
 10
-365.178
 20
859.031
 30
0.000000
  70
    32
  0
VERTEX
  8
0
  5
3B15A
 10
-365.183
 20
859.030
 30
0.000000
  70
    32
  0
VERTEX
  8
0
  5
3B15B
 10
-365.188
 20
859.029
 30
0.000000
  70
    32
  0
VERTEX
  8
0
  5
3B15C
 10
-365.193
 20
859.028
 30
0.000000
  70
    32
  0
VERTEX
  8
0
  5
3B15D
 10
-365.198
 20
859.027
 30
0.000000
  70
    32
  0
VERTEX
  8
0
  5
3B15E
 10
-365.203
 20
859.025
 30
0.000000
  70
    32
  0
VERTEX
  8
0
  5
3B15F
 10
-365.208
 20
859.024
 30
0.000000
  70
    32
  0
VERTEX
  8
0
  5
3B160
 10
-365.213
 20
859.023
 30
0.000000
  70
    32
  0
VERTEX
  8
0
  5
3B161
 10
-365.218
 20
859.021
 30
0.000000
  70
    32
  0
VERTEX
  8
0
  5
3B162
 10
-365.223
 20
859.020
 30
0.000000
  70
    32
  0
VERTEX
  8
0
  5
3B163
 10
-365.228
 20
859.018
 30
0.000000
  70
    32
  0
VERTEX
  8
0
  5
3B164
 10
-365.232
 20
859.017
 30
0.000000
  70
    32
  0
VERTEX
  8
0
  5
3B165
 10
-365.237
 20
859.015
 30
0.000000
  70
    32
  0
VERTEX
  8
0
  5
3B166
 10
-365.242
 20
859.013
 30
0.000000
  70
    32
  0
VERTEX
  8
0
  5
3B167
 10
-365.247
 20
859.012
 30
0.000000
  70
    32
  0
VERTEX
  8
0
  5
3B168
 10
-365.252
 20
859.010
 30
0.000000
  70
    32
  0
VERTEX
  8
0
  5
3B169
 10
-365.256
 20
859.008
 30
0.000000
  70
    32
  0
VERTEX
  8
0
  5
3B16A
 10
-365.261
 20
859.006
 30
0.000000
  70
    32
  0
VERTEX
  8
0
  5
3B16B
 10
-365.266
 20
859.004
 30
0.000000
  70
    32
  0
VERTEX
  8
0
  5
3B16C
 10
-365.271
 20
859.002
 30
0.000000
  70
    32
  0
VERTEX
  8
0
  5
3B16D
 10
-365.275
 20
859.000
 30
0.000000
  70
    32
  0
VERTEX
  8
0
  5
3B16E
 10
-365.280
 20
858.998
 30
0.000000
  70
    32
  0
VERTEX
  8
0
  5
3B16F
 10
-365.285
 20
858.996
 30
0.000000
  70
    32
  0
VERTEX
  8
0
  5
3B170
 10
-365.289
 20
858.994
 30
0.000000
  70
    32
  0
VERTEX
  8
0
  5
3B171
 10
-365.294
 20
858.992
 30
0.000000
  70
    32
  0
VERTEX
  8
0
  5
3B172
 10
-365.299
 20
858.990
 30
0.000000
  70
    32
  0
VERTEX
  8
0
  5
3B173
 10
-365.303
 20
858.987
 30
0.000000
  70
    32
  0
VERTEX
  8
0
  5
3B174
 10
-365.308
 20
858.985
 30
0.000000
  70
    32
  0
VERTEX
  8
0
  5
3B175
 10
-365.312
 20
858.983
 30
0.000000
  70
    32
  0
VERTEX
  8
0
  5
3B176
 10
-365.317
 20
858.980
 30
0.000000
  70
    32
  0
VERTEX
  8
0
  5
3B177
 10
-365.322
 20
858.978
 30
0.000000
  70
    32
  0
VERTEX
  8
0
  5
3B178
 10
-365.326
 20
858.976
 30
0.000000
  70
    32
  0
VERTEX
  8
0
  5
3B179
 10
-365.331
 20
858.973
 30
0.000000
  70
    32
  0
VERTEX
  8
0
  5
3B17A
 10
-365.335
 20
858.971
 30
0.000000
  70
    32
  0
VERTEX
  8
0
  5
3B17B
 10
-365.340
 20
858.968
 30
0.000000
  70
    32
  0
VERTEX
  8
0
  5
3B17C
 10
-365.344
 20
858.965
 30
0.000000
  70
    32
  0
VERTEX
  8
0
  5
3B17D
 10
-365.348
 20
858.963
 30
0.000000
  70
    32
  0
VERTEX
  8
0
  5
3B17E
 10
-365.353
 20
858.960
 30
0.000000
  70
    32
  0
VERTEX
  8
0
  5
3B17F
 10
-365.357
 20
858.957
 30
0.000000
  70
    32
  0
VERTEX
  8
0
  5
3B180
 10
-365.362
 20
858.955
 30
0.000000
  70
    32
  0
VERTEX
  8
0
  5
3B181
 10
-365.366
 20
858.952
 30
0.000000
  70
    32
  0
VERTEX
  8
0
  5
3B182
 10
-365.370
 20
858.949
 30
0.000000
  70
    32
  0
VERTEX
  8
0
  5
3B183
 10
-365.375
 20
858.946
 30
0.000000
  70
    32
  0
VERTEX
  8
0
  5
3B184
 10
-365.379
 20
858.943
 30
0.000000
  70
    32
  0
VERTEX
  8
0
  5
3B185
 10
-365.383
 20
858.941
 30
0.000000
  70
    32
  0
VERTEX
  8
0
  5
3B186
 10
-365.388
 20
858.938
 30
0.000000
  70
    32
  0
VERTEX
  8
0
  5
3B187
 10
-365.392
 20
858.935
 30
0.000000
  70
    32
  0
VERTEX
  8
0
  5
3B188
 10
-365.396
 20
858.932
 30
0.000000
  70
    32
  0
VERTEX
  8
0
  5
3B189
 10
-365.400
 20
858.929
 30
0.000000
  70
    32
  0
VERTEX
  8
0
  5
3B18A
 10
-365.404
 20
858.926
 30
0.000000
  70
    32
  0
VERTEX
  8
0
  5
3B18B
 10
-365.409
 20
858.923
 30
0.000000
  70
    32
  0
VERTEX
  8
0
  5
3B18C
 10
-365.413
 20
858.919
 30
0.000000
  70
    32
  0
VERTEX
  8
0
  5
3B18D
 10
-365.417
 20
858.916
 30
0.000000
  70
    32
  0
VERTEX
  8
0
  5
3B18E
 10
-365.421
 20
858.913
 30
0.000000
  70
    32
  0
VERTEX
  8
0
  5
3B18F
 10
-365.425
 20
858.910
 30
0.000000
  70
    32
  0
VERTEX
  8
0
  5
3B190
 10
-365.429
 20
858.907
 30
0.000000
  70
    32
  0
VERTEX
  8
0
  5
3B191
 10
-365.433
 20
858.904
 30
0.000000
  70
    32
  0
VERTEX
  8
0
  5
3B192
 10
-365.437
 20
858.900
 30
0.000000
  70
    32
  0
VERTEX
  8
0
  5
3B193
 10
-365.441
 20
858.897
 30
0.000000
  70
    32
  0
VERTEX
  8
0
  5
3B194
 10
-365.445
 20
858.894
 30
0.000000
  70
    32
  0
VERTEX
  8
0
  5
3B195
 10
-365.449
 20
858.891
 30
0.000000
  70
    32
  0
VERTEX
  8
0
  5
3B196
 10
-365.453
 20
858.887
 30
0.000000
  70
    32
  0
VERTEX
  8
0
  5
3B197
 10
-365.457
 20
858.884
 30
0.000000
  70
    32
  0
VERTEX
  8
0
  5
3B198
 10
-365.461
 20
858.880
 30
0.000000
  70
    32
  0
VERTEX
  8
0
  5
3B199
 10
-365.465
 20
858.877
 30
0.000000
  70
    32
  0
VERTEX
  8
0
  5
3B19A
 10
-365.469
 20
858.874
 30
0.000000
  70
    32
  0
VERTEX
  8
0
  5
3B19B
 10
-365.473
 20
858.870
 30
0.000000
  70
    32
  0
VERTEX
  8
0
  5
3B19C
 10
-365.477
 20
858.867
 30
0.000000
  70
    32
  0
VERTEX
  8
0
  5
3B19D
 10
-365.480
 20
858.863
 30
0.000000
  70
    32
  0
VERTEX
  8
0
  5
3B19E
 10
-365.484
 20
858.860
 30
0.000000
  70
    32
  0
VERTEX
  8
0
  5
3B19F
 10
-365.488
 20
858.856
 30
0.000000
  70
    32
  0
VERTEX
  8
0
  5
3B1A0
 10
-365.492
 20
858.853
 30
0.000000
  70
    32
  0
VERTEX
  8
0
  5
3B1A1
 10
-365.495
 20
858.849
 30
0.000000
  70
    32
  0
VERTEX
  8
0
  5
3B1A2
 10
-365.499
 20
858.846
 30
0.000000
  70
    32
  0
VERTEX
  8
0
  5
3B1A3
 10
-365.503
 20
858.842
 30
0.000000
  70
    32
  0
VERTEX
  8
0
  5
3B1A4
 10
-365.506
 20
858.838
 30
0.000000
  70
    32
  0
VERTEX
  8
0
  5
3B1A5
 10
-365.510
 20
858.835
 30
0.000000
  70
    32
  0
VERTEX
  8
0
  5
3B1A6
 10
-365.513
 20
858.831
 30
0.000000
  70
    32
  0
VERTEX
  8
0
  5
3B1A7
 10
-365.517
 20
858.827
 30
0.000000
  70
    32
  0
VERTEX
  8
0
  5
3B1A8
 10
-365.520
 20
858.824
 30
0.000000
  70
    32
  0
VERTEX
  8
0
  5
3B1A9
 10
-365.524
 20
858.820
 30
0.000000
  70
    32
  0
VERTEX
  8
0
  5
3B1AA
 10
-365.527
 20
858.816
 30
0.000000
  70
    32
  0
VERTEX
  8
0
  5
3B1AB
 10
-365.531
 20
858.812
 30
0.000000
  70
    32
  0
VERTEX
  8
0
  5
3B1AC
 10
-365.534
 20
858.808
 30
0.000000
  70
    32
  0
VERTEX
  8
0
  5
3B1AD
 10
-365.538
 20
858.805
 30
0.000000
  70
    32
  0
VERTEX
  8
0
  5
3B1AE
 10
-365.541
 20
858.801
 30
0.000000
  70
    32
  0
VERTEX
  8
0
  5
3B1AF
 10
-365.544
 20
858.797
 30
0.000000
  70
    32
  0
VERTEX
  8
0
  5
3B1B0
 10
-365.548
 20
858.793
 30
0.000000
  70
    32
  0
VERTEX
  8
0
  5
3B1B1
 10
-365.551
 20
858.789
 30
0.000000
  70
    32
  0
VERTEX
  8
0
  5
3B1B2
 10
-365.554
 20
858.785
 30
0.000000
  70
    32
  0
VERTEX
  8
0
  5
3B1B3
 10
-365.557
 20
858.781
 30
0.000000
  70
    32
  0
VERTEX
  8
0
  5
3B1B4
 10
-365.561
 20
858.777
 30
0.000000
  70
    32
  0
VERTEX
  8
0
  5
3B1B5
 10
-365.564
 20
858.773
 30
0.000000
  70
    32
  0
VERTEX
  8
0
  5
3B1B6
 10
-365.567
 20
858.769
 30
0.000000
  70
    32
  0
VERTEX
  8
0
  5
3B1B7
 10
-365.570
 20
858.765
 30
0.000000
  70
    32
  0
VERTEX
  8
0
  5
3B1B8
 10
-365.573
 20
858.761
 30
0.000000
  70
    32
  0
VERTEX
  8
0
  5
3B1B9
 10
-365.576
 20
858.757
 30
0.000000
  70
    32
  0
VERTEX
  8
0
  5
3B1BA
 10
-365.579
 20
858.753
 30
0.000000
  70
    32
  0
VERTEX
  8
0
  5
3B1BB
 10
-365.582
 20
858.749
 30
0.000000
  70
    32
  0
VERTEX
  8
0
  5
3B1BC
 10
-365.585
 20
858.745
 30
0.000000
  70
    32
  0
VERTEX
  8
0
  5
3B1BD
 10
-365.588
 20
858.740
 30
0.000000
  70
    32
  0
VERTEX
  8
0
  5
3B1BE
 10
-365.591
 20
858.736
 30
0.000000
  70
    32
  0
VERTEX
  8
0
  5
3B1BF
 10
-365.594
 20
858.732
 30
0.000000
  70
    32
  0
VERTEX
  8
0
  5
3B1C0
 10
-365.596
 20
858.728
 30
0.000000
  70
    32
  0
VERTEX
  8
0
  5
3B1C1
 10
-365.599
 20
858.723
 30
0.000000
  70
    32
  0
VERTEX
  8
0
  5
3B1C2
 10
-365.602
 20
858.719
 30
0.000000
  70
    32
  0
VERTEX
  8
0
  5
3B1C3
 10
-365.605
 20
858.715
 30
0.000000
  70
    32
  0
VERTEX
  8
0
  5
3B1C4
 10
-365.607
 20
858.710
 30
0.000000
  70
    32
  0
VERTEX
  8
0
  5
3B1C5
 10
-365.610
 20
858.706
 30
0.000000
  70
    32
  0
VERTEX
  8
0
  5
3B1C6
 10
-365.613
 20
858.702
 30
0.000000
  70
    32
  0
VERTEX
  8
0
  5
3B1C7
 10
-365.615
 20
858.697
 30
0.000000
  70
    32
  0
VERTEX
  8
0
  5
3B1C8
 10
-365.618
 20
858.693
 30
0.000000
  70
    32
  0
VERTEX
  8
0
  5
3B1C9
 10
-365.620
 20
858.688
 30
0.000000
  70
    32
  0
VERTEX
  8
0
  5
3B1CA
 10
-365.623
 20
858.684
 30
0.000000
  70
    32
  0
VERTEX
  8
0
  5
3B1CB
 10
-365.625
 20
858.679
 30
0.000000
  70
    32
  0
VERTEX
  8
0
  5
3B1CC
 10
-365.628
 20
858.675
 30
0.000000
  70
    32
  0
VERTEX
  8
0
  5
3B1CD
 10
-365.630
 20
858.670
 30
0.000000
  70
    32
  0
VERTEX
  8
0
  5
3B1CE
 10
-365.632
 20
858.666
 30
0.000000
  70
    32
  0
VERTEX
  8
0
  5
3B1CF
 10
-365.635
 20
858.661
 30
0.000000
  70
    32
  0
VERTEX
  8
0
  5
3B1D0
 10
-365.637
 20
858.657
 30
0.000000
  70
    32
  0
VERTEX
  8
0
  5
3B1D1
 10
-365.639
 20
858.652
 30
0.000000
  70
    32
  0
VERTEX
  8
0
  5
3B1D2
 10
-365.641
 20
858.647
 30
0.000000
  70
    32
  0
VERTEX
  8
0
  5
3B1D3
 10
-365.644
 20
858.643
 30
0.000000
  70
    32
  0
VERTEX
  8
0
  5
3B1D4
 10
-365.646
 20
858.638
 30
0.000000
  70
    32
  0
VERTEX
  8
0
  5
3B1D5
 10
-365.648
 20
858.633
 30
0.000000
  70
    32
  0
VERTEX
  8
0
  5
3B1D6
 10
-365.650
 20
858.629
 30
0.000000
  70
    32
  0
VERTEX
  8
0
  5
3B1D7
 10
-365.652
 20
858.624
 30
0.000000
  70
    32
  0
VERTEX
  8
0
  5
3B1D8
 10
-365.654
 20
858.619
 30
0.000000
  70
    32
  0
VERTEX
  8
0
  5
3B1D9
 10
-365.656
 20
858.615
 30
0.000000
  70
    32
  0
VERTEX
  8
0
  5
3B1DA
 10
-365.658
 20
858.610
 30
0.000000
  70
    32
  0
VERTEX
  8
0
  5
3B1DB
 10
-365.660
 20
858.605
 30
0.000000
  70
    32
  0
VERTEX
  8
0
  5
3B1DC
 10
-365.662
 20
858.600
 30
0.000000
  70
    32
  0
VERTEX
  8
0
  5
3B1DD
 10
-365.664
 20
858.595
 30
0.000000
  70
    32
  0
VERTEX
  8
0
  5
3B1DE
 10
-365.666
 20
858.591
 30
0.000000
  70
    32
  0
VERTEX
  8
0
  5
3B1DF
 10
-365.667
 20
858.586
 30
0.000000
  70
    32
  0
VERTEX
  8
0
  5
3B1E0
 10
-365.669
 20
858.581
 30
0.000000
  70
    32
  0
VERTEX
  8
0
  5
3B1E1
 10
-365.671
 20
858.576
 30
0.000000
  70
    32
  0
VERTEX
  8
0
  5
3B1E2
 10
-365.673
 20
858.571
 30
0.000000
  70
    32
  0
VERTEX
  8
0
  5
3B1E3
 10
-365.674
 20
858.567
 30
0.000000
  70
    32
  0
VERTEX
  8
0
  5
3B1E4
 10
-365.676
 20
858.562
 30
0.000000
  70
    32
  0
VERTEX
  8
0
  5
3B1E5
 10
-365.678
 20
858.557
 30
0.000000
  70
    32
  0
VERTEX
  8
0
  5
3B1E6
 10
-365.679
 20
858.552
 30
0.000000
  70
    32
  0
VERTEX
  8
0
  5
3B1E7
 10
-365.681
 20
858.547
 30
0.000000
  70
    32
  0
VERTEX
  8
0
  5
3B1E8
 10
-365.682
 20
858.542
 30
0.000000
  70
    32
  0
VERTEX
  8
0
  5
3B1E9
 10
-365.684
 20
858.537
 30
0.000000
  70
    32
  0
VERTEX
  8
0
  5
3B1EA
 10
-365.685
 20
858.533
 30
0.000000
  70
    32
  0
VERTEX
  8
0
  5
3B1EB
 10
-365.687
 20
858.528
 30
0.000000
  70
    32
  0
VERTEX
  8
0
  5
3B1EC
 10
-365.688
 20
858.523
 30
0.000000
  70
    32
  0
VERTEX
  8
0
  5
3B1ED
 10
-365.689
 20
858.518
 30
0.000000
  70
    32
  0
VERTEX
  8
0
  5
3B1EE
 10
-365.691
 20
858.513
 30
0.000000
  70
    32
  0
VERTEX
  8
0
  5
3B1EF
 10
-365.692
 20
858.508
 30
0.000000
  70
    32
  0
VERTEX
  8
0
  5
3B1F0
 10
-365.693
 20
858.503
 30
0.000000
  70
    32
  0
VERTEX
  8
0
  5
3B1F1
 10
-365.695
 20
858.498
 30
0.000000
  70
    32
  0
VERTEX
  8
0
  5
3B1F2
 10
-365.696
 20
858.493
 30
0.000000
  70
    32
  0
VERTEX
  8
0
  5
3B1F3
 10
-365.697
 20
858.488
 30
0.000000
  70
    32
  0
VERTEX
  8
0
  5
3B1F4
 10
-365.698
 20
858.483
 30
0.000000
  70
    32
  0
VERTEX
  8
0
  5
3B1F5
 10
-365.700
 20
858.478
 30
0.000000
  70
    32
  0
VERTEX
  8
0
  5
3B1F6
 10
-365.701
 20
858.473
 30
0.000000
  70
    32
  0
VERTEX
  8
0
  5
3B1F7
 10
-365.702
 20
858.468
 30
0.000000
  70
    32
  0
VERTEX
  8
0
  5
3B1F8
 10
-365.703
 20
858.464
 30
0.000000
  70
    32
  0
VERTEX
  8
0
  5
3B1F9
 10
-365.704
 20
858.459
 30
0.000000
  70
    32
  0
VERTEX
  8
0
  5
3B1FA
 10
-365.705
 20
858.454
 30
0.000000
  70
    32
  0
VERTEX
  8
0
  5
3B1FB
 10
-365.706
 20
858.449
 30
0.000000
  70
    32
  0
VERTEX
  8
0
  5
3B1FC
 10
-365.707
 20
858.444
 30
0.000000
  70
    32
  0
VERTEX
  8
0
  5
3B1FD
 10
-365.709
 20
858.439
 30
0.000000
  70
    32
  0
VERTEX
  8
0
  5
3B1FE
 10
-365.710
 20
858.434
 30
0.000000
  70
    32
  0
VERTEX
  8
0
  5
3B1FF
 10
-365.711
 20
858.429
 30
0.000000
  70
    32
  0
VERTEX
  8
0
  5
3B200
 10
-365.712
 20
858.424
 30
0.000000
  70
    32
  0
VERTEX
  8
0
  5
3B201
 10
-365.713
 20
858.419
 30
0.000000
  70
    32
  0
VERTEX
  8
0
  5
3B202
 10
-365.714
 20
858.414
 30
0.000000
  70
    32
  0
VERTEX
  8
0
  5
3B203
 10
-365.715
 20
858.409
 30
0.000000
  70
    32
  0
VERTEX
  8
0
  5
3B204
 10
-365.716
 20
858.404
 30
0.000000
  70
    32
  0
VERTEX
  8
0
  5
3B205
 10
-365.717
 20
858.399
 30
0.000000
  70
    32
  0
VERTEX
  8
0
  5
3B206
 10
-365.719
 20
858.394
 30
0.000000
  70
    32
  0
VERTEX
  8
0
  5
3B207
 10
-365.720
 20
858.389
 30
0.000000
  70
    32
  0
VERTEX
  8
0
  5
3B208
 10
-365.721
 20
858.384
 30
0.000000
  70
    32
  0
VERTEX
  8
0
  5
3B209
 10
-365.722
 20
858.379
 30
0.000000
  70
    32
  0
VERTEX
  8
0
  5
3B20A
 10
-365.723
 20
858.374
 30
0.000000
  70
    32
  0
VERTEX
  8
0
  5
3B20B
 10
-365.724
 20
858.369
 30
0.000000
  70
    32
  0
VERTEX
  8
0
  5
3B20C
 10
-365.726
 20
858.364
 30
0.000000
  70
    32
  0
VERTEX
  8
0
  5
3B20D
 10
-365.727
 20
858.359
 30
0.000000
  70
    32
  0
VERTEX
  8
0
  5
3B20E
 10
-365.728
 20
858.354
 30
0.000000
  70
    32
  0
VERTEX
  8
0
  5
3B20F
 10
-365.729
 20
858.349
 30
0.000000
  70
    32
  0
VERTEX
  8
0
  5
3B210
 10
-365.731
 20
858.344
 30
0.000000
  70
    32
  0
VERTEX
  8
0
  5
3B211
 10
-365.732
 20
858.339
 30
0.000000
  70
    32
  0
VERTEX
  8
0
  5
3B212
 10
-365.733
 20
858.334
 30
0.000000
  70
    32
  0
VERTEX
  8
0
  5
3B213
 10
-365.735
 20
858.329
 30
0.000000
  70
    32
  0
VERTEX
  8
0
  5
3B214
 10
-365.736
 20
858.324
 30
0.000000
  70
    32
  0
VERTEX
  8
0
  5
3B215
 10
-365.737
 20
858.319
 30
0.000000
  70
    32
  0
VERTEX
  8
0
  5
3B216
 10
-365.739
 20
858.314
 30
0.000000
  70
    32
  0
VERTEX
  8
0
  5
3B217
 10
-365.740
 20
858.309
 30
0.000000
  70
    32
  0
VERTEX
  8
0
  5
3B218
 10
-365.742
 20
858.304
 30
0.000000
  70
    32
  0
VERTEX
  8
0
  5
3B219
 10
-365.744
 20
858.299
 30
0.000000
  70
    32
  0
VERTEX
  8
0
  5
3B21A
 10
-365.745
 20
858.294
 30
0.000000
  70
    32
  0
VERTEX
  8
0
  5
3B21B
 10
-365.747
 20
858.289
 30
0.000000
  70
    32
  0
VERTEX
  8
0
  5
3B21C
 10
-365.748
 20
858.284
 30
0.000000
  70
    32
  0
VERTEX
  8
0
  5
3B21D
 10
-365.750
 20
858.279
 30
0.000000
  70
    32
  0
VERTEX
  8
0
  5
3B21E
 10
-365.752
 20
858.274
 30
0.000000
  70
    32
  0
VERTEX
  8
0
  5
3B21F
 10
-365.754
 20
858.270
 30
0.000000
  70
    32
  0
VERTEX
  8
0
  5
3B220
 10
-365.755
 20
858.265
 30
0.000000
  70
    32
  0
VERTEX
  8
0
  5
3B221
 10
-365.757
 20
858.260
 30
0.000000
  70
    32
  0
VERTEX
  8
0
  5
3B222
 10
-365.759
 20
858.255
 30
0.000000
  70
    32
  0
VERTEX
  8
0
  5
3B223
 10
-365.761
 20
858.250
 30
0.000000
  70
    32
  0
VERTEX
  8
0
  5
3B224
 10
-365.763
 20
858.246
 30
0.000000
  70
    32
  0
VERTEX
  8
0
  5
3B225
 10
-365.765
 20
858.241
 30
0.000000
  70
    32
  0
VERTEX
  8
0
  5
3B226
 10
-365.767
 20
858.236
 30
0.000000
  70
    32
  0
VERTEX
  8
0
  5
3B227
 10
-365.769
 20
858.232
 30
0.000000
  70
    32
  0
VERTEX
  8
0
  5
3B228
 10
-365.772
 20
858.227
 30
0.000000
  70
    32
  0
VERTEX
  8
0
  5
3B229
 10
-365.774
 20
858.223
 30
0.000000
  70
    32
  0
VERTEX
  8
0
  5
3B22A
 10
-365.776
 20
858.218
 30
0.000000
  70
    32
  0
VERTEX
  8
0
  5
3B22B
 10
-365.779
 20
858.214
 30
0.000000
  70
    32
  0
VERTEX
  8
0
  5
3B22C
 10
-365.781
 20
858.209
 30
0.000000
  70
    32
  0
VERTEX
  8
0
  5
3B22D
 10
-365.783
 20
858.205
 30
0.000000
  70
    32
  0
VERTEX
  8
0
  5
3B22E
 10
-365.786
 20
858.201
 30
0.000000
  70
    32
  0
VERTEX
  8
0
  5
3B22F
 10
-365.789
 20
858.196
 30
0.000000
  70
    32
  0
VERTEX
  8
0
  5
3B230
 10
-365.791
 20
858.192
 30
0.000000
  70
    32
  0
VERTEX
  8
0
  5
3B231
 10
-365.794
 20
858.188
 30
0.000000
  70
    32
  0
VERTEX
  8
0
  5
3B232
 10
-365.797
 20
858.183
 30
0.000000
  70
    32
  0
VERTEX
  8
0
  5
3B233
 10
-365.800
 20
858.179
 30
0.000000
  70
    32
  0
VERTEX
  8
0
  5
3B234
 10
-365.802
 20
858.175
 30
0.000000
  70
    32
  0
VERTEX
  8
0
  5
3B235
 10
-365.805
 20
858.171
 30
0.000000
  70
    32
  0
VERTEX
  8
0
  5
3B236
 10
-365.808
 20
858.167
 30
0.000000
  70
    32
  0
VERTEX
  8
0
  5
3B237
 10
-365.812
 20
858.163
 30
0.000000
  70
    32
  0
VERTEX
  8
0
  5
3B238
 10
-365.815
 20
858.159
 30
0.000000
  70
    32
  0
VERTEX
  8
0
  5
3B239
 10
-365.818
 20
858.155
 30
0.000000
  70
    32
  0
VERTEX
  8
0
  5
3B23A
 10
-365.821
 20
858.151
 30
0.000000
  70
    32
  0
VERTEX
  8
0
  5
3B23B
 10
-365.824
 20
858.148
 30
0.000000
  70
    32
  0
VERTEX
  8
0
  5
3B23C
 10
-365.828
 20
858.144
 30
0.000000
  70
    32
  0
VERTEX
  8
0
  5
3B23D
 10
-365.831
 20
858.140
 30
0.000000
  70
    32
  0
VERTEX
  8
0
  5
3B23E
 10
-365.834
 20
858.136
 30
0.000000
  70
    32
  0
VERTEX
  8
0
  5
3B23F
 10
-365.838
 20
858.132
 30
0.000000
  70
    32
  0
VERTEX
  8
0
  5
3B240
 10
-365.841
 20
858.129
 30
0.000000
  70
    32
  0
VERTEX
  8
0
  5
3B241
 10
-365.845
 20
858.125
 30
0.000000
  70
    32
  0
VERTEX
  8
0
  5
3B242
 10
-365.849
 20
858.122
 30
0.000000
  70
    32
  0
VERTEX
  8
0
  5
3B243
 10
-365.852
 20
858.118
 30
0.000000
  70
    32
  0
VERTEX
  8
0
  5
3B244
 10
-365.856
 20
858.114
 30
0.000000
  70
    32
  0
VERTEX
  8
0
  5
3B245
 10
-365.860
 20
858.111
 30
0.000000
  70
    32
  0
VERTEX
  8
0
  5
3B246
 10
-365.863
 20
858.107
 30
0.000000
  70
    32
  0
VERTEX
  8
0
  5
3B247
 10
-365.867
 20
858.104
 30
0.000000
  70
    32
  0
VERTEX
  8
0
  5
3B248
 10
-365.871
 20
858.100
 30
0.000000
  70
    32
  0
VERTEX
  8
0
  5
3B249
 10
-365.875
 20
858.097
 30
0.000000
  70
    32
  0
VERTEX
  8
0
  5
3B24A
 10
-365.879
 20
858.094
 30
0.000000
  70
    32
  0
VERTEX
  8
0
  5
3B24B
 10
-365.883
 20
858.090
 30
0.000000
  70
    32
  0
VERTEX
  8
0
  5
3B24C
 10
-365.887
 20
858.087
 30
0.000000
  70
    32
  0
VERTEX
  8
0
  5
3B24D
 10
-365.891
 20
858.084
 30
0.000000
  70
    32
  0
VERTEX
  8
0
  5
3B24E
 10
-365.895
 20
858.080
 30
0.000000
  70
    32
  0
VERTEX
  8
0
  5
3B24F
 10
-365.899
 20
858.077
 30
0.000000
  70
    32
  0
VERTEX
  8
0
  5
3B250
 10
-365.903
 20
858.074
 30
0.000000
  70
    32
  0
VERTEX
  8
0
  5
3B251
 10
-365.907
 20
858.070
 30
0.000000
  70
    32
  0
VERTEX
  8
0
  5
3B252
 10
-365.911
 20
858.067
 30
0.000000
  70
    32
  0
VERTEX
  8
0
  5
3B253
 10
-365.915
 20
858.064
 30
0.000000
  70
    32
  0
VERTEX
  8
0
  5
3B254
 10
-365.919
 20
858.061
 30
0.000000
  70
    32
  0
VERTEX
  8
0
  5
3B255
 10
-365.923
 20
858.058
 30
0.000000
  70
    32
  0
VERTEX
  8
0
  5
3B256
 10
-365.927
 20
858.054
 30
0.000000
  70
    32
  0
VERTEX
  8
0
  5
3B257
 10
-365.931
 20
858.051
 30
0.000000
  70
    32
  0
VERTEX
  8
0
  5
3B258
 10
-365.936
 20
858.048
 30
0.000000
  70
    32
  0
VERTEX
  8
0
  5
3B259
 10
-365.940
 20
858.045
 30
0.000000
  70
    32
  0
VERTEX
  8
0
  5
3B25A
 10
-365.944
 20
858.042
 30
0.000000
  70
    32
  0
VERTEX
  8
0
  5
3B25B
 10
-365.948
 20
858.039
 30
0.000000
  70
    32
  0
VERTEX
  8
0
  5
3B25C
 10
-365.952
 20
858.036
 30
0.000000
  70
    32
  0
VERTEX
  8
0
  5
3B25D
 10
-365.957
 20
858.033
 30
0.000000
  70
    32
  0
VERTEX
  8
0
  5
3B25E
 10
-365.961
 20
858.029
 30
0.000000
  70
    32
  0
VERTEX
  8
0
  5
3B25F
 10
-365.965
 20
858.026
 30
0.000000
  70
    32
  0
VERTEX
  8
0
  5
3B260
 10
-365.969
 20
858.023
 30
0.000000
  70
    32
  0
VERTEX
  8
0
  5
3B261
 10
-365.974
 20
858.020
 30
0.000000
  70
    32
  0
VERTEX
  8
0
  5
3B262
 10
-365.978
 20
858.017
 30
0.000000
  70
    32
  0
VERTEX
  8
0
  5
3B263
 10
-365.982
 20
858.014
 30
0.000000
  70
    32
  0
VERTEX
  8
0
  5
3B264
 10
-365.987
 20
858.011
 30
0.000000
  70
    32
  0
VERTEX
  8
0
  5
3B265
 10
-365.991
 20
858.008
 30
0.000000
  70
    32
  0
VERTEX
  8
0
  5
3B266
 10
-365.995
 20
858.005
 30
0.000000
  70
    32
  0
VERTEX
  8
0
  5
3B267
 10
-365.999
 20
858.002
 30
0.000000
  70
    32
  0
VERTEX
  8
0
  5
3B268
 10
-366.004
 20
858.000
 30
0.000000
  70
    32
  0
VERTEX
  8
0
  5
3B269
 10
-366.008
 20
857.997
 30
0.000000
  70
    32
  0
VERTEX
  8
0
  5
3B26A
 10
-366.012
 20
857.994
 30
0.000000
  70
    32
  0
VERTEX
  8
0
  5
3B26B
 10
-366.017
 20
857.991
 30
0.000000
  70
    32
  0
VERTEX
  8
0
  5
3B26C
 10
-366.021
 20
857.988
 30
0.000000
  70
    32
  0
VERTEX
  8
0
  5
3B26D
 10
-366.026
 20
857.985
 30
0.000000
  70
    32
  0
VERTEX
  8
0
  5
3B26E
 10
-366.030
 20
857.983
 30
0.000000
  70
    32
  0
VERTEX
  8
0
  5
3B26F
 10
-366.034
 20
857.980
 30
0.000000
  70
    32
  0
VERTEX
  8
0
  5
3B270
 10
-366.039
 20
857.977
 30
0.000000
  70
    32
  0
VERTEX
  8
0
  5
3B271
 10
-366.043
 20
857.975
 30
0.000000
  70
    32
  0
VERTEX
  8
0
  5
3B272
 10
-366.048
 20
857.972
 30
0.000000
  70
    32
  0
VERTEX
  8
0
  5
3B273
 10
-366.052
 20
857.969
 30
0.000000
  70
    32
  0
VERTEX
  8
0
  5
3B274
 10
-366.057
 20
857.967
 30
0.000000
  70
    32
  0
VERTEX
  8
0
  5
3B275
 10
-366.061
 20
857.964
 30
0.000000
  70
    32
  0
VERTEX
  8
0
  5
3B276
 10
-366.066
 20
857.962
 30
0.000000
  70
    32
  0
VERTEX
  8
0
  5
3B277
 10
-366.070
 20
857.959
 30
0.000000
  70
    32
  0
VERTEX
  8
0
  5
3B278
 10
-366.075
 20
857.957
 30
0.000000
  70
    32
  0
VERTEX
  8
0
  5
3B279
 10
-366.079
 20
857.954
 30
0.000000
  70
    32
  0
VERTEX
  8
0
  5
3B27A
 10
-366.084
 20
857.952
 30
0.000000
  70
    32
  0
VERTEX
  8
0
  5
3B27B
 10
-366.088
 20
857.950
 30
0.000000
  70
    32
  0
VERTEX
  8
0
  5
3B27C
 10
-366.093
 20
857.948
 30
0.000000
  70
    32
  0
VERTEX
  8
0
  5
3B27D
 10
-366.097
 20
857.945
 30
0.000000
  70
    32
  0
VERTEX
  8
0
  5
3B27E
 10
-366.102
 20
857.943
 30
0.000000
  70
    32
  0
VERTEX
  8
0
  5
3B27F
 10
-366.107
 20
857.941
 30
0.000000
  70
    32
  0
VERTEX
  8
0
  5
3B280
 10
-366.111
 20
857.939
 30
0.000000
  70
    32
  0
VERTEX
  8
0
  5
3B281
 10
-366.116
 20
857.937
 30
0.000000
  70
    32
  0
VERTEX
  8
0
  5
3B282
 10
-366.121
 20
857.935
 30
0.000000
  70
    32
  0
VERTEX
  8
0
  5
3B283
 10
-366.125
 20
857.933
 30
0.000000
  70
    32
  0
VERTEX
  8
0
  5
3B284
 10
-366.130
 20
857.931
 30
0.000000
  70
    32
  0
VERTEX
  8
0
  5
3B285
 10
-366.135
 20
857.929
 30
0.000000
  70
    32
  0
VERTEX
  8
0
  5
3B286
 10
-366.139
 20
857.928
 30
0.000000
  70
    32
  0
VERTEX
  8
0
  5
3B287
 10
-366.144
 20
857.926
 30
0.000000
  70
    32
  0
VERTEX
  8
0
  5
3B288
 10
-366.149
 20
857.924
 30
0.000000
  70
    32
  0
VERTEX
  8
0
  5
3B289
 10
-366.154
 20
857.923
 30
0.000000
  70
    32
  0
VERTEX
  8
0
  5
3B28A
 10
-366.159
 20
857.921
 30
0.000000
  70
    32
  0
VERTEX
  8
0
  5
3B28B
 10
-366.163
 20
857.920
 30
0.000000
  70
    32
  0
VERTEX
  8
0
  5
3B28C
 10
-366.168
 20
857.918
 30
0.000000
  70
    32
  0
VERTEX
  8
0
  5
3B28D
 10
-366.173
 20
857.917
 30
0.000000
  70
    32
  0
VERTEX
  8
0
  5
3B28E
 10
-366.178
 20
857.915
 30
0.000000
  70
    32
  0
VERTEX
  8
0
  5
3B28F
 10
-366.183
 20
857.914
 30
0.000000
  70
    32
  0
VERTEX
  8
0
  5
3B290
 10
-366.188
 20
857.913
 30
0.000000
  70
    32
  0
VERTEX
  8
0
  5
3B291
 10
-366.193
 20
857.912
 30
0.000000
  70
    32
  0
VERTEX
  8
0
  5
3B292
 10
-366.198
 20
857.911
 30
0.000000
  70
    32
  0
VERTEX
  8
0
  5
3B293
 10
-366.202
 20
857.910
 30
0.000000
  70
    32
  0
VERTEX
  8
0
  5
3B294
 10
-366.207
 20
857.909
 30
0.000000
  70
    32
  0
VERTEX
  8
0
  5
3B295
 10
-366.212
 20
857.908
 30
0.000000
  70
    32
  0
VERTEX
  8
0
  5
3B296
 10
-366.217
 20
857.907
 30
0.000000
  70
    32
  0
VERTEX
  8
0
  5
3B297
 10
-366.222
 20
857.906
 30
0.000000
  70
    32
  0
VERTEX
  8
0
  5
3B298
 10
-366.227
 20
857.905
 30
0.000000
  70
    32
  0
VERTEX
  8
0
  5
3B299
 10
-366.232
 20
857.905
 30
0.000000
  70
    32
  0
VERTEX
  8
0
  5
3B29A
 10
-366.238
 20
857.904
 30
0.000000
  70
    32
  0
VERTEX
  8
0
  5
3B29B
 10
-366.243
 20
857.903
 30
0.000000
  70
    32
  0
VERTEX
  8
0
  5
3B29C
 10
-366.248
 20
857.903
 30
0.000000
  70
    32
  0
VERTEX
  8
0
  5
3B29D
 10
-366.253
 20
857.902
 30
0.000000
  70
    32
  0
VERTEX
  8
0
  5
3B29E
 10
-366.258
 20
857.902
 30
0.000000
  70
    32
  0
VERTEX
  8
0
  5
3B29F
 10
-366.263
 20
857.901
 30
0.000000
  70
    32
  0
VERTEX
  8
0
  5
3B2A0
 10
-366.268
 20
857.901
 30
0.000000
  70
    32
  0
VERTEX
  8
0
  5
3B2A1
 10
-366.273
 20
857.900
 30
0.000000
  70
    32
  0
VERTEX
  8
0
  5
3B2A2
 10
-366.278
 20
857.900
 30
0.000000
  70
    32
  0
VERTEX
  8
0
  5
3B2A3
 10
-366.283
 20
857.900
 30
0.000000
  70
    32
  0
VERTEX
  8
0
  5
3B2A4
 10
-366.288
 20
857.899
 30
0.000000
  70
    32
  0
VERTEX
  8
0
  5
3B2A5
 10
-366.294
 20
857.899
 30
0.000000
  70
    32
  0
VERTEX
  8
0
  5
3B2A6
 10
-366.299
 20
857.899
 30
0.000000
  70
    32
  0
VERTEX
  8
0
  5
3B2A7
 10
-366.304
 20
857.898
 30
0.000000
  70
    32
  0
VERTEX
  8
0
  5
3B2A8
 10
-366.309
 20
857.898
 30
0.000000
  70
    32
  0
VERTEX
  8
0
  5
3B2A9
 10
-366.314
 20
857.898
 30
0.000000
  70
    32
  0
VERTEX
  8
0
  5
3B2AA
 10
-366.319
 20
857.897
 30
0.000000
  70
    32
  0
VERTEX
  8
0
  5
3B2AB
 10
-366.324
 20
857.897
 30
0.000000
  70
    32
  0
VERTEX
  8
0
  5
3B2AC
 10
-366.329
 20
857.897
 30
0.000000
  70
    32
  0
VERTEX
  8
0
  5
3B2AD
 10
-366.335
 20
857.897
 30
0.000000
  70
    32
  0
VERTEX
  8
0
  5
3B2AE
 10
-366.340
 20
857.896
 30
0.000000
  70
    32
  0
VERTEX
  8
0
  5
3B2AF
 10
-366.345
 20
857.896
 30
0.000000
  70
    32
  0
VERTEX
  8
0
  5
3B2B0
 10
-366.350
 20
857.896
 30
0.000000
  70
    32
  0
VERTEX
  8
0
  5
3B2B1
 10
-366.355
 20
857.896
 30
0.000000
  70
    32
  0
VERTEX
  8
0
  5
3B2B2
 10
-366.360
 20
857.895
 30
0.000000
  70
    32
  0
VERTEX
  8
0
  5
3B2B3
 10
-366.365
 20
857.895
 30
0.000000
  70
    32
  0
VERTEX
  8
0
  5
3B2B4
 10
-366.370
 20
857.895
 30
0.000000
  70
    32
  0
VERTEX
  8
0
  5
3B2B5
 10
-366.376
 20
857.894
 30
0.000000
  70
    32
  0
SEQEND
  8
0
  5
3B2B6
  0
POLYLINE
  8
0
  5
3B2B7
  66
     1
 10
0.000000
 20
0.000000
 30
0.000000
  70
     8
  0
VERTEX
  8
0
  5
3B2B8
 10
-366.526
 20
857.721
 30
0.000000
  70
    32
  0
VERTEX
  8
0
  5
3B2B9
 10
-366.527
 20
857.718
 30
0.000000
  70
    32
  0
VERTEX
  8
0
  5
3B2BA
 10
-366.528
 20
857.715
 30
0.000000
  70
    32
  0
VERTEX
  8
0
  5
3B2BB
 10
-366.528
 20
857.712
 30
0.000000
  70
    32
  0
VERTEX
  8
0
  5
3B2BC
 10
-366.529
 20
857.709
 30
0.000000
  70
    32
  0
VERTEX
  8
0
  5
3B2BD
 10
-366.529
 20
857.706
 30
0.000000
  70
    32
  0
VERTEX
  8
0
  5
3B2BE
 10
-366.530
 20
857.703
 30
0.000000
  70
    32
  0
VERTEX
  8
0
  5
3B2BF
 10
-366.530
 20
857.700
 30
0.000000
  70
    32
  0
VERTEX
  8
0
  5
3B2C0
 10
-366.531
 20
857.697
 30
0.000000
  70
    32
  0
VERTEX
  8
0
  5
3B2C1
 10
-366.532
 20
857.694
 30
0.000000
  70
    32
  0
VERTEX
  8
0
  5
3B2C2
 10
-366.532
 20
857.691
 30
0.000000
  70
    32
  0
VERTEX
  8
0
  5
3B2C3
 10
-366.533
 20
857.688
 30
0.000000
  70
    32
  0
VERTEX
  8
0
  5
3B2C4
 10
-366.533
 20
857.685
 30
0.000000
  70
    32
  0
VERTEX
  8
0
  5
3B2C5
 10
-366.534
 20
857.682
 30
0.000000
  70
    32
  0
VERTEX
  8
0
  5
3B2C6
 10
-366.535
 20
857.679
 30
0.000000
  70
    32
  0
VERTEX
  8
0
  5
3B2C7
 10
-366.535
 20
857.675
 30
0.000000
  70
    32
  0
VERTEX
  8
0
  5
3B2C8
 10
-366.536
 20
857.672
 30
0.000000
  70
    32
  0
VERTEX
  8
0
  5
3B2C9
 10
-366.537
 20
857.669
 30
0.000000
  70
    32
  0
VERTEX
  8
0
  5
3B2CA
 10
-366.537
 20
857.666
 30
0.000000
  70
    32
  0
VERTEX
  8
0
  5
3B2CB
 10
-366.538
 20
857.663
 30
0.000000
  70
    32
  0
VERTEX
  8
0
  5
3B2CC
 10
-366.539
 20
857.660
 30
0.000000
  70
    32
  0
VERTEX
  8
0
  5
3B2CD
 10
-366.539
 20
857.657
 30
0.000000
  70
    32
  0
VERTEX
  8
0
  5
3B2CE
 10
-366.540
 20
857.654
 30
0.000000
  70
    32
  0
VERTEX
  8
0
  5
3B2CF
 10
-366.541
 20
857.651
 30
0.000000
  70
    32
  0
VERTEX
  8
0
  5
3B2D0
 10
-366.541
 20
857.648
 30
0.000000
  70
    32
  0
VERTEX
  8
0
  5
3B2D1
 10
-366.542
 20
857.645
 30
0.000000
  70
    32
  0
VERTEX
  8
0
  5
3B2D2
 10
-366.543
 20
857.642
 30
0.000000
  70
    32
  0
VERTEX
  8
0
  5
3B2D3
 10
-366.544
 20
857.639
 30
0.000000
  70
    32
  0
VERTEX
  8
0
  5
3B2D4
 10
-366.544
 20
857.636
 30
0.000000
  70
    32
  0
VERTEX
  8
0
  5
3B2D5
 10
-366.545
 20
857.633
 30
0.000000
  70
    32
  0
VERTEX
  8
0
  5
3B2D6
 10
-366.546
 20
857.630
 30
0.000000
  70
    32
  0
VERTEX
  8
0
  5
3B2D7
 10
-366.547
 20
857.627
 30
0.000000
  70
    32
  0
VERTEX
  8
0
  5
3B2D8
 10
-366.548
 20
857.624
 30
0.000000
  70
    32
  0
VERTEX
  8
0
  5
3B2D9
 10
-366.549
 20
857.621
 30
0.000000
  70
    32
  0
VERTEX
  8
0
  5
3B2DA
 10
-366.550
 20
857.618
 30
0.000000
  70
    32
  0
VERTEX
  8
0
  5
3B2DB
 10
-366.551
 20
857.615
 30
0.000000
  70
    32
  0
VERTEX
  8
0
  5
3B2DC
 10
-366.552
 20
857.612
 30
0.000000
  70
    32
  0
VERTEX
  8
0
  5
3B2DD
 10
-366.553
 20
857.609
 30
0.000000
  70
    32
  0
VERTEX
  8
0
  5
3B2DE
 10
-366.554
 20
857.607
 30
0.000000
  70
    32
  0
VERTEX
  8
0
  5
3B2DF
 10
-366.555
 20
857.604
 30
0.000000
  70
    32
  0
VERTEX
  8
0
  5
3B2E0
 10
-366.556
 20
857.601
 30
0.000000
  70
    32
  0
VERTEX
  8
0
  5
3B2E1
 10
-366.557
 20
857.598
 30
0.000000
  70
    32
  0
VERTEX
  8
0
  5
3B2E2
 10
-366.559
 20
857.595
 30
0.000000
  70
    32
  0
VERTEX
  8
0
  5
3B2E3
 10
-366.560
 20
857.592
 30
0.000000
  70
    32
  0
VERTEX
  8
0
  5
3B2E4
 10
-366.561
 20
857.590
 30
0.000000
  70
    32
  0
VERTEX
  8
0
  5
3B2E5
 10
-366.562
 20
857.587
 30
0.000000
  70
    32
  0
VERTEX
  8
0
  5
3B2E6
 10
-366.564
 20
857.584
 30
0.000000
  70
    32
  0
VERTEX
  8
0
  5
3B2E7
 10
-366.565
 20
857.581
 30
0.000000
  70
    32
  0
VERTEX
  8
0
  5
3B2E8
 10
-366.566
 20
857.579
 30
0.000000
  70
    32
  0
VERTEX
  8
0
  5
3B2E9
 10
-366.568
 20
857.576
 30
0.000000
  70
    32
  0
VERTEX
  8
0
  5
3B2EA
 10
-366.569
 20
857.573
 30
0.000000
  70
    32
  0
VERTEX
  8
0
  5
3B2EB
 10
-366.571
 20
857.570
 30
0.000000
  70
    32
  0
VERTEX
  8
0
  5
3B2EC
 10
-366.572
 20
857.568
 30
0.000000
  70
    32
  0
VERTEX
  8
0
  5
3B2ED
 10
-366.574
 20
857.565
 30
0.000000
  70
    32
  0
VERTEX
  8
0
  5
3B2EE
 10
-366.576
 20
857.563
 30
0.000000
  70
    32
  0
VERTEX
  8
0
  5
3B2EF
 10
-366.577
 20
857.560
 30
0.000000
  70
    32
  0
VERTEX
  8
0
  5
3B2F0
 10
-366.579
 20
857.557
 30
0.000000
  70
    32
  0
VERTEX
  8
0
  5
3B2F1
 10
-366.581
 20
857.555
 30
0.000000
  70
    32
  0
VERTEX
  8
0
  5
3B2F2
 10
-366.582
 20
857.552
 30
0.000000
  70
    32
  0
VERTEX
  8
0
  5
3B2F3
 10
-366.584
 20
857.550
 30
0.000000
  70
    32
  0
VERTEX
  8
0
  5
3B2F4
 10
-366.586
 20
857.547
 30
0.000000
  70
    32
  0
VERTEX
  8
0
  5
3B2F5
 10
-366.588
 20
857.545
 30
0.000000
  70
    32
  0
VERTEX
  8
0
  5
3B2F6
 10
-366.590
 20
857.542
 30
0.000000
  70
    32
  0
VERTEX
  8
0
  5
3B2F7
 10
-366.592
 20
857.540
 30
0.000000
  70
    32
  0
VERTEX
  8
0
  5
3B2F8
 10
-366.593
 20
857.537
 30
0.000000
  70
    32
  0
VERTEX
  8
0
  5
3B2F9
 10
-366.595
 20
857.535
 30
0.000000
  70
    32
  0
VERTEX
  8
0
  5
3B2FA
 10
-366.597
 20
857.532
 30
0.000000
  70
    32
  0
VERTEX
  8
0
  5
3B2FB
 10
-366.599
 20
857.530
 30
0.000000
  70
    32
  0
VERTEX
  8
0
  5
3B2FC
 10
-366.601
 20
857.527
 30
0.000000
  70
    32
  0
VERTEX
  8
0
  5
3B2FD
 10
-366.603
 20
857.525
 30
0.000000
  70
    32
  0
VERTEX
  8
0
  5
3B2FE
 10
-366.605
 20
857.523
 30
0.000000
  70
    32
  0
VERTEX
  8
0
  5
3B2FF
 10
-366.607
 20
857.520
 30
0.000000
  70
    32
  0
VERTEX
  8
0
  5
3B300
 10
-366.610
 20
857.518
 30
0.000000
  70
    32
  0
VERTEX
  8
0
  5
3B301
 10
-366.612
 20
857.516
 30
0.000000
  70
    32
  0
VERTEX
  8
0
  5
3B302
 10
-366.614
 20
857.513
 30
0.000000
  70
    32
  0
VERTEX
  8
0
  5
3B303
 10
-366.616
 20
857.511
 30
0.000000
  70
    32
  0
VERTEX
  8
0
  5
3B304
 10
-366.618
 20
857.509
 30
0.000000
  70
    32
  0
VERTEX
  8
0
  5
3B305
 10
-366.620
 20
857.506
 30
0.000000
  70
    32
  0
VERTEX
  8
0
  5
3B306
 10
-366.622
 20
857.504
 30
0.000000
  70
    32
  0
VERTEX
  8
0
  5
3B307
 10
-366.625
 20
857.502
 30
0.000000
  70
    32
  0
VERTEX
  8
0
  5
3B308
 10
-366.627
 20
857.500
 30
0.000000
  70
    32
  0
VERTEX
  8
0
  5
3B309
 10
-366.629
 20
857.497
 30
0.000000
  70
    32
  0
VERTEX
  8
0
  5
3B30A
 10
-366.631
 20
857.495
 30
0.000000
  70
    32
  0
VERTEX
  8
0
  5
3B30B
 10
-366.634
 20
857.493
 30
0.000000
  70
    32
  0
VERTEX
  8
0
  5
3B30C
 10
-366.636
 20
857.491
 30
0.000000
  70
    32
  0
VERTEX
  8
0
  5
3B30D
 10
-366.638
 20
857.489
 30
0.000000
  70
    32
  0
VERTEX
  8
0
  5
3B30E
 10
-366.640
 20
857.487
 30
0.000000
  70
    32
  0
VERTEX
  8
0
  5
3B30F
 10
-366.643
 20
857.484
 30
0.000000
  70
    32
  0
VERTEX
  8
0
  5
3B310
 10
-366.645
 20
857.482
 30
0.000000
  70
    32
  0
VERTEX
  8
0
  5
3B311
 10
-366.647
 20
857.480
 30
0.000000
  70
    32
  0
VERTEX
  8
0
  5
3B312
 10
-366.650
 20
857.478
 30
0.000000
  70
    32
  0
VERTEX
  8
0
  5
3B313
 10
-366.652
 20
857.476
 30
0.000000
  70
    32
  0
VERTEX
  8
0
  5
3B314
 10
-366.655
 20
857.474
 30
0.000000
  70
    32
  0
VERTEX
  8
0
  5
3B315
 10
-366.657
 20
857.472
 30
0.000000
  70
    32
  0
VERTEX
  8
0
  5
3B316
 10
-366.659
 20
857.470
 30
0.000000
  70
    32
  0
VERTEX
  8
0
  5
3B317
 10
-366.662
 20
857.468
 30
0.000000
  70
    32
  0
VERTEX
  8
0
  5
3B318
 10
-366.664
 20
857.466
 30
0.000000
  70
    32
  0
VERTEX
  8
0
  5
3B319
 10
-366.666
 20
857.464
 30
0.000000
  70
    32
  0
VERTEX
  8
0
  5
3B31A
 10
-366.669
 20
857.462
 30
0.000000
  70
    32
  0
VERTEX
  8
0
  5
3B31B
 10
-366.671
 20
857.460
 30
0.000000
  70
    32
  0
VERTEX
  8
0
  5
3B31C
 10
-366.674
 20
857.458
 30
0.000000
  70
    32
  0
VERTEX
  8
0
  5
3B31D
 10
-366.676
 20
857.456
 30
0.000000
  70
    32
  0
VERTEX
  8
0
  5
3B31E
 10
-366.679
 20
857.454
 30
0.000000
  70
    32
  0
VERTEX
  8
0
  5
3B31F
 10
-366.681
 20
857.452
 30
0.000000
  70
    32
  0
VERTEX
  8
0
  5
3B320
 10
-366.684
 20
857.450
 30
0.000000
  70
    32
  0
VERTEX
  8
0
  5
3B321
 10
-366.686
 20
857.448
 30
0.000000
  70
    32
  0
VERTEX
  8
0
  5
3B322
 10
-366.689
 20
857.446
 30
0.000000
  70
    32
  0
VERTEX
  8
0
  5
3B323
 10
-366.691
 20
857.444
 30
0.000000
  70
    32
  0
VERTEX
  8
0
  5
3B324
 10
-366.694
 20
857.443
 30
0.000000
  70
    32
  0
VERTEX
  8
0
  5
3B325
 10
-366.696
 20
857.441
 30
0.000000
  70
    32
  0
VERTEX
  8
0
  5
3B326
 10
-366.699
 20
857.439
 30
0.000000
  70
    32
  0
VERTEX
  8
0
  5
3B327
 10
-366.701
 20
857.437
 30
0.000000
  70
    32
  0
VERTEX
  8
0
  5
3B328
 10
-366.704
 20
857.436
 30
0.000000
  70
    32
  0
VERTEX
  8
0
  5
3B329
 10
-366.706
 20
857.434
 30
0.000000
  70
    32
  0
VERTEX
  8
0
  5
3B32A
 10
-366.709
 20
857.432
 30
0.000000
  70
    32
  0
VERTEX
  8
0
  5
3B32B
 10
-366.712
 20
857.431
 30
0.000000
  70
    32
  0
VERTEX
  8
0
  5
3B32C
 10
-366.714
 20
857.429
 30
0.000000
  70
    32
  0
VERTEX
  8
0
  5
3B32D
 10
-366.717
 20
857.427
 30
0.000000
  70
    32
  0
VERTEX
  8
0
  5
3B32E
 10
-366.720
 20
857.426
 30
0.000000
  70
    32
  0
VERTEX
  8
0
  5
3B32F
 10
-366.722
 20
857.424
 30
0.000000
  70
    32
  0
VERTEX
  8
0
  5
3B330
 10
-366.725
 20
857.423
 30
0.000000
  70
    32
  0
VERTEX
  8
0
  5
3B331
 10
-366.728
 20
857.421
 30
0.000000
  70
    32
  0
VERTEX
  8
0
  5
3B332
 10
-366.730
 20
857.420
 30
0.000000
  70
    32
  0
VERTEX
  8
0
  5
3B333
 10
-366.733
 20
857.419
 30
0.000000
  70
    32
  0
VERTEX
  8
0
  5
3B334
 10
-366.736
 20
857.417
 30
0.000000
  70
    32
  0
VERTEX
  8
0
  5
3B335
 10
-366.738
 20
857.416
 30
0.000000
  70
    32
  0
VERTEX
  8
0
  5
3B336
 10
-366.741
 20
857.415
 30
0.000000
  70
    32
  0
VERTEX
  8
0
  5
3B337
 10
-366.744
 20
857.413
 30
0.000000
  70
    32
  0
VERTEX
  8
0
  5
3B338
 10
-366.747
 20
857.412
 30
0.000000
  70
    32
  0
VERTEX
  8
0
  5
3B339
 10
-366.750
 20
857.411
 30
0.000000
  70
    32
  0
VERTEX
  8
0
  5
3B33A
 10
-366.752
 20
857.410
 30
0.000000
  70
    32
  0
VERTEX
  8
0
  5
3B33B
 10
-366.755
 20
857.408
 30
0.000000
  70
    32
  0
VERTEX
  8
0
  5
3B33C
 10
-366.758
 20
857.407
 30
0.000000
  70
    32
  0
VERTEX
  8
0
  5
3B33D
 10
-366.761
 20
857.406
 30
0.000000
  70
    32
  0
VERTEX
  8
0
  5
3B33E
 10
-366.764
 20
857.405
 30
0.000000
  70
    32
  0
VERTEX
  8
0
  5
3B33F
 10
-366.767
 20
857.404
 30
0.000000
  70
    32
  0
VERTEX
  8
0
  5
3B340
 10
-366.769
 20
857.403
 30
0.000000
  70
    32
  0
VERTEX
  8
0
  5
3B341
 10
-366.772
 20
857.402
 30
0.000000
  70
    32
  0
VERTEX
  8
0
  5
3B342
 10
-366.775
 20
857.401
 30
0.000000
  70
    32
  0
VERTEX
  8
0
  5
3B343
 10
-366.778
 20
857.400
 30
0.000000
  70
    32
  0
VERTEX
  8
0
  5
3B344
 10
-366.781
 20
857.399
 30
0.000000
  70
    32
  0
VERTEX
  8
0
  5
3B345
 10
-366.784
 20
857.398
 30
0.000000
  70
    32
  0
VERTEX
  8
0
  5
3B346
 10
-366.787
 20
857.397
 30
0.000000
  70
    32
  0
VERTEX
  8
0
  5
3B347
 10
-366.790
 20
857.396
 30
0.000000
  70
    32
  0
VERTEX
  8
0
  5
3B348
 10
-366.793
 20
857.395
 30
0.000000
  70
    32
  0
VERTEX
  8
0
  5
3B349
 10
-366.796
 20
857.394
 30
0.000000
  70
    32
  0
VERTEX
  8
0
  5
3B34A
 10
-366.799
 20
857.393
 30
0.000000
  70
    32
  0
VERTEX
  8
0
  5
3B34B
 10
-366.802
 20
857.392
 30
0.000000
  70
    32
  0
VERTEX
  8
0
  5
3B34C
 10
-366.805
 20
857.391
 30
0.000000
  70
    32
  0
VERTEX
  8
0
  5
3B34D
 10
-366.807
 20
857.390
 30
0.000000
  70
    32
  0
VERTEX
  8
0
  5
3B34E
 10
-366.810
 20
857.389
 30
0.000000
  70
    32
  0
VERTEX
  8
0
  5
3B34F
 10
-366.813
 20
857.388
 30
0.000000
  70
    32
  0
VERTEX
  8
0
  5
3B350
 10
-366.816
 20
857.388
 30
0.000000
  70
    32
  0
VERTEX
  8
0
  5
3B351
 10
-366.819
 20
857.387
 30
0.000000
  70
    32
  0
VERTEX
  8
0
  5
3B352
 10
-366.822
 20
857.386
 30
0.000000
  70
    32
  0
VERTEX
  8
0
  5
3B353
 10
-366.825
 20
857.385
 30
0.000000
  70
    32
  0
VERTEX
  8
0
  5
3B354
 10
-366.828
 20
857.384
 30
0.000000
  70
    32
  0
VERTEX
  8
0
  5
3B355
 10
-366.832
 20
857.383
 30
0.000000
  70
    32
  0
VERTEX
  8
0
  5
3B356
 10
-366.835
 20
857.382
 30
0.000000
  70
    32
  0
VERTEX
  8
0
  5
3B357
 10
-366.838
 20
857.381
 30
0.000000
  70
    32
  0
VERTEX
  8
0
  5
3B358
 10
-366.841
 20
857.381
 30
0.000000
  70
    32
  0
VERTEX
  8
0
  5
3B359
 10
-366.844
 20
857.380
 30
0.000000
  70
    32
  0
VERTEX
  8
0
  5
3B35A
 10
-366.847
 20
857.379
 30
0.000000
  70
    32
  0
VERTEX
  8
0
  5
3B35B
 10
-366.850
 20
857.378
 30
0.000000
  70
    32
  0
VERTEX
  8
0
  5
3B35C
 10
-366.853
 20
857.377
 30
0.000000
  70
    32
  0
VERTEX
  8
0
  5
3B35D
 10
-366.856
 20
857.376
 30
0.000000
  70
    32
  0
VERTEX
  8
0
  5
3B35E
 10
-366.859
 20
857.375
 30
0.000000
  70
    32
  0
VERTEX
  8
0
  5
3B35F
 10
-366.862
 20
857.374
 30
0.000000
  70
    32
  0
VERTEX
  8
0
  5
3B360
 10
-366.865
 20
857.373
 30
0.000000
  70
    32
  0
VERTEX
  8
0
  5
3B361
 10
-366.868
 20
857.373
 30
0.000000
  70
    32
  0
VERTEX
  8
0
  5
3B362
 10
-366.871
 20
857.372
 30
0.000000
  70
    32
  0
VERTEX
  8
0
  5
3B363
 10
-366.874
 20
857.371
 30
0.000000
  70
    32
  0
VERTEX
  8
0
  5
3B364
 10
-366.877
 20
857.370
 30
0.000000
  70
    32
  0
VERTEX
  8
0
  5
3B365
 10
-366.880
 20
857.369
 30
0.000000
  70
    32
  0
VERTEX
  8
0
  5
3B366
 10
-366.883
 20
857.368
 30
0.000000
  70
    32
  0
VERTEX
  8
0
  5
3B367
 10
-366.886
 20
857.367
 30
0.000000
  70
    32
  0
VERTEX
  8
0
  5
3B368
 10
-366.889
 20
857.366
 30
0.000000
  70
    32
  0
VERTEX
  8
0
  5
3B369
 10
-366.892
 20
857.365
 30
0.000000
  70
    32
  0
VERTEX
  8
0
  5
3B36A
 10
-366.895
 20
857.364
 30
0.000000
  70
    32
  0
VERTEX
  8
0
  5
3B36B
 10
-366.898
 20
857.363
 30
0.000000
  70
    32
  0
VERTEX
  8
0
  5
3B36C
 10
-366.901
 20
857.362
 30
0.000000
  70
    32
  0
VERTEX
  8
0
  5
3B36D
 10
-366.904
 20
857.360
 30
0.000000
  70
    32
  0
VERTEX
  8
0
  5
3B36E
 10
-366.907
 20
857.359
 30
0.000000
  70
    32
  0
VERTEX
  8
0
  5
3B36F
 10
-366.910
 20
857.358
 30
0.000000
  70
    32
  0
VERTEX
  8
0
  5
3B370
 10
-366.913
 20
857.357
 30
0.000000
  70
    32
  0
VERTEX
  8
0
  5
3B371
 10
-366.916
 20
857.356
 30
0.000000
  70
    32
  0
VERTEX
  8
0
  5
3B372
 10
-366.919
 20
857.355
 30
0.000000
  70
    32
  0
VERTEX
  8
0
  5
3B373
 10
-366.922
 20
857.354
 30
0.000000
  70
    32
  0
VERTEX
  8
0
  5
3B374
 10
-366.925
 20
857.352
 30
0.000000
  70
    32
  0
VERTEX
  8
0
  5
3B375
 10
-366.928
 20
857.351
 30
0.000000
  70
    32
  0
VERTEX
  8
0
  5
3B376
 10
-366.931
 20
857.350
 30
0.000000
  70
    32
  0
VERTEX
  8
0
  5
3B377
 10
-366.934
 20
857.349
 30
0.000000
  70
    32
  0
VERTEX
  8
0
  5
3B378
 10
-366.937
 20
857.347
 30
0.000000
  70
    32
  0
VERTEX
  8
0
  5
3B379
 10
-366.940
 20
857.346
 30
0.000000
  70
    32
  0
VERTEX
  8
0
  5
3B37A
 10
-366.943
 20
857.345
 30
0.000000
  70
    32
  0
VERTEX
  8
0
  5
3B37B
 10
-366.946
 20
857.343
 30
0.000000
  70
    32
  0
VERTEX
  8
0
  5
3B37C
 10
-366.948
 20
857.342
 30
0.000000
  70
    32
  0
VERTEX
  8
0
  5
3B37D
 10
-366.951
 20
857.341
 30
0.000000
  70
    32
  0
VERTEX
  8
0
  5
3B37E
 10
-366.954
 20
857.339
 30
0.000000
  70
    32
  0
VERTEX
  8
0
  5
3B37F
 10
-366.957
 20
857.338
 30
0.000000
  70
    32
  0
VERTEX
  8
0
  5
3B380
 10
-366.960
 20
857.336
 30
0.000000
  70
    32
  0
VERTEX
  8
0
  5
3B381
 10
-366.962
 20
857.335
 30
0.000000
  70
    32
  0
VERTEX
  8
0
  5
3B382
 10
-366.965
 20
857.333
 30
0.000000
  70
    32
  0
VERTEX
  8
0
  5
3B383
 10
-366.968
 20
857.332
 30
0.000000
  70
    32
  0
VERTEX
  8
0
  5
3B384
 10
-366.971
 20
857.330
 30
0.000000
  70
    32
  0
VERTEX
  8
0
  5
3B385
 10
-366.973
 20
857.329
 30
0.000000
  70
    32
  0
VERTEX
  8
0
  5
3B386
 10
-366.976
 20
857.327
 30
0.000000
  70
    32
  0
VERTEX
  8
0
  5
3B387
 10
-366.979
 20
857.326
 30
0.000000
  70
    32
  0
VERTEX
  8
0
  5
3B388
 10
-366.981
 20
857.324
 30
0.000000
  70
    32
  0
VERTEX
  8
0
  5
3B389
 10
-366.984
 20
857.322
 30
0.000000
  70
    32
  0
VERTEX
  8
0
  5
3B38A
 10
-366.987
 20
857.321
 30
0.000000
  70
    32
  0
VERTEX
  8
0
  5
3B38B
 10
-366.989
 20
857.319
 30
0.000000
  70
    32
  0
VERTEX
  8
0
  5
3B38C
 10
-366.992
 20
857.317
 30
0.000000
  70
    32
  0
VERTEX
  8
0
  5
3B38D
 10
-366.994
 20
857.315
 30
0.000000
  70
    32
  0
VERTEX
  8
0
  5
3B38E
 10
-366.997
 20
857.314
 30
0.000000
  70
    32
  0
VERTEX
  8
0
  5
3B38F
 10
-366.999
 20
857.312
 30
0.000000
  70
    32
  0
VERTEX
  8
0
  5
3B390
 10
-367.002
 20
857.310
 30
0.000000
  70
    32
  0
VERTEX
  8
0
  5
3B391
 10
-367.004
 20
857.308
 30
0.000000
  70
    32
  0
VERTEX
  8
0
  5
3B392
 10
-367.007
 20
857.306
 30
0.000000
  70
    32
  0
VERTEX
  8
0
  5
3B393
 10
-367.009
 20
857.304
 30
0.000000
  70
    32
  0
VERTEX
  8
0
  5
3B394
 10
-367.011
 20
857.302
 30
0.000000
  70
    32
  0
VERTEX
  8
0
  5
3B395
 10
-367.014
 20
857.300
 30
0.000000
  70
    32
  0
VERTEX
  8
0
  5
3B396
 10
-367.016
 20
857.298
 30
0.000000
  70
    32
  0
VERTEX
  8
0
  5
3B397
 10
-367.018
 20
857.296
 30
0.000000
  70
    32
  0
VERTEX
  8
0
  5
3B398
 10
-367.020
 20
857.294
 30
0.000000
  70
    32
  0
VERTEX
  8
0
  5
3B399
 10
-367.023
 20
857.292
 30
0.000000
  70
    32
  0
VERTEX
  8
0
  5
3B39A
 10
-367.025
 20
857.290
 30
0.000000
  70
    32
  0
VERTEX
  8
0
  5
3B39B
 10
-367.027
 20
857.288
 30
0.000000
  70
    32
  0
VERTEX
  8
0
  5
3B39C
 10
-367.029
 20
857.285
 30
0.000000
  70
    32
  0
VERTEX
  8
0
  5
3B39D
 10
-367.031
 20
857.283
 30
0.000000
  70
    32
  0
VERTEX
  8
0
  5
3B39E
 10
-367.033
 20
857.281
 30
0.000000
  70
    32
  0
VERTEX
  8
0
  5
3B39F
 10
-367.035
 20
857.279
 30
0.000000
  70
    32
  0
VERTEX
  8
0
  5
3B3A0
 10
-367.037
 20
857.276
 30
0.000000
  70
    32
  0
VERTEX
  8
0
  5
3B3A1
 10
-367.039
 20
857.274
 30
0.000000
  70
    32
  0
VERTEX
  8
0
  5
3B3A2
 10
-367.041
 20
857.271
 30
0.000000
  70
    32
  0
VERTEX
  8
0
  5
3B3A3
 10
-367.043
 20
857.269
 30
0.000000
  70
    32
  0
VERTEX
  8
0
  5
3B3A4
 10
-367.045
 20
857.267
 30
0.000000
  70
    32
  0
VERTEX
  8
0
  5
3B3A5
 10
-367.046
 20
857.264
 30
0.000000
  70
    32
  0
VERTEX
  8
0
  5
3B3A6
 10
-367.048
 20
857.262
 30
0.000000
  70
    32
  0
VERTEX
  8
0
  5
3B3A7
 10
-367.050
 20
857.259
 30
0.000000
  70
    32
  0
VERTEX
  8
0
  5
3B3A8
 10
-367.052
 20
857.256
 30
0.000000
  70
    32
  0
VERTEX
  8
0
  5
3B3A9
 10
-367.053
 20
857.254
 30
0.000000
  70
    32
  0
VERTEX
  8
0
  5
3B3AA
 10
-367.055
 20
857.251
 30
0.000000
  70
    32
  0
VERTEX
  8
0
  5
3B3AB
 10
-367.057
 20
857.249
 30
0.000000
  70
    32
  0
VERTEX
  8
0
  5
3B3AC
 10
-367.058
 20
857.246
 30
0.000000
  70
    32
  0
VERTEX
  8
0
  5
3B3AD
 10
-367.060
 20
857.243
 30
0.000000
  70
    32
  0
VERTEX
  8
0
  5
3B3AE
 10
-367.061
 20
857.240
 30
0.000000
  70
    32
  0
VERTEX
  8
0
  5
3B3AF
 10
-367.063
 20
857.238
 30
0.000000
  70
    32
  0
VERTEX
  8
0
  5
3B3B0
 10
-367.064
 20
857.235
 30
0.000000
  70
    32
  0
VERTEX
  8
0
  5
3B3B1
 10
-367.066
 20
857.232
 30
0.000000
  70
    32
  0
VERTEX
  8
0
  5
3B3B2
 10
-367.067
 20
857.229
 30
0.000000
  70
    32
  0
VERTEX
  8
0
  5
3B3B3
 10
-367.069
 20
857.227
 30
0.000000
  70
    32
  0
VERTEX
  8
0
  5
3B3B4
 10
-367.070
 20
857.224
 30
0.000000
  70
    32
  0
VERTEX
  8
0
  5
3B3B5
 10
-367.071
 20
857.221
 30
0.000000
  70
    32
  0
VERTEX
  8
0
  5
3B3B6
 10
-367.073
 20
857.218
 30
0.000000
  70
    32
  0
VERTEX
  8
0
  5
3B3B7
 10
-367.074
 20
857.215
 30
0.000000
  70
    32
  0
VERTEX
  8
0
  5
3B3B8
 10
-367.075
 20
857.212
 30
0.000000
  70
    32
  0
VERTEX
  8
0
  5
3B3B9
 10
-367.077
 20
857.209
 30
0.000000
  70
    32
  0
VERTEX
  8
0
  5
3B3BA
 10
-367.078
 20
857.207
 30
0.000000
  70
    32
  0
VERTEX
  8
0
  5
3B3BB
 10
-367.079
 20
857.204
 30
0.000000
  70
    32
  0
VERTEX
  8
0
  5
3B3BC
 10
-367.080
 20
857.201
 30
0.000000
  70
    32
  0
VERTEX
  8
0
  5
3B3BD
 10
-367.081
 20
857.198
 30
0.000000
  70
    32
  0
VERTEX
  8
0
  5
3B3BE
 10
-367.083
 20
857.195
 30
0.000000
  70
    32
  0
VERTEX
  8
0
  5
3B3BF
 10
-367.084
 20
857.192
 30
0.000000
  70
    32
  0
VERTEX
  8
0
  5
3B3C0
 10
-367.085
 20
857.189
 30
0.000000
  70
    32
  0
VERTEX
  8
0
  5
3B3C1
 10
-367.086
 20
857.186
 30
0.000000
  70
    32
  0
VERTEX
  8
0
  5
3B3C2
 10
-367.087
 20
857.183
 30
0.000000
  70
    32
  0
VERTEX
  8
0
  5
3B3C3
 10
-367.088
 20
857.180
 30
0.000000
  70
    32
  0
VERTEX
  8
0
  5
3B3C4
 10
-367.089
 20
857.177
 30
0.000000
  70
    32
  0
VERTEX
  8
0
  5
3B3C5
 10
-367.090
 20
857.174
 30
0.000000
  70
    32
  0
VERTEX
  8
0
  5
3B3C6
 10
-367.091
 20
857.171
 30
0.000000
  70
    32
  0
VERTEX
  8
0
  5
3B3C7
 10
-367.092
 20
857.168
 30
0.000000
  70
    32
  0
VERTEX
  8
0
  5
3B3C8
 10
-367.093
 20
857.165
 30
0.000000
  70
    32
  0
VERTEX
  8
0
  5
3B3C9
 10
-367.094
 20
857.162
 30
0.000000
  70
    32
  0
VERTEX
  8
0
  5
3B3CA
 10
-367.094
 20
857.159
 30
0.000000
  70
    32
  0
VERTEX
  8
0
  5
3B3CB
 10
-367.095
 20
857.156
 30
0.000000
  70
    32
  0
VERTEX
  8
0
  5
3B3CC
 10
-367.096
 20
857.153
 30
0.000000
  70
    32
  0
VERTEX
  8
0
  5
3B3CD
 10
-367.097
 20
857.150
 30
0.000000
  70
    32
  0
VERTEX
  8
0
  5
3B3CE
 10
-367.098
 20
857.147
 30
0.000000
  70
    32
  0
VERTEX
  8
0
  5
3B3CF
 10
-367.099
 20
857.144
 30
0.000000
  70
    32
  0
VERTEX
  8
0
  5
3B3D0
 10
-367.099
 20
857.141
 30
0.000000
  70
    32
  0
VERTEX
  8
0
  5
3B3D1
 10
-367.100
 20
857.138
 30
0.000000
  70
    32
  0
VERTEX
  8
0
  5
3B3D2
 10
-367.101
 20
857.135
 30
0.000000
  70
    32
  0
VERTEX
  8
0
  5
3B3D3
 10
-367.102
 20
857.132
 30
0.000000
  70
    32
  0
VERTEX
  8
0
  5
3B3D4
 10
-367.102
 20
857.129
 30
0.000000
  70
    32
  0
VERTEX
  8
0
  5
3B3D5
 10
-367.103
 20
857.126
 30
0.000000
  70
    32
  0
VERTEX
  8
0
  5
3B3D6
 10
-367.104
 20
857.123
 30
0.000000
  70
    32
  0
VERTEX
  8
0
  5
3B3D7
 10
-367.104
 20
857.120
 30
0.000000
  70
    32
  0
VERTEX
  8
0
  5
3B3D8
 10
-367.105
 20
857.117
 30
0.000000
  70
    32
  0
VERTEX
  8
0
  5
3B3D9
 10
-367.105
 20
857.114
 30
0.000000
  70
    32
  0
VERTEX
  8
0
  5
3B3DA
 10
-367.106
 20
857.111
 30
0.000000
  70
    32
  0
VERTEX
  8
0
  5
3B3DB
 10
-367.107
 20
857.107
 30
0.000000
  70
    32
  0
VERTEX
  8
0
  5
3B3DC
 10
-367.107
 20
857.104
 30
0.000000
  70
    32
  0
VERTEX
  8
0
  5
3B3DD
 10
-367.108
 20
857.101
 30
0.000000
  70
    32
  0
VERTEX
  8
0
  5
3B3DE
 10
-367.108
 20
857.098
 30
0.000000
  70
    32
  0
VERTEX
  8
0
  5
3B3DF
 10
-367.109
 20
857.095
 30
0.000000
  70
    32
  0
VERTEX
  8
0
  5
3B3E0
 10
-367.109
 20
857.092
 30
0.000000
  70
    32
  0
VERTEX
  8
0
  5
3B3E1
 10
-367.110
 20
857.089
 30
0.000000
  70
    32
  0
VERTEX
  8
0
  5
3B3E2
 10
-367.110
 20
857.086
 30
0.000000
  70
    32
  0
VERTEX
  8
0
  5
3B3E3
 10
-367.110
 20
857.083
 30
0.000000
  70
    32
  0
VERTEX
  8
0
  5
3B3E4
 10
-367.111
 20
857.080
 30
0.000000
  70
    32
  0
VERTEX
  8
0
  5
3B3E5
 10
-367.111
 20
857.077
 30
0.000000
  70
    32
  0
VERTEX
  8
0
  5
3B3E6
 10
-367.112
 20
857.074
 30
0.000000
  70
    32
  0
VERTEX
  8
0
  5
3B3E7
 10
-367.112
 20
857.071
 30
0.000000
  70
    32
  0
VERTEX
  8
0
  5
3B3E8
 10
-367.112
 20
857.068
 30
0.000000
  70
    32
  0
VERTEX
  8
0
  5
3B3E9
 10
-367.113
 20
857.065
 30
0.000000
  70
    32
  0
VERTEX
  8
0
  5
3B3EA
 10
-367.113
 20
857.061
 30
0.000000
  70
    32
  0
VERTEX
  8
0
  5
3B3EB
 10
-367.113
 20
857.058
 30
0.000000
  70
    32
  0
VERTEX
  8
0
  5
3B3EC
 10
-367.114
 20
857.055
 30
0.000000
  70
    32
  0
VERTEX
  8
0
  5
3B3ED
 10
-367.114
 20
857.052
 30
0.000000
  70
    32
  0
VERTEX
  8
0
  5
3B3EE
 10
-367.114
 20
857.049
 30
0.000000
  70
    32
  0
VERTEX
  8
0
  5
3B3EF
 10
-367.114
 20
857.046
 30
0.000000
  70
    32
  0
VERTEX
  8
0
  5
3B3F0
 10
-367.115
 20
857.043
 30
0.000000
  70
    32
  0
VERTEX
  8
0
  5
3B3F1
 10
-367.115
 20
857.040
 30
0.000000
  70
    32
  0
VERTEX
  8
0
  5
3B3F2
 10
-367.115
 20
857.037
 30
0.000000
  70
    32
  0
VERTEX
  8
0
  5
3B3F3
 10
-367.115
 20
857.034
 30
0.000000
  70
    32
  0
VERTEX
  8
0
  5
3B3F4
 10
-367.116
 20
857.031
 30
0.000000
  70
    32
  0
VERTEX
  8
0
  5
3B3F5
 10
-367.116
 20
857.027
 30
0.000000
  70
    32
  0
VERTEX
  8
0
  5
3B3F6
 10
-367.116
 20
857.024
 30
0.000000
  70
    32
  0
VERTEX
  8
0
  5
3B3F7
 10
-367.116
 20
857.021
 30
0.000000
  70
    32
  0
SEQEND
  8
0
  5
3B3F8
  0
LINE
  5
3AEDE
  8
0
 10
-365.33113040140711
 20
859.6421440879742
 30
0.0
 11
-367.31996827390282
 21
857.73666570842715
 31
0.0
  0
LINE
  5
3AEDF
  8
0
 10
-367.31996827390282
 20
857.02125437767495
 30
0.0
 11
-367.31996827390282
 21
857.73666570842715
 31
0.0
  0
LINE
  5
3AEE0
  8
0
 10
-365.00028356980039
 20
859.6421440879742
 30
0.0
 11
-365.33113040140711
 21
859.6421440879742
 31
0.0
  0
INSERT
  5
3AEE1
  8
0
  2
*U16
 10
0.0
 20
0.0
 30
0.0
  0
VIEWPORT
  5
BADA
 67
     1
  8
0
 10
5.249999665167536
 20
5.3214848691578043
 30
0.0
 40
16.023543186357209
 41
10.621019601785591
 68
     2
 69
     1
1001
ACAD
1000
MVIEW
1002
{
1070
    16
1010
0.0
1020
0.0
1030
0.0
1010
0.0
1020
0.0
1030
1.0
1040
0.0
1040
10.621019601785591
1040
5.249999665167536
1040
5.3214848691578043
1040
50.0
1040
0.0
1040
0.0
1070
     0
1070
   100
1070
     1
1070
     1
1070
     0
1070
     0
1070
     0
1070
     0
1040
0.0
1040
0.0
1040
0.0
1040
0.5
1040
0.5
1040
0.5
1040
0.5
1070
     0
1002
{
1002
}
1002
}
  0
VIEWPORT
  5
BADD
 67
     1
  8
0
 10
5.2499996294871929
 20
4.0166741807634683
 30
0.0
 40
10.44245679893058
 41
7.8813805131999892
 68
     1
 69
     2
1001
ACAD
1000
MVIEW
1002
{
1070
    16
1010
0.0
1020
0.0
1030
0.0
1010
0.0
1020
0.0
1030
1.0
1040
0.0
1040
7.881380529303665
1040
-365.78109622114471
1040
858.2430905030435
1040
50.0
1040
0.0
1040
0.0
1070
     0
1070
   100
1070
     1
1070
     2
1070
     0
1070
     0
1070
     0
1070
     0
1040
0.0
1040
0.0
1040
0.0
1040
0.5
1040
0.5
1040
0.5
1040
0.5
1070
     0
1002
{
1002
}
1002
}
  0
ENDSEC
  0
EOF
