  0
SECTION
  2
HEADER
  9
$ACADVER
  1
AC1009
  9
$INSBASE
 10
0.0
 20
0.0
 30
0.0
  9
$EXTMIN
 10
-382.53419390346619
 20
843.22550599210876
 30
0.0
  9
$EXTMAX
 10
-357.79926896535028
 20
864.37589262457595
 30
0.0
  9
$LIMMIN
 10
0.0
 20
0.0
  9
$LIMMAX
 10
1500.0
 20
1500.0
  9
$ORTHOMODE
 70
     0
  9
$REGENMODE
 70
     1
  9
$FILLMODE
 70
     1
  9
$QTEXTMODE
 70
     0
  9
$MIRRTEXT
 70
     1
  9
$DRAGMODE
 70
     2
  9
$LTSCALE
 40
1.0
  9
$OSMODE
 70
    37
  9
$ATTMODE
 70
     1
  9
$TEXTSIZE
 40
1.5
  9
$TRACEWID
 40
0.05
  9
$TEXTSTYLE
  7
STANDARD
  9
$CLAYER
  8
0
  9
$CELTYPE
  6
BYLAYER
  9
$CECOLOR
 62
   256
  9
$DIMSCALE
 40
1.0
  9
$DIMASZ
 40
0.75
  9
$DIMEXO
 40
1.5
  9
$DIMDLI
 40
2.0
  9
$DIMRND
 40
0.0
  9
$DIMDLE
 40
0.0
  9
$DIMEXE
 40
1.0
  9
$DIMTP
 40
0.0
  9
$DIMTM
 40
0.0
  9
$DIMTXT
 40
1.5
  9
$DIMCEN
 40
2.0
  9
$DIMTSZ
 40
0.0
  9
$DIMTOL
 70
     0
  9
$DIMLIM
 70
     0
  9
$DIMTIH
 70
     0
  9
$DIMTOH
 70
     0
  9
$DIMSE1
 70
     0
  9
$DIMSE2
 70
     0
  9
$DIMTAD
 70
     1
  9
$DIMZIN
 70
     0
  9
$DIMBLK
  1
ARCHTICK
  9
$DIMASO
 70
     1
  9
$DIMSHO
 70
     1
  9
$DIMPOST
  1
"
  9
$DIMAPOST
  1

  9
$DIMALT
 70
     0
  9
$DIMALTD
 70
     2
  9
$DIMALTF
 40
25.399999999999999
  9
$DIMLFAC
 40
1.0
  9
$DIMTOFL
 70
     0
  9
$DIMTVP
 40
0.0
  9
$DIMTIX
 70
     1
  9
$DIMSOXD
 70
     0
  9
$DIMSAH
 70
     0
  9
$DIMBLK1
  1

  9
$DIMBLK2
  1

  9
$DIMSTYLE
  2
THREE_QUARTER_INCH_SCALE
  9
$DIMCLRD
 70
     0
  9
$DIMCLRE
 70
     0
  9
$DIMCLRT
 70
     0
  9
$DIMTFAC
 40
1.0
  9
$DIMGAP
 40
1.0
  9
$LUNITS
 70
     2
  9
$LUPREC
 70
     4
  9
$SKETCHINC
 40
0.1
  9
$FILLETRAD
 40
0.0
  9
$AUNITS
 70
     0
  9
$AUPREC
 70
     0
  9
$MENU
  1
.
  9
$ELEVATION
 40
0.0
  9
$PELEVATION
 40
0.0
  9
$THICKNESS
 40
0.0
  9
$LIMCHECK
 70
     0
  9
$BLIPMODE
 70
     0
  9
$CHAMFERA
 40
0.5
  9
$CHAMFERB
 40
0.5
  9
$SKPOLY
 70
     0
  9
$TDCREATE
 40
2452089.395738773
  9
$TDUPDATE
 40
2453608.516229433
  9
$TDINDWG
 40
1.5436495138999999
  9
$TDUSRTIMER
 40
1.5436495138999999
  9
$USRTIMER
 70
     1
  9
$ANGBASE
 50
0.0
  9
$ANGDIR
 70
     0
  9
$PDMODE
 70
     0
  9
$PDSIZE
 40
10.0
  9
$PLINEWID
 40
0.0
  9
$COORDS
 70
     1
  9
$SPLFRAME
 70
     0
  9
$SPLINETYPE
 70
     6
  9
$SPLINESEGS
 70
     8
  9
$ATTDIA
 70
     0
  9
$ATTREQ
 70
     1
  9
$HANDLING
 70
     1
  9
$HANDSEED
  5
32CCC
  9
$SURFTAB1
 70
     6
  9
$SURFTAB2
 70
     6
  9
$SURFTYPE
 70
     6
  9
$SURFU
 70
     6
  9
$SURFV
 70
     6
  9
$UCSNAME
  2

  9
$UCSORG
 10
0.0
 20
0.0
 30
0.0
  9
$UCSXDIR
 10
1.0
 20
0.0
 30
0.0
  9
$UCSYDIR
 10
0.0
 20
1.0
 30
0.0
  9
$PUCSNAME
  2

  9
$PUCSORG
 10
0.0
 20
0.0
 30
0.0
  9
$PUCSXDIR
 10
1.0
 20
0.0
 30
0.0
  9
$PUCSYDIR
 10
0.0
 20
1.0
 30
0.0
  9
$USERI1
 70
     0
  9
$USERI2
 70
     0
  9
$USERI3
 70
     0
  9
$USERI4
 70
     0
  9
$USERI5
 70
     0
  9
$USERR1
 40
0.0
  9
$USERR2
 40
0.0
  9
$USERR3
 40
0.0
  9
$USERR4
 40
0.0
  9
$USERR5
 40
0.0
  9
$WORLDVIEW
 70
     1
  9
$SHADEDGE
 70
     3
  9
$SHADEDIF
 70
    70
  9
$TILEMODE
 70
     0
  9
$MAXACTVP
 70
    64
  9
$PLIMCHECK
 70
     0
  9
$PEXTMIN
 10
0.0282895744820664
 20
0.0759353784799721
 30
-0.0015258207003583
  9
$PEXTMAX
 10
10.471709755853
 20
7.9577863512286546
 30
0.0000000349246037
  9
$PLIMMIN
 10
-0.2500002402958907
 20
-0.2499999962453767
  9
$PLIMMAX
 10
10.74999951940821
 20
8.2499997634587316
  9
$UNITMODE
 70
     0
  9
$VISRETAIN
 70
     1
  9
$PLINEGEN
 70
     0
  9
$PSLTSCALE
 70
     1
  0
ENDSEC
  0
SECTION
  2
TABLES
  0
TABLE
  2
VPORT
 70
     3
  0
VPORT
  2
*ACTIVE
 70
     0
 10
0.0
 20
0.0
 11
1.0
 21
1.0
 12
-380.70010693656201
 22
845.16779400026962
 13
0.0
 23
0.0
 14
0.5
 24
0.5
 15
0.5
 25
0.5
 16
0.0
 26
0.0
 36
1.0
 17
0.0
 27
0.0
 37
0.0
 40
8.8173627230431642
 41
2.0
 42
50.0
 43
0.0
 44
0.0
 50
0.0
 51
0.0
 71
     0
 72
   100
 73
     1
 74
     2
 75
     0
 76
     0
 77
     0
 78
     0
  0
ENDTAB
  0
TABLE
  2
LTYPE
 70
     1
  0
LTYPE
  2
CONTINUOUS
 70
     0
  3
Solid line
 72
    65
 73
     0
 40
0.0
  0
ENDTAB
  0
TABLE
  2
LAYER
 70
    10
  0
LAYER
  2
0
 70
     0
 62
     7
  6
CONTINUOUS
  0
LAYER
  2
DEFPOINTS
 70
     0
 62
     7
  6
CONTINUOUS
  0
LAYER
  2
FRAME_200
 70
     0
 62
     8
  6
CONTINUOUS
  0
LAYER
  2
FRAME_070
 70
     0
 62
     5
  6
CONTINUOUS
  0
LAYER
  2
FRAME_050
 70
     0
 62
     6
  6
CONTINUOUS
  0
LAYER
  2
TITLE_BLOCK
 70
     0
 62
     7
  6
CONTINUOUS
  0
LAYER
  2
FRAME_025
 70
     0
 62
     7
  6
CONTINUOUS
  0
LAYER
  2
VIEWPORT
 70
     0
 62
     7
  6
CONTINUOUS
  0
LAYER
  2
PROF
 70
     0
 62
     7
  6
CONTINUOUS
  0
LAYER
  2
PROFILE
 70
     0
 62
     7
  6
CONTINUOUS
  0
ENDTAB
  0
TABLE
  2
STYLE
 70
     2
  0
STYLE
  2
STANDARD
 70
     0
 40
0.0
 41
1.0
 50
0.0
 71
     0
 42
1.5
  3
txt
  4

  0
STYLE
  2
ISO_PROPORTIONAL
 70
     0
 40
0.0
 41
1.0
 50
0.0
 71
     0
 42
2.5
  3
isocp.shx
  4

  0
ENDTAB
  0
TABLE
  2
VIEW
 70
     7
  0
ENDTAB
  0
TABLE
  2
UCS
 70
     0
  0
ENDTAB
  0
TABLE
  2
APPID
 70
     6
  0
APPID
  2
ACAD
 70
     0
  0
APPID
  2
DCO15
 70
     0
  0
APPID
  2
ACAD_EXEMPT_FROM_CAD_STANDARDS
 70
     0
  0
APPID
  2
ACAD_PSEXT
 70
     0
  0
APPID
  2
CONTENTBLOCKDESCRIPTION
 70
     0
  0
APPID
  2
CONTENTBLOCKICON
 70
     0
  0
ENDTAB
  0
TABLE
  2
DIMSTYLE
 70
     5
  0
DIMSTYLE
  2
FULL_SCALE
 70
     0
  3
"
  4

  5
ARCHTICK
  6

  7

 40
1.0
 41
0.046875
 42
0.09375
 43
0.125
 44
0.0625
 45
0.0
 46
0.0
 47
0.0
 48
0.0
140
0.125
141
0.125
142
0.0
143
25.399999999999999
144
1.0
145
0.0
146
1.0
147
0.0625
 71
     0
 72
     0
 73
     0
 74
     0
 75
     0
 76
     0
 77
     1
 78
     0
170
     0
171
     2
172
     0
173
     0
174
     1
175
     0
176
     0
177
     0
178
     0
  0
DIMSTYLE
  2
HALF_SCALE
 70
     0
  3
"
  4

  5
ARCHTICK
  6

  7

 40
1.0
 41
0.09375
 42
0.1875
 43
0.25
 44
0.125
 45
0.0
 46
0.0
 47
0.0
 48
0.0
140
0.25
141
0.25
142
0.0
143
25.399999999999999
144
1.0
145
0.0
146
1.0
147
0.125
 71
     0
 72
     0
 73
     0
 74
     0
 75
     0
 76
     0
 77
     1
 78
     0
170
     0
171
     2
172
     0
173
     0
174
     1
175
     0
176
     0
177
     0
178
     0
  0
DIMSTYLE
  2
INCH_SCALE
 70
     0
  3
"
  4

  5
ARCHTICK
  6

  7

 40
1.0
 41
0.5625
 42
1.125
 43
1.5
 44
0.75
 45
0.0
 46
0.0
 47
0.0
 48
0.0
140
1.125
141
1.5
142
0.0
143
25.399999999999999
144
1.0
145
0.0
146
1.0
147
0.75
 71
     0
 72
     0
 73
     0
 74
     0
 75
     0
 76
     0
 77
     1
 78
     0
170
     0
171
     2
172
     0
173
     0
174
     1
175
     0
176
     0
177
     0
178
     0
  0
DIMSTYLE
  2
THREE_QUARTER_INCH_SCALE
 70
     0
  3
"
  4

  5
ARCHTICK
  6

  7

 40
1.0
 41
0.75
 42
1.5
 43
2.0
 44
1.0
 45
0.0
 46
0.0
 47
0.0
 48
0.0
140
1.5
141
2.0
142
0.0
143
25.399999999999999
144
1.0
145
0.0
146
1.0
147
1.0
 71
     0
 72
     0
 73
     0
 74
     0
 75
     0
 76
     0
 77
     1
 78
     0
170
     0
171
     2
172
     0
173
     0
174
     1
175
     0
176
     0
177
     0
178
     0
  0
DIMSTYLE
  2
ZHALF_INCH_SCALE
 70
     0
  3
"
  4

  5
ARCHTICK
  6

  7

 40
1.0
 41
1.125
 42
2.25
 43
3.0
 44
1.5
 45
0.0
 46
0.0
 47
0.0
 48
0.0
140
2.25
141
3.0
142
0.0
143
25.399999999999999
144
1.0
145
0.0
146
1.0
147
1.5
 71
     0
 72
     0
 73
     0
 74
     0
 75
     0
 76
     0
 77
     1
 78
     0
170
     0
171
     2
172
     0
173
     0
174
     1
175
     0
176
     0
177
     0
178
     0
  0
ENDTAB
  0
ENDSEC
  0
SECTION
  2
BLOCKS
  0
BLOCK
  8
0
  2
$MODEL_SPACE
 70
     0
 10
0.0
 20
0.0
 30
0.0
  3
$MODEL_SPACE
  1

  0
ENDBLK
  5
21
  8
0
  0
BLOCK
 67
     1
  8
0
  2
$PAPER_SPACE
 70
     0
 10
0.0
 20
0.0
 30
0.0
  3
$PAPER_SPACE
  1

  0
ENDBLK
  5
BAD5
 67
     1
  8
0
  0
BLOCK
  8
0
  2
_ARCHTICK
 70
     0
 10
0.0
 20
0.0
 30
0.0
  3
_ARCHTICK
  1

  0
POLYLINE
  5
158
  8
0
  6
BYBLOCK
 62
     0
 66
     1
 10
0.0
 20
0.0
 30
0.0
 40
0.15
 41
0.15
  0
VERTEX
  5
32667
  8
0
  6
BYBLOCK
 62
     0
 10
-0.5
 20
-0.5
 30
0.0
  0
VERTEX
  5
32668
  8
0
  6
BYBLOCK
 62
     0
 10
0.5
 20
0.5
 30
0.0
  0
SEQEND
  5
32669
  8
0
  6
BYBLOCK
 62
     0
  0
ENDBLK
  5
15A
  8
0
  0
BLOCK
  8
0
  2
_OPEN30
 70
     0
 10
0.0
 20
0.0
 30
0.0
  3
_OPEN30
  1

  0
LINE
  5
15C
  8
0
  6
BYBLOCK
 62
     0
 10
-1.0
 20
0.26794919
 30
0.0
 11
0.0
 21
0.0
 31
0.0
  0
LINE
  5
15D
  8
0
  6
BYBLOCK
 62
     0
 10
0.0
 20
0.0
 30
0.0
 11
-1.0
 21
-0.26794919
 31
0.0
  0
LINE
  5
15E
  8
0
  6
BYBLOCK
 62
     0
 10
0.0
 20
0.0
 30
0.0
 11
-1.0
 21
0.0
 31
0.0
  0
ENDBLK
  5
160
  8
0
  0
BLOCK
  8
0
  2
ISO_A2_TITLE_BLOCK
 70
     2
 10
0.0
 20
0.0
 30
0.0
  3
ISO_A2_TITLE_BLOCK
  1

  0
LINE
  5
BDD
  8
FRAME_050
 10
299.5
 20
12.5
 30
0.0
 11
297.0
 21
7.5
 31
0.0
  0
LINE
  5
BDE
  8
FRAME_050
 10
294.5
 20
12.5
 30
0.0
 11
299.5
 21
12.5
 31
0.0
  0
LINE
  5
BDF
  8
FRAME_050
 10
247.0
 20
5.0
 30
0.0
 11
347.0
 21
5.0
 31
0.0
  0
LINE
  5
BE0
  8
FRAME_070
 10
584.0
 20
410.0
 30
0.0
 11
10.0
 21
410.0
 31
0.0
  0
LINE
  5
BE1
  8
FRAME_070
 10
10.0
 20
10.0
 30
0.0
 11
584.0
 21
10.0
 31
0.0
  0
LINE
  5
BE2
  8
FRAME_050
 10
12.5
 20
207.5
 30
0.0
 11
7.5
 21
210.0
 31
0.0
  0
LINE
  5
BE3
  8
FRAME_050
 10
12.5
 20
212.5
 30
0.0
 11
12.5
 21
207.5
 31
0.0
  0
LINE
  5
BE4
  8
FRAME_070
 10
10.0
 20
410.0
 30
0.0
 11
10.0
 21
10.0
 31
0.0
  0
LINE
  5
BE5
  8
FRAME_200
 10
0.0
 20
0.0
 30
0.0
 11
0.0
 21
10.0
 31
0.0
  0
LINE
  5
BE6
  8
FRAME_200
 10
0.0
 20
0.0
 30
0.0
 11
10.0
 21
0.0
 31
0.0
  0
TEXT
  5
BE7
  8
FRAME_050
 10
5.9000000000000004
 20
35.0
 30
0.0
 40
4.0
  1
H
  7
ISO_PROPORTIONAL
 72
     4
 11
7.5
 21
37.0
 31
0.0
  0
LINE
  5
BE8
  8
FRAME_050
 10
10.0
 20
60.0
 30
0.0
 11
5.0
 21
60.0
 31
0.0
  0
LINE
  5
BE9
  8
FRAME_050
 10
81.75
 20
5.0
 30
0.0
 11
81.75
 21
10.0
 31
0.0
  0
TEXT
  5
BEA
  8
FRAME_050
 10
44.874999999999993
 20
5.5
 30
0.0
 40
4.0
  1
1
  7
ISO_PROPORTIONAL
 72
     4
 11
45.875
 21
7.5
 31
0.0
  0
TEXT
  5
BEB
  8
FRAME_050
 10
6.0035533905932743
 20
85.0
 30
0.0
 40
4.0
  1
G
  7
ISO_PROPORTIONAL
 72
     4
 11
7.5
 21
87.0
 31
0.0
  0
LINE
  5
BEC
  8
FRAME_050
 10
10.0
 20
110.0
 30
0.0
 11
5.0
 21
110.0
 31
0.0
  0
TEXT
  5
BED
  8
FRAME_050
 10
6.0999999999999988
 20
135.0
 30
0.0
 40
4.0
  1
F
  7
ISO_PROPORTIONAL
 72
     4
 11
7.5
 21
137.0
 31
0.0
  0
LINE
  5
BEE
  8
FRAME_050
 10
10.0
 20
160.0
 30
0.0
 11
5.0
 21
160.0
 31
0.0
  0
TEXT
  5
BEF
  8
FRAME_050
 10
6.0999999999999988
 20
185.0
 30
0.0
 40
4.0
  1
E
  7
ISO_PROPORTIONAL
 72
     4
 11
7.5
 21
187.0
 31
0.0
  0
LINE
  5
BF0
  8
FRAME_050
 10
153.5
 20
5.0
 30
0.0
 11
153.5
 21
10.0
 31
0.0
  0
TEXT
  5
BF1
  8
FRAME_050
 10
116.1556692913386
 20
5.3996062992125982
 30
0.0
 40
4.0
  1
2
  7
ISO_PROPORTIONAL
 72
     4
 11
117.625
 21
7.5
 31
0.0
  0
TEXT
  5
BF2
  8
FRAME_050
 10
187.89215728752529
 20
5.5828427124746138
 30
0.0
 40
4.0
  1
3
  7
ISO_PROPORTIONAL
 72
     4
 11
189.375
 21
7.5
 31
0.0
  0
LINE
  5
BF3
  8
FRAME_050
 10
225.25
 20
5.0
 30
0.0
 11
225.25
 21
10.0
 31
0.0
  0
LINE
  5
BF4
  8
FRAME_050
 10
297.0
 20
7.5
 30
0.0
 11
294.5
 21
12.5
 31
0.0
  0
LINE
  5
BF5
  8
FRAME_050
 10
287.0
 20
5.0
 30
0.0
 11
287.0
 21
10.0
 31
0.0
  0
LINE
  5
BF6
  8
FRAME_050
 10
277.0
 20
5.0
 30
0.0
 11
277.0
 21
10.0
 31
0.0
  0
LINE
  5
BF7
  8
FRAME_050
 10
267.0
 20
5.0
 30
0.0
 11
267.0
 21
10.0
 31
0.0
  0
LINE
  5
BF8
  8
FRAME_050
 10
257.0
 20
5.0
 30
0.0
 11
257.0
 21
10.0
 31
0.0
  0
LINE
  5
BF9
  8
FRAME_050
 10
247.0
 20
5.0
 30
0.0
 11
247.0
 21
10.0
 31
0.0
  0
LINE
  5
BFA
  8
FRAME_050
 10
297.0
 20
10.0
 30
0.0
 11
297.0
 21
5.0
 31
0.0
  0
LINE
  5
BFB
  8
FRAME_050
 10
297.0
 20
10.0
 30
0.0
 11
297.0
 21
15.0
 31
0.0
  0
LINE
  5
BFC
  8
FRAME_050
 10
5.0
 20
210.0
 30
0.0
 11
15.0
 21
210.0
 31
0.0
  0
LINE
  5
BFD
  8
FRAME_050
 10
7.5
 20
210.0
 30
0.0
 11
12.5
 21
212.5
 31
0.0
  0
TEXT
  5
BFE
  8
FRAME_050
 10
5.7860912703473977
 20
235.0
 30
0.0
 40
4.0
  1
D
  7
ISO_PROPORTIONAL
 72
     4
 11
7.5
 21
237.0
 31
0.0
  0
LINE
  5
BFF
  8
FRAME_050
 10
10.0
 20
260.0
 30
0.0
 11
5.0
 21
260.0
 31
0.0
  0
TEXT
  5
C00
  8
FRAME_050
 10
6.1931980515339466
 20
285.0
 30
0.0
 40
4.0
  1
C
  7
ISO_PROPORTIONAL
 72
     4
 11
7.5
 21
287.0
 31
0.0
  0
LINE
  5
C01
  8
FRAME_050
 10
10.0
 20
310.0
 30
0.0
 11
5.0
 21
310.0
 31
0.0
  0
TEXT
  5
C02
  8
FRAME_050
 10
5.8999999999999959
 20
335.0
 30
0.0
 40
4.0
  1
B
  7
ISO_PROPORTIONAL
 72
     4
 11
7.5
 21
337.0
 31
0.0
  0
LINE
  5
C03
  8
FRAME_050
 10
10.0
 20
360.0
 30
0.0
 11
5.0
 21
360.0
 31
0.0
  0
TEXT
  5
C04
  8
FRAME_050
 10
5.6999999999999993
 20
385.0
 30
0.0
 40
4.0
  1
A
  7
ISO_PROPORTIONAL
 72
     4
 11
7.5
 21
387.0
 31
0.0
  0
LINE
  5
C05
  8
FRAME_200
 10
10.0
 20
420.0
 30
0.0
 11
0.0
 21
420.0
 31
0.0
  0
LINE
  5
C06
  8
FRAME_200
 10
0.0
 20
420.0
 30
0.0
 11
0.0
 21
410.0
 31
0.0
  0
TEXT
  5
C07
  8
FRAME_050
 10
44.874999999999993
 20
410.5
 30
0.0
 40
4.0
  1
1
  7
ISO_PROPORTIONAL
 72
     4
 11
45.875
 21
412.5
 31
0.0
  0
LINE
  5
C08
  8
FRAME_050
 10
81.75
 20
410.0
 30
0.0
 11
81.75
 21
415.0
 31
0.0
  0
TEXT
  5
C09
  8
FRAME_050
 10
116.1556692913386
 20
410.39960629921262
 30
0.0
 40
4.0
  1
2
  7
ISO_PROPORTIONAL
 72
     4
 11
117.625
 21
412.5
 31
0.0
  0
LINE
  5
C0A
  8
FRAME_050
 10
153.5
 20
410.0
 30
0.0
 11
153.5
 21
415.0
 31
0.0
  0
TEXT
  5
C0B
  8
FRAME_050
 10
187.89215728752529
 20
410.58284271247459
 30
0.0
 40
4.0
  1
3
  7
ISO_PROPORTIONAL
 72
     4
 11
189.375
 21
412.5
 31
0.0
  0
LINE
  5
C0C
  8
FRAME_050
 10
297.0
 20
405.0
 30
0.0
 11
297.0
 21
415.0
 31
0.0
  0
LINE
  5
C0D
  8
FRAME_050
 10
225.25
 20
410.0
 30
0.0
 11
225.25
 21
415.0
 31
0.0
  0
TEXT
  5
C0E
  8
FRAME_050
 10
259.52499999999998
 20
410.5
 30
0.0
 40
4.0
  1
4
  7
ISO_PROPORTIONAL
 72
     4
 11
261.125
 21
412.5
 31
0.0
  0
LINE
  5
C0F
  8
FRAME_070
 10
584.0
 20
10.0
 30
0.0
 11
584.0
 21
410.0
 31
0.0
  0
ATTDEF
  5
C10
  8
FRAME_025
 10
473.0
 20
31.75
 30
0.0
 40
2.5
  1
XXX - 00/00/00
  7
ISO_PROPORTIONAL
 11
473.0
 21
33.0
 31
0.0
  3
Approved by - Date
  2
APPROVED_BY_DATE
 70
     8
 74
     2
  0
TEXT
  5
C11
  8
FRAME_025
 10
448.0
 20
41.749999999999993
 30
0.0
 40
2.5
  1
Title/Name, designation, material, dimension etc
  7
ISO_PROPORTIONAL
 11
448.0
 21
43.0
 31
0.0
 73
     2
  0
TEXT
  5
C12
  8
FRAME_025
 10
473.0
 20
35.75
 30
0.0
 40
2.5
  1
Approved by - date
  7
ISO_PROPORTIONAL
 11
473.0
 21
37.0
 31
0.0
 73
     2
  0
LINE
  5
C13
  8
FRAME_070
 10
414.0
 20
46.0
 30
0.0
 11
584.0
 21
46.0
 31
0.0
  0
LINE
  5
C14
  8
FRAME_070
 10
414.0
 20
40.0
 30
0.0
 11
584.0
 21
40.0
 31
0.0
  0
LINE
  5
C15
  8
FRAME_070
 10
414.0
 20
30.0
 30
0.0
 11
584.0
 21
30.0
 31
0.0
  0
LINE
  5
C16
  8
FRAME_050
 10
368.75
 20
5.0
 30
0.0
 11
368.75
 21
10.0
 31
0.0
  0
LINE
  5
C17
  8
FRAME_050
 10
337.0
 20
5.0
 30
0.0
 11
337.0
 21
10.0
 31
0.0
  0
LINE
  5
C18
  8
FRAME_050
 10
327.0
 20
5.0
 30
0.0
 11
327.0
 21
10.0
 31
0.0
  0
LINE
  5
C19
  8
FRAME_050
 10
317.0
 20
5.0
 30
0.0
 11
317.0
 21
10.0
 31
0.0
  0
LINE
  5
C1A
  8
FRAME_050
 10
307.0
 20
5.0
 30
0.0
 11
307.0
 21
10.0
 31
0.0
  0
LINE
  5
C1B
  8
FRAME_050
 10
347.0
 20
5.0
 30
0.0
 11
347.0
 21
10.0
 31
0.0
  0
LINE
  5
C1C
  8
FRAME_050
 10
440.5
 20
5.0
 30
0.0
 11
440.5
 21
10.0
 31
0.0
  0
TEXT
  5
C1D
  8
FRAME_050
 10
403.24547244094481
 20
5.4102362204724406
 30
0.0
 40
4.0
  1
6
  7
ISO_PROPORTIONAL
 72
     4
 11
404.62499999999989
 21
7.5
 31
0.0
  0
TEXT
  5
C1E
  8
FRAME_050
 10
474.97500000000002
 20
5.5
 30
0.0
 40
4.0
  1
7
  7
ISO_PROPORTIONAL
 72
     4
 11
476.37499999999989
 21
7.5
 31
0.0
  0
TEXT
  5
C1F
  8
FRAME_025
 10
431.0
 20
41.749999999999993
 30
0.0
 40
2.5
  1
Quantity
  7
ISO_PROPORTIONAL
 11
431.0
 21
43.0
 31
0.0
 73
     2
  0
TEXT
  5
C20
  8
FRAME_025
 10
416.0
 20
41.749999999999993
 30
0.0
 40
2.5
  1
Itemref
  7
ISO_PROPORTIONAL
 11
416.0
 21
43.0
 31
0.0
 73
     2
  0
LINE
  5
C21
  8
FRAME_070
 10
414.0
 20
40.0
 30
0.0
 11
414.0
 21
46.0
 31
0.0
  0
LINE
  5
C22
  8
FRAME_070
 10
429.0
 20
40.0
 30
0.0
 11
429.0
 21
46.0
 31
0.0
  0
LINE
  5
C23
  8
FRAME_070
 10
414.0
 20
10.0
 30
0.0
 11
414.0
 21
40.0
 31
0.0
  0
ATTDEF
  5
C24
  8
FRAME_025
 10
416.0
 20
31.75
 30
0.0
 40
2.5
  1
XXX
  7
ISO_PROPORTIONAL
 11
416.0
 21
33.0
 31
0.0
  3
Designed by
  2
DESIGNED_BY
 70
     8
 74
     2
  0
TEXT
  5
C25
  8
FRAME_025
 10
416.0
 20
35.75
 30
0.0
 40
2.5
  1
Designed by
  7
ISO_PROPORTIONAL
 11
416.0
 21
37.0
 31
0.0
 73
     2
  0
LINE
  5
C26
  8
FRAME_070
 10
446.0
 20
40.0
 30
0.0
 11
446.0
 21
46.0
 31
0.0
  0
ATTDEF
  5
C27
  8
FRAME_025
 10
448.0
 20
31.75
 30
0.0
 40
2.5
  1
XXX
  7
ISO_PROPORTIONAL
 11
448.0
 21
33.0
 31
0.0
  3
Checked by
  2
CHECKED_BY
 70
     8
 74
     2
  0
TEXT
  5
C28
  8
FRAME_025
 10
448.0
 20
35.75
 30
0.0
 40
2.5
  1
Checked by
  7
ISO_PROPORTIONAL
 11
448.0
 21
37.0
 31
0.0
 73
     2
  0
ATTDEF
  5
C29
  8
FRAME_050
 10
444.74999999999989
 20
17.5
 30
0.0
 40
5.0
  1
XXX
  7
ISO_PROPORTIONAL
 72
     4
 11
451.49999999999989
 21
20.0
 31
0.0
  3
Owner
  2
OWNER
 70
     8
  0
LINE
  5
C2A
  8
FRAME_070
 10
446.0
 20
30.0
 30
0.0
 11
446.0
 21
40.0
 31
0.0
  0
LINE
  5
C2B
  8
FRAME_070
 10
471.0
 20
30.0
 30
0.0
 11
471.0
 21
40.0
 31
0.0
  0
LINE
  5
C2C
  8
FRAME_070
 10
489.0
 20
20.0
 30
0.0
 11
584.0
 21
20.0
 31
0.0
  0
LINE
  5
C2D
  8
FRAME_050
 10
512.25
 20
5.0
 30
0.0
 11
512.25
 21
10.0
 31
0.0
  0
TEXT
  5
C2E
  8
FRAME_050
 10
546.72499999999991
 20
5.5
 30
0.0
 40
4.0
  1
8
  7
ISO_PROPORTIONAL
 72
     4
 11
548.125
 21
7.5
 31
0.0
  0
ATTDEF
  5
C2F
  8
FRAME_050
 10
517.64999999999986
 20
13.5
 30
0.0
 40
3.0
  1
X
  7
ISO_PROPORTIONAL
 72
     4
 11
519.0
 21
15.0
 31
0.0
  3
Drawing number
  2
DRAWING_NUMBER
 70
     8
  0
ATTDEF
  5
C30
  8
FRAME_050
 10
529.75
 20
22.5
 30
0.0
 40
5.0
  1
XXX
  7
ISO_PROPORTIONAL
 72
     4
 11
536.5
 21
25.0
 31
0.0
  3
Title / Name
  2
TITLE
 70
     8
  0
LINE
  5
C31
  8
FRAME_070
 10
489.0
 20
10.0
 30
0.0
 11
489.0
 21
30.0
 31
0.0
  0
ATTDEF
  5
C32
  8
FRAME_025
 10
511.0
 20
31.75
 30
0.0
 40
2.5
  1
XXX
  7
ISO_PROPORTIONAL
 11
511.0
 21
33.0
 31
0.0
  3
Filename
  2
FILENAME
 70
     8
 74
     2
  0
TEXT
  5
C33
  8
FRAME_025
 10
511.0
 20
35.75
 30
0.0
 40
2.5
  1
Filename
  7
ISO_PROPORTIONAL
 11
511.0
 21
37.0
 31
0.0
 73
     2
  0
LINE
  5
C34
  8
FRAME_070
 10
509.0
 20
30.0
 30
0.0
 11
509.0
 21
40.0
 31
0.0
  0
TEXT
  5
C35
  8
FRAME_025
 10
536.0
 20
41.749999999999993
 30
0.0
 40
2.5
  1
Article No./Reference
  7
ISO_PROPORTIONAL
 11
536.0
 21
43.0
 31
0.0
 73
     2
  0
LINE
  5
C36
  8
FRAME_070
 10
534.0
 20
40.0
 30
0.0
 11
534.0
 21
46.0
 31
0.0
  0
ATTDEF
  5
C37
  8
FRAME_025
 10
551.0
 20
11.75
 30
0.0
 40
2.5
  1
0
  7
ISO_PROPORTIONAL
 11
551.0
 21
13.0
 31
0.0
  3
Edition
  2
EDITION
 70
     8
 74
     2
  0
TEXT
  5
C38
  8
FRAME_025
 10
551.0
 20
15.75
 30
0.0
 40
2.5
  1
Edition
  7
ISO_PROPORTIONAL
 11
551.0
 21
17.0
 31
0.0
 73
     2
  0
LINE
  5
C39
  8
FRAME_070
 10
549.0
 20
10.0
 30
0.0
 11
549.0
 21
20.0
 31
0.0
  0
ATTDEF
  5
C3A
  8
FRAME_025
 10
536.0
 20
31.75
 30
0.0
 40
2.5
  1
00/00/00
  7
ISO_PROPORTIONAL
 11
536.0
 21
33.0
 31
0.0
  3
Date
  2
DATE
 70
     8
 74
     2
  0
TEXT
  5
C3B
  8
FRAME_025
 10
536.0
 20
35.75
 30
0.0
 40
2.5
  1
Date
  7
ISO_PROPORTIONAL
 11
536.0
 21
37.0
 31
0.0
 73
     2
  0
LINE
  5
C3C
  8
FRAME_070
 10
534.0
 20
30.0
 30
0.0
 11
534.0
 21
40.0
 31
0.0
  0
ATTDEF
  5
C3D
  8
FRAME_025
 10
566.0
 20
11.75
 30
0.0
 40
2.5
  1
1/1
  7
ISO_PROPORTIONAL
 11
566.0
 21
13.0
 31
0.0
  3
Sheet
  2
SHEET
 70
     8
 74
     2
  0
TEXT
  5
C3E
  8
FRAME_025
 10
566.0
 20
15.75
 30
0.0
 40
2.5
  1
Sheet
  7
ISO_PROPORTIONAL
 11
566.0
 21
17.0
 31
0.0
 73
     2
  0
LINE
  5
C3F
  8
FRAME_070
 10
564.0
 20
10.0
 30
0.0
 11
564.0
 21
20.0
 31
0.0
  0
ATTDEF
  5
C40
  8
FRAME_025
 10
566.0
 20
31.75
 30
0.0
 40
2.5
  1
1:1
  7
ISO_PROPORTIONAL
 11
566.0
 21
33.0
 31
0.0
  3
Scale
  2
SCALE
 70
     8
 74
     2
  0
TEXT
  5
C41
  8
FRAME_025
 10
566.0
 20
35.75
 30
0.0
 40
2.5
  1
Scale
  7
ISO_PROPORTIONAL
 11
566.0
 21
37.0
 31
0.0
 73
     2
  0
LINE
  5
C42
  8
FRAME_070
 10
564.0
 20
30.0
 30
0.0
 11
564.0
 21
40.0
 31
0.0
  0
LINE
  5
C43
  8
FRAME_200
 10
594.0
 20
0.0
 30
0.0
 11
594.0
 21
10.0
 31
0.0
  0
LINE
  5
C44
  8
FRAME_200
 10
594.0
 20
0.0
 30
0.0
 11
584.0
 21
0.0
 31
0.0
  0
TEXT
  5
C45
  8
FRAME_050
 10
584.89999999999998
 20
35.0
 30
0.0
 40
4.0
  1
H
  7
ISO_PROPORTIONAL
 72
     4
 11
586.5
 21
37.0
 31
0.0
  0
LINE
  5
C46
  8
FRAME_050
 10
589.0
 20
60.0
 30
0.0
 11
584.0
 21
60.0
 31
0.0
  0
TEXT
  5
C47
  8
FRAME_050
 10
585.0035533905932
 20
85.0
 30
0.0
 40
4.0
  1
G
  7
ISO_PROPORTIONAL
 72
     4
 11
586.5
 21
87.0
 31
0.0
  0
LINE
  5
C48
  8
FRAME_050
 10
589.0
 20
110.0
 30
0.0
 11
584.0
 21
110.0
 31
0.0
  0
TEXT
  5
C49
  8
FRAME_050
 10
585.09999999999991
 20
135.0
 30
0.0
 40
4.0
  1
F
  7
ISO_PROPORTIONAL
 72
     4
 11
586.5
 21
137.0
 31
0.0
  0
LINE
  5
C4A
  8
FRAME_050
 10
589.0
 20
160.0
 30
0.0
 11
584.0
 21
160.0
 31
0.0
  0
TEXT
  5
C4B
  8
FRAME_050
 10
585.09999999999991
 20
185.0
 30
0.0
 40
4.0
  1
E
  7
ISO_PROPORTIONAL
 72
     4
 11
586.5
 21
187.0
 31
0.0
  0
LINE
  5
C4C
  8
FRAME_070
 10
414.0
 20
404.0
 30
0.0
 11
584.0
 21
404.0
 31
0.0
  0
TEXT
  5
C4D
  8
FRAME_050
 10
331.39215728752538
 20
410.58284271247459
 30
0.0
 40
4.0
  1
5
  7
ISO_PROPORTIONAL
 72
     4
 11
332.875
 21
412.5
 31
0.0
  0
LINE
  5
C4E
  8
FRAME_050
 10
368.75
 20
410.0
 30
0.0
 11
368.75
 21
415.0
 31
0.0
  0
TEXT
  5
C4F
  8
FRAME_025
 10
428.0
 20
405.75
 30
0.0
 40
2.5
  1
Revision note
  7
ISO_PROPORTIONAL
 11
428.0
 21
407.0
 31
0.0
 73
     2
  0
TEXT
  5
C50
  8
FRAME_025
 10
416.0
 20
405.75
 30
0.0
 40
2.5
  1
RevNo
  7
ISO_PROPORTIONAL
 11
416.0
 21
407.0
 31
0.0
 73
     2
  0
LINE
  5
C51
  8
FRAME_070
 10
426.0
 20
404.0
 30
0.0
 11
426.0
 21
410.0
 31
0.0
  0
LINE
  5
C52
  8
FRAME_070
 10
414.0
 20
404.0
 30
0.0
 11
414.0
 21
410.0
 31
0.0
  0
TEXT
  5
C53
  8
FRAME_050
 10
403.24547244094481
 20
410.41023622047243
 30
0.0
 40
4.0
  1
6
  7
ISO_PROPORTIONAL
 72
     4
 11
404.62499999999989
 21
412.5
 31
0.0
  0
LINE
  5
C54
  8
FRAME_050
 10
440.5
 20
410.0
 30
0.0
 11
440.5
 21
415.0
 31
0.0
  0
TEXT
  5
C55
  8
FRAME_050
 10
474.97500000000002
 20
410.5
 30
0.0
 40
4.0
  1
7
  7
ISO_PROPORTIONAL
 72
     4
 11
476.37499999999989
 21
412.5
 31
0.0
  0
LINE
  5
C56
  8
FRAME_050
 10
579.0
 20
210.0
 30
0.0
 11
589.0
 21
210.0
 31
0.0
  0
TEXT
  5
C57
  8
FRAME_050
 10
584.78609127034736
 20
235.0
 30
0.0
 40
4.0
  1
D
  7
ISO_PROPORTIONAL
 72
     4
 11
586.5
 21
237.0
 31
0.0
  0
LINE
  5
C58
  8
FRAME_050
 10
589.0
 20
260.0
 30
0.0
 11
584.0
 21
260.0
 31
0.0
  0
TEXT
  5
C59
  8
FRAME_050
 10
585.19319805153395
 20
285.0
 30
0.0
 40
4.0
  1
C
  7
ISO_PROPORTIONAL
 72
     4
 11
586.5
 21
287.0
 31
0.0
  0
LINE
  5
C5A
  8
FRAME_050
 10
589.0
 20
310.0
 30
0.0
 11
584.0
 21
310.0
 31
0.0
  0
TEXT
  5
C5B
  8
FRAME_050
 10
584.89999999999998
 20
335.0
 30
0.0
 40
4.0
  1
B
  7
ISO_PROPORTIONAL
 72
     4
 11
586.5
 21
337.0
 31
0.0
  0
TEXT
  5
C5C
  8
FRAME_025
 10
571.08299391850551
 20
405.75
 30
0.0
 40
2.5
  1
Checked
  7
ISO_PROPORTIONAL
 11
571.08299391850551
 21
407.0
 31
0.0
 73
     2
  0
TEXT
  5
C5D
  8
FRAME_025
 10
555.36099797283532
 20
405.75
 30
0.0
 40
2.5
  1
Signature
  7
ISO_PROPORTIONAL
 11
555.36099797283532
 21
407.0
 31
0.0
 73
     2
  0
TEXT
  5
C5E
  8
FRAME_025
 10
537.0
 20
405.75
 30
0.0
 40
2.5
  1
Date
  7
ISO_PROPORTIONAL
 11
537.0
 21
407.0
 31
0.0
 73
     2
  0
LINE
  5
C5F
  8
FRAME_070
 10
570.0
 20
404.0
 30
0.0
 11
570.0
 21
410.0
 31
0.0
  0
LINE
  5
C60
  8
FRAME_070
 10
555.0
 20
404.0
 30
0.0
 11
555.0
 21
410.0
 31
0.0
  0
LINE
  5
C61
  8
FRAME_070
 10
535.0
 20
404.0
 30
0.0
 11
535.0
 21
410.0
 31
0.0
  0
LINE
  5
C62
  8
FRAME_050
 10
512.25
 20
410.0
 30
0.0
 11
512.25
 21
415.0
 31
0.0
  0
TEXT
  5
C63
  8
FRAME_050
 10
546.72499999999991
 20
410.5
 30
0.0
 40
4.0
  1
8
  7
ISO_PROPORTIONAL
 72
     4
 11
548.125
 21
412.5
 31
0.0
  0
LINE
  5
C64
  8
FRAME_050
 10
589.0
 20
360.0
 30
0.0
 11
584.0
 21
360.0
 31
0.0
  0
TEXT
  5
C65
  8
FRAME_050
 10
584.70000000000005
 20
385.0
 30
0.0
 40
4.0
  1
A
  7
ISO_PROPORTIONAL
 72
     4
 11
586.5
 21
387.0
 31
0.0
  0
LINE
  5
C66
  8
FRAME_200
 10
594.0
 20
420.0
 30
0.0
 11
584.0
 21
420.0
 31
0.0
  0
LINE
  5
C67
  8
FRAME_200
 10
594.0
 20
410.0
 30
0.0
 11
594.0
 21
420.0
 31
0.0
  0
ENDBLK
  5
C69
  8
0
  0
BLOCK
  8
0
  2
WOBB001END
 70
     0
 10
0.0
 20
0.0
 30
0.0
  3
WOBB001END
  1

  0
LINE
  5
4D66
  8
0
  6
CONTINUOUS
 10
0.0
 20
0.0
 30
0.0
 11
0.8749999999999998
 21
0.0
 31
0.0
  0
ARC
  5
4D67
  8
0
  6
CONTINUOUS
 10
0.0331648379439287
 20
-0.5087238935900232
 30
0.0
 40
0.8790130605592325
 50
284.06490243660443
 51
312.19222981924361
  0
ARC
  5
4D68
  8
0
  6
CONTINUOUS
 10
0.2841534338796767
 20
-1.510548310625538
 30
0.0
 40
0.1537731892806598
 50
104.0649024366044
 51
179.4721730735024
  0
LINE
  5
4D69
  8
0
  6
CONTINUOUS
 10
0.0
 20
0.0
 30
0.0
 11
-0.0000000000000003
 21
-1.7501564476661919
 31
0.0
  0
ARC
  5
4D6A
  8
0
  6
CONTINUOUS
 10
0.1404622019506122
 20
-1.6303137183546199
 30
0.0
 40
0.1198427293115722
 50
275.0
 51
85.000000000000057
  0
LINE
  5
4D6B
  8
0
  6
CONTINUOUS
 10
-0.0000000000000003
 20
-1.7501564476661919
 30
0.0
 11
0.1456946485130855
 21
-1.7501564476661919
 31
0.0
  0
LINE
  5
4D6C
  8
0
  6
CONTINUOUS
 10
0.1377603739254348
 20
-1.7508506067459131
 30
0.0
 11
0.150907184036669
 21
-1.749700409899652
 31
0.0
  0
LINE
  5
4D6D
  8
0
  6
CONTINUOUS
 10
0.1303867696719884
 20
-1.5091317231818231
 30
0.0
 11
0.1509071840366689
 21
-1.5109270268095869
 31
0.0
  0
LINE
  5
4D6E
  8
0
  6
CONTINUOUS
 10
0.8749999999999998
 20
0.0
 30
0.0
 11
0.8749999999999996
 21
-0.8649327026588228
 31
0.0
  0
LINE
  5
4D6F
  8
0
  6
CONTINUOUS
 10
0.727014513830997
 20
-0.8726882933550612
 30
0.0
 11
0.727014513830997
 21
-0.9264923397184784
 31
0.0
  0
ARC
  5
4D70
  8
0
  6
CONTINUOUS
 10
0.41187090827646
 20
-0.9264923397184784
 30
0.0
 40
0.315143605554537
 50
312.19222981924361
 51
0.0
  0
LINE
  5
4D71
  8
0
  6
CONTINUOUS
 10
0.727014513830997
 20
-0.8726882933550612
 30
0.0
 11
0.8749999999999996
 21
-0.8649327026588228
 31
0.0
  0
ENDBLK
  5
4D72
  8
0
  0
BLOCK
  8
0
  2
A$C0A61123B
 70
     0
 10
0.0
 20
0.0
 30
0.0
  3
A$C0A61123B
  1

  0
LINE
  5
C0AD
  8
PROF
  6
CONTINUOUS
 10
4.9012016798694162
 20
13.325025853350891
 30
0.0000000000000002
 11
4.9012016798694162
 21
12.88585218805485
 31
0.0000000000000003
  0
INSERT
  5
C0AE
  8
0
  2
*U50
 10
0.0
 20
0.0
 30
0.0
  0
LINE
  5
C0AF
  8
PROF
 10
4.5198575031869259
 20
12.72227734589444
 30
0.0000000000000001
 11
4.5198575031869259
 21
12.88585218805485
 31
0.0000000000000001
  0
LINE
  5
C0B0
  8
PROF
  6
CONTINUOUS
 10
3.6306271195888371
 20
13.325025853350891
 30
0.0000000000000002
 11
4.9012016798694162
 21
13.325025853350891
 31
0.0000000000000002
  0
LINE
  5
C0B1
  8
PROF
 10
1.9750295148747341
 20
10.37671325491794
 30
0.0000000000000002
 11
1.9750295148747341
 21
10.11391186758919
 31
0.0000000000000002
  0
LINE
  5
C0B2
  8
PROF
 10
1.607967335755631
 20
10.11391186758919
 30
0.0000000000000001
 11
1.9750295148747341
 21
10.11391186758919
 31
0.0000000000000001
  0
LINE
  5
C0B3
  8
PROF
 10
1.9750295148747341
 20
10.11391186758919
 30
0.0000000000000001
 11
1.944958486898144
 21
10.11391186758919
 31
0.0000000000000001
  0
LINE
  5
C0B4
  8
PROF
 10
1.9750295148747341
 20
10.11391186758919
 30
0.0000000000000001
 11
1.944958486898144
 21
10.11391186758919
 31
0.0000000000000001
  0
LINE
  5
C0B5
  8
PROF
 10
0.3222605517169654
 20
7.5247473351056442
 30
-0.0000000000000002
 11
-0.0000008570117416
 21
7.5247473351056442
 31
0.0
  0
LINE
  5
C0B6
  8
PROF
 10
-0.0000008570117416
 20
7.5247473351056442
 30
0.0
 11
-0.0000008570117416
 21
9.1943336957369866
 31
0.0
  0
POLYLINE
  5
C0B7
  8
PROF
 66
     1
 10
0.0
 20
0.0
 30
0.0000000000000001
 70
     4
 75
     6
  0
VERTEX
  5
C0B8
  8
PROF
 10
1.607967335755631
 20
10.11391186758919
 30
0.0000000000000001
 70
    16
  0
VERTEX
  5
C0B9
  8
PROF
 10
1.607967335755631
 20
10.11391186758919
 30
0.0000000000000001
 70
     8
  0
VERTEX
  5
C0BA
  8
PROF
 10
1.646813232648582
 20
10.02198069336111
 30
0.0000000000000001
 70
     8
  0
VERTEX
  5
C0BB
  8
PROF
 10
1.67335966680929
 20
9.9344134163010267
 30
0.0000000000000001
 70
     8
  0
VERTEX
  5
C0BC
  8
PROF
 10
1.689008640046324
 20
9.8512576644480987
 30
0.0000000000000001
 70
     8
  0
VERTEX
  5
C0BD
  8
PROF
 10
1.695162154168258
 20
9.7725610658417281
 30
0.0000000000000001
 70
     8
  0
VERTEX
  5
C0BE
  8
PROF
 10
1.6932222109836059
 20
9.6983712485214255
 30
0.0000000000000001
 70
     8
  0
VERTEX
  5
C0BF
  8
PROF
 10
1.6845908123009961
 20
9.6287358405263603
 30
0.0000000000000001
 70
     8
  0
VERTEX
  5
C0C0
  8
PROF
 10
1.6706699599288859
 20
9.5637024698960431
 30
0.0000000000000001
 70
     8
  0
VERTEX
  5
C0C1
  8
PROF
 10
1.6528616556759621
 20
9.503318764669757
 30
0.0000000000000001
 70
     8
  0
VERTEX
  5
C0C2
  8
PROF
 10
1.6323562992730549
 20
9.4475843259650674
 30
0.0000000000000001
 70
     8
  0
VERTEX
  5
C0C3
  8
PROF
 10
1.609497882140658
 20
9.3963066472123273
 30
0.0000000000000001
 70
     8
  0
VERTEX
  5
C0C4
  8
PROF
 10
1.584418793621637
 20
9.3492451949202842
 30
0.0000000000000001
 70
     8
  0
VERTEX
  5
C0C5
  8
PROF
 10
1.557251423058744
 20
9.3061594355972375
 30
0.0000000000000001
 70
     8
  0
VERTEX
  5
C0C6
  8
PROF
 10
1.5281281597949601
 20
9.2668088357519292
 30
0.0000000000000001
 70
     8
  0
VERTEX
  5
C0C7
  8
PROF
 10
1.4971813931729789
 20
9.2309528618930017
 30
0.0000000000000001
 70
     8
  0
VERTEX
  5
C0C8
  8
PROF
 10
1.464543512535726
 20
9.1983509805288577
 30
0.0000000000000001
 70
     8
  0
VERTEX
  5
C0C9
  8
PROF
 10
1.4303469072260091
 20
9.1687626581682462
 30
0.0000000000000001
 70
     8
  0
VERTEX
  5
C0CA
  8
PROF
 10
1.3947360332574019
 20
9.1419547918675335
 30
0.0000000000000001
 70
     8
  0
VERTEX
  5
C0CB
  8
PROF
 10
1.3579036133264131
 20
9.1177240008747731
 30
0.0000000000000001
 70
     8
  0
VERTEX
  5
C0CC
  8
PROF
 10
1.3200544368004321
 20
9.0958743349860924
 30
0.0000000000000001
 70
     8
  0
VERTEX
  5
C0CD
  8
PROF
 10
1.281393293046676
 20
9.0762098439975034
 30
0.0000000000000001
 70
     8
  0
VERTEX
  5
C0CE
  8
PROF
 10
1.242124971432417
 20
9.0585345777049042
 30
0.0000000000000001
 70
     8
  0
VERTEX
  5
C0CF
  8
PROF
 10
1.2024542613249869
 20
9.0426525859044204
 30
0.0000000000000001
 70
     8
  0
VERTEX
  5
C0D0
  8
PROF
 10
1.1625859520916599
 20
9.0283679183919503
 30
0.0000000000000001
 70
     8
  0
VERTEX
  5
C0D1
  8
PROF
 10
1.1227248330997091
 20
9.0154846249635057
 30
0.0000000000000001
 70
     8
  0
VERTEX
  5
C0D2
  8
PROF
 10
1.0829726247361
 20
9.0034643862466055
 30
0.0000000000000001
 70
     8
  0
VERTEX
  5
C0D3
  8
PROF
 10
1.043018771466222
 20
8.9903994061946833
 30
0.0000000000000001
 70
     8
  0
VERTEX
  5
C0D4
  8
PROF
 10
1.002449648775211
 20
8.9740395195925657
 30
0.0000000000000001
 70
     8
  0
VERTEX
  5
C0D5
  8
PROF
 10
0.9608516321480919
 20
8.9521345612251935
 30
0.0000000000000001
 70
     8
  0
VERTEX
  5
C0D6
  8
PROF
 10
0.9178110970699435
 20
8.9224343658775052
 30
0.0000000000000001
 70
     8
  0
VERTEX
  5
C0D7
  8
PROF
 10
0.8729144190259034
 20
8.8826887683343312
 30
0.0000000000000001
 70
     8
  0
VERTEX
  5
C0D8
  8
PROF
 10
0.8257479735009951
 20
8.8306476033806121
 30
0.0000000000000001
 70
     8
  0
VERTEX
  5
C0D9
  8
PROF
 10
0.7758981359802988
 20
8.764060705801171
 30
0.0000000000000001
 70
     8
  0
VERTEX
  5
C0DA
  8
PROF
 10
1.729201901609656
 20
9.8629858761255491
 30
0.0000000000000001
 70
    16
  0
VERTEX
  5
C0DB
  8
PROF
 10
1.6793731231140889
 20
9.4532143012734196
 30
0.0000000000000001
 70
    16
  0
VERTEX
  5
C0DC
  8
PROF
 10
1.4455611507419801
 20
9.1391837193732481
 30
0.0000000000000001
 70
    16
  0
VERTEX
  5
C0DD
  8
PROF
 10
1.120463717273821
 20
9.0026267702428413
 30
0.0000000000000001
 70
    16
  0
VERTEX
  5
C0DE
  8
PROF
 10
0.9127765582653638
 20
8.9630202230383702
 30
0.0000000000000001
 70
    16
  0
VERTEX
  5
C0DF
  8
PROF
 10
0.7758981359802988
 20
8.764060705801171
 30
0.0000000000000001
 70
    16
  0
SEQEND
  5
C0E0
  8
PROF
  0
ARC
  5
C0E1
  8
PROF
 10
0.733429816733235
 20
8.4849506952165257
 30
0.0000000000000001
 40
0.2823224329524727
 50
269.73652020831901
 51
81.348449993176914
  0
LINE
  5
C0E2
  8
PROF
  6
CONTINUOUS
 10
-0.0000008570117416
 20
9.1943336957369866
 30
-0.0000000000000001
 11
3.6306271195888371
 21
13.325025853350891
 31
0.0000000000000002
  0
POLYLINE
  5
C0E3
  8
PROF
 66
     1
 10
0.0
 20
0.0
 30
0.0000000000000001
 70
     4
 75
     6
  0
VERTEX
  5
C0E4
  8
PROF
 10
4.5198575031869259
 20
12.72227734589444
 30
0.0000000000000001
 70
    16
  0
VERTEX
  5
C0E5
  8
PROF
 10
4.5198575031869259
 20
12.72227734589444
 30
0.0000000000000001
 70
     8
  0
VERTEX
  5
C0E6
  8
PROF
 10
4.4467035366886298
 20
12.741128108778071
 30
0.0000000000000001
 70
     8
  0
VERTEX
  5
C0E7
  8
PROF
 10
4.3786645761268801
 20
12.754675269913941
 30
0.0000000000000001
 70
     8
  0
VERTEX
  5
C0E8
  8
PROF
 10
4.3154364111440477
 20
12.76334314092332
 30
0.0000000000000001
 70
     8
  0
VERTEX
  5
C0E9
  8
PROF
 10
4.256714831382566
 20
12.76755603342724
 30
0.0000000000000001
 70
     8
  0
VERTEX
  5
C0EA
  8
PROF
 10
4.2021956264849791
 20
12.76773825904672
 30
0.0000000000000001
 70
     8
  0
VERTEX
  5
C0EB
  8
PROF
 10
4.1515745860935453
 20
12.764314129403139
 30
0.0000000000000001
 70
     8
  0
VERTEX
  5
C0EC
  8
PROF
 10
4.1045474998508658
 20
12.75770795611743
 30
0.0000000000000001
 70
     8
  0
VERTEX
  5
C0ED
  8
PROF
 10
4.0608101573993158
 20
12.748344050810831
 30
0.0000000000000001
 70
     8
  0
VERTEX
  5
C0EE
  8
PROF
 10
4.0200583483813261
 20
12.736646725104491
 30
0.0000000000000001
 70
     8
  0
VERTEX
  5
C0EF
  8
PROF
 10
3.9819878624393819
 20
12.72304029061945
 30
0.0000000000000001
 70
     8
  0
VERTEX
  5
C0F0
  8
PROF
 10
3.946294489215858
 20
12.707949058976959
 30
0.0000000000000001
 70
     8
  0
VERTEX
  5
C0F1
  8
PROF
 10
3.9126740183532429
 20
12.691797341798059
 30
0.0000000000000001
 70
     8
  0
VERTEX
  5
C0F2
  8
PROF
 10
3.8808638350742508
 20
12.67494295718654
 30
0.0000000000000001
 70
     8
  0
VERTEX
  5
C0F3
  8
PROF
 10
3.850767706922738
 20
12.65747774917668
 30
0.0000000000000001
 70
     8
  0
VERTEX
  5
C0F4
  8
PROF
 10
3.8223309970228452
 20
12.639427068285499
 30
0.0000000000000001
 70
     8
  0
VERTEX
  5
C0F5
  8
PROF
 10
3.7954990684987129
 20
12.62081626503004
 30
0.0000000000000001
 70
     8
  0
VERTEX
  5
C0F6
  8
PROF
 10
3.7702172844744828
 20
12.601670689926999
 30
0.0000000000000001
 70
     8
  0
VERTEX
  5
C0F7
  8
PROF
 10
3.746431008074353
 20
12.58201569349364
 30
0.0000000000000001
 70
     8
  0
VERTEX
  5
C0F8
  8
PROF
 10
3.7240856024224618
 20
12.56187662624666
 30
0.0000000000000001
 70
     8
  0
VERTEX
  5
C0F9
  8
PROF
 10
3.7031264306428961
 20
12.541278838703191
 30
0.0000000000000001
 70
     8
  0
VERTEX
  5
C0FA
  8
PROF
 10
3.6834988558599089
 20
12.520247681380051
 30
0.0000000000000001
 70
     8
  0
VERTEX
  5
C0FB
  8
PROF
 10
3.665148241197528
 20
12.49880850479428
 30
0.0000000000000001
 70
     8
  0
VERTEX
  5
C0FC
  8
PROF
 10
3.6480199497799499
 20
12.47698665946279
 30
0.0000000000000001
 70
     8
  0
VERTEX
  5
C0FD
  8
PROF
 10
3.6320593447313172
 20
12.45480749590263
 30
0.0000000000000001
 70
     8
  0
VERTEX
  5
C0FE
  8
PROF
 10
3.6171895848866589
 20
12.43223790353807
 30
0.0000000000000001
 70
     8
  0
VERTEX
  5
C0FF
  8
PROF
 10
3.6032450119242858
 20
12.40901092742285
 30
0.0000000000000001
 70
     8
  0
VERTEX
  5
C100
  8
PROF
 10
3.590037763233453
 20
12.38480115151844
 30
0.0000000000000001
 70
     8
  0
VERTEX
  5
C101
  8
PROF
 10
3.5773799762033032
 20
12.35928315978594
 30
0.0000000000000001
 70
     8
  0
VERTEX
  5
C102
  8
PROF
 10
3.5650837882230908
 20
12.33213153618658
 30
0.0000000000000001
 70
     8
  0
VERTEX
  5
C103
  8
PROF
 10
3.5529613366819599
 20
12.303020864681571
 30
0.0000000000000001
 70
     8
  0
VERTEX
  5
C104
  8
PROF
 10
3.540824758969165
 20
12.271625729232371
 30
0.0000000000000001
 70
     8
  0
VERTEX
  5
C105
  8
PROF
 10
3.5284861924738489
 20
12.23762071379997
 30
0.0000000000000001
 70
     8
  0
VERTEX
  5
C106
  8
PROF
 10
3.5157577745852668
 20
12.200680402345711
 30
0.0000000000000001
 70
     8
  0
VERTEX
  5
C107
  8
PROF
 10
3.5024516426926189
 20
12.16047937883093
 30
0.0000000000000001
 70
     8
  0
VERTEX
  5
C108
  8
PROF
 10
3.4883799341851041
 20
12.116692227216619
 30
0.0000000000000001
 70
     8
  0
VERTEX
  5
C109
  8
PROF
 10
3.4733547864519201
 20
12.06899353146423
 30
0.0000000000000001
 70
     8
  0
VERTEX
  5
C10A
  8
PROF
 10
3.45723654619428
 20
12.0172095445447
 30
0.0000000000000001
 70
     8
  0
VERTEX
  5
C10B
  8
PROF
 10
3.4400783973613889
 20
11.961773195467799
 30
0.0000000000000001
 70
     8
  0
VERTEX
  5
C10C
  8
PROF
 10
3.421981733214579
 20
11.90326908225302
 30
0.0000000000000001
 70
     8
  0
VERTEX
  5
C10D
  8
PROF
 10
3.4030479470150108
 20
11.842281802919951
 30
0.0000000000000001
 70
     8
  0
VERTEX
  5
C10E
  8
PROF
 10
3.383378432024017
 20
11.779395955487979
 30
0.0000000000000001
 70
     8
  0
VERTEX
  5
C10F
  8
PROF
 10
3.3630745815028709
 20
11.715196137976809
 30
0.0000000000000001
 70
     8
  0
VERTEX
  5
C110
  8
PROF
 10
3.3422377887127359
 20
11.650266948405831
 30
0.0000000000000001
 70
     8
  0
VERTEX
  5
C111
  8
PROF
 10
3.320969446915
 20
11.58519298479461
 30
0.0000000000000001
 70
     8
  0
VERTEX
  5
C112
  8
PROF
 10
3.2993709493707679
 20
11.520558845162549
 30
0.0000000000000001
 70
     8
  0
VERTEX
  5
C113
  8
PROF
 10
3.277543689341428
 20
11.456949127529469
 30
0.0000000000000001
 70
     8
  0
VERTEX
  5
C114
  8
PROF
 10
3.2555890600881412
 20
11.3949484299145
 30
0.0000000000000001
 70
     8
  0
VERTEX
  5
C115
  8
PROF
 10
3.233608454872182
 20
11.335141350337491
 30
0.0000000000000001
 70
     8
  0
VERTEX
  5
C116
  8
PROF
 10
3.2116715641212181
 20
11.27799544797778
 30
0.0000000000000001
 70
     8
  0
VERTEX
  5
C117
  8
PROF
 10
3.189721266927847
 20
11.22351012665467
 30
0.0000000000000001
 70
     8
  0
VERTEX
  5
C118
  8
PROF
 10
3.1676687395512881
 20
11.17156775134765
 30
0.0000000000000001
 70
     8
  0
VERTEX
  5
C119
  8
PROF
 10
3.1454251582505321
 20
11.12205068703588
 30
0.0000000000000001
 70
     8
  0
VERTEX
  5
C11A
  8
PROF
 10
3.122901699284625
 20
11.07484129869874
 30
0.0000000000000001
 70
     8
  0
VERTEX
  5
C11B
  8
PROF
 10
3.1000095389127291
 20
11.02982195131551
 30
0.0000000000000001
 70
     8
  0
VERTEX
  5
C11C
  8
PROF
 10
3.0766598533938909
 20
10.986875009865679
 30
0.0000000000000001
 70
     8
  0
VERTEX
  5
C11D
  8
PROF
 10
3.0527638189871591
 20
10.9458828393283
 30
0.0000000000000001
 70
     8
  0
VERTEX
  5
C11E
  8
PROF
 10
3.0282326119516361
 20
10.90672780468298
 30
0.0000000000000001
 70
     8
  0
VERTEX
  5
C11F
  8
PROF
 10
3.002977408546371
 20
10.869292270908771
 30
0.0000000000000001
 70
     8
  0
VERTEX
  5
C120
  8
PROF
 10
2.9769093850304098
 20
10.833458602985161
 30
0.0000000000000001
 70
     8
  0
VERTEX
  5
C121
  8
PROF
 10
2.9499397176628568
 20
10.799109165891419
 30
0.0000000000000001
 70
     8
  0
VERTEX
  5
C122
  8
PROF
 10
2.9220006098404379
 20
10.76614363969508
 30
0.0000000000000001
 70
     8
  0
VERTEX
  5
C123
  8
PROF
 10
2.8931083735103011
 20
10.7345309648158
 30
0.0000000000000001
 70
     8
  0
VERTEX
  5
C124
  8
PROF
 10
2.8633003477572738
 20
10.70425739676193
 30
0.0000000000000001
 70
     8
  0
VERTEX
  5
C125
  8
PROF
 10
2.8326138716660689
 20
10.67530919104115
 30
0.0000000000000001
 70
     8
  0
VERTEX
  5
C126
  8
PROF
 10
2.8010862843216269
 20
10.647672603161711
 30
0.0000000000000001
 70
     8
  0
VERTEX
  5
C127
  8
PROF
 10
2.7687549248087171
 20
10.62133388863162
 30
0.0000000000000001
 70
     8
  0
VERTEX
  5
C128
  8
PROF
 10
2.735657132212054
 20
10.5962793029588
 30
0.0000000000000001
 70
     8
  0
VERTEX
  5
C129
  8
PROF
 10
2.7018302456165202
 20
10.572495101651381
 30
0.0000000000000001
 70
     8
  0
VERTEX
  5
C12A
  8
PROF
 10
2.6673116041068852
 20
10.54996754021726
 30
0.0000000000000001
 70
     8
  0
VERTEX
  5
C12B
  8
PROF
 10
2.6321385467680321
 20
10.528682874164581
 30
0.0000000000000001
 70
     8
  0
VERTEX
  5
C12C
  8
PROF
 10
2.5963484126846188
 20
10.508627359001251
 30
0.0000000000000001
 70
     8
  0
VERTEX
  5
C12D
  8
PROF
 10
2.5599785409415849
 20
10.489787250235279
 30
0.0000000000000001
 70
     8
  0
VERTEX
  5
C12E
  8
PROF
 10
2.522998630314361
 20
10.472162234281081
 30
0.0000000000000001
 70
     8
  0
VERTEX
  5
C12F
  8
PROF
 10
2.4851078183409072
 20
10.455805721177621
 30
0.0000000000000001
 70
     8
  0
VERTEX
  5
C130
  8
PROF
 10
2.4459376022498982
 20
10.44078455187036
 30
0.0000000000000001
 70
     8
  0
VERTEX
  5
C131
  8
PROF
 10
2.4051194792701258
 20
10.42716556730465
 30
0.0000000000000001
 70
     8
  0
VERTEX
  5
C132
  8
PROF
 10
2.3622849466301541
 20
10.415015608425851
 30
0.0000000000000001
 70
     8
  0
VERTEX
  5
C133
  8
PROF
 10
2.3170655015587149
 20
10.40440151617929
 30
0.0000000000000001
 70
     8
  0
VERTEX
  5
C134
  8
PROF
 10
2.2690926412844301
 20
10.395390131510339
 30
0.0000000000000001
 70
     8
  0
VERTEX
  5
C135
  8
PROF
 10
2.2179978630360888
 20
10.388048295364451
 30
0.0000000000000001
 70
     8
  0
VERTEX
  5
C136
  8
PROF
 10
2.1634126640422551
 20
10.38244284868688
 30
0.0000000000000001
 70
     8
  0
VERTEX
  5
C137
  8
PROF
 10
2.104968541531604
 20
10.37864063242295
 30
0.0000000000000001
 70
     8
  0
VERTEX
  5
C138
  8
PROF
 10
2.0422969927328718
 20
10.37670848751816
 30
0.0000000000000001
 70
     8
  0
VERTEX
  5
C139
  8
PROF
 10
1.9750295148747341
 20
10.37671325491794
 30
0.0000000000000001
 70
     8
  0
VERTEX
  5
C13A
  8
PROF
 10
4.2166060115107484
 20
12.80885334975255
 30
0.0000000000000001
 70
    16
  0
VERTEX
  5
C13B
  8
PROF
 10
3.8702254102732918
 20
12.707065515763929
 30
0.0000000000000001
 70
    16
  0
VERTEX
  5
C13C
  8
PROF
 10
3.605346156896871
 20
12.46277472098552
 30
0.0000000000000001
 70
    16
  0
VERTEX
  5
C13D
  8
PROF
 10
3.500746030527238
 20
12.170680575709749
 30
0.0000000000000001
 70
    16
  0
VERTEX
  5
C13E
  8
PROF
 10
3.231798439705698
 20
11.26846416496107
 30
0.0000000000000001
 70
    16
  0
VERTEX
  5
C13F
  8
PROF
 10
2.9737109398832891
 20
10.76631086647069
 30
0.0000000000000001
 70
    16
  0
VERTEX
  5
C140
  8
PROF
 10
2.5729961067384011
 20
10.460947364504699
 30
0.0000000000000001
 70
    16
  0
VERTEX
  5
C141
  8
PROF
 10
2.253782621454604
 20
10.372731239449759
 30
0.0000000000000001
 70
    16
  0
VERTEX
  5
C142
  8
PROF
 10
1.9750295148747341
 20
10.37671325491794
 30
0.0000000000000001
 70
    16
  0
SEQEND
  5
C143
  8
PROF
  0
LINE
  5
C144
  8
PROF
 10
4.9012016798694162
 20
12.88585218805485
 30
0.0000000000000003
 11
4.5198575031869259
 21
12.88585218805485
 31
0.0000000000000003
  0
LINE
  5
C145
  8
PROF
 10
0.7321315362267457
 20
8.2026312473991538
 30
0.0000000000000006
 11
0.7321315362267457
 21
8.0511853963434987
 31
0.0000000000000006
  0
ARC
  5
C146
  8
PROF
 10
0.7977322214551919
 20
7.5773339332026799
 30
0.0000000000000006
 40
0.4783708383912012
 50
97.882010168942529
 51
186.31119505698649
  0
LINE
  5
C147
  8
FRAME_050
 10
7.8016377197432121
 20
17.99371054969447
 30
0.0
 11
7.8016377197432121
 21
0.0000000000002274
 31
0.0
  0
ENDBLK
  5
C149
  8
0
  0
BLOCK
  8
0
  2
A$C3A7C6791
 70
     0
 10
0.0
 20
0.0
 30
0.0
  3
A$C3A7C6791
  1

  0
ARC
  5
1A561
  8
0
 10
1.0342682520551421
 20
11.169869575314801
 30
0.0
 40
0.3900479059662017
 50
183.5871702804647
 51
250.12003892297869
  0
ARC
  5
1A562
  8
0
 10
0.3331235273064408
 20
14.96835148878222
 30
0.0
 40
0.279776987736341
 50
290.26301102890392
 51
72.509116341854423
  0
ARC
  5
1A563
  8
0
 10
0.7948887850711232
 20
10.60700392177659
 30
0.0
 40
0.2232361910347119
 50
300.2914142988875
 51
61.434469032044603
  0
LINE
  5
1A564
  8
0
 10
-0.0000015027120526
 20
9.7351929270671462
 30
0.0
 11
1.0332573394856579
 21
9.7351929270671462
 31
0.0
  0
LINE
  5
1A565
  8
0
 10
1.0332573394856579
 20
10.377304601683591
 30
0.0
 11
0.9074887268004658
 21
10.377304601683591
 31
0.0
  0
LINE
  5
1A566
  8
0
 10
0.6449845421777241
 20
11.145465432783791
 30
0.0
 11
0.5554296092705046
 21
11.181249222917581
 31
0.0
  0
LINE
  5
1A567
  8
0
 10
0.5554296092705046
 20
14.67010534946894
 30
0.0
 11
0.430018718777319
 21
14.67010534946894
 31
0.0
  0
LINE
  5
1A568
  8
0
 10
0.4172116339615855
 20
15.235192927067139
 30
0.0
 11
-0.0000015027120526
 21
15.235192927067139
 31
0.0
  0
LINE
  5
1A569
  8
0
 10
-0.0000015027120526
 20
15.235192927067139
 30
0.0
 11
-0.0000015027120526
 21
9.7351929270671462
 31
0.0
  0
LINE
  5
1A56A
  8
0
 10
1.0332573394856579
 20
9.7351929270671462
 30
0.0
 11
1.0332573394856579
 21
10.377304601683591
 31
0.0
  0
LINE
  5
1A56B
  8
0
 10
0.9074887268004658
 20
10.377304601683591
 30
0.0
 11
0.9074887268003521
 21
10.414245912577821
 31
0.0
  0
LINE
  5
1A56C
  8
0
 10
0.5554296092705046
 20
11.181249222917581
 30
0.0
 11
0.5554296092705046
 21
14.67010534946894
 31
0.0
  0
LINE
  5
1A56D
  8
0
 10
0.430018718777319
 20
14.67010534946894
 30
0.0
 11
0.4300187187771485
 21
14.705889139602959
 31
0.0
  0
INSERT
  5
1A56E
  8
0
  2
*U51
 10
0.0
 20
0.0
 30
0.0
  0
LINE
  5
1A56F
  8
FRAME_050
 10
5.1382720395286006
 20
17.993710579095019
 30
0.0
 11
5.1382720395286006
 21
0.0000000294007805
 31
0.0
  0
ENDBLK
  5
1A571
  8
0
  0
BLOCK
  8
0
  2
A$C212248C0
 70
     0
 10
0.0
 20
0.0
 30
0.0
  3
A$C212248C0
  1

  0
LINE
  5
2846E
  8
0
 10
-0.0000002092490945
 20
10.41741894345523
 30
0.0
 11
-0.000000218823061
 21
12.91741894345523
 31
0.0
  0
LINE
  5
2846F
  8
0
 10
0.8061752779508424
 20
10.41741894654251
 30
0.0
 11
0.80617527442746
 21
11.337459194522349
 31
0.0
  0
LINE
  5
28470
  8
0
 10
-0.0000002092490945
 20
10.41741894345523
 30
0.0
 11
0.8061752779508424
 21
10.41741894654251
 31
0.0
  0
LINE
  5
28471
  8
0
 10
-0.000000218823061
 20
12.91741894345523
 30
0.0
 11
0.1835338022692099
 21
12.91741894415804
 31
0.0
  0
LINE
  5
28472
  8
0
 10
0.5432593756756888
 20
11.33745919351543
 30
0.0
 11
0.8061752744275167
 21
11.337459194522349
 31
0.0
  0
LINE
  5
28473
  8
0
 10
0.5432593756756888
 20
11.33745919351543
 30
0.0
 11
0.54325937522907
 21
11.454074799268589
 31
0.0
  0
ARC
  5
28474
  8
0
 10
0.5406585726453841
 20
11.69407225899795
 30
0.0
 40
0.2400115514942006
 50
270.62087814899439
 51
10.065567101317541
  0
ARC
  5
28475
  8
0
 10
0.3766221072655185
 20
12.57830290724473
 30
0.0
 40
0.1204493443528103
 50
92.075522465847911
 51
186.90606997904499
  0
ARC
  5
28476
  8
0
 10
0.3522648873053527
 20
11.66572609276443
 30
0.0
 40
0.4304889887359197
 50
9.3978639632316945
 51
32.979139282634932
  0
ARC
  5
28477
  8
0
 10
-3.1652042745943159
 20
9.0577862235478506
 30
0.0
 40
4.8085319198703189
 50
36.234313076985558
 51
42.402692063571678
  0
LINE
  5
28478
  8
0
 10
0.1835338022692099
 20
12.91741894415804
 30
0.0
 11
0.3722598200128004
 21
12.698673231681139
 31
0.0
  0
ARC
  5
28479
  8
0
 10
0.9319226152692294
 20
12.72987725098619
 30
0.0
 40
0.6950054723870779
 50
193.8233761419454
 51
218.1708864341492
  0
LINE
  5
2847A
  8
0
 10
-0.0000002092490945
 20
10.41741894345523
 30
0.0
 11
-0.0000002092490945
 21
12.91741894345523
 31
0.0
  0
INSERT
  5
2847B
  8
0
  2
*U52
 10
0.0
 20
0.0
 30
0.0
  0
LINE
  5
2847C
  8
FRAME_050
 10
6.2588202718825414
 20
17.993710579095019
 30
0.0
 11
6.2588202718825414
 21
0.0000000294007805
 31
0.0
  0
ENDBLK
  5
2847E
  8
0
  0
BLOCK
  8
0
  2
A$C52DE5D80
 70
     0
 10
0.0
 20
0.0
 30
0.0
  3
A$C52DE5D80
  1

  0
INSERT
  5
2B89A
  8
0
  2
*U53
 10
0.0
 20
0.0
 30
0.0
  0
LINE
  5
2B89B
  8
0
 10
0.0000014767382481
 20
7.878552666495465
 30
0.0
 11
1.5240062297528421
 21
7.8785526664953522
 31
0.0
  0
LINE
  5
2B89C
  8
0
 10
1.5240062297528421
 20
8.3261365866769665
 30
0.0
 11
1.5240062297528421
 21
7.8785526664953522
 31
0.0
  0
LINE
  5
2B89D
  8
0
 10
1.394539806559862
 20
8.3261365866769665
 30
0.0
 11
1.5240062297528421
 21
8.3261365866769665
 31
0.0
  0
LINE
  5
2B89E
  8
0
 10
0.7472076905950758
 20
9.2582948336663549
 30
0.0
 11
0.8951693171012493
 21
9.2582948336665822
 31
0.0
  0
POLYLINE
  8
0
  5
328C4
  62
7
  66
     1
 10
0.000000
 20
0.000000
 30
0.000000
  70
     8
  0
VERTEX
  8
0
  5
328C5
 10
1.39454
 20
8.32614
 30
0.000000
  70
    32
  0
VERTEX
  8
0
  5
328C6
 10
1.39468
 20
8.33131
 30
0.000000
  70
    32
  0
VERTEX
  8
0
  5
328C7
 10
1.39482
 20
8.33649
 30
0.000000
  70
    32
  0
VERTEX
  8
0
  5
328C8
 10
1.39495
 20
8.34167
 30
0.000000
  70
    32
  0
VERTEX
  8
0
  5
328C9
 10
1.39508
 20
8.34684
 30
0.000000
  70
    32
  0
VERTEX
  8
0
  5
328CA
 10
1.39521
 20
8.35201
 30
0.000000
  70
    32
  0
VERTEX
  8
0
  5
328CB
 10
1.39532
 20
8.35718
 30
0.000000
  70
    32
  0
VERTEX
  8
0
  5
328CC
 10
1.39542
 20
8.36234
 30
0.000000
  70
    32
  0
VERTEX
  8
0
  5
328CD
 10
1.39552
 20
8.36749
 30
0.000000
  70
    32
  0
VERTEX
  8
0
  5
328CE
 10
1.39559
 20
8.37264
 30
0.000000
  70
    32
  0
VERTEX
  8
0
  5
328CF
 10
1.39566
 20
8.37779
 30
0.000000
  70
    32
  0
VERTEX
  8
0
  5
328D0
 10
1.39570
 20
8.38292
 30
0.000000
  70
    32
  0
VERTEX
  8
0
  5
328D1
 10
1.39573
 20
8.38805
 30
0.000000
  70
    32
  0
VERTEX
  8
0
  5
328D2
 10
1.39574
 20
8.39316
 30
0.000000
  70
    32
  0
VERTEX
  8
0
  5
328D3
 10
1.39572
 20
8.39827
 30
0.000000
  70
    32
  0
VERTEX
  8
0
  5
328D4
 10
1.39569
 20
8.40337
 30
0.000000
  70
    32
  0
VERTEX
  8
0
  5
328D5
 10
1.39562
 20
8.40845
 30
0.000000
  70
    32
  0
VERTEX
  8
0
  5
328D6
 10
1.39553
 20
8.41352
 30
0.000000
  70
    32
  0
VERTEX
  8
0
  5
328D7
 10
1.39541
 20
8.41858
 30
0.000000
  70
    32
  0
VERTEX
  8
0
  5
328D8
 10
1.39526
 20
8.42363
 30
0.000000
  70
    32
  0
VERTEX
  8
0
  5
328D9
 10
1.39507
 20
8.42866
 30
0.000000
  70
    32
  0
VERTEX
  8
0
  5
328DA
 10
1.39486
 20
8.43367
 30
0.000000
  70
    32
  0
VERTEX
  8
0
  5
328DB
 10
1.39460
 20
8.43867
 30
0.000000
  70
    32
  0
VERTEX
  8
0
  5
328DC
 10
1.39431
 20
8.44365
 30
0.000000
  70
    32
  0
VERTEX
  8
0
  5
328DD
 10
1.39398
 20
8.44862
 30
0.000000
  70
    32
  0
VERTEX
  8
0
  5
328DE
 10
1.39361
 20
8.45356
 30
0.000000
  70
    32
  0
VERTEX
  8
0
  5
328DF
 10
1.39320
 20
8.45849
 30
0.000000
  70
    32
  0
VERTEX
  8
0
  5
328E0
 10
1.39274
 20
8.46339
 30
0.000000
  70
    32
  0
VERTEX
  8
0
  5
328E1
 10
1.39224
 20
8.46828
 30
0.000000
  70
    32
  0
VERTEX
  8
0
  5
328E2
 10
1.39168
 20
8.47314
 30
0.000000
  70
    32
  0
VERTEX
  8
0
  5
328E3
 10
1.39108
 20
8.47798
 30
0.000000
  70
    32
  0
VERTEX
  8
0
  5
328E4
 10
1.39043
 20
8.48280
 30
0.000000
  70
    32
  0
VERTEX
  8
0
  5
328E5
 10
1.38973
 20
8.48759
 30
0.000000
  70
    32
  0
VERTEX
  8
0
  5
328E6
 10
1.38897
 20
8.49236
 30
0.000000
  70
    32
  0
VERTEX
  8
0
  5
328E7
 10
1.38815
 20
8.49711
 30
0.000000
  70
    32
  0
VERTEX
  8
0
  5
328E8
 10
1.38728
 20
8.50182
 30
0.000000
  70
    32
  0
VERTEX
  8
0
  5
328E9
 10
1.38635
 20
8.50651
 30
0.000000
  70
    32
  0
VERTEX
  8
0
  5
328EA
 10
1.38535
 20
8.51117
 30
0.000000
  70
    32
  0
VERTEX
  8
0
  5
328EB
 10
1.38429
 20
8.51581
 30
0.000000
  70
    32
  0
VERTEX
  8
0
  5
328EC
 10
1.38317
 20
8.52041
 30
0.000000
  70
    32
  0
VERTEX
  8
0
  5
328ED
 10
1.38198
 20
8.52498
 30
0.000000
  70
    32
  0
VERTEX
  8
0
  5
328EE
 10
1.38073
 20
8.52953
 30
0.000000
  70
    32
  0
VERTEX
  8
0
  5
328EF
 10
1.37940
 20
8.53404
 30
0.000000
  70
    32
  0
VERTEX
  8
0
  5
328F0
 10
1.37800
 20
8.53851
 30
0.000000
  70
    32
  0
VERTEX
  8
0
  5
328F1
 10
1.37653
 20
8.54296
 30
0.000000
  70
    32
  0
VERTEX
  8
0
  5
328F2
 10
1.37499
 20
8.54737
 30
0.000000
  70
    32
  0
VERTEX
  8
0
  5
328F3
 10
1.37337
 20
8.55175
 30
0.000000
  70
    32
  0
VERTEX
  8
0
  5
328F4
 10
1.37167
 20
8.55609
 30
0.000000
  70
    32
  0
VERTEX
  8
0
  5
328F5
 10
1.36991
 20
8.56040
 30
0.000000
  70
    32
  0
VERTEX
  8
0
  5
328F6
 10
1.36807
 20
8.56468
 30
0.000000
  70
    32
  0
VERTEX
  8
0
  5
328F7
 10
1.36616
 20
8.56893
 30
0.000000
  70
    32
  0
VERTEX
  8
0
  5
328F8
 10
1.36418
 20
8.57314
 30
0.000000
  70
    32
  0
VERTEX
  8
0
  5
328F9
 10
1.36214
 20
8.57733
 30
0.000000
  70
    32
  0
VERTEX
  8
0
  5
328FA
 10
1.36003
 20
8.58148
 30
0.000000
  70
    32
  0
VERTEX
  8
0
  5
328FB
 10
1.35785
 20
8.58560
 30
0.000000
  70
    32
  0
VERTEX
  8
0
  5
328FC
 10
1.35561
 20
8.58970
 30
0.000000
  70
    32
  0
VERTEX
  8
0
  5
328FD
 10
1.35330
 20
8.59377
 30
0.000000
  70
    32
  0
VERTEX
  8
0
  5
328FE
 10
1.35093
 20
8.59781
 30
0.000000
  70
    32
  0
VERTEX
  8
0
  5
328FF
 10
1.34851
 20
8.60182
 30
0.000000
  70
    32
  0
VERTEX
  8
0
  5
32900
 10
1.34602
 20
8.60581
 30
0.000000
  70
    32
  0
VERTEX
  8
0
  5
32901
 10
1.34347
 20
8.60976
 30
0.000000
  70
    32
  0
VERTEX
  8
0
  5
32902
 10
1.34086
 20
8.61370
 30
0.000000
  70
    32
  0
VERTEX
  8
0
  5
32903
 10
1.33820
 20
8.61761
 30
0.000000
  70
    32
  0
VERTEX
  8
0
  5
32904
 10
1.33549
 20
8.62149
 30
0.000000
  70
    32
  0
VERTEX
  8
0
  5
32905
 10
1.33271
 20
8.62535
 30
0.000000
  70
    32
  0
VERTEX
  8
0
  5
32906
 10
1.32989
 20
8.62919
 30
0.000000
  70
    32
  0
VERTEX
  8
0
  5
32907
 10
1.32701
 20
8.63300
 30
0.000000
  70
    32
  0
VERTEX
  8
0
  5
32908
 10
1.32408
 20
8.63679
 30
0.000000
  70
    32
  0
VERTEX
  8
0
  5
32909
 10
1.32111
 20
8.64056
 30
0.000000
  70
    32
  0
VERTEX
  8
0
  5
3290A
 10
1.31808
 20
8.64431
 30
0.000000
  70
    32
  0
VERTEX
  8
0
  5
3290B
 10
1.31501
 20
8.64803
 30
0.000000
  70
    32
  0
VERTEX
  8
0
  5
3290C
 10
1.31189
 20
8.65174
 30
0.000000
  70
    32
  0
VERTEX
  8
0
  5
3290D
 10
1.30872
 20
8.65543
 30
0.000000
  70
    32
  0
VERTEX
  8
0
  5
3290E
 10
1.30551
 20
8.65910
 30
0.000000
  70
    32
  0
VERTEX
  8
0
  5
3290F
 10
1.30226
 20
8.66275
 30
0.000000
  70
    32
  0
VERTEX
  8
0
  5
32910
 10
1.29896
 20
8.66638
 30
0.000000
  70
    32
  0
VERTEX
  8
0
  5
32911
 10
1.29563
 20
8.66999
 30
0.000000
  70
    32
  0
VERTEX
  8
0
  5
32912
 10
1.29225
 20
8.67359
 30
0.000000
  70
    32
  0
VERTEX
  8
0
  5
32913
 10
1.28884
 20
8.67717
 30
0.000000
  70
    32
  0
VERTEX
  8
0
  5
32914
 10
1.28539
 20
8.68074
 30
0.000000
  70
    32
  0
VERTEX
  8
0
  5
32915
 10
1.28190
 20
8.68429
 30
0.000000
  70
    32
  0
VERTEX
  8
0
  5
32916
 10
1.27838
 20
8.68782
 30
0.000000
  70
    32
  0
VERTEX
  8
0
  5
32917
 10
1.27482
 20
8.69134
 30
0.000000
  70
    32
  0
VERTEX
  8
0
  5
32918
 10
1.27123
 20
8.69485
 30
0.000000
  70
    32
  0
VERTEX
  8
0
  5
32919
 10
1.26761
 20
8.69835
 30
0.000000
  70
    32
  0
VERTEX
  8
0
  5
3291A
 10
1.26396
 20
8.70183
 30
0.000000
  70
    32
  0
VERTEX
  8
0
  5
3291B
 10
1.26028
 20
8.70530
 30
0.000000
  70
    32
  0
VERTEX
  8
0
  5
3291C
 10
1.25657
 20
8.70876
 30
0.000000
  70
    32
  0
VERTEX
  8
0
  5
3291D
 10
1.25283
 20
8.71220
 30
0.000000
  70
    32
  0
VERTEX
  8
0
  5
3291E
 10
1.24907
 20
8.71564
 30
0.000000
  70
    32
  0
VERTEX
  8
0
  5
3291F
 10
1.24528
 20
8.71907
 30
0.000000
  70
    32
  0
VERTEX
  8
0
  5
32920
 10
1.24147
 20
8.72249
 30
0.000000
  70
    32
  0
VERTEX
  8
0
  5
32921
 10
1.23764
 20
8.72590
 30
0.000000
  70
    32
  0
VERTEX
  8
0
  5
32922
 10
1.23379
 20
8.72930
 30
0.000000
  70
    32
  0
VERTEX
  8
0
  5
32923
 10
1.22991
 20
8.73270
 30
0.000000
  70
    32
  0
VERTEX
  8
0
  5
32924
 10
1.22601
 20
8.73609
 30
0.000000
  70
    32
  0
VERTEX
  8
0
  5
32925
 10
1.22210
 20
8.73947
 30
0.000000
  70
    32
  0
VERTEX
  8
0
  5
32926
 10
1.21817
 20
8.74284
 30
0.000000
  70
    32
  0
VERTEX
  8
0
  5
32927
 10
1.21423
 20
8.74621
 30
0.000000
  70
    32
  0
VERTEX
  8
0
  5
32928
 10
1.21027
 20
8.74958
 30
0.000000
  70
    32
  0
VERTEX
  8
0
  5
32929
 10
1.20629
 20
8.75294
 30
0.000000
  70
    32
  0
VERTEX
  8
0
  5
3292A
 10
1.20230
 20
8.75630
 30
0.000000
  70
    32
  0
VERTEX
  8
0
  5
3292B
 10
1.19831
 20
8.75965
 30
0.000000
  70
    32
  0
VERTEX
  8
0
  5
3292C
 10
1.19430
 20
8.76300
 30
0.000000
  70
    32
  0
VERTEX
  8
0
  5
3292D
 10
1.19028
 20
8.76636
 30
0.000000
  70
    32
  0
VERTEX
  8
0
  5
3292E
 10
1.18626
 20
8.76970
 30
0.000000
  70
    32
  0
VERTEX
  8
0
  5
3292F
 10
1.18222
 20
8.77305
 30
0.000000
  70
    32
  0
VERTEX
  8
0
  5
32930
 10
1.17819
 20
8.77640
 30
0.000000
  70
    32
  0
VERTEX
  8
0
  5
32931
 10
1.17414
 20
8.77975
 30
0.000000
  70
    32
  0
VERTEX
  8
0
  5
32932
 10
1.17010
 20
8.78310
 30
0.000000
  70
    32
  0
VERTEX
  8
0
  5
32933
 10
1.16605
 20
8.78645
 30
0.000000
  70
    32
  0
VERTEX
  8
0
  5
32934
 10
1.16200
 20
8.78980
 30
0.000000
  70
    32
  0
VERTEX
  8
0
  5
32935
 10
1.15795
 20
8.79315
 30
0.000000
  70
    32
  0
VERTEX
  8
0
  5
32936
 10
1.15390
 20
8.79651
 30
0.000000
  70
    32
  0
VERTEX
  8
0
  5
32937
 10
1.14986
 20
8.79987
 30
0.000000
  70
    32
  0
VERTEX
  8
0
  5
32938
 10
1.14582
 20
8.80323
 30
0.000000
  70
    32
  0
VERTEX
  8
0
  5
32939
 10
1.14178
 20
8.80660
 30
0.000000
  70
    32
  0
VERTEX
  8
0
  5
3293A
 10
1.13775
 20
8.80998
 30
0.000000
  70
    32
  0
VERTEX
  8
0
  5
3293B
 10
1.13372
 20
8.81336
 30
0.000000
  70
    32
  0
VERTEX
  8
0
  5
3293C
 10
1.12970
 20
8.81674
 30
0.000000
  70
    32
  0
VERTEX
  8
0
  5
3293D
 10
1.12569
 20
8.82014
 30
0.000000
  70
    32
  0
VERTEX
  8
0
  5
3293E
 10
1.12170
 20
8.82354
 30
0.000000
  70
    32
  0
VERTEX
  8
0
  5
3293F
 10
1.11771
 20
8.82695
 30
0.000000
  70
    32
  0
VERTEX
  8
0
  5
32940
 10
1.11373
 20
8.83036
 30
0.000000
  70
    32
  0
VERTEX
  8
0
  5
32941
 10
1.10977
 20
8.83379
 30
0.000000
  70
    32
  0
VERTEX
  8
0
  5
32942
 10
1.10583
 20
8.83723
 30
0.000000
  70
    32
  0
VERTEX
  8
0
  5
32943
 10
1.10190
 20
8.84067
 30
0.000000
  70
    32
  0
VERTEX
  8
0
  5
32944
 10
1.09798
 20
8.84413
 30
0.000000
  70
    32
  0
VERTEX
  8
0
  5
32945
 10
1.09409
 20
8.84760
 30
0.000000
  70
    32
  0
VERTEX
  8
0
  5
32946
 10
1.09021
 20
8.85107
 30
0.000000
  70
    32
  0
VERTEX
  8
0
  5
32947
 10
1.08635
 20
8.85457
 30
0.000000
  70
    32
  0
VERTEX
  8
0
  5
32948
 10
1.08251
 20
8.85807
 30
0.000000
  70
    32
  0
VERTEX
  8
0
  5
32949
 10
1.07870
 20
8.86158
 30
0.000000
  70
    32
  0
VERTEX
  8
0
  5
3294A
 10
1.07490
 20
8.86511
 30
0.000000
  70
    32
  0
VERTEX
  8
0
  5
3294B
 10
1.07113
 20
8.86865
 30
0.000000
  70
    32
  0
VERTEX
  8
0
  5
3294C
 10
1.06738
 20
8.87220
 30
0.000000
  70
    32
  0
VERTEX
  8
0
  5
3294D
 10
1.06365
 20
8.87576
 30
0.000000
  70
    32
  0
VERTEX
  8
0
  5
3294E
 10
1.05995
 20
8.87934
 30
0.000000
  70
    32
  0
VERTEX
  8
0
  5
3294F
 10
1.05628
 20
8.88294
 30
0.000000
  70
    32
  0
VERTEX
  8
0
  5
32950
 10
1.05263
 20
8.88654
 30
0.000000
  70
    32
  0
VERTEX
  8
0
  5
32951
 10
1.04900
 20
8.89016
 30
0.000000
  70
    32
  0
VERTEX
  8
0
  5
32952
 10
1.04541
 20
8.89380
 30
0.000000
  70
    32
  0
VERTEX
  8
0
  5
32953
 10
1.04185
 20
8.89745
 30
0.000000
  70
    32
  0
VERTEX
  8
0
  5
32954
 10
1.03831
 20
8.90112
 30
0.000000
  70
    32
  0
VERTEX
  8
0
  5
32955
 10
1.03481
 20
8.90480
 30
0.000000
  70
    32
  0
VERTEX
  8
0
  5
32956
 10
1.03133
 20
8.90850
 30
0.000000
  70
    32
  0
VERTEX
  8
0
  5
32957
 10
1.02789
 20
8.91221
 30
0.000000
  70
    32
  0
VERTEX
  8
0
  5
32958
 10
1.02448
 20
8.91594
 30
0.000000
  70
    32
  0
VERTEX
  8
0
  5
32959
 10
1.02111
 20
8.91969
 30
0.000000
  70
    32
  0
VERTEX
  8
0
  5
3295A
 10
1.01777
 20
8.92345
 30
0.000000
  70
    32
  0
VERTEX
  8
0
  5
3295B
 10
1.01446
 20
8.92723
 30
0.000000
  70
    32
  0
VERTEX
  8
0
  5
3295C
 10
1.01119
 20
8.93103
 30
0.000000
  70
    32
  0
VERTEX
  8
0
  5
3295D
 10
1.00796
 20
8.93484
 30
0.000000
  70
    32
  0
VERTEX
  8
0
  5
3295E
 10
1.00476
 20
8.93868
 30
0.000000
  70
    32
  0
VERTEX
  8
0
  5
3295F
 10
1.00160
 20
8.94253
 30
0.000000
  70
    32
  0
VERTEX
  8
0
  5
32960
 10
0.998485
 20
8.94640
 30
0.000000
  70
    32
  0
VERTEX
  8
0
  5
32961
 10
0.995407
 20
8.95029
 30
0.000000
  70
    32
  0
VERTEX
  8
0
  5
32962
 10
0.992369
 20
8.95420
 30
0.000000
  70
    32
  0
VERTEX
  8
0
  5
32963
 10
0.989373
 20
8.95813
 30
0.000000
  70
    32
  0
VERTEX
  8
0
  5
32964
 10
0.986419
 20
8.96208
 30
0.000000
  70
    32
  0
VERTEX
  8
0
  5
32965
 10
0.983508
 20
8.96605
 30
0.000000
  70
    32
  0
VERTEX
  8
0
  5
32966
 10
0.980642
 20
8.97004
 30
0.000000
  70
    32
  0
VERTEX
  8
0
  5
32967
 10
0.977819
 20
8.97405
 30
0.000000
  70
    32
  0
VERTEX
  8
0
  5
32968
 10
0.975042
 20
8.97808
 30
0.000000
  70
    32
  0
VERTEX
  8
0
  5
32969
 10
0.972312
 20
8.98213
 30
0.000000
  70
    32
  0
VERTEX
  8
0
  5
3296A
 10
0.969628
 20
8.98621
 30
0.000000
  70
    32
  0
VERTEX
  8
0
  5
3296B
 10
0.966993
 20
8.99030
 30
0.000000
  70
    32
  0
VERTEX
  8
0
  5
3296C
 10
0.964406
 20
8.99442
 30
0.000000
  70
    32
  0
VERTEX
  8
0
  5
3296D
 10
0.961868
 20
8.99856
 30
0.000000
  70
    32
  0
VERTEX
  8
0
  5
3296E
 10
0.959381
 20
9.00272
 30
0.000000
  70
    32
  0
VERTEX
  8
0
  5
3296F
 10
0.956944
 20
9.00691
 30
0.000000
  70
    32
  0
VERTEX
  8
0
  5
32970
 10
0.954559
 20
9.01112
 30
0.000000
  70
    32
  0
VERTEX
  8
0
  5
32971
 10
0.952227
 20
9.01535
 30
0.000000
  70
    32
  0
VERTEX
  8
0
  5
32972
 10
0.949949
 20
9.01960
 30
0.000000
  70
    32
  0
VERTEX
  8
0
  5
32973
 10
0.947724
 20
9.02388
 30
0.000000
  70
    32
  0
VERTEX
  8
0
  5
32974
 10
0.945555
 20
9.02819
 30
0.000000
  70
    32
  0
VERTEX
  8
0
  5
32975
 10
0.943441
 20
9.03252
 30
0.000000
  70
    32
  0
VERTEX
  8
0
  5
32976
 10
0.941383
 20
9.03687
 30
0.000000
  70
    32
  0
VERTEX
  8
0
  5
32977
 10
0.939384
 20
9.04125
 30
0.000000
  70
    32
  0
VERTEX
  8
0
  5
32978
 10
0.937442
 20
9.04566
 30
0.000000
  70
    32
  0
VERTEX
  8
0
  5
32979
 10
0.935559
 20
9.05009
 30
0.000000
  70
    32
  0
VERTEX
  8
0
  5
3297A
 10
0.933736
 20
9.05455
 30
0.000000
  70
    32
  0
VERTEX
  8
0
  5
3297B
 10
0.931973
 20
9.05903
 30
0.000000
  70
    32
  0
VERTEX
  8
0
  5
3297C
 10
0.930271
 20
9.06354
 30
0.000000
  70
    32
  0
VERTEX
  8
0
  5
3297D
 10
0.928629
 20
9.06808
 30
0.000000
  70
    32
  0
VERTEX
  8
0
  5
3297E
 10
0.927045
 20
9.07264
 30
0.000000
  70
    32
  0
VERTEX
  8
0
  5
3297F
 10
0.925517
 20
9.07722
 30
0.000000
  70
    32
  0
VERTEX
  8
0
  5
32980
 10
0.924045
 20
9.08183
 30
0.000000
  70
    32
  0
VERTEX
  8
0
  5
32981
 10
0.922626
 20
9.08647
 30
0.000000
  70
    32
  0
VERTEX
  8
0
  5
32982
 10
0.921259
 20
9.09112
 30
0.000000
  70
    32
  0
VERTEX
  8
0
  5
32983
 10
0.919943
 20
9.09580
 30
0.000000
  70
    32
  0
VERTEX
  8
0
  5
32984
 10
0.918676
 20
9.10050
 30
0.000000
  70
    32
  0
VERTEX
  8
0
  5
32985
 10
0.917457
 20
9.10522
 30
0.000000
  70
    32
  0
VERTEX
  8
0
  5
32986
 10
0.916283
 20
9.10996
 30
0.000000
  70
    32
  0
VERTEX
  8
0
  5
32987
 10
0.915155
 20
9.11472
 30
0.000000
  70
    32
  0
VERTEX
  8
0
  5
32988
 10
0.914070
 20
9.11950
 30
0.000000
  70
    32
  0
VERTEX
  8
0
  5
32989
 10
0.913026
 20
9.12429
 30
0.000000
  70
    32
  0
VERTEX
  8
0
  5
3298A
 10
0.912023
 20
9.12911
 30
0.000000
  70
    32
  0
VERTEX
  8
0
  5
3298B
 10
0.911058
 20
9.13394
 30
0.000000
  70
    32
  0
VERTEX
  8
0
  5
3298C
 10
0.910131
 20
9.13879
 30
0.000000
  70
    32
  0
VERTEX
  8
0
  5
3298D
 10
0.909239
 20
9.14365
 30
0.000000
  70
    32
  0
VERTEX
  8
0
  5
3298E
 10
0.908381
 20
9.14853
 30
0.000000
  70
    32
  0
VERTEX
  8
0
  5
3298F
 10
0.907557
 20
9.15342
 30
0.000000
  70
    32
  0
VERTEX
  8
0
  5
32990
 10
0.906763
 20
9.15832
 30
0.000000
  70
    32
  0
VERTEX
  8
0
  5
32991
 10
0.906000
 20
9.16324
 30
0.000000
  70
    32
  0
VERTEX
  8
0
  5
32992
 10
0.905264
 20
9.16817
 30
0.000000
  70
    32
  0
VERTEX
  8
0
  5
32993
 10
0.904556
 20
9.17312
 30
0.000000
  70
    32
  0
VERTEX
  8
0
  5
32994
 10
0.903873
 20
9.17807
 30
0.000000
  70
    32
  0
VERTEX
  8
0
  5
32995
 10
0.903213
 20
9.18303
 30
0.000000
  70
    32
  0
VERTEX
  8
0
  5
32996
 10
0.902576
 20
9.18801
 30
0.000000
  70
    32
  0
VERTEX
  8
0
  5
32997
 10
0.901960
 20
9.19299
 30
0.000000
  70
    32
  0
VERTEX
  8
0
  5
32998
 10
0.901363
 20
9.19798
 30
0.000000
  70
    32
  0
VERTEX
  8
0
  5
32999
 10
0.900784
 20
9.20298
 30
0.000000
  70
    32
  0
VERTEX
  8
0
  5
3299A
 10
0.900222
 20
9.20799
 30
0.000000
  70
    32
  0
VERTEX
  8
0
  5
3299B
 10
0.899674
 20
9.21300
 30
0.000000
  70
    32
  0
VERTEX
  8
0
  5
3299C
 10
0.899140
 20
9.21802
 30
0.000000
  70
    32
  0
VERTEX
  8
0
  5
3299D
 10
0.898617
 20
9.22304
 30
0.000000
  70
    32
  0
VERTEX
  8
0
  5
3299E
 10
0.898105
 20
9.22807
 30
0.000000
  70
    32
  0
VERTEX
  8
0
  5
3299F
 10
0.897602
 20
9.23310
 30
0.000000
  70
    32
  0
VERTEX
  8
0
  5
329A0
 10
0.897107
 20
9.23813
 30
0.000000
  70
    32
  0
VERTEX
  8
0
  5
329A1
 10
0.896617
 20
9.24317
 30
0.000000
  70
    32
  0
VERTEX
  8
0
  5
329A2
 10
0.896132
 20
9.24821
 30
0.000000
  70
    32
  0
VERTEX
  8
0
  5
329A3
 10
0.895650
 20
9.25325
 30
0.000000
  70
    32
  0
VERTEX
  8
0
  5
329A4
 10
0.895169
 20
9.25829
 30
0.000000
  70
    32
  0
SEQEND
  8
0
  5
329A5
  0
LINE
  5
2B8A0
  8
0
  6
CONTINUOUS
 62
     7
 10
0.7472076905950758
 20
9.2582948336663549
 30
0.0
 11
0.7472076905949621
 21
11.826520277942111
 31
0.0
  0
LINE
  5
2B8A1
  8
0
  6
CONTINUOUS
 62
     7
 10
0.4997076905949598
 20
12.389020277942111
 30
0.0
 11
0.000001476738305
 21
12.389020277942111
 31
0.0
  0
ARC
  5
2B8A2
  8
0
 10
0.4997076905949598
 20
12.139020277942111
 30
0.0
 40
0.2500000000000009
 50
269.42703265506509
 51
90.0
  0
LINE
  5
2B8A3
  8
0
  6
CONTINUOUS
 62
     7
 10
0.7472076905949621
 20
11.826520277942111
 30
0.0
 11
0.5597076905949621
 21
11.826520277942111
 31
0.0
  0
LINE
  5
2B8A4
  8
0
  6
CONTINUOUS
 62
     7
 10
0.4972076905949621
 20
11.826520277942111
 30
0.0
 11
0.4972076905949621
 21
11.88903277828603
 31
0.0
  0
LINE
  5
2B8A5
  8
0
 10
0.0000014767382481
 20
7.878552666495465
 30
0.0
 11
0.000001476738305
 21
12.389020277942111
 31
0.0
  0
LINE
  5
2B8A6
  8
0
 10
0.7472076905949621
 20
11.826520277942111
 30
0.0
 11
0.4972076905949621
 21
11.826520277942111
 31
0.0
  0
LINE
  5
2B8A7
  8
FRAME_050
 10
6.5744546621590407
 20
17.993710579095019
 30
0.0
 11
6.5744546621590407
 21
0.0000000294007805
 31
0.0
  0
ENDBLK
  5
2B8A9
  8
0
  0
BLOCK
  8
0
  2
A$C06786640
 70
     0
 10
0.0
 20
0.0
 30
0.0
  3
A$C06786640
  1

  0
LINE
  5
30DBD
  8
0
  6
CONTINUOUS
 10
6.9421460747584538
 20
5.3373952998996401
 30
0.0
 11
7.6921460747585684
 21
5.3373952998996401
 31
0.0
  0
INSERT
  5
30DBE
  8
0
  2
*U82
 10
0.0
 20
0.0
 30
0.0
  0
ARC
  5
30DBF
  8
0
 10
7.6921460747584538
 20
1.3373952998996399
 30
0.0
 40
0.4375
 50
90.0
 51
180.0
  0
LINE
  5
30DC0
  8
0
  6
CONTINUOUS
 10
6.9421460747584538
 20
1.3373952998996399
 30
0.0
 11
7.2546460747584538
 21
1.3373952998996399
 31
0.0
  0
LINE
  5
30DC1
  8
0
  6
CONTINUOUS
 10
6.9421460747584538
 20
5.3373952998996401
 30
0.0
 11
6.9421460747584538
 21
1.3373952998996399
 31
0.0
  0
LINE
  5
30DC2
  8
0
  6
CONTINUOUS
 10
7.6921460747585684
 20
5.3373952998996401
 30
0.0
 11
7.6921460747584538
 21
1.7748952998996399
 31
0.0
  0
LINE
  5
30DC3
  8
FRAME_050
 10
13.38021391661823
 20
10.43596704186257
 30
0.0
 11
13.38021391661823
 21
-7.557743507831673
 31
0.0
  0
ENDBLK
  5
30DC5
  8
0
  0
BLOCK
  8
0
  2
*U50
 70
     1
 10
0.0
 20
0.0
 30
0.0
  3
*U50
  1

  0
TEXT
  5
32675
  8
0
 10
3.5177832928899071
 20
10.38601584255777
 30
0.0
 40
0.125
  1
Crown Moulding
  0
TEXT
  5
32676
  8
0
 10
3.5223876585106431
 20
10.17717091304435
 30
0.0
 40
0.125
  1
TL-AB509
  0
TEXT
  5
32677
  8
0
 10
3.5074661032582561
 20
9.9667059289606801
 30
0.0
 40
0.125
  1
1-5/16" x 7-9/16"
  0
TEXT
  5
32678
  8
0
 10
3.519403347460166
 20
9.7562409448770051
 30
0.0
 40
0.125
  1
800.66.TAGUE
  0
ENDBLK
  5
3267A
  8
0
  0
BLOCK
  8
0
  2
*U51
 70
     1
 10
0.0
 20
0.0
 30
0.0
  3
*U51
  1

  0
TEXT
  5
3267C
  8
0
 10
1.4086740032724709
 20
13.04264108713495
 30
0.0
 40
0.125
  1
Casing
  0
TEXT
  5
3267D
  8
0
 10
1.4132783688932069
 20
12.83379615762154
 30
0.0
 40
0.125
  1
TL-2019
  0
TEXT
  5
3267E
  8
0
 10
1.39835681364082
 20
12.62333117353786
 30
0.0
 40
0.125
  1
1-1/16" x 5-1/2"
  0
TEXT
  5
3267F
  8
0
 10
1.4102940578427301
 20
12.41286618945419
 30
0.0
 40
0.125
  1
800.66.TAGUE
  0
ENDBLK
  5
32681
  8
0
  0
BLOCK
  8
0
  2
*U52
 70
     1
 10
0.0
 20
0.0
 30
0.0
  3
*U52
  1

  0
TEXT
  5
32683
  8
0
 10
1.9061884295105971
 20
11.78127341408482
 30
0.0
 40
0.125
  1
Casing
  0
TEXT
  5
32684
  8
0
 10
1.9107927951313339
 20
11.572428484571409
 30
0.0
 40
0.125
  1
TL-2318
  0
TEXT
  5
32685
  8
0
 10
1.8958712398789459
 20
11.361963500487731
 30
0.0
 40
0.125
  1
13/16" x 2-1/2"
  0
TEXT
  5
32686
  8
0
 10
1.907808484080856
 20
11.151498516404059
 30
0.0
 40
0.125
  1
800.66.TAGUE
  0
ENDBLK
  5
32688
  8
0
  0
BLOCK
  8
0
  2
*U53
 70
     1
 10
0.0
 20
0.0
 30
0.0
  3
*U53
  1

  0
TEXT
  5
3268A
  8
0
 10
2.2380648505203782
 20
10.70752122569969
 30
0.0
 40
0.125
  1
Casing Assembly
  0
TEXT
  5
3268B
  8
0
 10
2.242669216141115
 20
10.498676296186281
 30
0.0
 40
0.125
  1
TL-2225
  0
TEXT
  5
3268C
  8
0
 10
2.2277476608887281
 20
10.2882113121026
 30
0.0
 40
0.125
  1
1-9/16" x 4-1/2"
  0
TEXT
  5
3268D
  8
0
 10
2.239684905090638
 20
10.077746328018931
 30
0.0
 40
0.125
  1
800.66.TAGUE
  0
ENDBLK
  5
3268F
  8
0
  0
BLOCK
  8
0
  2
*U54
 70
     1
 10
0.0
 20
0.0
 30
0.0
  3
*U54
  1

  0
TEXT
  5
32691
  8
0
 10
2.45740474597793
 20
2.5787099920155621
 30
0.0
 40
0.125
  1
Chair Rail
  0
TEXT
  5
32692
  8
0
 10
2.462009111598666
 20
2.3698650625021469
 30
0.0
 40
0.125
  1
TL-300
  0
TEXT
  5
32693
  8
0
 10
2.4470875563462791
 20
2.1594000784184728
 30
0.0
 40
0.125
  1
1-1/16" x 2-15/16"
  0
TEXT
  5
32694
  8
0
 10
2.4590248005481889
 20
1.9489350943347981
 30
0.0
 40
0.125
  1
800.66.TAGUE
  0
ENDBLK
  5
32696
  8
0
  0
BLOCK
  8
0
  2
*U55
 70
     1
 10
0.0
 20
0.0
 30
0.0
  3
*U55
  1

  0
TEXT
  5
32698
  8
0
 10
2.296373382618786
 20
2.154638056947094
 30
0.0
 40
0.125
  1
Chair Rail
  0
TEXT
  5
32699
  8
0
 10
2.3009777482395228
 20
1.945793127433679
 30
0.0
 40
0.125
  1
TL-384
  0
TEXT
  5
3269A
  8
0
 10
2.2860561929871359
 20
1.7353281433500041
 30
0.0
 40
0.125
  1
1-1/8" x 2-3/4"
  0
TEXT
  5
3269B
  8
0
 10
2.2979934371890458
 20
1.52486315926633
 30
0.0
 40
0.125
  1
800.66.TAGUE
  0
ENDBLK
  5
3269D
  8
0
  0
BLOCK
  8
0
  2
*U56
 70
     1
 10
0.0
 20
0.0
 30
0.0
  3
*U56
  1

  0
TEXT
  5
3269F
  8
0
 10
1.7903030854828661
 20
1.879104976913611
 30
0.0
 40
0.125
  1
Chair Rail
  0
TEXT
  5
326A0
  8
0
 10
1.7949074511036021
 20
1.6702600474001961
 30
0.0
 40
0.125
  1
TL-390
  0
TEXT
  5
326A1
  8
0
 10
1.7799858958512149
 20
1.4597950633165211
 30
0.0
 40
0.125
  1
11/16" x 2-9/16"
  0
TEXT
  5
326A2
  8
0
 10
1.791923140053125
 20
1.249330079232847
 30
0.0
 40
0.125
  1
800.66.TAGUE
  0
ENDBLK
  5
326A4
  8
0
  0
BLOCK
  8
0
  2
*U57
 70
     1
 10
0.0
 20
0.0
 30
0.0
  3
*U57
  1

  0
TEXT
  5
326A6
  8
0
 10
1.7790082072096181
 20
2.7163812729427419
 30
0.0
 40
0.125
  1
Chair Rail
  0
TEXT
  5
326A7
  8
0
 10
1.7836125728303549
 20
2.5075363434293272
 30
0.0
 40
0.125
  1
TL-391
  0
TEXT
  5
326A8
  8
0
 10
1.780372463689837
 20
2.2970713593456522
 30
0.0
 40
0.125
  1
3/4" x 3-1/2"
  0
TEXT
  5
326A9
  8
0
 10
1.7806282617798781
 20
2.0866063752619781
 30
0.0
 40
0.125
  1
800.66.TAGUE
  0
ENDBLK
  5
326AB
  8
0
  0
BLOCK
  8
0
  2
*U58
 70
     1
 10
0.0
 20
0.0
 30
0.0
  3
*U58
  1

  0
TEXT
  5
326AD
  8
0
 10
1.979493109854592
 20
1.3931549873730249
 30
0.0
 40
0.125
  1
Chair Rail
  0
TEXT
  5
326AE
  8
0
 10
1.984097475475328
 20
1.1843100578596091
 30
0.0
 40
0.125
  1
TL-393
  0
TEXT
  5
326AF
  8
0
 10
1.9691759202229411
 20
0.9738450737759357
 30
0.0
 40
0.125
  1
1-1/4" x 2-1/2"
  0
TEXT
  5
326B0
  8
0
 10
1.981113164424851
 20
0.7633800896922612
 30
0.0
 40
0.125
  1
800.66.TAGUE
  0
ENDBLK
  5
326B2
  8
0
  0
BLOCK
  8
0
  2
*U59
 70
     1
 10
0.0
 20
0.0
 30
0.0
  3
*U59
  1

  0
TEXT
  5
326B4
  8
0
 10
2.213601074382983
 20
2.6517246081325689
 30
0.0
 40
0.125
  1
Chair Rail
  0
TEXT
  5
326B5
  8
0
 10
2.2182054400037199
 20
2.4428796786191538
 30
0.0
 40
0.125
  1
TL-538
  0
TEXT
  5
326B6
  8
0
 10
2.2171822476435561
 20
2.2324146945354801
 30
0.0
 40
0.125
  1
27/32" x 3-1/4"
  0
TEXT
  5
326B7
  8
0
 10
2.215221128953242
 20
2.021949710451806
 30
0.0
 40
0.125
  1
800.66.TAGUE
  0
ENDBLK
  5
326B9
  8
0
  0
BLOCK
  8
0
  2
*U60
 70
     1
 10
0.0
 20
0.0
 30
0.0
  3
*U60
  1

  0
TEXT
  5
326BB
  8
0
 10
2.143641095436839
 20
2.3625917493022981
 30
0.0
 40
0.125
  1
Chair Rail
  0
TEXT
  5
326BC
  8
0
 10
2.148245461057575
 20
2.1537468197888829
 30
0.0
 40
0.125
  1
TL-2002
  0
TEXT
  5
326BD
  8
0
 10
2.1450053519170571
 20
1.943281835705208
 30
0.0
 40
0.125
  1
3/4" x 3"
  0
TEXT
  5
326BE
  8
0
 10
2.1452611500070979
 20
1.7328168516215341
 30
0.0
 40
0.125
  1
800.66.TAGUE
  0
ENDBLK
  5
326C0
  8
0
  0
BLOCK
  8
0
  2
*U61
 70
     1
 10
0.0
 20
0.0
 30
0.0
  3
*U61
  1

  0
TEXT
  5
326C2
  8
0
 10
2.0814022841362081
 20
2.4827230287430821
 30
0.0
 40
0.125
  1
Chair Rail
  0
TEXT
  5
326C3
  8
0
 10
2.0860066497569441
 20
2.273878099229667
 30
0.0
 40
0.125
  1
TL-2003
  0
TEXT
  5
326C4
  8
0
 10
2.0818286142862759
 20
2.063413115145992
 30
0.0
 40
0.125
  1
7/8" x 3-13/16"
  0
TEXT
  5
326C5
  8
0
 10
2.083022338706467
 20
1.8529481310623179
 30
0.0
 40
0.125
  1
800.66.TAGUE
  0
ENDBLK
  5
326C7
  8
0
  0
BLOCK
  8
0
  2
*U62
 70
     1
 10
0.0
 20
0.0
 30
0.0
  3
*U62
  1

  0
TEXT
  5
326C9
  8
0
 10
2.396282120712645
 20
2.6371956792013558
 30
0.0
 40
0.125
  1
Chair Rail
  0
TEXT
  5
326CA
  8
0
 10
2.4008864863333819
 20
2.4283507496879411
 30
0.0
 40
0.125
  1
TL-2097
  0
TEXT
  5
326CB
  8
0
 10
2.3859649310809949
 20
2.2178857656042661
 30
0.0
 40
0.125
  1
1-1/4" x 2-7/8"
  0
TEXT
  5
326CC
  8
0
 10
2.3979021752829048
 20
2.007420781520592
 30
0.0
 40
0.125
  1
800.66.TAGUE
  0
ENDBLK
  5
326CE
  8
0
  0
BLOCK
  8
0
  2
*U63
 70
     1
 10
0.0
 20
0.0
 30
0.0
  3
*U63
  1

  0
TEXT
  5
326D0
  8
0
 10
2.2497671895647828
 20
1.9038951213874651
 30
0.0
 40
0.125
  1
Chair Rail
  0
TEXT
  5
326D1
  8
0
 10
2.2543715551855201
 20
1.6950501918740499
 30
0.0
 40
0.125
  1
TL-392
  0
TEXT
  5
326D2
  8
0
 10
2.2394499999331319
 20
1.4845852077903761
 30
0.0
 40
0.125
  1
1-5/16" x 2-3/8"
  0
TEXT
  5
326D3
  8
0
 10
2.2513872441350422
 20
1.2741202237067011
 30
0.0
 40
0.125
  1
800.66.TAGUE
  0
ENDBLK
  5
326D5
  8
0
  0
BLOCK
  8
0
  2
*U64
 70
     1
 10
0.0
 20
0.0
 30
0.0
  3
*U64
  1

  0
TEXT
  5
326D7
  8
0
 10
1.5498063030285369
 20
2.4826645605183031
 30
0.0
 40
0.125
  1
Chair Rail
  0
TEXT
  5
326D8
  8
0
 10
1.5544106686492729
 20
2.2738196310048879
 30
0.0
 40
0.125
  1
TL-2152
  0
TEXT
  5
326D9
  8
0
 10
1.539489113396886
 20
2.063354646921213
 30
0.0
 40
0.125
  1
1-9/32" x 3-15/16"
  0
TEXT
  5
326DA
  8
0
 10
1.5514263575987961
 20
1.8528896628375391
 30
0.0
 40
0.125
  1
800.66.TAGUE
  0
ENDBLK
  5
326DC
  8
0
  0
BLOCK
  8
0
  2
*U65
 70
     1
 10
0.0
 20
0.0
 30
0.0
  3
*U65
  1

  0
TEXT
  5
326DE
  8
0
 10
1.425133411081934
 20
3.23616728770982
 30
0.0
 40
0.125
  1
Chair Rail
  0
TEXT
  5
326DF
  8
0
 10
1.4297377767026711
 20
3.0273223581964048
 30
0.0
 40
0.125
  1
TL-2163
  0
TEXT
  5
326E0
  8
0
 10
1.426497667562153
 20
2.8168573741127299
 30
0.0
 40
0.125
  1
3/4" x 2-3/8"
  0
TEXT
  5
326E1
  8
0
 10
1.4267534656521941
 20
2.6063923900290562
 30
0.0
 40
0.125
  1
800.66.TAGUE
  0
ENDBLK
  5
326E3
  8
0
  0
BLOCK
  8
0
  2
*U66
 70
     1
 10
0.0
 20
0.0
 30
0.0
  3
*U66
  1

  0
TEXT
  5
326E5
  8
0
 10
1.3979859738694
 20
3.241688635672078
 30
0.0
 40
0.125
  1
Chair Rail
  0
TEXT
  5
326E6
  8
0
 10
1.4025903394901369
 20
3.0328437061586628
 30
0.0
 40
0.125
  1
TL-2210
  0
TEXT
  5
326E7
  8
0
 10
1.38766878423775
 20
2.8223787220749879
 30
0.0
 40
0.125
  1
11/16" x 3"
  0
TEXT
  5
326E8
  8
0
 10
1.3996060284396601
 20
2.6119137379913142
 30
0.0
 40
0.125
  1
800.66.TAGUE
  0
ENDBLK
  5
326EA
  8
0
  0
BLOCK
  8
0
  2
*U67
 70
     1
 10
0.0
 20
0.0
 30
0.0
  3
*U67
  1

  0
TEXT
  5
326EC
  8
0
 10
1.9179554225799269
 20
1.5548149835556311
 30
0.0
 40
0.125
  1
Chamfer Strip
  0
TEXT
  5
326ED
  8
0
 10
1.9225597882006631
 20
1.3459700540422159
 30
0.0
 40
0.125
  1
TL-994
  0
TEXT
  5
326EE
  8
0
 10
1.9076382329482759
 20
1.137125124528801
 30
0.0
 40
0.125
  1
1" x 1"
  0
TEXT
  5
326EF
  8
0
 10
1.9195754771501861
 20
0.9266601404451272
 30
0.0
 40
0.125
  1
800.66.TAGUE
  0
ENDBLK
  5
326F1
  8
0
  0
BLOCK
  8
0
  2
*U68
 70
     1
 10
0.0
 20
0.0
 30
0.0
  3
*U68
  1

  0
TEXT
  5
326F3
  8
0
 10
0.4278271454310577
 20
1.8307501971237501
 30
0.0
 40
0.125
  1
Chamfer Strip
  0
TEXT
  5
326F4
  8
0
 10
0.4324315110517944
 20
1.6219052676103349
 30
0.0
 40
0.125
  1
TL-995
  0
TEXT
  5
326F5
  8
0
 10
0.4175099557994069
 20
1.41144028352666
 30
0.0
 40
0.125
  1
11/16" x 11/16"
  0
TEXT
  5
326F6
  8
0
 10
0.4294472000013169
 20
1.2009752994429861
 30
0.0
 40
0.125
  1
800.66.TAGUE
  0
ENDBLK
  5
326F8
  8
0
  0
BLOCK
  8
0
  2
*U69
 70
     1
 10
0.0
 20
0.0
 30
0.0
  3
*U69
  1

  0
TEXT
  5
326FA
  8
0
 10
1.9926440979760729
 20
0.67862269993522
 30
0.0
 40
0.125
  1
Column Mouldings
  0
TEXT
  5
326FB
  8
0
 10
1.9972484635968091
 20
0.4697777704218047
 30
0.0
 40
0.125
  1
TL-2212
  0
TEXT
  5
326FC
  8
0
 10
1.9823269083444219
 20
0.2593127863381302
 30
0.0
 40
0.125
  1
1-13/16" x 1-7/8"
  0
TEXT
  5
326FD
  8
0
 10
1.994264152546332
 20
0.0488478022544559
 30
0.0
 40
0.125
  1
800.66.TAGUE
  0
ENDBLK
  5
326FF
  8
0
  0
BLOCK
  8
0
  2
*U70
 70
     1
 10
0.0
 20
0.0
 30
0.0
  3
*U70
  1

  0
TEXT
  5
32701
  8
0
 10
1.6834489538549959
 20
0.7751852708459115
 30
0.0
 40
0.125
  1
Column Mouldings
  0
TEXT
  5
32702
  8
0
 10
1.688053319475733
 20
0.5663403413324964
 30
0.0
 40
0.125
  1
TL-2215
  0
TEXT
  5
32703
  8
0
 10
1.673131764223345
 20
0.3558753572488219
 30
0.0
 40
0.125
  1
1/2" x 1"
  0
TEXT
  5
32704
  8
0
 10
1.6850690084252551
 20
0.1454103731651475
 30
0.0
 40
0.125
  1
800.66.TAGUE
  0
ENDBLK
  5
32706
  8
0
  0
BLOCK
  8
0
  2
*U71
 70
     1
 10
0.0
 20
0.0
 30
0.0
  3
*U71
  1

  0
TEXT
  5
32708
  8
0
 10
1.6834489538549959
 20
0.7751852708459115
 30
0.0
 40
0.125
  1
Column Mouldings
  0
TEXT
  5
32709
  8
0
 10
1.688053319475733
 20
0.5663403413324964
 30
0.0
 40
0.125
  1
TL-2215
  0
TEXT
  5
3270A
  8
0
 10
1.673131764223345
 20
0.3558753572488219
 30
0.0
 40
0.125
  1
1/2" x 1"
  0
TEXT
  5
3270B
  8
0
 10
1.6850690084252551
 20
0.1454103731651475
 30
0.0
 40
0.125
  1
800.66.TAGUE
  0
ENDBLK
  5
3270D
  8
0
  0
BLOCK
  8
0
  2
*U72
 70
     1
 10
0.0
 20
0.0
 30
0.0
  3
*U72
  1

  0
TEXT
  5
3270F
  8
0
 10
2.2199536060229881
 20
0.9507943810130132
 30
0.0
 40
0.125
  1
Corner Moulding
  0
TEXT
  5
32710
  8
0
 10
2.224557971643724
 20
0.7419494514995982
 30
0.0
 40
0.125
  1
TL-201
  0
TEXT
  5
32711
  8
0
 10
2.2096364163913371
 20
0.5314844674159237
 30
0.0
 40
0.125
  1
1-3/8" x 1-3/8"
  0
TEXT
  5
32712
  8
0
 10
2.221573660593247
 20
0.3210194833322493
 30
0.0
 40
0.125
  1
800.66.TAGUE
  0
ENDBLK
  5
32714
  8
0
  0
BLOCK
  8
0
  2
*U73
 70
     1
 10
0.0
 20
0.0
 30
0.0
  3
*U73
  1

  0
TEXT
  5
32716
  8
0
 10
1.9663332328677019
 20
0.8425411796803405
 30
0.0
 40
0.125
  1
Corner Moulding
  0
TEXT
  5
32717
  8
0
 10
1.9709375984884381
 20
0.6336962501669256
 30
0.0
 40
0.125
  1
TL-202
  0
TEXT
  5
32718
  8
0
 10
1.9560160432360509
 20
0.423231266083251
 30
0.0
 40
0.125
  1
1-1/8" x 1-1/8"
  0
TEXT
  5
32719
  8
0
 10
1.9679532874379611
 20
0.2127662819995766
 30
0.0
 40
0.125
  1
800.66.TAGUE
  0
ENDBLK
  5
3271B
  8
0
  0
BLOCK
  8
0
  2
*U74
 70
     1
 10
0.0
 20
0.0
 30
0.0
  3
*U74
  1

  0
TEXT
  5
3271D
  8
0
 10
1.5905291641242101
 20
0.7214840869431943
 30
0.0
 40
0.125
  1
Corner Moulding
  0
TEXT
  5
3271E
  8
0
 10
1.5951335297449469
 20
0.5126391574297791
 30
0.0
 40
0.125
  1
TL-203
  0
TEXT
  5
3271F
  8
0
 10
1.5918934206044291
 20
0.3021741733461046
 30
0.0
 40
0.125
  1
3/4" x 3/4"
  0
TEXT
  5
32720
  8
0
 10
1.592149218694469
 20
0.0917091892624302
 30
0.0
 40
0.125
  1
800.66.TAGUE
  0
ENDBLK
  5
32722
  8
0
  0
BLOCK
  8
0
  2
*U75
 70
     1
 10
0.0
 20
0.0
 30
0.0
  3
*U75
  1

  0
TEXT
  5
32724
  8
0
 10
1.935358187968665
 20
1.031573183991797
 30
0.0
 40
0.125
  1
Corner Moulding
  0
TEXT
  5
32725
  8
0
 10
1.939962553589401
 20
0.8227282544783825
 30
0.0
 40
0.125
  1
TL-204
  0
TEXT
  5
32726
  8
0
 10
1.925040998337014
 20
0.6122632703947081
 30
0.0
 40
0.125
  1
1-3/8" x 1-3/8"
  0
TEXT
  5
32727
  8
0
 10
1.9369782425389239
 20
0.4017982863110337
 30
0.0
 40
0.125
  1
800.66.TAGUE
  0
ENDBLK
  5
32729
  8
0
  0
BLOCK
  8
0
  2
*U76
 70
     1
 10
0.0
 20
0.0
 30
0.0
  3
*U76
  1

  0
TEXT
  5
3272B
  8
0
 10
1.8542205155787641
 20
0.9211791424976514
 30
0.0
 40
0.125
  1
Corner Moulding
  0
TEXT
  5
3272C
  8
0
 10
1.858824881199501
 20
0.7123342129842363
 30
0.0
 40
0.125
  1
TL-205
  0
TEXT
  5
3272D
  8
0
 10
1.8439033259471129
 20
0.5018692289005619
 30
0.0
 40
0.125
  1
1-1/8" x 1-1/8"
  0
TEXT
  5
3272E
  8
0
 10
1.855840570149023
 20
0.2914042448168874
 30
0.0
 40
0.125
  1
800.66.TAGUE
  0
ENDBLK
  5
32730
  8
0
  0
BLOCK
  8
0
  2
*U77
 70
     1
 10
0.0
 20
0.0
 30
0.0
  3
*U77
  1

  0
TEXT
  5
32732
  8
0
 10
1.334185060618698
 20
0.6786227981105119
 30
0.0
 40
0.125
  1
Corner Moulding
  0
TEXT
  5
32733
  8
0
 10
1.3387894262394351
 20
0.4697778685970966
 30
0.0
 40
0.125
  1
TL-206
  0
TEXT
  5
32734
  8
0
 10
1.3355493170989159
 20
0.2593128845134221
 30
0.0
 40
0.125
  1
3/4" x 3/4"
  0
TEXT
  5
32735
  8
0
 10
1.3358051151889569
 20
0.0488479004297477
 30
0.0
 40
0.125
  1
800.66.TAGUE
  0
ENDBLK
  5
32737
  8
0
  0
BLOCK
  8
0
  2
*U78
 70
     1
 10
0.0
 20
0.0
 30
0.0
  3
*U78
  1

  0
TEXT
  5
32739
  8
0
 10
1.823849037637477
 20
0.8585475398531504
 30
0.0
 40
0.125
  1
Cove
  0
TEXT
  5
3273A
  8
0
 10
1.828453403258214
 20
0.6497026103397352
 30
0.0
 40
0.125
  1
TL-83
  0
TEXT
  5
3273B
  8
0
 10
1.825298560147709
 20
0.4392376262560608
 30
0.0
 40
0.125
  1
9/16" x 2-5/8"
  0
TEXT
  5
3273C
  8
0
 10
1.8254690922077359
 20
0.2287726421723863
 30
0.0
 40
0.125
  1
800.66.TAGUE
  0
ENDBLK
  5
3273E
  8
0
  0
BLOCK
  8
0
  2
*U79
 70
     1
 10
0.0
 20
0.0
 30
0.0
  3
*U79
  1

  0
TEXT
  5
32740
  8
0
 10
1.4372220564187941
 20
0.6786219190419321
 30
0.0
 40
0.125
  1
Cove
  0
TEXT
  5
32741
  8
0
 10
1.4418264220395309
 20
0.4697769895285169
 30
0.0
 40
0.125
  1
TL-86
  0
TEXT
  5
32742
  8
0
 10
1.4386715789290261
 20
0.2593120054448424
 30
0.0
 40
0.125
  1
9/16" x 1-5/8"
  0
TEXT
  5
32743
  8
0
 10
1.438842110989053
 20
0.048847021361168
 30
0.0
 40
0.125
  1
800.66.TAGUE
  0
ENDBLK
  5
32745
  8
0
  0
BLOCK
  8
0
  2
*U80
 70
     1
 10
0.0
 20
0.0
 30
0.0
  3
*U80
  1

  0
TEXT
  5
32747
  8
0
 10
1.5163761963436611
 20
0.6786216177161056
 30
0.0
 40
0.125
  1
Cove
  0
TEXT
  5
32748
  8
0
 10
1.5209805619643979
 20
0.4697766882026904
 30
0.0
 40
0.125
  1
TL-100
  0
TEXT
  5
32749
  8
0
 10
1.506059006712011
 20
0.2593117041190159
 30
0.0
 40
0.125
  1
11/16" x 11/16"
  0
TEXT
  5
3274A
  8
0
 10
1.5179962509139211
 20
0.0488467200353415
 30
0.0
 40
0.125
  1
800.66.TAGUE
  0
ENDBLK
  5
3274C
  8
0
  0
BLOCK
  8
0
  2
*U81
 70
     1
 10
0.0
 20
0.0
 30
0.0
  3
*U81
  1

  0
TEXT
  5
3274E
  8
0
 10
1.281862643234239
 20
0.6786219754701666
 30
0.0
 40
0.125
  1
Cove
  0
TEXT
  5
3274F
  8
0
 10
1.286467008854975
 20
0.4697770459567514
 30
0.0
 40
0.125
  1
TL-101
  0
TEXT
  5
32750
  8
0
 10
1.2715454536025881
 20
0.259312061873077
 30
0.0
 40
0.125
  1
1/2" x 1/2"
  0
TEXT
  5
32751
  8
0
 10
1.283482697804498
 20
0.0488470777894026
 30
0.0
 40
0.125
  1
800.66.TAGUE
  0
ENDBLK
  5
32753
  8
0
  0
BLOCK
  8
0
  2
*U82
 70
     1
 10
0.0
 20
0.0
 30
0.0
  3
*U82
  1

  0
TEXT
  5
32755
  8
0
 10
8.9871190848671514
 20
3.8959346082645121
 30
0.0
 40
0.125
  1
Cove
  0
TEXT
  5
32756
  8
0
 10
8.9917234504878873
 20
3.6870896787510969
 30
0.0
 40
0.125
  1
TL-542
  0
TEXT
  5
32757
  8
0
 10
8.9884833413473686
 20
3.4766246946674229
 30
0.0
 40
0.125
  1
3/4" x 4"
  0
TEXT
  5
32758
  8
0
 10
8.9887391394374099
 20
3.2661597105837492
 30
0.0
 40
0.125
  1
800.66.TAGUE
  0
ENDBLK
  5
3275A
  8
0
  0
BLOCK
  8
0
  2
*U83
 70
     1
 10
0.0
 20
0.0
 30
0.0
  3
*U83
  1

  0
TEXT
  5
3275C
  8
0
 10
2.0449744451125631
 20
2.5585391787528962
 30
0.0
 40
0.125
  1
Cove
  0
TEXT
  5
3275D
  8
0
 10
2.0495788107332991
 20
2.349694249239481
 30
0.0
 40
0.125
  1
TL-542
  0
TEXT
  5
3275E
  8
0
 10
2.0463387015927812
 20
2.139229265155806
 30
0.0
 40
0.125
  1
3/4" x 4"
  0
TEXT
  5
3275F
  8
0
 10
2.046594499682822
 20
1.9287642810721319
 30
0.0
 40
0.125
  1
800.66.TAGUE
  0
ENDBLK
  5
32761
  8
0
  0
BLOCK
  8
0
  2
*U84
 70
     1
 10
0.0
 20
0.0
 30
0.0
  3
*U84
  1

  0
TEXT
  5
32763
  8
0
 10
1.972901825589735
 20
0.6861779570716795
 30
0.0
 40
0.125
  1
Cove
  0
TEXT
  5
32764
  8
0
 10
1.977506191210471
 20
0.4773330275582644
 30
0.0
 40
0.125
  1
TL-2285
  0
TEXT
  5
32765
  8
0
 10
1.9625846359580841
 20
0.2176457378811383
 30
0.0
 40
0.125
  1
1-
  0
TEXT
  5
32766
  8
0
 10
2.1127371939389841
 20
0.3048707378811382
 30
0.0
 40
0.087225
  1
3
  0
LINE
  5
32767
  8
0
 10
2.139480062265986
 20
0.233420200818031
 30
0.0
 11
2.2395404715874259
 21
0.3763212749442456
 31
0.0
  0
TEXT
  5
32768
  8
0
 10
2.202500802397374
 20
0.1885707378811383
 30
0.0
 40
0.087225
  1
4
  0
TEXT
  5
32769
  8
0
 10
2.2702102498735002
 20
0.2176457378811383
 30
0.0
 40
0.125
  1
" x 1-
  0
TEXT
  5
3276A
  8
0
 10
2.6666963685638141
 20
0.3048707378811382
 30
0.0
 40
0.087225
  1
3
  0
LINE
  5
3276B
  8
0
 10
2.6934392368908151
 20
0.233420200818031
 30
0.0
 11
2.793499646212255
 21
0.3763212749442456
 31
0.0
  0
TEXT
  5
3276C
  8
0
 10
2.756459977022204
 20
0.1885707378811383
 30
0.0
 40
0.087225
  1
4
  0
TEXT
  5
3276D
  8
0
 10
2.8241694244983289
 20
0.2176457378811383
 30
0.0
 40
0.125
  1
"
  0
TEXT
  5
3276E
  8
0
 10
1.974521880159994
 20
0.0488474204641306
 30
0.0
 40
0.125
  1
800.66.TAGUE
  0
ENDBLK
  5
32770
  8
0
  0
BLOCK
  8
0
  2
*U85
 70
     1
 10
0.0
 20
0.0
 30
0.0
  3
*U85
  1

  0
TEXT
  5
32772
  8
0
 10
6.0916813895717663
 20
1.1589680224542569
 30
0.0
 40
0.125
  1
TL-539
  0
ENDBLK
  5
32774
  8
0
  0
BLOCK
  8
0
  2
*U86
 70
     1
 10
0.0
 20
0.0
 30
0.0
  3
*U86
  1

  0
INSERT
  5
32776
  8
0
  2
_OPEN30
 10
5.5297396917334254
 20
1.423040350996984
 30
0.0
 41
0.046875
 42
0.046875
 43
0.046875
 50
156.5115553320598
  0
POLYLINE
  5
32777
  8
0
 66
     1
 10
0.0
 20
0.0
 30
0.0
  0
VERTEX
  5
32778
  8
0
 10
5.5727306514936332
 20
1.404357658367275
 30
0.0
  0
VERTEX
  5
32779
  8
0
 10
5.992991484785648
 20
1.221723820544298
 30
0.0
  0
VERTEX
  5
3277A
  8
0
 10
6.0332741590124206
 20
1.221723820544298
 30
0.0
  0
SEQEND
  5
3277B
  8
0
  0
ENDBLK
  5
3277D
  8
0
  0
BLOCK
  8
0
  2
*U87
 70
     1
 10
0.0
 20
0.0
 30
0.0
  3
*U87
  1

  0
TEXT
  5
3277F
  8
0
 10
8.2506161076617612
 20
3.659671552769634
 30
0.0
 40
0.125
  1
TL-25
  0
ENDBLK
  5
32781
  8
0
  0
BLOCK
  8
0
  2
*U88
 70
     1
 10
0.0
 20
0.0
 30
0.0
  3
*U88
  1

  0
INSERT
  5
32783
  8
0
  2
_OPEN30
 10
7.5943396585593632
 20
4.1117705265849054
 30
0.0
 41
0.046875
 42
0.046875
 43
0.046875
 50
143.83030806409641
  0
POLYLINE
  5
32784
  8
0
 66
     1
 10
0.0
 20
0.0
 30
0.0
  0
VERTEX
  5
32785
  8
0
 10
7.6321805623951144
 20
4.0841058989551424
 30
0.0
  0
VERTEX
  5
32786
  8
0
 10
8.1269005109553518
 20
3.7224273508596748
 30
0.0
  0
VERTEX
  5
32787
  8
0
 10
8.1922088771024164
 20
3.7224273508596748
 30
0.0
  0
SEQEND
  5
32788
  8
0
  0
ENDBLK
  5
3278A
  8
0
  0
BLOCK
  8
0
  2
*U89
 70
     1
 10
0.0
 20
0.0
 30
0.0
  3
*U89
  1

  0
TEXT
  5
3278C
  8
0
 10
7.4510287652605358
 20
2.3081779177865811
 30
0.0
 40
0.125
  1
Crown Assembly
  0
TEXT
  5
3278D
  8
0
 10
7.4556331308812718
 20
2.0993329882731659
 30
0.0
 40
0.125
  1
TL-660
  0
TEXT
  5
3278E
  8
0
 10
7.4523930217407539
 20
1.888868004189491
 30
0.0
 40
0.125
  1
3-1/4" x 5-5/8"
  0
TEXT
  5
3278F
  8
0
 10
7.4526488198307952
 20
1.6784030201058171
 30
0.0
 40
0.125
  1
800.66.TAGUE
  0
ENDBLK
  5
32791
  8
0
  0
BLOCK
  8
0
  2
*U90
 70
     1
 10
0.0
 20
0.0
 30
0.0
  3
*U90
  1

  0
TEXT
  5
32793
  8
0
 10
11.100877515101759
 20
4.3482389803681532
 30
0.0
 40
0.125
  1
Crown Assembly
  0
TEXT
  5
32794
  8
0
 10
11.1054818807225
 20
4.1393940508547384
 30
0.0
 40
0.125
  1
TL-661
  0
TEXT
  5
32795
  8
0
 10
11.1073577333828
 20
3.928929066771063
 30
0.0
 40
0.125
  1
4-1/2" x 9-3/8"
  0
TEXT
  5
32796
  8
0
 10
11.102497569672019
 20
3.7184640826873889
 30
0.0
 40
0.125
  1
800.66.TAGUE
  0
ENDBLK
  5
32798
  8
0
  0
BLOCK
  8
0
  2
*U91
 70
     1
 10
0.0
 20
0.0
 30
0.0
  3
*U91
  1

  0
TEXT
  5
3279A
  8
0
 10
9.9973648083120619
 20
4.7141156879961379
 30
0.0
 40
0.125
  1
TL-238
  0
ENDBLK
  5
3279C
  8
0
  0
BLOCK
  8
0
  2
*U92
 70
     1
 10
0.0
 20
0.0
 30
0.0
  3
*U92
  1

  0
INSERT
  5
3279E
  8
0
  2
_OPEN30
 10
9.1771961149673302
 20
5.3422014599419754
 30
0.0
 41
0.046875
 42
0.046875
 43
0.046875
 50
140.13823031629951
  0
POLYLINE
  5
3279F
  8
0
 66
     1
 10
0.0
 20
0.0
 30
0.0
  0
VERTEX
  5
327A0
  8
0
 10
9.2131770361390952
 20
5.3121575098582854
 30
0.0
  0
VERTEX
  5
327A1
  8
0
 10
9.8542406836302234
 20
4.7768714860861792
 30
0.0
  0
VERTEX
  5
327A2
  8
0
 10
9.938957577752717
 20
4.7768714860861792
 30
0.0
  0
SEQEND
  5
327A3
  8
0
  0
ENDBLK
  5
327A5
  8
0
  0
BLOCK
  8
0
  2
*U93
 70
     1
 10
0.0
 20
0.0
 30
0.0
  3
*U93
  1

  0
TEXT
  5
327A7
  8
0
 10
9.2979572148710243
 20
1.0810665778271971
 30
0.0
 40
0.125
  1
TL-64
  0
ENDBLK
  5
327A9
  8
0
  0
BLOCK
  8
0
  2
*U94
 70
     1
 10
0.0
 20
0.0
 30
0.0
  3
*U94
  1

  0
INSERT
  5
327AB
  8
0
  2
_OPEN30
 10
8.6422745705577313
 20
1.642559297640787
 30
0.0
 41
0.046875
 42
0.046875
 43
0.046875
 50
135.79936825235271
  0
POLYLINE
  5
327AC
  8
0
 66
     1
 10
0.0
 20
0.0
 30
0.0
  0
VERTEX
  5
327AD
  8
0
 10
8.6758793949613793
 20
1.6098793129131279
 30
0.0
  0
VERTEX
  5
327AE
  8
0
 10
9.1442411396712941
 20
1.1544073699477619
 30
0.0
  0
VERTEX
  5
327AF
  8
0
 10
9.2395499843116795
 20
1.1438223759172379
 30
0.0
  0
SEQEND
  5
327B0
  8
0
  0
ENDBLK
  5
327B2
  8
0
  0
BLOCK
  8
0
  2
*U95
 70
     1
 10
0.0
 20
0.0
 30
0.0
  3
*U95
  1

  0
TEXT
  5
327B4
  8
0
 10
8.7532801379956631
 20
2.9571153571353181
 30
0.0
 40
0.125
  1
1 x 6 Board
  0
ENDBLK
  5
327B6
  8
0
  0
BLOCK
  8
0
  2
*U96
 70
     1
 10
0.0
 20
0.0
 30
0.0
  3
*U96
  1

  0
INSERT
  5
327B8
  8
0
  2
_OPEN30
 10
8.1167699671577793
 20
3.019871155225359
 30
0.0
 41
0.046875
 42
0.046875
 43
0.046875
 50
180.0
  0
POLYLINE
  5
327B9
  8
0
 66
     1
 10
0.0
 20
0.0
 30
0.0
  0
VERTEX
  5
327BA
  8
0
 10
8.1636449671577793
 20
3.019871155225359
 30
0.0
  0
VERTEX
  5
327BB
  8
0
 10
8.7097944626887056
 20
3.019871155225359
 30
0.0
  0
SEQEND
  5
327BC
  8
0
  0
ENDBLK
  5
327BE
  8
0
  0
BLOCK
  8
0
  2
*U97
 70
     1
 10
0.0
 20
0.0
 30
0.0
  3
*U97
  1

  0
TEXT
  5
327C0
  8
0
 10
9.3508379695960624
 20
3.9746409328325849
 30
0.0
 40
0.125
  1
TL-54
  0
ENDBLK
  5
327C2
  8
0
  0
BLOCK
  8
0
  2
*U98
 70
     1
 10
0.0
 20
0.0
 30
0.0
  3
*U98
  1

  0
INSERT
  5
327C4
  8
0
  2
_OPEN30
 10
8.5596004878627241
 20
4.5802047155393657
 30
0.0
 41
0.046875
 42
0.046875
 43
0.046875
 50
140.0397693589118
  0
POLYLINE
  5
327C5
  8
0
 66
     1
 10
0.0
 20
0.0
 30
0.0
  0
VERTEX
  5
327C6
  8
0
 10
8.59552972636817
 20
4.5500989777902472
 30
0.0
  0
VERTEX
  5
327C7
  8
0
 10
9.2077117660230652
 20
4.0371409328325853
 30
0.0
  0
VERTEX
  5
327C8
  8
0
 10
9.2924307390367176
 20
4.0371409328325853
 30
0.0
  0
SEQEND
  5
327C9
  8
0
  0
ENDBLK
  5
327CB
  8
0
  0
BLOCK
  8
0
  2
*U99
 70
     1
 10
0.0
 20
0.0
 30
0.0
  3
*U99
  1

  0
TEXT
  5
327CD
  8
0
 10
11.67173909884349
 20
7.0992410855625394
 30
0.0
 40
0.125
  1
TL-47
  0
ENDBLK
  5
327CF
  8
0
  0
BLOCK
  8
0
  2
*U100
 70
     1
 10
0.0
 20
0.0
 30
0.0
  3
*U100
  1

  0
INSERT
  5
327D1
  8
0
  2
_OPEN30
 10
10.865727544193421
 20
7.6405095440040887
 30
0.0
 41
0.046875
 42
0.046875
 43
0.046875
 50
143.72235556643869
  0
POLYLINE
  5
327D2
  8
0
 66
     1
 10
0.0
 20
0.0
 30
0.0
  0
VERTEX
  5
327D3
  8
0
 10
10.903516257235109
 20
7.6127736684698251
 30
0.0
  0
VERTEX
  5
327D4
  8
0
 10
11.518025102534921
 20
7.1617410855625394
 30
0.0
  0
VERTEX
  5
327D5
  8
0
 10
11.613331868284151
 20
7.1617410855625394
 30
0.0
  0
SEQEND
  5
327D6
  8
0
  0
ENDBLK
  5
327D8
  8
0
  0
BLOCK
  8
0
  2
*U101
 70
     1
 10
0.0
 20
0.0
 30
0.0
  3
*U101
  1

  0
TEXT
  5
327DA
  8
0
 10
10.306078575796199
 20
1.991254863143028
 30
0.0
 40
0.125
  1
Crown Assembly
  0
TEXT
  5
327DB
  8
0
 10
10.31068294141693
 20
1.7824099336296131
 30
0.0
 40
0.125
  1
TL-662
  0
TEXT
  5
327DC
  8
0
 10
10.31255879407723
 20
1.5719449495459381
 30
0.0
 40
0.125
  1
4-3/8" x 5"
  0
TEXT
  5
327DD
  8
0
 10
10.307698630366451
 20
1.361479965462264
 30
0.0
 40
0.125
  1
800.66.TAGUE
  0
ENDBLK
  5
327DF
  8
0
  0
BLOCK
  8
0
  2
*U102
 70
     1
 10
0.0
 20
0.0
 30
0.0
  3
*U102
  1

  0
TEXT
  5
327E1
  8
0
 10
8.4907133848708494
 20
0.0967622511747205
 30
0.0
 40
0.125
  1
TL-623
  0
ENDBLK
  5
327E3
  8
0
  0
BLOCK
  8
0
  2
*U103
 70
     1
 10
0.0
 20
0.0
 30
0.0
  3
*U103
  1

  0
INSERT
  5
327E5
  8
0
  2
_OPEN30
 10
7.8166701362065956
 20
0.6199995871735382
 30
0.0
 41
0.046875
 42
0.046875
 43
0.046875
 50
138.3966245586565
  0
POLYLINE
  5
327E6
  8
0
 66
     1
 10
0.0
 20
0.0
 30
0.0
  0
VERTEX
  5
327E7
  8
0
 10
7.8517213381880619
 20
0.588875980945235
 30
0.0
  0
VERTEX
  5
327E8
  8
0
 10
8.3352614355432024
 20
0.1595180492647614
 30
0.0
  0
VERTEX
  5
327E9
  8
0
 10
8.4323061543115045
 20
0.1595180492647614
 30
0.0
  0
SEQEND
  5
327EA
  8
0
  0
ENDBLK
  5
327EC
  8
0
  0
BLOCK
  8
0
  2
*U104
 70
     1
 10
0.0
 20
0.0
 30
0.0
  3
*U104
  1

  0
TEXT
  5
327EE
  8
0
 10
9.5905632324050352
 20
2.4357622671589061
 30
0.0
 40
0.125
  1
TL-547
  0
ENDBLK
  5
327F0
  8
0
  0
BLOCK
  8
0
  2
*U105
 70
     1
 10
0.0
 20
0.0
 30
0.0
  3
*U105
  1

  0
INSERT
  5
327F2
  8
0
  2
_OPEN30
 10
8.9379372763926312
 20
3.012476083171463
 30
0.0
 41
0.046875
 42
0.046875
 43
0.046875
 50
134.64930297028991
  0
POLYLINE
  5
327F3
  8
0
 66
     1
 10
0.0
 20
0.0
 30
0.0
  0
VERTEX
  5
327F4
  8
0
 10
8.9708794087728574
 20
2.9791281965930958
 30
0.0
  0
VERTEX
  5
327F5
  8
0
 10
9.4458944915828624
 20
2.4982622671589061
 30
0.0
  0
VERTEX
  5
327F6
  8
0
 10
9.5321560018456921
 20
2.4982622671589061
 30
0.0
  0
SEQEND
  5
327F7
  8
0
  0
ENDBLK
  5
327F9
  8
0
  0
BLOCK
  8
0
  2
*U106
 70
     1
 10
0.0
 20
0.0
 30
0.0
  3
*U106
  1

  0
TEXT
  5
327FB
  8
0
 10
11.520691030397129
 20
3.912039811269675
 30
0.0
 40
0.125
  1
TL-623
  0
ENDBLK
  5
327FD
  8
0
  0
BLOCK
  8
0
  2
*U107
 70
     1
 10
0.0
 20
0.0
 30
0.0
  3
*U107
  1

  0
INSERT
  5
327FF
  8
0
  2
_OPEN30
 10
11.020454893837719
 20
4.3488596077285129
 30
0.0
 41
0.046875
 42
0.046875
 43
0.046875
 50
131.85755087258991
  0
POLYLINE
  5
32800
  8
0
 66
     1
 10
0.0
 20
0.0
 30
0.0
  0
VERTEX
  5
32801
  8
0
 10
11.051733687379979
 20
4.3139468206793472
 30
0.0
  0
VERTEX
  5
32802
  8
0
 10
11.36523908106949
 20
3.9640181370855312
 30
0.0
  0
VERTEX
  5
32803
  8
0
 10
11.46302804287723
 20
3.9642485872277571
 30
0.0
  0
SEQEND
  5
32804
  8
0
  0
ENDBLK
  5
32806
  8
0
  0
BLOCK
  8
0
  2
*U108
 70
     1
 10
0.0
 20
0.0
 30
0.0
  3
*U108
  1

  0
TEXT
  5
32808
  8
0
 10
9.2456145386519548
 20
1.830235825918082
 30
0.0
 40
0.125
  1
Crown Assembly
  0
TEXT
  5
32809
  8
0
 10
9.2502189042726908
 20
1.621390896404667
 30
0.0
 40
0.125
  1
TL-663
  0
TEXT
  5
3280A
  8
0
 10
9.2491957119125274
 20
1.4109259123209921
 30
0.0
 40
0.125
  1
2-11/16" x 4-1/4"
  0
TEXT
  5
3280B
  8
0
 10
9.2472345932222133
 20
1.200460928237318
 30
0.0
 40
0.125
  1
800.66.TAGUE
  0
ENDBLK
  5
3280D
  8
0
  0
BLOCK
  8
0
  2
*U109
 70
     1
 10
0.0
 20
0.0
 30
0.0
  3
*U109
  1

  0
TEXT
  5
3280F
  8
0
 10
7.0011486317315006
 20
0.0994237416013103
 30
0.0
 40
0.125
  1
TL-56
  0
ENDBLK
  5
32811
  8
0
  0
BLOCK
  8
0
  2
*U110
 70
     1
 10
0.0
 20
0.0
 30
0.0
  3
*U110
  1

  0
INSERT
  5
32813
  8
0
  2
_OPEN30
 10
6.1447636050547771
 20
0.8025867523464285
 30
0.0
 41
0.046875
 42
0.046875
 43
0.046875
 50
136.0557062383902
  0
POLYLINE
  5
32814
  8
0
 66
     1
 10
0.0
 20
0.0
 30
0.0
  0
VERTEX
  5
32815
  8
0
 10
6.1785143010030019
 20
0.7700574402109038
 30
0.0
  0
VERTEX
  5
32816
  8
0
 10
6.8092163001293784
 20
0.1621795396913512
 30
0.0
  0
VERTEX
  5
32817
  8
0
 10
6.9427414011721558
 20
0.1621795396913512
 30
0.0
  0
SEQEND
  5
32818
  8
0
  0
ENDBLK
  5
3281A
  8
0
  0
BLOCK
  8
0
  2
*U111
 70
     1
 10
0.0
 20
0.0
 30
0.0
  3
*U111
  1

  0
TEXT
  5
3281C
  8
0
 10
7.4758184206721721
 20
1.2018846043570841
 30
0.0
 40
0.125
  1
1-1/16" x 1-7/8"
  0
TEXT
  5
3281D
  8
0
 10
7.4943211491851329
 20
0.9914196202734098
 30
0.0
 40
0.125
  1
w/ 3/8" Bead
  0
ENDBLK
  5
3281F
  8
0
  0
BLOCK
  8
0
  2
*U112
 70
     1
 10
0.0
 20
0.0
 30
0.0
  3
*U112
  1

  0
INSERT
  5
32821
  8
0
  2
_OPEN30
 10
6.8403616286130378
 20
1.6201217739683209
 30
0.0
 41
0.046875
 42
0.046875
 43
0.046875
 50
143.32430708272619
  0
POLYLINE
  5
32822
  8
0
 66
     1
 10
0.0
 20
0.0
 30
0.0
  0
VERTEX
  5
32823
  8
0
 10
6.8779567430390864
 20
1.592124041983527
 30
0.0
  0
VERTEX
  5
32824
  8
0
 10
7.316611268313749
 20
1.265450429732254
 30
0.0
  0
VERTEX
  5
32825
  8
0
 10
7.4323327453652146
 20
1.265450429732254
 30
0.0
  0
SEQEND
  5
32826
  8
0
  0
ENDBLK
  5
32828
  8
0
  0
BLOCK
  8
0
  2
*U113
 70
     1
 10
0.0
 20
0.0
 30
0.0
  3
*U113
  1

  0
TEXT
  5
3282A
  8
0
 10
8.2206740073252771
 20
2.3682472913577719
 30
0.0
 40
0.125
  1
TL-71
  0
ENDBLK
  5
3282C
  8
0
  0
BLOCK
  8
0
  2
*U114
 70
     1
 10
0.0
 20
0.0
 30
0.0
  3
*U114
  1

  0
INSERT
  5
3282E
  8
0
  2
_OPEN30
 10
7.732786633242994
 20
2.897502127018015
 30
0.0
 41
0.046875
 42
0.046875
 43
0.046875
 50
127.3606991348481
  0
POLYLINE
  5
3282F
  8
0
 66
     1
 10
0.0
 20
0.0
 30
0.0
  0
VERTEX
  5
32830
  8
0
 10
7.7612318262646021
 20
2.8602444215201781
 30
0.0
  0
VERTEX
  5
32831
  8
0
 10
8.0821525476966372
 20
2.4399002980619571
 30
0.0
  0
VERTEX
  5
32832
  8
0
 10
8.1622667767659323
 20
2.4310030894478132
 30
0.0
  0
SEQEND
  5
32833
  8
0
  0
ENDBLK
  5
32835
  8
0
  0
BLOCK
  8
0
  2
*U115
 70
     1
 10
0.0
 20
0.0
 30
0.0
  3
*U115
  1

  0
TEXT
  5
32837
  8
0
 10
8.3234330435333614
 20
1.414021240929644
 30
0.0
 40
0.125
  1
Crown Assembly
  0
TEXT
  5
32838
  8
0
 10
8.3280374091540974
 20
1.2051763114162291
 30
0.0
 40
0.125
  1
TL-664
  0
TEXT
  5
32839
  8
0
 10
8.3247973000135786
 20
0.9947113273325546
 30
0.0
 40
0.125
  1
3-1/16" x 4-1/4"
  0
TEXT
  5
3283A
  8
0
 10
8.3250530981036182
 20
0.7842463432488803
 30
0.0
 40
0.125
  1
800.66.TAGUE
  0
ENDBLK
  5
3283C
  8
0
  0
BLOCK
  8
0
  2
*U116
 70
     1
 10
0.0
 20
0.0
 30
0.0
  3
*U116
  1

  0
TEXT
  5
3283E
  8
0
 10
6.7733031137018482
 20
0.0417615579446075
 30
0.0
 40
0.125
  1
TL-B3
  0
ENDBLK
  5
32840
  8
0
  0
BLOCK
  8
0
  2
*U117
 70
     1
 10
0.0
 20
0.0
 30
0.0
  3
*U117
  1

  0
INSERT
  5
32842
  8
0
  2
_OPEN30
 10
6.0277617672714987
 20
0.5589010370247252
 30
0.0
 41
0.046875
 42
0.046875
 43
0.046875
 50
143.10777595702231
  0
POLYLINE
  5
32843
  8
0
 66
     1
 10
0.0
 20
0.0
 30
0.0
  0
VERTEX
  5
32844
  8
0
 10
6.065250804980173
 20
0.5307614265676202
 30
0.0
  0
VERTEX
  5
32845
  8
0
 10
6.6427250972388938
 20
0.0973040047092582
 30
0.0
  0
VERTEX
  5
32846
  8
0
 10
6.716868750864136
 20
0.0942112590512352
 30
0.0
  0
SEQEND
  5
32847
  8
0
  0
ENDBLK
  5
32849
  8
0
  0
BLOCK
  8
0
  2
*U118
 70
     1
 10
0.0
 20
0.0
 30
0.0
  3
*U118
  1

  0
TEXT
  5
3284B
  8
0
 10
7.886387182432661
 20
2.2482273942292861
 30
0.0
 40
0.125
  1
TL-49
  0
ENDBLK
  5
3284D
  8
0
  0
BLOCK
  8
0
  2
*U119
 70
     1
 10
0.0
 20
0.0
 30
0.0
  3
*U119
  1

  0
INSERT
  5
3284F
  8
0
  2
_OPEN30
 10
7.253797201372719
 20
2.7268635825205361
 30
0.0
 41
0.046875
 42
0.046875
 43
0.046875
 50
136.21869819866211
  0
POLYLINE
  5
32850
  8
0
 66
     1
 10
0.0
 20
0.0
 30
0.0
  0
VERTEX
  5
32851
  8
0
 10
7.2876402982734163
 20
2.6944304140479658
 30
0.0
  0
VERTEX
  5
32852
  8
0
 10
7.6877566634765344
 20
2.310983192319326
 30
0.0
  0
VERTEX
  5
32853
  8
0
 10
7.8279799518733171
 20
2.310983192319326
 30
0.0
  0
SEQEND
  5
32854
  8
0
  0
ENDBLK
  5
32856
  8
0
  0
BLOCK
  8
0
  2
*U120
 70
     1
 10
0.0
 20
0.0
 30
0.0
  3
*U120
  1

  0
INSERT
  5
32858
  8
0
  6
CONTINUOUS
  2
_OPEN30
 10
16.890010925503759
 20
4.0998827605750421
 30
0.0
 41
0.046875
 42
0.046875
 43
0.046875
 50
220.32439975277339
  0
POLYLINE
  5
32859
  8
0
  6
CONTINUOUS
 66
     1
 10
0.0
 20
0.0
 30
0.0
  0
VERTEX
  5
3285A
  8
0
  6
CONTINUOUS
 10
16.92574808899867
 20
4.1302162531259778
 30
0.0
  0
VERTEX
  5
3285B
  8
0
  6
CONTINUOUS
 10
17.378553106259119
 20
4.5145544678824763
 30
0.0
  0
VERTEX
  5
3285C
  8
0
  6
CONTINUOUS
 10
17.468327545948402
 20
4.5145544678824763
 30
0.0
  0
SEQEND
  5
3285D
  8
0
  6
CONTINUOUS
  0
ENDBLK
  5
3285F
  8
0
  0
BLOCK
  8
0
  2
*U121
 70
     1
 10
0.0
 20
0.0
 30
0.0
  3
*U121
  1

  0
TEXT
  5
32861
  8
0
 10
17.526734776507741
 20
4.451798669792435
 30
0.0
 40
0.125
  1
TL-542
  0
ENDBLK
  5
32863
  8
0
  0
BLOCK
  8
0
  2
*U122
 70
     1
 10
0.0
 20
0.0
 30
0.0
  3
*U122
  1

  0
INSERT
  5
32865
  8
0
  6
CONTINUOUS
  2
_OPEN30
 10
13.390010925503759
 20
4.5373827605750421
 30
0.0
 41
0.046875
 42
0.046875
 43
0.046875
 50
110.44249644019671
  0
POLYLINE
  5
32866
  8
0
  6
CONTINUOUS
 66
     1
 10
0.0
 20
0.0
 30
0.0
  0
VERTEX
  5
32867
  8
0
  6
CONTINUOUS
 10
13.40638282250643
 20
4.4934597983168567
 30
0.0
  0
VERTEX
  5
32868
  8
0
  6
CONTINUOUS
 10
13.78538853520223
 20
3.4766531563219578
 30
0.0
  0
VERTEX
  5
32869
  8
0
  6
CONTINUOUS
 10
13.93846127658429
 20
3.4766531563219578
 30
0.0
  0
SEQEND
  5
3286A
  8
0
  6
CONTINUOUS
  0
ENDBLK
  5
3286C
  8
0
  0
BLOCK
  8
0
  2
*U123
 70
     1
 10
0.0
 20
0.0
 30
0.0
  3
*U123
  1

  0
TEXT
  5
3286E
  8
0
 10
13.981946951891249
 20
3.413897358231917
 30
0.0
 40
0.125
  1
1 x 6 Board
  0
ENDBLK
  5
32870
  8
0
  0
BLOCK
  8
0
  2
*U124
 70
     1
 10
0.0
 20
0.0
 30
0.0
  3
*U124
  1

  0
INSERT
  5
32872
  8
0
  6
CONTINUOUS
  2
_OPEN30
 10
11.87770156644649
 20
2.3649564226565181
 30
0.0
 41
0.046875
 42
0.046875
 43
0.046875
 50
130.18882139360491
  0
POLYLINE
  5
32873
  8
0
  6
CONTINUOUS
 66
     1
 10
0.0
 20
0.0
 30
0.0
  0
VERTEX
  5
32874
  8
0
  6
CONTINUOUS
 10
11.907950409704521
 20
2.3291475814779599
 30
0.0
  0
VERTEX
  5
32875
  8
0
  6
CONTINUOUS
 10
12.248739654318509
 20
1.9257183385265071
 30
0.0
  0
VERTEX
  5
32876
  8
0
  6
CONTINUOUS
 10
12.312149687699391
 20
1.9257183385265071
 30
0.0
  0
SEQEND
  5
32877
  8
0
  6
CONTINUOUS
  0
ENDBLK
  5
32879
  8
0
  0
BLOCK
  8
0
  2
*U125
 70
     1
 10
0.0
 20
0.0
 30
0.0
  3
*U125
  1

  0
TEXT
  5
3287B
  8
0
 10
12.37055691825873
 20
1.862962540436466
 30
0.0
 40
0.125
  1
TL-33
  0
ENDBLK
  5
3287D
  8
0
  0
BLOCK
  8
0
  2
*U126
 70
     1
 10
0.0
 20
0.0
 30
0.0
  3
*U126
  1

  0
INSERT
  5
3287F
  8
0
  6
CONTINUOUS
  2
_OPEN30
 10
18.394001282817442
 20
6.4209189786757861
 30
0.0
 41
0.046875
 42
0.046875
 43
0.046875
 50
123.0920274041645
  0
POLYLINE
  5
32880
  8
0
  6
CONTINUOUS
 66
     1
 10
0.0
 20
0.0
 30
0.0
  0
VERTEX
  5
32881
  8
0
  6
CONTINUOUS
 10
18.419594347917641
 20
6.38164735222899
 30
0.0
  0
VERTEX
  5
32882
  8
0
  6
CONTINUOUS
 10
18.6491653891635
 20
6.0293789490693817
 30
0.0
  0
VERTEX
  5
32883
  8
0
  6
CONTINUOUS
 10
18.752054828682841
 20
6.0293789490693817
 30
0.0
  0
SEQEND
  5
32884
  8
0
  6
CONTINUOUS
  0
ENDBLK
  5
32886
  8
0
  0
BLOCK
  8
0
  2
*U127
 70
     1
 10
0.0
 20
0.0
 30
0.0
  3
*U127
  1

  0
TEXT
  5
32888
  8
0
 10
18.810462059242191
 20
5.9666231509793421
 30
0.0
 40
0.125
  1
TL-24
  0
ENDBLK
  5
3288A
  8
0
  0
BLOCK
  8
0
  2
*U128
 70
     1
 10
0.0
 20
0.0
 30
0.0
  3
*U128
  1

  0
TEXT
  5
3288C
  8
0
 10
15.59678431273241
 20
2.213317815843554
 30
0.0
 40
0.125
  1
Crown Assembly
  0
TEXT
  5
3288D
  8
0
 10
15.60138867835315
 20
2.0044728863301389
 30
0.0
 40
0.125
  1
TL-665
  0
TEXT
  5
3288E
  8
0
 10
15.59840436730267
 20
1.7940079022464639
 30
0.0
 40
0.125
  1
8-3/8" x 7-7/8"
  0
TEXT
  5
3288F
  8
0
 10
15.59840436730267
 20
1.58354291816279
 30
0.0
 40
0.125
  1
800.66.TAGUE
  0
ENDBLK
  5
32891
  8
0
  0
BLOCK
  8
0
  2
*U129
 70
     1
 10
0.0
 20
0.0
 30
0.0
  3
*U129
  1

  0
TEXT
  5
32893
  8
0
 10
7.9349246968354574
 20
1.686007980218635
 30
0.0
 40
0.125
  1
Crown Assembly
  0
TEXT
  5
32894
  8
0
 10
7.9395290624561934
 20
1.47716305070522
 30
0.0
 40
0.125
  1
TL-667
  0
TEXT
  5
32895
  8
0
 10
7.93850587009603
 20
1.266698066621545
 30
0.0
 40
0.125
  1
2-5/16" x 3-3/4"
  0
TEXT
  5
32896
  8
0
 10
7.936544751405715
 20
1.056233082537871
 30
0.0
 40
0.125
  1
800.66.TAGUE
  0
ENDBLK
  5
32898
  8
0
  0
BLOCK
  8
0
  2
*U130
 70
     1
 10
0.0
 20
0.0
 30
0.0
  3
*U130
  1

  0
INSERT
  5
3289A
  8
0
  6
CONTINUOUS
  2
_OPEN30
 10
7.009055351416122
 20
3.050768134400982
 30
0.0
 41
0.046875
 42
0.046875
 43
0.046875
 50
142.35807926426151
  0
POLYLINE
  5
3289B
  8
0
  6
CONTINUOUS
 66
     1
 10
0.0
 20
0.0
 30
0.0
  0
VERTEX
  5
3289C
  8
0
  6
CONTINUOUS
 10
7.0461729927749328
 20
3.0221404148802331
 30
0.0
  0
VERTEX
  5
3289D
  8
0
  6
CONTINUOUS
 10
7.4803814790067227
 20
2.6872484793391318
 30
0.0
  0
VERTEX
  5
3289E
  8
0
  6
CONTINUOUS
 10
7.5548900131420851
 20
2.679804310467147
 30
0.0
  0
SEQEND
  5
3289F
  8
0
  6
CONTINUOUS
  0
ENDBLK
  5
328A1
  8
0
  0
BLOCK
  8
0
  2
*U131
 70
     1
 10
0.0
 20
0.0
 30
0.0
  3
*U131
  1

  0
TEXT
  5
328A3
  8
0
 10
7.613297243701429
 20
2.617048512377107
 30
0.0
 40
0.125
  1
TL-71
  0
ENDBLK
  5
328A5
  8
0
  0
BLOCK
  8
0
  2
*U132
 70
     1
 10
0.0
 20
0.0
 30
0.0
  3
*U132
  1

  0
INSERT
  5
328A7
  8
0
  6
CONTINUOUS
  2
_OPEN30
 10
5.8181306020992452
 20
0.8521781666523793
 30
0.0
 41
0.046875
 42
0.046875
 43
0.046875
 50
142.35807926426151
  0
POLYLINE
  5
328A8
  8
0
  6
CONTINUOUS
 66
     1
 10
0.0
 20
0.0
 30
0.0
  0
VERTEX
  5
328A9
  8
0
  6
CONTINUOUS
 10
5.8552482434580551
 20
0.8235504471316302
 30
0.0
  0
VERTEX
  5
328AA
  8
0
  6
CONTINUOUS
 10
6.2894567296898449
 20
0.4886585115905291
 30
0.0
  0
VERTEX
  5
328AB
  8
0
  6
CONTINUOUS
 10
6.3639652638252073
 20
0.4812143427185447
 30
0.0
  0
SEQEND
  5
328AC
  8
0
  6
CONTINUOUS
  0
ENDBLK
  5
328AE
  8
0
  0
BLOCK
  8
0
  2
*U133
 70
     1
 10
0.0
 20
0.0
 30
0.0
  3
*U133
  1

  0
TEXT
  5
328B0
  8
0
 10
1.551308446705467
 20
9.4290439625366549
 30
0.0
 40
0.125
  1
Crown Moulding Backer
  0
TEXT
  5
328B1
  8
0
 10
1.5559128123262029
 20
9.2201990330232402
 30
0.0
 40
0.125
  1
TL-539
  0
TEXT
  5
328B2
  8
0
 10
1.552757969215699
 20
9.0097340489395652
 30
0.0
 40
0.125
  1
9/16" x 3-5/16"
  0
TEXT
  5
328B3
  8
0
 10
1.5529285012757259
 20
8.7992690648558902
 30
0.0
 40
0.125
  1
800.66.TAGUE
  0
ENDBLK
  5
328B5
  8
0
  0
BLOCK
  8
0
  2
*U134
 70
     1
 10
0.0
 20
0.0
 30
0.0
  3
*U134
  1

  0
TEXT
  5
328B7
  8
0
 10
1.787541778833746
 20
0.8152779313428641
 30
0.0
 40
0.125
  1
Crown Moulding
  0
TEXT
  5
328B8
  8
0
 10
1.7921461444544831
 20
0.6064330018294492
 30
0.0
 40
0.125
  1
TL-23
  0
TEXT
  5
328B9
  8
0
 10
1.787968108983814
 20
0.3959680177457746
 30
0.0
 40
0.125
  1
7/8" x 3-3/16"
  0
TEXT
  5
328BA
  8
0
 10
1.7891618334040049
 20
0.1855030336621002
 30
0.0
 40
0.125
  1
800.66.TAGUE
  0
ENDBLK
  5
328BC
  8
0
  0
BLOCK
  8
0
  2
*U135
 70
     1
 10
0.0
 20
0.0
 30
0.0
  3
*U135
  1

  0
TEXT
  5
328BE
  8
0
 10
-368.75256923832433
 20
855.43298983847285
 30
0.0
 40
0.125
  1
Crown Moulding
  0
TEXT
  5
328BF
  8
0
 10
-368.74796487270362
 20
855.22414490895937
 30
0.0
 40
0.125
  1
TL-23
  0
TEXT
  5
328C0
  8
0
 10
-368.75214290817422
 20
855.01367992487576
 30
0.0
 40
0.125
  1
7/8" x 3-3/16"
  0
TEXT
  5
328C1
  8
0
 10
-368.75094918375402
 20
854.80321494079215
 30
0.0
 40
0.125
  1
800.66.TAGUE
  0
ENDBLK
  5
328C3
  8
0
  0
ENDSEC
  0
SECTION
  2
ENTITIES
  0
INSERT
  5
32657
  8
0
  2
*U135
 10
0.0
 20
0.0
 30
0.0
  0
LINE
  5
32658
  8
0
 10
-370.5401099307195
 20
855.67302669317189
 30
0.0
 11
-369.34090343872799
 21
856.85015739280061
 31
0.0
  0
LINE
  5
32659
  8
0
 10
-368.40843480872007
 20
856.54586847005282
 30
0.0
 11
-368.35337494803338
 21
856.85015739280061
 31
0.0
  0
LINE
  5
3265A
  8
0
 10
-368.55260139526649
 20
856.46901839754605
 30
0.0
 11
-368.51409617303898
 21
856.56655813882287
 31
0.0
  0
LINE
  5
3265B
  8
0
 10
-370.5401099307195
 20
855.67302669317189
 30
0.0
 11
-370.5401099307195
 21
854.61771139894165
 31
0.0
  0
LINE
  5
3265C
  8
0
 10
-370.27178260686719
 20
854.66109319984332
 30
0.0
 11
-370.5401099307195
 21
854.61771139894165
 31
0.0
  0
LINE
  5
3265D
  8
0
 10
-368.40843480872007
 20
856.54586847005282
 30
0.0
 11
-368.51409617303898
 21
856.56655813882287
 31
0.0
  0
LINE
  5
3265E
  8
0
 10
-368.35337494803338
 20
856.85015739280061
 30
0.0
 11
-369.34090343872799
 21
856.85015739280061
 31
0.0
  0
LINE
  5
3265F
  8
0
  6
CONTINUOUS
 10
-370.12041208651328
 20
854.98062416747757
 30
0.0
 11
-370.12041208651328
 21
854.93905373957421
 31
0.0
  0
POLYLINE
  8
0
  5
329A6
  66
     1
 10
0.000000
 20
0.000000
 30
0.000000
  70
     8
  0
VERTEX
  8
0
  5
329A7
 10
-368.553
 20
856.469
 30
0.000000
  70
    32
  0
VERTEX
  8
0
  5
329A8
 10
-368.558
 20
856.469
 30
0.000000
  70
    32
  0
VERTEX
  8
0
  5
329A9
 10
-368.563
 20
856.470
 30
0.000000
  70
    32
  0
VERTEX
  8
0
  5
329AA
 10
-368.568
 20
856.470
 30
0.000000
  70
    32
  0
VERTEX
  8
0
  5
329AB
 10
-368.574
 20
856.470
 30
0.000000
  70
    32
  0
VERTEX
  8
0
  5
329AC
 10
-368.579
 20
856.470
 30
0.000000
  70
    32
  0
VERTEX
  8
0
  5
329AD
 10
-368.584
 20
856.470
 30
0.000000
  70
    32
  0
VERTEX
  8
0
  5
329AE
 10
-368.589
 20
856.470
 30
0.000000
  70
    32
  0
VERTEX
  8
0
  5
329AF
 10
-368.595
 20
856.471
 30
0.000000
  70
    32
  0
VERTEX
  8
0
  5
329B0
 10
-368.600
 20
856.471
 30
0.000000
  70
    32
  0
VERTEX
  8
0
  5
329B1
 10
-368.605
 20
856.470
 30
0.000000
  70
    32
  0
VERTEX
  8
0
  5
329B2
 10
-368.610
 20
856.470
 30
0.000000
  70
    32
  0
VERTEX
  8
0
  5
329B3
 10
-368.616
 20
856.470
 30
0.000000
  70
    32
  0
VERTEX
  8
0
  5
329B4
 10
-368.621
 20
856.470
 30
0.000000
  70
    32
  0
VERTEX
  8
0
  5
329B5
 10
-368.626
 20
856.470
 30
0.000000
  70
    32
  0
VERTEX
  8
0
  5
329B6
 10
-368.631
 20
856.470
 30
0.000000
  70
    32
  0
VERTEX
  8
0
  5
329B7
 10
-368.637
 20
856.469
 30
0.000000
  70
    32
  0
VERTEX
  8
0
  5
329B8
 10
-368.642
 20
856.469
 30
0.000000
  70
    32
  0
VERTEX
  8
0
  5
329B9
 10
-368.647
 20
856.469
 30
0.000000
  70
    32
  0
VERTEX
  8
0
  5
329BA
 10
-368.652
 20
856.468
 30
0.000000
  70
    32
  0
VERTEX
  8
0
  5
329BB
 10
-368.658
 20
856.468
 30
0.000000
  70
    32
  0
VERTEX
  8
0
  5
329BC
 10
-368.663
 20
856.467
 30
0.000000
  70
    32
  0
VERTEX
  8
0
  5
329BD
 10
-368.668
 20
856.467
 30
0.000000
  70
    32
  0
VERTEX
  8
0
  5
329BE
 10
-368.674
 20
856.467
 30
0.000000
  70
    32
  0
VERTEX
  8
0
  5
329BF
 10
-368.679
 20
856.466
 30
0.000000
  70
    32
  0
VERTEX
  8
0
  5
329C0
 10
-368.684
 20
856.466
 30
0.000000
  70
    32
  0
VERTEX
  8
0
  5
329C1
 10
-368.689
 20
856.465
 30
0.000000
  70
    32
  0
VERTEX
  8
0
  5
329C2
 10
-368.695
 20
856.464
 30
0.000000
  70
    32
  0
VERTEX
  8
0
  5
329C3
 10
-368.700
 20
856.464
 30
0.000000
  70
    32
  0
VERTEX
  8
0
  5
329C4
 10
-368.705
 20
856.463
 30
0.000000
  70
    32
  0
VERTEX
  8
0
  5
329C5
 10
-368.711
 20
856.463
 30
0.000000
  70
    32
  0
VERTEX
  8
0
  5
329C6
 10
-368.716
 20
856.462
 30
0.000000
  70
    32
  0
VERTEX
  8
0
  5
329C7
 10
-368.721
 20
856.461
 30
0.000000
  70
    32
  0
VERTEX
  8
0
  5
329C8
 10
-368.726
 20
856.461
 30
0.000000
  70
    32
  0
VERTEX
  8
0
  5
329C9
 10
-368.732
 20
856.460
 30
0.000000
  70
    32
  0
VERTEX
  8
0
  5
329CA
 10
-368.737
 20
856.459
 30
0.000000
  70
    32
  0
VERTEX
  8
0
  5
329CB
 10
-368.742
 20
856.459
 30
0.000000
  70
    32
  0
VERTEX
  8
0
  5
329CC
 10
-368.748
 20
856.458
 30
0.000000
  70
    32
  0
VERTEX
  8
0
  5
329CD
 10
-368.753
 20
856.457
 30
0.000000
  70
    32
  0
VERTEX
  8
0
  5
329CE
 10
-368.758
 20
856.456
 30
0.000000
  70
    32
  0
VERTEX
  8
0
  5
329CF
 10
-368.763
 20
856.455
 30
0.000000
  70
    32
  0
VERTEX
  8
0
  5
329D0
 10
-368.769
 20
856.454
 30
0.000000
  70
    32
  0
VERTEX
  8
0
  5
329D1
 10
-368.774
 20
856.454
 30
0.000000
  70
    32
  0
VERTEX
  8
0
  5
329D2
 10
-368.779
 20
856.453
 30
0.000000
  70
    32
  0
VERTEX
  8
0
  5
329D3
 10
-368.784
 20
856.452
 30
0.000000
  70
    32
  0
VERTEX
  8
0
  5
329D4
 10
-368.790
 20
856.451
 30
0.000000
  70
    32
  0
VERTEX
  8
0
  5
329D5
 10
-368.795
 20
856.450
 30
0.000000
  70
    32
  0
VERTEX
  8
0
  5
329D6
 10
-368.800
 20
856.449
 30
0.000000
  70
    32
  0
VERTEX
  8
0
  5
329D7
 10
-368.805
 20
856.448
 30
0.000000
  70
    32
  0
VERTEX
  8
0
  5
329D8
 10
-368.810
 20
856.446
 30
0.000000
  70
    32
  0
VERTEX
  8
0
  5
329D9
 10
-368.816
 20
856.445
 30
0.000000
  70
    32
  0
VERTEX
  8
0
  5
329DA
 10
-368.821
 20
856.444
 30
0.000000
  70
    32
  0
VERTEX
  8
0
  5
329DB
 10
-368.826
 20
856.443
 30
0.000000
  70
    32
  0
VERTEX
  8
0
  5
329DC
 10
-368.831
 20
856.442
 30
0.000000
  70
    32
  0
VERTEX
  8
0
  5
329DD
 10
-368.836
 20
856.440
 30
0.000000
  70
    32
  0
VERTEX
  8
0
  5
329DE
 10
-368.841
 20
856.439
 30
0.000000
  70
    32
  0
VERTEX
  8
0
  5
329DF
 10
-368.846
 20
856.438
 30
0.000000
  70
    32
  0
VERTEX
  8
0
  5
329E0
 10
-368.851
 20
856.436
 30
0.000000
  70
    32
  0
VERTEX
  8
0
  5
329E1
 10
-368.857
 20
856.435
 30
0.000000
  70
    32
  0
VERTEX
  8
0
  5
329E2
 10
-368.862
 20
856.433
 30
0.000000
  70
    32
  0
VERTEX
  8
0
  5
329E3
 10
-368.867
 20
856.432
 30
0.000000
  70
    32
  0
VERTEX
  8
0
  5
329E4
 10
-368.872
 20
856.430
 30
0.000000
  70
    32
  0
VERTEX
  8
0
  5
329E5
 10
-368.877
 20
856.428
 30
0.000000
  70
    32
  0
VERTEX
  8
0
  5
329E6
 10
-368.882
 20
856.427
 30
0.000000
  70
    32
  0
VERTEX
  8
0
  5
329E7
 10
-368.886
 20
856.425
 30
0.000000
  70
    32
  0
VERTEX
  8
0
  5
329E8
 10
-368.891
 20
856.423
 30
0.000000
  70
    32
  0
VERTEX
  8
0
  5
329E9
 10
-368.896
 20
856.421
 30
0.000000
  70
    32
  0
VERTEX
  8
0
  5
329EA
 10
-368.901
 20
856.419
 30
0.000000
  70
    32
  0
VERTEX
  8
0
  5
329EB
 10
-368.906
 20
856.417
 30
0.000000
  70
    32
  0
VERTEX
  8
0
  5
329EC
 10
-368.911
 20
856.415
 30
0.000000
  70
    32
  0
VERTEX
  8
0
  5
329ED
 10
-368.916
 20
856.413
 30
0.000000
  70
    32
  0
VERTEX
  8
0
  5
329EE
 10
-368.920
 20
856.411
 30
0.000000
  70
    32
  0
VERTEX
  8
0
  5
329EF
 10
-368.925
 20
856.409
 30
0.000000
  70
    32
  0
VERTEX
  8
0
  5
329F0
 10
-368.930
 20
856.407
 30
0.000000
  70
    32
  0
VERTEX
  8
0
  5
329F1
 10
-368.934
 20
856.404
 30
0.000000
  70
    32
  0
VERTEX
  8
0
  5
329F2
 10
-368.939
 20
856.402
 30
0.000000
  70
    32
  0
VERTEX
  8
0
  5
329F3
 10
-368.944
 20
856.400
 30
0.000000
  70
    32
  0
VERTEX
  8
0
  5
329F4
 10
-368.948
 20
856.397
 30
0.000000
  70
    32
  0
VERTEX
  8
0
  5
329F5
 10
-368.953
 20
856.395
 30
0.000000
  70
    32
  0
VERTEX
  8
0
  5
329F6
 10
-368.957
 20
856.392
 30
0.000000
  70
    32
  0
VERTEX
  8
0
  5
329F7
 10
-368.962
 20
856.390
 30
0.000000
  70
    32
  0
VERTEX
  8
0
  5
329F8
 10
-368.966
 20
856.387
 30
0.000000
  70
    32
  0
VERTEX
  8
0
  5
329F9
 10
-368.971
 20
856.384
 30
0.000000
  70
    32
  0
VERTEX
  8
0
  5
329FA
 10
-368.975
 20
856.381
 30
0.000000
  70
    32
  0
VERTEX
  8
0
  5
329FB
 10
-368.980
 20
856.379
 30
0.000000
  70
    32
  0
VERTEX
  8
0
  5
329FC
 10
-368.984
 20
856.376
 30
0.000000
  70
    32
  0
VERTEX
  8
0
  5
329FD
 10
-368.988
 20
856.373
 30
0.000000
  70
    32
  0
VERTEX
  8
0
  5
329FE
 10
-368.993
 20
856.370
 30
0.000000
  70
    32
  0
VERTEX
  8
0
  5
329FF
 10
-368.997
 20
856.367
 30
0.000000
  70
    32
  0
VERTEX
  8
0
  5
32A00
 10
-369.001
 20
856.364
 30
0.000000
  70
    32
  0
VERTEX
  8
0
  5
32A01
 10
-369.006
 20
856.361
 30
0.000000
  70
    32
  0
VERTEX
  8
0
  5
32A02
 10
-369.010
 20
856.358
 30
0.000000
  70
    32
  0
VERTEX
  8
0
  5
32A03
 10
-369.014
 20
856.355
 30
0.000000
  70
    32
  0
VERTEX
  8
0
  5
32A04
 10
-369.018
 20
856.352
 30
0.000000
  70
    32
  0
VERTEX
  8
0
  5
32A05
 10
-369.023
 20
856.348
 30
0.000000
  70
    32
  0
VERTEX
  8
0
  5
32A06
 10
-369.027
 20
856.345
 30
0.000000
  70
    32
  0
VERTEX
  8
0
  5
32A07
 10
-369.031
 20
856.342
 30
0.000000
  70
    32
  0
VERTEX
  8
0
  5
32A08
 10
-369.035
 20
856.338
 30
0.000000
  70
    32
  0
VERTEX
  8
0
  5
32A09
 10
-369.039
 20
856.335
 30
0.000000
  70
    32
  0
VERTEX
  8
0
  5
32A0A
 10
-369.043
 20
856.332
 30
0.000000
  70
    32
  0
VERTEX
  8
0
  5
32A0B
 10
-369.047
 20
856.328
 30
0.000000
  70
    32
  0
VERTEX
  8
0
  5
32A0C
 10
-369.051
 20
856.325
 30
0.000000
  70
    32
  0
VERTEX
  8
0
  5
32A0D
 10
-369.055
 20
856.321
 30
0.000000
  70
    32
  0
VERTEX
  8
0
  5
32A0E
 10
-369.059
 20
856.318
 30
0.000000
  70
    32
  0
VERTEX
  8
0
  5
32A0F
 10
-369.063
 20
856.314
 30
0.000000
  70
    32
  0
VERTEX
  8
0
  5
32A10
 10
-369.067
 20
856.311
 30
0.000000
  70
    32
  0
VERTEX
  8
0
  5
32A11
 10
-369.071
 20
856.307
 30
0.000000
  70
    32
  0
VERTEX
  8
0
  5
32A12
 10
-369.075
 20
856.303
 30
0.000000
  70
    32
  0
VERTEX
  8
0
  5
32A13
 10
-369.079
 20
856.300
 30
0.000000
  70
    32
  0
VERTEX
  8
0
  5
32A14
 10
-369.083
 20
856.296
 30
0.000000
  70
    32
  0
VERTEX
  8
0
  5
32A15
 10
-369.087
 20
856.292
 30
0.000000
  70
    32
  0
VERTEX
  8
0
  5
32A16
 10
-369.090
 20
856.289
 30
0.000000
  70
    32
  0
VERTEX
  8
0
  5
32A17
 10
-369.094
 20
856.285
 30
0.000000
  70
    32
  0
VERTEX
  8
0
  5
32A18
 10
-369.098
 20
856.281
 30
0.000000
  70
    32
  0
VERTEX
  8
0
  5
32A19
 10
-369.102
 20
856.277
 30
0.000000
  70
    32
  0
VERTEX
  8
0
  5
32A1A
 10
-369.106
 20
856.273
 30
0.000000
  70
    32
  0
VERTEX
  8
0
  5
32A1B
 10
-369.109
 20
856.270
 30
0.000000
  70
    32
  0
VERTEX
  8
0
  5
32A1C
 10
-369.113
 20
856.266
 30
0.000000
  70
    32
  0
VERTEX
  8
0
  5
32A1D
 10
-369.117
 20
856.262
 30
0.000000
  70
    32
  0
VERTEX
  8
0
  5
32A1E
 10
-369.121
 20
856.258
 30
0.000000
  70
    32
  0
VERTEX
  8
0
  5
32A1F
 10
-369.124
 20
856.254
 30
0.000000
  70
    32
  0
VERTEX
  8
0
  5
32A20
 10
-369.128
 20
856.250
 30
0.000000
  70
    32
  0
VERTEX
  8
0
  5
32A21
 10
-369.132
 20
856.246
 30
0.000000
  70
    32
  0
VERTEX
  8
0
  5
32A22
 10
-369.135
 20
856.242
 30
0.000000
  70
    32
  0
VERTEX
  8
0
  5
32A23
 10
-369.139
 20
856.238
 30
0.000000
  70
    32
  0
VERTEX
  8
0
  5
32A24
 10
-369.143
 20
856.235
 30
0.000000
  70
    32
  0
VERTEX
  8
0
  5
32A25
 10
-369.146
 20
856.231
 30
0.000000
  70
    32
  0
VERTEX
  8
0
  5
32A26
 10
-369.150
 20
856.227
 30
0.000000
  70
    32
  0
VERTEX
  8
0
  5
32A27
 10
-369.153
 20
856.223
 30
0.000000
  70
    32
  0
VERTEX
  8
0
  5
32A28
 10
-369.157
 20
856.219
 30
0.000000
  70
    32
  0
VERTEX
  8
0
  5
32A29
 10
-369.161
 20
856.215
 30
0.000000
  70
    32
  0
VERTEX
  8
0
  5
32A2A
 10
-369.164
 20
856.211
 30
0.000000
  70
    32
  0
VERTEX
  8
0
  5
32A2B
 10
-369.168
 20
856.207
 30
0.000000
  70
    32
  0
VERTEX
  8
0
  5
32A2C
 10
-369.171
 20
856.203
 30
0.000000
  70
    32
  0
VERTEX
  8
0
  5
32A2D
 10
-369.175
 20
856.199
 30
0.000000
  70
    32
  0
VERTEX
  8
0
  5
32A2E
 10
-369.178
 20
856.195
 30
0.000000
  70
    32
  0
VERTEX
  8
0
  5
32A2F
 10
-369.182
 20
856.191
 30
0.000000
  70
    32
  0
VERTEX
  8
0
  5
32A30
 10
-369.185
 20
856.187
 30
0.000000
  70
    32
  0
VERTEX
  8
0
  5
32A31
 10
-369.189
 20
856.183
 30
0.000000
  70
    32
  0
VERTEX
  8
0
  5
32A32
 10
-369.192
 20
856.179
 30
0.000000
  70
    32
  0
VERTEX
  8
0
  5
32A33
 10
-369.196
 20
856.175
 30
0.000000
  70
    32
  0
VERTEX
  8
0
  5
32A34
 10
-369.199
 20
856.171
 30
0.000000
  70
    32
  0
VERTEX
  8
0
  5
32A35
 10
-369.203
 20
856.167
 30
0.000000
  70
    32
  0
VERTEX
  8
0
  5
32A36
 10
-369.206
 20
856.163
 30
0.000000
  70
    32
  0
VERTEX
  8
0
  5
32A37
 10
-369.210
 20
856.159
 30
0.000000
  70
    32
  0
VERTEX
  8
0
  5
32A38
 10
-369.213
 20
856.154
 30
0.000000
  70
    32
  0
VERTEX
  8
0
  5
32A39
 10
-369.216
 20
856.150
 30
0.000000
  70
    32
  0
VERTEX
  8
0
  5
32A3A
 10
-369.220
 20
856.146
 30
0.000000
  70
    32
  0
VERTEX
  8
0
  5
32A3B
 10
-369.223
 20
856.142
 30
0.000000
  70
    32
  0
VERTEX
  8
0
  5
32A3C
 10
-369.227
 20
856.138
 30
0.000000
  70
    32
  0
VERTEX
  8
0
  5
32A3D
 10
-369.230
 20
856.134
 30
0.000000
  70
    32
  0
VERTEX
  8
0
  5
32A3E
 10
-369.233
 20
856.130
 30
0.000000
  70
    32
  0
VERTEX
  8
0
  5
32A3F
 10
-369.237
 20
856.126
 30
0.000000
  70
    32
  0
VERTEX
  8
0
  5
32A40
 10
-369.240
 20
856.122
 30
0.000000
  70
    32
  0
VERTEX
  8
0
  5
32A41
 10
-369.243
 20
856.118
 30
0.000000
  70
    32
  0
VERTEX
  8
0
  5
32A42
 10
-369.247
 20
856.114
 30
0.000000
  70
    32
  0
VERTEX
  8
0
  5
32A43
 10
-369.250
 20
856.110
 30
0.000000
  70
    32
  0
VERTEX
  8
0
  5
32A44
 10
-369.253
 20
856.106
 30
0.000000
  70
    32
  0
VERTEX
  8
0
  5
32A45
 10
-369.257
 20
856.102
 30
0.000000
  70
    32
  0
VERTEX
  8
0
  5
32A46
 10
-369.260
 20
856.098
 30
0.000000
  70
    32
  0
VERTEX
  8
0
  5
32A47
 10
-369.263
 20
856.094
 30
0.000000
  70
    32
  0
VERTEX
  8
0
  5
32A48
 10
-369.267
 20
856.090
 30
0.000000
  70
    32
  0
VERTEX
  8
0
  5
32A49
 10
-369.270
 20
856.085
 30
0.000000
  70
    32
  0
VERTEX
  8
0
  5
32A4A
 10
-369.273
 20
856.081
 30
0.000000
  70
    32
  0
VERTEX
  8
0
  5
32A4B
 10
-369.276
 20
856.077
 30
0.000000
  70
    32
  0
VERTEX
  8
0
  5
32A4C
 10
-369.280
 20
856.073
 30
0.000000
  70
    32
  0
VERTEX
  8
0
  5
32A4D
 10
-369.283
 20
856.069
 30
0.000000
  70
    32
  0
VERTEX
  8
0
  5
32A4E
 10
-369.286
 20
856.065
 30
0.000000
  70
    32
  0
VERTEX
  8
0
  5
32A4F
 10
-369.289
 20
856.061
 30
0.000000
  70
    32
  0
VERTEX
  8
0
  5
32A50
 10
-369.292
 20
856.057
 30
0.000000
  70
    32
  0
VERTEX
  8
0
  5
32A51
 10
-369.296
 20
856.052
 30
0.000000
  70
    32
  0
VERTEX
  8
0
  5
32A52
 10
-369.299
 20
856.048
 30
0.000000
  70
    32
  0
VERTEX
  8
0
  5
32A53
 10
-369.302
 20
856.044
 30
0.000000
  70
    32
  0
VERTEX
  8
0
  5
32A54
 10
-369.305
 20
856.040
 30
0.000000
  70
    32
  0
VERTEX
  8
0
  5
32A55
 10
-369.308
 20
856.036
 30
0.000000
  70
    32
  0
VERTEX
  8
0
  5
32A56
 10
-369.311
 20
856.031
 30
0.000000
  70
    32
  0
VERTEX
  8
0
  5
32A57
 10
-369.315
 20
856.027
 30
0.000000
  70
    32
  0
VERTEX
  8
0
  5
32A58
 10
-369.318
 20
856.023
 30
0.000000
  70
    32
  0
VERTEX
  8
0
  5
32A59
 10
-369.321
 20
856.019
 30
0.000000
  70
    32
  0
VERTEX
  8
0
  5
32A5A
 10
-369.324
 20
856.015
 30
0.000000
  70
    32
  0
VERTEX
  8
0
  5
32A5B
 10
-369.327
 20
856.010
 30
0.000000
  70
    32
  0
VERTEX
  8
0
  5
32A5C
 10
-369.330
 20
856.006
 30
0.000000
  70
    32
  0
VERTEX
  8
0
  5
32A5D
 10
-369.333
 20
856.002
 30
0.000000
  70
    32
  0
VERTEX
  8
0
  5
32A5E
 10
-369.336
 20
855.998
 30
0.000000
  70
    32
  0
VERTEX
  8
0
  5
32A5F
 10
-369.339
 20
855.993
 30
0.000000
  70
    32
  0
VERTEX
  8
0
  5
32A60
 10
-369.342
 20
855.989
 30
0.000000
  70
    32
  0
VERTEX
  8
0
  5
32A61
 10
-369.346
 20
855.985
 30
0.000000
  70
    32
  0
VERTEX
  8
0
  5
32A62
 10
-369.349
 20
855.981
 30
0.000000
  70
    32
  0
VERTEX
  8
0
  5
32A63
 10
-369.352
 20
855.976
 30
0.000000
  70
    32
  0
VERTEX
  8
0
  5
32A64
 10
-369.355
 20
855.972
 30
0.000000
  70
    32
  0
VERTEX
  8
0
  5
32A65
 10
-369.358
 20
855.968
 30
0.000000
  70
    32
  0
VERTEX
  8
0
  5
32A66
 10
-369.361
 20
855.963
 30
0.000000
  70
    32
  0
VERTEX
  8
0
  5
32A67
 10
-369.364
 20
855.959
 30
0.000000
  70
    32
  0
VERTEX
  8
0
  5
32A68
 10
-369.367
 20
855.955
 30
0.000000
  70
    32
  0
VERTEX
  8
0
  5
32A69
 10
-369.370
 20
855.950
 30
0.000000
  70
    32
  0
VERTEX
  8
0
  5
32A6A
 10
-369.373
 20
855.946
 30
0.000000
  70
    32
  0
VERTEX
  8
0
  5
32A6B
 10
-369.376
 20
855.942
 30
0.000000
  70
    32
  0
VERTEX
  8
0
  5
32A6C
 10
-369.379
 20
855.938
 30
0.000000
  70
    32
  0
VERTEX
  8
0
  5
32A6D
 10
-369.382
 20
855.933
 30
0.000000
  70
    32
  0
VERTEX
  8
0
  5
32A6E
 10
-369.385
 20
855.929
 30
0.000000
  70
    32
  0
VERTEX
  8
0
  5
32A6F
 10
-369.388
 20
855.925
 30
0.000000
  70
    32
  0
VERTEX
  8
0
  5
32A70
 10
-369.391
 20
855.920
 30
0.000000
  70
    32
  0
VERTEX
  8
0
  5
32A71
 10
-369.394
 20
855.916
 30
0.000000
  70
    32
  0
VERTEX
  8
0
  5
32A72
 10
-369.397
 20
855.911
 30
0.000000
  70
    32
  0
VERTEX
  8
0
  5
32A73
 10
-369.400
 20
855.907
 30
0.000000
  70
    32
  0
VERTEX
  8
0
  5
32A74
 10
-369.403
 20
855.903
 30
0.000000
  70
    32
  0
VERTEX
  8
0
  5
32A75
 10
-369.406
 20
855.898
 30
0.000000
  70
    32
  0
VERTEX
  8
0
  5
32A76
 10
-369.409
 20
855.894
 30
0.000000
  70
    32
  0
VERTEX
  8
0
  5
32A77
 10
-369.412
 20
855.890
 30
0.000000
  70
    32
  0
VERTEX
  8
0
  5
32A78
 10
-369.415
 20
855.885
 30
0.000000
  70
    32
  0
VERTEX
  8
0
  5
32A79
 10
-369.418
 20
855.881
 30
0.000000
  70
    32
  0
VERTEX
  8
0
  5
32A7A
 10
-369.420
 20
855.877
 30
0.000000
  70
    32
  0
VERTEX
  8
0
  5
32A7B
 10
-369.423
 20
855.872
 30
0.000000
  70
    32
  0
VERTEX
  8
0
  5
32A7C
 10
-369.426
 20
855.868
 30
0.000000
  70
    32
  0
VERTEX
  8
0
  5
32A7D
 10
-369.429
 20
855.863
 30
0.000000
  70
    32
  0
VERTEX
  8
0
  5
32A7E
 10
-369.432
 20
855.859
 30
0.000000
  70
    32
  0
VERTEX
  8
0
  5
32A7F
 10
-369.435
 20
855.855
 30
0.000000
  70
    32
  0
VERTEX
  8
0
  5
32A80
 10
-369.438
 20
855.850
 30
0.000000
  70
    32
  0
VERTEX
  8
0
  5
32A81
 10
-369.441
 20
855.846
 30
0.000000
  70
    32
  0
VERTEX
  8
0
  5
32A82
 10
-369.444
 20
855.842
 30
0.000000
  70
    32
  0
VERTEX
  8
0
  5
32A83
 10
-369.447
 20
855.837
 30
0.000000
  70
    32
  0
VERTEX
  8
0
  5
32A84
 10
-369.450
 20
855.833
 30
0.000000
  70
    32
  0
VERTEX
  8
0
  5
32A85
 10
-369.453
 20
855.828
 30
0.000000
  70
    32
  0
VERTEX
  8
0
  5
32A86
 10
-369.456
 20
855.824
 30
0.000000
  70
    32
  0
VERTEX
  8
0
  5
32A87
 10
-369.459
 20
855.820
 30
0.000000
  70
    32
  0
VERTEX
  8
0
  5
32A88
 10
-369.462
 20
855.815
 30
0.000000
  70
    32
  0
VERTEX
  8
0
  5
32A89
 10
-369.465
 20
855.811
 30
0.000000
  70
    32
  0
VERTEX
  8
0
  5
32A8A
 10
-369.467
 20
855.806
 30
0.000000
  70
    32
  0
VERTEX
  8
0
  5
32A8B
 10
-369.470
 20
855.802
 30
0.000000
  70
    32
  0
VERTEX
  8
0
  5
32A8C
 10
-369.473
 20
855.798
 30
0.000000
  70
    32
  0
VERTEX
  8
0
  5
32A8D
 10
-369.476
 20
855.793
 30
0.000000
  70
    32
  0
VERTEX
  8
0
  5
32A8E
 10
-369.479
 20
855.789
 30
0.000000
  70
    32
  0
VERTEX
  8
0
  5
32A8F
 10
-369.482
 20
855.785
 30
0.000000
  70
    32
  0
VERTEX
  8
0
  5
32A90
 10
-369.485
 20
855.780
 30
0.000000
  70
    32
  0
VERTEX
  8
0
  5
32A91
 10
-369.488
 20
855.776
 30
0.000000
  70
    32
  0
VERTEX
  8
0
  5
32A92
 10
-369.491
 20
855.771
 30
0.000000
  70
    32
  0
VERTEX
  8
0
  5
32A93
 10
-369.494
 20
855.767
 30
0.000000
  70
    32
  0
VERTEX
  8
0
  5
32A94
 10
-369.497
 20
855.763
 30
0.000000
  70
    32
  0
VERTEX
  8
0
  5
32A95
 10
-369.500
 20
855.758
 30
0.000000
  70
    32
  0
VERTEX
  8
0
  5
32A96
 10
-369.503
 20
855.754
 30
0.000000
  70
    32
  0
VERTEX
  8
0
  5
32A97
 10
-369.506
 20
855.750
 30
0.000000
  70
    32
  0
VERTEX
  8
0
  5
32A98
 10
-369.509
 20
855.745
 30
0.000000
  70
    32
  0
VERTEX
  8
0
  5
32A99
 10
-369.512
 20
855.741
 30
0.000000
  70
    32
  0
VERTEX
  8
0
  5
32A9A
 10
-369.515
 20
855.737
 30
0.000000
  70
    32
  0
VERTEX
  8
0
  5
32A9B
 10
-369.518
 20
855.732
 30
0.000000
  70
    32
  0
VERTEX
  8
0
  5
32A9C
 10
-369.521
 20
855.728
 30
0.000000
  70
    32
  0
VERTEX
  8
0
  5
32A9D
 10
-369.524
 20
855.723
 30
0.000000
  70
    32
  0
VERTEX
  8
0
  5
32A9E
 10
-369.527
 20
855.719
 30
0.000000
  70
    32
  0
VERTEX
  8
0
  5
32A9F
 10
-369.530
 20
855.715
 30
0.000000
  70
    32
  0
VERTEX
  8
0
  5
32AA0
 10
-369.533
 20
855.711
 30
0.000000
  70
    32
  0
VERTEX
  8
0
  5
32AA1
 10
-369.536
 20
855.706
 30
0.000000
  70
    32
  0
VERTEX
  8
0
  5
32AA2
 10
-369.539
 20
855.702
 30
0.000000
  70
    32
  0
VERTEX
  8
0
  5
32AA3
 10
-369.542
 20
855.698
 30
0.000000
  70
    32
  0
VERTEX
  8
0
  5
32AA4
 10
-369.545
 20
855.693
 30
0.000000
  70
    32
  0
VERTEX
  8
0
  5
32AA5
 10
-369.548
 20
855.689
 30
0.000000
  70
    32
  0
VERTEX
  8
0
  5
32AA6
 10
-369.551
 20
855.685
 30
0.000000
  70
    32
  0
VERTEX
  8
0
  5
32AA7
 10
-369.554
 20
855.680
 30
0.000000
  70
    32
  0
VERTEX
  8
0
  5
32AA8
 10
-369.557
 20
855.676
 30
0.000000
  70
    32
  0
VERTEX
  8
0
  5
32AA9
 10
-369.560
 20
855.672
 30
0.000000
  70
    32
  0
VERTEX
  8
0
  5
32AAA
 10
-369.563
 20
855.668
 30
0.000000
  70
    32
  0
VERTEX
  8
0
  5
32AAB
 10
-369.566
 20
855.663
 30
0.000000
  70
    32
  0
VERTEX
  8
0
  5
32AAC
 10
-369.569
 20
855.659
 30
0.000000
  70
    32
  0
VERTEX
  8
0
  5
32AAD
 10
-369.573
 20
855.655
 30
0.000000
  70
    32
  0
VERTEX
  8
0
  5
32AAE
 10
-369.576
 20
855.651
 30
0.000000
  70
    32
  0
VERTEX
  8
0
  5
32AAF
 10
-369.579
 20
855.646
 30
0.000000
  70
    32
  0
VERTEX
  8
0
  5
32AB0
 10
-369.582
 20
855.642
 30
0.000000
  70
    32
  0
VERTEX
  8
0
  5
32AB1
 10
-369.585
 20
855.638
 30
0.000000
  70
    32
  0
VERTEX
  8
0
  5
32AB2
 10
-369.588
 20
855.634
 30
0.000000
  70
    32
  0
VERTEX
  8
0
  5
32AB3
 10
-369.592
 20
855.630
 30
0.000000
  70
    32
  0
VERTEX
  8
0
  5
32AB4
 10
-369.595
 20
855.626
 30
0.000000
  70
    32
  0
VERTEX
  8
0
  5
32AB5
 10
-369.598
 20
855.621
 30
0.000000
  70
    32
  0
VERTEX
  8
0
  5
32AB6
 10
-369.601
 20
855.617
 30
0.000000
  70
    32
  0
VERTEX
  8
0
  5
32AB7
 10
-369.605
 20
855.613
 30
0.000000
  70
    32
  0
VERTEX
  8
0
  5
32AB8
 10
-369.608
 20
855.609
 30
0.000000
  70
    32
  0
VERTEX
  8
0
  5
32AB9
 10
-369.611
 20
855.605
 30
0.000000
  70
    32
  0
VERTEX
  8
0
  5
32ABA
 10
-369.614
 20
855.601
 30
0.000000
  70
    32
  0
VERTEX
  8
0
  5
32ABB
 10
-369.618
 20
855.597
 30
0.000000
  70
    32
  0
VERTEX
  8
0
  5
32ABC
 10
-369.621
 20
855.593
 30
0.000000
  70
    32
  0
VERTEX
  8
0
  5
32ABD
 10
-369.624
 20
855.588
 30
0.000000
  70
    32
  0
VERTEX
  8
0
  5
32ABE
 10
-369.628
 20
855.584
 30
0.000000
  70
    32
  0
VERTEX
  8
0
  5
32ABF
 10
-369.631
 20
855.580
 30
0.000000
  70
    32
  0
VERTEX
  8
0
  5
32AC0
 10
-369.634
 20
855.576
 30
0.000000
  70
    32
  0
VERTEX
  8
0
  5
32AC1
 10
-369.638
 20
855.572
 30
0.000000
  70
    32
  0
VERTEX
  8
0
  5
32AC2
 10
-369.641
 20
855.568
 30
0.000000
  70
    32
  0
VERTEX
  8
0
  5
32AC3
 10
-369.645
 20
855.564
 30
0.000000
  70
    32
  0
VERTEX
  8
0
  5
32AC4
 10
-369.648
 20
855.560
 30
0.000000
  70
    32
  0
VERTEX
  8
0
  5
32AC5
 10
-369.651
 20
855.556
 30
0.000000
  70
    32
  0
VERTEX
  8
0
  5
32AC6
 10
-369.655
 20
855.552
 30
0.000000
  70
    32
  0
VERTEX
  8
0
  5
32AC7
 10
-369.658
 20
855.548
 30
0.000000
  70
    32
  0
VERTEX
  8
0
  5
32AC8
 10
-369.662
 20
855.544
 30
0.000000
  70
    32
  0
VERTEX
  8
0
  5
32AC9
 10
-369.665
 20
855.540
 30
0.000000
  70
    32
  0
VERTEX
  8
0
  5
32ACA
 10
-369.669
 20
855.536
 30
0.000000
  70
    32
  0
VERTEX
  8
0
  5
32ACB
 10
-369.672
 20
855.533
 30
0.000000
  70
    32
  0
VERTEX
  8
0
  5
32ACC
 10
-369.676
 20
855.529
 30
0.000000
  70
    32
  0
VERTEX
  8
0
  5
32ACD
 10
-369.679
 20
855.525
 30
0.000000
  70
    32
  0
VERTEX
  8
0
  5
32ACE
 10
-369.683
 20
855.521
 30
0.000000
  70
    32
  0
VERTEX
  8
0
  5
32ACF
 10
-369.687
 20
855.517
 30
0.000000
  70
    32
  0
VERTEX
  8
0
  5
32AD0
 10
-369.690
 20
855.513
 30
0.000000
  70
    32
  0
VERTEX
  8
0
  5
32AD1
 10
-369.694
 20
855.509
 30
0.000000
  70
    32
  0
VERTEX
  8
0
  5
32AD2
 10
-369.697
 20
855.505
 30
0.000000
  70
    32
  0
VERTEX
  8
0
  5
32AD3
 10
-369.701
 20
855.502
 30
0.000000
  70
    32
  0
VERTEX
  8
0
  5
32AD4
 10
-369.705
 20
855.498
 30
0.000000
  70
    32
  0
VERTEX
  8
0
  5
32AD5
 10
-369.708
 20
855.494
 30
0.000000
  70
    32
  0
VERTEX
  8
0
  5
32AD6
 10
-369.712
 20
855.490
 30
0.000000
  70
    32
  0
VERTEX
  8
0
  5
32AD7
 10
-369.716
 20
855.486
 30
0.000000
  70
    32
  0
VERTEX
  8
0
  5
32AD8
 10
-369.719
 20
855.483
 30
0.000000
  70
    32
  0
VERTEX
  8
0
  5
32AD9
 10
-369.723
 20
855.479
 30
0.000000
  70
    32
  0
VERTEX
  8
0
  5
32ADA
 10
-369.727
 20
855.475
 30
0.000000
  70
    32
  0
VERTEX
  8
0
  5
32ADB
 10
-369.730
 20
855.471
 30
0.000000
  70
    32
  0
VERTEX
  8
0
  5
32ADC
 10
-369.734
 20
855.468
 30
0.000000
  70
    32
  0
VERTEX
  8
0
  5
32ADD
 10
-369.738
 20
855.464
 30
0.000000
  70
    32
  0
VERTEX
  8
0
  5
32ADE
 10
-369.742
 20
855.460
 30
0.000000
  70
    32
  0
VERTEX
  8
0
  5
32ADF
 10
-369.745
 20
855.457
 30
0.000000
  70
    32
  0
VERTEX
  8
0
  5
32AE0
 10
-369.749
 20
855.453
 30
0.000000
  70
    32
  0
VERTEX
  8
0
  5
32AE1
 10
-369.753
 20
855.449
 30
0.000000
  70
    32
  0
VERTEX
  8
0
  5
32AE2
 10
-369.757
 20
855.446
 30
0.000000
  70
    32
  0
VERTEX
  8
0
  5
32AE3
 10
-369.761
 20
855.442
 30
0.000000
  70
    32
  0
VERTEX
  8
0
  5
32AE4
 10
-369.765
 20
855.438
 30
0.000000
  70
    32
  0
VERTEX
  8
0
  5
32AE5
 10
-369.768
 20
855.435
 30
0.000000
  70
    32
  0
VERTEX
  8
0
  5
32AE6
 10
-369.772
 20
855.431
 30
0.000000
  70
    32
  0
VERTEX
  8
0
  5
32AE7
 10
-369.776
 20
855.428
 30
0.000000
  70
    32
  0
VERTEX
  8
0
  5
32AE8
 10
-369.780
 20
855.424
 30
0.000000
  70
    32
  0
VERTEX
  8
0
  5
32AE9
 10
-369.784
 20
855.420
 30
0.000000
  70
    32
  0
VERTEX
  8
0
  5
32AEA
 10
-369.788
 20
855.417
 30
0.000000
  70
    32
  0
VERTEX
  8
0
  5
32AEB
 10
-369.792
 20
855.413
 30
0.000000
  70
    32
  0
VERTEX
  8
0
  5
32AEC
 10
-369.796
 20
855.410
 30
0.000000
  70
    32
  0
VERTEX
  8
0
  5
32AED
 10
-369.800
 20
855.406
 30
0.000000
  70
    32
  0
VERTEX
  8
0
  5
32AEE
 10
-369.804
 20
855.403
 30
0.000000
  70
    32
  0
VERTEX
  8
0
  5
32AEF
 10
-369.808
 20
855.399
 30
0.000000
  70
    32
  0
VERTEX
  8
0
  5
32AF0
 10
-369.812
 20
855.396
 30
0.000000
  70
    32
  0
VERTEX
  8
0
  5
32AF1
 10
-369.816
 20
855.393
 30
0.000000
  70
    32
  0
VERTEX
  8
0
  5
32AF2
 10
-369.820
 20
855.389
 30
0.000000
  70
    32
  0
VERTEX
  8
0
  5
32AF3
 10
-369.824
 20
855.386
 30
0.000000
  70
    32
  0
VERTEX
  8
0
  5
32AF4
 10
-369.828
 20
855.382
 30
0.000000
  70
    32
  0
VERTEX
  8
0
  5
32AF5
 10
-369.832
 20
855.379
 30
0.000000
  70
    32
  0
VERTEX
  8
0
  5
32AF6
 10
-369.836
 20
855.376
 30
0.000000
  70
    32
  0
VERTEX
  8
0
  5
32AF7
 10
-369.840
 20
855.372
 30
0.000000
  70
    32
  0
VERTEX
  8
0
  5
32AF8
 10
-369.844
 20
855.369
 30
0.000000
  70
    32
  0
VERTEX
  8
0
  5
32AF9
 10
-369.848
 20
855.366
 30
0.000000
  70
    32
  0
VERTEX
  8
0
  5
32AFA
 10
-369.853
 20
855.363
 30
0.000000
  70
    32
  0
VERTEX
  8
0
  5
32AFB
 10
-369.857
 20
855.359
 30
0.000000
  70
    32
  0
VERTEX
  8
0
  5
32AFC
 10
-369.861
 20
855.356
 30
0.000000
  70
    32
  0
VERTEX
  8
0
  5
32AFD
 10
-369.865
 20
855.353
 30
0.000000
  70
    32
  0
VERTEX
  8
0
  5
32AFE
 10
-369.869
 20
855.350
 30
0.000000
  70
    32
  0
VERTEX
  8
0
  5
32AFF
 10
-369.874
 20
855.347
 30
0.000000
  70
    32
  0
VERTEX
  8
0
  5
32B00
 10
-369.878
 20
855.344
 30
0.000000
  70
    32
  0
VERTEX
  8
0
  5
32B01
 10
-369.882
 20
855.341
 30
0.000000
  70
    32
  0
VERTEX
  8
0
  5
32B02
 10
-369.886
 20
855.338
 30
0.000000
  70
    32
  0
VERTEX
  8
0
  5
32B03
 10
-369.891
 20
855.335
 30
0.000000
  70
    32
  0
VERTEX
  8
0
  5
32B04
 10
-369.895
 20
855.332
 30
0.000000
  70
    32
  0
VERTEX
  8
0
  5
32B05
 10
-369.899
 20
855.329
 30
0.000000
  70
    32
  0
VERTEX
  8
0
  5
32B06
 10
-369.904
 20
855.326
 30
0.000000
  70
    32
  0
VERTEX
  8
0
  5
32B07
 10
-369.908
 20
855.323
 30
0.000000
  70
    32
  0
VERTEX
  8
0
  5
32B08
 10
-369.913
 20
855.320
 30
0.000000
  70
    32
  0
VERTEX
  8
0
  5
32B09
 10
-369.917
 20
855.317
 30
0.000000
  70
    32
  0
VERTEX
  8
0
  5
32B0A
 10
-369.921
 20
855.314
 30
0.000000
  70
    32
  0
VERTEX
  8
0
  5
32B0B
 10
-369.926
 20
855.311
 30
0.000000
  70
    32
  0
VERTEX
  8
0
  5
32B0C
 10
-369.930
 20
855.308
 30
0.000000
  70
    32
  0
VERTEX
  8
0
  5
32B0D
 10
-369.935
 20
855.306
 30
0.000000
  70
    32
  0
VERTEX
  8
0
  5
32B0E
 10
-369.939
 20
855.303
 30
0.000000
  70
    32
  0
VERTEX
  8
0
  5
32B0F
 10
-369.944
 20
855.300
 30
0.000000
  70
    32
  0
VERTEX
  8
0
  5
32B10
 10
-369.948
 20
855.297
 30
0.000000
  70
    32
  0
VERTEX
  8
0
  5
32B11
 10
-369.953
 20
855.295
 30
0.000000
  70
    32
  0
VERTEX
  8
0
  5
32B12
 10
-369.957
 20
855.292
 30
0.000000
  70
    32
  0
VERTEX
  8
0
  5
32B13
 10
-369.962
 20
855.289
 30
0.000000
  70
    32
  0
VERTEX
  8
0
  5
32B14
 10
-369.967
 20
855.287
 30
0.000000
  70
    32
  0
VERTEX
  8
0
  5
32B15
 10
-369.971
 20
855.284
 30
0.000000
  70
    32
  0
VERTEX
  8
0
  5
32B16
 10
-369.976
 20
855.282
 30
0.000000
  70
    32
  0
VERTEX
  8
0
  5
32B17
 10
-369.980
 20
855.279
 30
0.000000
  70
    32
  0
VERTEX
  8
0
  5
32B18
 10
-369.985
 20
855.277
 30
0.000000
  70
    32
  0
VERTEX
  8
0
  5
32B19
 10
-369.990
 20
855.274
 30
0.000000
  70
    32
  0
VERTEX
  8
0
  5
32B1A
 10
-369.994
 20
855.272
 30
0.000000
  70
    32
  0
VERTEX
  8
0
  5
32B1B
 10
-369.999
 20
855.269
 30
0.000000
  70
    32
  0
VERTEX
  8
0
  5
32B1C
 10
-370.004
 20
855.267
 30
0.000000
  70
    32
  0
VERTEX
  8
0
  5
32B1D
 10
-370.008
 20
855.264
 30
0.000000
  70
    32
  0
VERTEX
  8
0
  5
32B1E
 10
-370.013
 20
855.262
 30
0.000000
  70
    32
  0
VERTEX
  8
0
  5
32B1F
 10
-370.018
 20
855.260
 30
0.000000
  70
    32
  0
VERTEX
  8
0
  5
32B20
 10
-370.022
 20
855.257
 30
0.000000
  70
    32
  0
VERTEX
  8
0
  5
32B21
 10
-370.027
 20
855.255
 30
0.000000
  70
    32
  0
VERTEX
  8
0
  5
32B22
 10
-370.032
 20
855.253
 30
0.000000
  70
    32
  0
VERTEX
  8
0
  5
32B23
 10
-370.037
 20
855.250
 30
0.000000
  70
    32
  0
VERTEX
  8
0
  5
32B24
 10
-370.041
 20
855.248
 30
0.000000
  70
    32
  0
VERTEX
  8
0
  5
32B25
 10
-370.046
 20
855.246
 30
0.000000
  70
    32
  0
VERTEX
  8
0
  5
32B26
 10
-370.051
 20
855.244
 30
0.000000
  70
    32
  0
SEQEND
  8
0
  5
32B27
  0
POLYLINE
  8
0
  5
32B28
  66
     1
 10
0.000000
 20
0.000000
 30
0.000000
  70
     8
  0
VERTEX
  8
0
  5
32B29
 10
-370.051
 20
855.244
 30
0.000000
  70
    32
  0
VERTEX
  8
0
  5
32B2A
 10
-370.050
 20
855.242
 30
0.000000
  70
    32
  0
VERTEX
  8
0
  5
32B2B
 10
-370.050
 20
855.241
 30
0.000000
  70
    32
  0
VERTEX
  8
0
  5
32B2C
 10
-370.049
 20
855.239
 30
0.000000
  70
    32
  0
VERTEX
  8
0
  5
32B2D
 10
-370.049
 20
855.238
 30
0.000000
  70
    32
  0
VERTEX
  8
0
  5
32B2E
 10
-370.048
 20
855.236
 30
0.000000
  70
    32
  0
VERTEX
  8
0
  5
32B2F
 10
-370.047
 20
855.235
 30
0.000000
  70
    32
  0
VERTEX
  8
0
  5
32B30
 10
-370.047
 20
855.233
 30
0.000000
  70
    32
  0
VERTEX
  8
0
  5
32B31
 10
-370.046
 20
855.232
 30
0.000000
  70
    32
  0
VERTEX
  8
0
  5
32B32
 10
-370.046
 20
855.230
 30
0.000000
  70
    32
  0
VERTEX
  8
0
  5
32B33
 10
-370.045
 20
855.229
 30
0.000000
  70
    32
  0
VERTEX
  8
0
  5
32B34
 10
-370.044
 20
855.227
 30
0.000000
  70
    32
  0
VERTEX
  8
0
  5
32B35
 10
-370.044
 20
855.226
 30
0.000000
  70
    32
  0
VERTEX
  8
0
  5
32B36
 10
-370.043
 20
855.224
 30
0.000000
  70
    32
  0
VERTEX
  8
0
  5
32B37
 10
-370.042
 20
855.223
 30
0.000000
  70
    32
  0
VERTEX
  8
0
  5
32B38
 10
-370.042
 20
855.221
 30
0.000000
  70
    32
  0
VERTEX
  8
0
  5
32B39
 10
-370.041
 20
855.219
 30
0.000000
  70
    32
  0
VERTEX
  8
0
  5
32B3A
 10
-370.041
 20
855.218
 30
0.000000
  70
    32
  0
VERTEX
  8
0
  5
32B3B
 10
-370.040
 20
855.216
 30
0.000000
  70
    32
  0
VERTEX
  8
0
  5
32B3C
 10
-370.039
 20
855.215
 30
0.000000
  70
    32
  0
VERTEX
  8
0
  5
32B3D
 10
-370.039
 20
855.213
 30
0.000000
  70
    32
  0
VERTEX
  8
0
  5
32B3E
 10
-370.038
 20
855.212
 30
0.000000
  70
    32
  0
VERTEX
  8
0
  5
32B3F
 10
-370.038
 20
855.210
 30
0.000000
  70
    32
  0
VERTEX
  8
0
  5
32B40
 10
-370.037
 20
855.209
 30
0.000000
  70
    32
  0
VERTEX
  8
0
  5
32B41
 10
-370.036
 20
855.207
 30
0.000000
  70
    32
  0
VERTEX
  8
0
  5
32B42
 10
-370.036
 20
855.206
 30
0.000000
  70
    32
  0
VERTEX
  8
0
  5
32B43
 10
-370.035
 20
855.204
 30
0.000000
  70
    32
  0
VERTEX
  8
0
  5
32B44
 10
-370.035
 20
855.203
 30
0.000000
  70
    32
  0
VERTEX
  8
0
  5
32B45
 10
-370.034
 20
855.201
 30
0.000000
  70
    32
  0
VERTEX
  8
0
  5
32B46
 10
-370.033
 20
855.200
 30
0.000000
  70
    32
  0
VERTEX
  8
0
  5
32B47
 10
-370.033
 20
855.198
 30
0.000000
  70
    32
  0
VERTEX
  8
0
  5
32B48
 10
-370.032
 20
855.197
 30
0.000000
  70
    32
  0
VERTEX
  8
0
  5
32B49
 10
-370.032
 20
855.195
 30
0.000000
  70
    32
  0
VERTEX
  8
0
  5
32B4A
 10
-370.031
 20
855.194
 30
0.000000
  70
    32
  0
VERTEX
  8
0
  5
32B4B
 10
-370.031
 20
855.192
 30
0.000000
  70
    32
  0
VERTEX
  8
0
  5
32B4C
 10
-370.030
 20
855.191
 30
0.000000
  70
    32
  0
VERTEX
  8
0
  5
32B4D
 10
-370.029
 20
855.189
 30
0.000000
  70
    32
  0
VERTEX
  8
0
  5
32B4E
 10
-370.029
 20
855.188
 30
0.000000
  70
    32
  0
VERTEX
  8
0
  5
32B4F
 10
-370.028
 20
855.186
 30
0.000000
  70
    32
  0
VERTEX
  8
0
  5
32B50
 10
-370.028
 20
855.184
 30
0.000000
  70
    32
  0
VERTEX
  8
0
  5
32B51
 10
-370.027
 20
855.183
 30
0.000000
  70
    32
  0
VERTEX
  8
0
  5
32B52
 10
-370.027
 20
855.181
 30
0.000000
  70
    32
  0
VERTEX
  8
0
  5
32B53
 10
-370.026
 20
855.180
 30
0.000000
  70
    32
  0
VERTEX
  8
0
  5
32B54
 10
-370.026
 20
855.178
 30
0.000000
  70
    32
  0
VERTEX
  8
0
  5
32B55
 10
-370.025
 20
855.177
 30
0.000000
  70
    32
  0
VERTEX
  8
0
  5
32B56
 10
-370.025
 20
855.175
 30
0.000000
  70
    32
  0
VERTEX
  8
0
  5
32B57
 10
-370.024
 20
855.173
 30
0.000000
  70
    32
  0
VERTEX
  8
0
  5
32B58
 10
-370.024
 20
855.172
 30
0.000000
  70
    32
  0
VERTEX
  8
0
  5
32B59
 10
-370.023
 20
855.170
 30
0.000000
  70
    32
  0
VERTEX
  8
0
  5
32B5A
 10
-370.023
 20
855.169
 30
0.000000
  70
    32
  0
VERTEX
  8
0
  5
32B5B
 10
-370.023
 20
855.167
 30
0.000000
  70
    32
  0
VERTEX
  8
0
  5
32B5C
 10
-370.022
 20
855.165
 30
0.000000
  70
    32
  0
VERTEX
  8
0
  5
32B5D
 10
-370.022
 20
855.164
 30
0.000000
  70
    32
  0
VERTEX
  8
0
  5
32B5E
 10
-370.021
 20
855.162
 30
0.000000
  70
    32
  0
VERTEX
  8
0
  5
32B5F
 10
-370.021
 20
855.161
 30
0.000000
  70
    32
  0
VERTEX
  8
0
  5
32B60
 10
-370.021
 20
855.159
 30
0.000000
  70
    32
  0
VERTEX
  8
0
  5
32B61
 10
-370.020
 20
855.157
 30
0.000000
  70
    32
  0
VERTEX
  8
0
  5
32B62
 10
-370.020
 20
855.156
 30
0.000000
  70
    32
  0
VERTEX
  8
0
  5
32B63
 10
-370.019
 20
855.154
 30
0.000000
  70
    32
  0
VERTEX
  8
0
  5
32B64
 10
-370.019
 20
855.152
 30
0.000000
  70
    32
  0
VERTEX
  8
0
  5
32B65
 10
-370.019
 20
855.151
 30
0.000000
  70
    32
  0
VERTEX
  8
0
  5
32B66
 10
-370.018
 20
855.149
 30
0.000000
  70
    32
  0
VERTEX
  8
0
  5
32B67
 10
-370.018
 20
855.147
 30
0.000000
  70
    32
  0
VERTEX
  8
0
  5
32B68
 10
-370.018
 20
855.146
 30
0.000000
  70
    32
  0
VERTEX
  8
0
  5
32B69
 10
-370.018
 20
855.144
 30
0.000000
  70
    32
  0
VERTEX
  8
0
  5
32B6A
 10
-370.017
 20
855.142
 30
0.000000
  70
    32
  0
VERTEX
  8
0
  5
32B6B
 10
-370.017
 20
855.141
 30
0.000000
  70
    32
  0
VERTEX
  8
0
  5
32B6C
 10
-370.017
 20
855.139
 30
0.000000
  70
    32
  0
VERTEX
  8
0
  5
32B6D
 10
-370.017
 20
855.137
 30
0.000000
  70
    32
  0
VERTEX
  8
0
  5
32B6E
 10
-370.016
 20
855.136
 30
0.000000
  70
    32
  0
VERTEX
  8
0
  5
32B6F
 10
-370.016
 20
855.134
 30
0.000000
  70
    32
  0
VERTEX
  8
0
  5
32B70
 10
-370.016
 20
855.132
 30
0.000000
  70
    32
  0
VERTEX
  8
0
  5
32B71
 10
-370.016
 20
855.131
 30
0.000000
  70
    32
  0
VERTEX
  8
0
  5
32B72
 10
-370.016
 20
855.129
 30
0.000000
  70
    32
  0
VERTEX
  8
0
  5
32B73
 10
-370.015
 20
855.127
 30
0.000000
  70
    32
  0
VERTEX
  8
0
  5
32B74
 10
-370.015
 20
855.126
 30
0.000000
  70
    32
  0
VERTEX
  8
0
  5
32B75
 10
-370.015
 20
855.124
 30
0.000000
  70
    32
  0
VERTEX
  8
0
  5
32B76
 10
-370.015
 20
855.122
 30
0.000000
  70
    32
  0
VERTEX
  8
0
  5
32B77
 10
-370.015
 20
855.120
 30
0.000000
  70
    32
  0
VERTEX
  8
0
  5
32B78
 10
-370.015
 20
855.119
 30
0.000000
  70
    32
  0
VERTEX
  8
0
  5
32B79
 10
-370.015
 20
855.117
 30
0.000000
  70
    32
  0
VERTEX
  8
0
  5
32B7A
 10
-370.015
 20
855.115
 30
0.000000
  70
    32
  0
VERTEX
  8
0
  5
32B7B
 10
-370.015
 20
855.114
 30
0.000000
  70
    32
  0
VERTEX
  8
0
  5
32B7C
 10
-370.015
 20
855.112
 30
0.000000
  70
    32
  0
VERTEX
  8
0
  5
32B7D
 10
-370.015
 20
855.110
 30
0.000000
  70
    32
  0
VERTEX
  8
0
  5
32B7E
 10
-370.015
 20
855.109
 30
0.000000
  70
    32
  0
VERTEX
  8
0
  5
32B7F
 10
-370.015
 20
855.107
 30
0.000000
  70
    32
  0
VERTEX
  8
0
  5
32B80
 10
-370.015
 20
855.105
 30
0.000000
  70
    32
  0
VERTEX
  8
0
  5
32B81
 10
-370.015
 20
855.104
 30
0.000000
  70
    32
  0
VERTEX
  8
0
  5
32B82
 10
-370.015
 20
855.102
 30
0.000000
  70
    32
  0
VERTEX
  8
0
  5
32B83
 10
-370.015
 20
855.100
 30
0.000000
  70
    32
  0
VERTEX
  8
0
  5
32B84
 10
-370.016
 20
855.099
 30
0.000000
  70
    32
  0
VERTEX
  8
0
  5
32B85
 10
-370.016
 20
855.097
 30
0.000000
  70
    32
  0
VERTEX
  8
0
  5
32B86
 10
-370.016
 20
855.095
 30
0.000000
  70
    32
  0
VERTEX
  8
0
  5
32B87
 10
-370.016
 20
855.094
 30
0.000000
  70
    32
  0
VERTEX
  8
0
  5
32B88
 10
-370.016
 20
855.092
 30
0.000000
  70
    32
  0
VERTEX
  8
0
  5
32B89
 10
-370.017
 20
855.091
 30
0.000000
  70
    32
  0
VERTEX
  8
0
  5
32B8A
 10
-370.017
 20
855.089
 30
0.000000
  70
    32
  0
VERTEX
  8
0
  5
32B8B
 10
-370.017
 20
855.087
 30
0.000000
  70
    32
  0
VERTEX
  8
0
  5
32B8C
 10
-370.017
 20
855.086
 30
0.000000
  70
    32
  0
VERTEX
  8
0
  5
32B8D
 10
-370.018
 20
855.084
 30
0.000000
  70
    32
  0
VERTEX
  8
0
  5
32B8E
 10
-370.018
 20
855.082
 30
0.000000
  70
    32
  0
VERTEX
  8
0
  5
32B8F
 10
-370.018
 20
855.081
 30
0.000000
  70
    32
  0
VERTEX
  8
0
  5
32B90
 10
-370.019
 20
855.079
 30
0.000000
  70
    32
  0
VERTEX
  8
0
  5
32B91
 10
-370.019
 20
855.078
 30
0.000000
  70
    32
  0
VERTEX
  8
0
  5
32B92
 10
-370.020
 20
855.076
 30
0.000000
  70
    32
  0
VERTEX
  8
0
  5
32B93
 10
-370.020
 20
855.075
 30
0.000000
  70
    32
  0
VERTEX
  8
0
  5
32B94
 10
-370.021
 20
855.073
 30
0.000000
  70
    32
  0
VERTEX
  8
0
  5
32B95
 10
-370.021
 20
855.072
 30
0.000000
  70
    32
  0
VERTEX
  8
0
  5
32B96
 10
-370.022
 20
855.070
 30
0.000000
  70
    32
  0
VERTEX
  8
0
  5
32B97
 10
-370.022
 20
855.069
 30
0.000000
  70
    32
  0
VERTEX
  8
0
  5
32B98
 10
-370.023
 20
855.067
 30
0.000000
  70
    32
  0
VERTEX
  8
0
  5
32B99
 10
-370.023
 20
855.065
 30
0.000000
  70
    32
  0
VERTEX
  8
0
  5
32B9A
 10
-370.024
 20
855.064
 30
0.000000
  70
    32
  0
VERTEX
  8
0
  5
32B9B
 10
-370.025
 20
855.063
 30
0.000000
  70
    32
  0
VERTEX
  8
0
  5
32B9C
 10
-370.025
 20
855.061
 30
0.000000
  70
    32
  0
VERTEX
  8
0
  5
32B9D
 10
-370.026
 20
855.060
 30
0.000000
  70
    32
  0
VERTEX
  8
0
  5
32B9E
 10
-370.027
 20
855.058
 30
0.000000
  70
    32
  0
VERTEX
  8
0
  5
32B9F
 10
-370.027
 20
855.057
 30
0.000000
  70
    32
  0
VERTEX
  8
0
  5
32BA0
 10
-370.028
 20
855.055
 30
0.000000
  70
    32
  0
VERTEX
  8
0
  5
32BA1
 10
-370.029
 20
855.054
 30
0.000000
  70
    32
  0
VERTEX
  8
0
  5
32BA2
 10
-370.030
 20
855.052
 30
0.000000
  70
    32
  0
VERTEX
  8
0
  5
32BA3
 10
-370.031
 20
855.051
 30
0.000000
  70
    32
  0
VERTEX
  8
0
  5
32BA4
 10
-370.031
 20
855.050
 30
0.000000
  70
    32
  0
VERTEX
  8
0
  5
32BA5
 10
-370.032
 20
855.048
 30
0.000000
  70
    32
  0
VERTEX
  8
0
  5
32BA6
 10
-370.033
 20
855.047
 30
0.000000
  70
    32
  0
VERTEX
  8
0
  5
32BA7
 10
-370.034
 20
855.046
 30
0.000000
  70
    32
  0
VERTEX
  8
0
  5
32BA8
 10
-370.035
 20
855.044
 30
0.000000
  70
    32
  0
VERTEX
  8
0
  5
32BA9
 10
-370.036
 20
855.043
 30
0.000000
  70
    32
  0
VERTEX
  8
0
  5
32BAA
 10
-370.037
 20
855.042
 30
0.000000
  70
    32
  0
VERTEX
  8
0
  5
32BAB
 10
-370.038
 20
855.040
 30
0.000000
  70
    32
  0
VERTEX
  8
0
  5
32BAC
 10
-370.039
 20
855.039
 30
0.000000
  70
    32
  0
VERTEX
  8
0
  5
32BAD
 10
-370.040
 20
855.038
 30
0.000000
  70
    32
  0
VERTEX
  8
0
  5
32BAE
 10
-370.041
 20
855.036
 30
0.000000
  70
    32
  0
VERTEX
  8
0
  5
32BAF
 10
-370.042
 20
855.035
 30
0.000000
  70
    32
  0
VERTEX
  8
0
  5
32BB0
 10
-370.043
 20
855.034
 30
0.000000
  70
    32
  0
VERTEX
  8
0
  5
32BB1
 10
-370.044
 20
855.033
 30
0.000000
  70
    32
  0
VERTEX
  8
0
  5
32BB2
 10
-370.045
 20
855.032
 30
0.000000
  70
    32
  0
VERTEX
  8
0
  5
32BB3
 10
-370.046
 20
855.030
 30
0.000000
  70
    32
  0
VERTEX
  8
0
  5
32BB4
 10
-370.048
 20
855.029
 30
0.000000
  70
    32
  0
VERTEX
  8
0
  5
32BB5
 10
-370.049
 20
855.028
 30
0.000000
  70
    32
  0
VERTEX
  8
0
  5
32BB6
 10
-370.050
 20
855.027
 30
0.000000
  70
    32
  0
VERTEX
  8
0
  5
32BB7
 10
-370.051
 20
855.026
 30
0.000000
  70
    32
  0
VERTEX
  8
0
  5
32BB8
 10
-370.052
 20
855.024
 30
0.000000
  70
    32
  0
VERTEX
  8
0
  5
32BB9
 10
-370.054
 20
855.023
 30
0.000000
  70
    32
  0
VERTEX
  8
0
  5
32BBA
 10
-370.055
 20
855.022
 30
0.000000
  70
    32
  0
VERTEX
  8
0
  5
32BBB
 10
-370.056
 20
855.021
 30
0.000000
  70
    32
  0
VERTEX
  8
0
  5
32BBC
 10
-370.057
 20
855.020
 30
0.000000
  70
    32
  0
VERTEX
  8
0
  5
32BBD
 10
-370.059
 20
855.019
 30
0.000000
  70
    32
  0
VERTEX
  8
0
  5
32BBE
 10
-370.060
 20
855.018
 30
0.000000
  70
    32
  0
VERTEX
  8
0
  5
32BBF
 10
-370.061
 20
855.016
 30
0.000000
  70
    32
  0
VERTEX
  8
0
  5
32BC0
 10
-370.062
 20
855.015
 30
0.000000
  70
    32
  0
VERTEX
  8
0
  5
32BC1
 10
-370.064
 20
855.014
 30
0.000000
  70
    32
  0
VERTEX
  8
0
  5
32BC2
 10
-370.065
 20
855.013
 30
0.000000
  70
    32
  0
VERTEX
  8
0
  5
32BC3
 10
-370.066
 20
855.012
 30
0.000000
  70
    32
  0
VERTEX
  8
0
  5
32BC4
 10
-370.068
 20
855.011
 30
0.000000
  70
    32
  0
VERTEX
  8
0
  5
32BC5
 10
-370.069
 20
855.010
 30
0.000000
  70
    32
  0
VERTEX
  8
0
  5
32BC6
 10
-370.070
 20
855.009
 30
0.000000
  70
    32
  0
VERTEX
  8
0
  5
32BC7
 10
-370.072
 20
855.008
 30
0.000000
  70
    32
  0
VERTEX
  8
0
  5
32BC8
 10
-370.073
 20
855.007
 30
0.000000
  70
    32
  0
VERTEX
  8
0
  5
32BC9
 10
-370.075
 20
855.006
 30
0.000000
  70
    32
  0
VERTEX
  8
0
  5
32BCA
 10
-370.076
 20
855.005
 30
0.000000
  70
    32
  0
VERTEX
  8
0
  5
32BCB
 10
-370.077
 20
855.004
 30
0.000000
  70
    32
  0
VERTEX
  8
0
  5
32BCC
 10
-370.079
 20
855.003
 30
0.000000
  70
    32
  0
VERTEX
  8
0
  5
32BCD
 10
-370.080
 20
855.002
 30
0.000000
  70
    32
  0
VERTEX
  8
0
  5
32BCE
 10
-370.082
 20
855.001
 30
0.000000
  70
    32
  0
VERTEX
  8
0
  5
32BCF
 10
-370.083
 20
855.000
 30
0.000000
  70
    32
  0
VERTEX
  8
0
  5
32BD0
 10
-370.085
 20
854.999
 30
0.000000
  70
    32
  0
VERTEX
  8
0
  5
32BD1
 10
-370.086
 20
854.999
 30
0.000000
  70
    32
  0
VERTEX
  8
0
  5
32BD2
 10
-370.088
 20
854.998
 30
0.000000
  70
    32
  0
VERTEX
  8
0
  5
32BD3
 10
-370.089
 20
854.997
 30
0.000000
  70
    32
  0
VERTEX
  8
0
  5
32BD4
 10
-370.090
 20
854.996
 30
0.000000
  70
    32
  0
VERTEX
  8
0
  5
32BD5
 10
-370.092
 20
854.995
 30
0.000000
  70
    32
  0
VERTEX
  8
0
  5
32BD6
 10
-370.093
 20
854.994
 30
0.000000
  70
    32
  0
VERTEX
  8
0
  5
32BD7
 10
-370.095
 20
854.993
 30
0.000000
  70
    32
  0
VERTEX
  8
0
  5
32BD8
 10
-370.096
 20
854.993
 30
0.000000
  70
    32
  0
VERTEX
  8
0
  5
32BD9
 10
-370.098
 20
854.992
 30
0.000000
  70
    32
  0
VERTEX
  8
0
  5
32BDA
 10
-370.099
 20
854.991
 30
0.000000
  70
    32
  0
VERTEX
  8
0
  5
32BDB
 10
-370.101
 20
854.990
 30
0.000000
  70
    32
  0
VERTEX
  8
0
  5
32BDC
 10
-370.102
 20
854.989
 30
0.000000
  70
    32
  0
VERTEX
  8
0
  5
32BDD
 10
-370.104
 20
854.989
 30
0.000000
  70
    32
  0
VERTEX
  8
0
  5
32BDE
 10
-370.105
 20
854.988
 30
0.000000
  70
    32
  0
VERTEX
  8
0
  5
32BDF
 10
-370.107
 20
854.987
 30
0.000000
  70
    32
  0
VERTEX
  8
0
  5
32BE0
 10
-370.108
 20
854.986
 30
0.000000
  70
    32
  0
VERTEX
  8
0
  5
32BE1
 10
-370.110
 20
854.986
 30
0.000000
  70
    32
  0
VERTEX
  8
0
  5
32BE2
 10
-370.111
 20
854.985
 30
0.000000
  70
    32
  0
VERTEX
  8
0
  5
32BE3
 10
-370.113
 20
854.984
 30
0.000000
  70
    32
  0
VERTEX
  8
0
  5
32BE4
 10
-370.114
 20
854.983
 30
0.000000
  70
    32
  0
VERTEX
  8
0
  5
32BE5
 10
-370.116
 20
854.983
 30
0.000000
  70
    32
  0
VERTEX
  8
0
  5
32BE6
 10
-370.117
 20
854.982
 30
0.000000
  70
    32
  0
VERTEX
  8
0
  5
32BE7
 10
-370.119
 20
854.981
 30
0.000000
  70
    32
  0
VERTEX
  8
0
  5
32BE8
 10
-370.120
 20
854.981
 30
0.000000
  70
    32
  0
SEQEND
  8
0
  5
32BE9
  0
POLYLINE
  8
0
  5
32BEA
  66
     1
 10
0.000000
 20
0.000000
 30
0.000000
  70
     8
  0
VERTEX
  8
0
  5
32BEB
 10
-370.120
 20
854.939
 30
0.000000
  70
    32
  0
VERTEX
  8
0
  5
32BEC
 10
-370.121
 20
854.938
 30
0.000000
  70
    32
  0
VERTEX
  8
0
  5
32BED
 10
-370.123
 20
854.937
 30
0.000000
  70
    32
  0
VERTEX
  8
0
  5
32BEE
 10
-370.124
 20
854.936
 30
0.000000
  70
    32
  0
VERTEX
  8
0
  5
32BEF
 10
-370.125
 20
854.935
 30
0.000000
  70
    32
  0
VERTEX
  8
0
  5
32BF0
 10
-370.126
 20
854.933
 30
0.000000
  70
    32
  0
VERTEX
  8
0
  5
32BF1
 10
-370.127
 20
854.932
 30
0.000000
  70
    32
  0
VERTEX
  8
0
  5
32BF2
 10
-370.128
 20
854.931
 30
0.000000
  70
    32
  0
VERTEX
  8
0
  5
32BF3
 10
-370.129
 20
854.930
 30
0.000000
  70
    32
  0
VERTEX
  8
0
  5
32BF4
 10
-370.130
 20
854.929
 30
0.000000
  70
    32
  0
VERTEX
  8
0
  5
32BF5
 10
-370.131
 20
854.928
 30
0.000000
  70
    32
  0
VERTEX
  8
0
  5
32BF6
 10
-370.132
 20
854.927
 30
0.000000
  70
    32
  0
VERTEX
  8
0
  5
32BF7
 10
-370.133
 20
854.925
 30
0.000000
  70
    32
  0
VERTEX
  8
0
  5
32BF8
 10
-370.134
 20
854.924
 30
0.000000
  70
    32
  0
VERTEX
  8
0
  5
32BF9
 10
-370.135
 20
854.923
 30
0.000000
  70
    32
  0
VERTEX
  8
0
  5
32BFA
 10
-370.136
 20
854.922
 30
0.000000
  70
    32
  0
VERTEX
  8
0
  5
32BFB
 10
-370.137
 20
854.921
 30
0.000000
  70
    32
  0
VERTEX
  8
0
  5
32BFC
 10
-370.138
 20
854.920
 30
0.000000
  70
    32
  0
VERTEX
  8
0
  5
32BFD
 10
-370.139
 20
854.918
 30
0.000000
  70
    32
  0
VERTEX
  8
0
  5
32BFE
 10
-370.140
 20
854.917
 30
0.000000
  70
    32
  0
VERTEX
  8
0
  5
32BFF
 10
-370.141
 20
854.916
 30
0.000000
  70
    32
  0
VERTEX
  8
0
  5
32C00
 10
-370.142
 20
854.915
 30
0.000000
  70
    32
  0
VERTEX
  8
0
  5
32C01
 10
-370.143
 20
854.914
 30
0.000000
  70
    32
  0
VERTEX
  8
0
  5
32C02
 10
-370.144
 20
854.913
 30
0.000000
  70
    32
  0
VERTEX
  8
0
  5
32C03
 10
-370.145
 20
854.911
 30
0.000000
  70
    32
  0
VERTEX
  8
0
  5
32C04
 10
-370.146
 20
854.910
 30
0.000000
  70
    32
  0
VERTEX
  8
0
  5
32C05
 10
-370.147
 20
854.909
 30
0.000000
  70
    32
  0
VERTEX
  8
0
  5
32C06
 10
-370.148
 20
854.908
 30
0.000000
  70
    32
  0
VERTEX
  8
0
  5
32C07
 10
-370.149
 20
854.907
 30
0.000000
  70
    32
  0
VERTEX
  8
0
  5
32C08
 10
-370.150
 20
854.906
 30
0.000000
  70
    32
  0
VERTEX
  8
0
  5
32C09
 10
-370.151
 20
854.904
 30
0.000000
  70
    32
  0
VERTEX
  8
0
  5
32C0A
 10
-370.152
 20
854.903
 30
0.000000
  70
    32
  0
VERTEX
  8
0
  5
32C0B
 10
-370.153
 20
854.902
 30
0.000000
  70
    32
  0
VERTEX
  8
0
  5
32C0C
 10
-370.154
 20
854.901
 30
0.000000
  70
    32
  0
VERTEX
  8
0
  5
32C0D
 10
-370.155
 20
854.900
 30
0.000000
  70
    32
  0
VERTEX
  8
0
  5
32C0E
 10
-370.156
 20
854.899
 30
0.000000
  70
    32
  0
VERTEX
  8
0
  5
32C0F
 10
-370.157
 20
854.898
 30
0.000000
  70
    32
  0
VERTEX
  8
0
  5
32C10
 10
-370.158
 20
854.897
 30
0.000000
  70
    32
  0
VERTEX
  8
0
  5
32C11
 10
-370.159
 20
854.896
 30
0.000000
  70
    32
  0
VERTEX
  8
0
  5
32C12
 10
-370.160
 20
854.894
 30
0.000000
  70
    32
  0
VERTEX
  8
0
  5
32C13
 10
-370.161
 20
854.893
 30
0.000000
  70
    32
  0
VERTEX
  8
0
  5
32C14
 10
-370.162
 20
854.892
 30
0.000000
  70
    32
  0
VERTEX
  8
0
  5
32C15
 10
-370.163
 20
854.891
 30
0.000000
  70
    32
  0
VERTEX
  8
0
  5
32C16
 10
-370.164
 20
854.890
 30
0.000000
  70
    32
  0
VERTEX
  8
0
  5
32C17
 10
-370.165
 20
854.889
 30
0.000000
  70
    32
  0
VERTEX
  8
0
  5
32C18
 10
-370.166
 20
854.888
 30
0.000000
  70
    32
  0
VERTEX
  8
0
  5
32C19
 10
-370.167
 20
854.887
 30
0.000000
  70
    32
  0
VERTEX
  8
0
  5
32C1A
 10
-370.168
 20
854.886
 30
0.000000
  70
    32
  0
VERTEX
  8
0
  5
32C1B
 10
-370.170
 20
854.885
 30
0.000000
  70
    32
  0
VERTEX
  8
0
  5
32C1C
 10
-370.171
 20
854.884
 30
0.000000
  70
    32
  0
VERTEX
  8
0
  5
32C1D
 10
-370.172
 20
854.883
 30
0.000000
  70
    32
  0
VERTEX
  8
0
  5
32C1E
 10
-370.173
 20
854.882
 30
0.000000
  70
    32
  0
VERTEX
  8
0
  5
32C1F
 10
-370.174
 20
854.881
 30
0.000000
  70
    32
  0
VERTEX
  8
0
  5
32C20
 10
-370.175
 20
854.880
 30
0.000000
  70
    32
  0
VERTEX
  8
0
  5
32C21
 10
-370.176
 20
854.879
 30
0.000000
  70
    32
  0
VERTEX
  8
0
  5
32C22
 10
-370.177
 20
854.878
 30
0.000000
  70
    32
  0
VERTEX
  8
0
  5
32C23
 10
-370.179
 20
854.877
 30
0.000000
  70
    32
  0
VERTEX
  8
0
  5
32C24
 10
-370.180
 20
854.876
 30
0.000000
  70
    32
  0
VERTEX
  8
0
  5
32C25
 10
-370.181
 20
854.875
 30
0.000000
  70
    32
  0
VERTEX
  8
0
  5
32C26
 10
-370.182
 20
854.874
 30
0.000000
  70
    32
  0
VERTEX
  8
0
  5
32C27
 10
-370.183
 20
854.873
 30
0.000000
  70
    32
  0
VERTEX
  8
0
  5
32C28
 10
-370.184
 20
854.872
 30
0.000000
  70
    32
  0
VERTEX
  8
0
  5
32C29
 10
-370.186
 20
854.871
 30
0.000000
  70
    32
  0
VERTEX
  8
0
  5
32C2A
 10
-370.187
 20
854.870
 30
0.000000
  70
    32
  0
VERTEX
  8
0
  5
32C2B
 10
-370.188
 20
854.870
 30
0.000000
  70
    32
  0
VERTEX
  8
0
  5
32C2C
 10
-370.189
 20
854.869
 30
0.000000
  70
    32
  0
VERTEX
  8
0
  5
32C2D
 10
-370.190
 20
854.868
 30
0.000000
  70
    32
  0
VERTEX
  8
0
  5
32C2E
 10
-370.192
 20
854.867
 30
0.000000
  70
    32
  0
VERTEX
  8
0
  5
32C2F
 10
-370.193
 20
854.866
 30
0.000000
  70
    32
  0
VERTEX
  8
0
  5
32C30
 10
-370.194
 20
854.865
 30
0.000000
  70
    32
  0
VERTEX
  8
0
  5
32C31
 10
-370.195
 20
854.864
 30
0.000000
  70
    32
  0
VERTEX
  8
0
  5
32C32
 10
-370.196
 20
854.863
 30
0.000000
  70
    32
  0
VERTEX
  8
0
  5
32C33
 10
-370.198
 20
854.862
 30
0.000000
  70
    32
  0
VERTEX
  8
0
  5
32C34
 10
-370.199
 20
854.861
 30
0.000000
  70
    32
  0
VERTEX
  8
0
  5
32C35
 10
-370.200
 20
854.860
 30
0.000000
  70
    32
  0
VERTEX
  8
0
  5
32C36
 10
-370.201
 20
854.859
 30
0.000000
  70
    32
  0
VERTEX
  8
0
  5
32C37
 10
-370.203
 20
854.858
 30
0.000000
  70
    32
  0
VERTEX
  8
0
  5
32C38
 10
-370.204
 20
854.857
 30
0.000000
  70
    32
  0
VERTEX
  8
0
  5
32C39
 10
-370.205
 20
854.856
 30
0.000000
  70
    32
  0
VERTEX
  8
0
  5
32C3A
 10
-370.206
 20
854.855
 30
0.000000
  70
    32
  0
VERTEX
  8
0
  5
32C3B
 10
-370.207
 20
854.855
 30
0.000000
  70
    32
  0
VERTEX
  8
0
  5
32C3C
 10
-370.209
 20
854.854
 30
0.000000
  70
    32
  0
VERTEX
  8
0
  5
32C3D
 10
-370.210
 20
854.853
 30
0.000000
  70
    32
  0
VERTEX
  8
0
  5
32C3E
 10
-370.211
 20
854.852
 30
0.000000
  70
    32
  0
VERTEX
  8
0
  5
32C3F
 10
-370.212
 20
854.851
 30
0.000000
  70
    32
  0
VERTEX
  8
0
  5
32C40
 10
-370.214
 20
854.850
 30
0.000000
  70
    32
  0
VERTEX
  8
0
  5
32C41
 10
-370.215
 20
854.849
 30
0.000000
  70
    32
  0
VERTEX
  8
0
  5
32C42
 10
-370.216
 20
854.848
 30
0.000000
  70
    32
  0
VERTEX
  8
0
  5
32C43
 10
-370.217
 20
854.847
 30
0.000000
  70
    32
  0
VERTEX
  8
0
  5
32C44
 10
-370.219
 20
854.846
 30
0.000000
  70
    32
  0
VERTEX
  8
0
  5
32C45
 10
-370.220
 20
854.845
 30
0.000000
  70
    32
  0
VERTEX
  8
0
  5
32C46
 10
-370.221
 20
854.844
 30
0.000000
  70
    32
  0
VERTEX
  8
0
  5
32C47
 10
-370.222
 20
854.843
 30
0.000000
  70
    32
  0
VERTEX
  8
0
  5
32C48
 10
-370.224
 20
854.842
 30
0.000000
  70
    32
  0
VERTEX
  8
0
  5
32C49
 10
-370.225
 20
854.841
 30
0.000000
  70
    32
  0
VERTEX
  8
0
  5
32C4A
 10
-370.226
 20
854.840
 30
0.000000
  70
    32
  0
VERTEX
  8
0
  5
32C4B
 10
-370.227
 20
854.839
 30
0.000000
  70
    32
  0
VERTEX
  8
0
  5
32C4C
 10
-370.229
 20
854.838
 30
0.000000
  70
    32
  0
VERTEX
  8
0
  5
32C4D
 10
-370.230
 20
854.837
 30
0.000000
  70
    32
  0
VERTEX
  8
0
  5
32C4E
 10
-370.231
 20
854.836
 30
0.000000
  70
    32
  0
VERTEX
  8
0
  5
32C4F
 10
-370.232
 20
854.835
 30
0.000000
  70
    32
  0
VERTEX
  8
0
  5
32C50
 10
-370.234
 20
854.834
 30
0.000000
  70
    32
  0
VERTEX
  8
0
  5
32C51
 10
-370.235
 20
854.833
 30
0.000000
  70
    32
  0
VERTEX
  8
0
  5
32C52
 10
-370.236
 20
854.832
 30
0.000000
  70
    32
  0
VERTEX
  8
0
  5
32C53
 10
-370.237
 20
854.831
 30
0.000000
  70
    32
  0
VERTEX
  8
0
  5
32C54
 10
-370.238
 20
854.830
 30
0.000000
  70
    32
  0
VERTEX
  8
0
  5
32C55
 10
-370.239
 20
854.829
 30
0.000000
  70
    32
  0
VERTEX
  8
0
  5
32C56
 10
-370.241
 20
854.828
 30
0.000000
  70
    32
  0
VERTEX
  8
0
  5
32C57
 10
-370.242
 20
854.827
 30
0.000000
  70
    32
  0
VERTEX
  8
0
  5
32C58
 10
-370.243
 20
854.825
 30
0.000000
  70
    32
  0
VERTEX
  8
0
  5
32C59
 10
-370.244
 20
854.824
 30
0.000000
  70
    32
  0
VERTEX
  8
0
  5
32C5A
 10
-370.245
 20
854.823
 30
0.000000
  70
    32
  0
VERTEX
  8
0
  5
32C5B
 10
-370.246
 20
854.822
 30
0.000000
  70
    32
  0
VERTEX
  8
0
  5
32C5C
 10
-370.247
 20
854.821
 30
0.000000
  70
    32
  0
VERTEX
  8
0
  5
32C5D
 10
-370.248
 20
854.820
 30
0.000000
  70
    32
  0
VERTEX
  8
0
  5
32C5E
 10
-370.250
 20
854.819
 30
0.000000
  70
    32
  0
VERTEX
  8
0
  5
32C5F
 10
-370.251
 20
854.818
 30
0.000000
  70
    32
  0
VERTEX
  8
0
  5
32C60
 10
-370.252
 20
854.817
 30
0.000000
  70
    32
  0
VERTEX
  8
0
  5
32C61
 10
-370.253
 20
854.815
 30
0.000000
  70
    32
  0
VERTEX
  8
0
  5
32C62
 10
-370.254
 20
854.814
 30
0.000000
  70
    32
  0
VERTEX
  8
0
  5
32C63
 10
-370.255
 20
854.813
 30
0.000000
  70
    32
  0
VERTEX
  8
0
  5
32C64
 10
-370.256
 20
854.812
 30
0.000000
  70
    32
  0
VERTEX
  8
0
  5
32C65
 10
-370.257
 20
854.811
 30
0.000000
  70
    32
  0
VERTEX
  8
0
  5
32C66
 10
-370.258
 20
854.810
 30
0.000000
  70
    32
  0
VERTEX
  8
0
  5
32C67
 10
-370.258
 20
854.808
 30
0.000000
  70
    32
  0
VERTEX
  8
0
  5
32C68
 10
-370.259
 20
854.807
 30
0.000000
  70
    32
  0
VERTEX
  8
0
  5
32C69
 10
-370.260
 20
854.806
 30
0.000000
  70
    32
  0
VERTEX
  8
0
  5
32C6A
 10
-370.261
 20
854.805
 30
0.000000
  70
    32
  0
VERTEX
  8
0
  5
32C6B
 10
-370.262
 20
854.804
 30
0.000000
  70
    32
  0
VERTEX
  8
0
  5
32C6C
 10
-370.263
 20
854.802
 30
0.000000
  70
    32
  0
VERTEX
  8
0
  5
32C6D
 10
-370.264
 20
854.801
 30
0.000000
  70
    32
  0
VERTEX
  8
0
  5
32C6E
 10
-370.264
 20
854.800
 30
0.000000
  70
    32
  0
VERTEX
  8
0
  5
32C6F
 10
-370.265
 20
854.799
 30
0.000000
  70
    32
  0
VERTEX
  8
0
  5
32C70
 10
-370.266
 20
854.797
 30
0.000000
  70
    32
  0
VERTEX
  8
0
  5
32C71
 10
-370.266
 20
854.796
 30
0.000000
  70
    32
  0
VERTEX
  8
0
  5
32C72
 10
-370.267
 20
854.795
 30
0.000000
  70
    32
  0
VERTEX
  8
0
  5
32C73
 10
-370.268
 20
854.793
 30
0.000000
  70
    32
  0
VERTEX
  8
0
  5
32C74
 10
-370.268
 20
854.792
 30
0.000000
  70
    32
  0
VERTEX
  8
0
  5
32C75
 10
-370.269
 20
854.791
 30
0.000000
  70
    32
  0
VERTEX
  8
0
  5
32C76
 10
-370.269
 20
854.789
 30
0.000000
  70
    32
  0
VERTEX
  8
0
  5
32C77
 10
-370.270
 20
854.788
 30
0.000000
  70
    32
  0
VERTEX
  8
0
  5
32C78
 10
-370.271
 20
854.787
 30
0.000000
  70
    32
  0
VERTEX
  8
0
  5
32C79
 10
-370.271
 20
854.785
 30
0.000000
  70
    32
  0
VERTEX
  8
0
  5
32C7A
 10
-370.271
 20
854.784
 30
0.000000
  70
    32
  0
VERTEX
  8
0
  5
32C7B
 10
-370.272
 20
854.783
 30
0.000000
  70
    32
  0
VERTEX
  8
0
  5
32C7C
 10
-370.272
 20
854.781
 30
0.000000
  70
    32
  0
VERTEX
  8
0
  5
32C7D
 10
-370.273
 20
854.780
 30
0.000000
  70
    32
  0
VERTEX
  8
0
  5
32C7E
 10
-370.273
 20
854.779
 30
0.000000
  70
    32
  0
VERTEX
  8
0
  5
32C7F
 10
-370.273
 20
854.777
 30
0.000000
  70
    32
  0
VERTEX
  8
0
  5
32C80
 10
-370.274
 20
854.776
 30
0.000000
  70
    32
  0
VERTEX
  8
0
  5
32C81
 10
-370.274
 20
854.774
 30
0.000000
  70
    32
  0
VERTEX
  8
0
  5
32C82
 10
-370.274
 20
854.773
 30
0.000000
  70
    32
  0
VERTEX
  8
0
  5
32C83
 10
-370.275
 20
854.771
 30
0.000000
  70
    32
  0
VERTEX
  8
0
  5
32C84
 10
-370.275
 20
854.770
 30
0.000000
  70
    32
  0
VERTEX
  8
0
  5
32C85
 10
-370.275
 20
854.769
 30
0.000000
  70
    32
  0
VERTEX
  8
0
  5
32C86
 10
-370.275
 20
854.767
 30
0.000000
  70
    32
  0
VERTEX
  8
0
  5
32C87
 10
-370.275
 20
854.766
 30
0.000000
  70
    32
  0
VERTEX
  8
0
  5
32C88
 10
-370.276
 20
854.764
 30
0.000000
  70
    32
  0
VERTEX
  8
0
  5
32C89
 10
-370.276
 20
854.763
 30
0.000000
  70
    32
  0
VERTEX
  8
0
  5
32C8A
 10
-370.276
 20
854.761
 30
0.000000
  70
    32
  0
VERTEX
  8
0
  5
32C8B
 10
-370.276
 20
854.760
 30
0.000000
  70
    32
  0
VERTEX
  8
0
  5
32C8C
 10
-370.276
 20
854.758
 30
0.000000
  70
    32
  0
VERTEX
  8
0
  5
32C8D
 10
-370.276
 20
854.757
 30
0.000000
  70
    32
  0
VERTEX
  8
0
  5
32C8E
 10
-370.276
 20
854.755
 30
0.000000
  70
    32
  0
VERTEX
  8
0
  5
32C8F
 10
-370.276
 20
854.754
 30
0.000000
  70
    32
  0
VERTEX
  8
0
  5
32C90
 10
-370.276
 20
854.752
 30
0.000000
  70
    32
  0
VERTEX
  8
0
  5
32C91
 10
-370.276
 20
854.751
 30
0.000000
  70
    32
  0
VERTEX
  8
0
  5
32C92
 10
-370.276
 20
854.749
 30
0.000000
  70
    32
  0
VERTEX
  8
0
  5
32C93
 10
-370.276
 20
854.748
 30
0.000000
  70
    32
  0
VERTEX
  8
0
  5
32C94
 10
-370.276
 20
854.746
 30
0.000000
  70
    32
  0
VERTEX
  8
0
  5
32C95
 10
-370.276
 20
854.744
 30
0.000000
  70
    32
  0
VERTEX
  8
0
  5
32C96
 10
-370.276
 20
854.743
 30
0.000000
  70
    32
  0
VERTEX
  8
0
  5
32C97
 10
-370.276
 20
854.741
 30
0.000000
  70
    32
  0
VERTEX
  8
0
  5
32C98
 10
-370.276
 20
854.740
 30
0.000000
  70
    32
  0
VERTEX
  8
0
  5
32C99
 10
-370.276
 20
854.738
 30
0.000000
  70
    32
  0
VERTEX
  8
0
  5
32C9A
 10
-370.276
 20
854.737
 30
0.000000
  70
    32
  0
VERTEX
  8
0
  5
32C9B
 10
-370.276
 20
854.735
 30
0.000000
  70
    32
  0
VERTEX
  8
0
  5
32C9C
 10
-370.276
 20
854.734
 30
0.000000
  70
    32
  0
VERTEX
  8
0
  5
32C9D
 10
-370.276
 20
854.732
 30
0.000000
  70
    32
  0
VERTEX
  8
0
  5
32C9E
 10
-370.275
 20
854.730
 30
0.000000
  70
    32
  0
VERTEX
  8
0
  5
32C9F
 10
-370.275
 20
854.729
 30
0.000000
  70
    32
  0
VERTEX
  8
0
  5
32CA0
 10
-370.275
 20
854.727
 30
0.000000
  70
    32
  0
VERTEX
  8
0
  5
32CA1
 10
-370.275
 20
854.726
 30
0.000000
  70
    32
  0
VERTEX
  8
0
  5
32CA2
 10
-370.275
 20
854.724
 30
0.000000
  70
    32
  0
VERTEX
  8
0
  5
32CA3
 10
-370.275
 20
854.723
 30
0.000000
  70
    32
  0
VERTEX
  8
0
  5
32CA4
 10
-370.275
 20
854.721
 30
0.000000
  70
    32
  0
VERTEX
  8
0
  5
32CA5
 10
-370.275
 20
854.719
 30
0.000000
  70
    32
  0
VERTEX
  8
0
  5
32CA6
 10
-370.274
 20
854.718
 30
0.000000
  70
    32
  0
VERTEX
  8
0
  5
32CA7
 10
-370.274
 20
854.716
 30
0.000000
  70
    32
  0
VERTEX
  8
0
  5
32CA8
 10
-370.274
 20
854.715
 30
0.000000
  70
    32
  0
VERTEX
  8
0
  5
32CA9
 10
-370.274
 20
854.713
 30
0.000000
  70
    32
  0
VERTEX
  8
0
  5
32CAA
 10
-370.274
 20
854.711
 30
0.000000
  70
    32
  0
VERTEX
  8
0
  5
32CAB
 10
-370.274
 20
854.710
 30
0.000000
  70
    32
  0
VERTEX
  8
0
  5
32CAC
 10
-370.274
 20
854.708
 30
0.000000
  70
    32
  0
VERTEX
  8
0
  5
32CAD
 10
-370.273
 20
854.707
 30
0.000000
  70
    32
  0
VERTEX
  8
0
  5
32CAE
 10
-370.273
 20
854.705
 30
0.000000
  70
    32
  0
VERTEX
  8
0
  5
32CAF
 10
-370.273
 20
854.703
 30
0.000000
  70
    32
  0
VERTEX
  8
0
  5
32CB0
 10
-370.273
 20
854.702
 30
0.000000
  70
    32
  0
VERTEX
  8
0
  5
32CB1
 10
-370.273
 20
854.700
 30
0.000000
  70
    32
  0
VERTEX
  8
0
  5
32CB2
 10
-370.273
 20
854.699
 30
0.000000
  70
    32
  0
VERTEX
  8
0
  5
32CB3
 10
-370.273
 20
854.697
 30
0.000000
  70
    32
  0
VERTEX
  8
0
  5
32CB4
 10
-370.272
 20
854.695
 30
0.000000
  70
    32
  0
VERTEX
  8
0
  5
32CB5
 10
-370.272
 20
854.694
 30
0.000000
  70
    32
  0
VERTEX
  8
0
  5
32CB6
 10
-370.272
 20
854.692
 30
0.000000
  70
    32
  0
VERTEX
  8
0
  5
32CB7
 10
-370.272
 20
854.691
 30
0.000000
  70
    32
  0
VERTEX
  8
0
  5
32CB8
 10
-370.272
 20
854.689
 30
0.000000
  70
    32
  0
VERTEX
  8
0
  5
32CB9
 10
-370.272
 20
854.688
 30
0.000000
  70
    32
  0
VERTEX
  8
0
  5
32CBA
 10
-370.272
 20
854.686
 30
0.000000
  70
    32
  0
VERTEX
  8
0
  5
32CBB
 10
-370.272
 20
854.684
 30
0.000000
  70
    32
  0
VERTEX
  8
0
  5
32CBC
 10
-370.272
 20
854.683
 30
0.000000
  70
    32
  0
VERTEX
  8
0
  5
32CBD
 10
-370.272
 20
854.681
 30
0.000000
  70
    32
  0
VERTEX
  8
0
  5
32CBE
 10
-370.272
 20
854.680
 30
0.000000
  70
    32
  0
VERTEX
  8
0
  5
32CBF
 10
-370.271
 20
854.678
 30
0.000000
  70
    32
  0
VERTEX
  8
0
  5
32CC0
 10
-370.271
 20
854.677
 30
0.000000
  70
    32
  0
VERTEX
  8
0
  5
32CC1
 10
-370.271
 20
854.675
 30
0.000000
  70
    32
  0
VERTEX
  8
0
  5
32CC2
 10
-370.271
 20
854.673
 30
0.000000
  70
    32
  0
VERTEX
  8
0
  5
32CC3
 10
-370.271
 20
854.672
 30
0.000000
  70
    32
  0
VERTEX
  8
0
  5
32CC4
 10
-370.271
 20
854.670
 30
0.000000
  70
    32
  0
VERTEX
  8
0
  5
32CC5
 10
-370.271
 20
854.669
 30
0.000000
  70
    32
  0
VERTEX
  8
0
  5
32CC6
 10
-370.271
 20
854.667
 30
0.000000
  70
    32
  0
VERTEX
  8
0
  5
32CC7
 10
-370.272
 20
854.666
 30
0.000000
  70
    32
  0
VERTEX
  8
0
  5
32CC8
 10
-370.272
 20
854.664
 30
0.000000
  70
    32
  0
VERTEX
  8
0
  5
32CC9
 10
-370.272
 20
854.663
 30
0.000000
  70
    32
  0
VERTEX
  8
0
  5
32CCA
 10
-370.272
 20
854.661
 30
0.000000
  70
    32
  0
SEQEND
  8
0
  5
32CCB
  0
VIEWPORT
  5
BADA
 67
     1
  8
0
 10
5.249999665167536
 20
4.0168608648543138
 30
0.0
 40
16.023543186357209
 41
8.0117715931786062
 68
     1
 69
     1
1001
ACAD
1000
MVIEW
1002
{
1070
    16
1010
0.0
1020
0.0
1030
0.0
1010
0.0
1020
0.0
1030
1.0
1040
0.0
1040
8.0117715931786062
1040
5.249999665167536
1040
4.0168608648543138
1040
50.0
1040
0.0
1040
0.0
1070
     0
1070
   100
1070
     1
1070
     1
1070
     0
1070
     0
1070
     0
1070
     0
1040
0.0
1040
0.0
1040
0.0
1040
0.5
1040
0.5
1040
0.5
1040
0.5
1070
     0
1002
{
1002
}
1002
}
  0
VIEWPORT
  5
BADD
 67
     1
  8
0
 10
5.2499996294871929
 20
4.0166741807634683
 30
0.0
 40
10.44245679893058
 41
7.8813805131999892
 68
     2
 69
     2
1001
ACAD
1000
MVIEW
1002
{
1070
    16
1010
0.0
1020
0.0
1030
0.0
1010
0.0
1020
0.0
1030
1.0
1040
0.0
1040
7.8813805329734699
1040
-368.95727160887128
1040
855.35521626310174
1040
50.0
1040
0.0
1040
0.0
1070
     0
1070
   100
1070
     1
1070
     2
1070
     0
1070
     0
1070
     0
1070
     0
1040
0.0
1040
0.0
1040
0.0
1040
0.5
1040
0.5
1040
0.5
1040
0.5
1070
     0
1002
{
1002
}
1002
}
  0
ENDSEC
  0
EOF
