  0
SECTION
  2
HEADER
  9
$ACADVER
  1
AC1009
  9
$INSBASE
 10
0.0
 20
0.0
 30
0.0
  9
$EXTMIN
 10
-382.72329759641298
 20
842.03654994640556
 30
0.0
  9
$EXTMAX
 10
-379.20555562864507
 20
846.97357571403245
 30
0.0
  9
$LIMMIN
 10
0.0
 20
0.0
  9
$LIMMAX
 10
1500.0
 20
1500.0
  9
$ORTHOMODE
 70
     0
  9
$REGENMODE
 70
     1
  9
$FILLMODE
 70
     1
  9
$QTEXTMODE
 70
     0
  9
$MIRRTEXT
 70
     1
  9
$DRAGMODE
 70
     2
  9
$LTSCALE
 40
1.0
  9
$OSMODE
 70
    63
  9
$ATTMODE
 70
     1
  9
$TEXTSIZE
 40
1.5
  9
$TRACEWID
 40
0.05
  9
$TEXTSTYLE
  7
STANDARD
  9
$CLAYER
  8
0
  9
$CELTYPE
  6
BYLAYER
  9
$CECOLOR
 62
   256
  9
$DIMSCALE
 40
1.0
  9
$DIMASZ
 40
0.75
  9
$DIMEXO
 40
1.5
  9
$DIMDLI
 40
2.0
  9
$DIMRND
 40
0.0
  9
$DIMDLE
 40
0.0
  9
$DIMEXE
 40
1.0
  9
$DIMTP
 40
0.0
  9
$DIMTM
 40
0.0
  9
$DIMTXT
 40
1.5
  9
$DIMCEN
 40
2.0
  9
$DIMTSZ
 40
0.0
  9
$DIMTOL
 70
     0
  9
$DIMLIM
 70
     0
  9
$DIMTIH
 70
     0
  9
$DIMTOH
 70
     0
  9
$DIMSE1
 70
     0
  9
$DIMSE2
 70
     0
  9
$DIMTAD
 70
     1
  9
$DIMZIN
 70
     0
  9
$DIMBLK
  1
ARCHTICK
  9
$DIMASO
 70
     1
  9
$DIMSHO
 70
     1
  9
$DIMPOST
  1
"
  9
$DIMAPOST
  1

  9
$DIMALT
 70
     0
  9
$DIMALTD
 70
     2
  9
$DIMALTF
 40
25.399999999999999
  9
$DIMLFAC
 40
1.0
  9
$DIMTOFL
 70
     0
  9
$DIMTVP
 40
0.0
  9
$DIMTIX
 70
     1
  9
$DIMSOXD
 70
     0
  9
$DIMSAH
 70
     0
  9
$DIMBLK1
  1

  9
$DIMBLK2
  1

  9
$DIMSTYLE
  2
THREE_QUARTER_INCH_SCALE
  9
$DIMCLRD
 70
     0
  9
$DIMCLRE
 70
     0
  9
$DIMCLRT
 70
     0
  9
$DIMTFAC
 40
1.0
  9
$DIMGAP
 40
1.0
  9
$LUNITS
 70
     2
  9
$LUPREC
 70
     4
  9
$SKETCHINC
 40
0.1
  9
$FILLETRAD
 40
0.0
  9
$AUNITS
 70
     0
  9
$AUPREC
 70
     0
  9
$MENU
  1
.
  9
$ELEVATION
 40
0.0
  9
$PELEVATION
 40
0.0
  9
$THICKNESS
 40
0.0
  9
$LIMCHECK
 70
     0
  9
$BLIPMODE
 70
     0
  9
$CHAMFERA
 40
0.5
  9
$CHAMFERB
 40
0.5
  9
$SKPOLY
 70
     0
  9
$TDCREATE
 40
2452089.395738773
  9
$TDUPDATE
 40
2453621.5760857058
  9
$TDINDWG
 40
1.2895237268999999
  9
$TDUSRTIMER
 40
1.2895237268999999
  9
$USRTIMER
 70
     1
  9
$ANGBASE
 50
0.0
  9
$ANGDIR
 70
     0
  9
$PDMODE
 70
     0
  9
$PDSIZE
 40
10.0
  9
$PLINEWID
 40
0.0
  9
$COORDS
 70
     0
  9
$SPLFRAME
 70
     0
  9
$SPLINETYPE
 70
     6
  9
$SPLINESEGS
 70
     8
  9
$ATTDIA
 70
     0
  9
$ATTREQ
 70
     1
  9
$HANDLING
 70
     1
  9
$HANDSEED
  5
24A30
  9
$SURFTAB1
 70
     6
  9
$SURFTAB2
 70
     6
  9
$SURFTYPE
 70
     6
  9
$SURFU
 70
     6
  9
$SURFV
 70
     6
  9
$UCSNAME
  2

  9
$UCSORG
 10
0.0
 20
0.0
 30
0.0
  9
$UCSXDIR
 10
1.0
 20
0.0
 30
0.0
  9
$UCSYDIR
 10
0.0
 20
1.0
 30
0.0
  9
$PUCSNAME
  2

  9
$PUCSORG
 10
0.0
 20
0.0
 30
0.0
  9
$PUCSXDIR
 10
1.0
 20
0.0
 30
0.0
  9
$PUCSYDIR
 10
0.0
 20
1.0
 30
0.0
  9
$USERI1
 70
     0
  9
$USERI2
 70
     0
  9
$USERI3
 70
     0
  9
$USERI4
 70
     0
  9
$USERI5
 70
     0
  9
$USERR1
 40
0.0
  9
$USERR2
 40
0.0
  9
$USERR3
 40
0.0
  9
$USERR4
 40
0.0
  9
$USERR5
 40
0.0
  9
$WORLDVIEW
 70
     1
  9
$SHADEDGE
 70
     3
  9
$SHADEDIF
 70
    70
  9
$TILEMODE
 70
     0
  9
$MAXACTVP
 70
    64
  9
$PLIMCHECK
 70
     0
  9
$PEXTMIN
 10
0.0287712300219028
 20
0.0759839241634737
 30
0.0
  9
$PEXTMAX
 10
10.47122802895248
 20
7.957364437363462
 30
0.0
  9
$PLIMMIN
 10
-0.2500002402958907
 20
-0.2499999962453767
  9
$PLIMMAX
 10
10.74999951940821
 20
8.2499997634587316
  9
$UNITMODE
 70
     0
  9
$VISRETAIN
 70
     1
  9
$PLINEGEN
 70
     0
  9
$PSLTSCALE
 70
     1
  0
ENDSEC
  0
SECTION
  2
TABLES
  0
TABLE
  2
VPORT
 70
     1
  0
VPORT
  2
*ACTIVE
 70
     0
 10
0.0
 20
0.0
 11
1.0
 21
1.0
 12
-381.9741129214903
 22
844.25551152692162
 13
0.0
 23
0.0
 14
0.5
 24
0.5
 15
0.5
 25
0.5
 16
0.0
 26
0.0
 36
1.0
 17
0.0
 27
0.0
 37
0.0
 40
6.1892884984452179
 41
2.0
 42
50.0
 43
0.0
 44
0.0
 50
0.0
 51
0.0
 71
     0
 72
   100
 73
     1
 74
     2
 75
     0
 76
     0
 77
     0
 78
     0
  0
ENDTAB
  0
TABLE
  2
LTYPE
 70
     1
  0
LTYPE
  2
CONTINUOUS
 70
     0
  3
Solid line
 72
    65
 73
     0
 40
0.0
  0
ENDTAB
  0
TABLE
  2
LAYER
 70
    10
  0
LAYER
  2
0
 70
     0
 62
     7
  6
CONTINUOUS
  0
LAYER
  2
DEFPOINTS
 70
     0
 62
     7
  6
CONTINUOUS
  0
LAYER
  2
FRAME_200
 70
     0
 62
     8
  6
CONTINUOUS
  0
LAYER
  2
FRAME_070
 70
     0
 62
     5
  6
CONTINUOUS
  0
LAYER
  2
FRAME_050
 70
     0
 62
     6
  6
CONTINUOUS
  0
LAYER
  2
TITLE_BLOCK
 70
     0
 62
     7
  6
CONTINUOUS
  0
LAYER
  2
FRAME_025
 70
     0
 62
     7
  6
CONTINUOUS
  0
LAYER
  2
VIEWPORT
 70
     0
 62
     7
  6
CONTINUOUS
  0
LAYER
  2
PROF
 70
     0
 62
     7
  6
CONTINUOUS
  0
LAYER
  2
PROFILE
 70
     0
 62
     7
  6
CONTINUOUS
  0
ENDTAB
  0
TABLE
  2
STYLE
 70
     2
  0
STYLE
  2
STANDARD
 70
     0
 40
0.0
 41
1.0
 50
0.0
 71
     0
 42
1.5
  3
txt
  4

  0
STYLE
  2
ISO_PROPORTIONAL
 70
     0
 40
0.0
 41
1.0
 50
0.0
 71
     0
 42
2.5
  3
isocp.shx
  4

  0
ENDTAB
  0
TABLE
  2
VIEW
 70
     1
  0
ENDTAB
  0
TABLE
  2
UCS
 70
     0
  0
ENDTAB
  0
TABLE
  2
APPID
 70
     6
  0
APPID
  2
ACAD
 70
     0
  0
APPID
  2
DCO15
 70
     0
  0
APPID
  2
ACAD_EXEMPT_FROM_CAD_STANDARDS
 70
     0
  0
APPID
  2
ACAD_PSEXT
 70
     0
  0
APPID
  2
CONTENTBLOCKDESCRIPTION
 70
     0
  0
APPID
  2
CONTENTBLOCKICON
 70
     0
  0
ENDTAB
  0
TABLE
  2
DIMSTYLE
 70
     5
  0
DIMSTYLE
  2
FULL_SCALE
 70
     0
  3
"
  4

  5
ARCHTICK
  6

  7

 40
1.0
 41
0.046875
 42
0.09375
 43
0.125
 44
0.0625
 45
0.0
 46
0.0
 47
0.0
 48
0.0
140
0.125
141
0.125
142
0.0
143
25.399999999999999
144
1.0
145
0.0
146
1.0
147
0.0625
 71
     0
 72
     0
 73
     0
 74
     0
 75
     0
 76
     0
 77
     1
 78
     0
170
     0
171
     2
172
     0
173
     0
174
     1
175
     0
176
     0
177
     0
178
     0
  0
DIMSTYLE
  2
HALF_SCALE
 70
     0
  3
"
  4

  5
ARCHTICK
  6

  7

 40
1.0
 41
0.09375
 42
0.1875
 43
0.25
 44
0.125
 45
0.0
 46
0.0
 47
0.0
 48
0.0
140
0.25
141
0.25
142
0.0
143
25.399999999999999
144
1.0
145
0.0
146
1.0
147
0.125
 71
     0
 72
     0
 73
     0
 74
     0
 75
     0
 76
     0
 77
     1
 78
     0
170
     0
171
     2
172
     0
173
     0
174
     1
175
     0
176
     0
177
     0
178
     0
  0
DIMSTYLE
  2
INCH_SCALE
 70
     0
  3
"
  4

  5
ARCHTICK
  6

  7

 40
1.0
 41
0.5625
 42
1.125
 43
1.5
 44
0.75
 45
0.0
 46
0.0
 47
0.0
 48
0.0
140
1.125
141
1.5
142
0.0
143
25.399999999999999
144
1.0
145
0.0
146
1.0
147
0.75
 71
     0
 72
     0
 73
     0
 74
     0
 75
     0
 76
     0
 77
     1
 78
     0
170
     0
171
     2
172
     0
173
     0
174
     1
175
     0
176
     0
177
     0
178
     0
  0
DIMSTYLE
  2
THREE_QUARTER_INCH_SCALE
 70
     0
  3
"
  4

  5
ARCHTICK
  6

  7

 40
1.0
 41
0.75
 42
1.5
 43
2.0
 44
1.0
 45
0.0
 46
0.0
 47
0.0
 48
0.0
140
1.5
141
2.0
142
0.0
143
25.399999999999999
144
1.0
145
0.0
146
1.0
147
1.0
 71
     0
 72
     0
 73
     0
 74
     0
 75
     0
 76
     0
 77
     1
 78
     0
170
     0
171
     2
172
     0
173
     0
174
     1
175
     0
176
     0
177
     0
178
     0
  0
DIMSTYLE
  2
ZHALF_INCH_SCALE
 70
     0
  3
"
  4

  5
ARCHTICK
  6

  7

 40
1.0
 41
1.125
 42
2.25
 43
3.0
 44
1.5
 45
0.0
 46
0.0
 47
0.0
 48
0.0
140
2.25
141
3.0
142
0.0
143
25.399999999999999
144
1.0
145
0.0
146
1.0
147
1.5
 71
     0
 72
     0
 73
     0
 74
     0
 75
     0
 76
     0
 77
     1
 78
     0
170
     0
171
     2
172
     0
173
     0
174
     1
175
     0
176
     0
177
     0
178
     0
  0
ENDTAB
  0
ENDSEC
  0
SECTION
  2
BLOCKS
  0
BLOCK
  8
0
  2
$MODEL_SPACE
 70
     0
 10
0.0
 20
0.0
 30
0.0
  3
$MODEL_SPACE
  1

  0
ENDBLK
  5
21
  8
0
  0
BLOCK
 67
     1
  8
0
  2
$PAPER_SPACE
 70
     0
 10
0.0
 20
0.0
 30
0.0
  3
$PAPER_SPACE
  1

  0
ENDBLK
  5
BAD5
 67
     1
  8
0
  0
BLOCK
  8
0
  2
_ARCHTICK
 70
     0
 10
0.0
 20
0.0
 30
0.0
  3
_ARCHTICK
  1

  0
POLYLINE
  5
158
  8
0
  6
BYBLOCK
 62
     0
 66
     1
 10
0.0
 20
0.0
 30
0.0
 40
0.15
 41
0.15
  0
VERTEX
  5
247CA
  8
0
  6
BYBLOCK
 62
     0
 10
-0.5
 20
-0.5
 30
0.0
  0
VERTEX
  5
247CB
  8
0
  6
BYBLOCK
 62
     0
 10
0.5
 20
0.5
 30
0.0
  0
SEQEND
  5
247CC
  8
0
  6
BYBLOCK
 62
     0
  0
ENDBLK
  5
15A
  8
0
  0
BLOCK
  8
0
  2
_OPEN30
 70
     0
 10
0.0
 20
0.0
 30
0.0
  3
_OPEN30
  1

  0
LINE
  5
15C
  8
0
  6
BYBLOCK
 62
     0
 10
-1.0
 20
0.26794919
 30
0.0
 11
0.0
 21
0.0
 31
0.0
  0
LINE
  5
15D
  8
0
  6
BYBLOCK
 62
     0
 10
0.0
 20
0.0
 30
0.0
 11
-1.0
 21
-0.26794919
 31
0.0
  0
LINE
  5
15E
  8
0
  6
BYBLOCK
 62
     0
 10
0.0
 20
0.0
 30
0.0
 11
-1.0
 21
0.0
 31
0.0
  0
ENDBLK
  5
160
  8
0
  0
BLOCK
  8
0
  2
ISO_A2_TITLE_BLOCK
 70
     2
 10
0.0
 20
0.0
 30
0.0
  3
ISO_A2_TITLE_BLOCK
  1

  0
LINE
  5
BDD
  8
FRAME_050
 10
299.5
 20
12.5
 30
0.0
 11
297.0
 21
7.5
 31
0.0
  0
LINE
  5
BDE
  8
FRAME_050
 10
294.5
 20
12.5
 30
0.0
 11
299.5
 21
12.5
 31
0.0
  0
LINE
  5
BDF
  8
FRAME_050
 10
247.0
 20
5.0
 30
0.0
 11
347.0
 21
5.0
 31
0.0
  0
LINE
  5
BE0
  8
FRAME_070
 10
584.0
 20
410.0
 30
0.0
 11
10.0
 21
410.0
 31
0.0
  0
LINE
  5
BE1
  8
FRAME_070
 10
10.0
 20
10.0
 30
0.0
 11
584.0
 21
10.0
 31
0.0
  0
LINE
  5
BE2
  8
FRAME_050
 10
12.5
 20
207.5
 30
0.0
 11
7.5
 21
210.0
 31
0.0
  0
LINE
  5
BE3
  8
FRAME_050
 10
12.5
 20
212.5
 30
0.0
 11
12.5
 21
207.5
 31
0.0
  0
LINE
  5
BE4
  8
FRAME_070
 10
10.0
 20
410.0
 30
0.0
 11
10.0
 21
10.0
 31
0.0
  0
LINE
  5
BE5
  8
FRAME_200
 10
0.0
 20
0.0
 30
0.0
 11
0.0
 21
10.0
 31
0.0
  0
LINE
  5
BE6
  8
FRAME_200
 10
0.0
 20
0.0
 30
0.0
 11
10.0
 21
0.0
 31
0.0
  0
TEXT
  5
BE7
  8
FRAME_050
 10
5.9000000000000004
 20
35.0
 30
0.0
 40
4.0
  1
H
  7
ISO_PROPORTIONAL
 72
     4
 11
7.5
 21
37.0
 31
0.0
  0
LINE
  5
BE8
  8
FRAME_050
 10
10.0
 20
60.0
 30
0.0
 11
5.0
 21
60.0
 31
0.0
  0
LINE
  5
BE9
  8
FRAME_050
 10
81.75
 20
5.0
 30
0.0
 11
81.75
 21
10.0
 31
0.0
  0
TEXT
  5
BEA
  8
FRAME_050
 10
44.874999999999993
 20
5.5
 30
0.0
 40
4.0
  1
1
  7
ISO_PROPORTIONAL
 72
     4
 11
45.875
 21
7.5
 31
0.0
  0
TEXT
  5
BEB
  8
FRAME_050
 10
6.0035533905932743
 20
85.0
 30
0.0
 40
4.0
  1
G
  7
ISO_PROPORTIONAL
 72
     4
 11
7.5
 21
87.0
 31
0.0
  0
LINE
  5
BEC
  8
FRAME_050
 10
10.0
 20
110.0
 30
0.0
 11
5.0
 21
110.0
 31
0.0
  0
TEXT
  5
BED
  8
FRAME_050
 10
6.0999999999999988
 20
135.0
 30
0.0
 40
4.0
  1
F
  7
ISO_PROPORTIONAL
 72
     4
 11
7.5
 21
137.0
 31
0.0
  0
LINE
  5
BEE
  8
FRAME_050
 10
10.0
 20
160.0
 30
0.0
 11
5.0
 21
160.0
 31
0.0
  0
TEXT
  5
BEF
  8
FRAME_050
 10
6.0999999999999988
 20
185.0
 30
0.0
 40
4.0
  1
E
  7
ISO_PROPORTIONAL
 72
     4
 11
7.5
 21
187.0
 31
0.0
  0
LINE
  5
BF0
  8
FRAME_050
 10
153.5
 20
5.0
 30
0.0
 11
153.5
 21
10.0
 31
0.0
  0
TEXT
  5
BF1
  8
FRAME_050
 10
116.1556692913386
 20
5.3996062992125982
 30
0.0
 40
4.0
  1
2
  7
ISO_PROPORTIONAL
 72
     4
 11
117.625
 21
7.5
 31
0.0
  0
TEXT
  5
BF2
  8
FRAME_050
 10
187.89215728752529
 20
5.5828427124746138
 30
0.0
 40
4.0
  1
3
  7
ISO_PROPORTIONAL
 72
     4
 11
189.375
 21
7.5
 31
0.0
  0
LINE
  5
BF3
  8
FRAME_050
 10
225.25
 20
5.0
 30
0.0
 11
225.25
 21
10.0
 31
0.0
  0
LINE
  5
BF4
  8
FRAME_050
 10
297.0
 20
7.5
 30
0.0
 11
294.5
 21
12.5
 31
0.0
  0
LINE
  5
BF5
  8
FRAME_050
 10
287.0
 20
5.0
 30
0.0
 11
287.0
 21
10.0
 31
0.0
  0
LINE
  5
BF6
  8
FRAME_050
 10
277.0
 20
5.0
 30
0.0
 11
277.0
 21
10.0
 31
0.0
  0
LINE
  5
BF7
  8
FRAME_050
 10
267.0
 20
5.0
 30
0.0
 11
267.0
 21
10.0
 31
0.0
  0
LINE
  5
BF8
  8
FRAME_050
 10
257.0
 20
5.0
 30
0.0
 11
257.0
 21
10.0
 31
0.0
  0
LINE
  5
BF9
  8
FRAME_050
 10
247.0
 20
5.0
 30
0.0
 11
247.0
 21
10.0
 31
0.0
  0
LINE
  5
BFA
  8
FRAME_050
 10
297.0
 20
10.0
 30
0.0
 11
297.0
 21
5.0
 31
0.0
  0
LINE
  5
BFB
  8
FRAME_050
 10
297.0
 20
10.0
 30
0.0
 11
297.0
 21
15.0
 31
0.0
  0
LINE
  5
BFC
  8
FRAME_050
 10
5.0
 20
210.0
 30
0.0
 11
15.0
 21
210.0
 31
0.0
  0
LINE
  5
BFD
  8
FRAME_050
 10
7.5
 20
210.0
 30
0.0
 11
12.5
 21
212.5
 31
0.0
  0
TEXT
  5
BFE
  8
FRAME_050
 10
5.7860912703473977
 20
235.0
 30
0.0
 40
4.0
  1
D
  7
ISO_PROPORTIONAL
 72
     4
 11
7.5
 21
237.0
 31
0.0
  0
LINE
  5
BFF
  8
FRAME_050
 10
10.0
 20
260.0
 30
0.0
 11
5.0
 21
260.0
 31
0.0
  0
TEXT
  5
C00
  8
FRAME_050
 10
6.1931980515339466
 20
285.0
 30
0.0
 40
4.0
  1
C
  7
ISO_PROPORTIONAL
 72
     4
 11
7.5
 21
287.0
 31
0.0
  0
LINE
  5
C01
  8
FRAME_050
 10
10.0
 20
310.0
 30
0.0
 11
5.0
 21
310.0
 31
0.0
  0
TEXT
  5
C02
  8
FRAME_050
 10
5.8999999999999959
 20
335.0
 30
0.0
 40
4.0
  1
B
  7
ISO_PROPORTIONAL
 72
     4
 11
7.5
 21
337.0
 31
0.0
  0
LINE
  5
C03
  8
FRAME_050
 10
10.0
 20
360.0
 30
0.0
 11
5.0
 21
360.0
 31
0.0
  0
TEXT
  5
C04
  8
FRAME_050
 10
5.6999999999999993
 20
385.0
 30
0.0
 40
4.0
  1
A
  7
ISO_PROPORTIONAL
 72
     4
 11
7.5
 21
387.0
 31
0.0
  0
LINE
  5
C05
  8
FRAME_200
 10
10.0
 20
420.0
 30
0.0
 11
0.0
 21
420.0
 31
0.0
  0
LINE
  5
C06
  8
FRAME_200
 10
0.0
 20
420.0
 30
0.0
 11
0.0
 21
410.0
 31
0.0
  0
TEXT
  5
C07
  8
FRAME_050
 10
44.874999999999993
 20
410.5
 30
0.0
 40
4.0
  1
1
  7
ISO_PROPORTIONAL
 72
     4
 11
45.875
 21
412.5
 31
0.0
  0
LINE
  5
C08
  8
FRAME_050
 10
81.75
 20
410.0
 30
0.0
 11
81.75
 21
415.0
 31
0.0
  0
TEXT
  5
C09
  8
FRAME_050
 10
116.1556692913386
 20
410.39960629921262
 30
0.0
 40
4.0
  1
2
  7
ISO_PROPORTIONAL
 72
     4
 11
117.625
 21
412.5
 31
0.0
  0
LINE
  5
C0A
  8
FRAME_050
 10
153.5
 20
410.0
 30
0.0
 11
153.5
 21
415.0
 31
0.0
  0
TEXT
  5
C0B
  8
FRAME_050
 10
187.89215728752529
 20
410.58284271247459
 30
0.0
 40
4.0
  1
3
  7
ISO_PROPORTIONAL
 72
     4
 11
189.375
 21
412.5
 31
0.0
  0
LINE
  5
C0C
  8
FRAME_050
 10
297.0
 20
405.0
 30
0.0
 11
297.0
 21
415.0
 31
0.0
  0
LINE
  5
C0D
  8
FRAME_050
 10
225.25
 20
410.0
 30
0.0
 11
225.25
 21
415.0
 31
0.0
  0
TEXT
  5
C0E
  8
FRAME_050
 10
259.52499999999998
 20
410.5
 30
0.0
 40
4.0
  1
4
  7
ISO_PROPORTIONAL
 72
     4
 11
261.125
 21
412.5
 31
0.0
  0
LINE
  5
C0F
  8
FRAME_070
 10
584.0
 20
10.0
 30
0.0
 11
584.0
 21
410.0
 31
0.0
  0
ATTDEF
  5
C10
  8
FRAME_025
 10
473.0
 20
31.75
 30
0.0
 40
2.5
  1
XXX - 00/00/00
  7
ISO_PROPORTIONAL
 11
473.0
 21
33.0
 31
0.0
  3
Approved by - Date
  2
APPROVED_BY_DATE
 70
     8
 74
     2
  0
TEXT
  5
C11
  8
FRAME_025
 10
448.0
 20
41.749999999999993
 30
0.0
 40
2.5
  1
Title/Name, designation, material, dimension etc
  7
ISO_PROPORTIONAL
 11
448.0
 21
43.0
 31
0.0
 73
     2
  0
TEXT
  5
C12
  8
FRAME_025
 10
473.0
 20
35.75
 30
0.0
 40
2.5
  1
Approved by - date
  7
ISO_PROPORTIONAL
 11
473.0
 21
37.0
 31
0.0
 73
     2
  0
LINE
  5
C13
  8
FRAME_070
 10
414.0
 20
46.0
 30
0.0
 11
584.0
 21
46.0
 31
0.0
  0
LINE
  5
C14
  8
FRAME_070
 10
414.0
 20
40.0
 30
0.0
 11
584.0
 21
40.0
 31
0.0
  0
LINE
  5
C15
  8
FRAME_070
 10
414.0
 20
30.0
 30
0.0
 11
584.0
 21
30.0
 31
0.0
  0
LINE
  5
C16
  8
FRAME_050
 10
368.75
 20
5.0
 30
0.0
 11
368.75
 21
10.0
 31
0.0
  0
LINE
  5
C17
  8
FRAME_050
 10
337.0
 20
5.0
 30
0.0
 11
337.0
 21
10.0
 31
0.0
  0
LINE
  5
C18
  8
FRAME_050
 10
327.0
 20
5.0
 30
0.0
 11
327.0
 21
10.0
 31
0.0
  0
LINE
  5
C19
  8
FRAME_050
 10
317.0
 20
5.0
 30
0.0
 11
317.0
 21
10.0
 31
0.0
  0
LINE
  5
C1A
  8
FRAME_050
 10
307.0
 20
5.0
 30
0.0
 11
307.0
 21
10.0
 31
0.0
  0
LINE
  5
C1B
  8
FRAME_050
 10
347.0
 20
5.0
 30
0.0
 11
347.0
 21
10.0
 31
0.0
  0
LINE
  5
C1C
  8
FRAME_050
 10
440.5
 20
5.0
 30
0.0
 11
440.5
 21
10.0
 31
0.0
  0
TEXT
  5
C1D
  8
FRAME_050
 10
403.24547244094481
 20
5.4102362204724406
 30
0.0
 40
4.0
  1
6
  7
ISO_PROPORTIONAL
 72
     4
 11
404.62499999999989
 21
7.5
 31
0.0
  0
TEXT
  5
C1E
  8
FRAME_050
 10
474.97500000000002
 20
5.5
 30
0.0
 40
4.0
  1
7
  7
ISO_PROPORTIONAL
 72
     4
 11
476.37499999999989
 21
7.5
 31
0.0
  0
TEXT
  5
C1F
  8
FRAME_025
 10
431.0
 20
41.749999999999993
 30
0.0
 40
2.5
  1
Quantity
  7
ISO_PROPORTIONAL
 11
431.0
 21
43.0
 31
0.0
 73
     2
  0
TEXT
  5
C20
  8
FRAME_025
 10
416.0
 20
41.749999999999993
 30
0.0
 40
2.5
  1
Itemref
  7
ISO_PROPORTIONAL
 11
416.0
 21
43.0
 31
0.0
 73
     2
  0
LINE
  5
C21
  8
FRAME_070
 10
414.0
 20
40.0
 30
0.0
 11
414.0
 21
46.0
 31
0.0
  0
LINE
  5
C22
  8
FRAME_070
 10
429.0
 20
40.0
 30
0.0
 11
429.0
 21
46.0
 31
0.0
  0
LINE
  5
C23
  8
FRAME_070
 10
414.0
 20
10.0
 30
0.0
 11
414.0
 21
40.0
 31
0.0
  0
ATTDEF
  5
C24
  8
FRAME_025
 10
416.0
 20
31.75
 30
0.0
 40
2.5
  1
XXX
  7
ISO_PROPORTIONAL
 11
416.0
 21
33.0
 31
0.0
  3
Designed by
  2
DESIGNED_BY
 70
     8
 74
     2
  0
TEXT
  5
C25
  8
FRAME_025
 10
416.0
 20
35.75
 30
0.0
 40
2.5
  1
Designed by
  7
ISO_PROPORTIONAL
 11
416.0
 21
37.0
 31
0.0
 73
     2
  0
LINE
  5
C26
  8
FRAME_070
 10
446.0
 20
40.0
 30
0.0
 11
446.0
 21
46.0
 31
0.0
  0
ATTDEF
  5
C27
  8
FRAME_025
 10
448.0
 20
31.75
 30
0.0
 40
2.5
  1
XXX
  7
ISO_PROPORTIONAL
 11
448.0
 21
33.0
 31
0.0
  3
Checked by
  2
CHECKED_BY
 70
     8
 74
     2
  0
TEXT
  5
C28
  8
FRAME_025
 10
448.0
 20
35.75
 30
0.0
 40
2.5
  1
Checked by
  7
ISO_PROPORTIONAL
 11
448.0
 21
37.0
 31
0.0
 73
     2
  0
ATTDEF
  5
C29
  8
FRAME_050
 10
444.74999999999989
 20
17.5
 30
0.0
 40
5.0
  1
XXX
  7
ISO_PROPORTIONAL
 72
     4
 11
451.49999999999989
 21
20.0
 31
0.0
  3
Owner
  2
OWNER
 70
     8
  0
LINE
  5
C2A
  8
FRAME_070
 10
446.0
 20
30.0
 30
0.0
 11
446.0
 21
40.0
 31
0.0
  0
LINE
  5
C2B
  8
FRAME_070
 10
471.0
 20
30.0
 30
0.0
 11
471.0
 21
40.0
 31
0.0
  0
LINE
  5
C2C
  8
FRAME_070
 10
489.0
 20
20.0
 30
0.0
 11
584.0
 21
20.0
 31
0.0
  0
LINE
  5
C2D
  8
FRAME_050
 10
512.25
 20
5.0
 30
0.0
 11
512.25
 21
10.0
 31
0.0
  0
TEXT
  5
C2E
  8
FRAME_050
 10
546.72499999999991
 20
5.5
 30
0.0
 40
4.0
  1
8
  7
ISO_PROPORTIONAL
 72
     4
 11
548.125
 21
7.5
 31
0.0
  0
ATTDEF
  5
C2F
  8
FRAME_050
 10
517.64999999999986
 20
13.5
 30
0.0
 40
3.0
  1
X
  7
ISO_PROPORTIONAL
 72
     4
 11
519.0
 21
15.0
 31
0.0
  3
Drawing number
  2
DRAWING_NUMBER
 70
     8
  0
ATTDEF
  5
C30
  8
FRAME_050
 10
529.75
 20
22.5
 30
0.0
 40
5.0
  1
XXX
  7
ISO_PROPORTIONAL
 72
     4
 11
536.5
 21
25.0
 31
0.0
  3
Title / Name
  2
TITLE
 70
     8
  0
LINE
  5
C31
  8
FRAME_070
 10
489.0
 20
10.0
 30
0.0
 11
489.0
 21
30.0
 31
0.0
  0
ATTDEF
  5
C32
  8
FRAME_025
 10
511.0
 20
31.75
 30
0.0
 40
2.5
  1
XXX
  7
ISO_PROPORTIONAL
 11
511.0
 21
33.0
 31
0.0
  3
Filename
  2
FILENAME
 70
     8
 74
     2
  0
TEXT
  5
C33
  8
FRAME_025
 10
511.0
 20
35.75
 30
0.0
 40
2.5
  1
Filename
  7
ISO_PROPORTIONAL
 11
511.0
 21
37.0
 31
0.0
 73
     2
  0
LINE
  5
C34
  8
FRAME_070
 10
509.0
 20
30.0
 30
0.0
 11
509.0
 21
40.0
 31
0.0
  0
TEXT
  5
C35
  8
FRAME_025
 10
536.0
 20
41.749999999999993
 30
0.0
 40
2.5
  1
Article No./Reference
  7
ISO_PROPORTIONAL
 11
536.0
 21
43.0
 31
0.0
 73
     2
  0
LINE
  5
C36
  8
FRAME_070
 10
534.0
 20
40.0
 30
0.0
 11
534.0
 21
46.0
 31
0.0
  0
ATTDEF
  5
C37
  8
FRAME_025
 10
551.0
 20
11.75
 30
0.0
 40
2.5
  1
0
  7
ISO_PROPORTIONAL
 11
551.0
 21
13.0
 31
0.0
  3
Edition
  2
EDITION
 70
     8
 74
     2
  0
TEXT
  5
C38
  8
FRAME_025
 10
551.0
 20
15.75
 30
0.0
 40
2.5
  1
Edition
  7
ISO_PROPORTIONAL
 11
551.0
 21
17.0
 31
0.0
 73
     2
  0
LINE
  5
C39
  8
FRAME_070
 10
549.0
 20
10.0
 30
0.0
 11
549.0
 21
20.0
 31
0.0
  0
ATTDEF
  5
C3A
  8
FRAME_025
 10
536.0
 20
31.75
 30
0.0
 40
2.5
  1
00/00/00
  7
ISO_PROPORTIONAL
 11
536.0
 21
33.0
 31
0.0
  3
Date
  2
DATE
 70
     8
 74
     2
  0
TEXT
  5
C3B
  8
FRAME_025
 10
536.0
 20
35.75
 30
0.0
 40
2.5
  1
Date
  7
ISO_PROPORTIONAL
 11
536.0
 21
37.0
 31
0.0
 73
     2
  0
LINE
  5
C3C
  8
FRAME_070
 10
534.0
 20
30.0
 30
0.0
 11
534.0
 21
40.0
 31
0.0
  0
ATTDEF
  5
C3D
  8
FRAME_025
 10
566.0
 20
11.75
 30
0.0
 40
2.5
  1
1/1
  7
ISO_PROPORTIONAL
 11
566.0
 21
13.0
 31
0.0
  3
Sheet
  2
SHEET
 70
     8
 74
     2
  0
TEXT
  5
C3E
  8
FRAME_025
 10
566.0
 20
15.75
 30
0.0
 40
2.5
  1
Sheet
  7
ISO_PROPORTIONAL
 11
566.0
 21
17.0
 31
0.0
 73
     2
  0
LINE
  5
C3F
  8
FRAME_070
 10
564.0
 20
10.0
 30
0.0
 11
564.0
 21
20.0
 31
0.0
  0
ATTDEF
  5
C40
  8
FRAME_025
 10
566.0
 20
31.75
 30
0.0
 40
2.5
  1
1:1
  7
ISO_PROPORTIONAL
 11
566.0
 21
33.0
 31
0.0
  3
Scale
  2
SCALE
 70
     8
 74
     2
  0
TEXT
  5
C41
  8
FRAME_025
 10
566.0
 20
35.75
 30
0.0
 40
2.5
  1
Scale
  7
ISO_PROPORTIONAL
 11
566.0
 21
37.0
 31
0.0
 73
     2
  0
LINE
  5
C42
  8
FRAME_070
 10
564.0
 20
30.0
 30
0.0
 11
564.0
 21
40.0
 31
0.0
  0
LINE
  5
C43
  8
FRAME_200
 10
594.0
 20
0.0
 30
0.0
 11
594.0
 21
10.0
 31
0.0
  0
LINE
  5
C44
  8
FRAME_200
 10
594.0
 20
0.0
 30
0.0
 11
584.0
 21
0.0
 31
0.0
  0
TEXT
  5
C45
  8
FRAME_050
 10
584.89999999999998
 20
35.0
 30
0.0
 40
4.0
  1
H
  7
ISO_PROPORTIONAL
 72
     4
 11
586.5
 21
37.0
 31
0.0
  0
LINE
  5
C46
  8
FRAME_050
 10
589.0
 20
60.0
 30
0.0
 11
584.0
 21
60.0
 31
0.0
  0
TEXT
  5
C47
  8
FRAME_050
 10
585.0035533905932
 20
85.0
 30
0.0
 40
4.0
  1
G
  7
ISO_PROPORTIONAL
 72
     4
 11
586.5
 21
87.0
 31
0.0
  0
LINE
  5
C48
  8
FRAME_050
 10
589.0
 20
110.0
 30
0.0
 11
584.0
 21
110.0
 31
0.0
  0
TEXT
  5
C49
  8
FRAME_050
 10
585.09999999999991
 20
135.0
 30
0.0
 40
4.0
  1
F
  7
ISO_PROPORTIONAL
 72
     4
 11
586.5
 21
137.0
 31
0.0
  0
LINE
  5
C4A
  8
FRAME_050
 10
589.0
 20
160.0
 30
0.0
 11
584.0
 21
160.0
 31
0.0
  0
TEXT
  5
C4B
  8
FRAME_050
 10
585.09999999999991
 20
185.0
 30
0.0
 40
4.0
  1
E
  7
ISO_PROPORTIONAL
 72
     4
 11
586.5
 21
187.0
 31
0.0
  0
LINE
  5
C4C
  8
FRAME_070
 10
414.0
 20
404.0
 30
0.0
 11
584.0
 21
404.0
 31
0.0
  0
TEXT
  5
C4D
  8
FRAME_050
 10
331.39215728752538
 20
410.58284271247459
 30
0.0
 40
4.0
  1
5
  7
ISO_PROPORTIONAL
 72
     4
 11
332.875
 21
412.5
 31
0.0
  0
LINE
  5
C4E
  8
FRAME_050
 10
368.75
 20
410.0
 30
0.0
 11
368.75
 21
415.0
 31
0.0
  0
TEXT
  5
C4F
  8
FRAME_025
 10
428.0
 20
405.75
 30
0.0
 40
2.5
  1
Revision note
  7
ISO_PROPORTIONAL
 11
428.0
 21
407.0
 31
0.0
 73
     2
  0
TEXT
  5
C50
  8
FRAME_025
 10
416.0
 20
405.75
 30
0.0
 40
2.5
  1
RevNo
  7
ISO_PROPORTIONAL
 11
416.0
 21
407.0
 31
0.0
 73
     2
  0
LINE
  5
C51
  8
FRAME_070
 10
426.0
 20
404.0
 30
0.0
 11
426.0
 21
410.0
 31
0.0
  0
LINE
  5
C52
  8
FRAME_070
 10
414.0
 20
404.0
 30
0.0
 11
414.0
 21
410.0
 31
0.0
  0
TEXT
  5
C53
  8
FRAME_050
 10
403.24547244094481
 20
410.41023622047243
 30
0.0
 40
4.0
  1
6
  7
ISO_PROPORTIONAL
 72
     4
 11
404.62499999999989
 21
412.5
 31
0.0
  0
LINE
  5
C54
  8
FRAME_050
 10
440.5
 20
410.0
 30
0.0
 11
440.5
 21
415.0
 31
0.0
  0
TEXT
  5
C55
  8
FRAME_050
 10
474.97500000000002
 20
410.5
 30
0.0
 40
4.0
  1
7
  7
ISO_PROPORTIONAL
 72
     4
 11
476.37499999999989
 21
412.5
 31
0.0
  0
LINE
  5
C56
  8
FRAME_050
 10
579.0
 20
210.0
 30
0.0
 11
589.0
 21
210.0
 31
0.0
  0
TEXT
  5
C57
  8
FRAME_050
 10
584.78609127034736
 20
235.0
 30
0.0
 40
4.0
  1
D
  7
ISO_PROPORTIONAL
 72
     4
 11
586.5
 21
237.0
 31
0.0
  0
LINE
  5
C58
  8
FRAME_050
 10
589.0
 20
260.0
 30
0.0
 11
584.0
 21
260.0
 31
0.0
  0
TEXT
  5
C59
  8
FRAME_050
 10
585.19319805153395
 20
285.0
 30
0.0
 40
4.0
  1
C
  7
ISO_PROPORTIONAL
 72
     4
 11
586.5
 21
287.0
 31
0.0
  0
LINE
  5
C5A
  8
FRAME_050
 10
589.0
 20
310.0
 30
0.0
 11
584.0
 21
310.0
 31
0.0
  0
TEXT
  5
C5B
  8
FRAME_050
 10
584.89999999999998
 20
335.0
 30
0.0
 40
4.0
  1
B
  7
ISO_PROPORTIONAL
 72
     4
 11
586.5
 21
337.0
 31
0.0
  0
TEXT
  5
C5C
  8
FRAME_025
 10
571.08299391850551
 20
405.75
 30
0.0
 40
2.5
  1
Checked
  7
ISO_PROPORTIONAL
 11
571.08299391850551
 21
407.0
 31
0.0
 73
     2
  0
TEXT
  5
C5D
  8
FRAME_025
 10
555.36099797283532
 20
405.75
 30
0.0
 40
2.5
  1
Signature
  7
ISO_PROPORTIONAL
 11
555.36099797283532
 21
407.0
 31
0.0
 73
     2
  0
TEXT
  5
C5E
  8
FRAME_025
 10
537.0
 20
405.75
 30
0.0
 40
2.5
  1
Date
  7
ISO_PROPORTIONAL
 11
537.0
 21
407.0
 31
0.0
 73
     2
  0
LINE
  5
C5F
  8
FRAME_070
 10
570.0
 20
404.0
 30
0.0
 11
570.0
 21
410.0
 31
0.0
  0
LINE
  5
C60
  8
FRAME_070
 10
555.0
 20
404.0
 30
0.0
 11
555.0
 21
410.0
 31
0.0
  0
LINE
  5
C61
  8
FRAME_070
 10
535.0
 20
404.0
 30
0.0
 11
535.0
 21
410.0
 31
0.0
  0
LINE
  5
C62
  8
FRAME_050
 10
512.25
 20
410.0
 30
0.0
 11
512.25
 21
415.0
 31
0.0
  0
TEXT
  5
C63
  8
FRAME_050
 10
546.72499999999991
 20
410.5
 30
0.0
 40
4.0
  1
8
  7
ISO_PROPORTIONAL
 72
     4
 11
548.125
 21
412.5
 31
0.0
  0
LINE
  5
C64
  8
FRAME_050
 10
589.0
 20
360.0
 30
0.0
 11
584.0
 21
360.0
 31
0.0
  0
TEXT
  5
C65
  8
FRAME_050
 10
584.70000000000005
 20
385.0
 30
0.0
 40
4.0
  1
A
  7
ISO_PROPORTIONAL
 72
     4
 11
586.5
 21
387.0
 31
0.0
  0
LINE
  5
C66
  8
FRAME_200
 10
594.0
 20
420.0
 30
0.0
 11
584.0
 21
420.0
 31
0.0
  0
LINE
  5
C67
  8
FRAME_200
 10
594.0
 20
410.0
 30
0.0
 11
594.0
 21
420.0
 31
0.0
  0
ENDBLK
  5
C69
  8
0
  0
BLOCK
  8
0
  2
WOBB001END
 70
     0
 10
0.0
 20
0.0
 30
0.0
  3
WOBB001END
  1

  0
LINE
  5
4D66
  8
0
  6
CONTINUOUS
 10
0.0
 20
0.0
 30
0.0
 11
0.8749999999999998
 21
0.0
 31
0.0
  0
ARC
  5
4D67
  8
0
  6
CONTINUOUS
 10
0.0331648379439287
 20
-0.5087238935900232
 30
0.0
 40
0.8790130605592325
 50
284.06490243660443
 51
312.19222981924361
  0
ARC
  5
4D68
  8
0
  6
CONTINUOUS
 10
0.2841534338796767
 20
-1.510548310625538
 30
0.0
 40
0.1537731892806598
 50
104.0649024366044
 51
179.4721730735024
  0
LINE
  5
4D69
  8
0
  6
CONTINUOUS
 10
0.0
 20
0.0
 30
0.0
 11
-0.0000000000000003
 21
-1.7501564476661919
 31
0.0
  0
ARC
  5
4D6A
  8
0
  6
CONTINUOUS
 10
0.1404622019506122
 20
-1.6303137183546199
 30
0.0
 40
0.1198427293115722
 50
275.0
 51
85.000000000000057
  0
LINE
  5
4D6B
  8
0
  6
CONTINUOUS
 10
-0.0000000000000003
 20
-1.7501564476661919
 30
0.0
 11
0.1456946485130855
 21
-1.7501564476661919
 31
0.0
  0
LINE
  5
4D6C
  8
0
  6
CONTINUOUS
 10
0.1377603739254348
 20
-1.7508506067459131
 30
0.0
 11
0.150907184036669
 21
-1.749700409899652
 31
0.0
  0
LINE
  5
4D6D
  8
0
  6
CONTINUOUS
 10
0.1303867696719884
 20
-1.5091317231818231
 30
0.0
 11
0.1509071840366689
 21
-1.5109270268095869
 31
0.0
  0
LINE
  5
4D6E
  8
0
  6
CONTINUOUS
 10
0.8749999999999998
 20
0.0
 30
0.0
 11
0.8749999999999996
 21
-0.8649327026588228
 31
0.0
  0
LINE
  5
4D6F
  8
0
  6
CONTINUOUS
 10
0.727014513830997
 20
-0.8726882933550612
 30
0.0
 11
0.727014513830997
 21
-0.9264923397184784
 31
0.0
  0
ARC
  5
4D70
  8
0
  6
CONTINUOUS
 10
0.41187090827646
 20
-0.9264923397184784
 30
0.0
 40
0.315143605554537
 50
312.19222981924361
 51
0.0
  0
LINE
  5
4D71
  8
0
  6
CONTINUOUS
 10
0.727014513830997
 20
-0.8726882933550612
 30
0.0
 11
0.8749999999999996
 21
-0.8649327026588228
 31
0.0
  0
ENDBLK
  5
4D72
  8
0
  0
BLOCK
  8
0
  2
A$C0A61123B
 70
     0
 10
0.0
 20
0.0
 30
0.0
  3
A$C0A61123B
  1

  0
LINE
  5
C0AD
  8
PROF
  6
CONTINUOUS
 10
4.9012016798694162
 20
13.325025853350891
 30
0.0000000000000002
 11
4.9012016798694162
 21
12.88585218805485
 31
0.0000000000000003
  0
INSERT
  5
C0AE
  8
0
  2
*U6
 10
0.0
 20
0.0
 30
0.0
  0
LINE
  5
C0AF
  8
PROF
 10
4.5198575031869259
 20
12.72227734589444
 30
0.0000000000000001
 11
4.5198575031869259
 21
12.88585218805485
 31
0.0000000000000001
  0
LINE
  5
C0B0
  8
PROF
  6
CONTINUOUS
 10
3.6306271195888371
 20
13.325025853350891
 30
0.0000000000000002
 11
4.9012016798694162
 21
13.325025853350891
 31
0.0000000000000002
  0
LINE
  5
C0B1
  8
PROF
 10
1.9750295148747341
 20
10.37671325491794
 30
0.0000000000000002
 11
1.9750295148747341
 21
10.11391186758919
 31
0.0000000000000002
  0
LINE
  5
C0B2
  8
PROF
 10
1.607967335755631
 20
10.11391186758919
 30
0.0000000000000001
 11
1.9750295148747341
 21
10.11391186758919
 31
0.0000000000000001
  0
LINE
  5
C0B3
  8
PROF
 10
1.9750295148747341
 20
10.11391186758919
 30
0.0000000000000001
 11
1.944958486898144
 21
10.11391186758919
 31
0.0000000000000001
  0
LINE
  5
C0B4
  8
PROF
 10
1.9750295148747341
 20
10.11391186758919
 30
0.0000000000000001
 11
1.944958486898144
 21
10.11391186758919
 31
0.0000000000000001
  0
LINE
  5
C0B5
  8
PROF
 10
0.3222605517169654
 20
7.5247473351056442
 30
-0.0000000000000002
 11
-0.0000008570117416
 21
7.5247473351056442
 31
0.0
  0
LINE
  5
C0B6
  8
PROF
 10
-0.0000008570117416
 20
7.5247473351056442
 30
0.0
 11
-0.0000008570117416
 21
9.1943336957369866
 31
0.0
  0
POLYLINE
  5
C0B7
  8
PROF
 66
     1
 10
0.0
 20
0.0
 30
0.0000000000000001
 70
     4
 75
     6
  0
VERTEX
  5
C0B8
  8
PROF
 10
1.607967335755631
 20
10.11391186758919
 30
0.0000000000000001
 70
    16
  0
VERTEX
  5
C0B9
  8
PROF
 10
1.607967335755631
 20
10.11391186758919
 30
0.0000000000000001
 70
     8
  0
VERTEX
  5
C0BA
  8
PROF
 10
1.646813232648582
 20
10.02198069336111
 30
0.0000000000000001
 70
     8
  0
VERTEX
  5
C0BB
  8
PROF
 10
1.67335966680929
 20
9.9344134163010267
 30
0.0000000000000001
 70
     8
  0
VERTEX
  5
C0BC
  8
PROF
 10
1.689008640046324
 20
9.8512576644480987
 30
0.0000000000000001
 70
     8
  0
VERTEX
  5
C0BD
  8
PROF
 10
1.695162154168258
 20
9.7725610658417281
 30
0.0000000000000001
 70
     8
  0
VERTEX
  5
C0BE
  8
PROF
 10
1.6932222109836059
 20
9.6983712485214255
 30
0.0000000000000001
 70
     8
  0
VERTEX
  5
C0BF
  8
PROF
 10
1.6845908123009961
 20
9.6287358405263603
 30
0.0000000000000001
 70
     8
  0
VERTEX
  5
C0C0
  8
PROF
 10
1.6706699599288859
 20
9.5637024698960431
 30
0.0000000000000001
 70
     8
  0
VERTEX
  5
C0C1
  8
PROF
 10
1.6528616556759621
 20
9.503318764669757
 30
0.0000000000000001
 70
     8
  0
VERTEX
  5
C0C2
  8
PROF
 10
1.6323562992730549
 20
9.4475843259650674
 30
0.0000000000000001
 70
     8
  0
VERTEX
  5
C0C3
  8
PROF
 10
1.609497882140658
 20
9.3963066472123273
 30
0.0000000000000001
 70
     8
  0
VERTEX
  5
C0C4
  8
PROF
 10
1.584418793621637
 20
9.3492451949202842
 30
0.0000000000000001
 70
     8
  0
VERTEX
  5
C0C5
  8
PROF
 10
1.557251423058744
 20
9.3061594355972375
 30
0.0000000000000001
 70
     8
  0
VERTEX
  5
C0C6
  8
PROF
 10
1.5281281597949601
 20
9.2668088357519292
 30
0.0000000000000001
 70
     8
  0
VERTEX
  5
C0C7
  8
PROF
 10
1.4971813931729789
 20
9.2309528618930017
 30
0.0000000000000001
 70
     8
  0
VERTEX
  5
C0C8
  8
PROF
 10
1.464543512535726
 20
9.1983509805288577
 30
0.0000000000000001
 70
     8
  0
VERTEX
  5
C0C9
  8
PROF
 10
1.4303469072260091
 20
9.1687626581682462
 30
0.0000000000000001
 70
     8
  0
VERTEX
  5
C0CA
  8
PROF
 10
1.3947360332574019
 20
9.1419547918675335
 30
0.0000000000000001
 70
     8
  0
VERTEX
  5
C0CB
  8
PROF
 10
1.3579036133264131
 20
9.1177240008747731
 30
0.0000000000000001
 70
     8
  0
VERTEX
  5
C0CC
  8
PROF
 10
1.3200544368004321
 20
9.0958743349860924
 30
0.0000000000000001
 70
     8
  0
VERTEX
  5
C0CD
  8
PROF
 10
1.281393293046676
 20
9.0762098439975034
 30
0.0000000000000001
 70
     8
  0
VERTEX
  5
C0CE
  8
PROF
 10
1.242124971432417
 20
9.0585345777049042
 30
0.0000000000000001
 70
     8
  0
VERTEX
  5
C0CF
  8
PROF
 10
1.2024542613249869
 20
9.0426525859044204
 30
0.0000000000000001
 70
     8
  0
VERTEX
  5
C0D0
  8
PROF
 10
1.1625859520916599
 20
9.0283679183919503
 30
0.0000000000000001
 70
     8
  0
VERTEX
  5
C0D1
  8
PROF
 10
1.1227248330997091
 20
9.0154846249635057
 30
0.0000000000000001
 70
     8
  0
VERTEX
  5
C0D2
  8
PROF
 10
1.0829726247361
 20
9.0034643862466055
 30
0.0000000000000001
 70
     8
  0
VERTEX
  5
C0D3
  8
PROF
 10
1.043018771466222
 20
8.9903994061946833
 30
0.0000000000000001
 70
     8
  0
VERTEX
  5
C0D4
  8
PROF
 10
1.002449648775211
 20
8.9740395195925657
 30
0.0000000000000001
 70
     8
  0
VERTEX
  5
C0D5
  8
PROF
 10
0.9608516321480919
 20
8.9521345612251935
 30
0.0000000000000001
 70
     8
  0
VERTEX
  5
C0D6
  8
PROF
 10
0.9178110970699435
 20
8.9224343658775052
 30
0.0000000000000001
 70
     8
  0
VERTEX
  5
C0D7
  8
PROF
 10
0.8729144190259034
 20
8.8826887683343312
 30
0.0000000000000001
 70
     8
  0
VERTEX
  5
C0D8
  8
PROF
 10
0.8257479735009951
 20
8.8306476033806121
 30
0.0000000000000001
 70
     8
  0
VERTEX
  5
C0D9
  8
PROF
 10
0.7758981359802988
 20
8.764060705801171
 30
0.0000000000000001
 70
     8
  0
VERTEX
  5
C0DA
  8
PROF
 10
1.729201901609656
 20
9.8629858761255491
 30
0.0000000000000001
 70
    16
  0
VERTEX
  5
C0DB
  8
PROF
 10
1.6793731231140889
 20
9.4532143012734196
 30
0.0000000000000001
 70
    16
  0
VERTEX
  5
C0DC
  8
PROF
 10
1.4455611507419801
 20
9.1391837193732481
 30
0.0000000000000001
 70
    16
  0
VERTEX
  5
C0DD
  8
PROF
 10
1.120463717273821
 20
9.0026267702428413
 30
0.0000000000000001
 70
    16
  0
VERTEX
  5
C0DE
  8
PROF
 10
0.9127765582653638
 20
8.9630202230383702
 30
0.0000000000000001
 70
    16
  0
VERTEX
  5
C0DF
  8
PROF
 10
0.7758981359802988
 20
8.764060705801171
 30
0.0000000000000001
 70
    16
  0
SEQEND
  5
C0E0
  8
PROF
  0
ARC
  5
C0E1
  8
PROF
 10
0.733429816733235
 20
8.4849506952165257
 30
0.0000000000000001
 40
0.2823224329524727
 50
269.73652020831901
 51
81.348449993176914
  0
LINE
  5
C0E2
  8
PROF
  6
CONTINUOUS
 10
-0.0000008570117416
 20
9.1943336957369866
 30
-0.0000000000000001
 11
3.6306271195888371
 21
13.325025853350891
 31
0.0000000000000002
  0
POLYLINE
  5
C0E3
  8
PROF
 66
     1
 10
0.0
 20
0.0
 30
0.0000000000000001
 70
     4
 75
     6
  0
VERTEX
  5
C0E4
  8
PROF
 10
4.5198575031869259
 20
12.72227734589444
 30
0.0000000000000001
 70
    16
  0
VERTEX
  5
C0E5
  8
PROF
 10
4.5198575031869259
 20
12.72227734589444
 30
0.0000000000000001
 70
     8
  0
VERTEX
  5
C0E6
  8
PROF
 10
4.4467035366886298
 20
12.741128108778071
 30
0.0000000000000001
 70
     8
  0
VERTEX
  5
C0E7
  8
PROF
 10
4.3786645761268801
 20
12.754675269913941
 30
0.0000000000000001
 70
     8
  0
VERTEX
  5
C0E8
  8
PROF
 10
4.3154364111440477
 20
12.76334314092332
 30
0.0000000000000001
 70
     8
  0
VERTEX
  5
C0E9
  8
PROF
 10
4.256714831382566
 20
12.76755603342724
 30
0.0000000000000001
 70
     8
  0
VERTEX
  5
C0EA
  8
PROF
 10
4.2021956264849791
 20
12.76773825904672
 30
0.0000000000000001
 70
     8
  0
VERTEX
  5
C0EB
  8
PROF
 10
4.1515745860935453
 20
12.764314129403139
 30
0.0000000000000001
 70
     8
  0
VERTEX
  5
C0EC
  8
PROF
 10
4.1045474998508658
 20
12.75770795611743
 30
0.0000000000000001
 70
     8
  0
VERTEX
  5
C0ED
  8
PROF
 10
4.0608101573993158
 20
12.748344050810831
 30
0.0000000000000001
 70
     8
  0
VERTEX
  5
C0EE
  8
PROF
 10
4.0200583483813261
 20
12.736646725104491
 30
0.0000000000000001
 70
     8
  0
VERTEX
  5
C0EF
  8
PROF
 10
3.9819878624393819
 20
12.72304029061945
 30
0.0000000000000001
 70
     8
  0
VERTEX
  5
C0F0
  8
PROF
 10
3.946294489215858
 20
12.707949058976959
 30
0.0000000000000001
 70
     8
  0
VERTEX
  5
C0F1
  8
PROF
 10
3.9126740183532429
 20
12.691797341798059
 30
0.0000000000000001
 70
     8
  0
VERTEX
  5
C0F2
  8
PROF
 10
3.8808638350742508
 20
12.67494295718654
 30
0.0000000000000001
 70
     8
  0
VERTEX
  5
C0F3
  8
PROF
 10
3.850767706922738
 20
12.65747774917668
 30
0.0000000000000001
 70
     8
  0
VERTEX
  5
C0F4
  8
PROF
 10
3.8223309970228452
 20
12.639427068285499
 30
0.0000000000000001
 70
     8
  0
VERTEX
  5
C0F5
  8
PROF
 10
3.7954990684987129
 20
12.62081626503004
 30
0.0000000000000001
 70
     8
  0
VERTEX
  5
C0F6
  8
PROF
 10
3.7702172844744828
 20
12.601670689926999
 30
0.0000000000000001
 70
     8
  0
VERTEX
  5
C0F7
  8
PROF
 10
3.746431008074353
 20
12.58201569349364
 30
0.0000000000000001
 70
     8
  0
VERTEX
  5
C0F8
  8
PROF
 10
3.7240856024224618
 20
12.56187662624666
 30
0.0000000000000001
 70
     8
  0
VERTEX
  5
C0F9
  8
PROF
 10
3.7031264306428961
 20
12.541278838703191
 30
0.0000000000000001
 70
     8
  0
VERTEX
  5
C0FA
  8
PROF
 10
3.6834988558599089
 20
12.520247681380051
 30
0.0000000000000001
 70
     8
  0
VERTEX
  5
C0FB
  8
PROF
 10
3.665148241197528
 20
12.49880850479428
 30
0.0000000000000001
 70
     8
  0
VERTEX
  5
C0FC
  8
PROF
 10
3.6480199497799499
 20
12.47698665946279
 30
0.0000000000000001
 70
     8
  0
VERTEX
  5
C0FD
  8
PROF
 10
3.6320593447313172
 20
12.45480749590263
 30
0.0000000000000001
 70
     8
  0
VERTEX
  5
C0FE
  8
PROF
 10
3.6171895848866589
 20
12.43223790353807
 30
0.0000000000000001
 70
     8
  0
VERTEX
  5
C0FF
  8
PROF
 10
3.6032450119242858
 20
12.40901092742285
 30
0.0000000000000001
 70
     8
  0
VERTEX
  5
C100
  8
PROF
 10
3.590037763233453
 20
12.38480115151844
 30
0.0000000000000001
 70
     8
  0
VERTEX
  5
C101
  8
PROF
 10
3.5773799762033032
 20
12.35928315978594
 30
0.0000000000000001
 70
     8
  0
VERTEX
  5
C102
  8
PROF
 10
3.5650837882230908
 20
12.33213153618658
 30
0.0000000000000001
 70
     8
  0
VERTEX
  5
C103
  8
PROF
 10
3.5529613366819599
 20
12.303020864681571
 30
0.0000000000000001
 70
     8
  0
VERTEX
  5
C104
  8
PROF
 10
3.540824758969165
 20
12.271625729232371
 30
0.0000000000000001
 70
     8
  0
VERTEX
  5
C105
  8
PROF
 10
3.5284861924738489
 20
12.23762071379997
 30
0.0000000000000001
 70
     8
  0
VERTEX
  5
C106
  8
PROF
 10
3.5157577745852668
 20
12.200680402345711
 30
0.0000000000000001
 70
     8
  0
VERTEX
  5
C107
  8
PROF
 10
3.5024516426926189
 20
12.16047937883093
 30
0.0000000000000001
 70
     8
  0
VERTEX
  5
C108
  8
PROF
 10
3.4883799341851041
 20
12.116692227216619
 30
0.0000000000000001
 70
     8
  0
VERTEX
  5
C109
  8
PROF
 10
3.4733547864519201
 20
12.06899353146423
 30
0.0000000000000001
 70
     8
  0
VERTEX
  5
C10A
  8
PROF
 10
3.45723654619428
 20
12.0172095445447
 30
0.0000000000000001
 70
     8
  0
VERTEX
  5
C10B
  8
PROF
 10
3.4400783973613889
 20
11.961773195467799
 30
0.0000000000000001
 70
     8
  0
VERTEX
  5
C10C
  8
PROF
 10
3.421981733214579
 20
11.90326908225302
 30
0.0000000000000001
 70
     8
  0
VERTEX
  5
C10D
  8
PROF
 10
3.4030479470150108
 20
11.842281802919951
 30
0.0000000000000001
 70
     8
  0
VERTEX
  5
C10E
  8
PROF
 10
3.383378432024017
 20
11.779395955487979
 30
0.0000000000000001
 70
     8
  0
VERTEX
  5
C10F
  8
PROF
 10
3.3630745815028709
 20
11.715196137976809
 30
0.0000000000000001
 70
     8
  0
VERTEX
  5
C110
  8
PROF
 10
3.3422377887127359
 20
11.650266948405831
 30
0.0000000000000001
 70
     8
  0
VERTEX
  5
C111
  8
PROF
 10
3.320969446915
 20
11.58519298479461
 30
0.0000000000000001
 70
     8
  0
VERTEX
  5
C112
  8
PROF
 10
3.2993709493707679
 20
11.520558845162549
 30
0.0000000000000001
 70
     8
  0
VERTEX
  5
C113
  8
PROF
 10
3.277543689341428
 20
11.456949127529469
 30
0.0000000000000001
 70
     8
  0
VERTEX
  5
C114
  8
PROF
 10
3.2555890600881412
 20
11.3949484299145
 30
0.0000000000000001
 70
     8
  0
VERTEX
  5
C115
  8
PROF
 10
3.233608454872182
 20
11.335141350337491
 30
0.0000000000000001
 70
     8
  0
VERTEX
  5
C116
  8
PROF
 10
3.2116715641212181
 20
11.27799544797778
 30
0.0000000000000001
 70
     8
  0
VERTEX
  5
C117
  8
PROF
 10
3.189721266927847
 20
11.22351012665467
 30
0.0000000000000001
 70
     8
  0
VERTEX
  5
C118
  8
PROF
 10
3.1676687395512881
 20
11.17156775134765
 30
0.0000000000000001
 70
     8
  0
VERTEX
  5
C119
  8
PROF
 10
3.1454251582505321
 20
11.12205068703588
 30
0.0000000000000001
 70
     8
  0
VERTEX
  5
C11A
  8
PROF
 10
3.122901699284625
 20
11.07484129869874
 30
0.0000000000000001
 70
     8
  0
VERTEX
  5
C11B
  8
PROF
 10
3.1000095389127291
 20
11.02982195131551
 30
0.0000000000000001
 70
     8
  0
VERTEX
  5
C11C
  8
PROF
 10
3.0766598533938909
 20
10.986875009865679
 30
0.0000000000000001
 70
     8
  0
VERTEX
  5
C11D
  8
PROF
 10
3.0527638189871591
 20
10.9458828393283
 30
0.0000000000000001
 70
     8
  0
VERTEX
  5
C11E
  8
PROF
 10
3.0282326119516361
 20
10.90672780468298
 30
0.0000000000000001
 70
     8
  0
VERTEX
  5
C11F
  8
PROF
 10
3.002977408546371
 20
10.869292270908771
 30
0.0000000000000001
 70
     8
  0
VERTEX
  5
C120
  8
PROF
 10
2.9769093850304098
 20
10.833458602985161
 30
0.0000000000000001
 70
     8
  0
VERTEX
  5
C121
  8
PROF
 10
2.9499397176628568
 20
10.799109165891419
 30
0.0000000000000001
 70
     8
  0
VERTEX
  5
C122
  8
PROF
 10
2.9220006098404379
 20
10.76614363969508
 30
0.0000000000000001
 70
     8
  0
VERTEX
  5
C123
  8
PROF
 10
2.8931083735103011
 20
10.7345309648158
 30
0.0000000000000001
 70
     8
  0
VERTEX
  5
C124
  8
PROF
 10
2.8633003477572738
 20
10.70425739676193
 30
0.0000000000000001
 70
     8
  0
VERTEX
  5
C125
  8
PROF
 10
2.8326138716660689
 20
10.67530919104115
 30
0.0000000000000001
 70
     8
  0
VERTEX
  5
C126
  8
PROF
 10
2.8010862843216269
 20
10.647672603161711
 30
0.0000000000000001
 70
     8
  0
VERTEX
  5
C127
  8
PROF
 10
2.7687549248087171
 20
10.62133388863162
 30
0.0000000000000001
 70
     8
  0
VERTEX
  5
C128
  8
PROF
 10
2.735657132212054
 20
10.5962793029588
 30
0.0000000000000001
 70
     8
  0
VERTEX
  5
C129
  8
PROF
 10
2.7018302456165202
 20
10.572495101651381
 30
0.0000000000000001
 70
     8
  0
VERTEX
  5
C12A
  8
PROF
 10
2.6673116041068852
 20
10.54996754021726
 30
0.0000000000000001
 70
     8
  0
VERTEX
  5
C12B
  8
PROF
 10
2.6321385467680321
 20
10.528682874164581
 30
0.0000000000000001
 70
     8
  0
VERTEX
  5
C12C
  8
PROF
 10
2.5963484126846188
 20
10.508627359001251
 30
0.0000000000000001
 70
     8
  0
VERTEX
  5
C12D
  8
PROF
 10
2.5599785409415849
 20
10.489787250235279
 30
0.0000000000000001
 70
     8
  0
VERTEX
  5
C12E
  8
PROF
 10
2.522998630314361
 20
10.472162234281081
 30
0.0000000000000001
 70
     8
  0
VERTEX
  5
C12F
  8
PROF
 10
2.4851078183409072
 20
10.455805721177621
 30
0.0000000000000001
 70
     8
  0
VERTEX
  5
C130
  8
PROF
 10
2.4459376022498982
 20
10.44078455187036
 30
0.0000000000000001
 70
     8
  0
VERTEX
  5
C131
  8
PROF
 10
2.4051194792701258
 20
10.42716556730465
 30
0.0000000000000001
 70
     8
  0
VERTEX
  5
C132
  8
PROF
 10
2.3622849466301541
 20
10.415015608425851
 30
0.0000000000000001
 70
     8
  0
VERTEX
  5
C133
  8
PROF
 10
2.3170655015587149
 20
10.40440151617929
 30
0.0000000000000001
 70
     8
  0
VERTEX
  5
C134
  8
PROF
 10
2.2690926412844301
 20
10.395390131510339
 30
0.0000000000000001
 70
     8
  0
VERTEX
  5
C135
  8
PROF
 10
2.2179978630360888
 20
10.388048295364451
 30
0.0000000000000001
 70
     8
  0
VERTEX
  5
C136
  8
PROF
 10
2.1634126640422551
 20
10.38244284868688
 30
0.0000000000000001
 70
     8
  0
VERTEX
  5
C137
  8
PROF
 10
2.104968541531604
 20
10.37864063242295
 30
0.0000000000000001
 70
     8
  0
VERTEX
  5
C138
  8
PROF
 10
2.0422969927328718
 20
10.37670848751816
 30
0.0000000000000001
 70
     8
  0
VERTEX
  5
C139
  8
PROF
 10
1.9750295148747341
 20
10.37671325491794
 30
0.0000000000000001
 70
     8
  0
VERTEX
  5
C13A
  8
PROF
 10
4.2166060115107484
 20
12.80885334975255
 30
0.0000000000000001
 70
    16
  0
VERTEX
  5
C13B
  8
PROF
 10
3.8702254102732918
 20
12.707065515763929
 30
0.0000000000000001
 70
    16
  0
VERTEX
  5
C13C
  8
PROF
 10
3.605346156896871
 20
12.46277472098552
 30
0.0000000000000001
 70
    16
  0
VERTEX
  5
C13D
  8
PROF
 10
3.500746030527238
 20
12.170680575709749
 30
0.0000000000000001
 70
    16
  0
VERTEX
  5
C13E
  8
PROF
 10
3.231798439705698
 20
11.26846416496107
 30
0.0000000000000001
 70
    16
  0
VERTEX
  5
C13F
  8
PROF
 10
2.9737109398832891
 20
10.76631086647069
 30
0.0000000000000001
 70
    16
  0
VERTEX
  5
C140
  8
PROF
 10
2.5729961067384011
 20
10.460947364504699
 30
0.0000000000000001
 70
    16
  0
VERTEX
  5
C141
  8
PROF
 10
2.253782621454604
 20
10.372731239449759
 30
0.0000000000000001
 70
    16
  0
VERTEX
  5
C142
  8
PROF
 10
1.9750295148747341
 20
10.37671325491794
 30
0.0000000000000001
 70
    16
  0
SEQEND
  5
C143
  8
PROF
  0
LINE
  5
C144
  8
PROF
 10
4.9012016798694162
 20
12.88585218805485
 30
0.0000000000000003
 11
4.5198575031869259
 21
12.88585218805485
 31
0.0000000000000003
  0
LINE
  5
C145
  8
PROF
 10
0.7321315362267457
 20
8.2026312473991538
 30
0.0000000000000006
 11
0.7321315362267457
 21
8.0511853963434987
 31
0.0000000000000006
  0
ARC
  5
C146
  8
PROF
 10
0.7977322214551919
 20
7.5773339332026799
 30
0.0000000000000006
 40
0.4783708383912012
 50
97.882010168942529
 51
186.31119505698649
  0
LINE
  5
C147
  8
FRAME_050
 10
7.8016377197432121
 20
17.99371054969447
 30
0.0
 11
7.8016377197432121
 21
0.0000000000002274
 31
0.0
  0
ENDBLK
  5
C149
  8
0
  0
BLOCK
  8
0
  2
A$C3A7C6791
 70
     0
 10
0.0
 20
0.0
 30
0.0
  3
A$C3A7C6791
  1

  0
ARC
  5
1A561
  8
0
 10
1.0342682520551421
 20
11.169869575314801
 30
0.0
 40
0.3900479059662017
 50
183.5871702804647
 51
250.12003892297869
  0
ARC
  5
1A562
  8
0
 10
0.3331235273064408
 20
14.96835148878222
 30
0.0
 40
0.279776987736341
 50
290.26301102890392
 51
72.509116341854423
  0
ARC
  5
1A563
  8
0
 10
0.7948887850711232
 20
10.60700392177659
 30
0.0
 40
0.2232361910347119
 50
300.2914142988875
 51
61.434469032044603
  0
LINE
  5
1A564
  8
0
 10
-0.0000015027120526
 20
9.7351929270671462
 30
0.0
 11
1.0332573394856579
 21
9.7351929270671462
 31
0.0
  0
LINE
  5
1A565
  8
0
 10
1.0332573394856579
 20
10.377304601683591
 30
0.0
 11
0.9074887268004658
 21
10.377304601683591
 31
0.0
  0
LINE
  5
1A566
  8
0
 10
0.6449845421777241
 20
11.145465432783791
 30
0.0
 11
0.5554296092705046
 21
11.181249222917581
 31
0.0
  0
LINE
  5
1A567
  8
0
 10
0.5554296092705046
 20
14.67010534946894
 30
0.0
 11
0.430018718777319
 21
14.67010534946894
 31
0.0
  0
LINE
  5
1A568
  8
0
 10
0.4172116339615855
 20
15.235192927067139
 30
0.0
 11
-0.0000015027120526
 21
15.235192927067139
 31
0.0
  0
LINE
  5
1A569
  8
0
 10
-0.0000015027120526
 20
15.235192927067139
 30
0.0
 11
-0.0000015027120526
 21
9.7351929270671462
 31
0.0
  0
LINE
  5
1A56A
  8
0
 10
1.0332573394856579
 20
9.7351929270671462
 30
0.0
 11
1.0332573394856579
 21
10.377304601683591
 31
0.0
  0
LINE
  5
1A56B
  8
0
 10
0.9074887268004658
 20
10.377304601683591
 30
0.0
 11
0.9074887268003521
 21
10.414245912577821
 31
0.0
  0
LINE
  5
1A56C
  8
0
 10
0.5554296092705046
 20
11.181249222917581
 30
0.0
 11
0.5554296092705046
 21
14.67010534946894
 31
0.0
  0
LINE
  5
1A56D
  8
0
 10
0.430018718777319
 20
14.67010534946894
 30
0.0
 11
0.4300187187771485
 21
14.705889139602959
 31
0.0
  0
INSERT
  5
1A56E
  8
0
  2
*U7
 10
0.0
 20
0.0
 30
0.0
  0
LINE
  5
1A56F
  8
FRAME_050
 10
5.1382720395286006
 20
17.993710579095019
 30
0.0
 11
5.1382720395286006
 21
0.0000000294007805
 31
0.0
  0
ENDBLK
  5
1A571
  8
0
  0
BLOCK
  8
0
  2
*U6
 70
     1
 10
0.0
 20
0.0
 30
0.0
  3
*U6
  1

  0
TEXT
  5
247D8
  8
0
 10
3.5177832928899071
 20
10.38601584255777
 30
0.0
 40
0.125
  1
Crown Moulding
  0
TEXT
  5
247D9
  8
0
 10
3.5223876585106431
 20
10.17717091304435
 30
0.0
 40
0.125
  1
TL-AB509
  0
TEXT
  5
247DA
  8
0
 10
3.5074661032582561
 20
9.9667059289606801
 30
0.0
 40
0.125
  1
1-5/16" x 7-9/16"
  0
TEXT
  5
247DB
  8
0
 10
3.519403347460166
 20
9.7562409448770051
 30
0.0
 40
0.125
  1
800.66.TAGUE
  0
ENDBLK
  5
247DD
  8
0
  0
BLOCK
  8
0
  2
*U7
 70
     1
 10
0.0
 20
0.0
 30
0.0
  3
*U7
  1

  0
TEXT
  5
247DF
  8
0
 10
1.4086740032724709
 20
13.04264108713495
 30
0.0
 40
0.125
  1
Casing
  0
TEXT
  5
247E0
  8
0
 10
1.4132783688932069
 20
12.83379615762154
 30
0.0
 40
0.125
  1
TL-2019
  0
TEXT
  5
247E1
  8
0
 10
1.39835681364082
 20
12.62333117353786
 30
0.0
 40
0.125
  1
1-1/16" x 5-1/2"
  0
TEXT
  5
247E2
  8
0
 10
1.4102940578427301
 20
12.41286618945419
 30
0.0
 40
0.125
  1
800.66.TAGUE
  0
ENDBLK
  5
247E4
  8
0
  0
BLOCK
  8
0
  2
*U8
 70
     1
 10
0.0
 20
0.0
 30
0.0
  3
*U8
  1

  0
TEXT
  5
247E6
  8
0
 10
-380.59095808430669
 20
844.09539232841576
 30
0.0
 40
0.125
  1
Casing
  0
TEXT
  5
247E7
  8
0
 10
-380.58635371868598
 20
843.88654739890217
 30
0.0
 40
0.125
  1
TL-2292
  0
TEXT
  5
247E8
  8
0
 10
-380.60127527393843
 20
843.67608241481855
 30
0.0
 40
0.125
  1
1-5/16" x 4-15/16"
  0
TEXT
  5
247E9
  8
0
 10
-380.5893380297365
 20
843.46561743073494
 30
0.0
 40
0.125
  1
800.66.TAGUE
  0
ENDBLK
  5
247EB
  8
0
  0
ENDSEC
  0
SECTION
  2
ENTITIES
  0
POLYLINE
  8
0
  5
247EC
  66
     1
 10
0.000000
 20
0.000000
 30
0.000000
  70
     8
  0
VERTEX
  8
0
  5
247ED
 10
-382.242
 20
845.489
 30
0.000000
  70
    32
  0
VERTEX
  8
0
  5
247EE
 10
-382.242
 20
845.488
 30
0.000000
  70
    32
  0
VERTEX
  8
0
  5
247EF
 10
-382.242
 20
845.486
 30
0.000000
  70
    32
  0
VERTEX
  8
0
  5
247F0
 10
-382.242
 20
845.485
 30
0.000000
  70
    32
  0
VERTEX
  8
0
  5
247F1
 10
-382.242
 20
845.484
 30
0.000000
  70
    32
  0
VERTEX
  8
0
  5
247F2
 10
-382.242
 20
845.483
 30
0.000000
  70
    32
  0
VERTEX
  8
0
  5
247F3
 10
-382.242
 20
845.482
 30
0.000000
  70
    32
  0
VERTEX
  8
0
  5
247F4
 10
-382.242
 20
845.481
 30
0.000000
  70
    32
  0
VERTEX
  8
0
  5
247F5
 10
-382.242
 20
845.480
 30
0.000000
  70
    32
  0
VERTEX
  8
0
  5
247F6
 10
-382.242
 20
845.479
 30
0.000000
  70
    32
  0
VERTEX
  8
0
  5
247F7
 10
-382.242
 20
845.478
 30
0.000000
  70
    32
  0
VERTEX
  8
0
  5
247F8
 10
-382.242
 20
845.477
 30
0.000000
  70
    32
  0
VERTEX
  8
0
  5
247F9
 10
-382.241
 20
845.476
 30
0.000000
  70
    32
  0
VERTEX
  8
0
  5
247FA
 10
-382.241
 20
845.474
 30
0.000000
  70
    32
  0
VERTEX
  8
0
  5
247FB
 10
-382.241
 20
845.473
 30
0.000000
  70
    32
  0
VERTEX
  8
0
  5
247FC
 10
-382.241
 20
845.472
 30
0.000000
  70
    32
  0
VERTEX
  8
0
  5
247FD
 10
-382.241
 20
845.471
 30
0.000000
  70
    32
  0
VERTEX
  8
0
  5
247FE
 10
-382.241
 20
845.470
 30
0.000000
  70
    32
  0
VERTEX
  8
0
  5
247FF
 10
-382.241
 20
845.469
 30
0.000000
  70
    32
  0
VERTEX
  8
0
  5
24800
 10
-382.241
 20
845.468
 30
0.000000
  70
    32
  0
VERTEX
  8
0
  5
24801
 10
-382.241
 20
845.467
 30
0.000000
  70
    32
  0
VERTEX
  8
0
  5
24802
 10
-382.241
 20
845.466
 30
0.000000
  70
    32
  0
VERTEX
  8
0
  5
24803
 10
-382.241
 20
845.465
 30
0.000000
  70
    32
  0
VERTEX
  8
0
  5
24804
 10
-382.241
 20
845.463
 30
0.000000
  70
    32
  0
VERTEX
  8
0
  5
24805
 10
-382.241
 20
845.462
 30
0.000000
  70
    32
  0
VERTEX
  8
0
  5
24806
 10
-382.241
 20
845.461
 30
0.000000
  70
    32
  0
VERTEX
  8
0
  5
24807
 10
-382.241
 20
845.460
 30
0.000000
  70
    32
  0
VERTEX
  8
0
  5
24808
 10
-382.241
 20
845.459
 30
0.000000
  70
    32
  0
VERTEX
  8
0
  5
24809
 10
-382.241
 20
845.458
 30
0.000000
  70
    32
  0
VERTEX
  8
0
  5
2480A
 10
-382.241
 20
845.457
 30
0.000000
  70
    32
  0
VERTEX
  8
0
  5
2480B
 10
-382.241
 20
845.456
 30
0.000000
  70
    32
  0
VERTEX
  8
0
  5
2480C
 10
-382.241
 20
845.455
 30
0.000000
  70
    32
  0
VERTEX
  8
0
  5
2480D
 10
-382.241
 20
845.453
 30
0.000000
  70
    32
  0
VERTEX
  8
0
  5
2480E
 10
-382.241
 20
845.452
 30
0.000000
  70
    32
  0
VERTEX
  8
0
  5
2480F
 10
-382.241
 20
845.451
 30
0.000000
  70
    32
  0
VERTEX
  8
0
  5
24810
 10
-382.241
 20
845.450
 30
0.000000
  70
    32
  0
VERTEX
  8
0
  5
24811
 10
-382.241
 20
845.449
 30
0.000000
  70
    32
  0
VERTEX
  8
0
  5
24812
 10
-382.241
 20
845.448
 30
0.000000
  70
    32
  0
VERTEX
  8
0
  5
24813
 10
-382.241
 20
845.447
 30
0.000000
  70
    32
  0
VERTEX
  8
0
  5
24814
 10
-382.241
 20
845.446
 30
0.000000
  70
    32
  0
VERTEX
  8
0
  5
24815
 10
-382.241
 20
845.445
 30
0.000000
  70
    32
  0
VERTEX
  8
0
  5
24816
 10
-382.240
 20
845.443
 30
0.000000
  70
    32
  0
VERTEX
  8
0
  5
24817
 10
-382.240
 20
845.442
 30
0.000000
  70
    32
  0
VERTEX
  8
0
  5
24818
 10
-382.240
 20
845.441
 30
0.000000
  70
    32
  0
VERTEX
  8
0
  5
24819
 10
-382.240
 20
845.440
 30
0.000000
  70
    32
  0
VERTEX
  8
0
  5
2481A
 10
-382.240
 20
845.439
 30
0.000000
  70
    32
  0
VERTEX
  8
0
  5
2481B
 10
-382.240
 20
845.438
 30
0.000000
  70
    32
  0
VERTEX
  8
0
  5
2481C
 10
-382.240
 20
845.437
 30
0.000000
  70
    32
  0
VERTEX
  8
0
  5
2481D
 10
-382.240
 20
845.436
 30
0.000000
  70
    32
  0
VERTEX
  8
0
  5
2481E
 10
-382.240
 20
845.434
 30
0.000000
  70
    32
  0
VERTEX
  8
0
  5
2481F
 10
-382.240
 20
845.433
 30
0.000000
  70
    32
  0
VERTEX
  8
0
  5
24820
 10
-382.240
 20
845.432
 30
0.000000
  70
    32
  0
VERTEX
  8
0
  5
24821
 10
-382.240
 20
845.431
 30
0.000000
  70
    32
  0
VERTEX
  8
0
  5
24822
 10
-382.240
 20
845.430
 30
0.000000
  70
    32
  0
VERTEX
  8
0
  5
24823
 10
-382.240
 20
845.429
 30
0.000000
  70
    32
  0
VERTEX
  8
0
  5
24824
 10
-382.239
 20
845.428
 30
0.000000
  70
    32
  0
VERTEX
  8
0
  5
24825
 10
-382.239
 20
845.427
 30
0.000000
  70
    32
  0
VERTEX
  8
0
  5
24826
 10
-382.239
 20
845.425
 30
0.000000
  70
    32
  0
VERTEX
  8
0
  5
24827
 10
-382.239
 20
845.424
 30
0.000000
  70
    32
  0
VERTEX
  8
0
  5
24828
 10
-382.239
 20
845.423
 30
0.000000
  70
    32
  0
VERTEX
  8
0
  5
24829
 10
-382.239
 20
845.422
 30
0.000000
  70
    32
  0
VERTEX
  8
0
  5
2482A
 10
-382.239
 20
845.421
 30
0.000000
  70
    32
  0
VERTEX
  8
0
  5
2482B
 10
-382.239
 20
845.420
 30
0.000000
  70
    32
  0
VERTEX
  8
0
  5
2482C
 10
-382.239
 20
845.419
 30
0.000000
  70
    32
  0
VERTEX
  8
0
  5
2482D
 10
-382.239
 20
845.417
 30
0.000000
  70
    32
  0
VERTEX
  8
0
  5
2482E
 10
-382.238
 20
845.416
 30
0.000000
  70
    32
  0
VERTEX
  8
0
  5
2482F
 10
-382.238
 20
845.415
 30
0.000000
  70
    32
  0
VERTEX
  8
0
  5
24830
 10
-382.238
 20
845.414
 30
0.000000
  70
    32
  0
VERTEX
  8
0
  5
24831
 10
-382.238
 20
845.413
 30
0.000000
  70
    32
  0
VERTEX
  8
0
  5
24832
 10
-382.238
 20
845.412
 30
0.000000
  70
    32
  0
VERTEX
  8
0
  5
24833
 10
-382.238
 20
845.411
 30
0.000000
  70
    32
  0
VERTEX
  8
0
  5
24834
 10
-382.237
 20
845.409
 30
0.000000
  70
    32
  0
VERTEX
  8
0
  5
24835
 10
-382.237
 20
845.408
 30
0.000000
  70
    32
  0
VERTEX
  8
0
  5
24836
 10
-382.237
 20
845.407
 30
0.000000
  70
    32
  0
VERTEX
  8
0
  5
24837
 10
-382.237
 20
845.406
 30
0.000000
  70
    32
  0
VERTEX
  8
0
  5
24838
 10
-382.237
 20
845.405
 30
0.000000
  70
    32
  0
VERTEX
  8
0
  5
24839
 10
-382.237
 20
845.404
 30
0.000000
  70
    32
  0
VERTEX
  8
0
  5
2483A
 10
-382.236
 20
845.403
 30
0.000000
  70
    32
  0
VERTEX
  8
0
  5
2483B
 10
-382.236
 20
845.402
 30
0.000000
  70
    32
  0
VERTEX
  8
0
  5
2483C
 10
-382.236
 20
845.400
 30
0.000000
  70
    32
  0
VERTEX
  8
0
  5
2483D
 10
-382.236
 20
845.399
 30
0.000000
  70
    32
  0
VERTEX
  8
0
  5
2483E
 10
-382.235
 20
845.398
 30
0.000000
  70
    32
  0
VERTEX
  8
0
  5
2483F
 10
-382.235
 20
845.397
 30
0.000000
  70
    32
  0
VERTEX
  8
0
  5
24840
 10
-382.235
 20
845.396
 30
0.000000
  70
    32
  0
VERTEX
  8
0
  5
24841
 10
-382.234
 20
845.395
 30
0.000000
  70
    32
  0
VERTEX
  8
0
  5
24842
 10
-382.234
 20
845.394
 30
0.000000
  70
    32
  0
VERTEX
  8
0
  5
24843
 10
-382.234
 20
845.393
 30
0.000000
  70
    32
  0
VERTEX
  8
0
  5
24844
 10
-382.233
 20
845.392
 30
0.000000
  70
    32
  0
VERTEX
  8
0
  5
24845
 10
-382.233
 20
845.391
 30
0.000000
  70
    32
  0
VERTEX
  8
0
  5
24846
 10
-382.233
 20
845.390
 30
0.000000
  70
    32
  0
VERTEX
  8
0
  5
24847
 10
-382.232
 20
845.389
 30
0.000000
  70
    32
  0
VERTEX
  8
0
  5
24848
 10
-382.232
 20
845.388
 30
0.000000
  70
    32
  0
VERTEX
  8
0
  5
24849
 10
-382.231
 20
845.387
 30
0.000000
  70
    32
  0
VERTEX
  8
0
  5
2484A
 10
-382.231
 20
845.386
 30
0.000000
  70
    32
  0
VERTEX
  8
0
  5
2484B
 10
-382.230
 20
845.385
 30
0.000000
  70
    32
  0
VERTEX
  8
0
  5
2484C
 10
-382.230
 20
845.384
 30
0.000000
  70
    32
  0
VERTEX
  8
0
  5
2484D
 10
-382.229
 20
845.383
 30
0.000000
  70
    32
  0
VERTEX
  8
0
  5
2484E
 10
-382.229
 20
845.382
 30
0.000000
  70
    32
  0
VERTEX
  8
0
  5
2484F
 10
-382.228
 20
845.381
 30
0.000000
  70
    32
  0
VERTEX
  8
0
  5
24850
 10
-382.228
 20
845.380
 30
0.000000
  70
    32
  0
VERTEX
  8
0
  5
24851
 10
-382.227
 20
845.379
 30
0.000000
  70
    32
  0
VERTEX
  8
0
  5
24852
 10
-382.227
 20
845.378
 30
0.000000
  70
    32
  0
VERTEX
  8
0
  5
24853
 10
-382.226
 20
845.377
 30
0.000000
  70
    32
  0
VERTEX
  8
0
  5
24854
 10
-382.225
 20
845.376
 30
0.000000
  70
    32
  0
VERTEX
  8
0
  5
24855
 10
-382.225
 20
845.376
 30
0.000000
  70
    32
  0
VERTEX
  8
0
  5
24856
 10
-382.224
 20
845.375
 30
0.000000
  70
    32
  0
VERTEX
  8
0
  5
24857
 10
-382.223
 20
845.374
 30
0.000000
  70
    32
  0
VERTEX
  8
0
  5
24858
 10
-382.223
 20
845.373
 30
0.000000
  70
    32
  0
VERTEX
  8
0
  5
24859
 10
-382.222
 20
845.372
 30
0.000000
  70
    32
  0
VERTEX
  8
0
  5
2485A
 10
-382.221
 20
845.371
 30
0.000000
  70
    32
  0
VERTEX
  8
0
  5
2485B
 10
-382.221
 20
845.371
 30
0.000000
  70
    32
  0
VERTEX
  8
0
  5
2485C
 10
-382.220
 20
845.370
 30
0.000000
  70
    32
  0
VERTEX
  8
0
  5
2485D
 10
-382.219
 20
845.369
 30
0.000000
  70
    32
  0
VERTEX
  8
0
  5
2485E
 10
-382.218
 20
845.368
 30
0.000000
  70
    32
  0
VERTEX
  8
0
  5
2485F
 10
-382.218
 20
845.367
 30
0.000000
  70
    32
  0
VERTEX
  8
0
  5
24860
 10
-382.217
 20
845.367
 30
0.000000
  70
    32
  0
VERTEX
  8
0
  5
24861
 10
-382.216
 20
845.366
 30
0.000000
  70
    32
  0
VERTEX
  8
0
  5
24862
 10
-382.215
 20
845.365
 30
0.000000
  70
    32
  0
VERTEX
  8
0
  5
24863
 10
-382.214
 20
845.364
 30
0.000000
  70
    32
  0
VERTEX
  8
0
  5
24864
 10
-382.214
 20
845.363
 30
0.000000
  70
    32
  0
VERTEX
  8
0
  5
24865
 10
-382.213
 20
845.363
 30
0.000000
  70
    32
  0
VERTEX
  8
0
  5
24866
 10
-382.212
 20
845.362
 30
0.000000
  70
    32
  0
VERTEX
  8
0
  5
24867
 10
-382.211
 20
845.361
 30
0.000000
  70
    32
  0
VERTEX
  8
0
  5
24868
 10
-382.210
 20
845.360
 30
0.000000
  70
    32
  0
VERTEX
  8
0
  5
24869
 10
-382.210
 20
845.359
 30
0.000000
  70
    32
  0
VERTEX
  8
0
  5
2486A
 10
-382.209
 20
845.359
 30
0.000000
  70
    32
  0
VERTEX
  8
0
  5
2486B
 10
-382.208
 20
845.358
 30
0.000000
  70
    32
  0
VERTEX
  8
0
  5
2486C
 10
-382.207
 20
845.357
 30
0.000000
  70
    32
  0
VERTEX
  8
0
  5
2486D
 10
-382.206
 20
845.356
 30
0.000000
  70
    32
  0
VERTEX
  8
0
  5
2486E
 10
-382.206
 20
845.355
 30
0.000000
  70
    32
  0
VERTEX
  8
0
  5
2486F
 10
-382.205
 20
845.355
 30
0.000000
  70
    32
  0
VERTEX
  8
0
  5
24870
 10
-382.204
 20
845.354
 30
0.000000
  70
    32
  0
VERTEX
  8
0
  5
24871
 10
-382.203
 20
845.353
 30
0.000000
  70
    32
  0
VERTEX
  8
0
  5
24872
 10
-382.202
 20
845.352
 30
0.000000
  70
    32
  0
VERTEX
  8
0
  5
24873
 10
-382.202
 20
845.351
 30
0.000000
  70
    32
  0
VERTEX
  8
0
  5
24874
 10
-382.201
 20
845.351
 30
0.000000
  70
    32
  0
VERTEX
  8
0
  5
24875
 10
-382.200
 20
845.350
 30
0.000000
  70
    32
  0
VERTEX
  8
0
  5
24876
 10
-382.199
 20
845.349
 30
0.000000
  70
    32
  0
VERTEX
  8
0
  5
24877
 10
-382.199
 20
845.348
 30
0.000000
  70
    32
  0
VERTEX
  8
0
  5
24878
 10
-382.198
 20
845.347
 30
0.000000
  70
    32
  0
VERTEX
  8
0
  5
24879
 10
-382.197
 20
845.346
 30
0.000000
  70
    32
  0
VERTEX
  8
0
  5
2487A
 10
-382.197
 20
845.345
 30
0.000000
  70
    32
  0
VERTEX
  8
0
  5
2487B
 10
-382.196
 20
845.344
 30
0.000000
  70
    32
  0
VERTEX
  8
0
  5
2487C
 10
-382.195
 20
845.344
 30
0.000000
  70
    32
  0
VERTEX
  8
0
  5
2487D
 10
-382.195
 20
845.343
 30
0.000000
  70
    32
  0
VERTEX
  8
0
  5
2487E
 10
-382.194
 20
845.342
 30
0.000000
  70
    32
  0
VERTEX
  8
0
  5
2487F
 10
-382.193
 20
845.341
 30
0.000000
  70
    32
  0
VERTEX
  8
0
  5
24880
 10
-382.193
 20
845.340
 30
0.000000
  70
    32
  0
VERTEX
  8
0
  5
24881
 10
-382.192
 20
845.339
 30
0.000000
  70
    32
  0
VERTEX
  8
0
  5
24882
 10
-382.192
 20
845.338
 30
0.000000
  70
    32
  0
VERTEX
  8
0
  5
24883
 10
-382.191
 20
845.337
 30
0.000000
  70
    32
  0
VERTEX
  8
0
  5
24884
 10
-382.191
 20
845.336
 30
0.000000
  70
    32
  0
VERTEX
  8
0
  5
24885
 10
-382.190
 20
845.335
 30
0.000000
  70
    32
  0
VERTEX
  8
0
  5
24886
 10
-382.190
 20
845.334
 30
0.000000
  70
    32
  0
VERTEX
  8
0
  5
24887
 10
-382.189
 20
845.333
 30
0.000000
  70
    32
  0
VERTEX
  8
0
  5
24888
 10
-382.188
 20
845.332
 30
0.000000
  70
    32
  0
VERTEX
  8
0
  5
24889
 10
-382.188
 20
845.331
 30
0.000000
  70
    32
  0
VERTEX
  8
0
  5
2488A
 10
-382.187
 20
845.330
 30
0.000000
  70
    32
  0
VERTEX
  8
0
  5
2488B
 10
-382.187
 20
845.329
 30
0.000000
  70
    32
  0
VERTEX
  8
0
  5
2488C
 10
-382.187
 20
845.328
 30
0.000000
  70
    32
  0
VERTEX
  8
0
  5
2488D
 10
-382.186
 20
845.327
 30
0.000000
  70
    32
  0
VERTEX
  8
0
  5
2488E
 10
-382.186
 20
845.326
 30
0.000000
  70
    32
  0
VERTEX
  8
0
  5
2488F
 10
-382.185
 20
845.325
 30
0.000000
  70
    32
  0
VERTEX
  8
0
  5
24890
 10
-382.185
 20
845.324
 30
0.000000
  70
    32
  0
VERTEX
  8
0
  5
24891
 10
-382.184
 20
845.323
 30
0.000000
  70
    32
  0
VERTEX
  8
0
  5
24892
 10
-382.184
 20
845.322
 30
0.000000
  70
    32
  0
VERTEX
  8
0
  5
24893
 10
-382.183
 20
845.321
 30
0.000000
  70
    32
  0
VERTEX
  8
0
  5
24894
 10
-382.183
 20
845.320
 30
0.000000
  70
    32
  0
VERTEX
  8
0
  5
24895
 10
-382.183
 20
845.319
 30
0.000000
  70
    32
  0
VERTEX
  8
0
  5
24896
 10
-382.182
 20
845.318
 30
0.000000
  70
    32
  0
VERTEX
  8
0
  5
24897
 10
-382.182
 20
845.317
 30
0.000000
  70
    32
  0
VERTEX
  8
0
  5
24898
 10
-382.182
 20
845.316
 30
0.000000
  70
    32
  0
VERTEX
  8
0
  5
24899
 10
-382.181
 20
845.315
 30
0.000000
  70
    32
  0
VERTEX
  8
0
  5
2489A
 10
-382.181
 20
845.314
 30
0.000000
  70
    32
  0
VERTEX
  8
0
  5
2489B
 10
-382.180
 20
845.313
 30
0.000000
  70
    32
  0
VERTEX
  8
0
  5
2489C
 10
-382.180
 20
845.312
 30
0.000000
  70
    32
  0
VERTEX
  8
0
  5
2489D
 10
-382.180
 20
845.310
 30
0.000000
  70
    32
  0
VERTEX
  8
0
  5
2489E
 10
-382.179
 20
845.309
 30
0.000000
  70
    32
  0
VERTEX
  8
0
  5
2489F
 10
-382.179
 20
845.308
 30
0.000000
  70
    32
  0
VERTEX
  8
0
  5
248A0
 10
-382.179
 20
845.307
 30
0.000000
  70
    32
  0
VERTEX
  8
0
  5
248A1
 10
-382.179
 20
845.306
 30
0.000000
  70
    32
  0
VERTEX
  8
0
  5
248A2
 10
-382.178
 20
845.305
 30
0.000000
  70
    32
  0
VERTEX
  8
0
  5
248A3
 10
-382.178
 20
845.304
 30
0.000000
  70
    32
  0
VERTEX
  8
0
  5
248A4
 10
-382.178
 20
845.303
 30
0.000000
  70
    32
  0
VERTEX
  8
0
  5
248A5
 10
-382.177
 20
845.302
 30
0.000000
  70
    32
  0
VERTEX
  8
0
  5
248A6
 10
-382.177
 20
845.301
 30
0.000000
  70
    32
  0
VERTEX
  8
0
  5
248A7
 10
-382.177
 20
845.300
 30
0.000000
  70
    32
  0
VERTEX
  8
0
  5
248A8
 10
-382.177
 20
845.299
 30
0.000000
  70
    32
  0
VERTEX
  8
0
  5
248A9
 10
-382.176
 20
845.298
 30
0.000000
  70
    32
  0
VERTEX
  8
0
  5
248AA
 10
-382.176
 20
845.297
 30
0.000000
  70
    32
  0
VERTEX
  8
0
  5
248AB
 10
-382.176
 20
845.296
 30
0.000000
  70
    32
  0
VERTEX
  8
0
  5
248AC
 10
-382.176
 20
845.294
 30
0.000000
  70
    32
  0
VERTEX
  8
0
  5
248AD
 10
-382.175
 20
845.293
 30
0.000000
  70
    32
  0
VERTEX
  8
0
  5
248AE
 10
-382.175
 20
845.292
 30
0.000000
  70
    32
  0
VERTEX
  8
0
  5
248AF
 10
-382.175
 20
845.291
 30
0.000000
  70
    32
  0
VERTEX
  8
0
  5
248B0
 10
-382.175
 20
845.290
 30
0.000000
  70
    32
  0
VERTEX
  8
0
  5
248B1
 10
-382.175
 20
845.289
 30
0.000000
  70
    32
  0
VERTEX
  8
0
  5
248B2
 10
-382.174
 20
845.288
 30
0.000000
  70
    32
  0
VERTEX
  8
0
  5
248B3
 10
-382.174
 20
845.287
 30
0.000000
  70
    32
  0
VERTEX
  8
0
  5
248B4
 10
-382.174
 20
845.286
 30
0.000000
  70
    32
  0
VERTEX
  8
0
  5
248B5
 10
-382.174
 20
845.285
 30
0.000000
  70
    32
  0
VERTEX
  8
0
  5
248B6
 10
-382.174
 20
845.284
 30
0.000000
  70
    32
  0
VERTEX
  8
0
  5
248B7
 10
-382.174
 20
845.282
 30
0.000000
  70
    32
  0
VERTEX
  8
0
  5
248B8
 10
-382.173
 20
845.281
 30
0.000000
  70
    32
  0
VERTEX
  8
0
  5
248B9
 10
-382.173
 20
845.280
 30
0.000000
  70
    32
  0
VERTEX
  8
0
  5
248BA
 10
-382.173
 20
845.279
 30
0.000000
  70
    32
  0
VERTEX
  8
0
  5
248BB
 10
-382.173
 20
845.278
 30
0.000000
  70
    32
  0
VERTEX
  8
0
  5
248BC
 10
-382.173
 20
845.277
 30
0.000000
  70
    32
  0
VERTEX
  8
0
  5
248BD
 10
-382.173
 20
845.276
 30
0.000000
  70
    32
  0
VERTEX
  8
0
  5
248BE
 10
-382.173
 20
845.275
 30
0.000000
  70
    32
  0
VERTEX
  8
0
  5
248BF
 10
-382.172
 20
845.274
 30
0.000000
  70
    32
  0
VERTEX
  8
0
  5
248C0
 10
-382.172
 20
845.273
 30
0.000000
  70
    32
  0
VERTEX
  8
0
  5
248C1
 10
-382.172
 20
845.271
 30
0.000000
  70
    32
  0
VERTEX
  8
0
  5
248C2
 10
-382.172
 20
845.270
 30
0.000000
  70
    32
  0
VERTEX
  8
0
  5
248C3
 10
-382.172
 20
845.269
 30
0.000000
  70
    32
  0
VERTEX
  8
0
  5
248C4
 10
-382.172
 20
845.268
 30
0.000000
  70
    32
  0
VERTEX
  8
0
  5
248C5
 10
-382.172
 20
845.267
 30
0.000000
  70
    32
  0
VERTEX
  8
0
  5
248C6
 10
-382.172
 20
845.266
 30
0.000000
  70
    32
  0
VERTEX
  8
0
  5
248C7
 10
-382.171
 20
845.265
 30
0.000000
  70
    32
  0
VERTEX
  8
0
  5
248C8
 10
-382.171
 20
845.264
 30
0.000000
  70
    32
  0
VERTEX
  8
0
  5
248C9
 10
-382.171
 20
845.262
 30
0.000000
  70
    32
  0
VERTEX
  8
0
  5
248CA
 10
-382.171
 20
845.261
 30
0.000000
  70
    32
  0
VERTEX
  8
0
  5
248CB
 10
-382.171
 20
845.260
 30
0.000000
  70
    32
  0
VERTEX
  8
0
  5
248CC
 10
-382.171
 20
845.259
 30
0.000000
  70
    32
  0
VERTEX
  8
0
  5
248CD
 10
-382.171
 20
845.258
 30
0.000000
  70
    32
  0
VERTEX
  8
0
  5
248CE
 10
-382.171
 20
845.257
 30
0.000000
  70
    32
  0
VERTEX
  8
0
  5
248CF
 10
-382.171
 20
845.256
 30
0.000000
  70
    32
  0
VERTEX
  8
0
  5
248D0
 10
-382.171
 20
845.255
 30
0.000000
  70
    32
  0
VERTEX
  8
0
  5
248D1
 10
-382.171
 20
845.254
 30
0.000000
  70
    32
  0
VERTEX
  8
0
  5
248D2
 10
-382.171
 20
845.252
 30
0.000000
  70
    32
  0
VERTEX
  8
0
  5
248D3
 10
-382.170
 20
845.251
 30
0.000000
  70
    32
  0
VERTEX
  8
0
  5
248D4
 10
-382.170
 20
845.250
 30
0.000000
  70
    32
  0
VERTEX
  8
0
  5
248D5
 10
-382.170
 20
845.249
 30
0.000000
  70
    32
  0
VERTEX
  8
0
  5
248D6
 10
-382.170
 20
845.248
 30
0.000000
  70
    32
  0
VERTEX
  8
0
  5
248D7
 10
-382.170
 20
845.247
 30
0.000000
  70
    32
  0
VERTEX
  8
0
  5
248D8
 10
-382.170
 20
845.246
 30
0.000000
  70
    32
  0
VERTEX
  8
0
  5
248D9
 10
-382.170
 20
845.245
 30
0.000000
  70
    32
  0
VERTEX
  8
0
  5
248DA
 10
-382.170
 20
845.243
 30
0.000000
  70
    32
  0
VERTEX
  8
0
  5
248DB
 10
-382.170
 20
845.242
 30
0.000000
  70
    32
  0
VERTEX
  8
0
  5
248DC
 10
-382.170
 20
845.241
 30
0.000000
  70
    32
  0
VERTEX
  8
0
  5
248DD
 10
-382.170
 20
845.240
 30
0.000000
  70
    32
  0
VERTEX
  8
0
  5
248DE
 10
-382.170
 20
845.239
 30
0.000000
  70
    32
  0
VERTEX
  8
0
  5
248DF
 10
-382.170
 20
845.238
 30
0.000000
  70
    32
  0
VERTEX
  8
0
  5
248E0
 10
-382.170
 20
845.237
 30
0.000000
  70
    32
  0
VERTEX
  8
0
  5
248E1
 10
-382.170
 20
845.235
 30
0.000000
  70
    32
  0
VERTEX
  8
0
  5
248E2
 10
-382.170
 20
845.234
 30
0.000000
  70
    32
  0
VERTEX
  8
0
  5
248E3
 10
-382.170
 20
845.233
 30
0.000000
  70
    32
  0
VERTEX
  8
0
  5
248E4
 10
-382.170
 20
845.232
 30
0.000000
  70
    32
  0
VERTEX
  8
0
  5
248E5
 10
-382.170
 20
845.231
 30
0.000000
  70
    32
  0
VERTEX
  8
0
  5
248E6
 10
-382.170
 20
845.230
 30
0.000000
  70
    32
  0
VERTEX
  8
0
  5
248E7
 10
-382.170
 20
845.229
 30
0.000000
  70
    32
  0
VERTEX
  8
0
  5
248E8
 10
-382.170
 20
845.228
 30
0.000000
  70
    32
  0
VERTEX
  8
0
  5
248E9
 10
-382.169
 20
845.226
 30
0.000000
  70
    32
  0
VERTEX
  8
0
  5
248EA
 10
-382.169
 20
845.225
 30
0.000000
  70
    32
  0
VERTEX
  8
0
  5
248EB
 10
-382.169
 20
845.224
 30
0.000000
  70
    32
  0
VERTEX
  8
0
  5
248EC
 10
-382.169
 20
845.223
 30
0.000000
  70
    32
  0
SEQEND
  8
0
  5
248ED
  0
ARC
  5
247A6
  8
0
 10
-382.47676412046559
 20
846.83707768597185
 30
0.0
 40
0.1364980280608808
 50
294.87124806116219
 51
95.040824657869962
  0
LINE
  5
247A7
  8
0
 10
-382.72329759641298
 20
846.97304778689465
 30
0.0
 11
-382.72329759641298
 21
842.03654994640567
 31
0.0
  0
LINE
  5
247A8
  8
0
 10
-382.48875759259317
 20
846.97304778689443
 30
0.0
 11
-382.72329759641298
 21
846.97304778689465
 31
0.0
  0
LINE
  5
247A9
  8
0
 10
-382.41935569912948
 20
846.66925644040634
 30
0.0
 11
-382.41935569912948
 21
846.71323914260086
 31
0.0
  0
LINE
  5
247AA
  8
0
 10
-382.28579759641298
 20
846.66925644040634
 30
0.0
 11
-382.41935569912948
 21
846.66925644040634
 31
0.0
  0
LINE
  5
247AB
  8
0
 10
-382.28579759641298
 20
845.48867278689454
 30
0.0
 11
-382.28579759641298
 21
846.66925644040634
 31
0.0
  0
LINE
  5
247AC
  8
0
 10
-382.24168948914689
 20
845.48867278689454
 30
0.0
 11
-382.28579759641298
 21
845.48867278689454
 31
0.0
  0
LINE
  5
247AD
  8
0
 10
-382.09829759641298
 20
845.22304778689465
 30
0.0
 11
-382.1693672361983
 21
845.22304778689465
 31
0.0
  0
LINE
  5
247AE
  8
0
 10
-382.09829759641298
 20
843.51281953791226
 30
0.0
 11
-382.09829759641298
 21
845.22304778689465
 31
0.0
  0
LINE
  5
247AF
  8
0
 10
-381.90625313720278
 20
843.45408202289445
 30
0.0
 11
-381.90625313720278
 21
843.51281953791226
 31
0.0
  0
LINE
  5
247B0
  8
0
 10
-381.90625313720278
 20
843.51281953791226
 30
0.0
 11
-382.09829759641298
 21
843.51281953791226
 31
0.0
  0
LINE
  5
247B1
  8
0
 10
-381.37323178222317
 20
842.03654994640556
 30
0.0
 11
-381.37323178222317
 21
842.31065836038715
 31
0.0
  0
LINE
  5
247B2
  8
0
 10
-381.37323178222317
 20
842.31065836038715
 30
0.0
 11
-381.5613569727343
 21
842.31065836038715
 31
0.0
  0
LINE
  5
247B3
  8
0
 10
-381.5613569727343
 20
842.31065836038715
 30
0.0
 11
-381.5613569727343
 21
842.35548523456237
 31
0.0
  0
POLYLINE
  8
0
  5
248EE
  66
     1
 10
0.000000
 20
0.000000
 30
0.000000
  70
     8
  0
VERTEX
  8
0
  5
248EF
 10
-381.561
 20
842.355
 30
0.000000
  70
    32
  0
VERTEX
  8
0
  5
248F0
 10
-381.558
 20
842.356
 30
0.000000
  70
    32
  0
VERTEX
  8
0
  5
248F1
 10
-381.555
 20
842.357
 30
0.000000
  70
    32
  0
VERTEX
  8
0
  5
248F2
 10
-381.552
 20
842.358
 30
0.000000
  70
    32
  0
VERTEX
  8
0
  5
248F3
 10
-381.549
 20
842.359
 30
0.000000
  70
    32
  0
VERTEX
  8
0
  5
248F4
 10
-381.546
 20
842.360
 30
0.000000
  70
    32
  0
VERTEX
  8
0
  5
248F5
 10
-381.543
 20
842.361
 30
0.000000
  70
    32
  0
VERTEX
  8
0
  5
248F6
 10
-381.541
 20
842.362
 30
0.000000
  70
    32
  0
VERTEX
  8
0
  5
248F7
 10
-381.538
 20
842.364
 30
0.000000
  70
    32
  0
VERTEX
  8
0
  5
248F8
 10
-381.535
 20
842.365
 30
0.000000
  70
    32
  0
VERTEX
  8
0
  5
248F9
 10
-381.532
 20
842.366
 30
0.000000
  70
    32
  0
VERTEX
  8
0
  5
248FA
 10
-381.529
 20
842.368
 30
0.000000
  70
    32
  0
VERTEX
  8
0
  5
248FB
 10
-381.526
 20
842.370
 30
0.000000
  70
    32
  0
VERTEX
  8
0
  5
248FC
 10
-381.524
 20
842.371
 30
0.000000
  70
    32
  0
VERTEX
  8
0
  5
248FD
 10
-381.521
 20
842.373
 30
0.000000
  70
    32
  0
VERTEX
  8
0
  5
248FE
 10
-381.518
 20
842.375
 30
0.000000
  70
    32
  0
VERTEX
  8
0
  5
248FF
 10
-381.516
 20
842.376
 30
0.000000
  70
    32
  0
VERTEX
  8
0
  5
24900
 10
-381.513
 20
842.378
 30
0.000000
  70
    32
  0
VERTEX
  8
0
  5
24901
 10
-381.510
 20
842.380
 30
0.000000
  70
    32
  0
VERTEX
  8
0
  5
24902
 10
-381.508
 20
842.382
 30
0.000000
  70
    32
  0
VERTEX
  8
0
  5
24903
 10
-381.505
 20
842.384
 30
0.000000
  70
    32
  0
VERTEX
  8
0
  5
24904
 10
-381.503
 20
842.386
 30
0.000000
  70
    32
  0
VERTEX
  8
0
  5
24905
 10
-381.500
 20
842.388
 30
0.000000
  70
    32
  0
VERTEX
  8
0
  5
24906
 10
-381.498
 20
842.391
 30
0.000000
  70
    32
  0
VERTEX
  8
0
  5
24907
 10
-381.496
 20
842.393
 30
0.000000
  70
    32
  0
VERTEX
  8
0
  5
24908
 10
-381.493
 20
842.395
 30
0.000000
  70
    32
  0
VERTEX
  8
0
  5
24909
 10
-381.491
 20
842.397
 30
0.000000
  70
    32
  0
VERTEX
  8
0
  5
2490A
 10
-381.489
 20
842.400
 30
0.000000
  70
    32
  0
VERTEX
  8
0
  5
2490B
 10
-381.486
 20
842.402
 30
0.000000
  70
    32
  0
VERTEX
  8
0
  5
2490C
 10
-381.484
 20
842.405
 30
0.000000
  70
    32
  0
VERTEX
  8
0
  5
2490D
 10
-381.482
 20
842.407
 30
0.000000
  70
    32
  0
VERTEX
  8
0
  5
2490E
 10
-381.480
 20
842.410
 30
0.000000
  70
    32
  0
VERTEX
  8
0
  5
2490F
 10
-381.478
 20
842.412
 30
0.000000
  70
    32
  0
VERTEX
  8
0
  5
24910
 10
-381.476
 20
842.415
 30
0.000000
  70
    32
  0
VERTEX
  8
0
  5
24911
 10
-381.474
 20
842.417
 30
0.000000
  70
    32
  0
VERTEX
  8
0
  5
24912
 10
-381.472
 20
842.420
 30
0.000000
  70
    32
  0
VERTEX
  8
0
  5
24913
 10
-381.470
 20
842.423
 30
0.000000
  70
    32
  0
VERTEX
  8
0
  5
24914
 10
-381.468
 20
842.426
 30
0.000000
  70
    32
  0
VERTEX
  8
0
  5
24915
 10
-381.466
 20
842.428
 30
0.000000
  70
    32
  0
VERTEX
  8
0
  5
24916
 10
-381.464
 20
842.431
 30
0.000000
  70
    32
  0
VERTEX
  8
0
  5
24917
 10
-381.463
 20
842.434
 30
0.000000
  70
    32
  0
VERTEX
  8
0
  5
24918
 10
-381.461
 20
842.437
 30
0.000000
  70
    32
  0
VERTEX
  8
0
  5
24919
 10
-381.459
 20
842.440
 30
0.000000
  70
    32
  0
VERTEX
  8
0
  5
2491A
 10
-381.458
 20
842.442
 30
0.000000
  70
    32
  0
VERTEX
  8
0
  5
2491B
 10
-381.456
 20
842.445
 30
0.000000
  70
    32
  0
VERTEX
  8
0
  5
2491C
 10
-381.455
 20
842.448
 30
0.000000
  70
    32
  0
VERTEX
  8
0
  5
2491D
 10
-381.453
 20
842.451
 30
0.000000
  70
    32
  0
VERTEX
  8
0
  5
2491E
 10
-381.452
 20
842.454
 30
0.000000
  70
    32
  0
VERTEX
  8
0
  5
2491F
 10
-381.450
 20
842.457
 30
0.000000
  70
    32
  0
VERTEX
  8
0
  5
24920
 10
-381.449
 20
842.460
 30
0.000000
  70
    32
  0
VERTEX
  8
0
  5
24921
 10
-381.448
 20
842.463
 30
0.000000
  70
    32
  0
VERTEX
  8
0
  5
24922
 10
-381.447
 20
842.466
 30
0.000000
  70
    32
  0
VERTEX
  8
0
  5
24923
 10
-381.445
 20
842.469
 30
0.000000
  70
    32
  0
VERTEX
  8
0
  5
24924
 10
-381.444
 20
842.472
 30
0.000000
  70
    32
  0
VERTEX
  8
0
  5
24925
 10
-381.443
 20
842.475
 30
0.000000
  70
    32
  0
VERTEX
  8
0
  5
24926
 10
-381.442
 20
842.478
 30
0.000000
  70
    32
  0
VERTEX
  8
0
  5
24927
 10
-381.441
 20
842.481
 30
0.000000
  70
    32
  0
VERTEX
  8
0
  5
24928
 10
-381.440
 20
842.484
 30
0.000000
  70
    32
  0
VERTEX
  8
0
  5
24929
 10
-381.439
 20
842.487
 30
0.000000
  70
    32
  0
VERTEX
  8
0
  5
2492A
 10
-381.438
 20
842.491
 30
0.000000
  70
    32
  0
VERTEX
  8
0
  5
2492B
 10
-381.437
 20
842.494
 30
0.000000
  70
    32
  0
VERTEX
  8
0
  5
2492C
 10
-381.437
 20
842.497
 30
0.000000
  70
    32
  0
VERTEX
  8
0
  5
2492D
 10
-381.436
 20
842.500
 30
0.000000
  70
    32
  0
VERTEX
  8
0
  5
2492E
 10
-381.435
 20
842.503
 30
0.000000
  70
    32
  0
VERTEX
  8
0
  5
2492F
 10
-381.435
 20
842.506
 30
0.000000
  70
    32
  0
VERTEX
  8
0
  5
24930
 10
-381.434
 20
842.509
 30
0.000000
  70
    32
  0
VERTEX
  8
0
  5
24931
 10
-381.433
 20
842.512
 30
0.000000
  70
    32
  0
VERTEX
  8
0
  5
24932
 10
-381.433
 20
842.516
 30
0.000000
  70
    32
  0
VERTEX
  8
0
  5
24933
 10
-381.432
 20
842.519
 30
0.000000
  70
    32
  0
VERTEX
  8
0
  5
24934
 10
-381.432
 20
842.522
 30
0.000000
  70
    32
  0
VERTEX
  8
0
  5
24935
 10
-381.432
 20
842.525
 30
0.000000
  70
    32
  0
VERTEX
  8
0
  5
24936
 10
-381.431
 20
842.528
 30
0.000000
  70
    32
  0
VERTEX
  8
0
  5
24937
 10
-381.431
 20
842.531
 30
0.000000
  70
    32
  0
VERTEX
  8
0
  5
24938
 10
-381.431
 20
842.535
 30
0.000000
  70
    32
  0
VERTEX
  8
0
  5
24939
 10
-381.430
 20
842.538
 30
0.000000
  70
    32
  0
VERTEX
  8
0
  5
2493A
 10
-381.430
 20
842.541
 30
0.000000
  70
    32
  0
VERTEX
  8
0
  5
2493B
 10
-381.430
 20
842.544
 30
0.000000
  70
    32
  0
VERTEX
  8
0
  5
2493C
 10
-381.430
 20
842.547
 30
0.000000
  70
    32
  0
VERTEX
  8
0
  5
2493D
 10
-381.430
 20
842.551
 30
0.000000
  70
    32
  0
VERTEX
  8
0
  5
2493E
 10
-381.430
 20
842.554
 30
0.000000
  70
    32
  0
VERTEX
  8
0
  5
2493F
 10
-381.430
 20
842.557
 30
0.000000
  70
    32
  0
VERTEX
  8
0
  5
24940
 10
-381.430
 20
842.560
 30
0.000000
  70
    32
  0
VERTEX
  8
0
  5
24941
 10
-381.430
 20
842.563
 30
0.000000
  70
    32
  0
VERTEX
  8
0
  5
24942
 10
-381.430
 20
842.567
 30
0.000000
  70
    32
  0
VERTEX
  8
0
  5
24943
 10
-381.430
 20
842.570
 30
0.000000
  70
    32
  0
VERTEX
  8
0
  5
24944
 10
-381.431
 20
842.573
 30
0.000000
  70
    32
  0
VERTEX
  8
0
  5
24945
 10
-381.431
 20
842.576
 30
0.000000
  70
    32
  0
VERTEX
  8
0
  5
24946
 10
-381.431
 20
842.579
 30
0.000000
  70
    32
  0
VERTEX
  8
0
  5
24947
 10
-381.431
 20
842.582
 30
0.000000
  70
    32
  0
VERTEX
  8
0
  5
24948
 10
-381.432
 20
842.586
 30
0.000000
  70
    32
  0
VERTEX
  8
0
  5
24949
 10
-381.432
 20
842.589
 30
0.000000
  70
    32
  0
VERTEX
  8
0
  5
2494A
 10
-381.433
 20
842.592
 30
0.000000
  70
    32
  0
VERTEX
  8
0
  5
2494B
 10
-381.433
 20
842.595
 30
0.000000
  70
    32
  0
VERTEX
  8
0
  5
2494C
 10
-381.434
 20
842.598
 30
0.000000
  70
    32
  0
VERTEX
  8
0
  5
2494D
 10
-381.434
 20
842.601
 30
0.000000
  70
    32
  0
VERTEX
  8
0
  5
2494E
 10
-381.435
 20
842.605
 30
0.000000
  70
    32
  0
VERTEX
  8
0
  5
2494F
 10
-381.435
 20
842.608
 30
0.000000
  70
    32
  0
VERTEX
  8
0
  5
24950
 10
-381.436
 20
842.611
 30
0.000000
  70
    32
  0
VERTEX
  8
0
  5
24951
 10
-381.437
 20
842.614
 30
0.000000
  70
    32
  0
VERTEX
  8
0
  5
24952
 10
-381.438
 20
842.617
 30
0.000000
  70
    32
  0
VERTEX
  8
0
  5
24953
 10
-381.438
 20
842.620
 30
0.000000
  70
    32
  0
VERTEX
  8
0
  5
24954
 10
-381.439
 20
842.623
 30
0.000000
  70
    32
  0
VERTEX
  8
0
  5
24955
 10
-381.440
 20
842.626
 30
0.000000
  70
    32
  0
VERTEX
  8
0
  5
24956
 10
-381.441
 20
842.629
 30
0.000000
  70
    32
  0
VERTEX
  8
0
  5
24957
 10
-381.442
 20
842.632
 30
0.000000
  70
    32
  0
VERTEX
  8
0
  5
24958
 10
-381.443
 20
842.635
 30
0.000000
  70
    32
  0
VERTEX
  8
0
  5
24959
 10
-381.444
 20
842.638
 30
0.000000
  70
    32
  0
VERTEX
  8
0
  5
2495A
 10
-381.445
 20
842.641
 30
0.000000
  70
    32
  0
VERTEX
  8
0
  5
2495B
 10
-381.446
 20
842.644
 30
0.000000
  70
    32
  0
VERTEX
  8
0
  5
2495C
 10
-381.447
 20
842.647
 30
0.000000
  70
    32
  0
VERTEX
  8
0
  5
2495D
 10
-381.448
 20
842.650
 30
0.000000
  70
    32
  0
VERTEX
  8
0
  5
2495E
 10
-381.449
 20
842.653
 30
0.000000
  70
    32
  0
VERTEX
  8
0
  5
2495F
 10
-381.450
 20
842.656
 30
0.000000
  70
    32
  0
VERTEX
  8
0
  5
24960
 10
-381.452
 20
842.659
 30
0.000000
  70
    32
  0
VERTEX
  8
0
  5
24961
 10
-381.453
 20
842.662
 30
0.000000
  70
    32
  0
VERTEX
  8
0
  5
24962
 10
-381.454
 20
842.665
 30
0.000000
  70
    32
  0
VERTEX
  8
0
  5
24963
 10
-381.455
 20
842.668
 30
0.000000
  70
    32
  0
VERTEX
  8
0
  5
24964
 10
-381.457
 20
842.671
 30
0.000000
  70
    32
  0
VERTEX
  8
0
  5
24965
 10
-381.458
 20
842.674
 30
0.000000
  70
    32
  0
VERTEX
  8
0
  5
24966
 10
-381.460
 20
842.677
 30
0.000000
  70
    32
  0
VERTEX
  8
0
  5
24967
 10
-381.461
 20
842.680
 30
0.000000
  70
    32
  0
VERTEX
  8
0
  5
24968
 10
-381.462
 20
842.682
 30
0.000000
  70
    32
  0
VERTEX
  8
0
  5
24969
 10
-381.464
 20
842.685
 30
0.000000
  70
    32
  0
VERTEX
  8
0
  5
2496A
 10
-381.465
 20
842.688
 30
0.000000
  70
    32
  0
VERTEX
  8
0
  5
2496B
 10
-381.467
 20
842.691
 30
0.000000
  70
    32
  0
VERTEX
  8
0
  5
2496C
 10
-381.469
 20
842.694
 30
0.000000
  70
    32
  0
VERTEX
  8
0
  5
2496D
 10
-381.470
 20
842.696
 30
0.000000
  70
    32
  0
VERTEX
  8
0
  5
2496E
 10
-381.472
 20
842.699
 30
0.000000
  70
    32
  0
VERTEX
  8
0
  5
2496F
 10
-381.473
 20
842.702
 30
0.000000
  70
    32
  0
VERTEX
  8
0
  5
24970
 10
-381.475
 20
842.704
 30
0.000000
  70
    32
  0
VERTEX
  8
0
  5
24971
 10
-381.477
 20
842.707
 30
0.000000
  70
    32
  0
VERTEX
  8
0
  5
24972
 10
-381.478
 20
842.710
 30
0.000000
  70
    32
  0
VERTEX
  8
0
  5
24973
 10
-381.480
 20
842.712
 30
0.000000
  70
    32
  0
VERTEX
  8
0
  5
24974
 10
-381.482
 20
842.715
 30
0.000000
  70
    32
  0
VERTEX
  8
0
  5
24975
 10
-381.484
 20
842.718
 30
0.000000
  70
    32
  0
VERTEX
  8
0
  5
24976
 10
-381.486
 20
842.720
 30
0.000000
  70
    32
  0
VERTEX
  8
0
  5
24977
 10
-381.488
 20
842.723
 30
0.000000
  70
    32
  0
VERTEX
  8
0
  5
24978
 10
-381.489
 20
842.725
 30
0.000000
  70
    32
  0
VERTEX
  8
0
  5
24979
 10
-381.491
 20
842.728
 30
0.000000
  70
    32
  0
VERTEX
  8
0
  5
2497A
 10
-381.493
 20
842.731
 30
0.000000
  70
    32
  0
VERTEX
  8
0
  5
2497B
 10
-381.495
 20
842.733
 30
0.000000
  70
    32
  0
VERTEX
  8
0
  5
2497C
 10
-381.497
 20
842.736
 30
0.000000
  70
    32
  0
VERTEX
  8
0
  5
2497D
 10
-381.499
 20
842.738
 30
0.000000
  70
    32
  0
VERTEX
  8
0
  5
2497E
 10
-381.501
 20
842.741
 30
0.000000
  70
    32
  0
VERTEX
  8
0
  5
2497F
 10
-381.503
 20
842.743
 30
0.000000
  70
    32
  0
VERTEX
  8
0
  5
24980
 10
-381.505
 20
842.745
 30
0.000000
  70
    32
  0
VERTEX
  8
0
  5
24981
 10
-381.507
 20
842.748
 30
0.000000
  70
    32
  0
VERTEX
  8
0
  5
24982
 10
-381.509
 20
842.750
 30
0.000000
  70
    32
  0
VERTEX
  8
0
  5
24983
 10
-381.512
 20
842.752
 30
0.000000
  70
    32
  0
VERTEX
  8
0
  5
24984
 10
-381.514
 20
842.755
 30
0.000000
  70
    32
  0
VERTEX
  8
0
  5
24985
 10
-381.516
 20
842.757
 30
0.000000
  70
    32
  0
VERTEX
  8
0
  5
24986
 10
-381.518
 20
842.759
 30
0.000000
  70
    32
  0
VERTEX
  8
0
  5
24987
 10
-381.520
 20
842.762
 30
0.000000
  70
    32
  0
VERTEX
  8
0
  5
24988
 10
-381.522
 20
842.764
 30
0.000000
  70
    32
  0
VERTEX
  8
0
  5
24989
 10
-381.525
 20
842.766
 30
0.000000
  70
    32
  0
VERTEX
  8
0
  5
2498A
 10
-381.527
 20
842.768
 30
0.000000
  70
    32
  0
VERTEX
  8
0
  5
2498B
 10
-381.529
 20
842.771
 30
0.000000
  70
    32
  0
VERTEX
  8
0
  5
2498C
 10
-381.532
 20
842.773
 30
0.000000
  70
    32
  0
VERTEX
  8
0
  5
2498D
 10
-381.534
 20
842.775
 30
0.000000
  70
    32
  0
VERTEX
  8
0
  5
2498E
 10
-381.536
 20
842.777
 30
0.000000
  70
    32
  0
VERTEX
  8
0
  5
2498F
 10
-381.539
 20
842.779
 30
0.000000
  70
    32
  0
VERTEX
  8
0
  5
24990
 10
-381.541
 20
842.781
 30
0.000000
  70
    32
  0
VERTEX
  8
0
  5
24991
 10
-381.543
 20
842.783
 30
0.000000
  70
    32
  0
VERTEX
  8
0
  5
24992
 10
-381.546
 20
842.785
 30
0.000000
  70
    32
  0
VERTEX
  8
0
  5
24993
 10
-381.548
 20
842.787
 30
0.000000
  70
    32
  0
VERTEX
  8
0
  5
24994
 10
-381.551
 20
842.789
 30
0.000000
  70
    32
  0
VERTEX
  8
0
  5
24995
 10
-381.553
 20
842.791
 30
0.000000
  70
    32
  0
VERTEX
  8
0
  5
24996
 10
-381.555
 20
842.793
 30
0.000000
  70
    32
  0
VERTEX
  8
0
  5
24997
 10
-381.558
 20
842.795
 30
0.000000
  70
    32
  0
VERTEX
  8
0
  5
24998
 10
-381.560
 20
842.797
 30
0.000000
  70
    32
  0
VERTEX
  8
0
  5
24999
 10
-381.563
 20
842.799
 30
0.000000
  70
    32
  0
VERTEX
  8
0
  5
2499A
 10
-381.565
 20
842.801
 30
0.000000
  70
    32
  0
VERTEX
  8
0
  5
2499B
 10
-381.568
 20
842.803
 30
0.000000
  70
    32
  0
VERTEX
  8
0
  5
2499C
 10
-381.570
 20
842.805
 30
0.000000
  70
    32
  0
VERTEX
  8
0
  5
2499D
 10
-381.573
 20
842.807
 30
0.000000
  70
    32
  0
VERTEX
  8
0
  5
2499E
 10
-381.575
 20
842.808
 30
0.000000
  70
    32
  0
VERTEX
  8
0
  5
2499F
 10
-381.578
 20
842.810
 30
0.000000
  70
    32
  0
VERTEX
  8
0
  5
249A0
 10
-381.580
 20
842.812
 30
0.000000
  70
    32
  0
VERTEX
  8
0
  5
249A1
 10
-381.583
 20
842.814
 30
0.000000
  70
    32
  0
VERTEX
  8
0
  5
249A2
 10
-381.586
 20
842.816
 30
0.000000
  70
    32
  0
VERTEX
  8
0
  5
249A3
 10
-381.588
 20
842.818
 30
0.000000
  70
    32
  0
VERTEX
  8
0
  5
249A4
 10
-381.591
 20
842.819
 30
0.000000
  70
    32
  0
VERTEX
  8
0
  5
249A5
 10
-381.593
 20
842.821
 30
0.000000
  70
    32
  0
VERTEX
  8
0
  5
249A6
 10
-381.596
 20
842.823
 30
0.000000
  70
    32
  0
VERTEX
  8
0
  5
249A7
 10
-381.598
 20
842.825
 30
0.000000
  70
    32
  0
VERTEX
  8
0
  5
249A8
 10
-381.601
 20
842.827
 30
0.000000
  70
    32
  0
VERTEX
  8
0
  5
249A9
 10
-381.604
 20
842.828
 30
0.000000
  70
    32
  0
VERTEX
  8
0
  5
249AA
 10
-381.606
 20
842.830
 30
0.000000
  70
    32
  0
VERTEX
  8
0
  5
249AB
 10
-381.609
 20
842.832
 30
0.000000
  70
    32
  0
VERTEX
  8
0
  5
249AC
 10
-381.612
 20
842.834
 30
0.000000
  70
    32
  0
VERTEX
  8
0
  5
249AD
 10
-381.614
 20
842.835
 30
0.000000
  70
    32
  0
VERTEX
  8
0
  5
249AE
 10
-381.617
 20
842.837
 30
0.000000
  70
    32
  0
VERTEX
  8
0
  5
249AF
 10
-381.619
 20
842.839
 30
0.000000
  70
    32
  0
VERTEX
  8
0
  5
249B0
 10
-381.622
 20
842.841
 30
0.000000
  70
    32
  0
VERTEX
  8
0
  5
249B1
 10
-381.625
 20
842.842
 30
0.000000
  70
    32
  0
VERTEX
  8
0
  5
249B2
 10
-381.627
 20
842.844
 30
0.000000
  70
    32
  0
VERTEX
  8
0
  5
249B3
 10
-381.630
 20
842.846
 30
0.000000
  70
    32
  0
VERTEX
  8
0
  5
249B4
 10
-381.632
 20
842.848
 30
0.000000
  70
    32
  0
VERTEX
  8
0
  5
249B5
 10
-381.635
 20
842.849
 30
0.000000
  70
    32
  0
VERTEX
  8
0
  5
249B6
 10
-381.638
 20
842.851
 30
0.000000
  70
    32
  0
VERTEX
  8
0
  5
249B7
 10
-381.640
 20
842.853
 30
0.000000
  70
    32
  0
VERTEX
  8
0
  5
249B8
 10
-381.643
 20
842.855
 30
0.000000
  70
    32
  0
VERTEX
  8
0
  5
249B9
 10
-381.645
 20
842.857
 30
0.000000
  70
    32
  0
VERTEX
  8
0
  5
249BA
 10
-381.648
 20
842.858
 30
0.000000
  70
    32
  0
VERTEX
  8
0
  5
249BB
 10
-381.651
 20
842.860
 30
0.000000
  70
    32
  0
VERTEX
  8
0
  5
249BC
 10
-381.653
 20
842.862
 30
0.000000
  70
    32
  0
VERTEX
  8
0
  5
249BD
 10
-381.656
 20
842.864
 30
0.000000
  70
    32
  0
VERTEX
  8
0
  5
249BE
 10
-381.658
 20
842.866
 30
0.000000
  70
    32
  0
VERTEX
  8
0
  5
249BF
 10
-381.661
 20
842.867
 30
0.000000
  70
    32
  0
VERTEX
  8
0
  5
249C0
 10
-381.663
 20
842.869
 30
0.000000
  70
    32
  0
VERTEX
  8
0
  5
249C1
 10
-381.666
 20
842.871
 30
0.000000
  70
    32
  0
VERTEX
  8
0
  5
249C2
 10
-381.668
 20
842.873
 30
0.000000
  70
    32
  0
VERTEX
  8
0
  5
249C3
 10
-381.671
 20
842.875
 30
0.000000
  70
    32
  0
VERTEX
  8
0
  5
249C4
 10
-381.674
 20
842.877
 30
0.000000
  70
    32
  0
VERTEX
  8
0
  5
249C5
 10
-381.676
 20
842.879
 30
0.000000
  70
    32
  0
VERTEX
  8
0
  5
249C6
 10
-381.679
 20
842.880
 30
0.000000
  70
    32
  0
VERTEX
  8
0
  5
249C7
 10
-381.681
 20
842.882
 30
0.000000
  70
    32
  0
VERTEX
  8
0
  5
249C8
 10
-381.684
 20
842.884
 30
0.000000
  70
    32
  0
VERTEX
  8
0
  5
249C9
 10
-381.686
 20
842.886
 30
0.000000
  70
    32
  0
VERTEX
  8
0
  5
249CA
 10
-381.688
 20
842.888
 30
0.000000
  70
    32
  0
VERTEX
  8
0
  5
249CB
 10
-381.691
 20
842.890
 30
0.000000
  70
    32
  0
VERTEX
  8
0
  5
249CC
 10
-381.693
 20
842.892
 30
0.000000
  70
    32
  0
VERTEX
  8
0
  5
249CD
 10
-381.696
 20
842.894
 30
0.000000
  70
    32
  0
VERTEX
  8
0
  5
249CE
 10
-381.698
 20
842.896
 30
0.000000
  70
    32
  0
VERTEX
  8
0
  5
249CF
 10
-381.701
 20
842.898
 30
0.000000
  70
    32
  0
VERTEX
  8
0
  5
249D0
 10
-381.703
 20
842.900
 30
0.000000
  70
    32
  0
VERTEX
  8
0
  5
249D1
 10
-381.705
 20
842.902
 30
0.000000
  70
    32
  0
VERTEX
  8
0
  5
249D2
 10
-381.708
 20
842.904
 30
0.000000
  70
    32
  0
VERTEX
  8
0
  5
249D3
 10
-381.710
 20
842.906
 30
0.000000
  70
    32
  0
VERTEX
  8
0
  5
249D4
 10
-381.712
 20
842.908
 30
0.000000
  70
    32
  0
VERTEX
  8
0
  5
249D5
 10
-381.715
 20
842.911
 30
0.000000
  70
    32
  0
VERTEX
  8
0
  5
249D6
 10
-381.717
 20
842.913
 30
0.000000
  70
    32
  0
VERTEX
  8
0
  5
249D7
 10
-381.719
 20
842.915
 30
0.000000
  70
    32
  0
VERTEX
  8
0
  5
249D8
 10
-381.721
 20
842.917
 30
0.000000
  70
    32
  0
VERTEX
  8
0
  5
249D9
 10
-381.724
 20
842.919
 30
0.000000
  70
    32
  0
VERTEX
  8
0
  5
249DA
 10
-381.726
 20
842.921
 30
0.000000
  70
    32
  0
VERTEX
  8
0
  5
249DB
 10
-381.728
 20
842.924
 30
0.000000
  70
    32
  0
VERTEX
  8
0
  5
249DC
 10
-381.730
 20
842.926
 30
0.000000
  70
    32
  0
VERTEX
  8
0
  5
249DD
 10
-381.732
 20
842.928
 30
0.000000
  70
    32
  0
VERTEX
  8
0
  5
249DE
 10
-381.735
 20
842.930
 30
0.000000
  70
    32
  0
VERTEX
  8
0
  5
249DF
 10
-381.737
 20
842.933
 30
0.000000
  70
    32
  0
VERTEX
  8
0
  5
249E0
 10
-381.739
 20
842.935
 30
0.000000
  70
    32
  0
VERTEX
  8
0
  5
249E1
 10
-381.741
 20
842.937
 30
0.000000
  70
    32
  0
VERTEX
  8
0
  5
249E2
 10
-381.743
 20
842.940
 30
0.000000
  70
    32
  0
VERTEX
  8
0
  5
249E3
 10
-381.745
 20
842.942
 30
0.000000
  70
    32
  0
VERTEX
  8
0
  5
249E4
 10
-381.747
 20
842.944
 30
0.000000
  70
    32
  0
VERTEX
  8
0
  5
249E5
 10
-381.750
 20
842.947
 30
0.000000
  70
    32
  0
VERTEX
  8
0
  5
249E6
 10
-381.752
 20
842.949
 30
0.000000
  70
    32
  0
VERTEX
  8
0
  5
249E7
 10
-381.754
 20
842.951
 30
0.000000
  70
    32
  0
VERTEX
  8
0
  5
249E8
 10
-381.756
 20
842.954
 30
0.000000
  70
    32
  0
VERTEX
  8
0
  5
249E9
 10
-381.758
 20
842.956
 30
0.000000
  70
    32
  0
VERTEX
  8
0
  5
249EA
 10
-381.760
 20
842.959
 30
0.000000
  70
    32
  0
VERTEX
  8
0
  5
249EB
 10
-381.762
 20
842.961
 30
0.000000
  70
    32
  0
VERTEX
  8
0
  5
249EC
 10
-381.764
 20
842.963
 30
0.000000
  70
    32
  0
VERTEX
  8
0
  5
249ED
 10
-381.766
 20
842.966
 30
0.000000
  70
    32
  0
VERTEX
  8
0
  5
249EE
 10
-381.768
 20
842.968
 30
0.000000
  70
    32
  0
VERTEX
  8
0
  5
249EF
 10
-381.770
 20
842.971
 30
0.000000
  70
    32
  0
VERTEX
  8
0
  5
249F0
 10
-381.772
 20
842.973
 30
0.000000
  70
    32
  0
VERTEX
  8
0
  5
249F1
 10
-381.774
 20
842.976
 30
0.000000
  70
    32
  0
VERTEX
  8
0
  5
249F2
 10
-381.775
 20
842.978
 30
0.000000
  70
    32
  0
VERTEX
  8
0
  5
249F3
 10
-381.777
 20
842.981
 30
0.000000
  70
    32
  0
VERTEX
  8
0
  5
249F4
 10
-381.779
 20
842.983
 30
0.000000
  70
    32
  0
VERTEX
  8
0
  5
249F5
 10
-381.781
 20
842.986
 30
0.000000
  70
    32
  0
VERTEX
  8
0
  5
249F6
 10
-381.783
 20
842.989
 30
0.000000
  70
    32
  0
VERTEX
  8
0
  5
249F7
 10
-381.785
 20
842.991
 30
0.000000
  70
    32
  0
VERTEX
  8
0
  5
249F8
 10
-381.787
 20
842.994
 30
0.000000
  70
    32
  0
VERTEX
  8
0
  5
249F9
 10
-381.789
 20
842.996
 30
0.000000
  70
    32
  0
VERTEX
  8
0
  5
249FA
 10
-381.790
 20
842.999
 30
0.000000
  70
    32
  0
VERTEX
  8
0
  5
249FB
 10
-381.792
 20
843.002
 30
0.000000
  70
    32
  0
VERTEX
  8
0
  5
249FC
 10
-381.794
 20
843.004
 30
0.000000
  70
    32
  0
VERTEX
  8
0
  5
249FD
 10
-381.796
 20
843.007
 30
0.000000
  70
    32
  0
VERTEX
  8
0
  5
249FE
 10
-381.797
 20
843.010
 30
0.000000
  70
    32
  0
VERTEX
  8
0
  5
249FF
 10
-381.799
 20
843.012
 30
0.000000
  70
    32
  0
VERTEX
  8
0
  5
24A00
 10
-381.801
 20
843.015
 30
0.000000
  70
    32
  0
VERTEX
  8
0
  5
24A01
 10
-381.803
 20
843.018
 30
0.000000
  70
    32
  0
VERTEX
  8
0
  5
24A02
 10
-381.804
 20
843.020
 30
0.000000
  70
    32
  0
VERTEX
  8
0
  5
24A03
 10
-381.806
 20
843.023
 30
0.000000
  70
    32
  0
VERTEX
  8
0
  5
24A04
 10
-381.807
 20
843.026
 30
0.000000
  70
    32
  0
VERTEX
  8
0
  5
24A05
 10
-381.809
 20
843.028
 30
0.000000
  70
    32
  0
VERTEX
  8
0
  5
24A06
 10
-381.811
 20
843.031
 30
0.000000
  70
    32
  0
VERTEX
  8
0
  5
24A07
 10
-381.812
 20
843.034
 30
0.000000
  70
    32
  0
VERTEX
  8
0
  5
24A08
 10
-381.813
 20
843.037
 30
0.000000
  70
    32
  0
VERTEX
  8
0
  5
24A09
 10
-381.815
 20
843.040
 30
0.000000
  70
    32
  0
VERTEX
  8
0
  5
24A0A
 10
-381.816
 20
843.043
 30
0.000000
  70
    32
  0
VERTEX
  8
0
  5
24A0B
 10
-381.817
 20
843.045
 30
0.000000
  70
    32
  0
VERTEX
  8
0
  5
24A0C
 10
-381.818
 20
843.048
 30
0.000000
  70
    32
  0
VERTEX
  8
0
  5
24A0D
 10
-381.819
 20
843.051
 30
0.000000
  70
    32
  0
VERTEX
  8
0
  5
24A0E
 10
-381.820
 20
843.054
 30
0.000000
  70
    32
  0
VERTEX
  8
0
  5
24A0F
 10
-381.821
 20
843.057
 30
0.000000
  70
    32
  0
VERTEX
  8
0
  5
24A10
 10
-381.822
 20
843.060
 30
0.000000
  70
    32
  0
VERTEX
  8
0
  5
24A11
 10
-381.823
 20
843.063
 30
0.000000
  70
    32
  0
VERTEX
  8
0
  5
24A12
 10
-381.824
 20
843.066
 30
0.000000
  70
    32
  0
VERTEX
  8
0
  5
24A13
 10
-381.824
 20
843.069
 30
0.000000
  70
    32
  0
VERTEX
  8
0
  5
24A14
 10
-381.825
 20
843.072
 30
0.000000
  70
    32
  0
VERTEX
  8
0
  5
24A15
 10
-381.825
 20
843.075
 30
0.000000
  70
    32
  0
VERTEX
  8
0
  5
24A16
 10
-381.826
 20
843.078
 30
0.000000
  70
    32
  0
VERTEX
  8
0
  5
24A17
 10
-381.826
 20
843.081
 30
0.000000
  70
    32
  0
VERTEX
  8
0
  5
24A18
 10
-381.827
 20
843.085
 30
0.000000
  70
    32
  0
VERTEX
  8
0
  5
24A19
 10
-381.827
 20
843.088
 30
0.000000
  70
    32
  0
VERTEX
  8
0
  5
24A1A
 10
-381.827
 20
843.091
 30
0.000000
  70
    32
  0
VERTEX
  8
0
  5
24A1B
 10
-381.827
 20
843.094
 30
0.000000
  70
    32
  0
VERTEX
  8
0
  5
24A1C
 10
-381.827
 20
843.097
 30
0.000000
  70
    32
  0
VERTEX
  8
0
  5
24A1D
 10
-381.827
 20
843.100
 30
0.000000
  70
    32
  0
VERTEX
  8
0
  5
24A1E
 10
-381.827
 20
843.104
 30
0.000000
  70
    32
  0
VERTEX
  8
0
  5
24A1F
 10
-381.827
 20
843.107
 30
0.000000
  70
    32
  0
VERTEX
  8
0
  5
24A20
 10
-381.827
 20
843.110
 30
0.000000
  70
    32
  0
VERTEX
  8
0
  5
24A21
 10
-381.827
 20
843.113
 30
0.000000
  70
    32
  0
VERTEX
  8
0
  5
24A22
 10
-381.827
 20
843.116
 30
0.000000
  70
    32
  0
VERTEX
  8
0
  5
24A23
 10
-381.827
 20
843.120
 30
0.000000
  70
    32
  0
VERTEX
  8
0
  5
24A24
 10
-381.827
 20
843.123
 30
0.000000
  70
    32
  0
VERTEX
  8
0
  5
24A25
 10
-381.827
 20
843.126
 30
0.000000
  70
    32
  0
VERTEX
  8
0
  5
24A26
 10
-381.827
 20
843.129
 30
0.000000
  70
    32
  0
VERTEX
  8
0
  5
24A27
 10
-381.827
 20
843.132
 30
0.000000
  70
    32
  0
VERTEX
  8
0
  5
24A28
 10
-381.827
 20
843.136
 30
0.000000
  70
    32
  0
VERTEX
  8
0
  5
24A29
 10
-381.826
 20
843.139
 30
0.000000
  70
    32
  0
VERTEX
  8
0
  5
24A2A
 10
-381.826
 20
843.142
 30
0.000000
  70
    32
  0
VERTEX
  8
0
  5
24A2B
 10
-381.826
 20
843.145
 30
0.000000
  70
    32
  0
VERTEX
  8
0
  5
24A2C
 10
-381.826
 20
843.148
 30
0.000000
  70
    32
  0
VERTEX
  8
0
  5
24A2D
 10
-381.826
 20
843.151
 30
0.000000
  70
    32
  0
VERTEX
  8
0
  5
24A2E
 10
-381.825
 20
843.155
 30
0.000000
  70
    32
  0
SEQEND
  8
0
  5
24A2F
  0
ARC
  5
247B5
  8
0
 10
-381.92607055759203
 20
843.28805700072746
 30
0.0
 40
0.1672035829052911
 50
306.9883602635274
 51
83.193148831461841
  0
LINE
  5
247B6
  8
0
 10
-382.72329759641298
 20
842.03654994640567
 30
0.0
 11
-381.37323178222317
 21
842.03654994640556
 31
0.0
  0
INSERT
  5
247B7
  8
0
  2
*U8
 10
0.0
 20
0.0
 30
0.0
  0
VIEWPORT
  5
BADA
 67
     1
  8
0
 10
5.249999665167536
 20
5.3214848691578043
 30
0.0
 40
16.023543186357209
 41
10.621019601785591
 68
     2
 69
     1
1001
ACAD
1000
MVIEW
1002
{
1070
    16
1010
0.0
1020
0.0
1030
0.0
1010
0.0
1020
0.0
1030
1.0
1040
0.0
1040
10.621019601785591
1040
5.249999665167536
1040
5.3214848691578043
1040
50.0
1040
0.0
1040
0.0
1070
     0
1070
   100
1070
     1
1070
     1
1070
     0
1070
     0
1070
     0
1070
     0
1040
0.0
1040
0.0
1040
0.0
1040
0.5
1040
0.5
1040
0.5
1040
0.5
1070
     0
1002
{
1002
}
1002
}
  0
VIEWPORT
  5
BADD
 67
     1
  8
0
 10
5.2499996294871929
 20
4.0166741807634683
 30
0.0
 40
10.44245679893058
 41
7.8813805131999892
 68
     1
 69
     2
1001
ACAD
1000
MVIEW
1002
{
1070
    16
1010
0.0
1020
0.0
1030
0.0
1010
0.0
1020
0.0
1030
1.0
1040
0.0
1040
7.8813805400738142
1040
-381.55027619642431
1040
844.30220315563145
1040
50.0
1040
0.0
1040
0.0
1070
     0
1070
   100
1070
     1
1070
     2
1070
     0
1070
     0
1070
     0
1070
     0
1040
0.0
1040
0.0
1040
0.0
1040
0.5
1040
0.5
1040
0.5
1040
0.5
1070
     0
1002
{
1002
}
1002
}
  0
ENDSEC
  0
EOF
