  0
SECTION
  2
HEADER
  9
$ACADVER
  1
AC1009
  9
$INSBASE
 10
0.0
 20
0.0
 30
0.0
  9
$EXTMIN
 10
-388.37056164682042
 20
837.68755926699384
 30
0.0
  9
$EXTMAX
 10
-385.4200367603878
 20
838.81255926699384
 30
0.0
  9
$LIMMIN
 10
0.0
 20
0.0
  9
$LIMMAX
 10
1500.0
 20
1500.0
  9
$ORTHOMODE
 70
     0
  9
$REGENMODE
 70
     1
  9
$FILLMODE
 70
     1
  9
$QTEXTMODE
 70
     0
  9
$MIRRTEXT
 70
     1
  9
$DRAGMODE
 70
     2
  9
$LTSCALE
 40
1.0
  9
$OSMODE
 70
    63
  9
$ATTMODE
 70
     1
  9
$TEXTSIZE
 40
1.5
  9
$TRACEWID
 40
0.05
  9
$TEXTSTYLE
  7
STANDARD
  9
$CLAYER
  8
0
  9
$CELTYPE
  6
BYLAYER
  9
$CECOLOR
 62
   256
  9
$DIMSCALE
 40
1.0
  9
$DIMASZ
 40
0.75
  9
$DIMEXO
 40
1.5
  9
$DIMDLI
 40
2.0
  9
$DIMRND
 40
0.0
  9
$DIMDLE
 40
0.0
  9
$DIMEXE
 40
1.0
  9
$DIMTP
 40
0.0
  9
$DIMTM
 40
0.0
  9
$DIMTXT
 40
1.5
  9
$DIMCEN
 40
2.0
  9
$DIMTSZ
 40
0.0
  9
$DIMTOL
 70
     0
  9
$DIMLIM
 70
     0
  9
$DIMTIH
 70
     0
  9
$DIMTOH
 70
     0
  9
$DIMSE1
 70
     0
  9
$DIMSE2
 70
     0
  9
$DIMTAD
 70
     1
  9
$DIMZIN
 70
     0
  9
$DIMBLK
  1
ARCHTICK
  9
$DIMASO
 70
     1
  9
$DIMSHO
 70
     1
  9
$DIMPOST
  1
"
  9
$DIMAPOST
  1

  9
$DIMALT
 70
     0
  9
$DIMALTD
 70
     2
  9
$DIMALTF
 40
25.399999999999999
  9
$DIMLFAC
 40
1.0
  9
$DIMTOFL
 70
     0
  9
$DIMTVP
 40
0.0
  9
$DIMTIX
 70
     1
  9
$DIMSOXD
 70
     0
  9
$DIMSAH
 70
     0
  9
$DIMBLK1
  1

  9
$DIMBLK2
  1

  9
$DIMSTYLE
  2
THREE_QUARTER_INCH_SCALE
  9
$DIMCLRD
 70
     0
  9
$DIMCLRE
 70
     0
  9
$DIMCLRT
 70
     0
  9
$DIMTFAC
 40
1.0
  9
$DIMGAP
 40
1.0
  9
$LUNITS
 70
     2
  9
$LUPREC
 70
     4
  9
$SKETCHINC
 40
0.1
  9
$FILLETRAD
 40
0.0
  9
$AUNITS
 70
     0
  9
$AUPREC
 70
     0
  9
$MENU
  1
.
  9
$ELEVATION
 40
0.0
  9
$PELEVATION
 40
0.0
  9
$THICKNESS
 40
0.0
  9
$LIMCHECK
 70
     0
  9
$BLIPMODE
 70
     0
  9
$CHAMFERA
 40
0.5
  9
$CHAMFERB
 40
0.5
  9
$SKPOLY
 70
     0
  9
$TDCREATE
 40
2452089.395738773
  9
$TDUPDATE
 40
2453621.534026783
  9
$TDINDWG
 40
1.1067316667
  9
$TDUSRTIMER
 40
1.1067313079000001
  9
$USRTIMER
 70
     1
  9
$ANGBASE
 50
0.0
  9
$ANGDIR
 70
     0
  9
$PDMODE
 70
     0
  9
$PDSIZE
 40
10.0
  9
$PLINEWID
 40
0.0
  9
$COORDS
 70
     0
  9
$SPLFRAME
 70
     0
  9
$SPLINETYPE
 70
     6
  9
$SPLINESEGS
 70
     8
  9
$ATTDIA
 70
     0
  9
$ATTREQ
 70
     1
  9
$HANDLING
 70
     1
  9
$HANDSEED
  5
191A9
  9
$SURFTAB1
 70
     6
  9
$SURFTAB2
 70
     6
  9
$SURFTYPE
 70
     6
  9
$SURFU
 70
     6
  9
$SURFV
 70
     6
  9
$UCSNAME
  2

  9
$UCSORG
 10
0.0
 20
0.0
 30
0.0
  9
$UCSXDIR
 10
1.0
 20
0.0
 30
0.0
  9
$UCSYDIR
 10
0.0
 20
1.0
 30
0.0
  9
$PUCSNAME
  2

  9
$PUCSORG
 10
0.0
 20
0.0
 30
0.0
  9
$PUCSXDIR
 10
1.0
 20
0.0
 30
0.0
  9
$PUCSYDIR
 10
0.0
 20
1.0
 30
0.0
  9
$USERI1
 70
     0
  9
$USERI2
 70
     0
  9
$USERI3
 70
     0
  9
$USERI4
 70
     0
  9
$USERI5
 70
     0
  9
$USERR1
 40
0.0
  9
$USERR2
 40
0.0
  9
$USERR3
 40
0.0
  9
$USERR4
 40
0.0
  9
$USERR5
 40
0.0
  9
$WORLDVIEW
 70
     1
  9
$SHADEDGE
 70
     3
  9
$SHADEDIF
 70
    70
  9
$TILEMODE
 70
     0
  9
$MAXACTVP
 70
    64
  9
$PLIMCHECK
 70
     0
  9
$PEXTMIN
 10
0.0287712300219028
 20
0.0759839241634737
 30
0.0
  9
$PEXTMAX
 10
10.47122802895248
 20
7.957364437363462
 30
0.0
  9
$PLIMMIN
 10
-0.1682389550263349
 20
-0.2033427855578579
  9
$PLIMMAX
 10
10.754640548407011
 20
8.2370640492290015
  9
$UNITMODE
 70
     0
  9
$VISRETAIN
 70
     1
  9
$PLINEGEN
 70
     0
  9
$PSLTSCALE
 70
     1
  0
ENDSEC
  0
SECTION
  2
TABLES
  0
TABLE
  2
VPORT
 70
     1
  0
VPORT
  2
*ACTIVE
 70
     0
 10
0.0
 20
0.0
 11
1.0
 21
1.0
 12
-386.52380251144001
 22
838.09204166179234
 13
0.0
 23
0.0
 14
0.5
 24
0.5
 15
0.5
 25
0.5
 16
0.0
 26
0.0
 36
1.0
 17
0.0
 27
0.0
 37
0.0
 40
3.930952126162941
 41
2.0226628895184122
 42
50.0
 43
0.0
 44
0.0
 50
0.0
 51
0.0
 71
     0
 72
   100
 73
     1
 74
     2
 75
     0
 76
     0
 77
     0
 78
     0
  0
ENDTAB
  0
TABLE
  2
LTYPE
 70
     1
  0
LTYPE
  2
CONTINUOUS
 70
     0
  3
Solid line
 72
    65
 73
     0
 40
0.0
  0
ENDTAB
  0
TABLE
  2
LAYER
 70
    10
  0
LAYER
  2
0
 70
     0
 62
     7
  6
CONTINUOUS
  0
LAYER
  2
DEFPOINTS
 70
     0
 62
     7
  6
CONTINUOUS
  0
LAYER
  2
FRAME_200
 70
     0
 62
     8
  6
CONTINUOUS
  0
LAYER
  2
FRAME_070
 70
     0
 62
     5
  6
CONTINUOUS
  0
LAYER
  2
FRAME_050
 70
     0
 62
     6
  6
CONTINUOUS
  0
LAYER
  2
TITLE_BLOCK
 70
     0
 62
     7
  6
CONTINUOUS
  0
LAYER
  2
FRAME_025
 70
     0
 62
     7
  6
CONTINUOUS
  0
LAYER
  2
VIEWPORT
 70
     0
 62
     7
  6
CONTINUOUS
  0
LAYER
  2
PROF
 70
     0
 62
     7
  6
CONTINUOUS
  0
LAYER
  2
PROFILE
 70
     0
 62
     7
  6
CONTINUOUS
  0
ENDTAB
  0
TABLE
  2
STYLE
 70
     2
  0
STYLE
  2
STANDARD
 70
     0
 40
0.0
 41
1.0
 50
0.0
 71
     0
 42
1.5
  3
txt
  4

  0
STYLE
  2
ISO_PROPORTIONAL
 70
     0
 40
0.0
 41
1.0
 50
0.0
 71
     0
 42
2.5
  3
isocp.shx
  4

  0
ENDTAB
  0
TABLE
  2
VIEW
 70
     1
  0
ENDTAB
  0
TABLE
  2
UCS
 70
     0
  0
ENDTAB
  0
TABLE
  2
APPID
 70
     6
  0
APPID
  2
ACAD
 70
     0
  0
APPID
  2
DCO15
 70
     0
  0
APPID
  2
ACAD_EXEMPT_FROM_CAD_STANDARDS
 70
     0
  0
APPID
  2
ACAD_PSEXT
 70
     0
  0
APPID
  2
CONTENTBLOCKDESCRIPTION
 70
     0
  0
APPID
  2
CONTENTBLOCKICON
 70
     0
  0
ENDTAB
  0
TABLE
  2
DIMSTYLE
 70
    10
  0
DIMSTYLE
  2
FULL_SCALE
 70
     0
  3
"
  4

  5

  6

  7

 40
1.0
 41
0.046875
 42
0.09375
 43
0.125
 44
0.0625
 45
0.0
 46
0.0
 47
0.0
 48
0.0
140
0.125
141
0.125
142
0.0
143
25.399999999999999
144
1.0
145
0.0
146
1.0
147
0.0625
 71
     0
 72
     0
 73
     0
 74
     0
 75
     0
 76
     0
 77
     1
 78
     0
170
     0
171
     2
172
     0
173
     0
174
     1
175
     0
176
     0
177
     0
178
     0
  0
DIMSTYLE
  2
HALF_SCALE
 70
     0
  3
"
  4

  5

  6

  7

 40
1.0
 41
0.09375
 42
0.1875
 43
0.25
 44
0.125
 45
0.0
 46
0.0
 47
0.0
 48
0.0
140
0.25
141
0.25
142
0.0
143
25.399999999999999
144
1.0
145
0.0
146
1.0
147
0.125
 71
     0
 72
     0
 73
     0
 74
     0
 75
     0
 76
     0
 77
     1
 78
     0
170
     0
171
     2
172
     0
173
     0
174
     1
175
     0
176
     0
177
     0
178
     0
  0
DIMSTYLE
  2
INCH_SCALE
 70
     0
  3
"
  4

  5

  6

  7

 40
1.0
 41
0.5625
 42
1.125
 43
1.5
 44
0.75
 45
0.0
 46
0.0
 47
0.0
 48
0.0
140
1.125
141
1.5
142
0.0
143
25.399999999999999
144
1.0
145
0.0
146
1.0
147
0.75
 71
     0
 72
     0
 73
     0
 74
     0
 75
     0
 76
     0
 77
     1
 78
     0
170
     0
171
     2
172
     0
173
     0
174
     1
175
     0
176
     0
177
     0
178
     0
  0
DIMSTYLE
  2
THREE_QUARTER_INCH_SCALE
 70
     0
  3
"
  4

  5

  6

  7

 40
1.0
 41
0.75
 42
1.5
 43
2.0
 44
1.0
 45
0.0
 46
0.0
 47
0.0
 48
0.0
140
1.5
141
2.0
142
0.0
143
25.399999999999999
144
1.0
145
0.0
146
1.0
147
1.0
 71
     0
 72
     0
 73
     0
 74
     0
 75
     0
 76
     0
 77
     1
 78
     0
170
     0
171
     2
172
     0
173
     0
174
     1
175
     0
176
     0
177
     0
178
     0
  0
DIMSTYLE
  2
ZHALF_INCH_SCALE
 70
     0
  3
"
  4

  5

  6

  7

 40
1.0
 41
1.125
 42
2.25
 43
3.0
 44
1.5
 45
0.0
 46
0.0
 47
0.0
 48
0.0
140
2.25
141
3.0
142
0.0
143
25.399999999999999
144
1.0
145
0.0
146
1.0
147
1.5
 71
     0
 72
     0
 73
     0
 74
     0
 75
     0
 76
     0
 77
     1
 78
     0
170
     0
171
     2
172
     0
173
     0
174
     1
175
     0
176
     0
177
     0
178
     0
  0
DIMSTYLE
  2
FULL_SCALE0
 70
     0
  3
"
  4

  5
ARCHTICK
  6

  7

 40
1.0
 41
0.046875
 42
0.09375
 43
0.125
 44
0.0625
 45
0.0
 46
0.0
 47
0.0
 48
0.0
140
0.125
141
0.125
142
0.0
143
25.399999999999999
144
1.0
145
0.0
146
1.0
147
0.0625
 71
     0
 72
     0
 73
     0
 74
     0
 75
     0
 76
     0
 77
     1
 78
     0
170
     0
171
     2
172
     0
173
     0
174
     1
175
     0
176
     0
177
     0
178
     0
  0
DIMSTYLE
  2
HALF_SCALE0
 70
     0
  3
"
  4

  5
ARCHTICK
  6

  7

 40
1.0
 41
0.09375
 42
0.1875
 43
0.25
 44
0.125
 45
0.0
 46
0.0
 47
0.0
 48
0.0
140
0.25
141
0.25
142
0.0
143
25.399999999999999
144
1.0
145
0.0
146
1.0
147
0.125
 71
     0
 72
     0
 73
     0
 74
     0
 75
     0
 76
     0
 77
     1
 78
     0
170
     0
171
     2
172
     0
173
     0
174
     1
175
     0
176
     0
177
     0
178
     0
  0
DIMSTYLE
  2
INCH_SCALE0
 70
     0
  3
"
  4

  5
ARCHTICK
  6

  7

 40
1.0
 41
0.5625
 42
1.125
 43
1.5
 44
0.75
 45
0.0
 46
0.0
 47
0.0
 48
0.0
140
1.125
141
1.5
142
0.0
143
25.399999999999999
144
1.0
145
0.0
146
1.0
147
0.75
 71
     0
 72
     0
 73
     0
 74
     0
 75
     0
 76
     0
 77
     1
 78
     0
170
     0
171
     2
172
     0
173
     0
174
     1
175
     0
176
     0
177
     0
178
     0
  0
DIMSTYLE
  2
THREE_QUARTER_INCH_SCALE0
 70
     0
  3
"
  4

  5
ARCHTICK
  6

  7

 40
1.0
 41
0.75
 42
1.5
 43
2.0
 44
1.0
 45
0.0
 46
0.0
 47
0.0
 48
0.0
140
1.5
141
2.0
142
0.0
143
25.399999999999999
144
1.0
145
0.0
146
1.0
147
1.0
 71
     0
 72
     0
 73
     0
 74
     0
 75
     0
 76
     0
 77
     1
 78
     0
170
     0
171
     2
172
     0
173
     0
174
     1
175
     0
176
     0
177
     0
178
     0
  0
DIMSTYLE
  2
ZHALF_INCH_SCALE0
 70
     0
  3
"
  4

  5
ARCHTICK
  6

  7

 40
1.0
 41
1.125
 42
2.25
 43
3.0
 44
1.5
 45
0.0
 46
0.0
 47
0.0
 48
0.0
140
2.25
141
3.0
142
0.0
143
25.399999999999999
144
1.0
145
0.0
146
1.0
147
1.5
 71
     0
 72
     0
 73
     0
 74
     0
 75
     0
 76
     0
 77
     1
 78
     0
170
     0
171
     2
172
     0
173
     0
174
     1
175
     0
176
     0
177
     0
178
     0
  0
ENDTAB
  0
ENDSEC
  0
SECTION
  2
BLOCKS
  0
BLOCK
  8
0
  2
$MODEL_SPACE
 70
     0
 10
0.0
 20
0.0
 30
0.0
  3
$MODEL_SPACE
  1

  0
ENDBLK
  5
C9DC
  8
0
  0
BLOCK
 67
     1
  8
0
  2
$PAPER_SPACE
 70
     0
 10
0.0
 20
0.0
 30
0.0
  3
$PAPER_SPACE
  1

  0
ENDBLK
  5
C9D8
 67
     1
  8
0
  0
BLOCK
  8
0
  2
_ARCHTICK
 70
     0
 10
0.0
 20
0.0
 30
0.0
  3
_ARCHTICK
  1

  0
POLYLINE
  5
158
  8
0
  6
BYBLOCK
 62
     0
 66
     1
 10
0.0
 20
0.0
 30
0.0
 40
0.15
 41
0.15
  0
VERTEX
  5
18FDE
  8
0
  6
BYBLOCK
 62
     0
 10
-0.5
 20
-0.5
 30
0.0
  0
VERTEX
  5
18FDF
  8
0
  6
BYBLOCK
 62
     0
 10
0.5
 20
0.5
 30
0.0
  0
SEQEND
  5
18FE0
  8
0
  6
BYBLOCK
 62
     0
  0
ENDBLK
  5
15A
  8
0
  0
BLOCK
  8
0
  2
_OPEN30
 70
     0
 10
0.0
 20
0.0
 30
0.0
  3
_OPEN30
  1

  0
LINE
  5
15C
  8
0
  6
BYBLOCK
 62
     0
 10
-1.0
 20
0.26794919
 30
0.0
 11
0.0
 21
0.0
 31
0.0
  0
LINE
  5
15D
  8
0
  6
BYBLOCK
 62
     0
 10
0.0
 20
0.0
 30
0.0
 11
-1.0
 21
-0.26794919
 31
0.0
  0
LINE
  5
15E
  8
0
  6
BYBLOCK
 62
     0
 10
0.0
 20
0.0
 30
0.0
 11
-1.0
 21
0.0
 31
0.0
  0
ENDBLK
  5
160
  8
0
  0
BLOCK
  8
0
  2
ISO_A2_TITLE_BLOCK
 70
     2
 10
0.0
 20
0.0
 30
0.0
  3
ISO_A2_TITLE_BLOCK
  1

  0
LINE
  5
BDD
  8
FRAME_050
 10
299.5
 20
12.5
 30
0.0
 11
297.0
 21
7.5
 31
0.0
  0
LINE
  5
BDE
  8
FRAME_050
 10
294.5
 20
12.5
 30
0.0
 11
299.5
 21
12.5
 31
0.0
  0
LINE
  5
BDF
  8
FRAME_050
 10
247.0
 20
5.0
 30
0.0
 11
347.0
 21
5.0
 31
0.0
  0
LINE
  5
BE0
  8
FRAME_070
 10
584.0
 20
410.0
 30
0.0
 11
10.0
 21
410.0
 31
0.0
  0
LINE
  5
BE1
  8
FRAME_070
 10
10.0
 20
10.0
 30
0.0
 11
584.0
 21
10.0
 31
0.0
  0
LINE
  5
BE2
  8
FRAME_050
 10
12.5
 20
207.5
 30
0.0
 11
7.5
 21
210.0
 31
0.0
  0
LINE
  5
BE3
  8
FRAME_050
 10
12.5
 20
212.5
 30
0.0
 11
12.5
 21
207.5
 31
0.0
  0
LINE
  5
BE4
  8
FRAME_070
 10
10.0
 20
410.0
 30
0.0
 11
10.0
 21
10.0
 31
0.0
  0
LINE
  5
BE5
  8
FRAME_200
 10
0.0
 20
0.0
 30
0.0
 11
0.0
 21
10.0
 31
0.0
  0
LINE
  5
BE6
  8
FRAME_200
 10
0.0
 20
0.0
 30
0.0
 11
10.0
 21
0.0
 31
0.0
  0
TEXT
  5
BE7
  8
FRAME_050
 10
5.9000000000000004
 20
35.0
 30
0.0
 40
4.0
  1
H
  7
ISO_PROPORTIONAL
 72
     4
 11
7.5
 21
37.0
 31
0.0
  0
LINE
  5
BE8
  8
FRAME_050
 10
10.0
 20
60.0
 30
0.0
 11
5.0
 21
60.0
 31
0.0
  0
LINE
  5
BE9
  8
FRAME_050
 10
81.75
 20
5.0
 30
0.0
 11
81.75
 21
10.0
 31
0.0
  0
TEXT
  5
BEA
  8
FRAME_050
 10
44.874999999999993
 20
5.5
 30
0.0
 40
4.0
  1
1
  7
ISO_PROPORTIONAL
 72
     4
 11
45.875
 21
7.5
 31
0.0
  0
TEXT
  5
BEB
  8
FRAME_050
 10
6.0035533905932743
 20
85.0
 30
0.0
 40
4.0
  1
G
  7
ISO_PROPORTIONAL
 72
     4
 11
7.5
 21
87.0
 31
0.0
  0
LINE
  5
BEC
  8
FRAME_050
 10
10.0
 20
110.0
 30
0.0
 11
5.0
 21
110.0
 31
0.0
  0
TEXT
  5
BED
  8
FRAME_050
 10
6.0999999999999988
 20
135.0
 30
0.0
 40
4.0
  1
F
  7
ISO_PROPORTIONAL
 72
     4
 11
7.5
 21
137.0
 31
0.0
  0
LINE
  5
BEE
  8
FRAME_050
 10
10.0
 20
160.0
 30
0.0
 11
5.0
 21
160.0
 31
0.0
  0
TEXT
  5
BEF
  8
FRAME_050
 10
6.0999999999999988
 20
185.0
 30
0.0
 40
4.0
  1
E
  7
ISO_PROPORTIONAL
 72
     4
 11
7.5
 21
187.0
 31
0.0
  0
LINE
  5
BF0
  8
FRAME_050
 10
153.5
 20
5.0
 30
0.0
 11
153.5
 21
10.0
 31
0.0
  0
TEXT
  5
BF1
  8
FRAME_050
 10
116.1556692913386
 20
5.3996062992125982
 30
0.0
 40
4.0
  1
2
  7
ISO_PROPORTIONAL
 72
     4
 11
117.625
 21
7.5
 31
0.0
  0
TEXT
  5
BF2
  8
FRAME_050
 10
187.89215728752529
 20
5.5828427124746138
 30
0.0
 40
4.0
  1
3
  7
ISO_PROPORTIONAL
 72
     4
 11
189.375
 21
7.5
 31
0.0
  0
LINE
  5
BF3
  8
FRAME_050
 10
225.25
 20
5.0
 30
0.0
 11
225.25
 21
10.0
 31
0.0
  0
LINE
  5
BF4
  8
FRAME_050
 10
297.0
 20
7.5
 30
0.0
 11
294.5
 21
12.5
 31
0.0
  0
LINE
  5
BF5
  8
FRAME_050
 10
287.0
 20
5.0
 30
0.0
 11
287.0
 21
10.0
 31
0.0
  0
LINE
  5
BF6
  8
FRAME_050
 10
277.0
 20
5.0
 30
0.0
 11
277.0
 21
10.0
 31
0.0
  0
LINE
  5
BF7
  8
FRAME_050
 10
267.0
 20
5.0
 30
0.0
 11
267.0
 21
10.0
 31
0.0
  0
LINE
  5
BF8
  8
FRAME_050
 10
257.0
 20
5.0
 30
0.0
 11
257.0
 21
10.0
 31
0.0
  0
LINE
  5
BF9
  8
FRAME_050
 10
247.0
 20
5.0
 30
0.0
 11
247.0
 21
10.0
 31
0.0
  0
LINE
  5
BFA
  8
FRAME_050
 10
297.0
 20
10.0
 30
0.0
 11
297.0
 21
5.0
 31
0.0
  0
LINE
  5
BFB
  8
FRAME_050
 10
297.0
 20
10.0
 30
0.0
 11
297.0
 21
15.0
 31
0.0
  0
LINE
  5
BFC
  8
FRAME_050
 10
5.0
 20
210.0
 30
0.0
 11
15.0
 21
210.0
 31
0.0
  0
LINE
  5
BFD
  8
FRAME_050
 10
7.5
 20
210.0
 30
0.0
 11
12.5
 21
212.5
 31
0.0
  0
TEXT
  5
BFE
  8
FRAME_050
 10
5.7860912703473977
 20
235.0
 30
0.0
 40
4.0
  1
D
  7
ISO_PROPORTIONAL
 72
     4
 11
7.5
 21
237.0
 31
0.0
  0
LINE
  5
BFF
  8
FRAME_050
 10
10.0
 20
260.0
 30
0.0
 11
5.0
 21
260.0
 31
0.0
  0
TEXT
  5
C00
  8
FRAME_050
 10
6.1931980515339466
 20
285.0
 30
0.0
 40
4.0
  1
C
  7
ISO_PROPORTIONAL
 72
     4
 11
7.5
 21
287.0
 31
0.0
  0
LINE
  5
C01
  8
FRAME_050
 10
10.0
 20
310.0
 30
0.0
 11
5.0
 21
310.0
 31
0.0
  0
TEXT
  5
C02
  8
FRAME_050
 10
5.8999999999999959
 20
335.0
 30
0.0
 40
4.0
  1
B
  7
ISO_PROPORTIONAL
 72
     4
 11
7.5
 21
337.0
 31
0.0
  0
LINE
  5
C03
  8
FRAME_050
 10
10.0
 20
360.0
 30
0.0
 11
5.0
 21
360.0
 31
0.0
  0
TEXT
  5
C04
  8
FRAME_050
 10
5.6999999999999993
 20
385.0
 30
0.0
 40
4.0
  1
A
  7
ISO_PROPORTIONAL
 72
     4
 11
7.5
 21
387.0
 31
0.0
  0
LINE
  5
C05
  8
FRAME_200
 10
10.0
 20
420.0
 30
0.0
 11
0.0
 21
420.0
 31
0.0
  0
LINE
  5
C06
  8
FRAME_200
 10
0.0
 20
420.0
 30
0.0
 11
0.0
 21
410.0
 31
0.0
  0
TEXT
  5
C07
  8
FRAME_050
 10
44.874999999999993
 20
410.5
 30
0.0
 40
4.0
  1
1
  7
ISO_PROPORTIONAL
 72
     4
 11
45.875
 21
412.5
 31
0.0
  0
LINE
  5
C08
  8
FRAME_050
 10
81.75
 20
410.0
 30
0.0
 11
81.75
 21
415.0
 31
0.0
  0
TEXT
  5
C09
  8
FRAME_050
 10
116.1556692913386
 20
410.39960629921262
 30
0.0
 40
4.0
  1
2
  7
ISO_PROPORTIONAL
 72
     4
 11
117.625
 21
412.5
 31
0.0
  0
LINE
  5
C0A
  8
FRAME_050
 10
153.5
 20
410.0
 30
0.0
 11
153.5
 21
415.0
 31
0.0
  0
TEXT
  5
C0B
  8
FRAME_050
 10
187.89215728752529
 20
410.58284271247459
 30
0.0
 40
4.0
  1
3
  7
ISO_PROPORTIONAL
 72
     4
 11
189.375
 21
412.5
 31
0.0
  0
LINE
  5
C0C
  8
FRAME_050
 10
297.0
 20
405.0
 30
0.0
 11
297.0
 21
415.0
 31
0.0
  0
LINE
  5
C0D
  8
FRAME_050
 10
225.25
 20
410.0
 30
0.0
 11
225.25
 21
415.0
 31
0.0
  0
TEXT
  5
C0E
  8
FRAME_050
 10
259.52499999999998
 20
410.5
 30
0.0
 40
4.0
  1
4
  7
ISO_PROPORTIONAL
 72
     4
 11
261.125
 21
412.5
 31
0.0
  0
LINE
  5
C0F
  8
FRAME_070
 10
584.0
 20
10.0
 30
0.0
 11
584.0
 21
410.0
 31
0.0
  0
ATTDEF
  5
C10
  8
FRAME_025
 10
473.0
 20
31.75
 30
0.0
 40
2.5
  1
XXX - 00/00/00
  7
ISO_PROPORTIONAL
 11
473.0
 21
33.0
 31
0.0
  3
Approved by - Date
  2
APPROVED_BY_DATE
 70
     8
 74
     2
  0
TEXT
  5
C11
  8
FRAME_025
 10
448.0
 20
41.749999999999993
 30
0.0
 40
2.5
  1
Title/Name, designation, material, dimension etc
  7
ISO_PROPORTIONAL
 11
448.0
 21
43.0
 31
0.0
 73
     2
  0
TEXT
  5
C12
  8
FRAME_025
 10
473.0
 20
35.75
 30
0.0
 40
2.5
  1
Approved by - date
  7
ISO_PROPORTIONAL
 11
473.0
 21
37.0
 31
0.0
 73
     2
  0
LINE
  5
C13
  8
FRAME_070
 10
414.0
 20
46.0
 30
0.0
 11
584.0
 21
46.0
 31
0.0
  0
LINE
  5
C14
  8
FRAME_070
 10
414.0
 20
40.0
 30
0.0
 11
584.0
 21
40.0
 31
0.0
  0
LINE
  5
C15
  8
FRAME_070
 10
414.0
 20
30.0
 30
0.0
 11
584.0
 21
30.0
 31
0.0
  0
LINE
  5
C16
  8
FRAME_050
 10
368.75
 20
5.0
 30
0.0
 11
368.75
 21
10.0
 31
0.0
  0
LINE
  5
C17
  8
FRAME_050
 10
337.0
 20
5.0
 30
0.0
 11
337.0
 21
10.0
 31
0.0
  0
LINE
  5
C18
  8
FRAME_050
 10
327.0
 20
5.0
 30
0.0
 11
327.0
 21
10.0
 31
0.0
  0
LINE
  5
C19
  8
FRAME_050
 10
317.0
 20
5.0
 30
0.0
 11
317.0
 21
10.0
 31
0.0
  0
LINE
  5
C1A
  8
FRAME_050
 10
307.0
 20
5.0
 30
0.0
 11
307.0
 21
10.0
 31
0.0
  0
LINE
  5
C1B
  8
FRAME_050
 10
347.0
 20
5.0
 30
0.0
 11
347.0
 21
10.0
 31
0.0
  0
LINE
  5
C1C
  8
FRAME_050
 10
440.5
 20
5.0
 30
0.0
 11
440.5
 21
10.0
 31
0.0
  0
TEXT
  5
C1D
  8
FRAME_050
 10
403.24547244094481
 20
5.4102362204724406
 30
0.0
 40
4.0
  1
6
  7
ISO_PROPORTIONAL
 72
     4
 11
404.62499999999989
 21
7.5
 31
0.0
  0
TEXT
  5
C1E
  8
FRAME_050
 10
474.97499999999991
 20
5.5
 30
0.0
 40
4.0
  1
7
  7
ISO_PROPORTIONAL
 72
     4
 11
476.37499999999989
 21
7.5
 31
0.0
  0
TEXT
  5
C1F
  8
FRAME_025
 10
431.0
 20
41.749999999999993
 30
0.0
 40
2.5
  1
Quantity
  7
ISO_PROPORTIONAL
 11
431.0
 21
43.0
 31
0.0
 73
     2
  0
TEXT
  5
C20
  8
FRAME_025
 10
416.0
 20
41.749999999999993
 30
0.0
 40
2.5
  1
Itemref
  7
ISO_PROPORTIONAL
 11
416.0
 21
43.0
 31
0.0
 73
     2
  0
LINE
  5
C21
  8
FRAME_070
 10
414.0
 20
40.0
 30
0.0
 11
414.0
 21
46.0
 31
0.0
  0
LINE
  5
C22
  8
FRAME_070
 10
429.0
 20
40.0
 30
0.0
 11
429.0
 21
46.0
 31
0.0
  0
LINE
  5
C23
  8
FRAME_070
 10
414.0
 20
10.0
 30
0.0
 11
414.0
 21
40.0
 31
0.0
  0
ATTDEF
  5
C24
  8
FRAME_025
 10
416.0
 20
31.75
 30
0.0
 40
2.5
  1
XXX
  7
ISO_PROPORTIONAL
 11
416.0
 21
33.0
 31
0.0
  3
Designed by
  2
DESIGNED_BY
 70
     8
 74
     2
  0
TEXT
  5
C25
  8
FRAME_025
 10
416.0
 20
35.75
 30
0.0
 40
2.5
  1
Designed by
  7
ISO_PROPORTIONAL
 11
416.0
 21
37.0
 31
0.0
 73
     2
  0
LINE
  5
C26
  8
FRAME_070
 10
446.0
 20
40.0
 30
0.0
 11
446.0
 21
46.0
 31
0.0
  0
ATTDEF
  5
C27
  8
FRAME_025
 10
448.0
 20
31.75
 30
0.0
 40
2.5
  1
XXX
  7
ISO_PROPORTIONAL
 11
448.0
 21
33.0
 31
0.0
  3
Checked by
  2
CHECKED_BY
 70
     8
 74
     2
  0
TEXT
  5
C28
  8
FRAME_025
 10
448.0
 20
35.75
 30
0.0
 40
2.5
  1
Checked by
  7
ISO_PROPORTIONAL
 11
448.0
 21
37.0
 31
0.0
 73
     2
  0
ATTDEF
  5
C29
  8
FRAME_050
 10
444.74999999999989
 20
17.5
 30
0.0
 40
5.0
  1
XXX
  7
ISO_PROPORTIONAL
 72
     4
 11
451.49999999999989
 21
20.0
 31
0.0
  3
Owner
  2
OWNER
 70
     8
  0
LINE
  5
C2A
  8
FRAME_070
 10
446.0
 20
30.0
 30
0.0
 11
446.0
 21
40.0
 31
0.0
  0
LINE
  5
C2B
  8
FRAME_070
 10
471.0
 20
30.0
 30
0.0
 11
471.0
 21
40.0
 31
0.0
  0
LINE
  5
C2C
  8
FRAME_070
 10
489.0
 20
20.0
 30
0.0
 11
584.0
 21
20.0
 31
0.0
  0
LINE
  5
C2D
  8
FRAME_050
 10
512.25
 20
5.0
 30
0.0
 11
512.25
 21
10.0
 31
0.0
  0
TEXT
  5
C2E
  8
FRAME_050
 10
546.72499999999991
 20
5.5
 30
0.0
 40
4.0
  1
8
  7
ISO_PROPORTIONAL
 72
     4
 11
548.125
 21
7.5
 31
0.0
  0
ATTDEF
  5
C2F
  8
FRAME_050
 10
517.64999999999986
 20
13.5
 30
0.0
 40
3.0
  1
X
  7
ISO_PROPORTIONAL
 72
     4
 11
519.0
 21
15.0
 31
0.0
  3
Drawing number
  2
DRAWING_NUMBER
 70
     8
  0
ATTDEF
  5
C30
  8
FRAME_050
 10
529.75
 20
22.5
 30
0.0
 40
5.0
  1
XXX
  7
ISO_PROPORTIONAL
 72
     4
 11
536.5
 21
25.0
 31
0.0
  3
Title / Name
  2
TITLE
 70
     8
  0
LINE
  5
C31
  8
FRAME_070
 10
489.0
 20
10.0
 30
0.0
 11
489.0
 21
30.0
 31
0.0
  0
ATTDEF
  5
C32
  8
FRAME_025
 10
511.0
 20
31.75
 30
0.0
 40
2.5
  1
XXX
  7
ISO_PROPORTIONAL
 11
511.0
 21
33.0
 31
0.0
  3
Filename
  2
FILENAME
 70
     8
 74
     2
  0
TEXT
  5
C33
  8
FRAME_025
 10
511.0
 20
35.75
 30
0.0
 40
2.5
  1
Filename
  7
ISO_PROPORTIONAL
 11
511.0
 21
37.0
 31
0.0
 73
     2
  0
LINE
  5
C34
  8
FRAME_070
 10
509.0
 20
30.0
 30
0.0
 11
509.0
 21
40.0
 31
0.0
  0
TEXT
  5
C35
  8
FRAME_025
 10
536.0
 20
41.749999999999993
 30
0.0
 40
2.5
  1
Article No./Reference
  7
ISO_PROPORTIONAL
 11
536.0
 21
43.0
 31
0.0
 73
     2
  0
LINE
  5
C36
  8
FRAME_070
 10
534.0
 20
40.0
 30
0.0
 11
534.0
 21
46.0
 31
0.0
  0
ATTDEF
  5
C37
  8
FRAME_025
 10
551.0
 20
11.75
 30
0.0
 40
2.5
  1
0
  7
ISO_PROPORTIONAL
 11
551.0
 21
13.0
 31
0.0
  3
Edition
  2
EDITION
 70
     8
 74
     2
  0
TEXT
  5
C38
  8
FRAME_025
 10
551.0
 20
15.75
 30
0.0
 40
2.5
  1
Edition
  7
ISO_PROPORTIONAL
 11
551.0
 21
17.0
 31
0.0
 73
     2
  0
LINE
  5
C39
  8
FRAME_070
 10
549.0
 20
10.0
 30
0.0
 11
549.0
 21
20.0
 31
0.0
  0
ATTDEF
  5
C3A
  8
FRAME_025
 10
536.0
 20
31.75
 30
0.0
 40
2.5
  1
00/00/00
  7
ISO_PROPORTIONAL
 11
536.0
 21
33.0
 31
0.0
  3
Date
  2
DATE
 70
     8
 74
     2
  0
TEXT
  5
C3B
  8
FRAME_025
 10
536.0
 20
35.75
 30
0.0
 40
2.5
  1
Date
  7
ISO_PROPORTIONAL
 11
536.0
 21
37.0
 31
0.0
 73
     2
  0
LINE
  5
C3C
  8
FRAME_070
 10
534.0
 20
30.0
 30
0.0
 11
534.0
 21
40.0
 31
0.0
  0
ATTDEF
  5
C3D
  8
FRAME_025
 10
566.0
 20
11.75
 30
0.0
 40
2.5
  1
1/1
  7
ISO_PROPORTIONAL
 11
566.0
 21
13.0
 31
0.0
  3
Sheet
  2
SHEET
 70
     8
 74
     2
  0
TEXT
  5
C3E
  8
FRAME_025
 10
566.0
 20
15.75
 30
0.0
 40
2.5
  1
Sheet
  7
ISO_PROPORTIONAL
 11
566.0
 21
17.0
 31
0.0
 73
     2
  0
LINE
  5
C3F
  8
FRAME_070
 10
564.0
 20
10.0
 30
0.0
 11
564.0
 21
20.0
 31
0.0
  0
ATTDEF
  5
C40
  8
FRAME_025
 10
566.0
 20
31.75
 30
0.0
 40
2.5
  1
1:1
  7
ISO_PROPORTIONAL
 11
566.0
 21
33.0
 31
0.0
  3
Scale
  2
SCALE
 70
     8
 74
     2
  0
TEXT
  5
C41
  8
FRAME_025
 10
566.0
 20
35.75
 30
0.0
 40
2.5
  1
Scale
  7
ISO_PROPORTIONAL
 11
566.0
 21
37.0
 31
0.0
 73
     2
  0
LINE
  5
C42
  8
FRAME_070
 10
564.0
 20
30.0
 30
0.0
 11
564.0
 21
40.0
 31
0.0
  0
LINE
  5
C43
  8
FRAME_200
 10
594.0
 20
0.0
 30
0.0
 11
594.0
 21
10.0
 31
0.0
  0
LINE
  5
C44
  8
FRAME_200
 10
594.0
 20
0.0
 30
0.0
 11
584.0
 21
0.0
 31
0.0
  0
TEXT
  5
C45
  8
FRAME_050
 10
584.89999999999998
 20
35.0
 30
0.0
 40
4.0
  1
H
  7
ISO_PROPORTIONAL
 72
     4
 11
586.5
 21
37.0
 31
0.0
  0
LINE
  5
C46
  8
FRAME_050
 10
589.0
 20
60.0
 30
0.0
 11
584.0
 21
60.0
 31
0.0
  0
TEXT
  5
C47
  8
FRAME_050
 10
585.0035533905932
 20
85.0
 30
0.0
 40
4.0
  1
G
  7
ISO_PROPORTIONAL
 72
     4
 11
586.5
 21
87.0
 31
0.0
  0
LINE
  5
C48
  8
FRAME_050
 10
589.0
 20
110.0
 30
0.0
 11
584.0
 21
110.0
 31
0.0
  0
TEXT
  5
C49
  8
FRAME_050
 10
585.09999999999991
 20
135.0
 30
0.0
 40
4.0
  1
F
  7
ISO_PROPORTIONAL
 72
     4
 11
586.5
 21
137.0
 31
0.0
  0
LINE
  5
C4A
  8
FRAME_050
 10
589.0
 20
160.0
 30
0.0
 11
584.0
 21
160.0
 31
0.0
  0
TEXT
  5
C4B
  8
FRAME_050
 10
585.09999999999991
 20
185.0
 30
0.0
 40
4.0
  1
E
  7
ISO_PROPORTIONAL
 72
     4
 11
586.5
 21
187.0
 31
0.0
  0
LINE
  5
C4C
  8
FRAME_070
 10
414.0
 20
404.0
 30
0.0
 11
584.0
 21
404.0
 31
0.0
  0
TEXT
  5
C4D
  8
FRAME_050
 10
331.39215728752538
 20
410.58284271247459
 30
0.0
 40
4.0
  1
5
  7
ISO_PROPORTIONAL
 72
     4
 11
332.875
 21
412.5
 31
0.0
  0
LINE
  5
C4E
  8
FRAME_050
 10
368.75
 20
410.0
 30
0.0
 11
368.75
 21
415.0
 31
0.0
  0
TEXT
  5
C4F
  8
FRAME_025
 10
428.0
 20
405.75
 30
0.0
 40
2.5
  1
Revision note
  7
ISO_PROPORTIONAL
 11
428.0
 21
407.0
 31
0.0
 73
     2
  0
TEXT
  5
C50
  8
FRAME_025
 10
416.0
 20
405.75
 30
0.0
 40
2.5
  1
RevNo
  7
ISO_PROPORTIONAL
 11
416.0
 21
407.0
 31
0.0
 73
     2
  0
LINE
  5
C51
  8
FRAME_070
 10
426.0
 20
404.0
 30
0.0
 11
426.0
 21
410.0
 31
0.0
  0
LINE
  5
C52
  8
FRAME_070
 10
414.0
 20
404.0
 30
0.0
 11
414.0
 21
410.0
 31
0.0
  0
TEXT
  5
C53
  8
FRAME_050
 10
403.24547244094481
 20
410.41023622047243
 30
0.0
 40
4.0
  1
6
  7
ISO_PROPORTIONAL
 72
     4
 11
404.62499999999989
 21
412.5
 31
0.0
  0
LINE
  5
C54
  8
FRAME_050
 10
440.5
 20
410.0
 30
0.0
 11
440.5
 21
415.0
 31
0.0
  0
TEXT
  5
C55
  8
FRAME_050
 10
474.97499999999991
 20
410.5
 30
0.0
 40
4.0
  1
7
  7
ISO_PROPORTIONAL
 72
     4
 11
476.37499999999989
 21
412.5
 31
0.0
  0
LINE
  5
C56
  8
FRAME_050
 10
579.0
 20
210.0
 30
0.0
 11
589.0
 21
210.0
 31
0.0
  0
TEXT
  5
C57
  8
FRAME_050
 10
584.78609127034736
 20
235.0
 30
0.0
 40
4.0
  1
D
  7
ISO_PROPORTIONAL
 72
     4
 11
586.5
 21
237.0
 31
0.0
  0
LINE
  5
C58
  8
FRAME_050
 10
589.0
 20
260.0
 30
0.0
 11
584.0
 21
260.0
 31
0.0
  0
TEXT
  5
C59
  8
FRAME_050
 10
585.19319805153395
 20
285.0
 30
0.0
 40
4.0
  1
C
  7
ISO_PROPORTIONAL
 72
     4
 11
586.5
 21
287.0
 31
0.0
  0
LINE
  5
C5A
  8
FRAME_050
 10
589.0
 20
310.0
 30
0.0
 11
584.0
 21
310.0
 31
0.0
  0
TEXT
  5
C5B
  8
FRAME_050
 10
584.89999999999998
 20
335.0
 30
0.0
 40
4.0
  1
B
  7
ISO_PROPORTIONAL
 72
     4
 11
586.5
 21
337.0
 31
0.0
  0
TEXT
  5
C5C
  8
FRAME_025
 10
571.08299391850551
 20
405.75
 30
0.0
 40
2.5
  1
Checked
  7
ISO_PROPORTIONAL
 11
571.08299391850551
 21
407.0
 31
0.0
 73
     2
  0
TEXT
  5
C5D
  8
FRAME_025
 10
555.36099797283521
 20
405.75
 30
0.0
 40
2.5
  1
Signature
  7
ISO_PROPORTIONAL
 11
555.36099797283521
 21
407.0
 31
0.0
 73
     2
  0
TEXT
  5
C5E
  8
FRAME_025
 10
537.0
 20
405.75
 30
0.0
 40
2.5
  1
Date
  7
ISO_PROPORTIONAL
 11
537.0
 21
407.0
 31
0.0
 73
     2
  0
LINE
  5
C5F
  8
FRAME_070
 10
570.0
 20
404.0
 30
0.0
 11
570.0
 21
410.0
 31
0.0
  0
LINE
  5
C60
  8
FRAME_070
 10
555.0
 20
404.0
 30
0.0
 11
555.0
 21
410.0
 31
0.0
  0
LINE
  5
C61
  8
FRAME_070
 10
535.0
 20
404.0
 30
0.0
 11
535.0
 21
410.0
 31
0.0
  0
LINE
  5
C62
  8
FRAME_050
 10
512.25
 20
410.0
 30
0.0
 11
512.25
 21
415.0
 31
0.0
  0
TEXT
  5
C63
  8
FRAME_050
 10
546.72499999999991
 20
410.5
 30
0.0
 40
4.0
  1
8
  7
ISO_PROPORTIONAL
 72
     4
 11
548.125
 21
412.5
 31
0.0
  0
LINE
  5
C64
  8
FRAME_050
 10
589.0
 20
360.0
 30
0.0
 11
584.0
 21
360.0
 31
0.0
  0
TEXT
  5
C65
  8
FRAME_050
 10
584.70000000000005
 20
385.0
 30
0.0
 40
4.0
  1
A
  7
ISO_PROPORTIONAL
 72
     4
 11
586.5
 21
387.0
 31
0.0
  0
LINE
  5
C66
  8
FRAME_200
 10
594.0
 20
420.0
 30
0.0
 11
584.0
 21
420.0
 31
0.0
  0
LINE
  5
C67
  8
FRAME_200
 10
594.0
 20
410.0
 30
0.0
 11
594.0
 21
420.0
 31
0.0
  0
ENDBLK
  5
C69
  8
0
  0
BLOCK
  8
0
  2
WOBB001END
 70
     0
 10
0.0
 20
0.0
 30
0.0
  3
WOBB001END
  1

  0
LINE
  5
4D66
  8
0
  6
CONTINUOUS
 10
0.0
 20
0.0
 30
0.0
 11
0.8749999999999998
 21
0.0
 31
0.0
  0
ARC
  5
4D67
  8
0
  6
CONTINUOUS
 10
0.0331648379439287
 20
-0.5087238935900234
 30
0.0
 40
0.8790130605592325
 50
284.06490243660443
 51
312.19222981924361
  0
ARC
  5
4D68
  8
0
  6
CONTINUOUS
 10
0.2841534338796767
 20
-1.510548310625538
 30
0.0
 40
0.1537731892806598
 50
104.0649024366044
 51
179.4721730735024
  0
LINE
  5
4D69
  8
0
  6
CONTINUOUS
 10
0.0
 20
0.0
 30
0.0
 11
-0.0000000000000003
 21
-1.7501564476661911
 31
0.0
  0
ARC
  5
4D6A
  8
0
  6
CONTINUOUS
 10
0.1404622019506122
 20
-1.630313718354619
 30
0.0
 40
0.1198427293115722
 50
275.0
 51
85.000000000000057
  0
LINE
  5
4D6B
  8
0
  6
CONTINUOUS
 10
-0.0000000000000003
 20
-1.7501564476661911
 30
0.0
 11
0.1456946485130855
 21
-1.7501564476661911
 31
0.0
  0
LINE
  5
4D6C
  8
0
  6
CONTINUOUS
 10
0.1377603739254348
 20
-1.7508506067459131
 30
0.0
 11
0.150907184036669
 21
-1.7497004098996509
 31
0.0
  0
LINE
  5
4D6D
  8
0
  6
CONTINUOUS
 10
0.1303867696719884
 20
-1.5091317231818231
 30
0.0
 11
0.1509071840366689
 21
-1.510927026809586
 31
0.0
  0
LINE
  5
4D6E
  8
0
  6
CONTINUOUS
 10
0.8749999999999998
 20
0.0
 30
0.0
 11
0.8749999999999996
 21
-0.8649327026588228
 31
0.0
  0
LINE
  5
4D6F
  8
0
  6
CONTINUOUS
 10
0.727014513830997
 20
-0.872688293355061
 30
0.0
 11
0.727014513830997
 21
-0.9264923397184784
 31
0.0
  0
ARC
  5
4D70
  8
0
  6
CONTINUOUS
 10
0.41187090827646
 20
-0.9264923397184784
 30
0.0
 40
0.3151436055545369
 50
312.19222981924361
 51
0.0
  0
LINE
  5
4D71
  8
0
  6
CONTINUOUS
 10
0.727014513830997
 20
-0.872688293355061
 30
0.0
 11
0.8749999999999996
 21
-0.8649327026588228
 31
0.0
  0
ENDBLK
  5
4D72
  8
0
  0
BLOCK
  8
0
  2
A$C0A61123B
 70
     0
 10
0.0
 20
0.0
 30
0.0
  3
A$C0A61123B
  1

  0
LINE
  5
C0AD
  8
PROF
  6
CONTINUOUS
 10
4.9012016798694162
 20
13.325025853350891
 30
0.0000000000000002
 11
4.9012016798694162
 21
12.88585218805485
 31
0.0000000000000003
  0
INSERT
  5
C0AE
  8
0
  2
*U7
 10
0.0
 20
0.0
 30
0.0
  0
LINE
  5
C0AF
  8
PROF
 10
4.519857503186925
 20
12.72227734589444
 30
0.0000000000000001
 11
4.519857503186925
 21
12.88585218805485
 31
0.0000000000000001
  0
LINE
  5
C0B0
  8
PROF
  6
CONTINUOUS
 10
3.6306271195888362
 20
13.325025853350891
 30
0.0000000000000002
 11
4.9012016798694162
 21
13.325025853350891
 31
0.0000000000000002
  0
LINE
  5
C0B1
  8
PROF
 10
1.9750295148747341
 20
10.37671325491794
 30
0.0000000000000002
 11
1.9750295148747341
 21
10.11391186758919
 31
0.0000000000000002
  0
LINE
  5
C0B2
  8
PROF
 10
1.6079673357556299
 20
10.11391186758919
 30
0.0000000000000001
 11
1.9750295148747341
 21
10.11391186758919
 31
0.0000000000000001
  0
LINE
  5
C0B3
  8
PROF
 10
1.9750295148747341
 20
10.11391186758919
 30
0.0000000000000001
 11
1.944958486898144
 21
10.11391186758919
 31
0.0000000000000001
  0
LINE
  5
C0B4
  8
PROF
 10
1.9750295148747341
 20
10.11391186758919
 30
0.0000000000000001
 11
1.944958486898144
 21
10.11391186758919
 31
0.0000000000000001
  0
LINE
  5
C0B5
  8
PROF
 10
0.3222605517169654
 20
7.5247473351056451
 30
-0.0000000000000002
 11
-0.0000008570117416
 21
7.5247473351056451
 31
0.0
  0
LINE
  5
C0B6
  8
PROF
 10
-0.0000008570117416
 20
7.5247473351056451
 30
0.0
 11
-0.0000008570117416
 21
9.1943336957369848
 31
0.0
  0
POLYLINE
  5
C0B7
  8
PROF
 66
     1
 10
0.0
 20
0.0
 30
0.0000000000000001
 70
     4
 75
     6
  0
VERTEX
  5
C0B8
  8
PROF
 10
1.6079673357556299
 20
10.11391186758919
 30
0.0000000000000001
 70
    16
  0
VERTEX
  5
C0B9
  8
PROF
 10
1.6079673357556299
 20
10.11391186758919
 30
0.0000000000000001
 70
     8
  0
VERTEX
  5
C0BA
  8
PROF
 10
1.6468132326485809
 20
10.02198069336111
 30
0.0000000000000001
 70
     8
  0
VERTEX
  5
C0BB
  8
PROF
 10
1.67335966680929
 20
9.9344134163010231
 30
0.0000000000000001
 70
     8
  0
VERTEX
  5
C0BC
  8
PROF
 10
1.6890086400463229
 20
9.8512576644480951
 30
0.0000000000000001
 70
     8
  0
VERTEX
  5
C0BD
  8
PROF
 10
1.6951621541682571
 20
9.7725610658417281
 30
0.0000000000000001
 70
     8
  0
VERTEX
  5
C0BE
  8
PROF
 10
1.693222210983605
 20
9.6983712485214237
 30
0.0000000000000001
 70
     8
  0
VERTEX
  5
C0BF
  8
PROF
 10
1.6845908123009961
 20
9.6287358405263603
 30
0.0000000000000001
 70
     8
  0
VERTEX
  5
C0C0
  8
PROF
 10
1.670669959928885
 20
9.5637024698960431
 30
0.0000000000000001
 70
     8
  0
VERTEX
  5
C0C1
  8
PROF
 10
1.6528616556759621
 20
9.5033187646697552
 30
0.0000000000000001
 70
     8
  0
VERTEX
  5
C0C2
  8
PROF
 10
1.632356299273054
 20
9.4475843259650691
 30
0.0000000000000001
 70
     8
  0
VERTEX
  5
C0C3
  8
PROF
 10
1.609497882140658
 20
9.3963066472123273
 30
0.0000000000000001
 70
     8
  0
VERTEX
  5
C0C4
  8
PROF
 10
1.584418793621637
 20
9.3492451949202842
 30
0.0000000000000001
 70
     8
  0
VERTEX
  5
C0C5
  8
PROF
 10
1.5572514230587431
 20
9.3061594355972357
 30
0.0000000000000001
 70
     8
  0
VERTEX
  5
C0C6
  8
PROF
 10
1.5281281597949601
 20
9.2668088357519274
 30
0.0000000000000001
 70
     8
  0
VERTEX
  5
C0C7
  8
PROF
 10
1.497181393172978
 20
9.2309528618929981
 30
0.0000000000000001
 70
     8
  0
VERTEX
  5
C0C8
  8
PROF
 10
1.4645435125357249
 20
9.1983509805288541
 30
0.0000000000000001
 70
     8
  0
VERTEX
  5
C0C9
  8
PROF
 10
1.4303469072260091
 20
9.1687626581682462
 30
0.0000000000000001
 70
     8
  0
VERTEX
  5
C0CA
  8
PROF
 10
1.394736033257401
 20
9.1419547918675335
 30
0.0000000000000001
 70
     8
  0
VERTEX
  5
C0CB
  8
PROF
 10
1.3579036133264131
 20
9.1177240008747713
 30
0.0000000000000001
 70
     8
  0
VERTEX
  5
C0CC
  8
PROF
 10
1.3200544368004321
 20
9.0958743349860924
 30
0.0000000000000001
 70
     8
  0
VERTEX
  5
C0CD
  8
PROF
 10
1.281393293046676
 20
9.0762098439975034
 30
0.0000000000000001
 70
     8
  0
VERTEX
  5
C0CE
  8
PROF
 10
1.2421249714324161
 20
9.0585345777049042
 30
0.0000000000000001
 70
     8
  0
VERTEX
  5
C0CF
  8
PROF
 10
1.202454261324986
 20
9.0426525859044187
 30
0.0000000000000001
 70
     8
  0
VERTEX
  5
C0D0
  8
PROF
 10
1.162585952091659
 20
9.0283679183919503
 30
0.0000000000000001
 70
     8
  0
VERTEX
  5
C0D1
  8
PROF
 10
1.1227248330997091
 20
9.0154846249635021
 30
0.0000000000000001
 70
     8
  0
VERTEX
  5
C0D2
  8
PROF
 10
1.0829726247361
 20
9.0034643862466055
 30
0.0000000000000001
 70
     8
  0
VERTEX
  5
C0D3
  8
PROF
 10
1.043018771466222
 20
8.9903994061946833
 30
0.0000000000000001
 70
     8
  0
VERTEX
  5
C0D4
  8
PROF
 10
1.002449648775211
 20
8.9740395195925622
 30
0.0000000000000001
 70
     8
  0
VERTEX
  5
C0D5
  8
PROF
 10
0.9608516321480919
 20
8.9521345612251935
 30
0.0000000000000001
 70
     8
  0
VERTEX
  5
C0D6
  8
PROF
 10
0.9178110970699435
 20
8.9224343658775052
 30
0.0000000000000001
 70
     8
  0
VERTEX
  5
C0D7
  8
PROF
 10
0.8729144190259033
 20
8.8826887683343312
 30
0.0000000000000001
 70
     8
  0
VERTEX
  5
C0D8
  8
PROF
 10
0.8257479735009949
 20
8.8306476033806121
 30
0.0000000000000001
 70
     8
  0
VERTEX
  5
C0D9
  8
PROF
 10
0.7758981359802988
 20
8.764060705801171
 30
0.0000000000000001
 70
     8
  0
VERTEX
  5
C0DA
  8
PROF
 10
1.7292019016096549
 20
9.8629858761255491
 30
0.0000000000000001
 70
    16
  0
VERTEX
  5
C0DB
  8
PROF
 10
1.679373123114088
 20
9.4532143012734213
 30
0.0000000000000001
 70
    16
  0
VERTEX
  5
C0DC
  8
PROF
 10
1.4455611507419801
 20
9.1391837193732481
 30
0.0000000000000001
 70
    16
  0
VERTEX
  5
C0DD
  8
PROF
 10
1.1204637172738201
 20
9.0026267702428413
 30
0.0000000000000001
 70
    16
  0
VERTEX
  5
C0DE
  8
PROF
 10
0.9127765582653638
 20
8.9630202230383702
 30
0.0000000000000001
 70
    16
  0
VERTEX
  5
C0DF
  8
PROF
 10
0.7758981359802988
 20
8.764060705801171
 30
0.0000000000000001
 70
    16
  0
SEQEND
  5
C0E0
  8
PROF
  0
ARC
  5
C0E1
  8
PROF
 10
0.733429816733235
 20
8.4849506952165257
 30
0.0000000000000001
 40
0.2823224329524727
 50
269.73652020831901
 51
81.348449993176914
  0
LINE
  5
C0E2
  8
PROF
  6
CONTINUOUS
 10
-0.0000008570117416
 20
9.1943336957369848
 30
-0.0000000000000001
 11
3.6306271195888362
 21
13.325025853350891
 31
0.0000000000000002
  0
POLYLINE
  5
C0E3
  8
PROF
 66
     1
 10
0.0
 20
0.0
 30
0.0000000000000001
 70
     4
 75
     6
  0
VERTEX
  5
C0E4
  8
PROF
 10
4.519857503186925
 20
12.72227734589444
 30
0.0000000000000001
 70
    16
  0
VERTEX
  5
C0E5
  8
PROF
 10
4.519857503186925
 20
12.72227734589444
 30
0.0000000000000001
 70
     8
  0
VERTEX
  5
C0E6
  8
PROF
 10
4.4467035366886289
 20
12.741128108778071
 30
0.0000000000000001
 70
     8
  0
VERTEX
  5
C0E7
  8
PROF
 10
4.3786645761268801
 20
12.754675269913941
 30
0.0000000000000001
 70
     8
  0
VERTEX
  5
C0E8
  8
PROF
 10
4.3154364111440469
 20
12.76334314092332
 30
0.0000000000000001
 70
     8
  0
VERTEX
  5
C0E9
  8
PROF
 10
4.256714831382566
 20
12.76755603342724
 30
0.0000000000000001
 70
     8
  0
VERTEX
  5
C0EA
  8
PROF
 10
4.2021956264849791
 20
12.76773825904672
 30
0.0000000000000001
 70
     8
  0
VERTEX
  5
C0EB
  8
PROF
 10
4.1515745860935436
 20
12.764314129403139
 30
0.0000000000000001
 70
     8
  0
VERTEX
  5
C0EC
  8
PROF
 10
4.1045474998508649
 20
12.75770795611743
 30
0.0000000000000001
 70
     8
  0
VERTEX
  5
C0ED
  8
PROF
 10
4.0608101573993149
 20
12.748344050810831
 30
0.0000000000000001
 70
     8
  0
VERTEX
  5
C0EE
  8
PROF
 10
4.0200583483813261
 20
12.736646725104491
 30
0.0000000000000001
 70
     8
  0
VERTEX
  5
C0EF
  8
PROF
 10
3.981987862439381
 20
12.72304029061945
 30
0.0000000000000001
 70
     8
  0
VERTEX
  5
C0F0
  8
PROF
 10
3.946294489215858
 20
12.707949058976959
 30
0.0000000000000001
 70
     8
  0
VERTEX
  5
C0F1
  8
PROF
 10
3.912674018353242
 20
12.691797341798059
 30
0.0000000000000001
 70
     8
  0
VERTEX
  5
C0F2
  8
PROF
 10
3.8808638350742499
 20
12.67494295718654
 30
0.0000000000000001
 70
     8
  0
VERTEX
  5
C0F3
  8
PROF
 10
3.850767706922738
 20
12.65747774917668
 30
0.0000000000000001
 70
     8
  0
VERTEX
  5
C0F4
  8
PROF
 10
3.8223309970228438
 20
12.639427068285499
 30
0.0000000000000001
 70
     8
  0
VERTEX
  5
C0F5
  8
PROF
 10
3.795499068498712
 20
12.62081626503004
 30
0.0000000000000001
 70
     8
  0
VERTEX
  5
C0F6
  8
PROF
 10
3.7702172844744819
 20
12.601670689926999
 30
0.0000000000000001
 70
     8
  0
VERTEX
  5
C0F7
  8
PROF
 10
3.7464310080743521
 20
12.58201569349364
 30
0.0000000000000001
 70
     8
  0
VERTEX
  5
C0F8
  8
PROF
 10
3.7240856024224609
 20
12.56187662624666
 30
0.0000000000000001
 70
     8
  0
VERTEX
  5
C0F9
  8
PROF
 10
3.7031264306428961
 20
12.541278838703191
 30
0.0000000000000001
 70
     8
  0
VERTEX
  5
C0FA
  8
PROF
 10
3.683498855859908
 20
12.520247681380051
 30
0.0000000000000001
 70
     8
  0
VERTEX
  5
C0FB
  8
PROF
 10
3.665148241197528
 20
12.49880850479428
 30
0.0000000000000001
 70
     8
  0
VERTEX
  5
C0FC
  8
PROF
 10
3.648019949779949
 20
12.47698665946279
 30
0.0000000000000001
 70
     8
  0
VERTEX
  5
C0FD
  8
PROF
 10
3.6320593447313159
 20
12.45480749590263
 30
0.0000000000000001
 70
     8
  0
VERTEX
  5
C0FE
  8
PROF
 10
3.617189584886658
 20
12.43223790353807
 30
0.0000000000000001
 70
     8
  0
VERTEX
  5
C0FF
  8
PROF
 10
3.6032450119242849
 20
12.40901092742285
 30
0.0000000000000001
 70
     8
  0
VERTEX
  5
C100
  8
PROF
 10
3.590037763233453
 20
12.38480115151844
 30
0.0000000000000001
 70
     8
  0
VERTEX
  5
C101
  8
PROF
 10
3.5773799762033032
 20
12.35928315978594
 30
0.0000000000000001
 70
     8
  0
VERTEX
  5
C102
  8
PROF
 10
3.5650837882230899
 20
12.33213153618658
 30
0.0000000000000001
 70
     8
  0
VERTEX
  5
C103
  8
PROF
 10
3.552961336681959
 20
12.303020864681571
 30
0.0000000000000001
 70
     8
  0
VERTEX
  5
C104
  8
PROF
 10
3.540824758969165
 20
12.271625729232371
 30
0.0000000000000001
 70
     8
  0
VERTEX
  5
C105
  8
PROF
 10
3.528486192473848
 20
12.23762071379997
 30
0.0000000000000001
 70
     8
  0
VERTEX
  5
C106
  8
PROF
 10
3.5157577745852659
 20
12.200680402345711
 30
0.0000000000000001
 70
     8
  0
VERTEX
  5
C107
  8
PROF
 10
3.502451642692618
 20
12.16047937883093
 30
0.0000000000000001
 70
     8
  0
VERTEX
  5
C108
  8
PROF
 10
3.4883799341851041
 20
12.116692227216619
 30
0.0000000000000001
 70
     8
  0
VERTEX
  5
C109
  8
PROF
 10
3.4733547864519201
 20
12.06899353146423
 30
0.0000000000000001
 70
     8
  0
VERTEX
  5
C10A
  8
PROF
 10
3.45723654619428
 20
12.0172095445447
 30
0.0000000000000001
 70
     8
  0
VERTEX
  5
C10B
  8
PROF
 10
3.440078397361388
 20
11.961773195467799
 30
0.0000000000000001
 70
     8
  0
VERTEX
  5
C10C
  8
PROF
 10
3.4219817332145781
 20
11.90326908225302
 30
0.0000000000000001
 70
     8
  0
VERTEX
  5
C10D
  8
PROF
 10
3.4030479470150099
 20
11.842281802919951
 30
0.0000000000000001
 70
     8
  0
VERTEX
  5
C10E
  8
PROF
 10
3.383378432024017
 20
11.779395955487979
 30
0.0000000000000001
 70
     8
  0
VERTEX
  5
C10F
  8
PROF
 10
3.36307458150287
 20
11.7151961379768
 30
0.0000000000000001
 70
     8
  0
VERTEX
  5
C110
  8
PROF
 10
3.342237788712735
 20
11.650266948405831
 30
0.0000000000000001
 70
     8
  0
VERTEX
  5
C111
  8
PROF
 10
3.3209694469149991
 20
11.58519298479461
 30
0.0000000000000001
 70
     8
  0
VERTEX
  5
C112
  8
PROF
 10
3.299370949370767
 20
11.52055884516254
 30
0.0000000000000001
 70
     8
  0
VERTEX
  5
C113
  8
PROF
 10
3.277543689341428
 20
11.456949127529461
 30
0.0000000000000001
 70
     8
  0
VERTEX
  5
C114
  8
PROF
 10
3.2555890600881399
 20
11.3949484299145
 30
0.0000000000000001
 70
     8
  0
VERTEX
  5
C115
  8
PROF
 10
3.2336084548721811
 20
11.335141350337491
 30
0.0000000000000001
 70
     8
  0
VERTEX
  5
C116
  8
PROF
 10
3.2116715641212181
 20
11.277995447977769
 30
0.0000000000000001
 70
     8
  0
VERTEX
  5
C117
  8
PROF
 10
3.1897212669278461
 20
11.22351012665467
 30
0.0000000000000001
 70
     8
  0
VERTEX
  5
C118
  8
PROF
 10
3.1676687395512881
 20
11.17156775134765
 30
0.0000000000000001
 70
     8
  0
VERTEX
  5
C119
  8
PROF
 10
3.1454251582505321
 20
11.12205068703588
 30
0.0000000000000001
 70
     8
  0
VERTEX
  5
C11A
  8
PROF
 10
3.122901699284625
 20
11.07484129869874
 30
0.0000000000000001
 70
     8
  0
VERTEX
  5
C11B
  8
PROF
 10
3.1000095389127278
 20
11.02982195131551
 30
0.0000000000000001
 70
     8
  0
VERTEX
  5
C11C
  8
PROF
 10
3.07665985339389
 20
10.986875009865679
 30
0.0000000000000001
 70
     8
  0
VERTEX
  5
C11D
  8
PROF
 10
3.0527638189871591
 20
10.9458828393283
 30
0.0000000000000001
 70
     8
  0
VERTEX
  5
C11E
  8
PROF
 10
3.0282326119516361
 20
10.90672780468298
 30
0.0000000000000001
 70
     8
  0
VERTEX
  5
C11F
  8
PROF
 10
3.0029774085463701
 20
10.869292270908771
 30
0.0000000000000001
 70
     8
  0
VERTEX
  5
C120
  8
PROF
 10
2.9769093850304089
 20
10.833458602985161
 30
0.0000000000000001
 70
     8
  0
VERTEX
  5
C121
  8
PROF
 10
2.9499397176628559
 20
10.799109165891419
 30
0.0000000000000001
 70
     8
  0
VERTEX
  5
C122
  8
PROF
 10
2.922000609840437
 20
10.76614363969508
 30
0.0000000000000001
 70
     8
  0
VERTEX
  5
C123
  8
PROF
 10
2.8931083735102998
 20
10.7345309648158
 30
0.0000000000000001
 70
     8
  0
VERTEX
  5
C124
  8
PROF
 10
2.8633003477572729
 20
10.70425739676193
 30
0.0000000000000001
 70
     8
  0
VERTEX
  5
C125
  8
PROF
 10
2.8326138716660689
 20
10.67530919104115
 30
0.0000000000000001
 70
     8
  0
VERTEX
  5
C126
  8
PROF
 10
2.801086284321626
 20
10.647672603161711
 30
0.0000000000000001
 70
     8
  0
VERTEX
  5
C127
  8
PROF
 10
2.7687549248087162
 20
10.62133388863162
 30
0.0000000000000001
 70
     8
  0
VERTEX
  5
C128
  8
PROF
 10
2.7356571322120531
 20
10.5962793029588
 30
0.0000000000000001
 70
     8
  0
VERTEX
  5
C129
  8
PROF
 10
2.7018302456165202
 20
10.572495101651381
 30
0.0000000000000001
 70
     8
  0
VERTEX
  5
C12A
  8
PROF
 10
2.6673116041068838
 20
10.54996754021726
 30
0.0000000000000001
 70
     8
  0
VERTEX
  5
C12B
  8
PROF
 10
2.6321385467680321
 20
10.528682874164581
 30
0.0000000000000001
 70
     8
  0
VERTEX
  5
C12C
  8
PROF
 10
2.5963484126846179
 20
10.508627359001251
 30
0.0000000000000001
 70
     8
  0
VERTEX
  5
C12D
  8
PROF
 10
2.5599785409415841
 20
10.489787250235279
 30
0.0000000000000001
 70
     8
  0
VERTEX
  5
C12E
  8
PROF
 10
2.522998630314361
 20
10.472162234281081
 30
0.0000000000000001
 70
     8
  0
VERTEX
  5
C12F
  8
PROF
 10
2.4851078183409072
 20
10.455805721177621
 30
0.0000000000000001
 70
     8
  0
VERTEX
  5
C130
  8
PROF
 10
2.4459376022498982
 20
10.44078455187036
 30
0.0000000000000001
 70
     8
  0
VERTEX
  5
C131
  8
PROF
 10
2.4051194792701249
 20
10.42716556730465
 30
0.0000000000000001
 70
     8
  0
VERTEX
  5
C132
  8
PROF
 10
2.3622849466301541
 20
10.415015608425851
 30
0.0000000000000001
 70
     8
  0
VERTEX
  5
C133
  8
PROF
 10
2.317065501558714
 20
10.40440151617929
 30
0.0000000000000001
 70
     8
  0
VERTEX
  5
C134
  8
PROF
 10
2.2690926412844301
 20
10.395390131510339
 30
0.0000000000000001
 70
     8
  0
VERTEX
  5
C135
  8
PROF
 10
2.2179978630360879
 20
10.388048295364451
 30
0.0000000000000001
 70
     8
  0
VERTEX
  5
C136
  8
PROF
 10
2.1634126640422551
 20
10.38244284868688
 30
0.0000000000000001
 70
     8
  0
VERTEX
  5
C137
  8
PROF
 10
2.1049685415316031
 20
10.37864063242295
 30
0.0000000000000001
 70
     8
  0
VERTEX
  5
C138
  8
PROF
 10
2.0422969927328709
 20
10.37670848751816
 30
0.0000000000000001
 70
     8
  0
VERTEX
  5
C139
  8
PROF
 10
1.9750295148747341
 20
10.37671325491794
 30
0.0000000000000001
 70
     8
  0
VERTEX
  5
C13A
  8
PROF
 10
4.2166060115107484
 20
12.80885334975255
 30
0.0000000000000001
 70
    16
  0
VERTEX
  5
C13B
  8
PROF
 10
3.8702254102732909
 20
12.707065515763929
 30
0.0000000000000001
 70
    16
  0
VERTEX
  5
C13C
  8
PROF
 10
3.605346156896871
 20
12.46277472098552
 30
0.0000000000000001
 70
    16
  0
VERTEX
  5
C13D
  8
PROF
 10
3.500746030527238
 20
12.170680575709749
 30
0.0000000000000001
 70
    16
  0
VERTEX
  5
C13E
  8
PROF
 10
3.231798439705698
 20
11.26846416496107
 30
0.0000000000000001
 70
    16
  0
VERTEX
  5
C13F
  8
PROF
 10
2.9737109398832882
 20
10.76631086647069
 30
0.0000000000000001
 70
    16
  0
VERTEX
  5
C140
  8
PROF
 10
2.5729961067384002
 20
10.460947364504699
 30
0.0000000000000001
 70
    16
  0
VERTEX
  5
C141
  8
PROF
 10
2.2537826214546031
 20
10.372731239449759
 30
0.0000000000000001
 70
    16
  0
VERTEX
  5
C142
  8
PROF
 10
1.9750295148747341
 20
10.37671325491794
 30
0.0000000000000001
 70
    16
  0
SEQEND
  5
C143
  8
PROF
  0
LINE
  5
C144
  8
PROF
 10
4.9012016798694162
 20
12.88585218805485
 30
0.0000000000000003
 11
4.519857503186925
 21
12.88585218805485
 31
0.0000000000000003
  0
LINE
  5
C145
  8
PROF
 10
0.7321315362267457
 20
8.2026312473991556
 30
0.0000000000000006
 11
0.7321315362267457
 21
8.0511853963434952
 31
0.0000000000000006
  0
ARC
  5
C146
  8
PROF
 10
0.7977322214551919
 20
7.577333933202679
 30
0.0000000000000006
 40
0.4783708383912013
 50
97.882010168942557
 51
186.31119505698641
  0
LINE
  5
C147
  8
FRAME_050
 10
7.8016377197432121
 20
17.99371054969447
 30
0.0
 11
7.8016377197432121
 21
0.0000000000002274
 31
0.0
  0
ENDBLK
  5
C149
  8
0
  0
BLOCK
  8
0
  2
*U7
 70
     1
 10
0.0
 20
0.0
 30
0.0
  3
*U7
  1

  0
TEXT
  5
C8C3
  8
0
 10
3.5177832928899071
 20
10.38601584255777
 30
0.0
 40
0.125
  1
Crown Moulding
  0
TEXT
  5
C8C4
  8
0
 10
3.5223876585106431
 20
10.17717091304435
 30
0.0
 40
0.125
  1
TL-AB509
  0
TEXT
  5
C8C5
  8
0
 10
3.5074661032582561
 20
9.9667059289606801
 30
0.0
 40
0.125
  1
1-5/16" x 7-9/16"
  0
TEXT
  5
C8C6
  8
0
 10
3.519403347460166
 20
9.7562409448770051
 30
0.0
 40
0.125
  1
800.66.TAGUE
  0
ENDBLK
  5
C8C8
  8
0
  0
BLOCK
  8
0
  2
*U26
 70
     1
 10
0.0
 20
0.0
 30
0.0
  3
*U26
  1

  0
TEXT
  5
18FED
  8
0
 62
     0
 10
-346.15979271546257
 20
508.16262619726342
 30
0.0
 40
0.125
  1
Cutter
 50
90.0
  0
ENDBLK
  5
18FEF
  8
0
  0
BLOCK
  8
0
  2
*U27
 70
     1
 10
0.0
 20
0.0
 30
0.0
  3
*U27
  1

  0
TEXT
  5
18FF1
  8
0
 62
     0
 10
-386.5390653119602
 20
838.32040714068194
 30
0.0
 40
0.125
  1
Cutter
 50
90.0
  0
ENDBLK
  5
18FF3
  8
0
  0
BLOCK
  8
0
  2
*U28
 70
     1
 10
0.0
 20
0.0
 30
0.0
  3
*U28
  1

  0
TEXT
  5
18FF5
  8
0
 62
     0
 10
-367.02425303528412
 20
426.35429858331162
 30
0.0
 40
0.125
  1
1
 50
90.0
  0
TEXT
  5
18FF6
  8
0
 62
     0
 10
-367.10758636861738
 20
426.43763191664488
 30
0.0
 40
0.125
  1
3
 50
90.0
  0
LINE
  5
18FF7
  8
0
 62
     0
 10
-367.08675303528412
 20
426.43763191664488
 30
0.0
 11
-367.08675303528412
 21
426.52096524997819
 31
0.0
  0
TEXT
  5
18FF8
  8
0
 62
     0
 10
-366.9409197019508
 20
426.43763191664488
 30
0.0
 40
0.125
  1
4
 50
90.0
  0
TEXT
  5
18FF9
  8
0
 62
     0
 10
-367.02425303528412
 20
426.56263191664482
 30
0.0
 40
0.125
  1
"
 50
90.0
  0
ENDBLK
  5
18FFB
  8
0
  0
BLOCK
  8
0
  2
*U29
 70
     1
 10
0.0
 20
0.0
 30
0.0
  3
*U29
  1

  0
TEXT
  5
18FFD
  8
0
 62
     0
 10
-364.19000805364777
 20
425.28877174148101
 30
0.0
 40
0.125
  1
7
  0
LINE
  5
18FFE
  8
0
 62
     0
 10
-364.19000805364777
 20
425.2679384081477
 30
0.0
 11
-364.10667472031452
 21
425.2679384081477
 31
0.0
  0
TEXT
  5
18FFF
  8
0
 62
     0
 10
-364.19000805364777
 20
425.12210507481433
 30
0.0
 40
0.125
  1
8
  0
TEXT
  5
19000
  8
0
 62
     0
 10
-364.06500805364777
 20
425.2054384081477
 30
0.0
 40
0.125
  1
"
  0
ENDBLK
  5
19002
  8
0
  0
BLOCK
  8
0
  2
*U30
 70
     1
 10
0.0
 20
0.0
 30
0.0
  3
*U30
  1

  0
TEXT
  5
19004
  8
0
 62
     0
 10
-363.14629495961572
 20
426.36117705424232
 30
0.0
 40
0.125
  1
1
 50
90.0
  0
TEXT
  5
19005
  8
0
 62
     0
 10
-363.22962829294897
 20
426.46534372090889
 30
0.0
 40
0.125
  1
1
 50
90.0
  0
LINE
  5
19006
  8
0
 62
     0
 10
-363.20879495961572
 20
426.44451038757558
 30
0.0
 11
-363.20879495961572
 21
426.52784372090889
 31
0.0
  0
TEXT
  5
19007
  8
0
 62
     0
 10
-363.06296162628229
 20
426.44451038757558
 30
0.0
 40
0.125
  1
2
 50
90.0
  0
TEXT
  5
19008
  8
0
 62
     0
 10
-363.14629495961572
 20
426.56951038757558
 30
0.0
 40
0.125
  1
"
 50
90.0
  0
ENDBLK
  5
1900A
  8
0
  0
BLOCK
  8
0
  2
*U31
 70
     1
 10
0.0
 20
0.0
 30
0.0
  3
*U31
  1

  0
TEXT
  5
1900C
  8
0
 62
     0
 10
-387.96524739614358
 20
838.7451809866343
 30
0.0
 40
0.125
  1
1
 50
90.0
  0
TEXT
  5
1900D
  8
0
 62
     0
 10
-388.0485807294769
 20
838.82851431996767
 30
0.0
 40
0.125
  1
3
 50
90.0
  0
LINE
  5
1900E
  8
0
 62
     0
 10
-388.02774739614358
 20
838.82851431996767
 30
0.0
 11
-388.02774739614358
 21
838.91184765330104
 31
0.0
  0
TEXT
  5
1900F
  8
0
 62
     0
 10
-387.88191406281032
 20
838.82851431996767
 30
0.0
 40
0.125
  1
4
 50
90.0
  0
TEXT
  5
19010
  8
0
 62
     0
 10
-387.96524739614358
 20
838.95351431996755
 30
0.0
 40
0.125
  1
"
 50
90.0
  0
ENDBLK
  5
19012
  8
0
  0
BLOCK
  8
0
  2
*U32
 70
     1
 10
0.0
 20
0.0
 30
0.0
  3
*U32
  1

  0
TEXT
  5
19014
  8
0
 62
     0
 10
-385.13236667098761
 20
837.67914254862364
 30
0.0
 40
0.125
  1
7
  0
LINE
  5
19015
  8
0
 62
     0
 10
-385.13236667098761
 20
837.65830921529016
 30
0.0
 11
-385.04903333765429
 21
837.65830921529016
 31
0.0
  0
TEXT
  5
19016
  8
0
 62
     0
 10
-385.13236667098761
 20
837.51247588195702
 30
0.0
 40
0.125
  1
8
  0
TEXT
  5
19017
  8
0
 62
     0
 10
-385.00736667098761
 20
837.59580921529039
 30
0.0
 40
0.125
  1
"
  0
ENDBLK
  5
19019
  8
0
  0
BLOCK
  8
0
  2
*U33
 70
     1
 10
0.0
 20
0.0
 30
0.0
  3
*U33
  1

  0
TEXT
  5
1901B
  8
0
 62
     0
 10
-384.08814198077528
 20
838.75205945756488
 30
0.0
 40
0.125
  1
1
 50
90.0
  0
TEXT
  5
1901C
  8
0
 62
     0
 10
-384.1714753141087
 20
838.85622612423163
 30
0.0
 40
0.125
  1
1
 50
90.0
  0
LINE
  5
1901D
  8
0
 62
     0
 10
-384.15064198077539
 20
838.83539279089825
 30
0.0
 11
-384.15064198077539
 21
838.91872612423185
 31
0.0
  0
TEXT
  5
1901E
  8
0
 62
     0
 10
-384.00480864744202
 20
838.83539279089825
 30
0.0
 40
0.125
  1
2
 50
90.0
  0
TEXT
  5
1901F
  8
0
 62
     0
 10
-384.08814198077528
 20
838.96039279089837
 30
0.0
 40
0.125
  1
"
 50
90.0
  0
ENDBLK
  5
19021
  8
0
  0
BLOCK
  8
0
  2
*U34
 70
     1
 10
0.0
 20
0.0
 30
0.0
  3
*U34
  1

  0
TEXT
  5
19023
  8
0
 62
     0
 10
-323.13119819751643
 20
425.11559169813461
 30
0.0
 40
0.125
  1
1
 50
90.0
  0
TEXT
  5
19024
  8
0
 62
     0
 10
-323.2145315308498
 20
425.19892503146798
 30
0.0
 40
0.125
  1
3
 50
90.0
  0
LINE
  5
19025
  8
0
 62
     0
 10
-323.19369819751643
 20
425.19892503146798
 30
0.0
 11
-323.19369819751643
 21
425.28225836480118
 31
0.0
  0
TEXT
  5
19026
  8
0
 62
     0
 10
-323.04786486418311
 20
425.19892503146798
 30
0.0
 40
0.125
  1
4
 50
90.0
  0
TEXT
  5
19027
  8
0
 62
     0
 10
-323.13119819751643
 20
425.32392503146792
 30
0.0
 40
0.125
  1
"
 50
90.0
  0
ENDBLK
  5
19029
  8
0
  0
BLOCK
  8
0
  2
*U35
 70
     1
 10
0.0
 20
0.0
 30
0.0
  3
*U35
  1

  0
TEXT
  5
1902B
  8
0
 62
     0
 10
-318.6214997668344
 20
425.11559169813461
 30
0.0
 40
0.125
  1
1
 50
90.0
  0
TEXT
  5
1902C
  8
0
 62
     0
 10
-318.70483310016772
 20
425.19892503146798
 30
0.0
 40
0.125
  1
3
 50
90.0
  0
LINE
  5
1902D
  8
0
 62
     0
 10
-318.6839997668344
 20
425.19892503146798
 30
0.0
 11
-318.6839997668344
 21
425.28225836480118
 31
0.0
  0
TEXT
  5
1902E
  8
0
 62
     0
 10
-318.53816643350109
 20
425.19892503146798
 30
0.0
 40
0.125
  1
8
 50
90.0
  0
TEXT
  5
1902F
  8
0
 62
     0
 10
-318.6214997668344
 20
425.32392503146792
 30
0.0
 40
0.125
  1
"
 50
90.0
  0
ENDBLK
  5
19031
  8
0
  0
BLOCK
  8
0
  2
*U36
 70
     1
 10
0.0
 20
0.0
 30
0.0
  3
*U36
  1

  0
TEXT
  5
19033
  8
0
 62
     0
 10
-387.56461450221548
 20
838.89288512488679
 30
0.0
 40
0.125
  1
1
 50
90.0
  0
TEXT
  5
19034
  8
0
 62
     0
 10
-387.64794783554891
 20
838.97621845822005
 30
0.0
 40
0.125
  1
3
 50
90.0
  0
LINE
  5
19035
  8
0
 62
     0
 10
-387.62711450221559
 20
838.97621845822005
 30
0.0
 11
-387.62711450221559
 21
839.05955179155353
 31
0.0
  0
TEXT
  5
19036
  8
0
 62
     0
 10
-387.48128116888222
 20
838.97621845822005
 30
0.0
 40
0.125
  1
4
 50
90.0
  0
TEXT
  5
19037
  8
0
 62
     0
 10
-387.56461450221548
 20
839.10121845822005
 30
0.0
 40
0.125
  1
"
 50
90.0
  0
ENDBLK
  5
19039
  8
0
  0
BLOCK
  8
0
  2
*U37
 70
     1
 10
0.0
 20
0.0
 30
0.0
  3
*U37
  1

  0
TEXT
  5
1903B
  8
0
 62
     0
 10
-383.05359444806828
 20
838.89288512488679
 30
0.0
 40
0.125
  1
1
 50
90.0
  0
TEXT
  5
1903C
  8
0
 62
     0
 10
-383.13692778140171
 20
838.97621845822005
 30
0.0
 40
0.125
  1
3
 50
90.0
  0
LINE
  5
1903D
  8
0
 62
     0
 10
-383.1160944480684
 20
838.97621845822005
 30
0.0
 11
-383.1160944480684
 21
839.05955179155353
 31
0.0
  0
TEXT
  5
1903E
  8
0
 62
     0
 10
-382.97026111473502
 20
838.97621845822005
 30
0.0
 40
0.125
  1
8
 50
90.0
  0
TEXT
  5
1903F
  8
0
 62
     0
 10
-383.05359444806828
 20
839.10121845822005
 30
0.0
 40
0.125
  1
"
 50
90.0
  0
ENDBLK
  5
19041
  8
0
  0
BLOCK
  8
0
  2
*U38
 70
     1
 10
0.0
 20
0.0
 30
0.0
  3
*U38
  1

  0
TEXT
  5
19043
  8
0
 62
     0
 10
-266.30534787530831
 20
273.59262856062833
 30
0.0
 40
0.125
  1
1
 50
90.0
  0
TEXT
  5
19044
  8
0
 62
     0
 10
-266.38868120864157
 20
273.71762856062833
 30
0.0
 40
0.125
  1
5
 50
90.0
  0
LINE
  5
19045
  8
0
 62
     0
 10
-266.36784787530831
 20
273.6759618939617
 30
0.0
 11
-266.36784787530831
 21
273.84262856062833
 31
0.0
  0
TEXT
  5
19046
  8
0
 62
     0
 10
-266.222014541975
 20
273.6759618939617
 30
0.0
 40
0.125
  1
16
 50
90.0
  0
TEXT
  5
19047
  8
0
 62
     0
 10
-266.30534787530831
 20
273.88429522729501
 30
0.0
 40
0.125
  1
"
 50
90.0
  0
ENDBLK
  5
19049
  8
0
  0
BLOCK
  8
0
  2
*U39
 70
     1
 10
0.0
 20
0.0
 30
0.0
  3
*U39
  1

  0
TEXT
  5
1904B
  8
0
 62
     0
 10
-265.70247366384262
 20
273.99008194853201
 30
0.0
 40
0.125
  1
11
  0
LINE
  5
1904C
  8
0
 62
     0
 10
-265.74414033050931
 20
273.96924861519869
 30
0.0
 11
-265.535806997176
 21
273.96924861519869
 31
0.0
  0
TEXT
  5
1904D
  8
0
 62
     0
 10
-265.74414033050931
 20
273.82341528186532
 30
0.0
 40
0.125
  1
32
  0
TEXT
  5
1904E
  8
0
 62
     0
 10
-265.49414033050931
 20
273.90674861519869
 30
0.0
 40
0.125
  1
"
  0
ENDBLK
  5
19050
  8
0
  0
BLOCK
  8
0
  2
*U40
 70
     1
 10
0.0
 20
0.0
 30
0.0
  3
*U40
  1

  0
TEXT
  5
19052
  8
0
 62
     0
 10
-388.10095765539421
 20
838.47949397127331
 30
0.0
 40
0.125
  1
1
 50
90.0
  0
TEXT
  5
19053
  8
0
 62
     0
 10
-388.18429098872758
 20
838.60449397127343
 30
0.0
 40
0.125
  1
5
 50
90.0
  0
LINE
  5
19054
  8
0
 62
     0
 10
-388.16345765539432
 20
838.5628273046068
 30
0.0
 11
-388.16345765539432
 21
838.72949397127343
 31
0.0
  0
TEXT
  5
19055
  8
0
 62
     0
 10
-388.0176243220609
 20
838.5628273046068
 30
0.0
 40
0.125
  1
16
 50
90.0
  0
TEXT
  5
19056
  8
0
 62
     0
 10
-388.10095765539421
 20
838.77116063794006
 30
0.0
 40
0.125
  1
"
 50
90.0
  0
ENDBLK
  5
19058
  8
0
  0
BLOCK
  8
0
  2
*U41
 70
     1
 10
0.0
 20
0.0
 30
0.0
  3
*U41
  1

  0
TEXT
  5
1905A
  8
0
 62
     0
 10
-387.49961823246872
 20
838.8753273046068
 30
0.0
 40
0.125
  1
11
  0
LINE
  5
1905B
  8
0
 62
     0
 10
-387.54128489913541
 20
838.85449397127331
 30
0.0
 11
-387.33295156580209
 21
838.85449397127331
 31
0.0
  0
TEXT
  5
1905C
  8
0
 62
     0
 10
-387.54128489913541
 20
838.70866063794006
 30
0.0
 40
0.125
  1
32
  0
TEXT
  5
1905D
  8
0
 62
     0
 10
-387.29128489913541
 20
838.79199397127366
 30
0.0
 40
0.125
  1
"
  0
ENDBLK
  5
1905F
  8
0
  0
BLOCK
  8
0
  2
*U42
 70
     1
 10
0.0
 20
0.0
 30
0.0
  3
*U42
  1

  0
TEXT
  5
19061
  8
0
 10
-386.92003676038792
 20
838.54980129953606
 30
0.0
 40
0.125
  1
Plank Moulding
  0
TEXT
  5
19062
  8
0
 10
-386.92003676038792
 20
838.3414679662028
 30
0.0
 40
0.125
  1
TL-2286
  0
TEXT
  5
19063
  8
0
 10
-386.92003676038792
 20
838.13313463286943
 30
0.0
 40
0.125
  1
1/2" x 1-1/8"
  0
TEXT
  5
19064
  8
0
 10
-386.92003676038792
 20
837.92480129953606
 30
0.0
 40
0.125
  1
800.66.TAGUE
  0
ENDBLK
  5
19066
  8
0
  0
ENDSEC
  0
SECTION
  2
ENTITIES
  0
LINE
  5
18C5F
  8
0
 10
-388.1973150249388
 20
838.66111697751592
 30
0.0
 11
-388.1973150249388
 21
838.81255926699384
 31
0.0
  0
LINE
  5
18C60
  8
0
 10
-388.1973150249388
 20
838.81255926699384
 30
0.0
 11
-388.37056164682042
 21
838.81255926699384
 31
0.0
  0
LINE
  5
18C61
  8
0
 10
-388.37056164682042
 20
838.81255926699384
 30
0.0
 11
-388.37056164682042
 21
837.68755926699384
 31
0.0
  0
LINE
  5
18C62
  8
0
 10
-388.37056164682042
 20
837.68755926699384
 30
0.0
 11
-387.91578934628888
 21
837.68755926699384
 31
0.0
  0
POLYLINE
  8
0
  5
19067
  66
     1
 10
0.000000
 20
0.000000
 30
0.000000
  70
     8
  0
VERTEX
  8
0
  5
19068
 10
-388.197
 20
838.661
 30
0.000000
  70
    32
  0
VERTEX
  8
0
  5
19069
 10
-388.194
 20
838.660
 30
0.000000
  70
    32
  0
VERTEX
  8
0
  5
1906A
 10
-388.191
 20
838.658
 30
0.000000
  70
    32
  0
VERTEX
  8
0
  5
1906B
 10
-388.188
 20
838.657
 30
0.000000
  70
    32
  0
VERTEX
  8
0
  5
1906C
 10
-388.185
 20
838.655
 30
0.000000
  70
    32
  0
VERTEX
  8
0
  5
1906D
 10
-388.183
 20
838.653
 30
0.000000
  70
    32
  0
VERTEX
  8
0
  5
1906E
 10
-388.180
 20
838.652
 30
0.000000
  70
    32
  0
VERTEX
  8
0
  5
1906F
 10
-388.177
 20
838.650
 30
0.000000
  70
    32
  0
VERTEX
  8
0
  5
19070
 10
-388.174
 20
838.648
 30
0.000000
  70
    32
  0
VERTEX
  8
0
  5
19071
 10
-388.171
 20
838.646
 30
0.000000
  70
    32
  0
VERTEX
  8
0
  5
19072
 10
-388.168
 20
838.644
 30
0.000000
  70
    32
  0
VERTEX
  8
0
  5
19073
 10
-388.166
 20
838.642
 30
0.000000
  70
    32
  0
VERTEX
  8
0
  5
19074
 10
-388.163
 20
838.640
 30
0.000000
  70
    32
  0
VERTEX
  8
0
  5
19075
 10
-388.160
 20
838.638
 30
0.000000
  70
    32
  0
VERTEX
  8
0
  5
19076
 10
-388.158
 20
838.636
 30
0.000000
  70
    32
  0
VERTEX
  8
0
  5
19077
 10
-388.155
 20
838.634
 30
0.000000
  70
    32
  0
VERTEX
  8
0
  5
19078
 10
-388.152
 20
838.632
 30
0.000000
  70
    32
  0
VERTEX
  8
0
  5
19079
 10
-388.150
 20
838.630
 30
0.000000
  70
    32
  0
VERTEX
  8
0
  5
1907A
 10
-388.147
 20
838.628
 30
0.000000
  70
    32
  0
VERTEX
  8
0
  5
1907B
 10
-388.144
 20
838.626
 30
0.000000
  70
    32
  0
VERTEX
  8
0
  5
1907C
 10
-388.142
 20
838.624
 30
0.000000
  70
    32
  0
VERTEX
  8
0
  5
1907D
 10
-388.139
 20
838.622
 30
0.000000
  70
    32
  0
VERTEX
  8
0
  5
1907E
 10
-388.136
 20
838.620
 30
0.000000
  70
    32
  0
VERTEX
  8
0
  5
1907F
 10
-388.134
 20
838.618
 30
0.000000
  70
    32
  0
VERTEX
  8
0
  5
19080
 10
-388.131
 20
838.615
 30
0.000000
  70
    32
  0
VERTEX
  8
0
  5
19081
 10
-388.129
 20
838.613
 30
0.000000
  70
    32
  0
VERTEX
  8
0
  5
19082
 10
-388.126
 20
838.611
 30
0.000000
  70
    32
  0
VERTEX
  8
0
  5
19083
 10
-388.123
 20
838.609
 30
0.000000
  70
    32
  0
VERTEX
  8
0
  5
19084
 10
-388.121
 20
838.607
 30
0.000000
  70
    32
  0
VERTEX
  8
0
  5
19085
 10
-388.118
 20
838.605
 30
0.000000
  70
    32
  0
VERTEX
  8
0
  5
19086
 10
-388.116
 20
838.603
 30
0.000000
  70
    32
  0
VERTEX
  8
0
  5
19087
 10
-388.113
 20
838.600
 30
0.000000
  70
    32
  0
VERTEX
  8
0
  5
19088
 10
-388.110
 20
838.598
 30
0.000000
  70
    32
  0
VERTEX
  8
0
  5
19089
 10
-388.108
 20
838.596
 30
0.000000
  70
    32
  0
VERTEX
  8
0
  5
1908A
 10
-388.105
 20
838.594
 30
0.000000
  70
    32
  0
VERTEX
  8
0
  5
1908B
 10
-388.102
 20
838.592
 30
0.000000
  70
    32
  0
VERTEX
  8
0
  5
1908C
 10
-388.100
 20
838.590
 30
0.000000
  70
    32
  0
VERTEX
  8
0
  5
1908D
 10
-388.097
 20
838.588
 30
0.000000
  70
    32
  0
VERTEX
  8
0
  5
1908E
 10
-388.095
 20
838.585
 30
0.000000
  70
    32
  0
VERTEX
  8
0
  5
1908F
 10
-388.092
 20
838.583
 30
0.000000
  70
    32
  0
VERTEX
  8
0
  5
19090
 10
-388.089
 20
838.581
 30
0.000000
  70
    32
  0
VERTEX
  8
0
  5
19091
 10
-388.087
 20
838.579
 30
0.000000
  70
    32
  0
VERTEX
  8
0
  5
19092
 10
-388.084
 20
838.577
 30
0.000000
  70
    32
  0
VERTEX
  8
0
  5
19093
 10
-388.082
 20
838.575
 30
0.000000
  70
    32
  0
VERTEX
  8
0
  5
19094
 10
-388.079
 20
838.573
 30
0.000000
  70
    32
  0
VERTEX
  8
0
  5
19095
 10
-388.077
 20
838.570
 30
0.000000
  70
    32
  0
VERTEX
  8
0
  5
19096
 10
-388.074
 20
838.568
 30
0.000000
  70
    32
  0
VERTEX
  8
0
  5
19097
 10
-388.071
 20
838.566
 30
0.000000
  70
    32
  0
VERTEX
  8
0
  5
19098
 10
-388.069
 20
838.564
 30
0.000000
  70
    32
  0
VERTEX
  8
0
  5
19099
 10
-388.067
 20
838.561
 30
0.000000
  70
    32
  0
VERTEX
  8
0
  5
1909A
 10
-388.064
 20
838.559
 30
0.000000
  70
    32
  0
VERTEX
  8
0
  5
1909B
 10
-388.062
 20
838.557
 30
0.000000
  70
    32
  0
VERTEX
  8
0
  5
1909C
 10
-388.059
 20
838.555
 30
0.000000
  70
    32
  0
VERTEX
  8
0
  5
1909D
 10
-388.057
 20
838.552
 30
0.000000
  70
    32
  0
VERTEX
  8
0
  5
1909E
 10
-388.054
 20
838.550
 30
0.000000
  70
    32
  0
VERTEX
  8
0
  5
1909F
 10
-388.052
 20
838.548
 30
0.000000
  70
    32
  0
VERTEX
  8
0
  5
190A0
 10
-388.050
 20
838.545
 30
0.000000
  70
    32
  0
VERTEX
  8
0
  5
190A1
 10
-388.047
 20
838.543
 30
0.000000
  70
    32
  0
VERTEX
  8
0
  5
190A2
 10
-388.045
 20
838.540
 30
0.000000
  70
    32
  0
VERTEX
  8
0
  5
190A3
 10
-388.043
 20
838.538
 30
0.000000
  70
    32
  0
VERTEX
  8
0
  5
190A4
 10
-388.041
 20
838.535
 30
0.000000
  70
    32
  0
VERTEX
  8
0
  5
190A5
 10
-388.038
 20
838.533
 30
0.000000
  70
    32
  0
VERTEX
  8
0
  5
190A6
 10
-388.036
 20
838.530
 30
0.000000
  70
    32
  0
VERTEX
  8
0
  5
190A7
 10
-388.034
 20
838.528
 30
0.000000
  70
    32
  0
VERTEX
  8
0
  5
190A8
 10
-388.032
 20
838.525
 30
0.000000
  70
    32
  0
VERTEX
  8
0
  5
190A9
 10
-388.030
 20
838.523
 30
0.000000
  70
    32
  0
VERTEX
  8
0
  5
190AA
 10
-388.028
 20
838.520
 30
0.000000
  70
    32
  0
VERTEX
  8
0
  5
190AB
 10
-388.026
 20
838.517
 30
0.000000
  70
    32
  0
VERTEX
  8
0
  5
190AC
 10
-388.024
 20
838.515
 30
0.000000
  70
    32
  0
VERTEX
  8
0
  5
190AD
 10
-388.022
 20
838.512
 30
0.000000
  70
    32
  0
VERTEX
  8
0
  5
190AE
 10
-388.020
 20
838.509
 30
0.000000
  70
    32
  0
VERTEX
  8
0
  5
190AF
 10
-388.018
 20
838.506
 30
0.000000
  70
    32
  0
VERTEX
  8
0
  5
190B0
 10
-388.016
 20
838.504
 30
0.000000
  70
    32
  0
VERTEX
  8
0
  5
190B1
 10
-388.014
 20
838.501
 30
0.000000
  70
    32
  0
VERTEX
  8
0
  5
190B2
 10
-388.013
 20
838.498
 30
0.000000
  70
    32
  0
VERTEX
  8
0
  5
190B3
 10
-388.011
 20
838.495
 30
0.000000
  70
    32
  0
VERTEX
  8
0
  5
190B4
 10
-388.009
 20
838.492
 30
0.000000
  70
    32
  0
VERTEX
  8
0
  5
190B5
 10
-388.007
 20
838.489
 30
0.000000
  70
    32
  0
VERTEX
  8
0
  5
190B6
 10
-388.006
 20
838.486
 30
0.000000
  70
    32
  0
VERTEX
  8
0
  5
190B7
 10
-388.004
 20
838.483
 30
0.000000
  70
    32
  0
VERTEX
  8
0
  5
190B8
 10
-388.002
 20
838.480
 30
0.000000
  70
    32
  0
VERTEX
  8
0
  5
190B9
 10
-388.001
 20
838.477
 30
0.000000
  70
    32
  0
VERTEX
  8
0
  5
190BA
 10
-387.999
 20
838.474
 30
0.000000
  70
    32
  0
VERTEX
  8
0
  5
190BB
 10
-387.998
 20
838.471
 30
0.000000
  70
    32
  0
VERTEX
  8
0
  5
190BC
 10
-387.996
 20
838.468
 30
0.000000
  70
    32
  0
VERTEX
  8
0
  5
190BD
 10
-387.995
 20
838.465
 30
0.000000
  70
    32
  0
VERTEX
  8
0
  5
190BE
 10
-387.993
 20
838.462
 30
0.000000
  70
    32
  0
VERTEX
  8
0
  5
190BF
 10
-387.992
 20
838.459
 30
0.000000
  70
    32
  0
VERTEX
  8
0
  5
190C0
 10
-387.990
 20
838.456
 30
0.000000
  70
    32
  0
VERTEX
  8
0
  5
190C1
 10
-387.989
 20
838.453
 30
0.000000
  70
    32
  0
VERTEX
  8
0
  5
190C2
 10
-387.988
 20
838.450
 30
0.000000
  70
    32
  0
VERTEX
  8
0
  5
190C3
 10
-387.986
 20
838.447
 30
0.000000
  70
    32
  0
VERTEX
  8
0
  5
190C4
 10
-387.985
 20
838.444
 30
0.000000
  70
    32
  0
VERTEX
  8
0
  5
190C5
 10
-387.984
 20
838.440
 30
0.000000
  70
    32
  0
VERTEX
  8
0
  5
190C6
 10
-387.983
 20
838.437
 30
0.000000
  70
    32
  0
VERTEX
  8
0
  5
190C7
 10
-387.981
 20
838.434
 30
0.000000
  70
    32
  0
VERTEX
  8
0
  5
190C8
 10
-387.980
 20
838.431
 30
0.000000
  70
    32
  0
VERTEX
  8
0
  5
190C9
 10
-387.979
 20
838.428
 30
0.000000
  70
    32
  0
VERTEX
  8
0
  5
190CA
 10
-387.978
 20
838.425
 30
0.000000
  70
    32
  0
VERTEX
  8
0
  5
190CB
 10
-387.977
 20
838.421
 30
0.000000
  70
    32
  0
VERTEX
  8
0
  5
190CC
 10
-387.976
 20
838.418
 30
0.000000
  70
    32
  0
VERTEX
  8
0
  5
190CD
 10
-387.975
 20
838.415
 30
0.000000
  70
    32
  0
VERTEX
  8
0
  5
190CE
 10
-387.974
 20
838.412
 30
0.000000
  70
    32
  0
VERTEX
  8
0
  5
190CF
 10
-387.973
 20
838.408
 30
0.000000
  70
    32
  0
VERTEX
  8
0
  5
190D0
 10
-387.972
 20
838.405
 30
0.000000
  70
    32
  0
VERTEX
  8
0
  5
190D1
 10
-387.971
 20
838.402
 30
0.000000
  70
    32
  0
VERTEX
  8
0
  5
190D2
 10
-387.970
 20
838.399
 30
0.000000
  70
    32
  0
VERTEX
  8
0
  5
190D3
 10
-387.969
 20
838.395
 30
0.000000
  70
    32
  0
VERTEX
  8
0
  5
190D4
 10
-387.968
 20
838.392
 30
0.000000
  70
    32
  0
VERTEX
  8
0
  5
190D5
 10
-387.968
 20
838.389
 30
0.000000
  70
    32
  0
VERTEX
  8
0
  5
190D6
 10
-387.967
 20
838.386
 30
0.000000
  70
    32
  0
VERTEX
  8
0
  5
190D7
 10
-387.966
 20
838.382
 30
0.000000
  70
    32
  0
VERTEX
  8
0
  5
190D8
 10
-387.965
 20
838.379
 30
0.000000
  70
    32
  0
VERTEX
  8
0
  5
190D9
 10
-387.964
 20
838.376
 30
0.000000
  70
    32
  0
VERTEX
  8
0
  5
190DA
 10
-387.964
 20
838.373
 30
0.000000
  70
    32
  0
VERTEX
  8
0
  5
190DB
 10
-387.963
 20
838.369
 30
0.000000
  70
    32
  0
VERTEX
  8
0
  5
190DC
 10
-387.962
 20
838.366
 30
0.000000
  70
    32
  0
VERTEX
  8
0
  5
190DD
 10
-387.962
 20
838.363
 30
0.000000
  70
    32
  0
VERTEX
  8
0
  5
190DE
 10
-387.961
 20
838.359
 30
0.000000
  70
    32
  0
VERTEX
  8
0
  5
190DF
 10
-387.961
 20
838.356
 30
0.000000
  70
    32
  0
VERTEX
  8
0
  5
190E0
 10
-387.960
 20
838.353
 30
0.000000
  70
    32
  0
VERTEX
  8
0
  5
190E1
 10
-387.959
 20
838.350
 30
0.000000
  70
    32
  0
VERTEX
  8
0
  5
190E2
 10
-387.959
 20
838.346
 30
0.000000
  70
    32
  0
VERTEX
  8
0
  5
190E3
 10
-387.958
 20
838.343
 30
0.000000
  70
    32
  0
VERTEX
  8
0
  5
190E4
 10
-387.958
 20
838.340
 30
0.000000
  70
    32
  0
VERTEX
  8
0
  5
190E5
 10
-387.957
 20
838.336
 30
0.000000
  70
    32
  0
VERTEX
  8
0
  5
190E6
 10
-387.957
 20
838.333
 30
0.000000
  70
    32
  0
VERTEX
  8
0
  5
190E7
 10
-387.956
 20
838.330
 30
0.000000
  70
    32
  0
VERTEX
  8
0
  5
190E8
 10
-387.956
 20
838.326
 30
0.000000
  70
    32
  0
VERTEX
  8
0
  5
190E9
 10
-387.955
 20
838.323
 30
0.000000
  70
    32
  0
VERTEX
  8
0
  5
190EA
 10
-387.955
 20
838.320
 30
0.000000
  70
    32
  0
VERTEX
  8
0
  5
190EB
 10
-387.955
 20
838.316
 30
0.000000
  70
    32
  0
VERTEX
  8
0
  5
190EC
 10
-387.954
 20
838.313
 30
0.000000
  70
    32
  0
VERTEX
  8
0
  5
190ED
 10
-387.954
 20
838.310
 30
0.000000
  70
    32
  0
VERTEX
  8
0
  5
190EE
 10
-387.953
 20
838.306
 30
0.000000
  70
    32
  0
VERTEX
  8
0
  5
190EF
 10
-387.953
 20
838.303
 30
0.000000
  70
    32
  0
VERTEX
  8
0
  5
190F0
 10
-387.953
 20
838.300
 30
0.000000
  70
    32
  0
VERTEX
  8
0
  5
190F1
 10
-387.952
 20
838.296
 30
0.000000
  70
    32
  0
VERTEX
  8
0
  5
190F2
 10
-387.952
 20
838.293
 30
0.000000
  70
    32
  0
VERTEX
  8
0
  5
190F3
 10
-387.952
 20
838.290
 30
0.000000
  70
    32
  0
VERTEX
  8
0
  5
190F4
 10
-387.951
 20
838.286
 30
0.000000
  70
    32
  0
VERTEX
  8
0
  5
190F5
 10
-387.951
 20
838.283
 30
0.000000
  70
    32
  0
VERTEX
  8
0
  5
190F6
 10
-387.951
 20
838.280
 30
0.000000
  70
    32
  0
VERTEX
  8
0
  5
190F7
 10
-387.950
 20
838.276
 30
0.000000
  70
    32
  0
VERTEX
  8
0
  5
190F8
 10
-387.950
 20
838.273
 30
0.000000
  70
    32
  0
VERTEX
  8
0
  5
190F9
 10
-387.950
 20
838.270
 30
0.000000
  70
    32
  0
VERTEX
  8
0
  5
190FA
 10
-387.950
 20
838.266
 30
0.000000
  70
    32
  0
VERTEX
  8
0
  5
190FB
 10
-387.949
 20
838.263
 30
0.000000
  70
    32
  0
VERTEX
  8
0
  5
190FC
 10
-387.949
 20
838.260
 30
0.000000
  70
    32
  0
VERTEX
  8
0
  5
190FD
 10
-387.949
 20
838.256
 30
0.000000
  70
    32
  0
VERTEX
  8
0
  5
190FE
 10
-387.949
 20
838.253
 30
0.000000
  70
    32
  0
VERTEX
  8
0
  5
190FF
 10
-387.948
 20
838.249
 30
0.000000
  70
    32
  0
VERTEX
  8
0
  5
19100
 10
-387.948
 20
838.246
 30
0.000000
  70
    32
  0
VERTEX
  8
0
  5
19101
 10
-387.948
 20
838.243
 30
0.000000
  70
    32
  0
VERTEX
  8
0
  5
19102
 10
-387.948
 20
838.239
 30
0.000000
  70
    32
  0
VERTEX
  8
0
  5
19103
 10
-387.947
 20
838.236
 30
0.000000
  70
    32
  0
VERTEX
  8
0
  5
19104
 10
-387.947
 20
838.233
 30
0.000000
  70
    32
  0
VERTEX
  8
0
  5
19105
 10
-387.947
 20
838.229
 30
0.000000
  70
    32
  0
VERTEX
  8
0
  5
19106
 10
-387.947
 20
838.226
 30
0.000000
  70
    32
  0
VERTEX
  8
0
  5
19107
 10
-387.946
 20
838.223
 30
0.000000
  70
    32
  0
VERTEX
  8
0
  5
19108
 10
-387.946
 20
838.219
 30
0.000000
  70
    32
  0
VERTEX
  8
0
  5
19109
 10
-387.946
 20
838.216
 30
0.000000
  70
    32
  0
VERTEX
  8
0
  5
1910A
 10
-387.946
 20
838.213
 30
0.000000
  70
    32
  0
VERTEX
  8
0
  5
1910B
 10
-387.945
 20
838.209
 30
0.000000
  70
    32
  0
VERTEX
  8
0
  5
1910C
 10
-387.945
 20
838.206
 30
0.000000
  70
    32
  0
VERTEX
  8
0
  5
1910D
 10
-387.945
 20
838.203
 30
0.000000
  70
    32
  0
VERTEX
  8
0
  5
1910E
 10
-387.945
 20
838.199
 30
0.000000
  70
    32
  0
VERTEX
  8
0
  5
1910F
 10
-387.944
 20
838.196
 30
0.000000
  70
    32
  0
VERTEX
  8
0
  5
19110
 10
-387.944
 20
838.193
 30
0.000000
  70
    32
  0
VERTEX
  8
0
  5
19111
 10
-387.944
 20
838.189
 30
0.000000
  70
    32
  0
VERTEX
  8
0
  5
19112
 10
-387.943
 20
838.186
 30
0.000000
  70
    32
  0
VERTEX
  8
0
  5
19113
 10
-387.943
 20
838.183
 30
0.000000
  70
    32
  0
VERTEX
  8
0
  5
19114
 10
-387.943
 20
838.179
 30
0.000000
  70
    32
  0
VERTEX
  8
0
  5
19115
 10
-387.943
 20
838.176
 30
0.000000
  70
    32
  0
VERTEX
  8
0
  5
19116
 10
-387.942
 20
838.172
 30
0.000000
  70
    32
  0
VERTEX
  8
0
  5
19117
 10
-387.942
 20
838.169
 30
0.000000
  70
    32
  0
VERTEX
  8
0
  5
19118
 10
-387.942
 20
838.166
 30
0.000000
  70
    32
  0
VERTEX
  8
0
  5
19119
 10
-387.942
 20
838.162
 30
0.000000
  70
    32
  0
VERTEX
  8
0
  5
1911A
 10
-387.941
 20
838.159
 30
0.000000
  70
    32
  0
VERTEX
  8
0
  5
1911B
 10
-387.941
 20
838.156
 30
0.000000
  70
    32
  0
VERTEX
  8
0
  5
1911C
 10
-387.941
 20
838.152
 30
0.000000
  70
    32
  0
VERTEX
  8
0
  5
1911D
 10
-387.940
 20
838.149
 30
0.000000
  70
    32
  0
VERTEX
  8
0
  5
1911E
 10
-387.940
 20
838.146
 30
0.000000
  70
    32
  0
VERTEX
  8
0
  5
1911F
 10
-387.940
 20
838.142
 30
0.000000
  70
    32
  0
VERTEX
  8
0
  5
19120
 10
-387.940
 20
838.139
 30
0.000000
  70
    32
  0
VERTEX
  8
0
  5
19121
 10
-387.939
 20
838.136
 30
0.000000
  70
    32
  0
VERTEX
  8
0
  5
19122
 10
-387.939
 20
838.132
 30
0.000000
  70
    32
  0
VERTEX
  8
0
  5
19123
 10
-387.939
 20
838.129
 30
0.000000
  70
    32
  0
VERTEX
  8
0
  5
19124
 10
-387.938
 20
838.126
 30
0.000000
  70
    32
  0
VERTEX
  8
0
  5
19125
 10
-387.938
 20
838.122
 30
0.000000
  70
    32
  0
VERTEX
  8
0
  5
19126
 10
-387.938
 20
838.119
 30
0.000000
  70
    32
  0
VERTEX
  8
0
  5
19127
 10
-387.938
 20
838.116
 30
0.000000
  70
    32
  0
VERTEX
  8
0
  5
19128
 10
-387.937
 20
838.112
 30
0.000000
  70
    32
  0
VERTEX
  8
0
  5
19129
 10
-387.937
 20
838.109
 30
0.000000
  70
    32
  0
VERTEX
  8
0
  5
1912A
 10
-387.937
 20
838.106
 30
0.000000
  70
    32
  0
VERTEX
  8
0
  5
1912B
 10
-387.936
 20
838.102
 30
0.000000
  70
    32
  0
VERTEX
  8
0
  5
1912C
 10
-387.936
 20
838.099
 30
0.000000
  70
    32
  0
VERTEX
  8
0
  5
1912D
 10
-387.936
 20
838.096
 30
0.000000
  70
    32
  0
VERTEX
  8
0
  5
1912E
 10
-387.935
 20
838.092
 30
0.000000
  70
    32
  0
VERTEX
  8
0
  5
1912F
 10
-387.935
 20
838.089
 30
0.000000
  70
    32
  0
VERTEX
  8
0
  5
19130
 10
-387.935
 20
838.086
 30
0.000000
  70
    32
  0
VERTEX
  8
0
  5
19131
 10
-387.935
 20
838.082
 30
0.000000
  70
    32
  0
VERTEX
  8
0
  5
19132
 10
-387.934
 20
838.079
 30
0.000000
  70
    32
  0
VERTEX
  8
0
  5
19133
 10
-387.934
 20
838.076
 30
0.000000
  70
    32
  0
VERTEX
  8
0
  5
19134
 10
-387.934
 20
838.072
 30
0.000000
  70
    32
  0
VERTEX
  8
0
  5
19135
 10
-387.933
 20
838.069
 30
0.000000
  70
    32
  0
VERTEX
  8
0
  5
19136
 10
-387.933
 20
838.066
 30
0.000000
  70
    32
  0
VERTEX
  8
0
  5
19137
 10
-387.933
 20
838.062
 30
0.000000
  70
    32
  0
VERTEX
  8
0
  5
19138
 10
-387.932
 20
838.059
 30
0.000000
  70
    32
  0
VERTEX
  8
0
  5
19139
 10
-387.932
 20
838.056
 30
0.000000
  70
    32
  0
VERTEX
  8
0
  5
1913A
 10
-387.932
 20
838.052
 30
0.000000
  70
    32
  0
VERTEX
  8
0
  5
1913B
 10
-387.932
 20
838.049
 30
0.000000
  70
    32
  0
VERTEX
  8
0
  5
1913C
 10
-387.931
 20
838.046
 30
0.000000
  70
    32
  0
VERTEX
  8
0
  5
1913D
 10
-387.931
 20
838.042
 30
0.000000
  70
    32
  0
VERTEX
  8
0
  5
1913E
 10
-387.931
 20
838.039
 30
0.000000
  70
    32
  0
VERTEX
  8
0
  5
1913F
 10
-387.930
 20
838.036
 30
0.000000
  70
    32
  0
VERTEX
  8
0
  5
19140
 10
-387.930
 20
838.032
 30
0.000000
  70
    32
  0
VERTEX
  8
0
  5
19141
 10
-387.930
 20
838.029
 30
0.000000
  70
    32
  0
VERTEX
  8
0
  5
19142
 10
-387.930
 20
838.026
 30
0.000000
  70
    32
  0
VERTEX
  8
0
  5
19143
 10
-387.929
 20
838.022
 30
0.000000
  70
    32
  0
VERTEX
  8
0
  5
19144
 10
-387.929
 20
838.019
 30
0.000000
  70
    32
  0
VERTEX
  8
0
  5
19145
 10
-387.929
 20
838.016
 30
0.000000
  70
    32
  0
VERTEX
  8
0
  5
19146
 10
-387.928
 20
838.012
 30
0.000000
  70
    32
  0
VERTEX
  8
0
  5
19147
 10
-387.928
 20
838.009
 30
0.000000
  70
    32
  0
VERTEX
  8
0
  5
19148
 10
-387.928
 20
838.006
 30
0.000000
  70
    32
  0
VERTEX
  8
0
  5
19149
 10
-387.928
 20
838.002
 30
0.000000
  70
    32
  0
VERTEX
  8
0
  5
1914A
 10
-387.927
 20
837.999
 30
0.000000
  70
    32
  0
VERTEX
  8
0
  5
1914B
 10
-387.927
 20
837.996
 30
0.000000
  70
    32
  0
VERTEX
  8
0
  5
1914C
 10
-387.927
 20
837.992
 30
0.000000
  70
    32
  0
VERTEX
  8
0
  5
1914D
 10
-387.926
 20
837.989
 30
0.000000
  70
    32
  0
VERTEX
  8
0
  5
1914E
 10
-387.926
 20
837.986
 30
0.000000
  70
    32
  0
VERTEX
  8
0
  5
1914F
 10
-387.926
 20
837.982
 30
0.000000
  70
    32
  0
VERTEX
  8
0
  5
19150
 10
-387.926
 20
837.979
 30
0.000000
  70
    32
  0
VERTEX
  8
0
  5
19151
 10
-387.925
 20
837.976
 30
0.000000
  70
    32
  0
VERTEX
  8
0
  5
19152
 10
-387.925
 20
837.972
 30
0.000000
  70
    32
  0
VERTEX
  8
0
  5
19153
 10
-387.925
 20
837.969
 30
0.000000
  70
    32
  0
VERTEX
  8
0
  5
19154
 10
-387.925
 20
837.966
 30
0.000000
  70
    32
  0
VERTEX
  8
0
  5
19155
 10
-387.924
 20
837.962
 30
0.000000
  70
    32
  0
VERTEX
  8
0
  5
19156
 10
-387.924
 20
837.959
 30
0.000000
  70
    32
  0
VERTEX
  8
0
  5
19157
 10
-387.924
 20
837.955
 30
0.000000
  70
    32
  0
VERTEX
  8
0
  5
19158
 10
-387.924
 20
837.952
 30
0.000000
  70
    32
  0
VERTEX
  8
0
  5
19159
 10
-387.923
 20
837.949
 30
0.000000
  70
    32
  0
VERTEX
  8
0
  5
1915A
 10
-387.923
 20
837.945
 30
0.000000
  70
    32
  0
VERTEX
  8
0
  5
1915B
 10
-387.923
 20
837.942
 30
0.000000
  70
    32
  0
VERTEX
  8
0
  5
1915C
 10
-387.923
 20
837.939
 30
0.000000
  70
    32
  0
VERTEX
  8
0
  5
1915D
 10
-387.922
 20
837.935
 30
0.000000
  70
    32
  0
VERTEX
  8
0
  5
1915E
 10
-387.922
 20
837.932
 30
0.000000
  70
    32
  0
VERTEX
  8
0
  5
1915F
 10
-387.922
 20
837.929
 30
0.000000
  70
    32
  0
VERTEX
  8
0
  5
19160
 10
-387.922
 20
837.925
 30
0.000000
  70
    32
  0
VERTEX
  8
0
  5
19161
 10
-387.921
 20
837.922
 30
0.000000
  70
    32
  0
VERTEX
  8
0
  5
19162
 10
-387.921
 20
837.919
 30
0.000000
  70
    32
  0
VERTEX
  8
0
  5
19163
 10
-387.921
 20
837.915
 30
0.000000
  70
    32
  0
VERTEX
  8
0
  5
19164
 10
-387.921
 20
837.912
 30
0.000000
  70
    32
  0
VERTEX
  8
0
  5
19165
 10
-387.921
 20
837.909
 30
0.000000
  70
    32
  0
VERTEX
  8
0
  5
19166
 10
-387.920
 20
837.905
 30
0.000000
  70
    32
  0
VERTEX
  8
0
  5
19167
 10
-387.920
 20
837.902
 30
0.000000
  70
    32
  0
VERTEX
  8
0
  5
19168
 10
-387.920
 20
837.899
 30
0.000000
  70
    32
  0
VERTEX
  8
0
  5
19169
 10
-387.920
 20
837.895
 30
0.000000
  70
    32
  0
VERTEX
  8
0
  5
1916A
 10
-387.919
 20
837.892
 30
0.000000
  70
    32
  0
VERTEX
  8
0
  5
1916B
 10
-387.919
 20
837.889
 30
0.000000
  70
    32
  0
VERTEX
  8
0
  5
1916C
 10
-387.919
 20
837.885
 30
0.000000
  70
    32
  0
VERTEX
  8
0
  5
1916D
 10
-387.919
 20
837.882
 30
0.000000
  70
    32
  0
VERTEX
  8
0
  5
1916E
 10
-387.919
 20
837.879
 30
0.000000
  70
    32
  0
VERTEX
  8
0
  5
1916F
 10
-387.919
 20
837.875
 30
0.000000
  70
    32
  0
VERTEX
  8
0
  5
19170
 10
-387.918
 20
837.872
 30
0.000000
  70
    32
  0
VERTEX
  8
0
  5
19171
 10
-387.918
 20
837.868
 30
0.000000
  70
    32
  0
VERTEX
  8
0
  5
19172
 10
-387.918
 20
837.865
 30
0.000000
  70
    32
  0
VERTEX
  8
0
  5
19173
 10
-387.918
 20
837.862
 30
0.000000
  70
    32
  0
VERTEX
  8
0
  5
19174
 10
-387.918
 20
837.858
 30
0.000000
  70
    32
  0
VERTEX
  8
0
  5
19175
 10
-387.918
 20
837.855
 30
0.000000
  70
    32
  0
VERTEX
  8
0
  5
19176
 10
-387.917
 20
837.852
 30
0.000000
  70
    32
  0
VERTEX
  8
0
  5
19177
 10
-387.917
 20
837.848
 30
0.000000
  70
    32
  0
VERTEX
  8
0
  5
19178
 10
-387.917
 20
837.845
 30
0.000000
  70
    32
  0
VERTEX
  8
0
  5
19179
 10
-387.917
 20
837.842
 30
0.000000
  70
    32
  0
VERTEX
  8
0
  5
1917A
 10
-387.917
 20
837.838
 30
0.000000
  70
    32
  0
VERTEX
  8
0
  5
1917B
 10
-387.917
 20
837.835
 30
0.000000
  70
    32
  0
VERTEX
  8
0
  5
1917C
 10
-387.917
 20
837.832
 30
0.000000
  70
    32
  0
VERTEX
  8
0
  5
1917D
 10
-387.917
 20
837.828
 30
0.000000
  70
    32
  0
VERTEX
  8
0
  5
1917E
 10
-387.917
 20
837.825
 30
0.000000
  70
    32
  0
VERTEX
  8
0
  5
1917F
 10
-387.916
 20
837.822
 30
0.000000
  70
    32
  0
VERTEX
  8
0
  5
19180
 10
-387.916
 20
837.818
 30
0.000000
  70
    32
  0
VERTEX
  8
0
  5
19181
 10
-387.916
 20
837.815
 30
0.000000
  70
    32
  0
VERTEX
  8
0
  5
19182
 10
-387.916
 20
837.812
 30
0.000000
  70
    32
  0
VERTEX
  8
0
  5
19183
 10
-387.916
 20
837.808
 30
0.000000
  70
    32
  0
VERTEX
  8
0
  5
19184
 10
-387.916
 20
837.805
 30
0.000000
  70
    32
  0
VERTEX
  8
0
  5
19185
 10
-387.916
 20
837.802
 30
0.000000
  70
    32
  0
VERTEX
  8
0
  5
19186
 10
-387.916
 20
837.798
 30
0.000000
  70
    32
  0
VERTEX
  8
0
  5
19187
 10
-387.916
 20
837.795
 30
0.000000
  70
    32
  0
VERTEX
  8
0
  5
19188
 10
-387.916
 20
837.791
 30
0.000000
  70
    32
  0
VERTEX
  8
0
  5
19189
 10
-387.916
 20
837.788
 30
0.000000
  70
    32
  0
VERTEX
  8
0
  5
1918A
 10
-387.916
 20
837.785
 30
0.000000
  70
    32
  0
VERTEX
  8
0
  5
1918B
 10
-387.916
 20
837.781
 30
0.000000
  70
    32
  0
VERTEX
  8
0
  5
1918C
 10
-387.916
 20
837.778
 30
0.000000
  70
    32
  0
VERTEX
  8
0
  5
1918D
 10
-387.916
 20
837.775
 30
0.000000
  70
    32
  0
VERTEX
  8
0
  5
1918E
 10
-387.916
 20
837.771
 30
0.000000
  70
    32
  0
VERTEX
  8
0
  5
1918F
 10
-387.916
 20
837.768
 30
0.000000
  70
    32
  0
VERTEX
  8
0
  5
19190
 10
-387.916
 20
837.765
 30
0.000000
  70
    32
  0
VERTEX
  8
0
  5
19191
 10
-387.916
 20
837.761
 30
0.000000
  70
    32
  0
VERTEX
  8
0
  5
19192
 10
-387.916
 20
837.758
 30
0.000000
  70
    32
  0
VERTEX
  8
0
  5
19193
 10
-387.916
 20
837.755
 30
0.000000
  70
    32
  0
VERTEX
  8
0
  5
19194
 10
-387.916
 20
837.751
 30
0.000000
  70
    32
  0
VERTEX
  8
0
  5
19195
 10
-387.916
 20
837.748
 30
0.000000
  70
    32
  0
VERTEX
  8
0
  5
19196
 10
-387.916
 20
837.745
 30
0.000000
  70
    32
  0
VERTEX
  8
0
  5
19197
 10
-387.916
 20
837.741
 30
0.000000
  70
    32
  0
VERTEX
  8
0
  5
19198
 10
-387.916
 20
837.738
 30
0.000000
  70
    32
  0
VERTEX
  8
0
  5
19199
 10
-387.916
 20
837.734
 30
0.000000
  70
    32
  0
VERTEX
  8
0
  5
1919A
 10
-387.916
 20
837.731
 30
0.000000
  70
    32
  0
VERTEX
  8
0
  5
1919B
 10
-387.916
 20
837.728
 30
0.000000
  70
    32
  0
VERTEX
  8
0
  5
1919C
 10
-387.916
 20
837.724
 30
0.000000
  70
    32
  0
VERTEX
  8
0
  5
1919D
 10
-387.916
 20
837.721
 30
0.000000
  70
    32
  0
VERTEX
  8
0
  5
1919E
 10
-387.916
 20
837.718
 30
0.000000
  70
    32
  0
VERTEX
  8
0
  5
1919F
 10
-387.916
 20
837.714
 30
0.000000
  70
    32
  0
VERTEX
  8
0
  5
191A0
 10
-387.916
 20
837.711
 30
0.000000
  70
    32
  0
VERTEX
  8
0
  5
191A1
 10
-387.916
 20
837.708
 30
0.000000
  70
    32
  0
VERTEX
  8
0
  5
191A2
 10
-387.916
 20
837.704
 30
0.000000
  70
    32
  0
VERTEX
  8
0
  5
191A3
 10
-387.916
 20
837.701
 30
0.000000
  70
    32
  0
VERTEX
  8
0
  5
191A4
 10
-387.916
 20
837.698
 30
0.000000
  70
    32
  0
VERTEX
  8
0
  5
191A5
 10
-387.916
 20
837.694
 30
0.000000
  70
    32
  0
VERTEX
  8
0
  5
191A6
 10
-387.916
 20
837.691
 30
0.000000
  70
    32
  0
VERTEX
  8
0
  5
191A7
 10
-387.916
 20
837.688
 30
0.000000
  70
    32
  0
SEQEND
  8
0
  5
191A8
  0
INSERT
  5
18C64
  8
0
  2
*U42
 10
0.0
 20
0.0
 30
0.0
  0
VIEWPORT
  5
BADA
 67
     1
  8
0
 10
5.2498666443542197
 20
5.3976365575079948
 30
0.0
 40
16.259611459837419
 41
10.77749471661086
 68
     2
 69
     1
1001
ACAD
1000
MVIEW
1002
{
1070
    16
1010
0.0
1020
0.0
1030
0.0
1010
0.0
1020
0.0
1030
1.0
1040
0.0
1040
10.77749471661086
1040
5.2498666443542197
1040
5.3976365575079948
1040
50.0
1040
0.0
1040
0.0
1070
     0
1070
   100
1070
     1
1070
     1
1070
     0
1070
     0
1070
     0
1070
     0
1040
0.0
1040
0.0
1040
0.0
1040
0.5
1040
0.5
1040
0.5
1040
0.5
1070
     0
1002
{
1002
}
1002
}
  0
VIEWPORT
  5
BADD
 67
     1
  8
0
 10
5.249999629487192
 20
4.0166741807634683
 30
0.0
 40
10.44245679893058
 41
7.8813805131999892
 68
     1
 69
     2
1001
ACAD
1000
MVIEW
1002
{
1070
    16
1010
0.0
1020
0.0
1030
0.0
1010
0.0
1020
0.0
1030
1.0
1040
0.0
1040
7.881380531263555
1040
-387.21028611501271
1040
838.18724373717725
1040
50.0
1040
0.0
1040
0.0
1070
     0
1070
   100
1070
     1
1070
     2
1070
     0
1070
     0
1070
     0
1070
     0
1040
0.0
1040
0.0
1040
0.0
1040
0.5
1040
0.5
1040
0.5
1040
0.5
1070
     0
1002
{
1002
}
1002
}
  0
ENDSEC
  0
EOF
