  0
SECTION
  2
HEADER
  9
$ACADVER
  1
AC1009
  9
$INSBASE
 10
0.0
 20
0.0
 30
0.0
  9
$EXTMIN
 10
-367.51842708014902
 20
856.03057748210495
 30
0.0
  9
$EXTMAX
 10
-363.11604077636741
 20
860.62174046238579
 30
0.0
  9
$LIMMIN
 10
0.0
 20
0.0
  9
$LIMMAX
 10
1500.0
 20
1500.0
  9
$ORTHOMODE
 70
     0
  9
$REGENMODE
 70
     1
  9
$FILLMODE
 70
     1
  9
$QTEXTMODE
 70
     0
  9
$MIRRTEXT
 70
     1
  9
$DRAGMODE
 70
     2
  9
$LTSCALE
 40
1.0
  9
$OSMODE
 70
    37
  9
$ATTMODE
 70
     1
  9
$TEXTSIZE
 40
1.5
  9
$TRACEWID
 40
0.05
  9
$TEXTSTYLE
  7
STANDARD
  9
$CLAYER
  8
0
  9
$CELTYPE
  6
BYLAYER
  9
$CECOLOR
 62
   256
  9
$DIMSCALE
 40
1.0
  9
$DIMASZ
 40
0.75
  9
$DIMEXO
 40
1.5
  9
$DIMDLI
 40
2.0
  9
$DIMRND
 40
0.0
  9
$DIMDLE
 40
0.0
  9
$DIMEXE
 40
1.0
  9
$DIMTP
 40
0.0
  9
$DIMTM
 40
0.0
  9
$DIMTXT
 40
1.5
  9
$DIMCEN
 40
2.0
  9
$DIMTSZ
 40
0.0
  9
$DIMTOL
 70
     0
  9
$DIMLIM
 70
     0
  9
$DIMTIH
 70
     0
  9
$DIMTOH
 70
     0
  9
$DIMSE1
 70
     0
  9
$DIMSE2
 70
     0
  9
$DIMTAD
 70
     1
  9
$DIMZIN
 70
     0
  9
$DIMBLK
  1
ARCHTICK
  9
$DIMASO
 70
     1
  9
$DIMSHO
 70
     1
  9
$DIMPOST
  1
"
  9
$DIMAPOST
  1

  9
$DIMALT
 70
     0
  9
$DIMALTD
 70
     2
  9
$DIMALTF
 40
25.399999999999999
  9
$DIMLFAC
 40
1.0
  9
$DIMTOFL
 70
     0
  9
$DIMTVP
 40
0.0
  9
$DIMTIX
 70
     1
  9
$DIMSOXD
 70
     0
  9
$DIMSAH
 70
     0
  9
$DIMBLK1
  1

  9
$DIMBLK2
  1

  9
$DIMSTYLE
  2
THREE_QUARTER_INCH_SCALE
  9
$DIMCLRD
 70
     0
  9
$DIMCLRE
 70
     0
  9
$DIMCLRT
 70
     0
  9
$DIMTFAC
 40
1.0
  9
$DIMGAP
 40
1.0
  9
$LUNITS
 70
     2
  9
$LUPREC
 70
     4
  9
$SKETCHINC
 40
0.1
  9
$FILLETRAD
 40
0.0
  9
$AUNITS
 70
     0
  9
$AUPREC
 70
     0
  9
$MENU
  1
.
  9
$ELEVATION
 40
0.0
  9
$PELEVATION
 40
0.0
  9
$THICKNESS
 40
0.0
  9
$LIMCHECK
 70
     0
  9
$BLIPMODE
 70
     0
  9
$CHAMFERA
 40
0.5
  9
$CHAMFERB
 40
0.5
  9
$SKPOLY
 70
     0
  9
$TDCREATE
 40
2452089.395738773
  9
$TDUPDATE
 40
2453608.6322425348
  9
$TDINDWG
 40
1.6596645949
  9
$TDUSRTIMER
 40
1.6596645949
  9
$USRTIMER
 70
     1
  9
$ANGBASE
 50
0.0
  9
$ANGDIR
 70
     0
  9
$PDMODE
 70
     0
  9
$PDSIZE
 40
10.0
  9
$PLINEWID
 40
0.0
  9
$COORDS
 70
     1
  9
$SPLFRAME
 70
     0
  9
$SPLINETYPE
 70
     6
  9
$SPLINESEGS
 70
     8
  9
$ATTDIA
 70
     0
  9
$ATTREQ
 70
     1
  9
$HANDLING
 70
     1
  9
$HANDSEED
  5
39E84
  9
$SURFTAB1
 70
     6
  9
$SURFTAB2
 70
     6
  9
$SURFTYPE
 70
     6
  9
$SURFU
 70
     6
  9
$SURFV
 70
     6
  9
$UCSNAME
  2

  9
$UCSORG
 10
0.0
 20
0.0
 30
0.0
  9
$UCSXDIR
 10
1.0
 20
0.0
 30
0.0
  9
$UCSYDIR
 10
0.0
 20
1.0
 30
0.0
  9
$PUCSNAME
  2

  9
$PUCSORG
 10
0.0
 20
0.0
 30
0.0
  9
$PUCSXDIR
 10
1.0
 20
0.0
 30
0.0
  9
$PUCSYDIR
 10
0.0
 20
1.0
 30
0.0
  9
$USERI1
 70
     0
  9
$USERI2
 70
     0
  9
$USERI3
 70
     0
  9
$USERI4
 70
     0
  9
$USERI5
 70
     0
  9
$USERR1
 40
0.0
  9
$USERR2
 40
0.0
  9
$USERR3
 40
0.0
  9
$USERR4
 40
0.0
  9
$USERR5
 40
0.0
  9
$WORLDVIEW
 70
     1
  9
$SHADEDGE
 70
     3
  9
$SHADEDIF
 70
    70
  9
$TILEMODE
 70
     0
  9
$MAXACTVP
 70
    64
  9
$PLIMCHECK
 70
     0
  9
$PEXTMIN
 10
0.0287712300219028
 20
0.0759839241634737
 30
0.0
  9
$PEXTMAX
 10
10.47122802895248
 20
7.957364437363462
 30
0.0
  9
$PLIMMIN
 10
-0.2500002402958907
 20
-0.2499999962453767
  9
$PLIMMAX
 10
10.74999951940821
 20
8.2499997634587316
  9
$UNITMODE
 70
     0
  9
$VISRETAIN
 70
     1
  9
$PLINEGEN
 70
     0
  9
$PSLTSCALE
 70
     1
  0
ENDSEC
  0
SECTION
  2
TABLES
  0
TABLE
  2
VPORT
 70
     3
  0
VPORT
  2
*ACTIVE
 70
     0
 10
0.0
 20
0.0
 11
1.0
 21
1.0
 12
-380.70010693656201
 22
845.16779400026962
 13
0.0
 23
0.0
 14
0.5
 24
0.5
 15
0.5
 25
0.5
 16
0.0
 26
0.0
 36
1.0
 17
0.0
 27
0.0
 37
0.0
 40
8.8173627230431642
 41
2.0
 42
50.0
 43
0.0
 44
0.0
 50
0.0
 51
0.0
 71
     0
 72
   100
 73
     1
 74
     2
 75
     0
 76
     0
 77
     0
 78
     0
  0
ENDTAB
  0
TABLE
  2
LTYPE
 70
     1
  0
LTYPE
  2
CONTINUOUS
 70
     0
  3
Solid line
 72
    65
 73
     0
 40
0.0
  0
ENDTAB
  0
TABLE
  2
LAYER
 70
    10
  0
LAYER
  2
0
 70
     0
 62
     7
  6
CONTINUOUS
  0
LAYER
  2
DEFPOINTS
 70
     0
 62
     7
  6
CONTINUOUS
  0
LAYER
  2
FRAME_200
 70
     0
 62
     8
  6
CONTINUOUS
  0
LAYER
  2
FRAME_070
 70
     0
 62
     5
  6
CONTINUOUS
  0
LAYER
  2
FRAME_050
 70
     0
 62
     6
  6
CONTINUOUS
  0
LAYER
  2
TITLE_BLOCK
 70
     0
 62
     7
  6
CONTINUOUS
  0
LAYER
  2
FRAME_025
 70
     0
 62
     7
  6
CONTINUOUS
  0
LAYER
  2
VIEWPORT
 70
     0
 62
     7
  6
CONTINUOUS
  0
LAYER
  2
PROF
 70
     0
 62
     7
  6
CONTINUOUS
  0
LAYER
  2
PROFILE
 70
     0
 62
     7
  6
CONTINUOUS
  0
ENDTAB
  0
TABLE
  2
STYLE
 70
     2
  0
STYLE
  2
STANDARD
 70
     0
 40
0.0
 41
1.0
 50
0.0
 71
     0
 42
1.5
  3
txt
  4

  0
STYLE
  2
ISO_PROPORTIONAL
 70
     0
 40
0.0
 41
1.0
 50
0.0
 71
     0
 42
2.5
  3
isocp.shx
  4

  0
ENDTAB
  0
TABLE
  2
VIEW
 70
     8
  0
ENDTAB
  0
TABLE
  2
UCS
 70
     0
  0
ENDTAB
  0
TABLE
  2
APPID
 70
     6
  0
APPID
  2
ACAD
 70
     0
  0
APPID
  2
DCO15
 70
     0
  0
APPID
  2
ACAD_EXEMPT_FROM_CAD_STANDARDS
 70
     0
  0
APPID
  2
ACAD_PSEXT
 70
     0
  0
APPID
  2
CONTENTBLOCKDESCRIPTION
 70
     0
  0
APPID
  2
CONTENTBLOCKICON
 70
     0
  0
ENDTAB
  0
TABLE
  2
DIMSTYLE
 70
     5
  0
DIMSTYLE
  2
FULL_SCALE
 70
     0
  3
"
  4

  5
ARCHTICK
  6

  7

 40
1.0
 41
0.046875
 42
0.09375
 43
0.125
 44
0.0625
 45
0.0
 46
0.0
 47
0.0
 48
0.0
140
0.125
141
0.125
142
0.0
143
25.399999999999999
144
1.0
145
0.0
146
1.0
147
0.0625
 71
     0
 72
     0
 73
     0
 74
     0
 75
     0
 76
     0
 77
     1
 78
     0
170
     0
171
     2
172
     0
173
     0
174
     1
175
     0
176
     0
177
     0
178
     0
  0
DIMSTYLE
  2
HALF_SCALE
 70
     0
  3
"
  4

  5
ARCHTICK
  6

  7

 40
1.0
 41
0.09375
 42
0.1875
 43
0.25
 44
0.125
 45
0.0
 46
0.0
 47
0.0
 48
0.0
140
0.25
141
0.25
142
0.0
143
25.399999999999999
144
1.0
145
0.0
146
1.0
147
0.125
 71
     0
 72
     0
 73
     0
 74
     0
 75
     0
 76
     0
 77
     1
 78
     0
170
     0
171
     2
172
     0
173
     0
174
     1
175
     0
176
     0
177
     0
178
     0
  0
DIMSTYLE
  2
INCH_SCALE
 70
     0
  3
"
  4

  5
ARCHTICK
  6

  7

 40
1.0
 41
0.5625
 42
1.125
 43
1.5
 44
0.75
 45
0.0
 46
0.0
 47
0.0
 48
0.0
140
1.125
141
1.5
142
0.0
143
25.399999999999999
144
1.0
145
0.0
146
1.0
147
0.75
 71
     0
 72
     0
 73
     0
 74
     0
 75
     0
 76
     0
 77
     1
 78
     0
170
     0
171
     2
172
     0
173
     0
174
     1
175
     0
176
     0
177
     0
178
     0
  0
DIMSTYLE
  2
THREE_QUARTER_INCH_SCALE
 70
     0
  3
"
  4

  5
ARCHTICK
  6

  7

 40
1.0
 41
0.75
 42
1.5
 43
2.0
 44
1.0
 45
0.0
 46
0.0
 47
0.0
 48
0.0
140
1.5
141
2.0
142
0.0
143
25.399999999999999
144
1.0
145
0.0
146
1.0
147
1.0
 71
     0
 72
     0
 73
     0
 74
     0
 75
     0
 76
     0
 77
     1
 78
     0
170
     0
171
     2
172
     0
173
     0
174
     1
175
     0
176
     0
177
     0
178
     0
  0
DIMSTYLE
  2
ZHALF_INCH_SCALE
 70
     0
  3
"
  4

  5
ARCHTICK
  6

  7

 40
1.0
 41
1.125
 42
2.25
 43
3.0
 44
1.5
 45
0.0
 46
0.0
 47
0.0
 48
0.0
140
2.25
141
3.0
142
0.0
143
25.399999999999999
144
1.0
145
0.0
146
1.0
147
1.5
 71
     0
 72
     0
 73
     0
 74
     0
 75
     0
 76
     0
 77
     1
 78
     0
170
     0
171
     2
172
     0
173
     0
174
     1
175
     0
176
     0
177
     0
178
     0
  0
ENDTAB
  0
ENDSEC
  0
SECTION
  2
BLOCKS
  0
BLOCK
  8
0
  2
$MODEL_SPACE
 70
     0
 10
0.0
 20
0.0
 30
0.0
  3
$MODEL_SPACE
  1

  0
ENDBLK
  5
21
  8
0
  0
BLOCK
 67
     1
  8
0
  2
$PAPER_SPACE
 70
     0
 10
0.0
 20
0.0
 30
0.0
  3
$PAPER_SPACE
  1

  0
ENDBLK
  5
BAD5
 67
     1
  8
0
  0
BLOCK
  8
0
  2
_ARCHTICK
 70
     0
 10
0.0
 20
0.0
 30
0.0
  3
_ARCHTICK
  1

  0
POLYLINE
  5
158
  8
0
  6
BYBLOCK
 62
     0
 66
     1
 10
0.0
 20
0.0
 30
0.0
 40
0.15
 41
0.15
  0
VERTEX
  5
39671
  8
0
  6
BYBLOCK
 62
     0
 10
-0.5
 20
-0.5
 30
0.0
  0
VERTEX
  5
39672
  8
0
  6
BYBLOCK
 62
     0
 10
0.5
 20
0.5
 30
0.0
  0
SEQEND
  5
39673
  8
0
  6
BYBLOCK
 62
     0
  0
ENDBLK
  5
15A
  8
0
  0
BLOCK
  8
0
  2
_OPEN30
 70
     0
 10
0.0
 20
0.0
 30
0.0
  3
_OPEN30
  1

  0
LINE
  5
15C
  8
0
  6
BYBLOCK
 62
     0
 10
-1.0
 20
0.26794919
 30
0.0
 11
0.0
 21
0.0
 31
0.0
  0
LINE
  5
15D
  8
0
  6
BYBLOCK
 62
     0
 10
0.0
 20
0.0
 30
0.0
 11
-1.0
 21
-0.26794919
 31
0.0
  0
LINE
  5
15E
  8
0
  6
BYBLOCK
 62
     0
 10
0.0
 20
0.0
 30
0.0
 11
-1.0
 21
0.0
 31
0.0
  0
ENDBLK
  5
160
  8
0
  0
BLOCK
  8
0
  2
ISO_A2_TITLE_BLOCK
 70
     2
 10
0.0
 20
0.0
 30
0.0
  3
ISO_A2_TITLE_BLOCK
  1

  0
LINE
  5
BDD
  8
FRAME_050
 10
299.5
 20
12.5
 30
0.0
 11
297.0
 21
7.5
 31
0.0
  0
LINE
  5
BDE
  8
FRAME_050
 10
294.5
 20
12.5
 30
0.0
 11
299.5
 21
12.5
 31
0.0
  0
LINE
  5
BDF
  8
FRAME_050
 10
247.0
 20
5.0
 30
0.0
 11
347.0
 21
5.0
 31
0.0
  0
LINE
  5
BE0
  8
FRAME_070
 10
584.0
 20
410.0
 30
0.0
 11
10.0
 21
410.0
 31
0.0
  0
LINE
  5
BE1
  8
FRAME_070
 10
10.0
 20
10.0
 30
0.0
 11
584.0
 21
10.0
 31
0.0
  0
LINE
  5
BE2
  8
FRAME_050
 10
12.5
 20
207.5
 30
0.0
 11
7.5
 21
210.0
 31
0.0
  0
LINE
  5
BE3
  8
FRAME_050
 10
12.5
 20
212.5
 30
0.0
 11
12.5
 21
207.5
 31
0.0
  0
LINE
  5
BE4
  8
FRAME_070
 10
10.0
 20
410.0
 30
0.0
 11
10.0
 21
10.0
 31
0.0
  0
LINE
  5
BE5
  8
FRAME_200
 10
0.0
 20
0.0
 30
0.0
 11
0.0
 21
10.0
 31
0.0
  0
LINE
  5
BE6
  8
FRAME_200
 10
0.0
 20
0.0
 30
0.0
 11
10.0
 21
0.0
 31
0.0
  0
TEXT
  5
BE7
  8
FRAME_050
 10
5.9000000000000004
 20
35.0
 30
0.0
 40
4.0
  1
H
  7
ISO_PROPORTIONAL
 72
     4
 11
7.5
 21
37.0
 31
0.0
  0
LINE
  5
BE8
  8
FRAME_050
 10
10.0
 20
60.0
 30
0.0
 11
5.0
 21
60.0
 31
0.0
  0
LINE
  5
BE9
  8
FRAME_050
 10
81.75
 20
5.0
 30
0.0
 11
81.75
 21
10.0
 31
0.0
  0
TEXT
  5
BEA
  8
FRAME_050
 10
44.874999999999993
 20
5.5
 30
0.0
 40
4.0
  1
1
  7
ISO_PROPORTIONAL
 72
     4
 11
45.875
 21
7.5
 31
0.0
  0
TEXT
  5
BEB
  8
FRAME_050
 10
6.0035533905932743
 20
85.0
 30
0.0
 40
4.0
  1
G
  7
ISO_PROPORTIONAL
 72
     4
 11
7.5
 21
87.0
 31
0.0
  0
LINE
  5
BEC
  8
FRAME_050
 10
10.0
 20
110.0
 30
0.0
 11
5.0
 21
110.0
 31
0.0
  0
TEXT
  5
BED
  8
FRAME_050
 10
6.0999999999999988
 20
135.0
 30
0.0
 40
4.0
  1
F
  7
ISO_PROPORTIONAL
 72
     4
 11
7.5
 21
137.0
 31
0.0
  0
LINE
  5
BEE
  8
FRAME_050
 10
10.0
 20
160.0
 30
0.0
 11
5.0
 21
160.0
 31
0.0
  0
TEXT
  5
BEF
  8
FRAME_050
 10
6.0999999999999988
 20
185.0
 30
0.0
 40
4.0
  1
E
  7
ISO_PROPORTIONAL
 72
     4
 11
7.5
 21
187.0
 31
0.0
  0
LINE
  5
BF0
  8
FRAME_050
 10
153.5
 20
5.0
 30
0.0
 11
153.5
 21
10.0
 31
0.0
  0
TEXT
  5
BF1
  8
FRAME_050
 10
116.1556692913386
 20
5.3996062992125982
 30
0.0
 40
4.0
  1
2
  7
ISO_PROPORTIONAL
 72
     4
 11
117.625
 21
7.5
 31
0.0
  0
TEXT
  5
BF2
  8
FRAME_050
 10
187.89215728752529
 20
5.5828427124746138
 30
0.0
 40
4.0
  1
3
  7
ISO_PROPORTIONAL
 72
     4
 11
189.375
 21
7.5
 31
0.0
  0
LINE
  5
BF3
  8
FRAME_050
 10
225.25
 20
5.0
 30
0.0
 11
225.25
 21
10.0
 31
0.0
  0
LINE
  5
BF4
  8
FRAME_050
 10
297.0
 20
7.5
 30
0.0
 11
294.5
 21
12.5
 31
0.0
  0
LINE
  5
BF5
  8
FRAME_050
 10
287.0
 20
5.0
 30
0.0
 11
287.0
 21
10.0
 31
0.0
  0
LINE
  5
BF6
  8
FRAME_050
 10
277.0
 20
5.0
 30
0.0
 11
277.0
 21
10.0
 31
0.0
  0
LINE
  5
BF7
  8
FRAME_050
 10
267.0
 20
5.0
 30
0.0
 11
267.0
 21
10.0
 31
0.0
  0
LINE
  5
BF8
  8
FRAME_050
 10
257.0
 20
5.0
 30
0.0
 11
257.0
 21
10.0
 31
0.0
  0
LINE
  5
BF9
  8
FRAME_050
 10
247.0
 20
5.0
 30
0.0
 11
247.0
 21
10.0
 31
0.0
  0
LINE
  5
BFA
  8
FRAME_050
 10
297.0
 20
10.0
 30
0.0
 11
297.0
 21
5.0
 31
0.0
  0
LINE
  5
BFB
  8
FRAME_050
 10
297.0
 20
10.0
 30
0.0
 11
297.0
 21
15.0
 31
0.0
  0
LINE
  5
BFC
  8
FRAME_050
 10
5.0
 20
210.0
 30
0.0
 11
15.0
 21
210.0
 31
0.0
  0
LINE
  5
BFD
  8
FRAME_050
 10
7.5
 20
210.0
 30
0.0
 11
12.5
 21
212.5
 31
0.0
  0
TEXT
  5
BFE
  8
FRAME_050
 10
5.7860912703473977
 20
235.0
 30
0.0
 40
4.0
  1
D
  7
ISO_PROPORTIONAL
 72
     4
 11
7.5
 21
237.0
 31
0.0
  0
LINE
  5
BFF
  8
FRAME_050
 10
10.0
 20
260.0
 30
0.0
 11
5.0
 21
260.0
 31
0.0
  0
TEXT
  5
C00
  8
FRAME_050
 10
6.1931980515339466
 20
285.0
 30
0.0
 40
4.0
  1
C
  7
ISO_PROPORTIONAL
 72
     4
 11
7.5
 21
287.0
 31
0.0
  0
LINE
  5
C01
  8
FRAME_050
 10
10.0
 20
310.0
 30
0.0
 11
5.0
 21
310.0
 31
0.0
  0
TEXT
  5
C02
  8
FRAME_050
 10
5.8999999999999959
 20
335.0
 30
0.0
 40
4.0
  1
B
  7
ISO_PROPORTIONAL
 72
     4
 11
7.5
 21
337.0
 31
0.0
  0
LINE
  5
C03
  8
FRAME_050
 10
10.0
 20
360.0
 30
0.0
 11
5.0
 21
360.0
 31
0.0
  0
TEXT
  5
C04
  8
FRAME_050
 10
5.6999999999999993
 20
385.0
 30
0.0
 40
4.0
  1
A
  7
ISO_PROPORTIONAL
 72
     4
 11
7.5
 21
387.0
 31
0.0
  0
LINE
  5
C05
  8
FRAME_200
 10
10.0
 20
420.0
 30
0.0
 11
0.0
 21
420.0
 31
0.0
  0
LINE
  5
C06
  8
FRAME_200
 10
0.0
 20
420.0
 30
0.0
 11
0.0
 21
410.0
 31
0.0
  0
TEXT
  5
C07
  8
FRAME_050
 10
44.874999999999993
 20
410.5
 30
0.0
 40
4.0
  1
1
  7
ISO_PROPORTIONAL
 72
     4
 11
45.875
 21
412.5
 31
0.0
  0
LINE
  5
C08
  8
FRAME_050
 10
81.75
 20
410.0
 30
0.0
 11
81.75
 21
415.0
 31
0.0
  0
TEXT
  5
C09
  8
FRAME_050
 10
116.1556692913386
 20
410.39960629921262
 30
0.0
 40
4.0
  1
2
  7
ISO_PROPORTIONAL
 72
     4
 11
117.625
 21
412.5
 31
0.0
  0
LINE
  5
C0A
  8
FRAME_050
 10
153.5
 20
410.0
 30
0.0
 11
153.5
 21
415.0
 31
0.0
  0
TEXT
  5
C0B
  8
FRAME_050
 10
187.89215728752529
 20
410.58284271247459
 30
0.0
 40
4.0
  1
3
  7
ISO_PROPORTIONAL
 72
     4
 11
189.375
 21
412.5
 31
0.0
  0
LINE
  5
C0C
  8
FRAME_050
 10
297.0
 20
405.0
 30
0.0
 11
297.0
 21
415.0
 31
0.0
  0
LINE
  5
C0D
  8
FRAME_050
 10
225.25
 20
410.0
 30
0.0
 11
225.25
 21
415.0
 31
0.0
  0
TEXT
  5
C0E
  8
FRAME_050
 10
259.52499999999998
 20
410.5
 30
0.0
 40
4.0
  1
4
  7
ISO_PROPORTIONAL
 72
     4
 11
261.125
 21
412.5
 31
0.0
  0
LINE
  5
C0F
  8
FRAME_070
 10
584.0
 20
10.0
 30
0.0
 11
584.0
 21
410.0
 31
0.0
  0
ATTDEF
  5
C10
  8
FRAME_025
 10
473.0
 20
31.75
 30
0.0
 40
2.5
  1
XXX - 00/00/00
  7
ISO_PROPORTIONAL
 11
473.0
 21
33.0
 31
0.0
  3
Approved by - Date
  2
APPROVED_BY_DATE
 70
     8
 74
     2
  0
TEXT
  5
C11
  8
FRAME_025
 10
448.0
 20
41.749999999999993
 30
0.0
 40
2.5
  1
Title/Name, designation, material, dimension etc
  7
ISO_PROPORTIONAL
 11
448.0
 21
43.0
 31
0.0
 73
     2
  0
TEXT
  5
C12
  8
FRAME_025
 10
473.0
 20
35.75
 30
0.0
 40
2.5
  1
Approved by - date
  7
ISO_PROPORTIONAL
 11
473.0
 21
37.0
 31
0.0
 73
     2
  0
LINE
  5
C13
  8
FRAME_070
 10
414.0
 20
46.0
 30
0.0
 11
584.0
 21
46.0
 31
0.0
  0
LINE
  5
C14
  8
FRAME_070
 10
414.0
 20
40.0
 30
0.0
 11
584.0
 21
40.0
 31
0.0
  0
LINE
  5
C15
  8
FRAME_070
 10
414.0
 20
30.0
 30
0.0
 11
584.0
 21
30.0
 31
0.0
  0
LINE
  5
C16
  8
FRAME_050
 10
368.75
 20
5.0
 30
0.0
 11
368.75
 21
10.0
 31
0.0
  0
LINE
  5
C17
  8
FRAME_050
 10
337.0
 20
5.0
 30
0.0
 11
337.0
 21
10.0
 31
0.0
  0
LINE
  5
C18
  8
FRAME_050
 10
327.0
 20
5.0
 30
0.0
 11
327.0
 21
10.0
 31
0.0
  0
LINE
  5
C19
  8
FRAME_050
 10
317.0
 20
5.0
 30
0.0
 11
317.0
 21
10.0
 31
0.0
  0
LINE
  5
C1A
  8
FRAME_050
 10
307.0
 20
5.0
 30
0.0
 11
307.0
 21
10.0
 31
0.0
  0
LINE
  5
C1B
  8
FRAME_050
 10
347.0
 20
5.0
 30
0.0
 11
347.0
 21
10.0
 31
0.0
  0
LINE
  5
C1C
  8
FRAME_050
 10
440.5
 20
5.0
 30
0.0
 11
440.5
 21
10.0
 31
0.0
  0
TEXT
  5
C1D
  8
FRAME_050
 10
403.24547244094481
 20
5.4102362204724406
 30
0.0
 40
4.0
  1
6
  7
ISO_PROPORTIONAL
 72
     4
 11
404.62499999999989
 21
7.5
 31
0.0
  0
TEXT
  5
C1E
  8
FRAME_050
 10
474.97500000000002
 20
5.5
 30
0.0
 40
4.0
  1
7
  7
ISO_PROPORTIONAL
 72
     4
 11
476.37499999999989
 21
7.5
 31
0.0
  0
TEXT
  5
C1F
  8
FRAME_025
 10
431.0
 20
41.749999999999993
 30
0.0
 40
2.5
  1
Quantity
  7
ISO_PROPORTIONAL
 11
431.0
 21
43.0
 31
0.0
 73
     2
  0
TEXT
  5
C20
  8
FRAME_025
 10
416.0
 20
41.749999999999993
 30
0.0
 40
2.5
  1
Itemref
  7
ISO_PROPORTIONAL
 11
416.0
 21
43.0
 31
0.0
 73
     2
  0
LINE
  5
C21
  8
FRAME_070
 10
414.0
 20
40.0
 30
0.0
 11
414.0
 21
46.0
 31
0.0
  0
LINE
  5
C22
  8
FRAME_070
 10
429.0
 20
40.0
 30
0.0
 11
429.0
 21
46.0
 31
0.0
  0
LINE
  5
C23
  8
FRAME_070
 10
414.0
 20
10.0
 30
0.0
 11
414.0
 21
40.0
 31
0.0
  0
ATTDEF
  5
C24
  8
FRAME_025
 10
416.0
 20
31.75
 30
0.0
 40
2.5
  1
XXX
  7
ISO_PROPORTIONAL
 11
416.0
 21
33.0
 31
0.0
  3
Designed by
  2
DESIGNED_BY
 70
     8
 74
     2
  0
TEXT
  5
C25
  8
FRAME_025
 10
416.0
 20
35.75
 30
0.0
 40
2.5
  1
Designed by
  7
ISO_PROPORTIONAL
 11
416.0
 21
37.0
 31
0.0
 73
     2
  0
LINE
  5
C26
  8
FRAME_070
 10
446.0
 20
40.0
 30
0.0
 11
446.0
 21
46.0
 31
0.0
  0
ATTDEF
  5
C27
  8
FRAME_025
 10
448.0
 20
31.75
 30
0.0
 40
2.5
  1
XXX
  7
ISO_PROPORTIONAL
 11
448.0
 21
33.0
 31
0.0
  3
Checked by
  2
CHECKED_BY
 70
     8
 74
     2
  0
TEXT
  5
C28
  8
FRAME_025
 10
448.0
 20
35.75
 30
0.0
 40
2.5
  1
Checked by
  7
ISO_PROPORTIONAL
 11
448.0
 21
37.0
 31
0.0
 73
     2
  0
ATTDEF
  5
C29
  8
FRAME_050
 10
444.74999999999989
 20
17.5
 30
0.0
 40
5.0
  1
XXX
  7
ISO_PROPORTIONAL
 72
     4
 11
451.49999999999989
 21
20.0
 31
0.0
  3
Owner
  2
OWNER
 70
     8
  0
LINE
  5
C2A
  8
FRAME_070
 10
446.0
 20
30.0
 30
0.0
 11
446.0
 21
40.0
 31
0.0
  0
LINE
  5
C2B
  8
FRAME_070
 10
471.0
 20
30.0
 30
0.0
 11
471.0
 21
40.0
 31
0.0
  0
LINE
  5
C2C
  8
FRAME_070
 10
489.0
 20
20.0
 30
0.0
 11
584.0
 21
20.0
 31
0.0
  0
LINE
  5
C2D
  8
FRAME_050
 10
512.25
 20
5.0
 30
0.0
 11
512.25
 21
10.0
 31
0.0
  0
TEXT
  5
C2E
  8
FRAME_050
 10
546.72499999999991
 20
5.5
 30
0.0
 40
4.0
  1
8
  7
ISO_PROPORTIONAL
 72
     4
 11
548.125
 21
7.5
 31
0.0
  0
ATTDEF
  5
C2F
  8
FRAME_050
 10
517.64999999999986
 20
13.5
 30
0.0
 40
3.0
  1
X
  7
ISO_PROPORTIONAL
 72
     4
 11
519.0
 21
15.0
 31
0.0
  3
Drawing number
  2
DRAWING_NUMBER
 70
     8
  0
ATTDEF
  5
C30
  8
FRAME_050
 10
529.75
 20
22.5
 30
0.0
 40
5.0
  1
XXX
  7
ISO_PROPORTIONAL
 72
     4
 11
536.5
 21
25.0
 31
0.0
  3
Title / Name
  2
TITLE
 70
     8
  0
LINE
  5
C31
  8
FRAME_070
 10
489.0
 20
10.0
 30
0.0
 11
489.0
 21
30.0
 31
0.0
  0
ATTDEF
  5
C32
  8
FRAME_025
 10
511.0
 20
31.75
 30
0.0
 40
2.5
  1
XXX
  7
ISO_PROPORTIONAL
 11
511.0
 21
33.0
 31
0.0
  3
Filename
  2
FILENAME
 70
     8
 74
     2
  0
TEXT
  5
C33
  8
FRAME_025
 10
511.0
 20
35.75
 30
0.0
 40
2.5
  1
Filename
  7
ISO_PROPORTIONAL
 11
511.0
 21
37.0
 31
0.0
 73
     2
  0
LINE
  5
C34
  8
FRAME_070
 10
509.0
 20
30.0
 30
0.0
 11
509.0
 21
40.0
 31
0.0
  0
TEXT
  5
C35
  8
FRAME_025
 10
536.0
 20
41.749999999999993
 30
0.0
 40
2.5
  1
Article No./Reference
  7
ISO_PROPORTIONAL
 11
536.0
 21
43.0
 31
0.0
 73
     2
  0
LINE
  5
C36
  8
FRAME_070
 10
534.0
 20
40.0
 30
0.0
 11
534.0
 21
46.0
 31
0.0
  0
ATTDEF
  5
C37
  8
FRAME_025
 10
551.0
 20
11.75
 30
0.0
 40
2.5
  1
0
  7
ISO_PROPORTIONAL
 11
551.0
 21
13.0
 31
0.0
  3
Edition
  2
EDITION
 70
     8
 74
     2
  0
TEXT
  5
C38
  8
FRAME_025
 10
551.0
 20
15.75
 30
0.0
 40
2.5
  1
Edition
  7
ISO_PROPORTIONAL
 11
551.0
 21
17.0
 31
0.0
 73
     2
  0
LINE
  5
C39
  8
FRAME_070
 10
549.0
 20
10.0
 30
0.0
 11
549.0
 21
20.0
 31
0.0
  0
ATTDEF
  5
C3A
  8
FRAME_025
 10
536.0
 20
31.75
 30
0.0
 40
2.5
  1
00/00/00
  7
ISO_PROPORTIONAL
 11
536.0
 21
33.0
 31
0.0
  3
Date
  2
DATE
 70
     8
 74
     2
  0
TEXT
  5
C3B
  8
FRAME_025
 10
536.0
 20
35.75
 30
0.0
 40
2.5
  1
Date
  7
ISO_PROPORTIONAL
 11
536.0
 21
37.0
 31
0.0
 73
     2
  0
LINE
  5
C3C
  8
FRAME_070
 10
534.0
 20
30.0
 30
0.0
 11
534.0
 21
40.0
 31
0.0
  0
ATTDEF
  5
C3D
  8
FRAME_025
 10
566.0
 20
11.75
 30
0.0
 40
2.5
  1
1/1
  7
ISO_PROPORTIONAL
 11
566.0
 21
13.0
 31
0.0
  3
Sheet
  2
SHEET
 70
     8
 74
     2
  0
TEXT
  5
C3E
  8
FRAME_025
 10
566.0
 20
15.75
 30
0.0
 40
2.5
  1
Sheet
  7
ISO_PROPORTIONAL
 11
566.0
 21
17.0
 31
0.0
 73
     2
  0
LINE
  5
C3F
  8
FRAME_070
 10
564.0
 20
10.0
 30
0.0
 11
564.0
 21
20.0
 31
0.0
  0
ATTDEF
  5
C40
  8
FRAME_025
 10
566.0
 20
31.75
 30
0.0
 40
2.5
  1
1:1
  7
ISO_PROPORTIONAL
 11
566.0
 21
33.0
 31
0.0
  3
Scale
  2
SCALE
 70
     8
 74
     2
  0
TEXT
  5
C41
  8
FRAME_025
 10
566.0
 20
35.75
 30
0.0
 40
2.5
  1
Scale
  7
ISO_PROPORTIONAL
 11
566.0
 21
37.0
 31
0.0
 73
     2
  0
LINE
  5
C42
  8
FRAME_070
 10
564.0
 20
30.0
 30
0.0
 11
564.0
 21
40.0
 31
0.0
  0
LINE
  5
C43
  8
FRAME_200
 10
594.0
 20
0.0
 30
0.0
 11
594.0
 21
10.0
 31
0.0
  0
LINE
  5
C44
  8
FRAME_200
 10
594.0
 20
0.0
 30
0.0
 11
584.0
 21
0.0
 31
0.0
  0
TEXT
  5
C45
  8
FRAME_050
 10
584.89999999999998
 20
35.0
 30
0.0
 40
4.0
  1
H
  7
ISO_PROPORTIONAL
 72
     4
 11
586.5
 21
37.0
 31
0.0
  0
LINE
  5
C46
  8
FRAME_050
 10
589.0
 20
60.0
 30
0.0
 11
584.0
 21
60.0
 31
0.0
  0
TEXT
  5
C47
  8
FRAME_050
 10
585.0035533905932
 20
85.0
 30
0.0
 40
4.0
  1
G
  7
ISO_PROPORTIONAL
 72
     4
 11
586.5
 21
87.0
 31
0.0
  0
LINE
  5
C48
  8
FRAME_050
 10
589.0
 20
110.0
 30
0.0
 11
584.0
 21
110.0
 31
0.0
  0
TEXT
  5
C49
  8
FRAME_050
 10
585.09999999999991
 20
135.0
 30
0.0
 40
4.0
  1
F
  7
ISO_PROPORTIONAL
 72
     4
 11
586.5
 21
137.0
 31
0.0
  0
LINE
  5
C4A
  8
FRAME_050
 10
589.0
 20
160.0
 30
0.0
 11
584.0
 21
160.0
 31
0.0
  0
TEXT
  5
C4B
  8
FRAME_050
 10
585.09999999999991
 20
185.0
 30
0.0
 40
4.0
  1
E
  7
ISO_PROPORTIONAL
 72
     4
 11
586.5
 21
187.0
 31
0.0
  0
LINE
  5
C4C
  8
FRAME_070
 10
414.0
 20
404.0
 30
0.0
 11
584.0
 21
404.0
 31
0.0
  0
TEXT
  5
C4D
  8
FRAME_050
 10
331.39215728752538
 20
410.58284271247459
 30
0.0
 40
4.0
  1
5
  7
ISO_PROPORTIONAL
 72
     4
 11
332.875
 21
412.5
 31
0.0
  0
LINE
  5
C4E
  8
FRAME_050
 10
368.75
 20
410.0
 30
0.0
 11
368.75
 21
415.0
 31
0.0
  0
TEXT
  5
C4F
  8
FRAME_025
 10
428.0
 20
405.75
 30
0.0
 40
2.5
  1
Revision note
  7
ISO_PROPORTIONAL
 11
428.0
 21
407.0
 31
0.0
 73
     2
  0
TEXT
  5
C50
  8
FRAME_025
 10
416.0
 20
405.75
 30
0.0
 40
2.5
  1
RevNo
  7
ISO_PROPORTIONAL
 11
416.0
 21
407.0
 31
0.0
 73
     2
  0
LINE
  5
C51
  8
FRAME_070
 10
426.0
 20
404.0
 30
0.0
 11
426.0
 21
410.0
 31
0.0
  0
LINE
  5
C52
  8
FRAME_070
 10
414.0
 20
404.0
 30
0.0
 11
414.0
 21
410.0
 31
0.0
  0
TEXT
  5
C53
  8
FRAME_050
 10
403.24547244094481
 20
410.41023622047243
 30
0.0
 40
4.0
  1
6
  7
ISO_PROPORTIONAL
 72
     4
 11
404.62499999999989
 21
412.5
 31
0.0
  0
LINE
  5
C54
  8
FRAME_050
 10
440.5
 20
410.0
 30
0.0
 11
440.5
 21
415.0
 31
0.0
  0
TEXT
  5
C55
  8
FRAME_050
 10
474.97500000000002
 20
410.5
 30
0.0
 40
4.0
  1
7
  7
ISO_PROPORTIONAL
 72
     4
 11
476.37499999999989
 21
412.5
 31
0.0
  0
LINE
  5
C56
  8
FRAME_050
 10
579.0
 20
210.0
 30
0.0
 11
589.0
 21
210.0
 31
0.0
  0
TEXT
  5
C57
  8
FRAME_050
 10
584.78609127034736
 20
235.0
 30
0.0
 40
4.0
  1
D
  7
ISO_PROPORTIONAL
 72
     4
 11
586.5
 21
237.0
 31
0.0
  0
LINE
  5
C58
  8
FRAME_050
 10
589.0
 20
260.0
 30
0.0
 11
584.0
 21
260.0
 31
0.0
  0
TEXT
  5
C59
  8
FRAME_050
 10
585.19319805153395
 20
285.0
 30
0.0
 40
4.0
  1
C
  7
ISO_PROPORTIONAL
 72
     4
 11
586.5
 21
287.0
 31
0.0
  0
LINE
  5
C5A
  8
FRAME_050
 10
589.0
 20
310.0
 30
0.0
 11
584.0
 21
310.0
 31
0.0
  0
TEXT
  5
C5B
  8
FRAME_050
 10
584.89999999999998
 20
335.0
 30
0.0
 40
4.0
  1
B
  7
ISO_PROPORTIONAL
 72
     4
 11
586.5
 21
337.0
 31
0.0
  0
TEXT
  5
C5C
  8
FRAME_025
 10
571.08299391850551
 20
405.75
 30
0.0
 40
2.5
  1
Checked
  7
ISO_PROPORTIONAL
 11
571.08299391850551
 21
407.0
 31
0.0
 73
     2
  0
TEXT
  5
C5D
  8
FRAME_025
 10
555.36099797283532
 20
405.75
 30
0.0
 40
2.5
  1
Signature
  7
ISO_PROPORTIONAL
 11
555.36099797283532
 21
407.0
 31
0.0
 73
     2
  0
TEXT
  5
C5E
  8
FRAME_025
 10
537.0
 20
405.75
 30
0.0
 40
2.5
  1
Date
  7
ISO_PROPORTIONAL
 11
537.0
 21
407.0
 31
0.0
 73
     2
  0
LINE
  5
C5F
  8
FRAME_070
 10
570.0
 20
404.0
 30
0.0
 11
570.0
 21
410.0
 31
0.0
  0
LINE
  5
C60
  8
FRAME_070
 10
555.0
 20
404.0
 30
0.0
 11
555.0
 21
410.0
 31
0.0
  0
LINE
  5
C61
  8
FRAME_070
 10
535.0
 20
404.0
 30
0.0
 11
535.0
 21
410.0
 31
0.0
  0
LINE
  5
C62
  8
FRAME_050
 10
512.25
 20
410.0
 30
0.0
 11
512.25
 21
415.0
 31
0.0
  0
TEXT
  5
C63
  8
FRAME_050
 10
546.72499999999991
 20
410.5
 30
0.0
 40
4.0
  1
8
  7
ISO_PROPORTIONAL
 72
     4
 11
548.125
 21
412.5
 31
0.0
  0
LINE
  5
C64
  8
FRAME_050
 10
589.0
 20
360.0
 30
0.0
 11
584.0
 21
360.0
 31
0.0
  0
TEXT
  5
C65
  8
FRAME_050
 10
584.70000000000005
 20
385.0
 30
0.0
 40
4.0
  1
A
  7
ISO_PROPORTIONAL
 72
     4
 11
586.5
 21
387.0
 31
0.0
  0
LINE
  5
C66
  8
FRAME_200
 10
594.0
 20
420.0
 30
0.0
 11
584.0
 21
420.0
 31
0.0
  0
LINE
  5
C67
  8
FRAME_200
 10
594.0
 20
410.0
 30
0.0
 11
594.0
 21
420.0
 31
0.0
  0
ENDBLK
  5
C69
  8
0
  0
BLOCK
  8
0
  2
WOBB001END
 70
     0
 10
0.0
 20
0.0
 30
0.0
  3
WOBB001END
  1

  0
LINE
  5
4D66
  8
0
  6
CONTINUOUS
 10
0.0
 20
0.0
 30
0.0
 11
0.8749999999999998
 21
0.0
 31
0.0
  0
ARC
  5
4D67
  8
0
  6
CONTINUOUS
 10
0.0331648379439287
 20
-0.5087238935900232
 30
0.0
 40
0.8790130605592325
 50
284.06490243660443
 51
312.19222981924361
  0
ARC
  5
4D68
  8
0
  6
CONTINUOUS
 10
0.2841534338796767
 20
-1.510548310625538
 30
0.0
 40
0.1537731892806598
 50
104.0649024366044
 51
179.4721730735024
  0
LINE
  5
4D69
  8
0
  6
CONTINUOUS
 10
0.0
 20
0.0
 30
0.0
 11
-0.0000000000000003
 21
-1.7501564476661919
 31
0.0
  0
ARC
  5
4D6A
  8
0
  6
CONTINUOUS
 10
0.1404622019506122
 20
-1.6303137183546199
 30
0.0
 40
0.1198427293115722
 50
275.0
 51
85.000000000000057
  0
LINE
  5
4D6B
  8
0
  6
CONTINUOUS
 10
-0.0000000000000003
 20
-1.7501564476661919
 30
0.0
 11
0.1456946485130855
 21
-1.7501564476661919
 31
0.0
  0
LINE
  5
4D6C
  8
0
  6
CONTINUOUS
 10
0.1377603739254348
 20
-1.7508506067459131
 30
0.0
 11
0.150907184036669
 21
-1.749700409899652
 31
0.0
  0
LINE
  5
4D6D
  8
0
  6
CONTINUOUS
 10
0.1303867696719884
 20
-1.5091317231818231
 30
0.0
 11
0.1509071840366689
 21
-1.5109270268095869
 31
0.0
  0
LINE
  5
4D6E
  8
0
  6
CONTINUOUS
 10
0.8749999999999998
 20
0.0
 30
0.0
 11
0.8749999999999996
 21
-0.8649327026588228
 31
0.0
  0
LINE
  5
4D6F
  8
0
  6
CONTINUOUS
 10
0.727014513830997
 20
-0.8726882933550612
 30
0.0
 11
0.727014513830997
 21
-0.9264923397184784
 31
0.0
  0
ARC
  5
4D70
  8
0
  6
CONTINUOUS
 10
0.41187090827646
 20
-0.9264923397184784
 30
0.0
 40
0.315143605554537
 50
312.19222981924361
 51
0.0
  0
LINE
  5
4D71
  8
0
  6
CONTINUOUS
 10
0.727014513830997
 20
-0.8726882933550612
 30
0.0
 11
0.8749999999999996
 21
-0.8649327026588228
 31
0.0
  0
ENDBLK
  5
4D72
  8
0
  0
BLOCK
  8
0
  2
A$C0A61123B
 70
     0
 10
0.0
 20
0.0
 30
0.0
  3
A$C0A61123B
  1

  0
LINE
  5
C0AD
  8
PROF
  6
CONTINUOUS
 10
4.9012016798694162
 20
13.325025853350891
 30
0.0000000000000002
 11
4.9012016798694162
 21
12.88585218805485
 31
0.0000000000000003
  0
INSERT
  5
C0AE
  8
0
  2
*U84
 10
0.0
 20
0.0
 30
0.0
  0
LINE
  5
C0AF
  8
PROF
 10
4.5198575031869259
 20
12.72227734589444
 30
0.0000000000000001
 11
4.5198575031869259
 21
12.88585218805485
 31
0.0000000000000001
  0
LINE
  5
C0B0
  8
PROF
  6
CONTINUOUS
 10
3.6306271195888371
 20
13.325025853350891
 30
0.0000000000000002
 11
4.9012016798694162
 21
13.325025853350891
 31
0.0000000000000002
  0
LINE
  5
C0B1
  8
PROF
 10
1.9750295148747341
 20
10.37671325491794
 30
0.0000000000000002
 11
1.9750295148747341
 21
10.11391186758919
 31
0.0000000000000002
  0
LINE
  5
C0B2
  8
PROF
 10
1.607967335755631
 20
10.11391186758919
 30
0.0000000000000001
 11
1.9750295148747341
 21
10.11391186758919
 31
0.0000000000000001
  0
LINE
  5
C0B3
  8
PROF
 10
1.9750295148747341
 20
10.11391186758919
 30
0.0000000000000001
 11
1.944958486898144
 21
10.11391186758919
 31
0.0000000000000001
  0
LINE
  5
C0B4
  8
PROF
 10
1.9750295148747341
 20
10.11391186758919
 30
0.0000000000000001
 11
1.944958486898144
 21
10.11391186758919
 31
0.0000000000000001
  0
LINE
  5
C0B5
  8
PROF
 10
0.3222605517169654
 20
7.5247473351056442
 30
-0.0000000000000002
 11
-0.0000008570117416
 21
7.5247473351056442
 31
0.0
  0
LINE
  5
C0B6
  8
PROF
 10
-0.0000008570117416
 20
7.5247473351056442
 30
0.0
 11
-0.0000008570117416
 21
9.1943336957369866
 31
0.0
  0
POLYLINE
  5
C0B7
  8
PROF
 66
     1
 10
0.0
 20
0.0
 30
0.0000000000000001
 70
     4
 75
     6
  0
VERTEX
  5
C0B8
  8
PROF
 10
1.607967335755631
 20
10.11391186758919
 30
0.0000000000000001
 70
    16
  0
VERTEX
  5
C0B9
  8
PROF
 10
1.607967335755631
 20
10.11391186758919
 30
0.0000000000000001
 70
     8
  0
VERTEX
  5
C0BA
  8
PROF
 10
1.646813232648582
 20
10.02198069336111
 30
0.0000000000000001
 70
     8
  0
VERTEX
  5
C0BB
  8
PROF
 10
1.67335966680929
 20
9.9344134163010267
 30
0.0000000000000001
 70
     8
  0
VERTEX
  5
C0BC
  8
PROF
 10
1.689008640046324
 20
9.8512576644480987
 30
0.0000000000000001
 70
     8
  0
VERTEX
  5
C0BD
  8
PROF
 10
1.695162154168258
 20
9.7725610658417281
 30
0.0000000000000001
 70
     8
  0
VERTEX
  5
C0BE
  8
PROF
 10
1.6932222109836059
 20
9.6983712485214255
 30
0.0000000000000001
 70
     8
  0
VERTEX
  5
C0BF
  8
PROF
 10
1.6845908123009961
 20
9.6287358405263603
 30
0.0000000000000001
 70
     8
  0
VERTEX
  5
C0C0
  8
PROF
 10
1.6706699599288859
 20
9.5637024698960431
 30
0.0000000000000001
 70
     8
  0
VERTEX
  5
C0C1
  8
PROF
 10
1.6528616556759621
 20
9.503318764669757
 30
0.0000000000000001
 70
     8
  0
VERTEX
  5
C0C2
  8
PROF
 10
1.6323562992730549
 20
9.4475843259650674
 30
0.0000000000000001
 70
     8
  0
VERTEX
  5
C0C3
  8
PROF
 10
1.609497882140658
 20
9.3963066472123273
 30
0.0000000000000001
 70
     8
  0
VERTEX
  5
C0C4
  8
PROF
 10
1.584418793621637
 20
9.3492451949202842
 30
0.0000000000000001
 70
     8
  0
VERTEX
  5
C0C5
  8
PROF
 10
1.557251423058744
 20
9.3061594355972375
 30
0.0000000000000001
 70
     8
  0
VERTEX
  5
C0C6
  8
PROF
 10
1.5281281597949601
 20
9.2668088357519292
 30
0.0000000000000001
 70
     8
  0
VERTEX
  5
C0C7
  8
PROF
 10
1.4971813931729789
 20
9.2309528618930017
 30
0.0000000000000001
 70
     8
  0
VERTEX
  5
C0C8
  8
PROF
 10
1.464543512535726
 20
9.1983509805288577
 30
0.0000000000000001
 70
     8
  0
VERTEX
  5
C0C9
  8
PROF
 10
1.4303469072260091
 20
9.1687626581682462
 30
0.0000000000000001
 70
     8
  0
VERTEX
  5
C0CA
  8
PROF
 10
1.3947360332574019
 20
9.1419547918675335
 30
0.0000000000000001
 70
     8
  0
VERTEX
  5
C0CB
  8
PROF
 10
1.3579036133264131
 20
9.1177240008747731
 30
0.0000000000000001
 70
     8
  0
VERTEX
  5
C0CC
  8
PROF
 10
1.3200544368004321
 20
9.0958743349860924
 30
0.0000000000000001
 70
     8
  0
VERTEX
  5
C0CD
  8
PROF
 10
1.281393293046676
 20
9.0762098439975034
 30
0.0000000000000001
 70
     8
  0
VERTEX
  5
C0CE
  8
PROF
 10
1.242124971432417
 20
9.0585345777049042
 30
0.0000000000000001
 70
     8
  0
VERTEX
  5
C0CF
  8
PROF
 10
1.2024542613249869
 20
9.0426525859044204
 30
0.0000000000000001
 70
     8
  0
VERTEX
  5
C0D0
  8
PROF
 10
1.1625859520916599
 20
9.0283679183919503
 30
0.0000000000000001
 70
     8
  0
VERTEX
  5
C0D1
  8
PROF
 10
1.1227248330997091
 20
9.0154846249635057
 30
0.0000000000000001
 70
     8
  0
VERTEX
  5
C0D2
  8
PROF
 10
1.0829726247361
 20
9.0034643862466055
 30
0.0000000000000001
 70
     8
  0
VERTEX
  5
C0D3
  8
PROF
 10
1.043018771466222
 20
8.9903994061946833
 30
0.0000000000000001
 70
     8
  0
VERTEX
  5
C0D4
  8
PROF
 10
1.002449648775211
 20
8.9740395195925657
 30
0.0000000000000001
 70
     8
  0
VERTEX
  5
C0D5
  8
PROF
 10
0.9608516321480919
 20
8.9521345612251935
 30
0.0000000000000001
 70
     8
  0
VERTEX
  5
C0D6
  8
PROF
 10
0.9178110970699435
 20
8.9224343658775052
 30
0.0000000000000001
 70
     8
  0
VERTEX
  5
C0D7
  8
PROF
 10
0.8729144190259034
 20
8.8826887683343312
 30
0.0000000000000001
 70
     8
  0
VERTEX
  5
C0D8
  8
PROF
 10
0.8257479735009951
 20
8.8306476033806121
 30
0.0000000000000001
 70
     8
  0
VERTEX
  5
C0D9
  8
PROF
 10
0.7758981359802988
 20
8.764060705801171
 30
0.0000000000000001
 70
     8
  0
VERTEX
  5
C0DA
  8
PROF
 10
1.729201901609656
 20
9.8629858761255491
 30
0.0000000000000001
 70
    16
  0
VERTEX
  5
C0DB
  8
PROF
 10
1.6793731231140889
 20
9.4532143012734196
 30
0.0000000000000001
 70
    16
  0
VERTEX
  5
C0DC
  8
PROF
 10
1.4455611507419801
 20
9.1391837193732481
 30
0.0000000000000001
 70
    16
  0
VERTEX
  5
C0DD
  8
PROF
 10
1.120463717273821
 20
9.0026267702428413
 30
0.0000000000000001
 70
    16
  0
VERTEX
  5
C0DE
  8
PROF
 10
0.9127765582653638
 20
8.9630202230383702
 30
0.0000000000000001
 70
    16
  0
VERTEX
  5
C0DF
  8
PROF
 10
0.7758981359802988
 20
8.764060705801171
 30
0.0000000000000001
 70
    16
  0
SEQEND
  5
C0E0
  8
PROF
  0
ARC
  5
C0E1
  8
PROF
 10
0.733429816733235
 20
8.4849506952165257
 30
0.0000000000000001
 40
0.2823224329524727
 50
269.73652020831901
 51
81.348449993176914
  0
LINE
  5
C0E2
  8
PROF
  6
CONTINUOUS
 10
-0.0000008570117416
 20
9.1943336957369866
 30
-0.0000000000000001
 11
3.6306271195888371
 21
13.325025853350891
 31
0.0000000000000002
  0
POLYLINE
  5
C0E3
  8
PROF
 66
     1
 10
0.0
 20
0.0
 30
0.0000000000000001
 70
     4
 75
     6
  0
VERTEX
  5
C0E4
  8
PROF
 10
4.5198575031869259
 20
12.72227734589444
 30
0.0000000000000001
 70
    16
  0
VERTEX
  5
C0E5
  8
PROF
 10
4.5198575031869259
 20
12.72227734589444
 30
0.0000000000000001
 70
     8
  0
VERTEX
  5
C0E6
  8
PROF
 10
4.4467035366886298
 20
12.741128108778071
 30
0.0000000000000001
 70
     8
  0
VERTEX
  5
C0E7
  8
PROF
 10
4.3786645761268801
 20
12.754675269913941
 30
0.0000000000000001
 70
     8
  0
VERTEX
  5
C0E8
  8
PROF
 10
4.3154364111440477
 20
12.76334314092332
 30
0.0000000000000001
 70
     8
  0
VERTEX
  5
C0E9
  8
PROF
 10
4.256714831382566
 20
12.76755603342724
 30
0.0000000000000001
 70
     8
  0
VERTEX
  5
C0EA
  8
PROF
 10
4.2021956264849791
 20
12.76773825904672
 30
0.0000000000000001
 70
     8
  0
VERTEX
  5
C0EB
  8
PROF
 10
4.1515745860935453
 20
12.764314129403139
 30
0.0000000000000001
 70
     8
  0
VERTEX
  5
C0EC
  8
PROF
 10
4.1045474998508658
 20
12.75770795611743
 30
0.0000000000000001
 70
     8
  0
VERTEX
  5
C0ED
  8
PROF
 10
4.0608101573993158
 20
12.748344050810831
 30
0.0000000000000001
 70
     8
  0
VERTEX
  5
C0EE
  8
PROF
 10
4.0200583483813261
 20
12.736646725104491
 30
0.0000000000000001
 70
     8
  0
VERTEX
  5
C0EF
  8
PROF
 10
3.9819878624393819
 20
12.72304029061945
 30
0.0000000000000001
 70
     8
  0
VERTEX
  5
C0F0
  8
PROF
 10
3.946294489215858
 20
12.707949058976959
 30
0.0000000000000001
 70
     8
  0
VERTEX
  5
C0F1
  8
PROF
 10
3.9126740183532429
 20
12.691797341798059
 30
0.0000000000000001
 70
     8
  0
VERTEX
  5
C0F2
  8
PROF
 10
3.8808638350742508
 20
12.67494295718654
 30
0.0000000000000001
 70
     8
  0
VERTEX
  5
C0F3
  8
PROF
 10
3.850767706922738
 20
12.65747774917668
 30
0.0000000000000001
 70
     8
  0
VERTEX
  5
C0F4
  8
PROF
 10
3.8223309970228452
 20
12.639427068285499
 30
0.0000000000000001
 70
     8
  0
VERTEX
  5
C0F5
  8
PROF
 10
3.7954990684987129
 20
12.62081626503004
 30
0.0000000000000001
 70
     8
  0
VERTEX
  5
C0F6
  8
PROF
 10
3.7702172844744828
 20
12.601670689926999
 30
0.0000000000000001
 70
     8
  0
VERTEX
  5
C0F7
  8
PROF
 10
3.746431008074353
 20
12.58201569349364
 30
0.0000000000000001
 70
     8
  0
VERTEX
  5
C0F8
  8
PROF
 10
3.7240856024224618
 20
12.56187662624666
 30
0.0000000000000001
 70
     8
  0
VERTEX
  5
C0F9
  8
PROF
 10
3.7031264306428961
 20
12.541278838703191
 30
0.0000000000000001
 70
     8
  0
VERTEX
  5
C0FA
  8
PROF
 10
3.6834988558599089
 20
12.520247681380051
 30
0.0000000000000001
 70
     8
  0
VERTEX
  5
C0FB
  8
PROF
 10
3.665148241197528
 20
12.49880850479428
 30
0.0000000000000001
 70
     8
  0
VERTEX
  5
C0FC
  8
PROF
 10
3.6480199497799499
 20
12.47698665946279
 30
0.0000000000000001
 70
     8
  0
VERTEX
  5
C0FD
  8
PROF
 10
3.6320593447313172
 20
12.45480749590263
 30
0.0000000000000001
 70
     8
  0
VERTEX
  5
C0FE
  8
PROF
 10
3.6171895848866589
 20
12.43223790353807
 30
0.0000000000000001
 70
     8
  0
VERTEX
  5
C0FF
  8
PROF
 10
3.6032450119242858
 20
12.40901092742285
 30
0.0000000000000001
 70
     8
  0
VERTEX
  5
C100
  8
PROF
 10
3.590037763233453
 20
12.38480115151844
 30
0.0000000000000001
 70
     8
  0
VERTEX
  5
C101
  8
PROF
 10
3.5773799762033032
 20
12.35928315978594
 30
0.0000000000000001
 70
     8
  0
VERTEX
  5
C102
  8
PROF
 10
3.5650837882230908
 20
12.33213153618658
 30
0.0000000000000001
 70
     8
  0
VERTEX
  5
C103
  8
PROF
 10
3.5529613366819599
 20
12.303020864681571
 30
0.0000000000000001
 70
     8
  0
VERTEX
  5
C104
  8
PROF
 10
3.540824758969165
 20
12.271625729232371
 30
0.0000000000000001
 70
     8
  0
VERTEX
  5
C105
  8
PROF
 10
3.5284861924738489
 20
12.23762071379997
 30
0.0000000000000001
 70
     8
  0
VERTEX
  5
C106
  8
PROF
 10
3.5157577745852668
 20
12.200680402345711
 30
0.0000000000000001
 70
     8
  0
VERTEX
  5
C107
  8
PROF
 10
3.5024516426926189
 20
12.16047937883093
 30
0.0000000000000001
 70
     8
  0
VERTEX
  5
C108
  8
PROF
 10
3.4883799341851041
 20
12.116692227216619
 30
0.0000000000000001
 70
     8
  0
VERTEX
  5
C109
  8
PROF
 10
3.4733547864519201
 20
12.06899353146423
 30
0.0000000000000001
 70
     8
  0
VERTEX
  5
C10A
  8
PROF
 10
3.45723654619428
 20
12.0172095445447
 30
0.0000000000000001
 70
     8
  0
VERTEX
  5
C10B
  8
PROF
 10
3.4400783973613889
 20
11.961773195467799
 30
0.0000000000000001
 70
     8
  0
VERTEX
  5
C10C
  8
PROF
 10
3.421981733214579
 20
11.90326908225302
 30
0.0000000000000001
 70
     8
  0
VERTEX
  5
C10D
  8
PROF
 10
3.4030479470150108
 20
11.842281802919951
 30
0.0000000000000001
 70
     8
  0
VERTEX
  5
C10E
  8
PROF
 10
3.383378432024017
 20
11.779395955487979
 30
0.0000000000000001
 70
     8
  0
VERTEX
  5
C10F
  8
PROF
 10
3.3630745815028709
 20
11.715196137976809
 30
0.0000000000000001
 70
     8
  0
VERTEX
  5
C110
  8
PROF
 10
3.3422377887127359
 20
11.650266948405831
 30
0.0000000000000001
 70
     8
  0
VERTEX
  5
C111
  8
PROF
 10
3.320969446915
 20
11.58519298479461
 30
0.0000000000000001
 70
     8
  0
VERTEX
  5
C112
  8
PROF
 10
3.2993709493707679
 20
11.520558845162549
 30
0.0000000000000001
 70
     8
  0
VERTEX
  5
C113
  8
PROF
 10
3.277543689341428
 20
11.456949127529469
 30
0.0000000000000001
 70
     8
  0
VERTEX
  5
C114
  8
PROF
 10
3.2555890600881412
 20
11.3949484299145
 30
0.0000000000000001
 70
     8
  0
VERTEX
  5
C115
  8
PROF
 10
3.233608454872182
 20
11.335141350337491
 30
0.0000000000000001
 70
     8
  0
VERTEX
  5
C116
  8
PROF
 10
3.2116715641212181
 20
11.27799544797778
 30
0.0000000000000001
 70
     8
  0
VERTEX
  5
C117
  8
PROF
 10
3.189721266927847
 20
11.22351012665467
 30
0.0000000000000001
 70
     8
  0
VERTEX
  5
C118
  8
PROF
 10
3.1676687395512881
 20
11.17156775134765
 30
0.0000000000000001
 70
     8
  0
VERTEX
  5
C119
  8
PROF
 10
3.1454251582505321
 20
11.12205068703588
 30
0.0000000000000001
 70
     8
  0
VERTEX
  5
C11A
  8
PROF
 10
3.122901699284625
 20
11.07484129869874
 30
0.0000000000000001
 70
     8
  0
VERTEX
  5
C11B
  8
PROF
 10
3.1000095389127291
 20
11.02982195131551
 30
0.0000000000000001
 70
     8
  0
VERTEX
  5
C11C
  8
PROF
 10
3.0766598533938909
 20
10.986875009865679
 30
0.0000000000000001
 70
     8
  0
VERTEX
  5
C11D
  8
PROF
 10
3.0527638189871591
 20
10.9458828393283
 30
0.0000000000000001
 70
     8
  0
VERTEX
  5
C11E
  8
PROF
 10
3.0282326119516361
 20
10.90672780468298
 30
0.0000000000000001
 70
     8
  0
VERTEX
  5
C11F
  8
PROF
 10
3.002977408546371
 20
10.869292270908771
 30
0.0000000000000001
 70
     8
  0
VERTEX
  5
C120
  8
PROF
 10
2.9769093850304098
 20
10.833458602985161
 30
0.0000000000000001
 70
     8
  0
VERTEX
  5
C121
  8
PROF
 10
2.9499397176628568
 20
10.799109165891419
 30
0.0000000000000001
 70
     8
  0
VERTEX
  5
C122
  8
PROF
 10
2.9220006098404379
 20
10.76614363969508
 30
0.0000000000000001
 70
     8
  0
VERTEX
  5
C123
  8
PROF
 10
2.8931083735103011
 20
10.7345309648158
 30
0.0000000000000001
 70
     8
  0
VERTEX
  5
C124
  8
PROF
 10
2.8633003477572738
 20
10.70425739676193
 30
0.0000000000000001
 70
     8
  0
VERTEX
  5
C125
  8
PROF
 10
2.8326138716660689
 20
10.67530919104115
 30
0.0000000000000001
 70
     8
  0
VERTEX
  5
C126
  8
PROF
 10
2.8010862843216269
 20
10.647672603161711
 30
0.0000000000000001
 70
     8
  0
VERTEX
  5
C127
  8
PROF
 10
2.7687549248087171
 20
10.62133388863162
 30
0.0000000000000001
 70
     8
  0
VERTEX
  5
C128
  8
PROF
 10
2.735657132212054
 20
10.5962793029588
 30
0.0000000000000001
 70
     8
  0
VERTEX
  5
C129
  8
PROF
 10
2.7018302456165202
 20
10.572495101651381
 30
0.0000000000000001
 70
     8
  0
VERTEX
  5
C12A
  8
PROF
 10
2.6673116041068852
 20
10.54996754021726
 30
0.0000000000000001
 70
     8
  0
VERTEX
  5
C12B
  8
PROF
 10
2.6321385467680321
 20
10.528682874164581
 30
0.0000000000000001
 70
     8
  0
VERTEX
  5
C12C
  8
PROF
 10
2.5963484126846188
 20
10.508627359001251
 30
0.0000000000000001
 70
     8
  0
VERTEX
  5
C12D
  8
PROF
 10
2.5599785409415849
 20
10.489787250235279
 30
0.0000000000000001
 70
     8
  0
VERTEX
  5
C12E
  8
PROF
 10
2.522998630314361
 20
10.472162234281081
 30
0.0000000000000001
 70
     8
  0
VERTEX
  5
C12F
  8
PROF
 10
2.4851078183409072
 20
10.455805721177621
 30
0.0000000000000001
 70
     8
  0
VERTEX
  5
C130
  8
PROF
 10
2.4459376022498982
 20
10.44078455187036
 30
0.0000000000000001
 70
     8
  0
VERTEX
  5
C131
  8
PROF
 10
2.4051194792701258
 20
10.42716556730465
 30
0.0000000000000001
 70
     8
  0
VERTEX
  5
C132
  8
PROF
 10
2.3622849466301541
 20
10.415015608425851
 30
0.0000000000000001
 70
     8
  0
VERTEX
  5
C133
  8
PROF
 10
2.3170655015587149
 20
10.40440151617929
 30
0.0000000000000001
 70
     8
  0
VERTEX
  5
C134
  8
PROF
 10
2.2690926412844301
 20
10.395390131510339
 30
0.0000000000000001
 70
     8
  0
VERTEX
  5
C135
  8
PROF
 10
2.2179978630360888
 20
10.388048295364451
 30
0.0000000000000001
 70
     8
  0
VERTEX
  5
C136
  8
PROF
 10
2.1634126640422551
 20
10.38244284868688
 30
0.0000000000000001
 70
     8
  0
VERTEX
  5
C137
  8
PROF
 10
2.104968541531604
 20
10.37864063242295
 30
0.0000000000000001
 70
     8
  0
VERTEX
  5
C138
  8
PROF
 10
2.0422969927328718
 20
10.37670848751816
 30
0.0000000000000001
 70
     8
  0
VERTEX
  5
C139
  8
PROF
 10
1.9750295148747341
 20
10.37671325491794
 30
0.0000000000000001
 70
     8
  0
VERTEX
  5
C13A
  8
PROF
 10
4.2166060115107484
 20
12.80885334975255
 30
0.0000000000000001
 70
    16
  0
VERTEX
  5
C13B
  8
PROF
 10
3.8702254102732918
 20
12.707065515763929
 30
0.0000000000000001
 70
    16
  0
VERTEX
  5
C13C
  8
PROF
 10
3.605346156896871
 20
12.46277472098552
 30
0.0000000000000001
 70
    16
  0
VERTEX
  5
C13D
  8
PROF
 10
3.500746030527238
 20
12.170680575709749
 30
0.0000000000000001
 70
    16
  0
VERTEX
  5
C13E
  8
PROF
 10
3.231798439705698
 20
11.26846416496107
 30
0.0000000000000001
 70
    16
  0
VERTEX
  5
C13F
  8
PROF
 10
2.9737109398832891
 20
10.76631086647069
 30
0.0000000000000001
 70
    16
  0
VERTEX
  5
C140
  8
PROF
 10
2.5729961067384011
 20
10.460947364504699
 30
0.0000000000000001
 70
    16
  0
VERTEX
  5
C141
  8
PROF
 10
2.253782621454604
 20
10.372731239449759
 30
0.0000000000000001
 70
    16
  0
VERTEX
  5
C142
  8
PROF
 10
1.9750295148747341
 20
10.37671325491794
 30
0.0000000000000001
 70
    16
  0
SEQEND
  5
C143
  8
PROF
  0
LINE
  5
C144
  8
PROF
 10
4.9012016798694162
 20
12.88585218805485
 30
0.0000000000000003
 11
4.5198575031869259
 21
12.88585218805485
 31
0.0000000000000003
  0
LINE
  5
C145
  8
PROF
 10
0.7321315362267457
 20
8.2026312473991538
 30
0.0000000000000006
 11
0.7321315362267457
 21
8.0511853963434987
 31
0.0000000000000006
  0
ARC
  5
C146
  8
PROF
 10
0.7977322214551919
 20
7.5773339332026799
 30
0.0000000000000006
 40
0.4783708383912012
 50
97.882010168942529
 51
186.31119505698649
  0
LINE
  5
C147
  8
FRAME_050
 10
7.8016377197432121
 20
17.99371054969447
 30
0.0
 11
7.8016377197432121
 21
0.0000000000002274
 31
0.0
  0
ENDBLK
  5
C149
  8
0
  0
BLOCK
  8
0
  2
A$C3A7C6791
 70
     0
 10
0.0
 20
0.0
 30
0.0
  3
A$C3A7C6791
  1

  0
ARC
  5
1A561
  8
0
 10
1.0342682520551421
 20
11.169869575314801
 30
0.0
 40
0.3900479059662017
 50
183.5871702804647
 51
250.12003892297869
  0
ARC
  5
1A562
  8
0
 10
0.3331235273064408
 20
14.96835148878222
 30
0.0
 40
0.279776987736341
 50
290.26301102890392
 51
72.509116341854423
  0
ARC
  5
1A563
  8
0
 10
0.7948887850711232
 20
10.60700392177659
 30
0.0
 40
0.2232361910347119
 50
300.2914142988875
 51
61.434469032044603
  0
LINE
  5
1A564
  8
0
 10
-0.0000015027120526
 20
9.7351929270671462
 30
0.0
 11
1.0332573394856579
 21
9.7351929270671462
 31
0.0
  0
LINE
  5
1A565
  8
0
 10
1.0332573394856579
 20
10.377304601683591
 30
0.0
 11
0.9074887268004658
 21
10.377304601683591
 31
0.0
  0
LINE
  5
1A566
  8
0
 10
0.6449845421777241
 20
11.145465432783791
 30
0.0
 11
0.5554296092705046
 21
11.181249222917581
 31
0.0
  0
LINE
  5
1A567
  8
0
 10
0.5554296092705046
 20
14.67010534946894
 30
0.0
 11
0.430018718777319
 21
14.67010534946894
 31
0.0
  0
LINE
  5
1A568
  8
0
 10
0.4172116339615855
 20
15.235192927067139
 30
0.0
 11
-0.0000015027120526
 21
15.235192927067139
 31
0.0
  0
LINE
  5
1A569
  8
0
 10
-0.0000015027120526
 20
15.235192927067139
 30
0.0
 11
-0.0000015027120526
 21
9.7351929270671462
 31
0.0
  0
LINE
  5
1A56A
  8
0
 10
1.0332573394856579
 20
9.7351929270671462
 30
0.0
 11
1.0332573394856579
 21
10.377304601683591
 31
0.0
  0
LINE
  5
1A56B
  8
0
 10
0.9074887268004658
 20
10.377304601683591
 30
0.0
 11
0.9074887268003521
 21
10.414245912577821
 31
0.0
  0
LINE
  5
1A56C
  8
0
 10
0.5554296092705046
 20
11.181249222917581
 30
0.0
 11
0.5554296092705046
 21
14.67010534946894
 31
0.0
  0
LINE
  5
1A56D
  8
0
 10
0.430018718777319
 20
14.67010534946894
 30
0.0
 11
0.4300187187771485
 21
14.705889139602959
 31
0.0
  0
INSERT
  5
1A56E
  8
0
  2
*U85
 10
0.0
 20
0.0
 30
0.0
  0
LINE
  5
1A56F
  8
FRAME_050
 10
5.1382720395286006
 20
17.993710579095019
 30
0.0
 11
5.1382720395286006
 21
0.0000000294007805
 31
0.0
  0
ENDBLK
  5
1A571
  8
0
  0
BLOCK
  8
0
  2
A$C212248C0
 70
     0
 10
0.0
 20
0.0
 30
0.0
  3
A$C212248C0
  1

  0
LINE
  5
2846E
  8
0
 10
-0.0000002092490945
 20
10.41741894345523
 30
0.0
 11
-0.000000218823061
 21
12.91741894345523
 31
0.0
  0
LINE
  5
2846F
  8
0
 10
0.8061752779508424
 20
10.41741894654251
 30
0.0
 11
0.80617527442746
 21
11.337459194522349
 31
0.0
  0
LINE
  5
28470
  8
0
 10
-0.0000002092490945
 20
10.41741894345523
 30
0.0
 11
0.8061752779508424
 21
10.41741894654251
 31
0.0
  0
LINE
  5
28471
  8
0
 10
-0.000000218823061
 20
12.91741894345523
 30
0.0
 11
0.1835338022692099
 21
12.91741894415804
 31
0.0
  0
LINE
  5
28472
  8
0
 10
0.5432593756756888
 20
11.33745919351543
 30
0.0
 11
0.8061752744275167
 21
11.337459194522349
 31
0.0
  0
LINE
  5
28473
  8
0
 10
0.5432593756756888
 20
11.33745919351543
 30
0.0
 11
0.54325937522907
 21
11.454074799268589
 31
0.0
  0
ARC
  5
28474
  8
0
 10
0.5406585726453841
 20
11.69407225899795
 30
0.0
 40
0.2400115514942006
 50
270.62087814899439
 51
10.065567101317541
  0
ARC
  5
28475
  8
0
 10
0.3766221072655185
 20
12.57830290724473
 30
0.0
 40
0.1204493443528103
 50
92.075522465847911
 51
186.90606997904499
  0
ARC
  5
28476
  8
0
 10
0.3522648873053527
 20
11.66572609276443
 30
0.0
 40
0.4304889887359197
 50
9.3978639632316945
 51
32.979139282634932
  0
ARC
  5
28477
  8
0
 10
-3.1652042745943159
 20
9.0577862235478506
 30
0.0
 40
4.8085319198703189
 50
36.234313076985558
 51
42.402692063571678
  0
LINE
  5
28478
  8
0
 10
0.1835338022692099
 20
12.91741894415804
 30
0.0
 11
0.3722598200128004
 21
12.698673231681139
 31
0.0
  0
ARC
  5
28479
  8
0
 10
0.9319226152692294
 20
12.72987725098619
 30
0.0
 40
0.6950054723870779
 50
193.8233761419454
 51
218.1708864341492
  0
LINE
  5
2847A
  8
0
 10
-0.0000002092490945
 20
10.41741894345523
 30
0.0
 11
-0.0000002092490945
 21
12.91741894345523
 31
0.0
  0
INSERT
  5
2847B
  8
0
  2
*U86
 10
0.0
 20
0.0
 30
0.0
  0
LINE
  5
2847C
  8
FRAME_050
 10
6.2588202718825414
 20
17.993710579095019
 30
0.0
 11
6.2588202718825414
 21
0.0000000294007805
 31
0.0
  0
ENDBLK
  5
2847E
  8
0
  0
BLOCK
  8
0
  2
A$C52DE5D80
 70
     0
 10
0.0
 20
0.0
 30
0.0
  3
A$C52DE5D80
  1

  0
INSERT
  5
2B89A
  8
0
  2
*U87
 10
0.0
 20
0.0
 30
0.0
  0
LINE
  5
2B89B
  8
0
 10
0.0000014767382481
 20
7.878552666495465
 30
0.0
 11
1.5240062297528421
 21
7.8785526664953522
 31
0.0
  0
LINE
  5
2B89C
  8
0
 10
1.5240062297528421
 20
8.3261365866769665
 30
0.0
 11
1.5240062297528421
 21
7.8785526664953522
 31
0.0
  0
LINE
  5
2B89D
  8
0
 10
1.394539806559862
 20
8.3261365866769665
 30
0.0
 11
1.5240062297528421
 21
8.3261365866769665
 31
0.0
  0
LINE
  5
2B89E
  8
0
 10
0.7472076905950758
 20
9.2582948336663549
 30
0.0
 11
0.8951693171012493
 21
9.2582948336665822
 31
0.0
  0
POLYLINE
  8
0
  5
399BC
  62
7
  66
     1
 10
0.000000
 20
0.000000
 30
0.000000
  70
     8
  0
VERTEX
  8
0
  5
399BD
 10
1.39454
 20
8.32614
 30
0.000000
  70
    32
  0
VERTEX
  8
0
  5
399BE
 10
1.39468
 20
8.33131
 30
0.000000
  70
    32
  0
VERTEX
  8
0
  5
399BF
 10
1.39482
 20
8.33649
 30
0.000000
  70
    32
  0
VERTEX
  8
0
  5
399C0
 10
1.39495
 20
8.34167
 30
0.000000
  70
    32
  0
VERTEX
  8
0
  5
399C1
 10
1.39508
 20
8.34684
 30
0.000000
  70
    32
  0
VERTEX
  8
0
  5
399C2
 10
1.39521
 20
8.35201
 30
0.000000
  70
    32
  0
VERTEX
  8
0
  5
399C3
 10
1.39532
 20
8.35718
 30
0.000000
  70
    32
  0
VERTEX
  8
0
  5
399C4
 10
1.39542
 20
8.36234
 30
0.000000
  70
    32
  0
VERTEX
  8
0
  5
399C5
 10
1.39552
 20
8.36749
 30
0.000000
  70
    32
  0
VERTEX
  8
0
  5
399C6
 10
1.39559
 20
8.37264
 30
0.000000
  70
    32
  0
VERTEX
  8
0
  5
399C7
 10
1.39566
 20
8.37779
 30
0.000000
  70
    32
  0
VERTEX
  8
0
  5
399C8
 10
1.39570
 20
8.38292
 30
0.000000
  70
    32
  0
VERTEX
  8
0
  5
399C9
 10
1.39573
 20
8.38805
 30
0.000000
  70
    32
  0
VERTEX
  8
0
  5
399CA
 10
1.39574
 20
8.39316
 30
0.000000
  70
    32
  0
VERTEX
  8
0
  5
399CB
 10
1.39572
 20
8.39827
 30
0.000000
  70
    32
  0
VERTEX
  8
0
  5
399CC
 10
1.39569
 20
8.40337
 30
0.000000
  70
    32
  0
VERTEX
  8
0
  5
399CD
 10
1.39562
 20
8.40845
 30
0.000000
  70
    32
  0
VERTEX
  8
0
  5
399CE
 10
1.39553
 20
8.41352
 30
0.000000
  70
    32
  0
VERTEX
  8
0
  5
399CF
 10
1.39541
 20
8.41858
 30
0.000000
  70
    32
  0
VERTEX
  8
0
  5
399D0
 10
1.39526
 20
8.42363
 30
0.000000
  70
    32
  0
VERTEX
  8
0
  5
399D1
 10
1.39507
 20
8.42866
 30
0.000000
  70
    32
  0
VERTEX
  8
0
  5
399D2
 10
1.39486
 20
8.43367
 30
0.000000
  70
    32
  0
VERTEX
  8
0
  5
399D3
 10
1.39460
 20
8.43867
 30
0.000000
  70
    32
  0
VERTEX
  8
0
  5
399D4
 10
1.39431
 20
8.44365
 30
0.000000
  70
    32
  0
VERTEX
  8
0
  5
399D5
 10
1.39398
 20
8.44862
 30
0.000000
  70
    32
  0
VERTEX
  8
0
  5
399D6
 10
1.39361
 20
8.45356
 30
0.000000
  70
    32
  0
VERTEX
  8
0
  5
399D7
 10
1.39320
 20
8.45849
 30
0.000000
  70
    32
  0
VERTEX
  8
0
  5
399D8
 10
1.39274
 20
8.46339
 30
0.000000
  70
    32
  0
VERTEX
  8
0
  5
399D9
 10
1.39224
 20
8.46828
 30
0.000000
  70
    32
  0
VERTEX
  8
0
  5
399DA
 10
1.39168
 20
8.47314
 30
0.000000
  70
    32
  0
VERTEX
  8
0
  5
399DB
 10
1.39108
 20
8.47798
 30
0.000000
  70
    32
  0
VERTEX
  8
0
  5
399DC
 10
1.39043
 20
8.48280
 30
0.000000
  70
    32
  0
VERTEX
  8
0
  5
399DD
 10
1.38973
 20
8.48759
 30
0.000000
  70
    32
  0
VERTEX
  8
0
  5
399DE
 10
1.38897
 20
8.49236
 30
0.000000
  70
    32
  0
VERTEX
  8
0
  5
399DF
 10
1.38815
 20
8.49711
 30
0.000000
  70
    32
  0
VERTEX
  8
0
  5
399E0
 10
1.38728
 20
8.50182
 30
0.000000
  70
    32
  0
VERTEX
  8
0
  5
399E1
 10
1.38635
 20
8.50651
 30
0.000000
  70
    32
  0
VERTEX
  8
0
  5
399E2
 10
1.38535
 20
8.51117
 30
0.000000
  70
    32
  0
VERTEX
  8
0
  5
399E3
 10
1.38429
 20
8.51581
 30
0.000000
  70
    32
  0
VERTEX
  8
0
  5
399E4
 10
1.38317
 20
8.52041
 30
0.000000
  70
    32
  0
VERTEX
  8
0
  5
399E5
 10
1.38198
 20
8.52498
 30
0.000000
  70
    32
  0
VERTEX
  8
0
  5
399E6
 10
1.38073
 20
8.52953
 30
0.000000
  70
    32
  0
VERTEX
  8
0
  5
399E7
 10
1.37940
 20
8.53404
 30
0.000000
  70
    32
  0
VERTEX
  8
0
  5
399E8
 10
1.37800
 20
8.53851
 30
0.000000
  70
    32
  0
VERTEX
  8
0
  5
399E9
 10
1.37653
 20
8.54296
 30
0.000000
  70
    32
  0
VERTEX
  8
0
  5
399EA
 10
1.37499
 20
8.54737
 30
0.000000
  70
    32
  0
VERTEX
  8
0
  5
399EB
 10
1.37337
 20
8.55175
 30
0.000000
  70
    32
  0
VERTEX
  8
0
  5
399EC
 10
1.37167
 20
8.55609
 30
0.000000
  70
    32
  0
VERTEX
  8
0
  5
399ED
 10
1.36991
 20
8.56040
 30
0.000000
  70
    32
  0
VERTEX
  8
0
  5
399EE
 10
1.36807
 20
8.56468
 30
0.000000
  70
    32
  0
VERTEX
  8
0
  5
399EF
 10
1.36616
 20
8.56893
 30
0.000000
  70
    32
  0
VERTEX
  8
0
  5
399F0
 10
1.36418
 20
8.57314
 30
0.000000
  70
    32
  0
VERTEX
  8
0
  5
399F1
 10
1.36214
 20
8.57733
 30
0.000000
  70
    32
  0
VERTEX
  8
0
  5
399F2
 10
1.36003
 20
8.58148
 30
0.000000
  70
    32
  0
VERTEX
  8
0
  5
399F3
 10
1.35785
 20
8.58560
 30
0.000000
  70
    32
  0
VERTEX
  8
0
  5
399F4
 10
1.35561
 20
8.58970
 30
0.000000
  70
    32
  0
VERTEX
  8
0
  5
399F5
 10
1.35330
 20
8.59377
 30
0.000000
  70
    32
  0
VERTEX
  8
0
  5
399F6
 10
1.35093
 20
8.59781
 30
0.000000
  70
    32
  0
VERTEX
  8
0
  5
399F7
 10
1.34851
 20
8.60182
 30
0.000000
  70
    32
  0
VERTEX
  8
0
  5
399F8
 10
1.34602
 20
8.60581
 30
0.000000
  70
    32
  0
VERTEX
  8
0
  5
399F9
 10
1.34347
 20
8.60976
 30
0.000000
  70
    32
  0
VERTEX
  8
0
  5
399FA
 10
1.34086
 20
8.61370
 30
0.000000
  70
    32
  0
VERTEX
  8
0
  5
399FB
 10
1.33820
 20
8.61761
 30
0.000000
  70
    32
  0
VERTEX
  8
0
  5
399FC
 10
1.33549
 20
8.62149
 30
0.000000
  70
    32
  0
VERTEX
  8
0
  5
399FD
 10
1.33271
 20
8.62535
 30
0.000000
  70
    32
  0
VERTEX
  8
0
  5
399FE
 10
1.32989
 20
8.62919
 30
0.000000
  70
    32
  0
VERTEX
  8
0
  5
399FF
 10
1.32701
 20
8.63300
 30
0.000000
  70
    32
  0
VERTEX
  8
0
  5
39A00
 10
1.32408
 20
8.63679
 30
0.000000
  70
    32
  0
VERTEX
  8
0
  5
39A01
 10
1.32111
 20
8.64056
 30
0.000000
  70
    32
  0
VERTEX
  8
0
  5
39A02
 10
1.31808
 20
8.64431
 30
0.000000
  70
    32
  0
VERTEX
  8
0
  5
39A03
 10
1.31501
 20
8.64803
 30
0.000000
  70
    32
  0
VERTEX
  8
0
  5
39A04
 10
1.31189
 20
8.65174
 30
0.000000
  70
    32
  0
VERTEX
  8
0
  5
39A05
 10
1.30872
 20
8.65543
 30
0.000000
  70
    32
  0
VERTEX
  8
0
  5
39A06
 10
1.30551
 20
8.65910
 30
0.000000
  70
    32
  0
VERTEX
  8
0
  5
39A07
 10
1.30226
 20
8.66275
 30
0.000000
  70
    32
  0
VERTEX
  8
0
  5
39A08
 10
1.29896
 20
8.66638
 30
0.000000
  70
    32
  0
VERTEX
  8
0
  5
39A09
 10
1.29563
 20
8.66999
 30
0.000000
  70
    32
  0
VERTEX
  8
0
  5
39A0A
 10
1.29225
 20
8.67359
 30
0.000000
  70
    32
  0
VERTEX
  8
0
  5
39A0B
 10
1.28884
 20
8.67717
 30
0.000000
  70
    32
  0
VERTEX
  8
0
  5
39A0C
 10
1.28539
 20
8.68074
 30
0.000000
  70
    32
  0
VERTEX
  8
0
  5
39A0D
 10
1.28190
 20
8.68429
 30
0.000000
  70
    32
  0
VERTEX
  8
0
  5
39A0E
 10
1.27838
 20
8.68782
 30
0.000000
  70
    32
  0
VERTEX
  8
0
  5
39A0F
 10
1.27482
 20
8.69134
 30
0.000000
  70
    32
  0
VERTEX
  8
0
  5
39A10
 10
1.27123
 20
8.69485
 30
0.000000
  70
    32
  0
VERTEX
  8
0
  5
39A11
 10
1.26761
 20
8.69835
 30
0.000000
  70
    32
  0
VERTEX
  8
0
  5
39A12
 10
1.26396
 20
8.70183
 30
0.000000
  70
    32
  0
VERTEX
  8
0
  5
39A13
 10
1.26028
 20
8.70530
 30
0.000000
  70
    32
  0
VERTEX
  8
0
  5
39A14
 10
1.25657
 20
8.70876
 30
0.000000
  70
    32
  0
VERTEX
  8
0
  5
39A15
 10
1.25283
 20
8.71220
 30
0.000000
  70
    32
  0
VERTEX
  8
0
  5
39A16
 10
1.24907
 20
8.71564
 30
0.000000
  70
    32
  0
VERTEX
  8
0
  5
39A17
 10
1.24528
 20
8.71907
 30
0.000000
  70
    32
  0
VERTEX
  8
0
  5
39A18
 10
1.24147
 20
8.72249
 30
0.000000
  70
    32
  0
VERTEX
  8
0
  5
39A19
 10
1.23764
 20
8.72590
 30
0.000000
  70
    32
  0
VERTEX
  8
0
  5
39A1A
 10
1.23379
 20
8.72930
 30
0.000000
  70
    32
  0
VERTEX
  8
0
  5
39A1B
 10
1.22991
 20
8.73270
 30
0.000000
  70
    32
  0
VERTEX
  8
0
  5
39A1C
 10
1.22601
 20
8.73609
 30
0.000000
  70
    32
  0
VERTEX
  8
0
  5
39A1D
 10
1.22210
 20
8.73947
 30
0.000000
  70
    32
  0
VERTEX
  8
0
  5
39A1E
 10
1.21817
 20
8.74284
 30
0.000000
  70
    32
  0
VERTEX
  8
0
  5
39A1F
 10
1.21423
 20
8.74621
 30
0.000000
  70
    32
  0
VERTEX
  8
0
  5
39A20
 10
1.21027
 20
8.74958
 30
0.000000
  70
    32
  0
VERTEX
  8
0
  5
39A21
 10
1.20629
 20
8.75294
 30
0.000000
  70
    32
  0
VERTEX
  8
0
  5
39A22
 10
1.20230
 20
8.75630
 30
0.000000
  70
    32
  0
VERTEX
  8
0
  5
39A23
 10
1.19831
 20
8.75965
 30
0.000000
  70
    32
  0
VERTEX
  8
0
  5
39A24
 10
1.19430
 20
8.76300
 30
0.000000
  70
    32
  0
VERTEX
  8
0
  5
39A25
 10
1.19028
 20
8.76636
 30
0.000000
  70
    32
  0
VERTEX
  8
0
  5
39A26
 10
1.18626
 20
8.76970
 30
0.000000
  70
    32
  0
VERTEX
  8
0
  5
39A27
 10
1.18222
 20
8.77305
 30
0.000000
  70
    32
  0
VERTEX
  8
0
  5
39A28
 10
1.17819
 20
8.77640
 30
0.000000
  70
    32
  0
VERTEX
  8
0
  5
39A29
 10
1.17414
 20
8.77975
 30
0.000000
  70
    32
  0
VERTEX
  8
0
  5
39A2A
 10
1.17010
 20
8.78310
 30
0.000000
  70
    32
  0
VERTEX
  8
0
  5
39A2B
 10
1.16605
 20
8.78645
 30
0.000000
  70
    32
  0
VERTEX
  8
0
  5
39A2C
 10
1.16200
 20
8.78980
 30
0.000000
  70
    32
  0
VERTEX
  8
0
  5
39A2D
 10
1.15795
 20
8.79315
 30
0.000000
  70
    32
  0
VERTEX
  8
0
  5
39A2E
 10
1.15390
 20
8.79651
 30
0.000000
  70
    32
  0
VERTEX
  8
0
  5
39A2F
 10
1.14986
 20
8.79987
 30
0.000000
  70
    32
  0
VERTEX
  8
0
  5
39A30
 10
1.14582
 20
8.80323
 30
0.000000
  70
    32
  0
VERTEX
  8
0
  5
39A31
 10
1.14178
 20
8.80660
 30
0.000000
  70
    32
  0
VERTEX
  8
0
  5
39A32
 10
1.13775
 20
8.80998
 30
0.000000
  70
    32
  0
VERTEX
  8
0
  5
39A33
 10
1.13372
 20
8.81336
 30
0.000000
  70
    32
  0
VERTEX
  8
0
  5
39A34
 10
1.12970
 20
8.81674
 30
0.000000
  70
    32
  0
VERTEX
  8
0
  5
39A35
 10
1.12569
 20
8.82014
 30
0.000000
  70
    32
  0
VERTEX
  8
0
  5
39A36
 10
1.12170
 20
8.82354
 30
0.000000
  70
    32
  0
VERTEX
  8
0
  5
39A37
 10
1.11771
 20
8.82695
 30
0.000000
  70
    32
  0
VERTEX
  8
0
  5
39A38
 10
1.11373
 20
8.83036
 30
0.000000
  70
    32
  0
VERTEX
  8
0
  5
39A39
 10
1.10977
 20
8.83379
 30
0.000000
  70
    32
  0
VERTEX
  8
0
  5
39A3A
 10
1.10583
 20
8.83723
 30
0.000000
  70
    32
  0
VERTEX
  8
0
  5
39A3B
 10
1.10190
 20
8.84067
 30
0.000000
  70
    32
  0
VERTEX
  8
0
  5
39A3C
 10
1.09798
 20
8.84413
 30
0.000000
  70
    32
  0
VERTEX
  8
0
  5
39A3D
 10
1.09409
 20
8.84760
 30
0.000000
  70
    32
  0
VERTEX
  8
0
  5
39A3E
 10
1.09021
 20
8.85107
 30
0.000000
  70
    32
  0
VERTEX
  8
0
  5
39A3F
 10
1.08635
 20
8.85457
 30
0.000000
  70
    32
  0
VERTEX
  8
0
  5
39A40
 10
1.08251
 20
8.85807
 30
0.000000
  70
    32
  0
VERTEX
  8
0
  5
39A41
 10
1.07870
 20
8.86158
 30
0.000000
  70
    32
  0
VERTEX
  8
0
  5
39A42
 10
1.07490
 20
8.86511
 30
0.000000
  70
    32
  0
VERTEX
  8
0
  5
39A43
 10
1.07113
 20
8.86865
 30
0.000000
  70
    32
  0
VERTEX
  8
0
  5
39A44
 10
1.06738
 20
8.87220
 30
0.000000
  70
    32
  0
VERTEX
  8
0
  5
39A45
 10
1.06365
 20
8.87576
 30
0.000000
  70
    32
  0
VERTEX
  8
0
  5
39A46
 10
1.05995
 20
8.87934
 30
0.000000
  70
    32
  0
VERTEX
  8
0
  5
39A47
 10
1.05628
 20
8.88294
 30
0.000000
  70
    32
  0
VERTEX
  8
0
  5
39A48
 10
1.05263
 20
8.88654
 30
0.000000
  70
    32
  0
VERTEX
  8
0
  5
39A49
 10
1.04900
 20
8.89016
 30
0.000000
  70
    32
  0
VERTEX
  8
0
  5
39A4A
 10
1.04541
 20
8.89380
 30
0.000000
  70
    32
  0
VERTEX
  8
0
  5
39A4B
 10
1.04185
 20
8.89745
 30
0.000000
  70
    32
  0
VERTEX
  8
0
  5
39A4C
 10
1.03831
 20
8.90112
 30
0.000000
  70
    32
  0
VERTEX
  8
0
  5
39A4D
 10
1.03481
 20
8.90480
 30
0.000000
  70
    32
  0
VERTEX
  8
0
  5
39A4E
 10
1.03133
 20
8.90850
 30
0.000000
  70
    32
  0
VERTEX
  8
0
  5
39A4F
 10
1.02789
 20
8.91221
 30
0.000000
  70
    32
  0
VERTEX
  8
0
  5
39A50
 10
1.02448
 20
8.91594
 30
0.000000
  70
    32
  0
VERTEX
  8
0
  5
39A51
 10
1.02111
 20
8.91969
 30
0.000000
  70
    32
  0
VERTEX
  8
0
  5
39A52
 10
1.01777
 20
8.92345
 30
0.000000
  70
    32
  0
VERTEX
  8
0
  5
39A53
 10
1.01446
 20
8.92723
 30
0.000000
  70
    32
  0
VERTEX
  8
0
  5
39A54
 10
1.01119
 20
8.93103
 30
0.000000
  70
    32
  0
VERTEX
  8
0
  5
39A55
 10
1.00796
 20
8.93484
 30
0.000000
  70
    32
  0
VERTEX
  8
0
  5
39A56
 10
1.00476
 20
8.93868
 30
0.000000
  70
    32
  0
VERTEX
  8
0
  5
39A57
 10
1.00160
 20
8.94253
 30
0.000000
  70
    32
  0
VERTEX
  8
0
  5
39A58
 10
0.998485
 20
8.94640
 30
0.000000
  70
    32
  0
VERTEX
  8
0
  5
39A59
 10
0.995407
 20
8.95029
 30
0.000000
  70
    32
  0
VERTEX
  8
0
  5
39A5A
 10
0.992369
 20
8.95420
 30
0.000000
  70
    32
  0
VERTEX
  8
0
  5
39A5B
 10
0.989373
 20
8.95813
 30
0.000000
  70
    32
  0
VERTEX
  8
0
  5
39A5C
 10
0.986419
 20
8.96208
 30
0.000000
  70
    32
  0
VERTEX
  8
0
  5
39A5D
 10
0.983508
 20
8.96605
 30
0.000000
  70
    32
  0
VERTEX
  8
0
  5
39A5E
 10
0.980642
 20
8.97004
 30
0.000000
  70
    32
  0
VERTEX
  8
0
  5
39A5F
 10
0.977819
 20
8.97405
 30
0.000000
  70
    32
  0
VERTEX
  8
0
  5
39A60
 10
0.975042
 20
8.97808
 30
0.000000
  70
    32
  0
VERTEX
  8
0
  5
39A61
 10
0.972312
 20
8.98213
 30
0.000000
  70
    32
  0
VERTEX
  8
0
  5
39A62
 10
0.969628
 20
8.98621
 30
0.000000
  70
    32
  0
VERTEX
  8
0
  5
39A63
 10
0.966993
 20
8.99030
 30
0.000000
  70
    32
  0
VERTEX
  8
0
  5
39A64
 10
0.964406
 20
8.99442
 30
0.000000
  70
    32
  0
VERTEX
  8
0
  5
39A65
 10
0.961868
 20
8.99856
 30
0.000000
  70
    32
  0
VERTEX
  8
0
  5
39A66
 10
0.959381
 20
9.00272
 30
0.000000
  70
    32
  0
VERTEX
  8
0
  5
39A67
 10
0.956944
 20
9.00691
 30
0.000000
  70
    32
  0
VERTEX
  8
0
  5
39A68
 10
0.954559
 20
9.01112
 30
0.000000
  70
    32
  0
VERTEX
  8
0
  5
39A69
 10
0.952227
 20
9.01535
 30
0.000000
  70
    32
  0
VERTEX
  8
0
  5
39A6A
 10
0.949949
 20
9.01960
 30
0.000000
  70
    32
  0
VERTEX
  8
0
  5
39A6B
 10
0.947724
 20
9.02388
 30
0.000000
  70
    32
  0
VERTEX
  8
0
  5
39A6C
 10
0.945555
 20
9.02819
 30
0.000000
  70
    32
  0
VERTEX
  8
0
  5
39A6D
 10
0.943441
 20
9.03252
 30
0.000000
  70
    32
  0
VERTEX
  8
0
  5
39A6E
 10
0.941383
 20
9.03687
 30
0.000000
  70
    32
  0
VERTEX
  8
0
  5
39A6F
 10
0.939384
 20
9.04125
 30
0.000000
  70
    32
  0
VERTEX
  8
0
  5
39A70
 10
0.937442
 20
9.04566
 30
0.000000
  70
    32
  0
VERTEX
  8
0
  5
39A71
 10
0.935559
 20
9.05009
 30
0.000000
  70
    32
  0
VERTEX
  8
0
  5
39A72
 10
0.933736
 20
9.05455
 30
0.000000
  70
    32
  0
VERTEX
  8
0
  5
39A73
 10
0.931973
 20
9.05903
 30
0.000000
  70
    32
  0
VERTEX
  8
0
  5
39A74
 10
0.930271
 20
9.06354
 30
0.000000
  70
    32
  0
VERTEX
  8
0
  5
39A75
 10
0.928629
 20
9.06808
 30
0.000000
  70
    32
  0
VERTEX
  8
0
  5
39A76
 10
0.927045
 20
9.07264
 30
0.000000
  70
    32
  0
VERTEX
  8
0
  5
39A77
 10
0.925517
 20
9.07722
 30
0.000000
  70
    32
  0
VERTEX
  8
0
  5
39A78
 10
0.924045
 20
9.08183
 30
0.000000
  70
    32
  0
VERTEX
  8
0
  5
39A79
 10
0.922626
 20
9.08647
 30
0.000000
  70
    32
  0
VERTEX
  8
0
  5
39A7A
 10
0.921259
 20
9.09112
 30
0.000000
  70
    32
  0
VERTEX
  8
0
  5
39A7B
 10
0.919943
 20
9.09580
 30
0.000000
  70
    32
  0
VERTEX
  8
0
  5
39A7C
 10
0.918676
 20
9.10050
 30
0.000000
  70
    32
  0
VERTEX
  8
0
  5
39A7D
 10
0.917457
 20
9.10522
 30
0.000000
  70
    32
  0
VERTEX
  8
0
  5
39A7E
 10
0.916283
 20
9.10996
 30
0.000000
  70
    32
  0
VERTEX
  8
0
  5
39A7F
 10
0.915155
 20
9.11472
 30
0.000000
  70
    32
  0
VERTEX
  8
0
  5
39A80
 10
0.914070
 20
9.11950
 30
0.000000
  70
    32
  0
VERTEX
  8
0
  5
39A81
 10
0.913026
 20
9.12429
 30
0.000000
  70
    32
  0
VERTEX
  8
0
  5
39A82
 10
0.912023
 20
9.12911
 30
0.000000
  70
    32
  0
VERTEX
  8
0
  5
39A83
 10
0.911058
 20
9.13394
 30
0.000000
  70
    32
  0
VERTEX
  8
0
  5
39A84
 10
0.910131
 20
9.13879
 30
0.000000
  70
    32
  0
VERTEX
  8
0
  5
39A85
 10
0.909239
 20
9.14365
 30
0.000000
  70
    32
  0
VERTEX
  8
0
  5
39A86
 10
0.908381
 20
9.14853
 30
0.000000
  70
    32
  0
VERTEX
  8
0
  5
39A87
 10
0.907557
 20
9.15342
 30
0.000000
  70
    32
  0
VERTEX
  8
0
  5
39A88
 10
0.906763
 20
9.15832
 30
0.000000
  70
    32
  0
VERTEX
  8
0
  5
39A89
 10
0.906000
 20
9.16324
 30
0.000000
  70
    32
  0
VERTEX
  8
0
  5
39A8A
 10
0.905264
 20
9.16817
 30
0.000000
  70
    32
  0
VERTEX
  8
0
  5
39A8B
 10
0.904556
 20
9.17312
 30
0.000000
  70
    32
  0
VERTEX
  8
0
  5
39A8C
 10
0.903873
 20
9.17807
 30
0.000000
  70
    32
  0
VERTEX
  8
0
  5
39A8D
 10
0.903213
 20
9.18303
 30
0.000000
  70
    32
  0
VERTEX
  8
0
  5
39A8E
 10
0.902576
 20
9.18801
 30
0.000000
  70
    32
  0
VERTEX
  8
0
  5
39A8F
 10
0.901960
 20
9.19299
 30
0.000000
  70
    32
  0
VERTEX
  8
0
  5
39A90
 10
0.901363
 20
9.19798
 30
0.000000
  70
    32
  0
VERTEX
  8
0
  5
39A91
 10
0.900784
 20
9.20298
 30
0.000000
  70
    32
  0
VERTEX
  8
0
  5
39A92
 10
0.900222
 20
9.20799
 30
0.000000
  70
    32
  0
VERTEX
  8
0
  5
39A93
 10
0.899674
 20
9.21300
 30
0.000000
  70
    32
  0
VERTEX
  8
0
  5
39A94
 10
0.899140
 20
9.21802
 30
0.000000
  70
    32
  0
VERTEX
  8
0
  5
39A95
 10
0.898617
 20
9.22304
 30
0.000000
  70
    32
  0
VERTEX
  8
0
  5
39A96
 10
0.898105
 20
9.22807
 30
0.000000
  70
    32
  0
VERTEX
  8
0
  5
39A97
 10
0.897602
 20
9.23310
 30
0.000000
  70
    32
  0
VERTEX
  8
0
  5
39A98
 10
0.897107
 20
9.23813
 30
0.000000
  70
    32
  0
VERTEX
  8
0
  5
39A99
 10
0.896617
 20
9.24317
 30
0.000000
  70
    32
  0
VERTEX
  8
0
  5
39A9A
 10
0.896132
 20
9.24821
 30
0.000000
  70
    32
  0
VERTEX
  8
0
  5
39A9B
 10
0.895650
 20
9.25325
 30
0.000000
  70
    32
  0
VERTEX
  8
0
  5
39A9C
 10
0.895169
 20
9.25829
 30
0.000000
  70
    32
  0
SEQEND
  8
0
  5
39A9D
  0
LINE
  5
2B8A0
  8
0
  6
CONTINUOUS
 62
     7
 10
0.7472076905950758
 20
9.2582948336663549
 30
0.0
 11
0.7472076905949621
 21
11.826520277942111
 31
0.0
  0
LINE
  5
2B8A1
  8
0
  6
CONTINUOUS
 62
     7
 10
0.4997076905949598
 20
12.389020277942111
 30
0.0
 11
0.000001476738305
 21
12.389020277942111
 31
0.0
  0
ARC
  5
2B8A2
  8
0
 10
0.4997076905949598
 20
12.139020277942111
 30
0.0
 40
0.2500000000000009
 50
269.42703265506509
 51
90.0
  0
LINE
  5
2B8A3
  8
0
  6
CONTINUOUS
 62
     7
 10
0.7472076905949621
 20
11.826520277942111
 30
0.0
 11
0.5597076905949621
 21
11.826520277942111
 31
0.0
  0
LINE
  5
2B8A4
  8
0
  6
CONTINUOUS
 62
     7
 10
0.4972076905949621
 20
11.826520277942111
 30
0.0
 11
0.4972076905949621
 21
11.88903277828603
 31
0.0
  0
LINE
  5
2B8A5
  8
0
 10
0.0000014767382481
 20
7.878552666495465
 30
0.0
 11
0.000001476738305
 21
12.389020277942111
 31
0.0
  0
LINE
  5
2B8A6
  8
0
 10
0.7472076905949621
 20
11.826520277942111
 30
0.0
 11
0.4972076905949621
 21
11.826520277942111
 31
0.0
  0
LINE
  5
2B8A7
  8
FRAME_050
 10
6.5744546621590407
 20
17.993710579095019
 30
0.0
 11
6.5744546621590407
 21
0.0000000294007805
 31
0.0
  0
ENDBLK
  5
2B8A9
  8
0
  0
BLOCK
  8
0
  2
A$C06786640
 70
     0
 10
0.0
 20
0.0
 30
0.0
  3
A$C06786640
  1

  0
LINE
  5
30DBD
  8
0
  6
CONTINUOUS
 10
6.9421460747584538
 20
5.3373952998996401
 30
0.0
 11
7.6921460747585684
 21
5.3373952998996401
 31
0.0
  0
INSERT
  5
30DBE
  8
0
  2
*U116
 10
0.0
 20
0.0
 30
0.0
  0
ARC
  5
30DBF
  8
0
 10
7.6921460747584538
 20
1.3373952998996399
 30
0.0
 40
0.4375
 50
90.0
 51
180.0
  0
LINE
  5
30DC0
  8
0
  6
CONTINUOUS
 10
6.9421460747584538
 20
1.3373952998996399
 30
0.0
 11
7.2546460747584538
 21
1.3373952998996399
 31
0.0
  0
LINE
  5
30DC1
  8
0
  6
CONTINUOUS
 10
6.9421460747584538
 20
5.3373952998996401
 30
0.0
 11
6.9421460747584538
 21
1.3373952998996399
 31
0.0
  0
LINE
  5
30DC2
  8
0
  6
CONTINUOUS
 10
7.6921460747585684
 20
5.3373952998996401
 30
0.0
 11
7.6921460747584538
 21
1.7748952998996399
 31
0.0
  0
LINE
  5
30DC3
  8
FRAME_050
 10
13.38021391661823
 20
10.43596704186257
 30
0.0
 11
13.38021391661823
 21
-7.557743507831673
 31
0.0
  0
ENDBLK
  5
30DC5
  8
0
  0
BLOCK
  8
0
  2
A$C006841A6
 70
     0
 10
0.0
 20
0.0
 30
0.0
  3
A$C006841A6
  1

  0
INSERT
  5
34022
  8
0
  2
*U177
 10
0.0
 20
0.0
 30
0.0
  0
LINE
  5
34023
  8
0
 10
-0.0000012266760336
 20
0.7057871426268321
 30
0.0
 11
2.5393763673180838
 21
3.3106501187010049
 31
0.0
  0
LINE
  5
34024
  8
0
 10
3.4634478700036189
 20
3.012327822558404
 30
0.0
 11
3.478000177132571
 21
3.3106501187010049
 31
0.0
  0
LINE
  5
34025
  8
0
 10
1.701702382336975
 20
1.129493727227213
 30
0.0
 11
1.7292664227074961
 21
1.297540905015353
 31
0.0
  0
LINE
  5
34026
  8
0
 10
0.6694049012536425
 20
0.3638079250974897
 30
0.0
 11
0.6894674062073705
 21
0.4758716487958737
 31
0.0
  0
LINE
  5
34027
  8
0
 10
-0.0000012266760336
 20
0.7057871426268321
 30
0.0
 11
-0.0000012266760336
 21
0.0000002468748335
 31
0.0
  0
LINE
  5
34028
  8
0
 10
3.478000177132571
 20
3.3106501187010049
 30
0.0
 11
2.5393763673180838
 21
3.3106501187010049
 31
0.0
  0
LINE
  5
34029
  8
0
 10
3.354305566536822
 20
3.0123278225585182
 30
0.0
 11
3.4634478700036189
 21
3.012327822558404
 31
0.0
  0
LINE
  5
3402A
  8
0
 10
2.7940417420739432
 20
2.5321016873045892
 30
0.0
 11
2.859527124153999
 21
2.6121393765134822
 31
0.0
  0
LINE
  5
3402B
  8
0
 10
1.7292664227074961
 20
1.297540905015353
 30
0.0
 11
1.7845876698514751
 21
1.297540905015353
 31
0.0
  0
LINE
  5
3402C
  8
0
 10
1.5789240968102829
 20
1.1496325100583811
 30
0.0
 11
1.701702382336975
 21
1.129493727227213
 31
0.0
  0
LINE
  5
3402D
  8
0
 10
-0.0000012266760336
 20
0.0000002468748335
 30
0.0
 11
0.2910449159020913
 21
0.0000002468748335
 31
0.0
  0
POLYLINE
  8
0
  5
39A9E
  66
     1
 10
0.000000
 20
0.000000
 30
0.000000
  70
     8
  0
VERTEX
  8
0
  5
39A9F
 10
1.78459
 20
1.29754
 30
0.000000
  70
    32
  0
VERTEX
  8
0
  5
39AA0
 10
1.78417
 20
1.30428
 30
0.000000
  70
    32
  0
VERTEX
  8
0
  5
39AA1
 10
1.78375
 20
1.31103
 30
0.000000
  70
    32
  0
VERTEX
  8
0
  5
39AA2
 10
1.78333
 20
1.31777
 30
0.000000
  70
    32
  0
VERTEX
  8
0
  5
39AA3
 10
1.78291
 20
1.32451
 30
0.000000
  70
    32
  0
VERTEX
  8
0
  5
39AA4
 10
1.78250
 20
1.33126
 30
0.000000
  70
    32
  0
VERTEX
  8
0
  5
39AA5
 10
1.78209
 20
1.33800
 30
0.000000
  70
    32
  0
VERTEX
  8
0
  5
39AA6
 10
1.78168
 20
1.34474
 30
0.000000
  70
    32
  0
VERTEX
  8
0
  5
39AA7
 10
1.78128
 20
1.35149
 30
0.000000
  70
    32
  0
VERTEX
  8
0
  5
39AA8
 10
1.78088
 20
1.35823
 30
0.000000
  70
    32
  0
VERTEX
  8
0
  5
39AA9
 10
1.78049
 20
1.36497
 30
0.000000
  70
    32
  0
VERTEX
  8
0
  5
39AAA
 10
1.78011
 20
1.37171
 30
0.000000
  70
    32
  0
VERTEX
  8
0
  5
39AAB
 10
1.77973
 20
1.37846
 30
0.000000
  70
    32
  0
VERTEX
  8
0
  5
39AAC
 10
1.77936
 20
1.38520
 30
0.000000
  70
    32
  0
VERTEX
  8
0
  5
39AAD
 10
1.77900
 20
1.39194
 30
0.000000
  70
    32
  0
VERTEX
  8
0
  5
39AAE
 10
1.77865
 20
1.39868
 30
0.000000
  70
    32
  0
VERTEX
  8
0
  5
39AAF
 10
1.77831
 20
1.40542
 30
0.000000
  70
    32
  0
VERTEX
  8
0
  5
39AB0
 10
1.77798
 20
1.41217
 30
0.000000
  70
    32
  0
VERTEX
  8
0
  5
39AB1
 10
1.77766
 20
1.41891
 30
0.000000
  70
    32
  0
VERTEX
  8
0
  5
39AB2
 10
1.77736
 20
1.42565
 30
0.000000
  70
    32
  0
VERTEX
  8
0
  5
39AB3
 10
1.77706
 20
1.43239
 30
0.000000
  70
    32
  0
VERTEX
  8
0
  5
39AB4
 10
1.77679
 20
1.43913
 30
0.000000
  70
    32
  0
VERTEX
  8
0
  5
39AB5
 10
1.77652
 20
1.44587
 30
0.000000
  70
    32
  0
VERTEX
  8
0
  5
39AB6
 10
1.77627
 20
1.45261
 30
0.000000
  70
    32
  0
VERTEX
  8
0
  5
39AB7
 10
1.77603
 20
1.45935
 30
0.000000
  70
    32
  0
VERTEX
  8
0
  5
39AB8
 10
1.77582
 20
1.46609
 30
0.000000
  70
    32
  0
VERTEX
  8
0
  5
39AB9
 10
1.77561
 20
1.47282
 30
0.000000
  70
    32
  0
VERTEX
  8
0
  5
39ABA
 10
1.77543
 20
1.47956
 30
0.000000
  70
    32
  0
VERTEX
  8
0
  5
39ABB
 10
1.77526
 20
1.48630
 30
0.000000
  70
    32
  0
VERTEX
  8
0
  5
39ABC
 10
1.77512
 20
1.49304
 30
0.000000
  70
    32
  0
VERTEX
  8
0
  5
39ABD
 10
1.77499
 20
1.49977
 30
0.000000
  70
    32
  0
VERTEX
  8
0
  5
39ABE
 10
1.77488
 20
1.50651
 30
0.000000
  70
    32
  0
VERTEX
  8
0
  5
39ABF
 10
1.77479
 20
1.51325
 30
0.000000
  70
    32
  0
VERTEX
  8
0
  5
39AC0
 10
1.77473
 20
1.51998
 30
0.000000
  70
    32
  0
VERTEX
  8
0
  5
39AC1
 10
1.77469
 20
1.52672
 30
0.000000
  70
    32
  0
VERTEX
  8
0
  5
39AC2
 10
1.77467
 20
1.53345
 30
0.000000
  70
    32
  0
VERTEX
  8
0
  5
39AC3
 10
1.77467
 20
1.54019
 30
0.000000
  70
    32
  0
VERTEX
  8
0
  5
39AC4
 10
1.77470
 20
1.54692
 30
0.000000
  70
    32
  0
VERTEX
  8
0
  5
39AC5
 10
1.77475
 20
1.55365
 30
0.000000
  70
    32
  0
VERTEX
  8
0
  5
39AC6
 10
1.77483
 20
1.56039
 30
0.000000
  70
    32
  0
VERTEX
  8
0
  5
39AC7
 10
1.77493
 20
1.56712
 30
0.000000
  70
    32
  0
VERTEX
  8
0
  5
39AC8
 10
1.77506
 20
1.57385
 30
0.000000
  70
    32
  0
VERTEX
  8
0
  5
39AC9
 10
1.77522
 20
1.58058
 30
0.000000
  70
    32
  0
VERTEX
  8
0
  5
39ACA
 10
1.77541
 20
1.58731
 30
0.000000
  70
    32
  0
VERTEX
  8
0
  5
39ACB
 10
1.77563
 20
1.59404
 30
0.000000
  70
    32
  0
VERTEX
  8
0
  5
39ACC
 10
1.77587
 20
1.60077
 30
0.000000
  70
    32
  0
VERTEX
  8
0
  5
39ACD
 10
1.77615
 20
1.60749
 30
0.000000
  70
    32
  0
VERTEX
  8
0
  5
39ACE
 10
1.77646
 20
1.61422
 30
0.000000
  70
    32
  0
VERTEX
  8
0
  5
39ACF
 10
1.77680
 20
1.62095
 30
0.000000
  70
    32
  0
VERTEX
  8
0
  5
39AD0
 10
1.77717
 20
1.62767
 30
0.000000
  70
    32
  0
VERTEX
  8
0
  5
39AD1
 10
1.77757
 20
1.63440
 30
0.000000
  70
    32
  0
VERTEX
  8
0
  5
39AD2
 10
1.77801
 20
1.64112
 30
0.000000
  70
    32
  0
VERTEX
  8
0
  5
39AD3
 10
1.77848
 20
1.64785
 30
0.000000
  70
    32
  0
VERTEX
  8
0
  5
39AD4
 10
1.77899
 20
1.65457
 30
0.000000
  70
    32
  0
VERTEX
  8
0
  5
39AD5
 10
1.77953
 20
1.66129
 30
0.000000
  70
    32
  0
VERTEX
  8
0
  5
39AD6
 10
1.78011
 20
1.66801
 30
0.000000
  70
    32
  0
VERTEX
  8
0
  5
39AD7
 10
1.78073
 20
1.67473
 30
0.000000
  70
    32
  0
VERTEX
  8
0
  5
39AD8
 10
1.78138
 20
1.68145
 30
0.000000
  70
    32
  0
VERTEX
  8
0
  5
39AD9
 10
1.78208
 20
1.68817
 30
0.000000
  70
    32
  0
VERTEX
  8
0
  5
39ADA
 10
1.78281
 20
1.69489
 30
0.000000
  70
    32
  0
VERTEX
  8
0
  5
39ADB
 10
1.78358
 20
1.70161
 30
0.000000
  70
    32
  0
VERTEX
  8
0
  5
39ADC
 10
1.78439
 20
1.70832
 30
0.000000
  70
    32
  0
VERTEX
  8
0
  5
39ADD
 10
1.78524
 20
1.71504
 30
0.000000
  70
    32
  0
VERTEX
  8
0
  5
39ADE
 10
1.78614
 20
1.72175
 30
0.000000
  70
    32
  0
VERTEX
  8
0
  5
39ADF
 10
1.78707
 20
1.72847
 30
0.000000
  70
    32
  0
VERTEX
  8
0
  5
39AE0
 10
1.78805
 20
1.73518
 30
0.000000
  70
    32
  0
VERTEX
  8
0
  5
39AE1
 10
1.78907
 20
1.74189
 30
0.000000
  70
    32
  0
VERTEX
  8
0
  5
39AE2
 10
1.79013
 20
1.74859
 30
0.000000
  70
    32
  0
VERTEX
  8
0
  5
39AE3
 10
1.79122
 20
1.75530
 30
0.000000
  70
    32
  0
VERTEX
  8
0
  5
39AE4
 10
1.79236
 20
1.76200
 30
0.000000
  70
    32
  0
VERTEX
  8
0
  5
39AE5
 10
1.79354
 20
1.76869
 30
0.000000
  70
    32
  0
VERTEX
  8
0
  5
39AE6
 10
1.79476
 20
1.77539
 30
0.000000
  70
    32
  0
VERTEX
  8
0
  5
39AE7
 10
1.79603
 20
1.78208
 30
0.000000
  70
    32
  0
VERTEX
  8
0
  5
39AE8
 10
1.79733
 20
1.78876
 30
0.000000
  70
    32
  0
VERTEX
  8
0
  5
39AE9
 10
1.79867
 20
1.79544
 30
0.000000
  70
    32
  0
VERTEX
  8
0
  5
39AEA
 10
1.80005
 20
1.80212
 30
0.000000
  70
    32
  0
VERTEX
  8
0
  5
39AEB
 10
1.80147
 20
1.80879
 30
0.000000
  70
    32
  0
VERTEX
  8
0
  5
39AEC
 10
1.80293
 20
1.81545
 30
0.000000
  70
    32
  0
VERTEX
  8
0
  5
39AED
 10
1.80443
 20
1.82211
 30
0.000000
  70
    32
  0
VERTEX
  8
0
  5
39AEE
 10
1.80597
 20
1.82876
 30
0.000000
  70
    32
  0
VERTEX
  8
0
  5
39AEF
 10
1.80755
 20
1.83541
 30
0.000000
  70
    32
  0
VERTEX
  8
0
  5
39AF0
 10
1.80917
 20
1.84204
 30
0.000000
  70
    32
  0
VERTEX
  8
0
  5
39AF1
 10
1.81083
 20
1.84868
 30
0.000000
  70
    32
  0
VERTEX
  8
0
  5
39AF2
 10
1.81253
 20
1.85530
 30
0.000000
  70
    32
  0
VERTEX
  8
0
  5
39AF3
 10
1.81427
 20
1.86192
 30
0.000000
  70
    32
  0
VERTEX
  8
0
  5
39AF4
 10
1.81604
 20
1.86852
 30
0.000000
  70
    32
  0
VERTEX
  8
0
  5
39AF5
 10
1.81786
 20
1.87512
 30
0.000000
  70
    32
  0
VERTEX
  8
0
  5
39AF6
 10
1.81971
 20
1.88171
 30
0.000000
  70
    32
  0
VERTEX
  8
0
  5
39AF7
 10
1.82161
 20
1.88829
 30
0.000000
  70
    32
  0
VERTEX
  8
0
  5
39AF8
 10
1.82354
 20
1.89487
 30
0.000000
  70
    32
  0
VERTEX
  8
0
  5
39AF9
 10
1.82551
 20
1.90143
 30
0.000000
  70
    32
  0
VERTEX
  8
0
  5
39AFA
 10
1.82752
 20
1.90798
 30
0.000000
  70
    32
  0
VERTEX
  8
0
  5
39AFB
 10
1.82957
 20
1.91452
 30
0.000000
  70
    32
  0
VERTEX
  8
0
  5
39AFC
 10
1.83165
 20
1.92105
 30
0.000000
  70
    32
  0
VERTEX
  8
0
  5
39AFD
 10
1.83378
 20
1.92757
 30
0.000000
  70
    32
  0
VERTEX
  8
0
  5
39AFE
 10
1.83594
 20
1.93408
 30
0.000000
  70
    32
  0
VERTEX
  8
0
  5
39AFF
 10
1.83814
 20
1.94058
 30
0.000000
  70
    32
  0
VERTEX
  8
0
  5
39B00
 10
1.84038
 20
1.94706
 30
0.000000
  70
    32
  0
VERTEX
  8
0
  5
39B01
 10
1.84266
 20
1.95353
 30
0.000000
  70
    32
  0
VERTEX
  8
0
  5
39B02
 10
1.84497
 20
1.95999
 30
0.000000
  70
    32
  0
VERTEX
  8
0
  5
39B03
 10
1.84733
 20
1.96644
 30
0.000000
  70
    32
  0
VERTEX
  8
0
  5
39B04
 10
1.84972
 20
1.97287
 30
0.000000
  70
    32
  0
VERTEX
  8
0
  5
39B05
 10
1.85214
 20
1.97929
 30
0.000000
  70
    32
  0
VERTEX
  8
0
  5
39B06
 10
1.85461
 20
1.98570
 30
0.000000
  70
    32
  0
VERTEX
  8
0
  5
39B07
 10
1.85711
 20
1.99209
 30
0.000000
  70
    32
  0
VERTEX
  8
0
  5
39B08
 10
1.85965
 20
1.99846
 30
0.000000
  70
    32
  0
VERTEX
  8
0
  5
39B09
 10
1.86223
 20
2.00483
 30
0.000000
  70
    32
  0
VERTEX
  8
0
  5
39B0A
 10
1.86484
 20
2.01117
 30
0.000000
  70
    32
  0
VERTEX
  8
0
  5
39B0B
 10
1.86749
 20
2.01750
 30
0.000000
  70
    32
  0
VERTEX
  8
0
  5
39B0C
 10
1.87018
 20
2.02382
 30
0.000000
  70
    32
  0
VERTEX
  8
0
  5
39B0D
 10
1.87290
 20
2.03012
 30
0.000000
  70
    32
  0
VERTEX
  8
0
  5
39B0E
 10
1.87566
 20
2.03640
 30
0.000000
  70
    32
  0
VERTEX
  8
0
  5
39B0F
 10
1.87846
 20
2.04266
 30
0.000000
  70
    32
  0
VERTEX
  8
0
  5
39B10
 10
1.88130
 20
2.04891
 30
0.000000
  70
    32
  0
VERTEX
  8
0
  5
39B11
 10
1.88417
 20
2.05514
 30
0.000000
  70
    32
  0
VERTEX
  8
0
  5
39B12
 10
1.88707
 20
2.06136
 30
0.000000
  70
    32
  0
VERTEX
  8
0
  5
39B13
 10
1.89002
 20
2.06755
 30
0.000000
  70
    32
  0
VERTEX
  8
0
  5
39B14
 10
1.89300
 20
2.07373
 30
0.000000
  70
    32
  0
VERTEX
  8
0
  5
39B15
 10
1.89601
 20
2.07989
 30
0.000000
  70
    32
  0
VERTEX
  8
0
  5
39B16
 10
1.89906
 20
2.08602
 30
0.000000
  70
    32
  0
VERTEX
  8
0
  5
39B17
 10
1.90215
 20
2.09214
 30
0.000000
  70
    32
  0
VERTEX
  8
0
  5
39B18
 10
1.90527
 20
2.09824
 30
0.000000
  70
    32
  0
VERTEX
  8
0
  5
39B19
 10
1.90843
 20
2.10432
 30
0.000000
  70
    32
  0
VERTEX
  8
0
  5
39B1A
 10
1.91163
 20
2.11038
 30
0.000000
  70
    32
  0
VERTEX
  8
0
  5
39B1B
 10
1.91486
 20
2.11642
 30
0.000000
  70
    32
  0
VERTEX
  8
0
  5
39B1C
 10
1.91812
 20
2.12244
 30
0.000000
  70
    32
  0
VERTEX
  8
0
  5
39B1D
 10
1.92142
 20
2.12843
 30
0.000000
  70
    32
  0
VERTEX
  8
0
  5
39B1E
 10
1.92476
 20
2.13441
 30
0.000000
  70
    32
  0
VERTEX
  8
0
  5
39B1F
 10
1.92813
 20
2.14036
 30
0.000000
  70
    32
  0
VERTEX
  8
0
  5
39B20
 10
1.93154
 20
2.14629
 30
0.000000
  70
    32
  0
VERTEX
  8
0
  5
39B21
 10
1.93498
 20
2.15220
 30
0.000000
  70
    32
  0
VERTEX
  8
0
  5
39B22
 10
1.93845
 20
2.15808
 30
0.000000
  70
    32
  0
VERTEX
  8
0
  5
39B23
 10
1.94196
 20
2.16395
 30
0.000000
  70
    32
  0
VERTEX
  8
0
  5
39B24
 10
1.94551
 20
2.16978
 30
0.000000
  70
    32
  0
VERTEX
  8
0
  5
39B25
 10
1.94909
 20
2.17560
 30
0.000000
  70
    32
  0
VERTEX
  8
0
  5
39B26
 10
1.95270
 20
2.18139
 30
0.000000
  70
    32
  0
VERTEX
  8
0
  5
39B27
 10
1.95635
 20
2.18715
 30
0.000000
  70
    32
  0
VERTEX
  8
0
  5
39B28
 10
1.96003
 20
2.19289
 30
0.000000
  70
    32
  0
VERTEX
  8
0
  5
39B29
 10
1.96375
 20
2.19861
 30
0.000000
  70
    32
  0
VERTEX
  8
0
  5
39B2A
 10
1.96750
 20
2.20430
 30
0.000000
  70
    32
  0
VERTEX
  8
0
  5
39B2B
 10
1.97128
 20
2.20996
 30
0.000000
  70
    32
  0
VERTEX
  8
0
  5
39B2C
 10
1.97510
 20
2.21560
 30
0.000000
  70
    32
  0
VERTEX
  8
0
  5
39B2D
 10
1.97895
 20
2.22121
 30
0.000000
  70
    32
  0
VERTEX
  8
0
  5
39B2E
 10
1.98284
 20
2.22680
 30
0.000000
  70
    32
  0
VERTEX
  8
0
  5
39B2F
 10
1.98676
 20
2.23236
 30
0.000000
  70
    32
  0
VERTEX
  8
0
  5
39B30
 10
1.99071
 20
2.23789
 30
0.000000
  70
    32
  0
VERTEX
  8
0
  5
39B31
 10
1.99470
 20
2.24339
 30
0.000000
  70
    32
  0
VERTEX
  8
0
  5
39B32
 10
1.99872
 20
2.24886
 30
0.000000
  70
    32
  0
VERTEX
  8
0
  5
39B33
 10
2.00277
 20
2.25431
 30
0.000000
  70
    32
  0
VERTEX
  8
0
  5
39B34
 10
2.00686
 20
2.25973
 30
0.000000
  70
    32
  0
VERTEX
  8
0
  5
39B35
 10
2.01098
 20
2.26512
 30
0.000000
  70
    32
  0
VERTEX
  8
0
  5
39B36
 10
2.01513
 20
2.27048
 30
0.000000
  70
    32
  0
VERTEX
  8
0
  5
39B37
 10
2.01932
 20
2.27581
 30
0.000000
  70
    32
  0
VERTEX
  8
0
  5
39B38
 10
2.02354
 20
2.28111
 30
0.000000
  70
    32
  0
VERTEX
  8
0
  5
39B39
 10
2.02779
 20
2.28637
 30
0.000000
  70
    32
  0
VERTEX
  8
0
  5
39B3A
 10
2.03207
 20
2.29161
 30
0.000000
  70
    32
  0
VERTEX
  8
0
  5
39B3B
 10
2.03639
 20
2.29682
 30
0.000000
  70
    32
  0
VERTEX
  8
0
  5
39B3C
 10
2.04073
 20
2.30200
 30
0.000000
  70
    32
  0
VERTEX
  8
0
  5
39B3D
 10
2.04511
 20
2.30714
 30
0.000000
  70
    32
  0
VERTEX
  8
0
  5
39B3E
 10
2.04953
 20
2.31226
 30
0.000000
  70
    32
  0
VERTEX
  8
0
  5
39B3F
 10
2.05397
 20
2.31734
 30
0.000000
  70
    32
  0
VERTEX
  8
0
  5
39B40
 10
2.05845
 20
2.32239
 30
0.000000
  70
    32
  0
VERTEX
  8
0
  5
39B41
 10
2.06296
 20
2.32741
 30
0.000000
  70
    32
  0
VERTEX
  8
0
  5
39B42
 10
2.06749
 20
2.33240
 30
0.000000
  70
    32
  0
VERTEX
  8
0
  5
39B43
 10
2.07206
 20
2.33735
 30
0.000000
  70
    32
  0
VERTEX
  8
0
  5
39B44
 10
2.07666
 20
2.34228
 30
0.000000
  70
    32
  0
VERTEX
  8
0
  5
39B45
 10
2.08129
 20
2.34717
 30
0.000000
  70
    32
  0
VERTEX
  8
0
  5
39B46
 10
2.08595
 20
2.35204
 30
0.000000
  70
    32
  0
VERTEX
  8
0
  5
39B47
 10
2.09065
 20
2.35688
 30
0.000000
  70
    32
  0
VERTEX
  8
0
  5
39B48
 10
2.09537
 20
2.36168
 30
0.000000
  70
    32
  0
VERTEX
  8
0
  5
39B49
 10
2.10011
 20
2.36646
 30
0.000000
  70
    32
  0
VERTEX
  8
0
  5
39B4A
 10
2.10489
 20
2.37120
 30
0.000000
  70
    32
  0
VERTEX
  8
0
  5
39B4B
 10
2.10970
 20
2.37592
 30
0.000000
  70
    32
  0
VERTEX
  8
0
  5
39B4C
 10
2.11454
 20
2.38060
 30
0.000000
  70
    32
  0
VERTEX
  8
0
  5
39B4D
 10
2.11940
 20
2.38526
 30
0.000000
  70
    32
  0
VERTEX
  8
0
  5
39B4E
 10
2.12429
 20
2.38989
 30
0.000000
  70
    32
  0
VERTEX
  8
0
  5
39B4F
 10
2.12921
 20
2.39449
 30
0.000000
  70
    32
  0
VERTEX
  8
0
  5
39B50
 10
2.13416
 20
2.39906
 30
0.000000
  70
    32
  0
VERTEX
  8
0
  5
39B51
 10
2.13913
 20
2.40360
 30
0.000000
  70
    32
  0
VERTEX
  8
0
  5
39B52
 10
2.14413
 20
2.40812
 30
0.000000
  70
    32
  0
VERTEX
  8
0
  5
39B53
 10
2.14916
 20
2.41260
 30
0.000000
  70
    32
  0
VERTEX
  8
0
  5
39B54
 10
2.15421
 20
2.41706
 30
0.000000
  70
    32
  0
VERTEX
  8
0
  5
39B55
 10
2.15929
 20
2.42149
 30
0.000000
  70
    32
  0
VERTEX
  8
0
  5
39B56
 10
2.16440
 20
2.42590
 30
0.000000
  70
    32
  0
VERTEX
  8
0
  5
39B57
 10
2.16953
 20
2.43027
 30
0.000000
  70
    32
  0
VERTEX
  8
0
  5
39B58
 10
2.17468
 20
2.43462
 30
0.000000
  70
    32
  0
VERTEX
  8
0
  5
39B59
 10
2.17986
 20
2.43894
 30
0.000000
  70
    32
  0
VERTEX
  8
0
  5
39B5A
 10
2.18507
 20
2.44324
 30
0.000000
  70
    32
  0
VERTEX
  8
0
  5
39B5B
 10
2.19030
 20
2.44751
 30
0.000000
  70
    32
  0
VERTEX
  8
0
  5
39B5C
 10
2.19555
 20
2.45175
 30
0.000000
  70
    32
  0
VERTEX
  8
0
  5
39B5D
 10
2.20083
 20
2.45596
 30
0.000000
  70
    32
  0
VERTEX
  8
0
  5
39B5E
 10
2.20613
 20
2.46015
 30
0.000000
  70
    32
  0
VERTEX
  8
0
  5
39B5F
 10
2.21146
 20
2.46432
 30
0.000000
  70
    32
  0
VERTEX
  8
0
  5
39B60
 10
2.21681
 20
2.46845
 30
0.000000
  70
    32
  0
VERTEX
  8
0
  5
39B61
 10
2.22218
 20
2.47257
 30
0.000000
  70
    32
  0
VERTEX
  8
0
  5
39B62
 10
2.22757
 20
2.47665
 30
0.000000
  70
    32
  0
VERTEX
  8
0
  5
39B63
 10
2.23299
 20
2.48071
 30
0.000000
  70
    32
  0
VERTEX
  8
0
  5
39B64
 10
2.23843
 20
2.48475
 30
0.000000
  70
    32
  0
VERTEX
  8
0
  5
39B65
 10
2.24389
 20
2.48876
 30
0.000000
  70
    32
  0
VERTEX
  8
0
  5
39B66
 10
2.24937
 20
2.49275
 30
0.000000
  70
    32
  0
VERTEX
  8
0
  5
39B67
 10
2.25488
 20
2.49671
 30
0.000000
  70
    32
  0
VERTEX
  8
0
  5
39B68
 10
2.26040
 20
2.50065
 30
0.000000
  70
    32
  0
VERTEX
  8
0
  5
39B69
 10
2.26594
 20
2.50456
 30
0.000000
  70
    32
  0
VERTEX
  8
0
  5
39B6A
 10
2.27151
 20
2.50845
 30
0.000000
  70
    32
  0
VERTEX
  8
0
  5
39B6B
 10
2.27710
 20
2.51232
 30
0.000000
  70
    32
  0
VERTEX
  8
0
  5
39B6C
 10
2.28270
 20
2.51616
 30
0.000000
  70
    32
  0
VERTEX
  8
0
  5
39B6D
 10
2.28833
 20
2.51998
 30
0.000000
  70
    32
  0
VERTEX
  8
0
  5
39B6E
 10
2.29397
 20
2.52378
 30
0.000000
  70
    32
  0
VERTEX
  8
0
  5
39B6F
 10
2.29963
 20
2.52755
 30
0.000000
  70
    32
  0
VERTEX
  8
0
  5
39B70
 10
2.30532
 20
2.53130
 30
0.000000
  70
    32
  0
VERTEX
  8
0
  5
39B71
 10
2.31102
 20
2.53503
 30
0.000000
  70
    32
  0
VERTEX
  8
0
  5
39B72
 10
2.31674
 20
2.53873
 30
0.000000
  70
    32
  0
VERTEX
  8
0
  5
39B73
 10
2.32248
 20
2.54240
 30
0.000000
  70
    32
  0
VERTEX
  8
0
  5
39B74
 10
2.32824
 20
2.54603
 30
0.000000
  70
    32
  0
VERTEX
  8
0
  5
39B75
 10
2.33403
 20
2.54963
 30
0.000000
  70
    32
  0
VERTEX
  8
0
  5
39B76
 10
2.33983
 20
2.55319
 30
0.000000
  70
    32
  0
VERTEX
  8
0
  5
39B77
 10
2.34567
 20
2.55670
 30
0.000000
  70
    32
  0
VERTEX
  8
0
  5
39B78
 10
2.35152
 20
2.56016
 30
0.000000
  70
    32
  0
VERTEX
  8
0
  5
39B79
 10
2.35741
 20
2.56357
 30
0.000000
  70
    32
  0
VERTEX
  8
0
  5
39B7A
 10
2.36332
 20
2.56691
 30
0.000000
  70
    32
  0
VERTEX
  8
0
  5
39B7B
 10
2.36925
 20
2.57020
 30
0.000000
  70
    32
  0
VERTEX
  8
0
  5
39B7C
 10
2.37522
 20
2.57341
 30
0.000000
  70
    32
  0
VERTEX
  8
0
  5
39B7D
 10
2.38122
 20
2.57656
 30
0.000000
  70
    32
  0
VERTEX
  8
0
  5
39B7E
 10
2.38725
 20
2.57963
 30
0.000000
  70
    32
  0
VERTEX
  8
0
  5
39B7F
 10
2.39331
 20
2.58263
 30
0.000000
  70
    32
  0
VERTEX
  8
0
  5
39B80
 10
2.39940
 20
2.58554
 30
0.000000
  70
    32
  0
VERTEX
  8
0
  5
39B81
 10
2.40553
 20
2.58836
 30
0.000000
  70
    32
  0
VERTEX
  8
0
  5
39B82
 10
2.41169
 20
2.59109
 30
0.000000
  70
    32
  0
VERTEX
  8
0
  5
39B83
 10
2.41789
 20
2.59373
 30
0.000000
  70
    32
  0
VERTEX
  8
0
  5
39B84
 10
2.42413
 20
2.59627
 30
0.000000
  70
    32
  0
VERTEX
  8
0
  5
39B85
 10
2.43040
 20
2.59870
 30
0.000000
  70
    32
  0
VERTEX
  8
0
  5
39B86
 10
2.43671
 20
2.60103
 30
0.000000
  70
    32
  0
VERTEX
  8
0
  5
39B87
 10
2.44306
 20
2.60324
 30
0.000000
  70
    32
  0
VERTEX
  8
0
  5
39B88
 10
2.44946
 20
2.60534
 30
0.000000
  70
    32
  0
VERTEX
  8
0
  5
39B89
 10
2.45589
 20
2.60732
 30
0.000000
  70
    32
  0
VERTEX
  8
0
  5
39B8A
 10
2.46237
 20
2.60918
 30
0.000000
  70
    32
  0
VERTEX
  8
0
  5
39B8B
 10
2.46889
 20
2.61091
 30
0.000000
  70
    32
  0
VERTEX
  8
0
  5
39B8C
 10
2.47546
 20
2.61251
 30
0.000000
  70
    32
  0
VERTEX
  8
0
  5
39B8D
 10
2.48207
 20
2.61397
 30
0.000000
  70
    32
  0
VERTEX
  8
0
  5
39B8E
 10
2.48872
 20
2.61530
 30
0.000000
  70
    32
  0
VERTEX
  8
0
  5
39B8F
 10
2.49540
 20
2.61649
 30
0.000000
  70
    32
  0
VERTEX
  8
0
  5
39B90
 10
2.50212
 20
2.61754
 30
0.000000
  70
    32
  0
VERTEX
  8
0
  5
39B91
 10
2.50887
 20
2.61846
 30
0.000000
  70
    32
  0
VERTEX
  8
0
  5
39B92
 10
2.51564
 20
2.61924
 30
0.000000
  70
    32
  0
VERTEX
  8
0
  5
39B93
 10
2.52243
 20
2.61989
 30
0.000000
  70
    32
  0
VERTEX
  8
0
  5
39B94
 10
2.52923
 20
2.62039
 30
0.000000
  70
    32
  0
VERTEX
  8
0
  5
39B95
 10
2.53605
 20
2.62076
 30
0.000000
  70
    32
  0
VERTEX
  8
0
  5
39B96
 10
2.54287
 20
2.62099
 30
0.000000
  70
    32
  0
VERTEX
  8
0
  5
39B97
 10
2.54969
 20
2.62108
 30
0.000000
  70
    32
  0
VERTEX
  8
0
  5
39B98
 10
2.55651
 20
2.62104
 30
0.000000
  70
    32
  0
VERTEX
  8
0
  5
39B99
 10
2.56333
 20
2.62085
 30
0.000000
  70
    32
  0
VERTEX
  8
0
  5
39B9A
 10
2.57014
 20
2.62052
 30
0.000000
  70
    32
  0
VERTEX
  8
0
  5
39B9B
 10
2.57693
 20
2.62006
 30
0.000000
  70
    32
  0
VERTEX
  8
0
  5
39B9C
 10
2.58370
 20
2.61945
 30
0.000000
  70
    32
  0
VERTEX
  8
0
  5
39B9D
 10
2.59046
 20
2.61870
 30
0.000000
  70
    32
  0
VERTEX
  8
0
  5
39B9E
 10
2.59718
 20
2.61782
 30
0.000000
  70
    32
  0
VERTEX
  8
0
  5
39B9F
 10
2.60388
 20
2.61679
 30
0.000000
  70
    32
  0
VERTEX
  8
0
  5
39BA0
 10
2.61053
 20
2.61562
 30
0.000000
  70
    32
  0
VERTEX
  8
0
  5
39BA1
 10
2.61715
 20
2.61430
 30
0.000000
  70
    32
  0
VERTEX
  8
0
  5
39BA2
 10
2.62373
 20
2.61285
 30
0.000000
  70
    32
  0
VERTEX
  8
0
  5
39BA3
 10
2.63026
 20
2.61125
 30
0.000000
  70
    32
  0
VERTEX
  8
0
  5
39BA4
 10
2.63674
 20
2.60951
 30
0.000000
  70
    32
  0
VERTEX
  8
0
  5
39BA5
 10
2.64317
 20
2.60763
 30
0.000000
  70
    32
  0
VERTEX
  8
0
  5
39BA6
 10
2.64956
 20
2.60563
 30
0.000000
  70
    32
  0
VERTEX
  8
0
  5
39BA7
 10
2.65590
 20
2.60350
 30
0.000000
  70
    32
  0
VERTEX
  8
0
  5
39BA8
 10
2.66221
 20
2.60125
 30
0.000000
  70
    32
  0
VERTEX
  8
0
  5
39BA9
 10
2.66847
 20
2.59889
 30
0.000000
  70
    32
  0
VERTEX
  8
0
  5
39BAA
 10
2.67470
 20
2.59642
 30
0.000000
  70
    32
  0
VERTEX
  8
0
  5
39BAB
 10
2.68089
 20
2.59385
 30
0.000000
  70
    32
  0
VERTEX
  8
0
  5
39BAC
 10
2.68704
 20
2.59117
 30
0.000000
  70
    32
  0
VERTEX
  8
0
  5
39BAD
 10
2.69316
 20
2.58841
 30
0.000000
  70
    32
  0
VERTEX
  8
0
  5
39BAE
 10
2.69926
 20
2.58555
 30
0.000000
  70
    32
  0
VERTEX
  8
0
  5
39BAF
 10
2.70532
 20
2.58261
 30
0.000000
  70
    32
  0
VERTEX
  8
0
  5
39BB0
 10
2.71136
 20
2.57960
 30
0.000000
  70
    32
  0
VERTEX
  8
0
  5
39BB1
 10
2.71737
 20
2.57651
 30
0.000000
  70
    32
  0
VERTEX
  8
0
  5
39BB2
 10
2.72336
 20
2.57335
 30
0.000000
  70
    32
  0
VERTEX
  8
0
  5
39BB3
 10
2.72932
 20
2.57013
 30
0.000000
  70
    32
  0
VERTEX
  8
0
  5
39BB4
 10
2.73527
 20
2.56686
 30
0.000000
  70
    32
  0
VERTEX
  8
0
  5
39BB5
 10
2.74120
 20
2.56353
 30
0.000000
  70
    32
  0
VERTEX
  8
0
  5
39BB6
 10
2.74711
 20
2.56016
 30
0.000000
  70
    32
  0
VERTEX
  8
0
  5
39BB7
 10
2.75301
 20
2.55674
 30
0.000000
  70
    32
  0
VERTEX
  8
0
  5
39BB8
 10
2.75889
 20
2.55329
 30
0.000000
  70
    32
  0
VERTEX
  8
0
  5
39BB9
 10
2.76477
 20
2.54980
 30
0.000000
  70
    32
  0
VERTEX
  8
0
  5
39BBA
 10
2.77063
 20
2.54629
 30
0.000000
  70
    32
  0
VERTEX
  8
0
  5
39BBB
 10
2.77649
 20
2.54276
 30
0.000000
  70
    32
  0
VERTEX
  8
0
  5
39BBC
 10
2.78234
 20
2.53922
 30
0.000000
  70
    32
  0
VERTEX
  8
0
  5
39BBD
 10
2.78819
 20
2.53566
 30
0.000000
  70
    32
  0
VERTEX
  8
0
  5
39BBE
 10
2.79404
 20
2.53210
 30
0.000000
  70
    32
  0
SEQEND
  8
0
  5
39BBF
  0
ARC
  5
3402F
  8
0
 10
3.0617125534294578
 20
2.868121924086608
 30
0.0
 40
0.3261993446855973
 50
231.69688545872461
 51
26.236608528874651
  0
ARC
  5
34030
  8
0
 10
0.6122563205008192
 20
0.0445914175862754
 30
0.0
 40
0.3242917497404281
 50
79.849998631994751
 51
187.90339593985709
  0
ARC
  5
34031
  8
0
 10
0.9549503586443962
 20
1.049380567529397
 30
0.0
 40
0.631976010542801
 50
245.1601149185781
 51
9.1275312838388327
  0
ENDBLK
  5
34033
  8
0
  0
BLOCK
  8
0
  2
*U84
 70
     1
 10
0.0
 20
0.0
 30
0.0
  3
*U84
  1

  0
TEXT
  5
3967F
  8
0
 10
3.5177832928899071
 20
10.38601584255777
 30
0.0
 40
0.125
  1
Crown Moulding
  0
TEXT
  5
39680
  8
0
 10
3.5223876585106431
 20
10.17717091304435
 30
0.0
 40
0.125
  1
TL-AB509
  0
TEXT
  5
39681
  8
0
 10
3.5074661032582561
 20
9.9667059289606801
 30
0.0
 40
0.125
  1
1-5/16" x 7-9/16"
  0
TEXT
  5
39682
  8
0
 10
3.519403347460166
 20
9.7562409448770051
 30
0.0
 40
0.125
  1
800.66.TAGUE
  0
ENDBLK
  5
39684
  8
0
  0
BLOCK
  8
0
  2
*U85
 70
     1
 10
0.0
 20
0.0
 30
0.0
  3
*U85
  1

  0
TEXT
  5
39686
  8
0
 10
1.4086740032724709
 20
13.04264108713495
 30
0.0
 40
0.125
  1
Casing
  0
TEXT
  5
39687
  8
0
 10
1.4132783688932069
 20
12.83379615762154
 30
0.0
 40
0.125
  1
TL-2019
  0
TEXT
  5
39688
  8
0
 10
1.39835681364082
 20
12.62333117353786
 30
0.0
 40
0.125
  1
1-1/16" x 5-1/2"
  0
TEXT
  5
39689
  8
0
 10
1.4102940578427301
 20
12.41286618945419
 30
0.0
 40
0.125
  1
800.66.TAGUE
  0
ENDBLK
  5
3968B
  8
0
  0
BLOCK
  8
0
  2
*U86
 70
     1
 10
0.0
 20
0.0
 30
0.0
  3
*U86
  1

  0
TEXT
  5
3968D
  8
0
 10
1.9061884295105971
 20
11.78127341408482
 30
0.0
 40
0.125
  1
Casing
  0
TEXT
  5
3968E
  8
0
 10
1.9107927951313339
 20
11.572428484571409
 30
0.0
 40
0.125
  1
TL-2318
  0
TEXT
  5
3968F
  8
0
 10
1.8958712398789459
 20
11.361963500487731
 30
0.0
 40
0.125
  1
13/16" x 2-1/2"
  0
TEXT
  5
39690
  8
0
 10
1.907808484080856
 20
11.151498516404059
 30
0.0
 40
0.125
  1
800.66.TAGUE
  0
ENDBLK
  5
39692
  8
0
  0
BLOCK
  8
0
  2
*U87
 70
     1
 10
0.0
 20
0.0
 30
0.0
  3
*U87
  1

  0
TEXT
  5
39694
  8
0
 10
2.2380648505203782
 20
10.70752122569969
 30
0.0
 40
0.125
  1
Casing Assembly
  0
TEXT
  5
39695
  8
0
 10
2.242669216141115
 20
10.498676296186281
 30
0.0
 40
0.125
  1
TL-2225
  0
TEXT
  5
39696
  8
0
 10
2.2277476608887281
 20
10.2882113121026
 30
0.0
 40
0.125
  1
1-9/16" x 4-1/2"
  0
TEXT
  5
39697
  8
0
 10
2.239684905090638
 20
10.077746328018931
 30
0.0
 40
0.125
  1
800.66.TAGUE
  0
ENDBLK
  5
39699
  8
0
  0
BLOCK
  8
0
  2
*U88
 70
     1
 10
0.0
 20
0.0
 30
0.0
  3
*U88
  1

  0
TEXT
  5
3969B
  8
0
 10
2.45740474597793
 20
2.5787099920155621
 30
0.0
 40
0.125
  1
Chair Rail
  0
TEXT
  5
3969C
  8
0
 10
2.462009111598666
 20
2.3698650625021469
 30
0.0
 40
0.125
  1
TL-300
  0
TEXT
  5
3969D
  8
0
 10
2.4470875563462791
 20
2.1594000784184728
 30
0.0
 40
0.125
  1
1-1/16" x 2-15/16"
  0
TEXT
  5
3969E
  8
0
 10
2.4590248005481889
 20
1.9489350943347981
 30
0.0
 40
0.125
  1
800.66.TAGUE
  0
ENDBLK
  5
396A0
  8
0
  0
BLOCK
  8
0
  2
*U89
 70
     1
 10
0.0
 20
0.0
 30
0.0
  3
*U89
  1

  0
TEXT
  5
396A2
  8
0
 10
2.296373382618786
 20
2.154638056947094
 30
0.0
 40
0.125
  1
Chair Rail
  0
TEXT
  5
396A3
  8
0
 10
2.3009777482395228
 20
1.945793127433679
 30
0.0
 40
0.125
  1
TL-384
  0
TEXT
  5
396A4
  8
0
 10
2.2860561929871359
 20
1.7353281433500041
 30
0.0
 40
0.125
  1
1-1/8" x 2-3/4"
  0
TEXT
  5
396A5
  8
0
 10
2.2979934371890458
 20
1.52486315926633
 30
0.0
 40
0.125
  1
800.66.TAGUE
  0
ENDBLK
  5
396A7
  8
0
  0
BLOCK
  8
0
  2
*U90
 70
     1
 10
0.0
 20
0.0
 30
0.0
  3
*U90
  1

  0
TEXT
  5
396A9
  8
0
 10
1.7903030854828661
 20
1.879104976913611
 30
0.0
 40
0.125
  1
Chair Rail
  0
TEXT
  5
396AA
  8
0
 10
1.7949074511036021
 20
1.6702600474001961
 30
0.0
 40
0.125
  1
TL-390
  0
TEXT
  5
396AB
  8
0
 10
1.7799858958512149
 20
1.4597950633165211
 30
0.0
 40
0.125
  1
11/16" x 2-9/16"
  0
TEXT
  5
396AC
  8
0
 10
1.791923140053125
 20
1.249330079232847
 30
0.0
 40
0.125
  1
800.66.TAGUE
  0
ENDBLK
  5
396AE
  8
0
  0
BLOCK
  8
0
  2
*U91
 70
     1
 10
0.0
 20
0.0
 30
0.0
  3
*U91
  1

  0
TEXT
  5
396B0
  8
0
 10
1.7790082072096181
 20
2.7163812729427419
 30
0.0
 40
0.125
  1
Chair Rail
  0
TEXT
  5
396B1
  8
0
 10
1.7836125728303549
 20
2.5075363434293272
 30
0.0
 40
0.125
  1
TL-391
  0
TEXT
  5
396B2
  8
0
 10
1.780372463689837
 20
2.2970713593456522
 30
0.0
 40
0.125
  1
3/4" x 3-1/2"
  0
TEXT
  5
396B3
  8
0
 10
1.7806282617798781
 20
2.0866063752619781
 30
0.0
 40
0.125
  1
800.66.TAGUE
  0
ENDBLK
  5
396B5
  8
0
  0
BLOCK
  8
0
  2
*U92
 70
     1
 10
0.0
 20
0.0
 30
0.0
  3
*U92
  1

  0
TEXT
  5
396B7
  8
0
 10
1.979493109854592
 20
1.3931549873730249
 30
0.0
 40
0.125
  1
Chair Rail
  0
TEXT
  5
396B8
  8
0
 10
1.984097475475328
 20
1.1843100578596091
 30
0.0
 40
0.125
  1
TL-393
  0
TEXT
  5
396B9
  8
0
 10
1.9691759202229411
 20
0.9738450737759357
 30
0.0
 40
0.125
  1
1-1/4" x 2-1/2"
  0
TEXT
  5
396BA
  8
0
 10
1.981113164424851
 20
0.7633800896922612
 30
0.0
 40
0.125
  1
800.66.TAGUE
  0
ENDBLK
  5
396BC
  8
0
  0
BLOCK
  8
0
  2
*U93
 70
     1
 10
0.0
 20
0.0
 30
0.0
  3
*U93
  1

  0
TEXT
  5
396BE
  8
0
 10
2.213601074382983
 20
2.6517246081325689
 30
0.0
 40
0.125
  1
Chair Rail
  0
TEXT
  5
396BF
  8
0
 10
2.2182054400037199
 20
2.4428796786191538
 30
0.0
 40
0.125
  1
TL-538
  0
TEXT
  5
396C0
  8
0
 10
2.2171822476435561
 20
2.2324146945354801
 30
0.0
 40
0.125
  1
27/32" x 3-1/4"
  0
TEXT
  5
396C1
  8
0
 10
2.215221128953242
 20
2.021949710451806
 30
0.0
 40
0.125
  1
800.66.TAGUE
  0
ENDBLK
  5
396C3
  8
0
  0
BLOCK
  8
0
  2
*U94
 70
     1
 10
0.0
 20
0.0
 30
0.0
  3
*U94
  1

  0
TEXT
  5
396C5
  8
0
 10
2.143641095436839
 20
2.3625917493022981
 30
0.0
 40
0.125
  1
Chair Rail
  0
TEXT
  5
396C6
  8
0
 10
2.148245461057575
 20
2.1537468197888829
 30
0.0
 40
0.125
  1
TL-2002
  0
TEXT
  5
396C7
  8
0
 10
2.1450053519170571
 20
1.943281835705208
 30
0.0
 40
0.125
  1
3/4" x 3"
  0
TEXT
  5
396C8
  8
0
 10
2.1452611500070979
 20
1.7328168516215341
 30
0.0
 40
0.125
  1
800.66.TAGUE
  0
ENDBLK
  5
396CA
  8
0
  0
BLOCK
  8
0
  2
*U95
 70
     1
 10
0.0
 20
0.0
 30
0.0
  3
*U95
  1

  0
TEXT
  5
396CC
  8
0
 10
2.0814022841362081
 20
2.4827230287430821
 30
0.0
 40
0.125
  1
Chair Rail
  0
TEXT
  5
396CD
  8
0
 10
2.0860066497569441
 20
2.273878099229667
 30
0.0
 40
0.125
  1
TL-2003
  0
TEXT
  5
396CE
  8
0
 10
2.0818286142862759
 20
2.063413115145992
 30
0.0
 40
0.125
  1
7/8" x 3-13/16"
  0
TEXT
  5
396CF
  8
0
 10
2.083022338706467
 20
1.8529481310623179
 30
0.0
 40
0.125
  1
800.66.TAGUE
  0
ENDBLK
  5
396D1
  8
0
  0
BLOCK
  8
0
  2
*U96
 70
     1
 10
0.0
 20
0.0
 30
0.0
  3
*U96
  1

  0
TEXT
  5
396D3
  8
0
 10
2.396282120712645
 20
2.6371956792013558
 30
0.0
 40
0.125
  1
Chair Rail
  0
TEXT
  5
396D4
  8
0
 10
2.4008864863333819
 20
2.4283507496879411
 30
0.0
 40
0.125
  1
TL-2097
  0
TEXT
  5
396D5
  8
0
 10
2.3859649310809949
 20
2.2178857656042661
 30
0.0
 40
0.125
  1
1-1/4" x 2-7/8"
  0
TEXT
  5
396D6
  8
0
 10
2.3979021752829048
 20
2.007420781520592
 30
0.0
 40
0.125
  1
800.66.TAGUE
  0
ENDBLK
  5
396D8
  8
0
  0
BLOCK
  8
0
  2
*U97
 70
     1
 10
0.0
 20
0.0
 30
0.0
  3
*U97
  1

  0
TEXT
  5
396DA
  8
0
 10
2.2497671895647828
 20
1.9038951213874651
 30
0.0
 40
0.125
  1
Chair Rail
  0
TEXT
  5
396DB
  8
0
 10
2.2543715551855201
 20
1.6950501918740499
 30
0.0
 40
0.125
  1
TL-392
  0
TEXT
  5
396DC
  8
0
 10
2.2394499999331319
 20
1.4845852077903761
 30
0.0
 40
0.125
  1
1-5/16" x 2-3/8"
  0
TEXT
  5
396DD
  8
0
 10
2.2513872441350422
 20
1.2741202237067011
 30
0.0
 40
0.125
  1
800.66.TAGUE
  0
ENDBLK
  5
396DF
  8
0
  0
BLOCK
  8
0
  2
*U98
 70
     1
 10
0.0
 20
0.0
 30
0.0
  3
*U98
  1

  0
TEXT
  5
396E1
  8
0
 10
1.5498063030285369
 20
2.4826645605183031
 30
0.0
 40
0.125
  1
Chair Rail
  0
TEXT
  5
396E2
  8
0
 10
1.5544106686492729
 20
2.2738196310048879
 30
0.0
 40
0.125
  1
TL-2152
  0
TEXT
  5
396E3
  8
0
 10
1.539489113396886
 20
2.063354646921213
 30
0.0
 40
0.125
  1
1-9/32" x 3-15/16"
  0
TEXT
  5
396E4
  8
0
 10
1.5514263575987961
 20
1.8528896628375391
 30
0.0
 40
0.125
  1
800.66.TAGUE
  0
ENDBLK
  5
396E6
  8
0
  0
BLOCK
  8
0
  2
*U99
 70
     1
 10
0.0
 20
0.0
 30
0.0
  3
*U99
  1

  0
TEXT
  5
396E8
  8
0
 10
1.425133411081934
 20
3.23616728770982
 30
0.0
 40
0.125
  1
Chair Rail
  0
TEXT
  5
396E9
  8
0
 10
1.4297377767026711
 20
3.0273223581964048
 30
0.0
 40
0.125
  1
TL-2163
  0
TEXT
  5
396EA
  8
0
 10
1.426497667562153
 20
2.8168573741127299
 30
0.0
 40
0.125
  1
3/4" x 2-3/8"
  0
TEXT
  5
396EB
  8
0
 10
1.4267534656521941
 20
2.6063923900290562
 30
0.0
 40
0.125
  1
800.66.TAGUE
  0
ENDBLK
  5
396ED
  8
0
  0
BLOCK
  8
0
  2
*U100
 70
     1
 10
0.0
 20
0.0
 30
0.0
  3
*U100
  1

  0
TEXT
  5
396EF
  8
0
 10
1.3979859738694
 20
3.241688635672078
 30
0.0
 40
0.125
  1
Chair Rail
  0
TEXT
  5
396F0
  8
0
 10
1.4025903394901369
 20
3.0328437061586628
 30
0.0
 40
0.125
  1
TL-2210
  0
TEXT
  5
396F1
  8
0
 10
1.38766878423775
 20
2.8223787220749879
 30
0.0
 40
0.125
  1
11/16" x 3"
  0
TEXT
  5
396F2
  8
0
 10
1.3996060284396601
 20
2.6119137379913142
 30
0.0
 40
0.125
  1
800.66.TAGUE
  0
ENDBLK
  5
396F4
  8
0
  0
BLOCK
  8
0
  2
*U101
 70
     1
 10
0.0
 20
0.0
 30
0.0
  3
*U101
  1

  0
TEXT
  5
396F6
  8
0
 10
1.9179554225799269
 20
1.5548149835556311
 30
0.0
 40
0.125
  1
Chamfer Strip
  0
TEXT
  5
396F7
  8
0
 10
1.9225597882006631
 20
1.3459700540422159
 30
0.0
 40
0.125
  1
TL-994
  0
TEXT
  5
396F8
  8
0
 10
1.9076382329482759
 20
1.137125124528801
 30
0.0
 40
0.125
  1
1" x 1"
  0
TEXT
  5
396F9
  8
0
 10
1.9195754771501861
 20
0.9266601404451272
 30
0.0
 40
0.125
  1
800.66.TAGUE
  0
ENDBLK
  5
396FB
  8
0
  0
BLOCK
  8
0
  2
*U102
 70
     1
 10
0.0
 20
0.0
 30
0.0
  3
*U102
  1

  0
TEXT
  5
396FD
  8
0
 10
0.4278271454310577
 20
1.8307501971237501
 30
0.0
 40
0.125
  1
Chamfer Strip
  0
TEXT
  5
396FE
  8
0
 10
0.4324315110517944
 20
1.6219052676103349
 30
0.0
 40
0.125
  1
TL-995
  0
TEXT
  5
396FF
  8
0
 10
0.4175099557994069
 20
1.41144028352666
 30
0.0
 40
0.125
  1
11/16" x 11/16"
  0
TEXT
  5
39700
  8
0
 10
0.4294472000013169
 20
1.2009752994429861
 30
0.0
 40
0.125
  1
800.66.TAGUE
  0
ENDBLK
  5
39702
  8
0
  0
BLOCK
  8
0
  2
*U103
 70
     1
 10
0.0
 20
0.0
 30
0.0
  3
*U103
  1

  0
TEXT
  5
39704
  8
0
 10
1.9926440979760729
 20
0.67862269993522
 30
0.0
 40
0.125
  1
Column Mouldings
  0
TEXT
  5
39705
  8
0
 10
1.9972484635968091
 20
0.4697777704218047
 30
0.0
 40
0.125
  1
TL-2212
  0
TEXT
  5
39706
  8
0
 10
1.9823269083444219
 20
0.2593127863381302
 30
0.0
 40
0.125
  1
1-13/16" x 1-7/8"
  0
TEXT
  5
39707
  8
0
 10
1.994264152546332
 20
0.0488478022544559
 30
0.0
 40
0.125
  1
800.66.TAGUE
  0
ENDBLK
  5
39709
  8
0
  0
BLOCK
  8
0
  2
*U104
 70
     1
 10
0.0
 20
0.0
 30
0.0
  3
*U104
  1

  0
TEXT
  5
3970B
  8
0
 10
1.6834489538549959
 20
0.7751852708459115
 30
0.0
 40
0.125
  1
Column Mouldings
  0
TEXT
  5
3970C
  8
0
 10
1.688053319475733
 20
0.5663403413324964
 30
0.0
 40
0.125
  1
TL-2215
  0
TEXT
  5
3970D
  8
0
 10
1.673131764223345
 20
0.3558753572488219
 30
0.0
 40
0.125
  1
1/2" x 1"
  0
TEXT
  5
3970E
  8
0
 10
1.6850690084252551
 20
0.1454103731651475
 30
0.0
 40
0.125
  1
800.66.TAGUE
  0
ENDBLK
  5
39710
  8
0
  0
BLOCK
  8
0
  2
*U105
 70
     1
 10
0.0
 20
0.0
 30
0.0
  3
*U105
  1

  0
TEXT
  5
39712
  8
0
 10
1.6834489538549959
 20
0.7751852708459115
 30
0.0
 40
0.125
  1
Column Mouldings
  0
TEXT
  5
39713
  8
0
 10
1.688053319475733
 20
0.5663403413324964
 30
0.0
 40
0.125
  1
TL-2215
  0
TEXT
  5
39714
  8
0
 10
1.673131764223345
 20
0.3558753572488219
 30
0.0
 40
0.125
  1
1/2" x 1"
  0
TEXT
  5
39715
  8
0
 10
1.6850690084252551
 20
0.1454103731651475
 30
0.0
 40
0.125
  1
800.66.TAGUE
  0
ENDBLK
  5
39717
  8
0
  0
BLOCK
  8
0
  2
*U106
 70
     1
 10
0.0
 20
0.0
 30
0.0
  3
*U106
  1

  0
TEXT
  5
39719
  8
0
 10
2.2199536060229881
 20
0.9507943810130132
 30
0.0
 40
0.125
  1
Corner Moulding
  0
TEXT
  5
3971A
  8
0
 10
2.224557971643724
 20
0.7419494514995982
 30
0.0
 40
0.125
  1
TL-201
  0
TEXT
  5
3971B
  8
0
 10
2.2096364163913371
 20
0.5314844674159237
 30
0.0
 40
0.125
  1
1-3/8" x 1-3/8"
  0
TEXT
  5
3971C
  8
0
 10
2.221573660593247
 20
0.3210194833322493
 30
0.0
 40
0.125
  1
800.66.TAGUE
  0
ENDBLK
  5
3971E
  8
0
  0
BLOCK
  8
0
  2
*U107
 70
     1
 10
0.0
 20
0.0
 30
0.0
  3
*U107
  1

  0
TEXT
  5
39720
  8
0
 10
1.9663332328677019
 20
0.8425411796803405
 30
0.0
 40
0.125
  1
Corner Moulding
  0
TEXT
  5
39721
  8
0
 10
1.9709375984884381
 20
0.6336962501669256
 30
0.0
 40
0.125
  1
TL-202
  0
TEXT
  5
39722
  8
0
 10
1.9560160432360509
 20
0.423231266083251
 30
0.0
 40
0.125
  1
1-1/8" x 1-1/8"
  0
TEXT
  5
39723
  8
0
 10
1.9679532874379611
 20
0.2127662819995766
 30
0.0
 40
0.125
  1
800.66.TAGUE
  0
ENDBLK
  5
39725
  8
0
  0
BLOCK
  8
0
  2
*U108
 70
     1
 10
0.0
 20
0.0
 30
0.0
  3
*U108
  1

  0
TEXT
  5
39727
  8
0
 10
1.5905291641242101
 20
0.7214840869431943
 30
0.0
 40
0.125
  1
Corner Moulding
  0
TEXT
  5
39728
  8
0
 10
1.5951335297449469
 20
0.5126391574297791
 30
0.0
 40
0.125
  1
TL-203
  0
TEXT
  5
39729
  8
0
 10
1.5918934206044291
 20
0.3021741733461046
 30
0.0
 40
0.125
  1
3/4" x 3/4"
  0
TEXT
  5
3972A
  8
0
 10
1.592149218694469
 20
0.0917091892624302
 30
0.0
 40
0.125
  1
800.66.TAGUE
  0
ENDBLK
  5
3972C
  8
0
  0
BLOCK
  8
0
  2
*U109
 70
     1
 10
0.0
 20
0.0
 30
0.0
  3
*U109
  1

  0
TEXT
  5
3972E
  8
0
 10
1.935358187968665
 20
1.031573183991797
 30
0.0
 40
0.125
  1
Corner Moulding
  0
TEXT
  5
3972F
  8
0
 10
1.939962553589401
 20
0.8227282544783825
 30
0.0
 40
0.125
  1
TL-204
  0
TEXT
  5
39730
  8
0
 10
1.925040998337014
 20
0.6122632703947081
 30
0.0
 40
0.125
  1
1-3/8" x 1-3/8"
  0
TEXT
  5
39731
  8
0
 10
1.9369782425389239
 20
0.4017982863110337
 30
0.0
 40
0.125
  1
800.66.TAGUE
  0
ENDBLK
  5
39733
  8
0
  0
BLOCK
  8
0
  2
*U110
 70
     1
 10
0.0
 20
0.0
 30
0.0
  3
*U110
  1

  0
TEXT
  5
39735
  8
0
 10
1.8542205155787641
 20
0.9211791424976514
 30
0.0
 40
0.125
  1
Corner Moulding
  0
TEXT
  5
39736
  8
0
 10
1.858824881199501
 20
0.7123342129842363
 30
0.0
 40
0.125
  1
TL-205
  0
TEXT
  5
39737
  8
0
 10
1.8439033259471129
 20
0.5018692289005619
 30
0.0
 40
0.125
  1
1-1/8" x 1-1/8"
  0
TEXT
  5
39738
  8
0
 10
1.855840570149023
 20
0.2914042448168874
 30
0.0
 40
0.125
  1
800.66.TAGUE
  0
ENDBLK
  5
3973A
  8
0
  0
BLOCK
  8
0
  2
*U111
 70
     1
 10
0.0
 20
0.0
 30
0.0
  3
*U111
  1

  0
TEXT
  5
3973C
  8
0
 10
1.334185060618698
 20
0.6786227981105119
 30
0.0
 40
0.125
  1
Corner Moulding
  0
TEXT
  5
3973D
  8
0
 10
1.3387894262394351
 20
0.4697778685970966
 30
0.0
 40
0.125
  1
TL-206
  0
TEXT
  5
3973E
  8
0
 10
1.3355493170989159
 20
0.2593128845134221
 30
0.0
 40
0.125
  1
3/4" x 3/4"
  0
TEXT
  5
3973F
  8
0
 10
1.3358051151889569
 20
0.0488479004297477
 30
0.0
 40
0.125
  1
800.66.TAGUE
  0
ENDBLK
  5
39741
  8
0
  0
BLOCK
  8
0
  2
*U112
 70
     1
 10
0.0
 20
0.0
 30
0.0
  3
*U112
  1

  0
TEXT
  5
39743
  8
0
 10
1.823849037637477
 20
0.8585475398531504
 30
0.0
 40
0.125
  1
Cove
  0
TEXT
  5
39744
  8
0
 10
1.828453403258214
 20
0.6497026103397352
 30
0.0
 40
0.125
  1
TL-83
  0
TEXT
  5
39745
  8
0
 10
1.825298560147709
 20
0.4392376262560608
 30
0.0
 40
0.125
  1
9/16" x 2-5/8"
  0
TEXT
  5
39746
  8
0
 10
1.8254690922077359
 20
0.2287726421723863
 30
0.0
 40
0.125
  1
800.66.TAGUE
  0
ENDBLK
  5
39748
  8
0
  0
BLOCK
  8
0
  2
*U113
 70
     1
 10
0.0
 20
0.0
 30
0.0
  3
*U113
  1

  0
TEXT
  5
3974A
  8
0
 10
1.4372220564187941
 20
0.6786219190419321
 30
0.0
 40
0.125
  1
Cove
  0
TEXT
  5
3974B
  8
0
 10
1.4418264220395309
 20
0.4697769895285169
 30
0.0
 40
0.125
  1
TL-86
  0
TEXT
  5
3974C
  8
0
 10
1.4386715789290261
 20
0.2593120054448424
 30
0.0
 40
0.125
  1
9/16" x 1-5/8"
  0
TEXT
  5
3974D
  8
0
 10
1.438842110989053
 20
0.048847021361168
 30
0.0
 40
0.125
  1
800.66.TAGUE
  0
ENDBLK
  5
3974F
  8
0
  0
BLOCK
  8
0
  2
*U114
 70
     1
 10
0.0
 20
0.0
 30
0.0
  3
*U114
  1

  0
TEXT
  5
39751
  8
0
 10
1.5163761963436611
 20
0.6786216177161056
 30
0.0
 40
0.125
  1
Cove
  0
TEXT
  5
39752
  8
0
 10
1.5209805619643979
 20
0.4697766882026904
 30
0.0
 40
0.125
  1
TL-100
  0
TEXT
  5
39753
  8
0
 10
1.506059006712011
 20
0.2593117041190159
 30
0.0
 40
0.125
  1
11/16" x 11/16"
  0
TEXT
  5
39754
  8
0
 10
1.5179962509139211
 20
0.0488467200353415
 30
0.0
 40
0.125
  1
800.66.TAGUE
  0
ENDBLK
  5
39756
  8
0
  0
BLOCK
  8
0
  2
*U115
 70
     1
 10
0.0
 20
0.0
 30
0.0
  3
*U115
  1

  0
TEXT
  5
39758
  8
0
 10
1.281862643234239
 20
0.6786219754701666
 30
0.0
 40
0.125
  1
Cove
  0
TEXT
  5
39759
  8
0
 10
1.286467008854975
 20
0.4697770459567514
 30
0.0
 40
0.125
  1
TL-101
  0
TEXT
  5
3975A
  8
0
 10
1.2715454536025881
 20
0.259312061873077
 30
0.0
 40
0.125
  1
1/2" x 1/2"
  0
TEXT
  5
3975B
  8
0
 10
1.283482697804498
 20
0.0488470777894026
 30
0.0
 40
0.125
  1
800.66.TAGUE
  0
ENDBLK
  5
3975D
  8
0
  0
BLOCK
  8
0
  2
*U116
 70
     1
 10
0.0
 20
0.0
 30
0.0
  3
*U116
  1

  0
TEXT
  5
3975F
  8
0
 10
8.9871190848671514
 20
3.8959346082645121
 30
0.0
 40
0.125
  1
Cove
  0
TEXT
  5
39760
  8
0
 10
8.9917234504878873
 20
3.6870896787510969
 30
0.0
 40
0.125
  1
TL-542
  0
TEXT
  5
39761
  8
0
 10
8.9884833413473686
 20
3.4766246946674229
 30
0.0
 40
0.125
  1
3/4" x 4"
  0
TEXT
  5
39762
  8
0
 10
8.9887391394374099
 20
3.2661597105837492
 30
0.0
 40
0.125
  1
800.66.TAGUE
  0
ENDBLK
  5
39764
  8
0
  0
BLOCK
  8
0
  2
*U117
 70
     1
 10
0.0
 20
0.0
 30
0.0
  3
*U117
  1

  0
TEXT
  5
39766
  8
0
 10
2.0449744451125631
 20
2.5585391787528962
 30
0.0
 40
0.125
  1
Cove
  0
TEXT
  5
39767
  8
0
 10
2.0495788107332991
 20
2.349694249239481
 30
0.0
 40
0.125
  1
TL-542
  0
TEXT
  5
39768
  8
0
 10
2.0463387015927812
 20
2.139229265155806
 30
0.0
 40
0.125
  1
3/4" x 4"
  0
TEXT
  5
39769
  8
0
 10
2.046594499682822
 20
1.9287642810721319
 30
0.0
 40
0.125
  1
800.66.TAGUE
  0
ENDBLK
  5
3976B
  8
0
  0
BLOCK
  8
0
  2
*U118
 70
     1
 10
0.0
 20
0.0
 30
0.0
  3
*U118
  1

  0
TEXT
  5
3976D
  8
0
 10
1.972901825589735
 20
0.6861779570716795
 30
0.0
 40
0.125
  1
Cove
  0
TEXT
  5
3976E
  8
0
 10
1.977506191210471
 20
0.4773330275582644
 30
0.0
 40
0.125
  1
TL-2285
  0
TEXT
  5
3976F
  8
0
 10
1.9625846359580841
 20
0.2176457378811383
 30
0.0
 40
0.125
  1
1-
  0
TEXT
  5
39770
  8
0
 10
2.1127371939389841
 20
0.3048707378811382
 30
0.0
 40
0.087225
  1
3
  0
LINE
  5
39771
  8
0
 10
2.139480062265986
 20
0.233420200818031
 30
0.0
 11
2.2395404715874259
 21
0.3763212749442456
 31
0.0
  0
TEXT
  5
39772
  8
0
 10
2.202500802397374
 20
0.1885707378811383
 30
0.0
 40
0.087225
  1
4
  0
TEXT
  5
39773
  8
0
 10
2.2702102498735002
 20
0.2176457378811383
 30
0.0
 40
0.125
  1
" x 1-
  0
TEXT
  5
39774
  8
0
 10
2.6666963685638141
 20
0.3048707378811382
 30
0.0
 40
0.087225
  1
3
  0
LINE
  5
39775
  8
0
 10
2.6934392368908151
 20
0.233420200818031
 30
0.0
 11
2.793499646212255
 21
0.3763212749442456
 31
0.0
  0
TEXT
  5
39776
  8
0
 10
2.756459977022204
 20
0.1885707378811383
 30
0.0
 40
0.087225
  1
4
  0
TEXT
  5
39777
  8
0
 10
2.8241694244983289
 20
0.2176457378811383
 30
0.0
 40
0.125
  1
"
  0
TEXT
  5
39778
  8
0
 10
1.974521880159994
 20
0.0488474204641306
 30
0.0
 40
0.125
  1
800.66.TAGUE
  0
ENDBLK
  5
3977A
  8
0
  0
BLOCK
  8
0
  2
*U119
 70
     1
 10
0.0
 20
0.0
 30
0.0
  3
*U119
  1

  0
TEXT
  5
3977C
  8
0
 10
6.0916813895717663
 20
1.1589680224542569
 30
0.0
 40
0.125
  1
TL-539
  0
ENDBLK
  5
3977E
  8
0
  0
BLOCK
  8
0
  2
*U120
 70
     1
 10
0.0
 20
0.0
 30
0.0
  3
*U120
  1

  0
INSERT
  5
39780
  8
0
  2
_OPEN30
 10
5.5297396917334254
 20
1.423040350996984
 30
0.0
 41
0.046875
 42
0.046875
 43
0.046875
 50
156.5115553320598
  0
POLYLINE
  5
39781
  8
0
 66
     1
 10
0.0
 20
0.0
 30
0.0
  0
VERTEX
  5
39782
  8
0
 10
5.5727306514936332
 20
1.404357658367275
 30
0.0
  0
VERTEX
  5
39783
  8
0
 10
5.992991484785648
 20
1.221723820544298
 30
0.0
  0
VERTEX
  5
39784
  8
0
 10
6.0332741590124206
 20
1.221723820544298
 30
0.0
  0
SEQEND
  5
39785
  8
0
  0
ENDBLK
  5
39787
  8
0
  0
BLOCK
  8
0
  2
*U121
 70
     1
 10
0.0
 20
0.0
 30
0.0
  3
*U121
  1

  0
TEXT
  5
39789
  8
0
 10
8.2506161076617612
 20
3.659671552769634
 30
0.0
 40
0.125
  1
TL-25
  0
ENDBLK
  5
3978B
  8
0
  0
BLOCK
  8
0
  2
*U122
 70
     1
 10
0.0
 20
0.0
 30
0.0
  3
*U122
  1

  0
INSERT
  5
3978D
  8
0
  2
_OPEN30
 10
7.5943396585593632
 20
4.1117705265849054
 30
0.0
 41
0.046875
 42
0.046875
 43
0.046875
 50
143.83030806409641
  0
POLYLINE
  5
3978E
  8
0
 66
     1
 10
0.0
 20
0.0
 30
0.0
  0
VERTEX
  5
3978F
  8
0
 10
7.6321805623951144
 20
4.0841058989551424
 30
0.0
  0
VERTEX
  5
39790
  8
0
 10
8.1269005109553518
 20
3.7224273508596748
 30
0.0
  0
VERTEX
  5
39791
  8
0
 10
8.1922088771024164
 20
3.7224273508596748
 30
0.0
  0
SEQEND
  5
39792
  8
0
  0
ENDBLK
  5
39794
  8
0
  0
BLOCK
  8
0
  2
*U123
 70
     1
 10
0.0
 20
0.0
 30
0.0
  3
*U123
  1

  0
TEXT
  5
39796
  8
0
 10
7.4510287652605358
 20
2.3081779177865811
 30
0.0
 40
0.125
  1
Crown Assembly
  0
TEXT
  5
39797
  8
0
 10
7.4556331308812718
 20
2.0993329882731659
 30
0.0
 40
0.125
  1
TL-660
  0
TEXT
  5
39798
  8
0
 10
7.4523930217407539
 20
1.888868004189491
 30
0.0
 40
0.125
  1
3-1/4" x 5-5/8"
  0
TEXT
  5
39799
  8
0
 10
7.4526488198307952
 20
1.6784030201058171
 30
0.0
 40
0.125
  1
800.66.TAGUE
  0
ENDBLK
  5
3979B
  8
0
  0
BLOCK
  8
0
  2
*U124
 70
     1
 10
0.0
 20
0.0
 30
0.0
  3
*U124
  1

  0
TEXT
  5
3979D
  8
0
 10
11.100877515101759
 20
4.3482389803681532
 30
0.0
 40
0.125
  1
Crown Assembly
  0
TEXT
  5
3979E
  8
0
 10
11.1054818807225
 20
4.1393940508547384
 30
0.0
 40
0.125
  1
TL-661
  0
TEXT
  5
3979F
  8
0
 10
11.1073577333828
 20
3.928929066771063
 30
0.0
 40
0.125
  1
4-1/2" x 9-3/8"
  0
TEXT
  5
397A0
  8
0
 10
11.102497569672019
 20
3.7184640826873889
 30
0.0
 40
0.125
  1
800.66.TAGUE
  0
ENDBLK
  5
397A2
  8
0
  0
BLOCK
  8
0
  2
*U125
 70
     1
 10
0.0
 20
0.0
 30
0.0
  3
*U125
  1

  0
TEXT
  5
397A4
  8
0
 10
9.9973648083120619
 20
4.7141156879961379
 30
0.0
 40
0.125
  1
TL-238
  0
ENDBLK
  5
397A6
  8
0
  0
BLOCK
  8
0
  2
*U126
 70
     1
 10
0.0
 20
0.0
 30
0.0
  3
*U126
  1

  0
INSERT
  5
397A8
  8
0
  2
_OPEN30
 10
9.1771961149673302
 20
5.3422014599419754
 30
0.0
 41
0.046875
 42
0.046875
 43
0.046875
 50
140.13823031629951
  0
POLYLINE
  5
397A9
  8
0
 66
     1
 10
0.0
 20
0.0
 30
0.0
  0
VERTEX
  5
397AA
  8
0
 10
9.2131770361390952
 20
5.3121575098582854
 30
0.0
  0
VERTEX
  5
397AB
  8
0
 10
9.8542406836302234
 20
4.7768714860861792
 30
0.0
  0
VERTEX
  5
397AC
  8
0
 10
9.938957577752717
 20
4.7768714860861792
 30
0.0
  0
SEQEND
  5
397AD
  8
0
  0
ENDBLK
  5
397AF
  8
0
  0
BLOCK
  8
0
  2
*U127
 70
     1
 10
0.0
 20
0.0
 30
0.0
  3
*U127
  1

  0
TEXT
  5
397B1
  8
0
 10
9.2979572148710243
 20
1.0810665778271971
 30
0.0
 40
0.125
  1
TL-64
  0
ENDBLK
  5
397B3
  8
0
  0
BLOCK
  8
0
  2
*U128
 70
     1
 10
0.0
 20
0.0
 30
0.0
  3
*U128
  1

  0
INSERT
  5
397B5
  8
0
  2
_OPEN30
 10
8.6422745705577313
 20
1.642559297640787
 30
0.0
 41
0.046875
 42
0.046875
 43
0.046875
 50
135.79936825235271
  0
POLYLINE
  5
397B6
  8
0
 66
     1
 10
0.0
 20
0.0
 30
0.0
  0
VERTEX
  5
397B7
  8
0
 10
8.6758793949613793
 20
1.6098793129131279
 30
0.0
  0
VERTEX
  5
397B8
  8
0
 10
9.1442411396712941
 20
1.1544073699477619
 30
0.0
  0
VERTEX
  5
397B9
  8
0
 10
9.2395499843116795
 20
1.1438223759172379
 30
0.0
  0
SEQEND
  5
397BA
  8
0
  0
ENDBLK
  5
397BC
  8
0
  0
BLOCK
  8
0
  2
*U129
 70
     1
 10
0.0
 20
0.0
 30
0.0
  3
*U129
  1

  0
TEXT
  5
397BE
  8
0
 10
8.7532801379956631
 20
2.9571153571353181
 30
0.0
 40
0.125
  1
1 x 6 Board
  0
ENDBLK
  5
397C0
  8
0
  0
BLOCK
  8
0
  2
*U130
 70
     1
 10
0.0
 20
0.0
 30
0.0
  3
*U130
  1

  0
INSERT
  5
397C2
  8
0
  2
_OPEN30
 10
8.1167699671577793
 20
3.019871155225359
 30
0.0
 41
0.046875
 42
0.046875
 43
0.046875
 50
180.0
  0
POLYLINE
  5
397C3
  8
0
 66
     1
 10
0.0
 20
0.0
 30
0.0
  0
VERTEX
  5
397C4
  8
0
 10
8.1636449671577793
 20
3.019871155225359
 30
0.0
  0
VERTEX
  5
397C5
  8
0
 10
8.7097944626887056
 20
3.019871155225359
 30
0.0
  0
SEQEND
  5
397C6
  8
0
  0
ENDBLK
  5
397C8
  8
0
  0
BLOCK
  8
0
  2
*U131
 70
     1
 10
0.0
 20
0.0
 30
0.0
  3
*U131
  1

  0
TEXT
  5
397CA
  8
0
 10
9.3508379695960624
 20
3.9746409328325849
 30
0.0
 40
0.125
  1
TL-54
  0
ENDBLK
  5
397CC
  8
0
  0
BLOCK
  8
0
  2
*U132
 70
     1
 10
0.0
 20
0.0
 30
0.0
  3
*U132
  1

  0
INSERT
  5
397CE
  8
0
  2
_OPEN30
 10
8.5596004878627241
 20
4.5802047155393657
 30
0.0
 41
0.046875
 42
0.046875
 43
0.046875
 50
140.0397693589118
  0
POLYLINE
  5
397CF
  8
0
 66
     1
 10
0.0
 20
0.0
 30
0.0
  0
VERTEX
  5
397D0
  8
0
 10
8.59552972636817
 20
4.5500989777902472
 30
0.0
  0
VERTEX
  5
397D1
  8
0
 10
9.2077117660230652
 20
4.0371409328325853
 30
0.0
  0
VERTEX
  5
397D2
  8
0
 10
9.2924307390367176
 20
4.0371409328325853
 30
0.0
  0
SEQEND
  5
397D3
  8
0
  0
ENDBLK
  5
397D5
  8
0
  0
BLOCK
  8
0
  2
*U133
 70
     1
 10
0.0
 20
0.0
 30
0.0
  3
*U133
  1

  0
TEXT
  5
397D7
  8
0
 10
11.67173909884349
 20
7.0992410855625394
 30
0.0
 40
0.125
  1
TL-47
  0
ENDBLK
  5
397D9
  8
0
  0
BLOCK
  8
0
  2
*U134
 70
     1
 10
0.0
 20
0.0
 30
0.0
  3
*U134
  1

  0
INSERT
  5
397DB
  8
0
  2
_OPEN30
 10
10.865727544193421
 20
7.6405095440040887
 30
0.0
 41
0.046875
 42
0.046875
 43
0.046875
 50
143.72235556643869
  0
POLYLINE
  5
397DC
  8
0
 66
     1
 10
0.0
 20
0.0
 30
0.0
  0
VERTEX
  5
397DD
  8
0
 10
10.903516257235109
 20
7.6127736684698251
 30
0.0
  0
VERTEX
  5
397DE
  8
0
 10
11.518025102534921
 20
7.1617410855625394
 30
0.0
  0
VERTEX
  5
397DF
  8
0
 10
11.613331868284151
 20
7.1617410855625394
 30
0.0
  0
SEQEND
  5
397E0
  8
0
  0
ENDBLK
  5
397E2
  8
0
  0
BLOCK
  8
0
  2
*U135
 70
     1
 10
0.0
 20
0.0
 30
0.0
  3
*U135
  1

  0
TEXT
  5
397E4
  8
0
 10
10.306078575796199
 20
1.991254863143028
 30
0.0
 40
0.125
  1
Crown Assembly
  0
TEXT
  5
397E5
  8
0
 10
10.31068294141693
 20
1.7824099336296131
 30
0.0
 40
0.125
  1
TL-662
  0
TEXT
  5
397E6
  8
0
 10
10.31255879407723
 20
1.5719449495459381
 30
0.0
 40
0.125
  1
4-3/8" x 5"
  0
TEXT
  5
397E7
  8
0
 10
10.307698630366451
 20
1.361479965462264
 30
0.0
 40
0.125
  1
800.66.TAGUE
  0
ENDBLK
  5
397E9
  8
0
  0
BLOCK
  8
0
  2
*U136
 70
     1
 10
0.0
 20
0.0
 30
0.0
  3
*U136
  1

  0
TEXT
  5
397EB
  8
0
 10
8.4907133848708494
 20
0.0967622511747205
 30
0.0
 40
0.125
  1
TL-623
  0
ENDBLK
  5
397ED
  8
0
  0
BLOCK
  8
0
  2
*U137
 70
     1
 10
0.0
 20
0.0
 30
0.0
  3
*U137
  1

  0
INSERT
  5
397EF
  8
0
  2
_OPEN30
 10
7.8166701362065956
 20
0.6199995871735382
 30
0.0
 41
0.046875
 42
0.046875
 43
0.046875
 50
138.3966245586565
  0
POLYLINE
  5
397F0
  8
0
 66
     1
 10
0.0
 20
0.0
 30
0.0
  0
VERTEX
  5
397F1
  8
0
 10
7.8517213381880619
 20
0.588875980945235
 30
0.0
  0
VERTEX
  5
397F2
  8
0
 10
8.3352614355432024
 20
0.1595180492647614
 30
0.0
  0
VERTEX
  5
397F3
  8
0
 10
8.4323061543115045
 20
0.1595180492647614
 30
0.0
  0
SEQEND
  5
397F4
  8
0
  0
ENDBLK
  5
397F6
  8
0
  0
BLOCK
  8
0
  2
*U138
 70
     1
 10
0.0
 20
0.0
 30
0.0
  3
*U138
  1

  0
TEXT
  5
397F8
  8
0
 10
9.5905632324050352
 20
2.4357622671589061
 30
0.0
 40
0.125
  1
TL-547
  0
ENDBLK
  5
397FA
  8
0
  0
BLOCK
  8
0
  2
*U139
 70
     1
 10
0.0
 20
0.0
 30
0.0
  3
*U139
  1

  0
INSERT
  5
397FC
  8
0
  2
_OPEN30
 10
8.9379372763926312
 20
3.012476083171463
 30
0.0
 41
0.046875
 42
0.046875
 43
0.046875
 50
134.64930297028991
  0
POLYLINE
  5
397FD
  8
0
 66
     1
 10
0.0
 20
0.0
 30
0.0
  0
VERTEX
  5
397FE
  8
0
 10
8.9708794087728574
 20
2.9791281965930958
 30
0.0
  0
VERTEX
  5
397FF
  8
0
 10
9.4458944915828624
 20
2.4982622671589061
 30
0.0
  0
VERTEX
  5
39800
  8
0
 10
9.5321560018456921
 20
2.4982622671589061
 30
0.0
  0
SEQEND
  5
39801
  8
0
  0
ENDBLK
  5
39803
  8
0
  0
BLOCK
  8
0
  2
*U140
 70
     1
 10
0.0
 20
0.0
 30
0.0
  3
*U140
  1

  0
TEXT
  5
39805
  8
0
 10
11.520691030397129
 20
3.912039811269675
 30
0.0
 40
0.125
  1
TL-623
  0
ENDBLK
  5
39807
  8
0
  0
BLOCK
  8
0
  2
*U141
 70
     1
 10
0.0
 20
0.0
 30
0.0
  3
*U141
  1

  0
INSERT
  5
39809
  8
0
  2
_OPEN30
 10
11.020454893837719
 20
4.3488596077285129
 30
0.0
 41
0.046875
 42
0.046875
 43
0.046875
 50
131.85755087258991
  0
POLYLINE
  5
3980A
  8
0
 66
     1
 10
0.0
 20
0.0
 30
0.0
  0
VERTEX
  5
3980B
  8
0
 10
11.051733687379979
 20
4.3139468206793472
 30
0.0
  0
VERTEX
  5
3980C
  8
0
 10
11.36523908106949
 20
3.9640181370855312
 30
0.0
  0
VERTEX
  5
3980D
  8
0
 10
11.46302804287723
 20
3.9642485872277571
 30
0.0
  0
SEQEND
  5
3980E
  8
0
  0
ENDBLK
  5
39810
  8
0
  0
BLOCK
  8
0
  2
*U142
 70
     1
 10
0.0
 20
0.0
 30
0.0
  3
*U142
  1

  0
TEXT
  5
39812
  8
0
 10
9.2456145386519548
 20
1.830235825918082
 30
0.0
 40
0.125
  1
Crown Assembly
  0
TEXT
  5
39813
  8
0
 10
9.2502189042726908
 20
1.621390896404667
 30
0.0
 40
0.125
  1
TL-663
  0
TEXT
  5
39814
  8
0
 10
9.2491957119125274
 20
1.4109259123209921
 30
0.0
 40
0.125
  1
2-11/16" x 4-1/4"
  0
TEXT
  5
39815
  8
0
 10
9.2472345932222133
 20
1.200460928237318
 30
0.0
 40
0.125
  1
800.66.TAGUE
  0
ENDBLK
  5
39817
  8
0
  0
BLOCK
  8
0
  2
*U143
 70
     1
 10
0.0
 20
0.0
 30
0.0
  3
*U143
  1

  0
TEXT
  5
39819
  8
0
 10
7.0011486317315006
 20
0.0994237416013103
 30
0.0
 40
0.125
  1
TL-56
  0
ENDBLK
  5
3981B
  8
0
  0
BLOCK
  8
0
  2
*U144
 70
     1
 10
0.0
 20
0.0
 30
0.0
  3
*U144
  1

  0
INSERT
  5
3981D
  8
0
  2
_OPEN30
 10
6.1447636050547771
 20
0.8025867523464285
 30
0.0
 41
0.046875
 42
0.046875
 43
0.046875
 50
136.0557062383902
  0
POLYLINE
  5
3981E
  8
0
 66
     1
 10
0.0
 20
0.0
 30
0.0
  0
VERTEX
  5
3981F
  8
0
 10
6.1785143010030019
 20
0.7700574402109038
 30
0.0
  0
VERTEX
  5
39820
  8
0
 10
6.8092163001293784
 20
0.1621795396913512
 30
0.0
  0
VERTEX
  5
39821
  8
0
 10
6.9427414011721558
 20
0.1621795396913512
 30
0.0
  0
SEQEND
  5
39822
  8
0
  0
ENDBLK
  5
39824
  8
0
  0
BLOCK
  8
0
  2
*U145
 70
     1
 10
0.0
 20
0.0
 30
0.0
  3
*U145
  1

  0
TEXT
  5
39826
  8
0
 10
7.4758184206721721
 20
1.2018846043570841
 30
0.0
 40
0.125
  1
1-1/16" x 1-7/8"
  0
TEXT
  5
39827
  8
0
 10
7.4943211491851329
 20
0.9914196202734098
 30
0.0
 40
0.125
  1
w/ 3/8" Bead
  0
ENDBLK
  5
39829
  8
0
  0
BLOCK
  8
0
  2
*U146
 70
     1
 10
0.0
 20
0.0
 30
0.0
  3
*U146
  1

  0
INSERT
  5
3982B
  8
0
  2
_OPEN30
 10
6.8403616286130378
 20
1.6201217739683209
 30
0.0
 41
0.046875
 42
0.046875
 43
0.046875
 50
143.32430708272619
  0
POLYLINE
  5
3982C
  8
0
 66
     1
 10
0.0
 20
0.0
 30
0.0
  0
VERTEX
  5
3982D
  8
0
 10
6.8779567430390864
 20
1.592124041983527
 30
0.0
  0
VERTEX
  5
3982E
  8
0
 10
7.316611268313749
 20
1.265450429732254
 30
0.0
  0
VERTEX
  5
3982F
  8
0
 10
7.4323327453652146
 20
1.265450429732254
 30
0.0
  0
SEQEND
  5
39830
  8
0
  0
ENDBLK
  5
39832
  8
0
  0
BLOCK
  8
0
  2
*U147
 70
     1
 10
0.0
 20
0.0
 30
0.0
  3
*U147
  1

  0
TEXT
  5
39834
  8
0
 10
8.2206740073252771
 20
2.3682472913577719
 30
0.0
 40
0.125
  1
TL-71
  0
ENDBLK
  5
39836
  8
0
  0
BLOCK
  8
0
  2
*U148
 70
     1
 10
0.0
 20
0.0
 30
0.0
  3
*U148
  1

  0
INSERT
  5
39838
  8
0
  2
_OPEN30
 10
7.732786633242994
 20
2.897502127018015
 30
0.0
 41
0.046875
 42
0.046875
 43
0.046875
 50
127.3606991348481
  0
POLYLINE
  5
39839
  8
0
 66
     1
 10
0.0
 20
0.0
 30
0.0
  0
VERTEX
  5
3983A
  8
0
 10
7.7612318262646021
 20
2.8602444215201781
 30
0.0
  0
VERTEX
  5
3983B
  8
0
 10
8.0821525476966372
 20
2.4399002980619571
 30
0.0
  0
VERTEX
  5
3983C
  8
0
 10
8.1622667767659323
 20
2.4310030894478132
 30
0.0
  0
SEQEND
  5
3983D
  8
0
  0
ENDBLK
  5
3983F
  8
0
  0
BLOCK
  8
0
  2
*U149
 70
     1
 10
0.0
 20
0.0
 30
0.0
  3
*U149
  1

  0
TEXT
  5
39841
  8
0
 10
8.3234330435333614
 20
1.414021240929644
 30
0.0
 40
0.125
  1
Crown Assembly
  0
TEXT
  5
39842
  8
0
 10
8.3280374091540974
 20
1.2051763114162291
 30
0.0
 40
0.125
  1
TL-664
  0
TEXT
  5
39843
  8
0
 10
8.3247973000135786
 20
0.9947113273325546
 30
0.0
 40
0.125
  1
3-1/16" x 4-1/4"
  0
TEXT
  5
39844
  8
0
 10
8.3250530981036182
 20
0.7842463432488803
 30
0.0
 40
0.125
  1
800.66.TAGUE
  0
ENDBLK
  5
39846
  8
0
  0
BLOCK
  8
0
  2
*U150
 70
     1
 10
0.0
 20
0.0
 30
0.0
  3
*U150
  1

  0
TEXT
  5
39848
  8
0
 10
6.7733031137018482
 20
0.0417615579446075
 30
0.0
 40
0.125
  1
TL-B3
  0
ENDBLK
  5
3984A
  8
0
  0
BLOCK
  8
0
  2
*U151
 70
     1
 10
0.0
 20
0.0
 30
0.0
  3
*U151
  1

  0
INSERT
  5
3984C
  8
0
  2
_OPEN30
 10
6.0277617672714987
 20
0.5589010370247252
 30
0.0
 41
0.046875
 42
0.046875
 43
0.046875
 50
143.10777595702231
  0
POLYLINE
  5
3984D
  8
0
 66
     1
 10
0.0
 20
0.0
 30
0.0
  0
VERTEX
  5
3984E
  8
0
 10
6.065250804980173
 20
0.5307614265676202
 30
0.0
  0
VERTEX
  5
3984F
  8
0
 10
6.6427250972388938
 20
0.0973040047092582
 30
0.0
  0
VERTEX
  5
39850
  8
0
 10
6.716868750864136
 20
0.0942112590512352
 30
0.0
  0
SEQEND
  5
39851
  8
0
  0
ENDBLK
  5
39853
  8
0
  0
BLOCK
  8
0
  2
*U152
 70
     1
 10
0.0
 20
0.0
 30
0.0
  3
*U152
  1

  0
TEXT
  5
39855
  8
0
 10
7.886387182432661
 20
2.2482273942292861
 30
0.0
 40
0.125
  1
TL-49
  0
ENDBLK
  5
39857
  8
0
  0
BLOCK
  8
0
  2
*U153
 70
     1
 10
0.0
 20
0.0
 30
0.0
  3
*U153
  1

  0
INSERT
  5
39859
  8
0
  2
_OPEN30
 10
7.253797201372719
 20
2.7268635825205361
 30
0.0
 41
0.046875
 42
0.046875
 43
0.046875
 50
136.21869819866211
  0
POLYLINE
  5
3985A
  8
0
 66
     1
 10
0.0
 20
0.0
 30
0.0
  0
VERTEX
  5
3985B
  8
0
 10
7.2876402982734163
 20
2.6944304140479658
 30
0.0
  0
VERTEX
  5
3985C
  8
0
 10
7.6877566634765344
 20
2.310983192319326
 30
0.0
  0
VERTEX
  5
3985D
  8
0
 10
7.8279799518733171
 20
2.310983192319326
 30
0.0
  0
SEQEND
  5
3985E
  8
0
  0
ENDBLK
  5
39860
  8
0
  0
BLOCK
  8
0
  2
*U154
 70
     1
 10
0.0
 20
0.0
 30
0.0
  3
*U154
  1

  0
INSERT
  5
39862
  8
0
  6
CONTINUOUS
  2
_OPEN30
 10
16.890010925503759
 20
4.0998827605750421
 30
0.0
 41
0.046875
 42
0.046875
 43
0.046875
 50
220.32439975277339
  0
POLYLINE
  5
39863
  8
0
  6
CONTINUOUS
 66
     1
 10
0.0
 20
0.0
 30
0.0
  0
VERTEX
  5
39864
  8
0
  6
CONTINUOUS
 10
16.92574808899867
 20
4.1302162531259778
 30
0.0
  0
VERTEX
  5
39865
  8
0
  6
CONTINUOUS
 10
17.378553106259119
 20
4.5145544678824763
 30
0.0
  0
VERTEX
  5
39866
  8
0
  6
CONTINUOUS
 10
17.468327545948402
 20
4.5145544678824763
 30
0.0
  0
SEQEND
  5
39867
  8
0
  6
CONTINUOUS
  0
ENDBLK
  5
39869
  8
0
  0
BLOCK
  8
0
  2
*U155
 70
     1
 10
0.0
 20
0.0
 30
0.0
  3
*U155
  1

  0
TEXT
  5
3986B
  8
0
 10
17.526734776507741
 20
4.451798669792435
 30
0.0
 40
0.125
  1
TL-542
  0
ENDBLK
  5
3986D
  8
0
  0
BLOCK
  8
0
  2
*U156
 70
     1
 10
0.0
 20
0.0
 30
0.0
  3
*U156
  1

  0
INSERT
  5
3986F
  8
0
  6
CONTINUOUS
  2
_OPEN30
 10
13.390010925503759
 20
4.5373827605750421
 30
0.0
 41
0.046875
 42
0.046875
 43
0.046875
 50
110.44249644019671
  0
POLYLINE
  5
39870
  8
0
  6
CONTINUOUS
 66
     1
 10
0.0
 20
0.0
 30
0.0
  0
VERTEX
  5
39871
  8
0
  6
CONTINUOUS
 10
13.40638282250643
 20
4.4934597983168567
 30
0.0
  0
VERTEX
  5
39872
  8
0
  6
CONTINUOUS
 10
13.78538853520223
 20
3.4766531563219578
 30
0.0
  0
VERTEX
  5
39873
  8
0
  6
CONTINUOUS
 10
13.93846127658429
 20
3.4766531563219578
 30
0.0
  0
SEQEND
  5
39874
  8
0
  6
CONTINUOUS
  0
ENDBLK
  5
39876
  8
0
  0
BLOCK
  8
0
  2
*U157
 70
     1
 10
0.0
 20
0.0
 30
0.0
  3
*U157
  1

  0
TEXT
  5
39878
  8
0
 10
13.981946951891249
 20
3.413897358231917
 30
0.0
 40
0.125
  1
1 x 6 Board
  0
ENDBLK
  5
3987A
  8
0
  0
BLOCK
  8
0
  2
*U158
 70
     1
 10
0.0
 20
0.0
 30
0.0
  3
*U158
  1

  0
INSERT
  5
3987C
  8
0
  6
CONTINUOUS
  2
_OPEN30
 10
11.87770156644649
 20
2.3649564226565181
 30
0.0
 41
0.046875
 42
0.046875
 43
0.046875
 50
130.18882139360491
  0
POLYLINE
  5
3987D
  8
0
  6
CONTINUOUS
 66
     1
 10
0.0
 20
0.0
 30
0.0
  0
VERTEX
  5
3987E
  8
0
  6
CONTINUOUS
 10
11.907950409704521
 20
2.3291475814779599
 30
0.0
  0
VERTEX
  5
3987F
  8
0
  6
CONTINUOUS
 10
12.248739654318509
 20
1.9257183385265071
 30
0.0
  0
VERTEX
  5
39880
  8
0
  6
CONTINUOUS
 10
12.312149687699391
 20
1.9257183385265071
 30
0.0
  0
SEQEND
  5
39881
  8
0
  6
CONTINUOUS
  0
ENDBLK
  5
39883
  8
0
  0
BLOCK
  8
0
  2
*U159
 70
     1
 10
0.0
 20
0.0
 30
0.0
  3
*U159
  1

  0
TEXT
  5
39885
  8
0
 10
12.37055691825873
 20
1.862962540436466
 30
0.0
 40
0.125
  1
TL-33
  0
ENDBLK
  5
39887
  8
0
  0
BLOCK
  8
0
  2
*U160
 70
     1
 10
0.0
 20
0.0
 30
0.0
  3
*U160
  1

  0
INSERT
  5
39889
  8
0
  6
CONTINUOUS
  2
_OPEN30
 10
18.394001282817442
 20
6.4209189786757861
 30
0.0
 41
0.046875
 42
0.046875
 43
0.046875
 50
123.0920274041645
  0
POLYLINE
  5
3988A
  8
0
  6
CONTINUOUS
 66
     1
 10
0.0
 20
0.0
 30
0.0
  0
VERTEX
  5
3988B
  8
0
  6
CONTINUOUS
 10
18.419594347917641
 20
6.38164735222899
 30
0.0
  0
VERTEX
  5
3988C
  8
0
  6
CONTINUOUS
 10
18.6491653891635
 20
6.0293789490693817
 30
0.0
  0
VERTEX
  5
3988D
  8
0
  6
CONTINUOUS
 10
18.752054828682841
 20
6.0293789490693817
 30
0.0
  0
SEQEND
  5
3988E
  8
0
  6
CONTINUOUS
  0
ENDBLK
  5
39890
  8
0
  0
BLOCK
  8
0
  2
*U161
 70
     1
 10
0.0
 20
0.0
 30
0.0
  3
*U161
  1

  0
TEXT
  5
39892
  8
0
 10
18.810462059242191
 20
5.9666231509793421
 30
0.0
 40
0.125
  1
TL-24
  0
ENDBLK
  5
39894
  8
0
  0
BLOCK
  8
0
  2
*U162
 70
     1
 10
0.0
 20
0.0
 30
0.0
  3
*U162
  1

  0
TEXT
  5
39896
  8
0
 10
15.59678431273241
 20
2.213317815843554
 30
0.0
 40
0.125
  1
Crown Assembly
  0
TEXT
  5
39897
  8
0
 10
15.60138867835315
 20
2.0044728863301389
 30
0.0
 40
0.125
  1
TL-665
  0
TEXT
  5
39898
  8
0
 10
15.59840436730267
 20
1.7940079022464639
 30
0.0
 40
0.125
  1
8-3/8" x 7-7/8"
  0
TEXT
  5
39899
  8
0
 10
15.59840436730267
 20
1.58354291816279
 30
0.0
 40
0.125
  1
800.66.TAGUE
  0
ENDBLK
  5
3989B
  8
0
  0
BLOCK
  8
0
  2
*U163
 70
     1
 10
0.0
 20
0.0
 30
0.0
  3
*U163
  1

  0
TEXT
  5
3989D
  8
0
 10
7.9349246968354574
 20
1.686007980218635
 30
0.0
 40
0.125
  1
Crown Assembly
  0
TEXT
  5
3989E
  8
0
 10
7.9395290624561934
 20
1.47716305070522
 30
0.0
 40
0.125
  1
TL-667
  0
TEXT
  5
3989F
  8
0
 10
7.93850587009603
 20
1.266698066621545
 30
0.0
 40
0.125
  1
2-5/16" x 3-3/4"
  0
TEXT
  5
398A0
  8
0
 10
7.936544751405715
 20
1.056233082537871
 30
0.0
 40
0.125
  1
800.66.TAGUE
  0
ENDBLK
  5
398A2
  8
0
  0
BLOCK
  8
0
  2
*U164
 70
     1
 10
0.0
 20
0.0
 30
0.0
  3
*U164
  1

  0
INSERT
  5
398A4
  8
0
  6
CONTINUOUS
  2
_OPEN30
 10
7.009055351416122
 20
3.050768134400982
 30
0.0
 41
0.046875
 42
0.046875
 43
0.046875
 50
142.35807926426151
  0
POLYLINE
  5
398A5
  8
0
  6
CONTINUOUS
 66
     1
 10
0.0
 20
0.0
 30
0.0
  0
VERTEX
  5
398A6
  8
0
  6
CONTINUOUS
 10
7.0461729927749328
 20
3.0221404148802331
 30
0.0
  0
VERTEX
  5
398A7
  8
0
  6
CONTINUOUS
 10
7.4803814790067227
 20
2.6872484793391318
 30
0.0
  0
VERTEX
  5
398A8
  8
0
  6
CONTINUOUS
 10
7.5548900131420851
 20
2.679804310467147
 30
0.0
  0
SEQEND
  5
398A9
  8
0
  6
CONTINUOUS
  0
ENDBLK
  5
398AB
  8
0
  0
BLOCK
  8
0
  2
*U165
 70
     1
 10
0.0
 20
0.0
 30
0.0
  3
*U165
  1

  0
TEXT
  5
398AD
  8
0
 10
7.613297243701429
 20
2.617048512377107
 30
0.0
 40
0.125
  1
TL-71
  0
ENDBLK
  5
398AF
  8
0
  0
BLOCK
  8
0
  2
*U166
 70
     1
 10
0.0
 20
0.0
 30
0.0
  3
*U166
  1

  0
INSERT
  5
398B1
  8
0
  6
CONTINUOUS
  2
_OPEN30
 10
5.8181306020992452
 20
0.8521781666523793
 30
0.0
 41
0.046875
 42
0.046875
 43
0.046875
 50
142.35807926426151
  0
POLYLINE
  5
398B2
  8
0
  6
CONTINUOUS
 66
     1
 10
0.0
 20
0.0
 30
0.0
  0
VERTEX
  5
398B3
  8
0
  6
CONTINUOUS
 10
5.8552482434580551
 20
0.8235504471316302
 30
0.0
  0
VERTEX
  5
398B4
  8
0
  6
CONTINUOUS
 10
6.2894567296898449
 20
0.4886585115905291
 30
0.0
  0
VERTEX
  5
398B5
  8
0
  6
CONTINUOUS
 10
6.3639652638252073
 20
0.4812143427185447
 30
0.0
  0
SEQEND
  5
398B6
  8
0
  6
CONTINUOUS
  0
ENDBLK
  5
398B8
  8
0
  0
BLOCK
  8
0
  2
*U167
 70
     1
 10
0.0
 20
0.0
 30
0.0
  3
*U167
  1

  0
TEXT
  5
398BA
  8
0
 10
1.551308446705467
 20
9.4290439625366549
 30
0.0
 40
0.125
  1
Crown Moulding Backer
  0
TEXT
  5
398BB
  8
0
 10
1.5559128123262029
 20
9.2201990330232402
 30
0.0
 40
0.125
  1
TL-539
  0
TEXT
  5
398BC
  8
0
 10
1.552757969215699
 20
9.0097340489395652
 30
0.0
 40
0.125
  1
9/16" x 3-5/16"
  0
TEXT
  5
398BD
  8
0
 10
1.5529285012757259
 20
8.7992690648558902
 30
0.0
 40
0.125
  1
800.66.TAGUE
  0
ENDBLK
  5
398BF
  8
0
  0
BLOCK
  8
0
  2
*U168
 70
     1
 10
0.0
 20
0.0
 30
0.0
  3
*U168
  1

  0
TEXT
  5
398C1
  8
0
 10
1.787541778833746
 20
0.8152779313428641
 30
0.0
 40
0.125
  1
Crown Moulding
  0
TEXT
  5
398C2
  8
0
 10
1.7921461444544831
 20
0.6064330018294492
 30
0.0
 40
0.125
  1
TL-23
  0
TEXT
  5
398C3
  8
0
 10
1.787968108983814
 20
0.3959680177457746
 30
0.0
 40
0.125
  1
7/8" x 3-3/16"
  0
TEXT
  5
398C4
  8
0
 10
1.7891618334040049
 20
0.1855030336621002
 30
0.0
 40
0.125
  1
800.66.TAGUE
  0
ENDBLK
  5
398C6
  8
0
  0
BLOCK
  8
0
  2
*U169
 70
     1
 10
0.0
 20
0.0
 30
0.0
  3
*U169
  1

  0
TEXT
  5
398C8
  8
0
 10
2.2018711328786691
 20
0.9729018122572075
 30
0.0
 40
0.125
  1
Crown
  0
TEXT
  5
398C9
  8
0
 10
2.2064754984994059
 20
0.7640568827437924
 30
0.0
 40
0.125
  1
TL-24
  0
TEXT
  5
398CA
  8
0
 10
2.191553943247019
 20
0.5535918986601179
 30
0.0
 40
0.125
  1
1" x 3-1/2"
  0
TEXT
  5
398CB
  8
0
 10
2.2034911874489289
 20
0.3431269145764435
 30
0.0
 40
0.125
  1
800.66.TAGUE
  0
ENDBLK
  5
398CD
  8
0
  0
BLOCK
  8
0
  2
*U170
 70
     1
 10
0.0
 20
0.0
 30
0.0
  3
*U170
  1

  0
TEXT
  5
398CF
  8
0
 10
2.4799582647584422
 20
1.4094768675851279
 30
0.0
 40
0.125
  1
Crown Moulding
  0
TEXT
  5
398D0
  8
0
 10
2.484562630379179
 20
1.200631938071713
 30
0.0
 40
0.125
  1
TL-25
  0
TEXT
  5
398D1
  8
0
 10
2.4696410751267912
 20
0.9901669539880392
 30
0.0
 40
0.125
  1
1-1/8" x 4-13/16"
  0
TEXT
  5
398D2
  8
0
 10
2.4815783193287011
 20
0.7797019699043649
 30
0.0
 40
0.125
  1
800.66.TAGUE
  0
ENDBLK
  5
398D4
  8
0
  0
BLOCK
  8
0
  2
*U171
 70
     1
 10
0.0
 20
0.0
 30
0.0
  3
*U171
  1

  0
TEXT
  5
398D6
  8
0
 10
2.2862448005914522
 20
8.6801380419453995
 30
0.0
 40
0.125
  1
Crown Moulding
  0
TEXT
  5
398D7
  8
0
 10
2.290849166212189
 20
8.4712931124319848
 30
0.0
 40
0.125
  1
TL-26
  0
TEXT
  5
398D8
  8
0
 10
2.28667113074152
 20
8.2608281283483098
 30
0.0
 40
0.125
  1
7/8" x 4-7/16"
  0
TEXT
  5
398D9
  8
0
 10
2.2878648551617111
 20
8.0503631442646348
 30
0.0
 40
0.125
  1
800.66.TAGUE
  0
ENDBLK
  5
398DB
  8
0
  0
BLOCK
  8
0
  2
*U172
 70
     1
 10
0.0
 20
0.0
 30
0.0
  3
*U172
  1

  0
TEXT
  5
398DD
  8
0
 10
2.47366955595712
 20
1.8485788132224039
 30
0.0
 40
0.125
  1
Crown Moulding
  0
TEXT
  5
398DE
  8
0
 10
2.4782739215778569
 20
1.639733883708989
 30
0.0
 40
0.125
  1
TL-48
  0
TEXT
  5
398DF
  8
0
 10
2.4633523663254699
 20
1.4292688996253149
 30
0.0
 40
0.125
  1
11/16" x 5-1/4"
  0
TEXT
  5
398E0
  8
0
 10
2.4752896105273798
 20
1.2188039155416399
 30
0.0
 40
0.125
  1
800.66.TAGUE
  0
ENDBLK
  5
398E2
  8
0
  0
BLOCK
  8
0
  2
*U173
 70
     1
 10
0.0
 20
0.0
 30
0.0
  3
*U173
  1

  0
TEXT
  5
398E4
  8
0
 10
2.3704616662601881
 20
1.5393707616764389
 30
0.0
 40
0.125
  1
Crown Moulding
  0
TEXT
  5
398E5
  8
0
 10
2.3750660318809249
 20
1.331037428343105
 30
0.0
 40
0.125
  1
TL-47
  0
TEXT
  5
398E6
  8
0
 10
2.3601444766285371
 20
1.1205724442594309
 30
0.0
 40
0.125
  1
11/16" x 4-5/8"
  0
TEXT
  5
398E7
  8
0
 10
2.372081720830447
 20
0.9101074601757571
 30
0.0
 40
0.125
  1
800.66.TAGUE
  0
ENDBLK
  5
398E9
  8
0
  0
BLOCK
  8
0
  2
*U174
 70
     1
 10
0.0
 20
0.0
 30
0.0
  3
*U174
  1

  0
TEXT
  5
398EB
  8
0
 10
1.921005453794099
 20
1.0606312480006339
 30
0.0
 40
0.125
  1
Crown Moulding
  0
TEXT
  5
398EC
  8
0
 10
1.9256098194148361
 20
0.851786318487219
 30
0.0
 40
0.125
  1
TL-49
  0
TEXT
  5
398ED
  8
0
 10
1.922454976304331
 20
0.6413213344035446
 30
0.0
 40
0.125
  1
9/16" x 3-5/8"
  0
TEXT
  5
398EE
  8
0
 10
1.922625508364358
 20
0.4308563503198702
 30
0.0
 40
0.125
  1
800.66.TAGUE
  0
ENDBLK
  5
398F0
  8
0
  0
BLOCK
  8
0
  2
*U175
 70
     1
 10
0.0
 20
0.0
 30
0.0
  3
*U175
  1

  0
TEXT
  5
398F2
  8
0
 10
1.679185999902846
 20
0.8615441314963324
 30
0.0
 40
0.125
  1
Crown Moulding
  0
TEXT
  5
398F3
  8
0
 10
1.6837903655235831
 20
0.6526992019829172
 30
0.0
 40
0.125
  1
TL-53
  0
TEXT
  5
398F4
  8
0
 10
1.680635522413078
 20
0.4422342178992428
 30
0.0
 40
0.125
  1
9/16" x 2-5/8"
  0
TEXT
  5
398F5
  8
0
 10
1.6808060544731049
 20
0.2317692338155683
 30
0.0
 40
0.125
  1
800.66.TAGUE
  0
ENDBLK
  5
398F7
  8
0
  0
BLOCK
  8
0
  2
*U176
 70
     1
 10
0.0
 20
0.0
 30
0.0
  3
*U176
  1

  0
TEXT
  5
398F9
  8
0
 10
2.0194001572207059
 20
1.4664951753760691
 30
0.0
 40
0.125
  1
Crown Moulding
  0
TEXT
  5
398FA
  8
0
 10
2.0240045228414432
 20
1.2581618420427361
 30
0.0
 40
0.125
  1
TL-547
  0
TEXT
  5
398FB
  8
0
 10
2.020764413700924
 20
1.0476968579590611
 30
0.0
 40
0.125
  1
3/4" x 4-1/4"
  0
TEXT
  5
398FC
  8
0
 10
2.0210202117909648
 20
0.8372318738753872
 30
0.0
 40
0.125
  1
800.66.TAGUE
  0
ENDBLK
  5
398FE
  8
0
  0
BLOCK
  8
0
  2
*U177
 70
     1
 10
0.0
 20
0.0
 30
0.0
  3
*U177
  1

  0
TEXT
  5
39900
  8
0
 10
2.4033085465245891
 20
1.114063668743499
 30
0.0
 40
0.125
  1
Crown Moulding
  0
TEXT
  5
39901
  8
0
 10
2.407912912145326
 20
0.9052187392300845
 30
0.0
 40
0.125
  1
TL-735
  0
TEXT
  5
39902
  8
0
 10
2.3929913568929391
 20
0.6947537551464099
 30
0.0
 40
0.125
  1
1-1/16" x 4-13/16"
  0
TEXT
  5
39903
  8
0
 10
2.4049286010948481
 20
0.4842887710627356
 30
0.0
 40
0.125
  1
800.66.TAGUE
  0
ENDBLK
  5
39905
  8
0
  0
BLOCK
  8
0
  2
*U178
 70
     1
 10
0.0
 20
0.0
 30
0.0
  3
*U178
  1

  0
TEXT
  5
39907
  8
0
 10
3.4682612700969222
 20
1.825759911853895
 30
0.0
 40
0.125
  1
Crown Moulding
  0
TEXT
  5
39908
  8
0
 10
3.472865635717659
 20
1.61691498234048
 30
0.0
 40
0.125
  1
TL-2009
  0
TEXT
  5
39909
  8
0
 10
3.4579440804652708
 20
1.4064499982568051
 30
0.0
 40
0.125
  1
1-1/4" x 7-11/16"
  0
TEXT
  5
3990A
  8
0
 10
3.4698813246671811
 20
1.195985014173131
 30
0.0
 40
0.125
  1
800.66.TAGUE
  0
ENDBLK
  5
3990C
  8
0
  0
BLOCK
  8
0
  2
*U179
 70
     1
 10
0.0
 20
0.0
 30
0.0
  3
*U179
  1

  0
TEXT
  5
3990E
  8
0
 10
1.699788297753547
 20
0.7242404957799115
 30
0.0
 40
0.125
  1
Crown Moulding
  0
TEXT
  5
3990F
  8
0
 10
1.7043926633742841
 20
0.5153955662664962
 30
0.0
 40
0.125
  1
TL-2013
  0
TEXT
  5
39910
  8
0
 10
1.701237820263779
 20
0.3049305821828217
 30
0.0
 40
0.125
  1
9/16" x 2-1/8"
  0
TEXT
  5
39911
  8
0
 10
1.7014083523238059
 20
0.0944655980991474
 30
0.0
 40
0.125
  1
800.66.TAGUE
  0
ENDBLK
  5
39913
  8
0
  0
BLOCK
  8
0
  2
*U180
 70
     1
 10
0.0
 20
0.0
 30
0.0
  3
*U180
  1

  0
TEXT
  5
39915
  8
0
 10
2.6009295079307759
 20
1.7846010298159329
 30
0.0
 40
0.125
  1
Crown Moulding
  0
TEXT
  5
39916
  8
0
 10
2.6055338735515128
 20
1.575756100302518
 30
0.0
 40
0.125
  1
TL-2046
  0
TEXT
  5
39917
  8
0
 10
2.5906123182991259
 20
1.365291116218843
 30
0.0
 40
0.125
  1
1-9/16" x 6-3/8"
  0
TEXT
  5
39918
  8
0
 10
2.6025495625010362
 20
1.1548261321351689
 30
0.0
 40
0.125
  1
800.66.TAGUE
  0
ENDBLK
  5
3991A
  8
0
  0
BLOCK
  8
0
  2
*U181
 70
     1
 10
0.0
 20
0.0
 30
0.0
  3
*U181
  1

  0
TEXT
  5
3991C
  8
0
 10
2.7666159371219452
 20
1.701425858604936
 30
0.0
 40
0.125
  1
Crown Moulding
  0
TEXT
  5
3991D
  8
0
 10
2.7712203027426821
 20
1.4925809290915211
 30
0.0
 40
0.125
  1
TL-604
  0
TEXT
  5
3991E
  8
0
 10
2.7562987474902951
 20
1.282115945007847
 30
0.0
 40
0.125
  1
1-5/16" x 6-3/4"
  0
TEXT
  5
3991F
  8
0
 10
2.768235991692205
 20
1.071650960924172
 30
0.0
 40
0.125
  1
800.66.TAGUE
  0
ENDBLK
  5
39921
  8
0
  0
BLOCK
  8
0
  2
*U182
 70
     1
 10
0.0
 20
0.0
 30
0.0
  3
*U182
  1

  0
TEXT
  5
39923
  8
0
 10
2.211938273622001
 20
0.9544384301919013
 30
0.0
 40
0.125
  1
Crown
  0
TEXT
  5
39924
  8
0
 10
2.216542639242737
 20
0.7455935006784862
 30
0.0
 40
0.125
  1
TL-718
  0
TEXT
  5
39925
  8
0
 10
2.2184184919030381
 20
0.536748571165071
 30
0.0
 40
0.125
  1
4" x 6"
  0
TEXT
  5
39926
  8
0
 10
2.2135583281922599
 20
0.3262835870813966
 30
0.0
 40
0.125
  1
800.66.TAGUE
  0
ENDBLK
  5
39928
  8
0
  0
BLOCK
  8
0
  2
*U183
 70
     1
 10
0.0
 20
0.0
 30
0.0
  3
*U183
  1

  0
TEXT
  5
3992A
  8
0
 10
3.6576409617732439
 20
2.7966954322929651
 30
0.0
 40
0.125
  1
Crown
  0
TEXT
  5
3992B
  8
0
 10
3.6622453273939808
 20
2.58785050277955
 30
0.0
 40
0.125
  1
TL-719
  0
TEXT
  5
3992C
  8
0
 10
3.6580672919233121
 20
2.377385518695875
 30
0.0
 40
0.125
  1
7-1/16" x 7-9/16"
  0
TEXT
  5
3992D
  8
0
 10
3.6592610163435029
 20
2.1669205346122009
 30
0.0
 40
0.125
  1
800.66.TAGUE
  0
ENDBLK
  5
3992F
  8
0
  0
BLOCK
  8
0
  2
*U184
 70
     1
 10
0.0
 20
0.0
 30
0.0
  3
*U184
  1

  0
TEXT
  5
39931
  8
0
 10
2.6158106459738848
 20
1.2432442436281841
 30
0.0
 40
0.125
  1
Crown
  0
TEXT
  5
39932
  8
0
 10
2.6204150115946221
 20
1.0343993141147689
 30
0.0
 40
0.125
  1
TL-549
  0
TEXT
  5
39933
  8
0
 10
2.6054934563422338
 20
0.8239343300310954
 30
0.0
 40
0.125
  1
1" x 4-3/4"
  0
TEXT
  5
39934
  8
0
 10
2.6174307005441442
 20
0.6134693459474211
 30
0.0
 40
0.125
  1
800.66.TAGUE
  0
ENDBLK
  5
39936
  8
0
  0
BLOCK
  8
0
  2
*U185
 70
     1
 10
0.0
 20
0.0
 30
0.0
  3
*U185
  1

  0
TEXT
  5
39938
  8
0
 10
2.5671209103460102
 20
1.7078769860001031
 30
0.0
 40
0.125
  1
Crown Moulding
  0
TEXT
  5
39939
  8
0
 10
2.571725275966747
 20
1.4990320564866879
 30
0.0
 40
0.125
  1
TL-737
  0
TEXT
  5
3993A
  8
0
 10
2.5568037207143601
 20
1.2885670724030129
 30
0.0
 40
0.125
  1
1-1/16" x 5-3/4"
  0
TEXT
  5
3993B
  8
0
 10
2.56874096491627
 20
1.0781020883193391
 30
0.0
 40
0.125
  1
800.66.TAGUE
  0
ENDBLK
  5
3993D
  8
0
  0
BLOCK
  8
0
  2
*U186
 70
     1
 10
0.0
 20
0.0
 30
0.0
  3
*U186
  1

  0
TEXT
  5
3993F
  8
0
 10
2.9532445898214279
 20
1.283909908665593
 30
0.0
 40
0.125
  1
Crown Moulding
  0
TEXT
  5
39940
  8
0
 10
2.9578489554421652
 20
1.075064979152178
 30
0.0
 40
0.125
  1
TL-2010
  0
TEXT
  5
39941
  8
0
 10
2.9429274001897769
 20
0.8645999950685043
 30
0.0
 40
0.125
  1
1-1/2" x 6-1/16"
  0
TEXT
  5
39942
  8
0
 10
2.9548646443916868
 20
0.6541350109848299
 30
0.0
 40
0.125
  1
800.66.TAGUE
  0
ENDBLK
  5
39944
  8
0
  0
BLOCK
  8
0
  2
*U187
 70
     1
 10
0.0
 20
0.0
 30
0.0
  3
*U187
  1

  0
TEXT
  5
39946
  8
0
 10
3.035497978571446
 20
1.453183634474287
 30
0.0
 40
0.125
  1
Crown Moulding
  0
TEXT
  5
39947
  8
0
 10
3.0401023441921828
 20
1.2443387049608721
 30
0.0
 40
0.125
  1
TL-2011
  0
TEXT
  5
39948
  8
0
 10
3.0251807889397959
 20
1.0338737208771971
 30
0.0
 40
0.125
  1
1-1/16" x 6-3/8"
  0
TEXT
  5
39949
  8
0
 10
3.0371180331417058
 20
0.8234087367935234
 30
0.0
 40
0.125
  1
800.66.TAGUE
  0
ENDBLK
  5
3994B
  8
0
  0
BLOCK
  8
0
  2
*U188
 70
     1
 10
0.0
 20
0.0
 30
0.0
  3
*U188
  1

  0
TEXT
  5
3994D
  8
0
 10
1.8633070240026419
 20
1.277693815717059
 30
0.0
 40
0.125
  1
Crown Moulding
  0
TEXT
  5
3994E
  8
0
 10
1.8679113896233781
 20
1.068848886203644
 30
0.0
 40
0.125
  1
TL-2006
  0
TEXT
  5
3994F
  8
0
 10
1.86467128048286
 20
0.85838390211997
 30
0.0
 40
0.125
  1
3/4" x 3-3/4"
  0
TEXT
  5
39950
  8
0
 10
1.8649270785729011
 20
0.6479189180362955
 30
0.0
 40
0.125
  1
800.66.TAGUE
  0
ENDBLK
  5
39952
  8
0
  0
BLOCK
  8
0
  2
*U189
 70
     1
 10
0.0
 20
0.0
 30
0.0
  3
*U189
  1

  0
TEXT
  5
39954
  8
0
 10
2.7049692846926279
 20
1.14794958590882
 30
0.0
 40
0.125
  1
Crown Moulding
  0
TEXT
  5
39955
  8
0
 10
2.7095736503133652
 20
0.9391046563954056
 30
0.0
 40
0.125
  1
TL-2172
  0
TEXT
  5
39956
  8
0
 10
2.6946520950609769
 20
0.7286396723117311
 30
0.0
 40
0.125
  1
1-3/16" x 5"
  0
TEXT
  5
39957
  8
0
 10
2.7065893392628868
 20
0.5181746882280568
 30
0.0
 40
0.125
  1
800.66.TAGUE
  0
ENDBLK
  5
39959
  8
0
  0
BLOCK
  8
0
  2
*U190
 70
     1
 10
0.0
 20
0.0
 30
0.0
  3
*U190
  1

  0
TEXT
  5
3995B
  8
0
 10
1.3376810613118311
 20
1.1493516831010471
 30
0.0
 40
0.125
  1
Crown Moulding
  0
TEXT
  5
3995C
  8
0
 10
1.3422854269325679
 20
0.940506753587632
 30
0.0
 40
0.125
  1
TL-2148
  0
TEXT
  5
3995D
  8
0
 10
1.3390453177920489
 20
0.7300417695039575
 30
0.0
 40
0.125
  1
3/4" x 2-1/2"
  0
TEXT
  5
3995E
  8
0
 10
1.33930111588209
 20
0.5195767854202832
 30
0.0
 40
0.125
  1
800.66.TAGUE
  0
ENDBLK
  5
39960
  8
0
  0
BLOCK
  8
0
  2
*U191
 70
     1
 10
0.0
 20
0.0
 30
0.0
  3
*U191
  1

  0
TEXT
  5
39962
  8
0
 10
1.6504869110335441
 20
0.8987633229028393
 30
0.0
 40
0.125
  1
Crown Moulding
  0
TEXT
  5
39963
  8
0
 10
1.65509127665428
 20
0.6899183933894242
 30
0.0
 40
0.125
  1
TL-2186
  0
TEXT
  5
39964
  8
0
 10
1.6518511675137619
 20
0.4794534093057498
 30
0.0
 40
0.125
  1
3/4" x 2-3/4"
  0
TEXT
  5
39965
  8
0
 10
1.652106965603803
 20
0.2689884252220753
 30
0.0
 40
0.125
  1
800.66.TAGUE
  0
ENDBLK
  5
39967
  8
0
  0
BLOCK
  8
0
  2
*U192
 70
     1
 10
0.0
 20
0.0
 30
0.0
  3
*U192
  1

  0
TEXT
  5
39969
  8
0
 10
2.5897546547066428
 20
1.336981682283537
 30
0.0
 40
0.125
  1
Crown Moulding
  0
TEXT
  5
3996A
  8
0
 10
2.5943590203273801
 20
1.128136752770122
 30
0.0
 40
0.125
  1
TL-2012
  0
TEXT
  5
3996B
  8
0
 10
2.5794374650749918
 20
0.9176717686864483
 30
0.0
 40
0.125
  1
1-1/16" x 5"
  0
TEXT
  5
3996C
  8
0
 10
2.5913747092769022
 20
0.7072067846027739
 30
0.0
 40
0.125
  1
800.66.TAGUE
  0
ENDBLK
  5
3996E
  8
0
  0
BLOCK
  8
0
  2
*U193
 70
     1
 10
0.0
 20
0.0
 30
0.0
  3
*U193
  1

  0
TEXT
  5
39970
  8
0
 10
1.4755305333595501
 20
0.6786223710762603
 30
0.0
 40
0.125
  1
Crown Moulding
  0
TEXT
  5
39971
  8
0
 10
1.4801348989802869
 20
0.4697774415628451
 30
0.0
 40
0.125
  1
TL-2013
  0
TEXT
  5
39972
  8
0
 10
1.4769800558697821
 20
0.2593124574791706
 30
0.0
 40
0.125
  1
5/8" x 2-1/8"
  0
TEXT
  5
39973
  8
0
 10
1.477150587929809
 20
0.0488474733954962
 30
0.0
 40
0.125
  1
800.66.TAGUE
  0
ENDBLK
  5
39975
  8
0
  0
BLOCK
  8
0
  2
*U194
 70
     1
 10
0.0
 20
0.0
 30
0.0
  3
*U194
  1

  0
TEXT
  5
39977
  8
0
 10
3.2862182720446969
 20
1.8247574704767131
 30
0.0
 40
0.125
  1
Crown Moulding
  0
TEXT
  5
39978
  8
0
 10
3.2908226376654341
 20
1.6159125409632979
 30
0.0
 40
0.125
  1
TL-2201
  0
TEXT
  5
39979
  8
0
 10
3.2897994453052699
 20
1.405447556879623
 30
0.0
 40
0.125
  1
2-21/32" x 7-3/16"
  0
TEXT
  5
3997A
  8
0
 10
3.2878383266149558
 20
1.1949825727959491
 30
0.0
 40
0.125
  1
800.66.TAGUE
  0
ENDBLK
  5
3997C
  8
0
  0
BLOCK
  8
0
  2
*U195
 70
     1
 10
0.0
 20
0.0
 30
0.0
  3
*U195
  1

  0
TEXT
  5
3997E
  8
0
 10
2.8006815492078418
 20
1.6221566662964211
 30
0.0
 40
0.125
  1
Crown
  0
TEXT
  5
3997F
  8
0
 10
2.8052859148285791
 20
1.413311736783005
 30
0.0
 40
0.125
  1
TL-2213
  0
TEXT
  5
39980
  8
0
 10
2.7903643595761909
 20
1.2028467526993309
 30
0.0
 40
0.125
  1
15/16" x 5-3/4"
  0
TEXT
  5
39981
  8
0
 10
2.8023016037781008
 20
0.9923817686156571
 30
0.0
 40
0.125
  1
800.66.TAGUE
  0
ENDBLK
  5
39983
  8
0
  0
BLOCK
  8
0
  2
*U196
 70
     1
 10
0.0
 20
0.0
 30
0.0
  3
*U196
  1

  0
TEXT
  5
39985
  8
0
 10
1.6998866297196611
 20
0.7265780693310422
 30
0.0
 40
0.125
  1
Crown
  0
TEXT
  5
39986
  8
0
 10
1.7044909953403979
 20
0.5177331398176271
 30
0.0
 40
0.125
  1
TL-2214
  0
TEXT
  5
39987
  8
0
 10
1.70031295986973
 20
0.3072681557339526
 30
0.0
 40
0.125
  1
7/8" x 3-5/16"
  0
TEXT
  5
39988
  8
0
 10
1.7015066842899209
 20
0.0968031716502782
 30
0.0
 40
0.125
  1
800.66.TAGUE
  0
ENDBLK
  5
3998A
  8
0
  0
BLOCK
  8
0
  2
*U197
 70
     1
 10
0.0
 20
0.0
 30
0.0
  3
*U197
  1

  0
TEXT
  5
3998C
  8
0
 10
1.6080718634520721
 20
0.7585431351126477
 30
0.0
 40
0.125
  1
Crown
  0
TEXT
  5
3998D
  8
0
 10
1.6126762290728089
 20
0.5496982055992326
 30
0.0
 40
0.125
  1
TL-2234
  0
TEXT
  5
3998E
  8
0
 10
1.6094361199322911
 20
0.3392332215155581
 30
0.0
 40
0.125
  1
3/4" x 2-11/16"
  0
TEXT
  5
3998F
  8
0
 10
1.609691918022331
 20
0.1287682374318837
 30
0.0
 40
0.125
  1
800.66.TAGUE
  0
ENDBLK
  5
39991
  8
0
  0
BLOCK
  8
0
  2
*U198
 70
     1
 10
0.0
 20
0.0
 30
0.0
  3
*U198
  1

  0
TEXT
  5
39993
  8
0
 10
2.2710149665046839
 20
1.0288327011897009
 30
0.0
 40
0.125
  1
Crown
  0
TEXT
  5
39994
  8
0
 10
2.2756193321254208
 20
0.8199877716762863
 30
0.0
 40
0.125
  1
TL-2236
  0
TEXT
  5
39995
  8
0
 10
2.2606977768730339
 20
0.6095227875926118
 30
0.0
 40
0.125
  1
13/16" x 5"
  0
TEXT
  5
39996
  8
0
 10
2.2726350210749442
 20
0.3990578035089374
 30
0.0
 40
0.125
  1
800.66.TAGUE
  0
ENDBLK
  5
39998
  8
0
  0
BLOCK
  8
0
  2
*U199
 70
     1
 10
0.0
 20
0.0
 30
0.0
  3
*U199
  1

  0
TEXT
  5
3999A
  8
0
 10
3.807281047797777
 20
1.573374988136736
 30
0.0
 40
0.125
  1
Crown
  0
TEXT
  5
3999B
  8
0
 10
3.8118854134185138
 20
1.3645300586233211
 30
0.0
 40
0.125
  1
TL-2243
  0
TEXT
  5
3999C
  8
0
 10
3.796963858166126
 20
1.1540650745396459
 30
0.0
 40
0.125
  1
1-13/16" x 4-3/4"
  0
TEXT
  5
3999D
  8
0
 10
3.8089011023680359
 20
0.9436000904559723
 30
0.0
 40
0.125
  1
800.66.TAGUE
  0
ENDBLK
  5
3999F
  8
0
  0
BLOCK
  8
0
  2
*U200
 70
     1
 10
0.0
 20
0.0
 30
0.0
  3
*U200
  1

  0
TEXT
  5
399A1
  8
0
 10
2.2226235396514409
 20
0.710366057839126
 30
0.0
 40
0.125
  1
Crown
  0
TEXT
  5
399A2
  8
0
 10
2.2272279052721782
 20
0.5015211283257109
 30
0.0
 40
0.125
  1
TL-2246
  0
TEXT
  5
399A3
  8
0
 10
2.2239877961316599
 20
0.2910561442420364
 30
0.0
 40
0.125
  1
3/4" x 2"
  0
TEXT
  5
399A4
  8
0
 10
2.2242435942217011
 20
0.080591160158362
 30
0.0
 40
0.125
  1
800.66.TAGUE
  0
ENDBLK
  5
399A6
  8
0
  0
BLOCK
  8
0
  2
*U201
 70
     1
 10
0.0
 20
0.0
 30
0.0
  3
*U201
  1

  0
TEXT
  5
399A8
  8
0
 10
2.57054798076192
 20
0.9979657962750412
 30
0.0
 40
0.125
  1
Crown
  0
TEXT
  5
399A9
  8
0
 10
2.5751523463826569
 20
0.7891208667616261
 30
0.0
 40
0.125
  1
TL-2247
  0
TEXT
  5
399AA
  8
0
 10
2.5602307911302691
 20
0.5786558826779517
 30
0.0
 40
0.125
  1
15/16" x 3"
  0
TEXT
  5
399AB
  8
0
 10
2.572168035332179
 20
0.3681908985942772
 30
0.0
 40
0.125
  1
800.66.TAGUE
  0
ENDBLK
  5
399AD
  8
0
  0
BLOCK
  8
0
  2
*U202
 70
     1
 10
0.0
 20
0.0
 30
0.0
  3
*U202
  1

  0
TEXT
  5
399AF
  8
0
 10
2.906460158693652
 20
2.0636191328222981
 30
0.0
 40
0.125
  1
Crown
  0
TEXT
  5
399B0
  8
0
 10
2.9110645243143889
 20
1.854774203308883
 30
0.0
 40
0.125
  1
TL-2272
  0
TEXT
  5
399B1
  8
0
 10
2.8961429690620011
 20
1.644309219225208
 30
0.0
 40
0.125
  1
1-1/16" x 5-23/32"
  0
TEXT
  5
399B2
  8
0
 10
2.908080213263911
 20
1.4338442351415339
 30
0.0
 40
0.125
  1
800.66.TAGUE
  0
ENDBLK
  5
399B4
  8
0
  0
BLOCK
  8
0
  2
*U203
 70
     1
 10
0.0
 20
0.0
 30
0.0
  3
*U203
  1

  0
TEXT
  5
399B6
  8
0
 10
-364.50144323202898
 20
858.09419654156864
 30
0.0
 40
0.125
  1
Crown
  0
TEXT
  5
399B7
  8
0
 10
-364.49683886640832
 20
857.88535161205505
 30
0.0
 40
0.125
  1
TL-2272
  0
TEXT
  5
399B8
  8
0
 10
-364.51176042166071
 20
857.67488662797143
 30
0.0
 40
0.125
  1
1-1/16" x 5-23/32"
  0
TEXT
  5
399B9
  8
0
 10
-364.49982317745878
 20
857.46442164388782
 30
0.0
 40
0.125
  1
800.66.TAGUE
  0
ENDBLK
  5
399BB
  8
0
  0
ENDSEC
  0
SECTION
  2
ENTITIES
  0
LINE
  5
39662
  8
0
 10
-367.40790334413919
 20
856.03057748210495
 30
0.0
 11
-367.18134345559162
 21
856.03057748210495
 31
0.0
  0
LINE
  5
39663
  8
0
 10
-367.18134345559162
 20
856.03057748210495
 30
0.0
 11
-367.18134345559162
 21
856.19520367657287
 31
0.0
  0
LINE
  5
39664
  8
0
 10
-367.40790334413919
 20
856.03057748210495
 30
0.0
 11
-367.40790334413919
 21
857.37845449595034
 31
0.0
  0
LINE
  5
39665
  8
0
 10
-366.83120543974769
 20
856.61705831544339
 30
0.0
 11
-366.66643460335268
 21
856.61705831544339
 31
0.0
  0
LINE
  5
39666
  8
0
 10
-366.66643460335268
 20
856.61705831544339
 30
0.0
 11
-366.66643460335268
 21
856.93602158898966
 31
0.0
  0
LINE
  5
39667
  8
0
 10
-363.99831039907991
 20
859.94265737911314
 30
0.0
 11
-363.99831039907991
 21
860.62174046238579
 31
0.0
  0
LINE
  5
39668
  8
0
 10
-363.99831039907991
 20
860.62174046238579
 30
0.0
 11
-364.84276090111757
 21
860.62174046238579
 31
0.0
  0
POLYLINE
  8
0
  5
39BC0
  66
     1
 10
0.000000
 20
0.000000
 30
0.000000
  70
     8
  0
VERTEX
  8
0
  5
39BC1
 10
-366.831
 20
856.617
 30
0.000000
  70
    32
  0
VERTEX
  8
0
  5
39BC2
 10
-366.832
 20
856.615
 30
0.000000
  70
    32
  0
VERTEX
  8
0
  5
39BC3
 10
-366.832
 20
856.613
 30
0.000000
  70
    32
  0
VERTEX
  8
0
  5
39BC4
 10
-366.833
 20
856.611
 30
0.000000
  70
    32
  0
VERTEX
  8
0
  5
39BC5
 10
-366.834
 20
856.609
 30
0.000000
  70
    32
  0
VERTEX
  8
0
  5
39BC6
 10
-366.834
 20
856.606
 30
0.000000
  70
    32
  0
VERTEX
  8
0
  5
39BC7
 10
-366.835
 20
856.604
 30
0.000000
  70
    32
  0
VERTEX
  8
0
  5
39BC8
 10
-366.836
 20
856.602
 30
0.000000
  70
    32
  0
VERTEX
  8
0
  5
39BC9
 10
-366.836
 20
856.600
 30
0.000000
  70
    32
  0
VERTEX
  8
0
  5
39BCA
 10
-366.837
 20
856.598
 30
0.000000
  70
    32
  0
VERTEX
  8
0
  5
39BCB
 10
-366.837
 20
856.596
 30
0.000000
  70
    32
  0
VERTEX
  8
0
  5
39BCC
 10
-366.838
 20
856.593
 30
0.000000
  70
    32
  0
VERTEX
  8
0
  5
39BCD
 10
-366.839
 20
856.591
 30
0.000000
  70
    32
  0
VERTEX
  8
0
  5
39BCE
 10
-366.839
 20
856.589
 30
0.000000
  70
    32
  0
VERTEX
  8
0
  5
39BCF
 10
-366.840
 20
856.587
 30
0.000000
  70
    32
  0
VERTEX
  8
0
  5
39BD0
 10
-366.840
 20
856.585
 30
0.000000
  70
    32
  0
VERTEX
  8
0
  5
39BD1
 10
-366.841
 20
856.583
 30
0.000000
  70
    32
  0
VERTEX
  8
0
  5
39BD2
 10
-366.841
 20
856.581
 30
0.000000
  70
    32
  0
VERTEX
  8
0
  5
39BD3
 10
-366.842
 20
856.578
 30
0.000000
  70
    32
  0
VERTEX
  8
0
  5
39BD4
 10
-366.843
 20
856.576
 30
0.000000
  70
    32
  0
VERTEX
  8
0
  5
39BD5
 10
-366.843
 20
856.574
 30
0.000000
  70
    32
  0
VERTEX
  8
0
  5
39BD6
 10
-366.844
 20
856.572
 30
0.000000
  70
    32
  0
VERTEX
  8
0
  5
39BD7
 10
-366.844
 20
856.570
 30
0.000000
  70
    32
  0
VERTEX
  8
0
  5
39BD8
 10
-366.845
 20
856.568
 30
0.000000
  70
    32
  0
VERTEX
  8
0
  5
39BD9
 10
-366.846
 20
856.565
 30
0.000000
  70
    32
  0
VERTEX
  8
0
  5
39BDA
 10
-366.846
 20
856.563
 30
0.000000
  70
    32
  0
VERTEX
  8
0
  5
39BDB
 10
-366.847
 20
856.561
 30
0.000000
  70
    32
  0
VERTEX
  8
0
  5
39BDC
 10
-366.847
 20
856.559
 30
0.000000
  70
    32
  0
VERTEX
  8
0
  5
39BDD
 10
-366.848
 20
856.557
 30
0.000000
  70
    32
  0
VERTEX
  8
0
  5
39BDE
 10
-366.848
 20
856.555
 30
0.000000
  70
    32
  0
VERTEX
  8
0
  5
39BDF
 10
-366.849
 20
856.553
 30
0.000000
  70
    32
  0
VERTEX
  8
0
  5
39BE0
 10
-366.850
 20
856.550
 30
0.000000
  70
    32
  0
VERTEX
  8
0
  5
39BE1
 10
-366.850
 20
856.548
 30
0.000000
  70
    32
  0
VERTEX
  8
0
  5
39BE2
 10
-366.851
 20
856.546
 30
0.000000
  70
    32
  0
VERTEX
  8
0
  5
39BE3
 10
-366.851
 20
856.544
 30
0.000000
  70
    32
  0
VERTEX
  8
0
  5
39BE4
 10
-366.852
 20
856.542
 30
0.000000
  70
    32
  0
VERTEX
  8
0
  5
39BE5
 10
-366.853
 20
856.540
 30
0.000000
  70
    32
  0
VERTEX
  8
0
  5
39BE6
 10
-366.853
 20
856.538
 30
0.000000
  70
    32
  0
VERTEX
  8
0
  5
39BE7
 10
-366.854
 20
856.535
 30
0.000000
  70
    32
  0
VERTEX
  8
0
  5
39BE8
 10
-366.855
 20
856.533
 30
0.000000
  70
    32
  0
VERTEX
  8
0
  5
39BE9
 10
-366.855
 20
856.531
 30
0.000000
  70
    32
  0
VERTEX
  8
0
  5
39BEA
 10
-366.856
 20
856.529
 30
0.000000
  70
    32
  0
VERTEX
  8
0
  5
39BEB
 10
-366.857
 20
856.527
 30
0.000000
  70
    32
  0
VERTEX
  8
0
  5
39BEC
 10
-366.857
 20
856.525
 30
0.000000
  70
    32
  0
VERTEX
  8
0
  5
39BED
 10
-366.858
 20
856.523
 30
0.000000
  70
    32
  0
VERTEX
  8
0
  5
39BEE
 10
-366.859
 20
856.520
 30
0.000000
  70
    32
  0
VERTEX
  8
0
  5
39BEF
 10
-366.859
 20
856.518
 30
0.000000
  70
    32
  0
VERTEX
  8
0
  5
39BF0
 10
-366.860
 20
856.516
 30
0.000000
  70
    32
  0
VERTEX
  8
0
  5
39BF1
 10
-366.861
 20
856.514
 30
0.000000
  70
    32
  0
VERTEX
  8
0
  5
39BF2
 10
-366.861
 20
856.512
 30
0.000000
  70
    32
  0
VERTEX
  8
0
  5
39BF3
 10
-366.862
 20
856.510
 30
0.000000
  70
    32
  0
VERTEX
  8
0
  5
39BF4
 10
-366.863
 20
856.508
 30
0.000000
  70
    32
  0
VERTEX
  8
0
  5
39BF5
 10
-366.863
 20
856.506
 30
0.000000
  70
    32
  0
VERTEX
  8
0
  5
39BF6
 10
-366.864
 20
856.504
 30
0.000000
  70
    32
  0
VERTEX
  8
0
  5
39BF7
 10
-366.865
 20
856.502
 30
0.000000
  70
    32
  0
VERTEX
  8
0
  5
39BF8
 10
-366.866
 20
856.499
 30
0.000000
  70
    32
  0
VERTEX
  8
0
  5
39BF9
 10
-366.867
 20
856.497
 30
0.000000
  70
    32
  0
VERTEX
  8
0
  5
39BFA
 10
-366.867
 20
856.495
 30
0.000000
  70
    32
  0
VERTEX
  8
0
  5
39BFB
 10
-366.868
 20
856.493
 30
0.000000
  70
    32
  0
VERTEX
  8
0
  5
39BFC
 10
-366.869
 20
856.491
 30
0.000000
  70
    32
  0
VERTEX
  8
0
  5
39BFD
 10
-366.870
 20
856.489
 30
0.000000
  70
    32
  0
VERTEX
  8
0
  5
39BFE
 10
-366.871
 20
856.487
 30
0.000000
  70
    32
  0
VERTEX
  8
0
  5
39BFF
 10
-366.871
 20
856.485
 30
0.000000
  70
    32
  0
VERTEX
  8
0
  5
39C00
 10
-366.872
 20
856.483
 30
0.000000
  70
    32
  0
VERTEX
  8
0
  5
39C01
 10
-366.873
 20
856.481
 30
0.000000
  70
    32
  0
VERTEX
  8
0
  5
39C02
 10
-366.874
 20
856.479
 30
0.000000
  70
    32
  0
VERTEX
  8
0
  5
39C03
 10
-366.875
 20
856.477
 30
0.000000
  70
    32
  0
VERTEX
  8
0
  5
39C04
 10
-366.876
 20
856.475
 30
0.000000
  70
    32
  0
VERTEX
  8
0
  5
39C05
 10
-366.877
 20
856.473
 30
0.000000
  70
    32
  0
VERTEX
  8
0
  5
39C06
 10
-366.878
 20
856.471
 30
0.000000
  70
    32
  0
VERTEX
  8
0
  5
39C07
 10
-366.879
 20
856.469
 30
0.000000
  70
    32
  0
VERTEX
  8
0
  5
39C08
 10
-366.880
 20
856.467
 30
0.000000
  70
    32
  0
VERTEX
  8
0
  5
39C09
 10
-366.881
 20
856.465
 30
0.000000
  70
    32
  0
VERTEX
  8
0
  5
39C0A
 10
-366.882
 20
856.463
 30
0.000000
  70
    32
  0
VERTEX
  8
0
  5
39C0B
 10
-366.883
 20
856.461
 30
0.000000
  70
    32
  0
VERTEX
  8
0
  5
39C0C
 10
-366.884
 20
856.459
 30
0.000000
  70
    32
  0
VERTEX
  8
0
  5
39C0D
 10
-366.885
 20
856.457
 30
0.000000
  70
    32
  0
VERTEX
  8
0
  5
39C0E
 10
-366.886
 20
856.455
 30
0.000000
  70
    32
  0
VERTEX
  8
0
  5
39C0F
 10
-366.887
 20
856.453
 30
0.000000
  70
    32
  0
VERTEX
  8
0
  5
39C10
 10
-366.888
 20
856.451
 30
0.000000
  70
    32
  0
VERTEX
  8
0
  5
39C11
 10
-366.889
 20
856.449
 30
0.000000
  70
    32
  0
VERTEX
  8
0
  5
39C12
 10
-366.890
 20
856.447
 30
0.000000
  70
    32
  0
VERTEX
  8
0
  5
39C13
 10
-366.891
 20
856.445
 30
0.000000
  70
    32
  0
VERTEX
  8
0
  5
39C14
 10
-366.892
 20
856.443
 30
0.000000
  70
    32
  0
VERTEX
  8
0
  5
39C15
 10
-366.894
 20
856.441
 30
0.000000
  70
    32
  0
VERTEX
  8
0
  5
39C16
 10
-366.895
 20
856.439
 30
0.000000
  70
    32
  0
VERTEX
  8
0
  5
39C17
 10
-366.896
 20
856.437
 30
0.000000
  70
    32
  0
VERTEX
  8
0
  5
39C18
 10
-366.897
 20
856.436
 30
0.000000
  70
    32
  0
VERTEX
  8
0
  5
39C19
 10
-366.898
 20
856.434
 30
0.000000
  70
    32
  0
VERTEX
  8
0
  5
39C1A
 10
-366.900
 20
856.432
 30
0.000000
  70
    32
  0
VERTEX
  8
0
  5
39C1B
 10
-366.901
 20
856.430
 30
0.000000
  70
    32
  0
VERTEX
  8
0
  5
39C1C
 10
-366.902
 20
856.428
 30
0.000000
  70
    32
  0
VERTEX
  8
0
  5
39C1D
 10
-366.903
 20
856.426
 30
0.000000
  70
    32
  0
VERTEX
  8
0
  5
39C1E
 10
-366.905
 20
856.424
 30
0.000000
  70
    32
  0
VERTEX
  8
0
  5
39C1F
 10
-366.906
 20
856.423
 30
0.000000
  70
    32
  0
VERTEX
  8
0
  5
39C20
 10
-366.907
 20
856.421
 30
0.000000
  70
    32
  0
VERTEX
  8
0
  5
39C21
 10
-366.909
 20
856.419
 30
0.000000
  70
    32
  0
VERTEX
  8
0
  5
39C22
 10
-366.910
 20
856.417
 30
0.000000
  70
    32
  0
VERTEX
  8
0
  5
39C23
 10
-366.911
 20
856.415
 30
0.000000
  70
    32
  0
VERTEX
  8
0
  5
39C24
 10
-366.913
 20
856.413
 30
0.000000
  70
    32
  0
VERTEX
  8
0
  5
39C25
 10
-366.914
 20
856.412
 30
0.000000
  70
    32
  0
VERTEX
  8
0
  5
39C26
 10
-366.915
 20
856.410
 30
0.000000
  70
    32
  0
VERTEX
  8
0
  5
39C27
 10
-366.917
 20
856.408
 30
0.000000
  70
    32
  0
VERTEX
  8
0
  5
39C28
 10
-366.918
 20
856.406
 30
0.000000
  70
    32
  0
VERTEX
  8
0
  5
39C29
 10
-366.919
 20
856.405
 30
0.000000
  70
    32
  0
VERTEX
  8
0
  5
39C2A
 10
-366.921
 20
856.403
 30
0.000000
  70
    32
  0
VERTEX
  8
0
  5
39C2B
 10
-366.922
 20
856.401
 30
0.000000
  70
    32
  0
VERTEX
  8
0
  5
39C2C
 10
-366.924
 20
856.399
 30
0.000000
  70
    32
  0
VERTEX
  8
0
  5
39C2D
 10
-366.925
 20
856.398
 30
0.000000
  70
    32
  0
VERTEX
  8
0
  5
39C2E
 10
-366.927
 20
856.396
 30
0.000000
  70
    32
  0
VERTEX
  8
0
  5
39C2F
 10
-366.928
 20
856.394
 30
0.000000
  70
    32
  0
VERTEX
  8
0
  5
39C30
 10
-366.930
 20
856.393
 30
0.000000
  70
    32
  0
VERTEX
  8
0
  5
39C31
 10
-366.931
 20
856.391
 30
0.000000
  70
    32
  0
VERTEX
  8
0
  5
39C32
 10
-366.933
 20
856.389
 30
0.000000
  70
    32
  0
VERTEX
  8
0
  5
39C33
 10
-366.934
 20
856.388
 30
0.000000
  70
    32
  0
VERTEX
  8
0
  5
39C34
 10
-366.936
 20
856.386
 30
0.000000
  70
    32
  0
VERTEX
  8
0
  5
39C35
 10
-366.937
 20
856.384
 30
0.000000
  70
    32
  0
VERTEX
  8
0
  5
39C36
 10
-366.939
 20
856.383
 30
0.000000
  70
    32
  0
VERTEX
  8
0
  5
39C37
 10
-366.940
 20
856.381
 30
0.000000
  70
    32
  0
VERTEX
  8
0
  5
39C38
 10
-366.942
 20
856.379
 30
0.000000
  70
    32
  0
VERTEX
  8
0
  5
39C39
 10
-366.943
 20
856.378
 30
0.000000
  70
    32
  0
VERTEX
  8
0
  5
39C3A
 10
-366.945
 20
856.376
 30
0.000000
  70
    32
  0
VERTEX
  8
0
  5
39C3B
 10
-366.947
 20
856.375
 30
0.000000
  70
    32
  0
VERTEX
  8
0
  5
39C3C
 10
-366.948
 20
856.373
 30
0.000000
  70
    32
  0
VERTEX
  8
0
  5
39C3D
 10
-366.950
 20
856.372
 30
0.000000
  70
    32
  0
VERTEX
  8
0
  5
39C3E
 10
-366.951
 20
856.370
 30
0.000000
  70
    32
  0
VERTEX
  8
0
  5
39C3F
 10
-366.953
 20
856.368
 30
0.000000
  70
    32
  0
VERTEX
  8
0
  5
39C40
 10
-366.955
 20
856.367
 30
0.000000
  70
    32
  0
VERTEX
  8
0
  5
39C41
 10
-366.956
 20
856.365
 30
0.000000
  70
    32
  0
VERTEX
  8
0
  5
39C42
 10
-366.958
 20
856.364
 30
0.000000
  70
    32
  0
VERTEX
  8
0
  5
39C43
 10
-366.960
 20
856.362
 30
0.000000
  70
    32
  0
VERTEX
  8
0
  5
39C44
 10
-366.961
 20
856.361
 30
0.000000
  70
    32
  0
VERTEX
  8
0
  5
39C45
 10
-366.963
 20
856.359
 30
0.000000
  70
    32
  0
VERTEX
  8
0
  5
39C46
 10
-366.965
 20
856.358
 30
0.000000
  70
    32
  0
VERTEX
  8
0
  5
39C47
 10
-366.966
 20
856.357
 30
0.000000
  70
    32
  0
VERTEX
  8
0
  5
39C48
 10
-366.968
 20
856.355
 30
0.000000
  70
    32
  0
VERTEX
  8
0
  5
39C49
 10
-366.970
 20
856.354
 30
0.000000
  70
    32
  0
VERTEX
  8
0
  5
39C4A
 10
-366.972
 20
856.352
 30
0.000000
  70
    32
  0
VERTEX
  8
0
  5
39C4B
 10
-366.973
 20
856.351
 30
0.000000
  70
    32
  0
VERTEX
  8
0
  5
39C4C
 10
-366.975
 20
856.349
 30
0.000000
  70
    32
  0
VERTEX
  8
0
  5
39C4D
 10
-366.977
 20
856.348
 30
0.000000
  70
    32
  0
VERTEX
  8
0
  5
39C4E
 10
-366.979
 20
856.347
 30
0.000000
  70
    32
  0
VERTEX
  8
0
  5
39C4F
 10
-366.980
 20
856.345
 30
0.000000
  70
    32
  0
VERTEX
  8
0
  5
39C50
 10
-366.982
 20
856.344
 30
0.000000
  70
    32
  0
VERTEX
  8
0
  5
39C51
 10
-366.984
 20
856.343
 30
0.000000
  70
    32
  0
VERTEX
  8
0
  5
39C52
 10
-366.986
 20
856.341
 30
0.000000
  70
    32
  0
VERTEX
  8
0
  5
39C53
 10
-366.987
 20
856.340
 30
0.000000
  70
    32
  0
VERTEX
  8
0
  5
39C54
 10
-366.989
 20
856.339
 30
0.000000
  70
    32
  0
VERTEX
  8
0
  5
39C55
 10
-366.991
 20
856.337
 30
0.000000
  70
    32
  0
VERTEX
  8
0
  5
39C56
 10
-366.993
 20
856.336
 30
0.000000
  70
    32
  0
VERTEX
  8
0
  5
39C57
 10
-366.995
 20
856.335
 30
0.000000
  70
    32
  0
VERTEX
  8
0
  5
39C58
 10
-366.996
 20
856.334
 30
0.000000
  70
    32
  0
VERTEX
  8
0
  5
39C59
 10
-366.998
 20
856.332
 30
0.000000
  70
    32
  0
VERTEX
  8
0
  5
39C5A
 10
-367.000
 20
856.331
 30
0.000000
  70
    32
  0
VERTEX
  8
0
  5
39C5B
 10
-367.002
 20
856.330
 30
0.000000
  70
    32
  0
VERTEX
  8
0
  5
39C5C
 10
-367.004
 20
856.328
 30
0.000000
  70
    32
  0
VERTEX
  8
0
  5
39C5D
 10
-367.006
 20
856.327
 30
0.000000
  70
    32
  0
VERTEX
  8
0
  5
39C5E
 10
-367.007
 20
856.326
 30
0.000000
  70
    32
  0
VERTEX
  8
0
  5
39C5F
 10
-367.009
 20
856.325
 30
0.000000
  70
    32
  0
VERTEX
  8
0
  5
39C60
 10
-367.011
 20
856.324
 30
0.000000
  70
    32
  0
VERTEX
  8
0
  5
39C61
 10
-367.013
 20
856.322
 30
0.000000
  70
    32
  0
VERTEX
  8
0
  5
39C62
 10
-367.015
 20
856.321
 30
0.000000
  70
    32
  0
VERTEX
  8
0
  5
39C63
 10
-367.017
 20
856.320
 30
0.000000
  70
    32
  0
VERTEX
  8
0
  5
39C64
 10
-367.019
 20
856.319
 30
0.000000
  70
    32
  0
VERTEX
  8
0
  5
39C65
 10
-367.021
 20
856.317
 30
0.000000
  70
    32
  0
VERTEX
  8
0
  5
39C66
 10
-367.022
 20
856.316
 30
0.000000
  70
    32
  0
VERTEX
  8
0
  5
39C67
 10
-367.024
 20
856.315
 30
0.000000
  70
    32
  0
VERTEX
  8
0
  5
39C68
 10
-367.026
 20
856.314
 30
0.000000
  70
    32
  0
VERTEX
  8
0
  5
39C69
 10
-367.028
 20
856.313
 30
0.000000
  70
    32
  0
VERTEX
  8
0
  5
39C6A
 10
-367.030
 20
856.311
 30
0.000000
  70
    32
  0
VERTEX
  8
0
  5
39C6B
 10
-367.032
 20
856.310
 30
0.000000
  70
    32
  0
VERTEX
  8
0
  5
39C6C
 10
-367.034
 20
856.309
 30
0.000000
  70
    32
  0
VERTEX
  8
0
  5
39C6D
 10
-367.036
 20
856.308
 30
0.000000
  70
    32
  0
VERTEX
  8
0
  5
39C6E
 10
-367.037
 20
856.307
 30
0.000000
  70
    32
  0
VERTEX
  8
0
  5
39C6F
 10
-367.039
 20
856.306
 30
0.000000
  70
    32
  0
VERTEX
  8
0
  5
39C70
 10
-367.041
 20
856.304
 30
0.000000
  70
    32
  0
VERTEX
  8
0
  5
39C71
 10
-367.043
 20
856.303
 30
0.000000
  70
    32
  0
VERTEX
  8
0
  5
39C72
 10
-367.045
 20
856.302
 30
0.000000
  70
    32
  0
VERTEX
  8
0
  5
39C73
 10
-367.047
 20
856.301
 30
0.000000
  70
    32
  0
VERTEX
  8
0
  5
39C74
 10
-367.049
 20
856.300
 30
0.000000
  70
    32
  0
VERTEX
  8
0
  5
39C75
 10
-367.051
 20
856.299
 30
0.000000
  70
    32
  0
VERTEX
  8
0
  5
39C76
 10
-367.053
 20
856.297
 30
0.000000
  70
    32
  0
VERTEX
  8
0
  5
39C77
 10
-367.055
 20
856.296
 30
0.000000
  70
    32
  0
VERTEX
  8
0
  5
39C78
 10
-367.056
 20
856.295
 30
0.000000
  70
    32
  0
VERTEX
  8
0
  5
39C79
 10
-367.058
 20
856.294
 30
0.000000
  70
    32
  0
VERTEX
  8
0
  5
39C7A
 10
-367.060
 20
856.293
 30
0.000000
  70
    32
  0
VERTEX
  8
0
  5
39C7B
 10
-367.062
 20
856.291
 30
0.000000
  70
    32
  0
VERTEX
  8
0
  5
39C7C
 10
-367.064
 20
856.290
 30
0.000000
  70
    32
  0
VERTEX
  8
0
  5
39C7D
 10
-367.066
 20
856.289
 30
0.000000
  70
    32
  0
VERTEX
  8
0
  5
39C7E
 10
-367.068
 20
856.288
 30
0.000000
  70
    32
  0
VERTEX
  8
0
  5
39C7F
 10
-367.070
 20
856.287
 30
0.000000
  70
    32
  0
VERTEX
  8
0
  5
39C80
 10
-367.072
 20
856.286
 30
0.000000
  70
    32
  0
VERTEX
  8
0
  5
39C81
 10
-367.073
 20
856.284
 30
0.000000
  70
    32
  0
VERTEX
  8
0
  5
39C82
 10
-367.075
 20
856.283
 30
0.000000
  70
    32
  0
VERTEX
  8
0
  5
39C83
 10
-367.077
 20
856.282
 30
0.000000
  70
    32
  0
VERTEX
  8
0
  5
39C84
 10
-367.079
 20
856.281
 30
0.000000
  70
    32
  0
VERTEX
  8
0
  5
39C85
 10
-367.081
 20
856.280
 30
0.000000
  70
    32
  0
VERTEX
  8
0
  5
39C86
 10
-367.083
 20
856.278
 30
0.000000
  70
    32
  0
VERTEX
  8
0
  5
39C87
 10
-367.085
 20
856.277
 30
0.000000
  70
    32
  0
VERTEX
  8
0
  5
39C88
 10
-367.087
 20
856.276
 30
0.000000
  70
    32
  0
VERTEX
  8
0
  5
39C89
 10
-367.088
 20
856.275
 30
0.000000
  70
    32
  0
VERTEX
  8
0
  5
39C8A
 10
-367.090
 20
856.273
 30
0.000000
  70
    32
  0
VERTEX
  8
0
  5
39C8B
 10
-367.092
 20
856.272
 30
0.000000
  70
    32
  0
VERTEX
  8
0
  5
39C8C
 10
-367.094
 20
856.271
 30
0.000000
  70
    32
  0
VERTEX
  8
0
  5
39C8D
 10
-367.096
 20
856.270
 30
0.000000
  70
    32
  0
VERTEX
  8
0
  5
39C8E
 10
-367.098
 20
856.268
 30
0.000000
  70
    32
  0
VERTEX
  8
0
  5
39C8F
 10
-367.099
 20
856.267
 30
0.000000
  70
    32
  0
VERTEX
  8
0
  5
39C90
 10
-367.101
 20
856.266
 30
0.000000
  70
    32
  0
VERTEX
  8
0
  5
39C91
 10
-367.103
 20
856.264
 30
0.000000
  70
    32
  0
VERTEX
  8
0
  5
39C92
 10
-367.105
 20
856.263
 30
0.000000
  70
    32
  0
VERTEX
  8
0
  5
39C93
 10
-367.106
 20
856.262
 30
0.000000
  70
    32
  0
VERTEX
  8
0
  5
39C94
 10
-367.108
 20
856.260
 30
0.000000
  70
    32
  0
VERTEX
  8
0
  5
39C95
 10
-367.110
 20
856.259
 30
0.000000
  70
    32
  0
VERTEX
  8
0
  5
39C96
 10
-367.112
 20
856.257
 30
0.000000
  70
    32
  0
VERTEX
  8
0
  5
39C97
 10
-367.113
 20
856.256
 30
0.000000
  70
    32
  0
VERTEX
  8
0
  5
39C98
 10
-367.115
 20
856.255
 30
0.000000
  70
    32
  0
VERTEX
  8
0
  5
39C99
 10
-367.117
 20
856.253
 30
0.000000
  70
    32
  0
VERTEX
  8
0
  5
39C9A
 10
-367.119
 20
856.252
 30
0.000000
  70
    32
  0
VERTEX
  8
0
  5
39C9B
 10
-367.120
 20
856.250
 30
0.000000
  70
    32
  0
VERTEX
  8
0
  5
39C9C
 10
-367.122
 20
856.249
 30
0.000000
  70
    32
  0
VERTEX
  8
0
  5
39C9D
 10
-367.124
 20
856.247
 30
0.000000
  70
    32
  0
VERTEX
  8
0
  5
39C9E
 10
-367.125
 20
856.246
 30
0.000000
  70
    32
  0
VERTEX
  8
0
  5
39C9F
 10
-367.127
 20
856.244
 30
0.000000
  70
    32
  0
VERTEX
  8
0
  5
39CA0
 10
-367.128
 20
856.243
 30
0.000000
  70
    32
  0
VERTEX
  8
0
  5
39CA1
 10
-367.130
 20
856.241
 30
0.000000
  70
    32
  0
VERTEX
  8
0
  5
39CA2
 10
-367.132
 20
856.240
 30
0.000000
  70
    32
  0
VERTEX
  8
0
  5
39CA3
 10
-367.133
 20
856.238
 30
0.000000
  70
    32
  0
VERTEX
  8
0
  5
39CA4
 10
-367.135
 20
856.237
 30
0.000000
  70
    32
  0
VERTEX
  8
0
  5
39CA5
 10
-367.137
 20
856.235
 30
0.000000
  70
    32
  0
VERTEX
  8
0
  5
39CA6
 10
-367.138
 20
856.234
 30
0.000000
  70
    32
  0
VERTEX
  8
0
  5
39CA7
 10
-367.140
 20
856.232
 30
0.000000
  70
    32
  0
VERTEX
  8
0
  5
39CA8
 10
-367.141
 20
856.231
 30
0.000000
  70
    32
  0
VERTEX
  8
0
  5
39CA9
 10
-367.143
 20
856.229
 30
0.000000
  70
    32
  0
VERTEX
  8
0
  5
39CAA
 10
-367.145
 20
856.227
 30
0.000000
  70
    32
  0
VERTEX
  8
0
  5
39CAB
 10
-367.146
 20
856.226
 30
0.000000
  70
    32
  0
VERTEX
  8
0
  5
39CAC
 10
-367.148
 20
856.224
 30
0.000000
  70
    32
  0
VERTEX
  8
0
  5
39CAD
 10
-367.149
 20
856.223
 30
0.000000
  70
    32
  0
VERTEX
  8
0
  5
39CAE
 10
-367.151
 20
856.221
 30
0.000000
  70
    32
  0
VERTEX
  8
0
  5
39CAF
 10
-367.153
 20
856.220
 30
0.000000
  70
    32
  0
VERTEX
  8
0
  5
39CB0
 10
-367.154
 20
856.218
 30
0.000000
  70
    32
  0
VERTEX
  8
0
  5
39CB1
 10
-367.156
 20
856.217
 30
0.000000
  70
    32
  0
VERTEX
  8
0
  5
39CB2
 10
-367.157
 20
856.215
 30
0.000000
  70
    32
  0
VERTEX
  8
0
  5
39CB3
 10
-367.159
 20
856.214
 30
0.000000
  70
    32
  0
VERTEX
  8
0
  5
39CB4
 10
-367.161
 20
856.212
 30
0.000000
  70
    32
  0
VERTEX
  8
0
  5
39CB5
 10
-367.162
 20
856.211
 30
0.000000
  70
    32
  0
VERTEX
  8
0
  5
39CB6
 10
-367.164
 20
856.209
 30
0.000000
  70
    32
  0
VERTEX
  8
0
  5
39CB7
 10
-367.166
 20
856.208
 30
0.000000
  70
    32
  0
VERTEX
  8
0
  5
39CB8
 10
-367.167
 20
856.206
 30
0.000000
  70
    32
  0
VERTEX
  8
0
  5
39CB9
 10
-367.169
 20
856.205
 30
0.000000
  70
    32
  0
VERTEX
  8
0
  5
39CBA
 10
-367.171
 20
856.203
 30
0.000000
  70
    32
  0
VERTEX
  8
0
  5
39CBB
 10
-367.173
 20
856.202
 30
0.000000
  70
    32
  0
VERTEX
  8
0
  5
39CBC
 10
-367.174
 20
856.201
 30
0.000000
  70
    32
  0
VERTEX
  8
0
  5
39CBD
 10
-367.176
 20
856.199
 30
0.000000
  70
    32
  0
VERTEX
  8
0
  5
39CBE
 10
-367.178
 20
856.198
 30
0.000000
  70
    32
  0
VERTEX
  8
0
  5
39CBF
 10
-367.180
 20
856.197
 30
0.000000
  70
    32
  0
VERTEX
  8
0
  5
39CC0
 10
-367.181
 20
856.195
 30
0.000000
  70
    32
  0
SEQEND
  8
0
  5
39CC1
  0
POLYLINE
  8
0
  5
39CC2
  66
     1
 10
0.000000
 20
0.000000
 30
0.000000
  70
     8
  0
VERTEX
  8
0
  5
39CC3
 10
-366.666
 20
856.936
 30
0.000000
  70
    32
  0
VERTEX
  8
0
  5
39CC4
 10
-366.658
 20
856.940
 30
0.000000
  70
    32
  0
VERTEX
  8
0
  5
39CC5
 10
-366.649
 20
856.943
 30
0.000000
  70
    32
  0
VERTEX
  8
0
  5
39CC6
 10
-366.641
 20
856.947
 30
0.000000
  70
    32
  0
VERTEX
  8
0
  5
39CC7
 10
-366.632
 20
856.950
 30
0.000000
  70
    32
  0
VERTEX
  8
0
  5
39CC8
 10
-366.623
 20
856.954
 30
0.000000
  70
    32
  0
VERTEX
  8
0
  5
39CC9
 10
-366.615
 20
856.957
 30
0.000000
  70
    32
  0
VERTEX
  8
0
  5
39CCA
 10
-366.606
 20
856.961
 30
0.000000
  70
    32
  0
VERTEX
  8
0
  5
39CCB
 10
-366.598
 20
856.965
 30
0.000000
  70
    32
  0
VERTEX
  8
0
  5
39CCC
 10
-366.589
 20
856.968
 30
0.000000
  70
    32
  0
VERTEX
  8
0
  5
39CCD
 10
-366.580
 20
856.972
 30
0.000000
  70
    32
  0
VERTEX
  8
0
  5
39CCE
 10
-366.572
 20
856.975
 30
0.000000
  70
    32
  0
VERTEX
  8
0
  5
39CCF
 10
-366.563
 20
856.979
 30
0.000000
  70
    32
  0
VERTEX
  8
0
  5
39CD0
 10
-366.555
 20
856.982
 30
0.000000
  70
    32
  0
VERTEX
  8
0
  5
39CD1
 10
-366.546
 20
856.986
 30
0.000000
  70
    32
  0
VERTEX
  8
0
  5
39CD2
 10
-366.537
 20
856.990
 30
0.000000
  70
    32
  0
VERTEX
  8
0
  5
39CD3
 10
-366.529
 20
856.993
 30
0.000000
  70
    32
  0
VERTEX
  8
0
  5
39CD4
 10
-366.520
 20
856.997
 30
0.000000
  70
    32
  0
VERTEX
  8
0
  5
39CD5
 10
-366.512
 20
857.001
 30
0.000000
  70
    32
  0
VERTEX
  8
0
  5
39CD6
 10
-366.503
 20
857.004
 30
0.000000
  70
    32
  0
VERTEX
  8
0
  5
39CD7
 10
-366.495
 20
857.008
 30
0.000000
  70
    32
  0
VERTEX
  8
0
  5
39CD8
 10
-366.486
 20
857.012
 30
0.000000
  70
    32
  0
VERTEX
  8
0
  5
39CD9
 10
-366.478
 20
857.016
 30
0.000000
  70
    32
  0
VERTEX
  8
0
  5
39CDA
 10
-366.469
 20
857.019
 30
0.000000
  70
    32
  0
VERTEX
  8
0
  5
39CDB
 10
-366.461
 20
857.023
 30
0.000000
  70
    32
  0
VERTEX
  8
0
  5
39CDC
 10
-366.452
 20
857.027
 30
0.000000
  70
    32
  0
VERTEX
  8
0
  5
39CDD
 10
-366.444
 20
857.031
 30
0.000000
  70
    32
  0
VERTEX
  8
0
  5
39CDE
 10
-366.435
 20
857.035
 30
0.000000
  70
    32
  0
VERTEX
  8
0
  5
39CDF
 10
-366.427
 20
857.039
 30
0.000000
  70
    32
  0
VERTEX
  8
0
  5
39CE0
 10
-366.419
 20
857.043
 30
0.000000
  70
    32
  0
VERTEX
  8
0
  5
39CE1
 10
-366.410
 20
857.047
 30
0.000000
  70
    32
  0
VERTEX
  8
0
  5
39CE2
 10
-366.402
 20
857.051
 30
0.000000
  70
    32
  0
VERTEX
  8
0
  5
39CE3
 10
-366.394
 20
857.055
 30
0.000000
  70
    32
  0
VERTEX
  8
0
  5
39CE4
 10
-366.386
 20
857.060
 30
0.000000
  70
    32
  0
VERTEX
  8
0
  5
39CE5
 10
-366.377
 20
857.064
 30
0.000000
  70
    32
  0
VERTEX
  8
0
  5
39CE6
 10
-366.369
 20
857.068
 30
0.000000
  70
    32
  0
VERTEX
  8
0
  5
39CE7
 10
-366.361
 20
857.073
 30
0.000000
  70
    32
  0
VERTEX
  8
0
  5
39CE8
 10
-366.353
 20
857.077
 30
0.000000
  70
    32
  0
VERTEX
  8
0
  5
39CE9
 10
-366.345
 20
857.082
 30
0.000000
  70
    32
  0
VERTEX
  8
0
  5
39CEA
 10
-366.337
 20
857.086
 30
0.000000
  70
    32
  0
VERTEX
  8
0
  5
39CEB
 10
-366.329
 20
857.091
 30
0.000000
  70
    32
  0
VERTEX
  8
0
  5
39CEC
 10
-366.321
 20
857.096
 30
0.000000
  70
    32
  0
VERTEX
  8
0
  5
39CED
 10
-366.313
 20
857.101
 30
0.000000
  70
    32
  0
VERTEX
  8
0
  5
39CEE
 10
-366.305
 20
857.106
 30
0.000000
  70
    32
  0
VERTEX
  8
0
  5
39CEF
 10
-366.297
 20
857.110
 30
0.000000
  70
    32
  0
VERTEX
  8
0
  5
39CF0
 10
-366.289
 20
857.115
 30
0.000000
  70
    32
  0
VERTEX
  8
0
  5
39CF1
 10
-366.281
 20
857.120
 30
0.000000
  70
    32
  0
VERTEX
  8
0
  5
39CF2
 10
-366.273
 20
857.126
 30
0.000000
  70
    32
  0
VERTEX
  8
0
  5
39CF3
 10
-366.265
 20
857.131
 30
0.000000
  70
    32
  0
VERTEX
  8
0
  5
39CF4
 10
-366.258
 20
857.136
 30
0.000000
  70
    32
  0
VERTEX
  8
0
  5
39CF5
 10
-366.250
 20
857.141
 30
0.000000
  70
    32
  0
VERTEX
  8
0
  5
39CF6
 10
-366.242
 20
857.146
 30
0.000000
  70
    32
  0
VERTEX
  8
0
  5
39CF7
 10
-366.235
 20
857.152
 30
0.000000
  70
    32
  0
VERTEX
  8
0
  5
39CF8
 10
-366.227
 20
857.157
 30
0.000000
  70
    32
  0
VERTEX
  8
0
  5
39CF9
 10
-366.219
 20
857.163
 30
0.000000
  70
    32
  0
VERTEX
  8
0
  5
39CFA
 10
-366.212
 20
857.168
 30
0.000000
  70
    32
  0
VERTEX
  8
0
  5
39CFB
 10
-366.204
 20
857.174
 30
0.000000
  70
    32
  0
VERTEX
  8
0
  5
39CFC
 10
-366.197
 20
857.179
 30
0.000000
  70
    32
  0
VERTEX
  8
0
  5
39CFD
 10
-366.190
 20
857.185
 30
0.000000
  70
    32
  0
VERTEX
  8
0
  5
39CFE
 10
-366.182
 20
857.191
 30
0.000000
  70
    32
  0
VERTEX
  8
0
  5
39CFF
 10
-366.175
 20
857.196
 30
0.000000
  70
    32
  0
VERTEX
  8
0
  5
39D00
 10
-366.167
 20
857.202
 30
0.000000
  70
    32
  0
VERTEX
  8
0
  5
39D01
 10
-366.160
 20
857.208
 30
0.000000
  70
    32
  0
VERTEX
  8
0
  5
39D02
 10
-366.153
 20
857.214
 30
0.000000
  70
    32
  0
VERTEX
  8
0
  5
39D03
 10
-366.146
 20
857.220
 30
0.000000
  70
    32
  0
VERTEX
  8
0
  5
39D04
 10
-366.139
 20
857.226
 30
0.000000
  70
    32
  0
VERTEX
  8
0
  5
39D05
 10
-366.131
 20
857.232
 30
0.000000
  70
    32
  0
VERTEX
  8
0
  5
39D06
 10
-366.124
 20
857.238
 30
0.000000
  70
    32
  0
VERTEX
  8
0
  5
39D07
 10
-366.117
 20
857.244
 30
0.000000
  70
    32
  0
VERTEX
  8
0
  5
39D08
 10
-366.110
 20
857.250
 30
0.000000
  70
    32
  0
VERTEX
  8
0
  5
39D09
 10
-366.103
 20
857.257
 30
0.000000
  70
    32
  0
VERTEX
  8
0
  5
39D0A
 10
-366.096
 20
857.263
 30
0.000000
  70
    32
  0
VERTEX
  8
0
  5
39D0B
 10
-366.089
 20
857.269
 30
0.000000
  70
    32
  0
VERTEX
  8
0
  5
39D0C
 10
-366.083
 20
857.276
 30
0.000000
  70
    32
  0
VERTEX
  8
0
  5
39D0D
 10
-366.076
 20
857.282
 30
0.000000
  70
    32
  0
VERTEX
  8
0
  5
39D0E
 10
-366.069
 20
857.288
 30
0.000000
  70
    32
  0
VERTEX
  8
0
  5
39D0F
 10
-366.062
 20
857.295
 30
0.000000
  70
    32
  0
VERTEX
  8
0
  5
39D10
 10
-366.055
 20
857.301
 30
0.000000
  70
    32
  0
VERTEX
  8
0
  5
39D11
 10
-366.049
 20
857.308
 30
0.000000
  70
    32
  0
VERTEX
  8
0
  5
39D12
 10
-366.042
 20
857.314
 30
0.000000
  70
    32
  0
VERTEX
  8
0
  5
39D13
 10
-366.036
 20
857.321
 30
0.000000
  70
    32
  0
VERTEX
  8
0
  5
39D14
 10
-366.029
 20
857.328
 30
0.000000
  70
    32
  0
VERTEX
  8
0
  5
39D15
 10
-366.022
 20
857.334
 30
0.000000
  70
    32
  0
VERTEX
  8
0
  5
39D16
 10
-366.016
 20
857.341
 30
0.000000
  70
    32
  0
VERTEX
  8
0
  5
39D17
 10
-366.009
 20
857.348
 30
0.000000
  70
    32
  0
VERTEX
  8
0
  5
39D18
 10
-366.003
 20
857.355
 30
0.000000
  70
    32
  0
VERTEX
  8
0
  5
39D19
 10
-365.997
 20
857.361
 30
0.000000
  70
    32
  0
VERTEX
  8
0
  5
39D1A
 10
-365.990
 20
857.368
 30
0.000000
  70
    32
  0
VERTEX
  8
0
  5
39D1B
 10
-365.984
 20
857.375
 30
0.000000
  70
    32
  0
VERTEX
  8
0
  5
39D1C
 10
-365.978
 20
857.382
 30
0.000000
  70
    32
  0
VERTEX
  8
0
  5
39D1D
 10
-365.972
 20
857.389
 30
0.000000
  70
    32
  0
VERTEX
  8
0
  5
39D1E
 10
-365.965
 20
857.396
 30
0.000000
  70
    32
  0
VERTEX
  8
0
  5
39D1F
 10
-365.959
 20
857.403
 30
0.000000
  70
    32
  0
VERTEX
  8
0
  5
39D20
 10
-365.953
 20
857.410
 30
0.000000
  70
    32
  0
VERTEX
  8
0
  5
39D21
 10
-365.947
 20
857.417
 30
0.000000
  70
    32
  0
VERTEX
  8
0
  5
39D22
 10
-365.941
 20
857.424
 30
0.000000
  70
    32
  0
VERTEX
  8
0
  5
39D23
 10
-365.935
 20
857.431
 30
0.000000
  70
    32
  0
VERTEX
  8
0
  5
39D24
 10
-365.929
 20
857.438
 30
0.000000
  70
    32
  0
VERTEX
  8
0
  5
39D25
 10
-365.923
 20
857.445
 30
0.000000
  70
    32
  0
VERTEX
  8
0
  5
39D26
 10
-365.917
 20
857.453
 30
0.000000
  70
    32
  0
VERTEX
  8
0
  5
39D27
 10
-365.911
 20
857.460
 30
0.000000
  70
    32
  0
VERTEX
  8
0
  5
39D28
 10
-365.905
 20
857.467
 30
0.000000
  70
    32
  0
VERTEX
  8
0
  5
39D29
 10
-365.900
 20
857.474
 30
0.000000
  70
    32
  0
VERTEX
  8
0
  5
39D2A
 10
-365.894
 20
857.482
 30
0.000000
  70
    32
  0
VERTEX
  8
0
  5
39D2B
 10
-365.888
 20
857.489
 30
0.000000
  70
    32
  0
VERTEX
  8
0
  5
39D2C
 10
-365.882
 20
857.496
 30
0.000000
  70
    32
  0
VERTEX
  8
0
  5
39D2D
 10
-365.877
 20
857.504
 30
0.000000
  70
    32
  0
VERTEX
  8
0
  5
39D2E
 10
-365.871
 20
857.511
 30
0.000000
  70
    32
  0
VERTEX
  8
0
  5
39D2F
 10
-365.865
 20
857.518
 30
0.000000
  70
    32
  0
VERTEX
  8
0
  5
39D30
 10
-365.860
 20
857.526
 30
0.000000
  70
    32
  0
VERTEX
  8
0
  5
39D31
 10
-365.854
 20
857.533
 30
0.000000
  70
    32
  0
VERTEX
  8
0
  5
39D32
 10
-365.849
 20
857.541
 30
0.000000
  70
    32
  0
VERTEX
  8
0
  5
39D33
 10
-365.843
 20
857.548
 30
0.000000
  70
    32
  0
VERTEX
  8
0
  5
39D34
 10
-365.838
 20
857.556
 30
0.000000
  70
    32
  0
VERTEX
  8
0
  5
39D35
 10
-365.832
 20
857.563
 30
0.000000
  70
    32
  0
VERTEX
  8
0
  5
39D36
 10
-365.827
 20
857.571
 30
0.000000
  70
    32
  0
VERTEX
  8
0
  5
39D37
 10
-365.821
 20
857.579
 30
0.000000
  70
    32
  0
VERTEX
  8
0
  5
39D38
 10
-365.816
 20
857.586
 30
0.000000
  70
    32
  0
VERTEX
  8
0
  5
39D39
 10
-365.811
 20
857.594
 30
0.000000
  70
    32
  0
VERTEX
  8
0
  5
39D3A
 10
-365.805
 20
857.601
 30
0.000000
  70
    32
  0
VERTEX
  8
0
  5
39D3B
 10
-365.800
 20
857.609
 30
0.000000
  70
    32
  0
VERTEX
  8
0
  5
39D3C
 10
-365.795
 20
857.617
 30
0.000000
  70
    32
  0
VERTEX
  8
0
  5
39D3D
 10
-365.789
 20
857.624
 30
0.000000
  70
    32
  0
VERTEX
  8
0
  5
39D3E
 10
-365.784
 20
857.632
 30
0.000000
  70
    32
  0
VERTEX
  8
0
  5
39D3F
 10
-365.779
 20
857.640
 30
0.000000
  70
    32
  0
VERTEX
  8
0
  5
39D40
 10
-365.774
 20
857.647
 30
0.000000
  70
    32
  0
VERTEX
  8
0
  5
39D41
 10
-365.768
 20
857.655
 30
0.000000
  70
    32
  0
VERTEX
  8
0
  5
39D42
 10
-365.763
 20
857.663
 30
0.000000
  70
    32
  0
VERTEX
  8
0
  5
39D43
 10
-365.758
 20
857.671
 30
0.000000
  70
    32
  0
VERTEX
  8
0
  5
39D44
 10
-365.753
 20
857.678
 30
0.000000
  70
    32
  0
VERTEX
  8
0
  5
39D45
 10
-365.748
 20
857.686
 30
0.000000
  70
    32
  0
VERTEX
  8
0
  5
39D46
 10
-365.743
 20
857.694
 30
0.000000
  70
    32
  0
VERTEX
  8
0
  5
39D47
 10
-365.738
 20
857.702
 30
0.000000
  70
    32
  0
VERTEX
  8
0
  5
39D48
 10
-365.732
 20
857.710
 30
0.000000
  70
    32
  0
VERTEX
  8
0
  5
39D49
 10
-365.727
 20
857.717
 30
0.000000
  70
    32
  0
VERTEX
  8
0
  5
39D4A
 10
-365.722
 20
857.725
 30
0.000000
  70
    32
  0
VERTEX
  8
0
  5
39D4B
 10
-365.717
 20
857.733
 30
0.000000
  70
    32
  0
VERTEX
  8
0
  5
39D4C
 10
-365.712
 20
857.741
 30
0.000000
  70
    32
  0
VERTEX
  8
0
  5
39D4D
 10
-365.707
 20
857.749
 30
0.000000
  70
    32
  0
VERTEX
  8
0
  5
39D4E
 10
-365.702
 20
857.757
 30
0.000000
  70
    32
  0
VERTEX
  8
0
  5
39D4F
 10
-365.697
 20
857.765
 30
0.000000
  70
    32
  0
VERTEX
  8
0
  5
39D50
 10
-365.692
 20
857.772
 30
0.000000
  70
    32
  0
VERTEX
  8
0
  5
39D51
 10
-365.688
 20
857.780
 30
0.000000
  70
    32
  0
VERTEX
  8
0
  5
39D52
 10
-365.683
 20
857.788
 30
0.000000
  70
    32
  0
VERTEX
  8
0
  5
39D53
 10
-365.678
 20
857.796
 30
0.000000
  70
    32
  0
VERTEX
  8
0
  5
39D54
 10
-365.673
 20
857.804
 30
0.000000
  70
    32
  0
VERTEX
  8
0
  5
39D55
 10
-365.668
 20
857.812
 30
0.000000
  70
    32
  0
VERTEX
  8
0
  5
39D56
 10
-365.663
 20
857.820
 30
0.000000
  70
    32
  0
VERTEX
  8
0
  5
39D57
 10
-365.658
 20
857.828
 30
0.000000
  70
    32
  0
VERTEX
  8
0
  5
39D58
 10
-365.653
 20
857.836
 30
0.000000
  70
    32
  0
VERTEX
  8
0
  5
39D59
 10
-365.649
 20
857.844
 30
0.000000
  70
    32
  0
VERTEX
  8
0
  5
39D5A
 10
-365.644
 20
857.852
 30
0.000000
  70
    32
  0
VERTEX
  8
0
  5
39D5B
 10
-365.639
 20
857.860
 30
0.000000
  70
    32
  0
VERTEX
  8
0
  5
39D5C
 10
-365.634
 20
857.868
 30
0.000000
  70
    32
  0
VERTEX
  8
0
  5
39D5D
 10
-365.629
 20
857.876
 30
0.000000
  70
    32
  0
VERTEX
  8
0
  5
39D5E
 10
-365.625
 20
857.884
 30
0.000000
  70
    32
  0
VERTEX
  8
0
  5
39D5F
 10
-365.620
 20
857.892
 30
0.000000
  70
    32
  0
VERTEX
  8
0
  5
39D60
 10
-365.615
 20
857.900
 30
0.000000
  70
    32
  0
VERTEX
  8
0
  5
39D61
 10
-365.610
 20
857.908
 30
0.000000
  70
    32
  0
VERTEX
  8
0
  5
39D62
 10
-365.606
 20
857.916
 30
0.000000
  70
    32
  0
VERTEX
  8
0
  5
39D63
 10
-365.601
 20
857.924
 30
0.000000
  70
    32
  0
VERTEX
  8
0
  5
39D64
 10
-365.596
 20
857.932
 30
0.000000
  70
    32
  0
VERTEX
  8
0
  5
39D65
 10
-365.592
 20
857.940
 30
0.000000
  70
    32
  0
VERTEX
  8
0
  5
39D66
 10
-365.587
 20
857.948
 30
0.000000
  70
    32
  0
VERTEX
  8
0
  5
39D67
 10
-365.582
 20
857.956
 30
0.000000
  70
    32
  0
VERTEX
  8
0
  5
39D68
 10
-365.577
 20
857.964
 30
0.000000
  70
    32
  0
VERTEX
  8
0
  5
39D69
 10
-365.573
 20
857.972
 30
0.000000
  70
    32
  0
VERTEX
  8
0
  5
39D6A
 10
-365.568
 20
857.980
 30
0.000000
  70
    32
  0
VERTEX
  8
0
  5
39D6B
 10
-365.564
 20
857.988
 30
0.000000
  70
    32
  0
VERTEX
  8
0
  5
39D6C
 10
-365.559
 20
857.996
 30
0.000000
  70
    32
  0
VERTEX
  8
0
  5
39D6D
 10
-365.554
 20
858.004
 30
0.000000
  70
    32
  0
VERTEX
  8
0
  5
39D6E
 10
-365.550
 20
858.012
 30
0.000000
  70
    32
  0
VERTEX
  8
0
  5
39D6F
 10
-365.545
 20
858.020
 30
0.000000
  70
    32
  0
VERTEX
  8
0
  5
39D70
 10
-365.540
 20
858.028
 30
0.000000
  70
    32
  0
VERTEX
  8
0
  5
39D71
 10
-365.536
 20
858.036
 30
0.000000
  70
    32
  0
VERTEX
  8
0
  5
39D72
 10
-365.531
 20
858.044
 30
0.000000
  70
    32
  0
VERTEX
  8
0
  5
39D73
 10
-365.527
 20
858.053
 30
0.000000
  70
    32
  0
VERTEX
  8
0
  5
39D74
 10
-365.522
 20
858.061
 30
0.000000
  70
    32
  0
VERTEX
  8
0
  5
39D75
 10
-365.518
 20
858.069
 30
0.000000
  70
    32
  0
VERTEX
  8
0
  5
39D76
 10
-365.513
 20
858.077
 30
0.000000
  70
    32
  0
VERTEX
  8
0
  5
39D77
 10
-365.509
 20
858.085
 30
0.000000
  70
    32
  0
VERTEX
  8
0
  5
39D78
 10
-365.504
 20
858.093
 30
0.000000
  70
    32
  0
VERTEX
  8
0
  5
39D79
 10
-365.500
 20
858.101
 30
0.000000
  70
    32
  0
VERTEX
  8
0
  5
39D7A
 10
-365.495
 20
858.110
 30
0.000000
  70
    32
  0
VERTEX
  8
0
  5
39D7B
 10
-365.491
 20
858.118
 30
0.000000
  70
    32
  0
VERTEX
  8
0
  5
39D7C
 10
-365.487
 20
858.126
 30
0.000000
  70
    32
  0
VERTEX
  8
0
  5
39D7D
 10
-365.482
 20
858.134
 30
0.000000
  70
    32
  0
VERTEX
  8
0
  5
39D7E
 10
-365.478
 20
858.142
 30
0.000000
  70
    32
  0
VERTEX
  8
0
  5
39D7F
 10
-365.474
 20
858.151
 30
0.000000
  70
    32
  0
VERTEX
  8
0
  5
39D80
 10
-365.469
 20
858.159
 30
0.000000
  70
    32
  0
VERTEX
  8
0
  5
39D81
 10
-365.465
 20
858.167
 30
0.000000
  70
    32
  0
VERTEX
  8
0
  5
39D82
 10
-365.461
 20
858.176
 30
0.000000
  70
    32
  0
VERTEX
  8
0
  5
39D83
 10
-365.457
 20
858.184
 30
0.000000
  70
    32
  0
VERTEX
  8
0
  5
39D84
 10
-365.453
 20
858.192
 30
0.000000
  70
    32
  0
VERTEX
  8
0
  5
39D85
 10
-365.449
 20
858.201
 30
0.000000
  70
    32
  0
VERTEX
  8
0
  5
39D86
 10
-365.445
 20
858.209
 30
0.000000
  70
    32
  0
VERTEX
  8
0
  5
39D87
 10
-365.440
 20
858.217
 30
0.000000
  70
    32
  0
VERTEX
  8
0
  5
39D88
 10
-365.436
 20
858.226
 30
0.000000
  70
    32
  0
VERTEX
  8
0
  5
39D89
 10
-365.432
 20
858.234
 30
0.000000
  70
    32
  0
VERTEX
  8
0
  5
39D8A
 10
-365.428
 20
858.242
 30
0.000000
  70
    32
  0
VERTEX
  8
0
  5
39D8B
 10
-365.425
 20
858.251
 30
0.000000
  70
    32
  0
VERTEX
  8
0
  5
39D8C
 10
-365.421
 20
858.259
 30
0.000000
  70
    32
  0
VERTEX
  8
0
  5
39D8D
 10
-365.417
 20
858.268
 30
0.000000
  70
    32
  0
VERTEX
  8
0
  5
39D8E
 10
-365.413
 20
858.276
 30
0.000000
  70
    32
  0
VERTEX
  8
0
  5
39D8F
 10
-365.409
 20
858.285
 30
0.000000
  70
    32
  0
VERTEX
  8
0
  5
39D90
 10
-365.405
 20
858.293
 30
0.000000
  70
    32
  0
VERTEX
  8
0
  5
39D91
 10
-365.401
 20
858.302
 30
0.000000
  70
    32
  0
VERTEX
  8
0
  5
39D92
 10
-365.397
 20
858.310
 30
0.000000
  70
    32
  0
VERTEX
  8
0
  5
39D93
 10
-365.394
 20
858.318
 30
0.000000
  70
    32
  0
VERTEX
  8
0
  5
39D94
 10
-365.390
 20
858.327
 30
0.000000
  70
    32
  0
VERTEX
  8
0
  5
39D95
 10
-365.386
 20
858.335
 30
0.000000
  70
    32
  0
VERTEX
  8
0
  5
39D96
 10
-365.382
 20
858.344
 30
0.000000
  70
    32
  0
VERTEX
  8
0
  5
39D97
 10
-365.379
 20
858.352
 30
0.000000
  70
    32
  0
VERTEX
  8
0
  5
39D98
 10
-365.375
 20
858.361
 30
0.000000
  70
    32
  0
VERTEX
  8
0
  5
39D99
 10
-365.371
 20
858.369
 30
0.000000
  70
    32
  0
VERTEX
  8
0
  5
39D9A
 10
-365.367
 20
858.378
 30
0.000000
  70
    32
  0
VERTEX
  8
0
  5
39D9B
 10
-365.364
 20
858.387
 30
0.000000
  70
    32
  0
VERTEX
  8
0
  5
39D9C
 10
-365.360
 20
858.395
 30
0.000000
  70
    32
  0
VERTEX
  8
0
  5
39D9D
 10
-365.356
 20
858.404
 30
0.000000
  70
    32
  0
VERTEX
  8
0
  5
39D9E
 10
-365.352
 20
858.412
 30
0.000000
  70
    32
  0
VERTEX
  8
0
  5
39D9F
 10
-365.349
 20
858.421
 30
0.000000
  70
    32
  0
VERTEX
  8
0
  5
39DA0
 10
-365.345
 20
858.429
 30
0.000000
  70
    32
  0
VERTEX
  8
0
  5
39DA1
 10
-365.341
 20
858.438
 30
0.000000
  70
    32
  0
VERTEX
  8
0
  5
39DA2
 10
-365.337
 20
858.446
 30
0.000000
  70
    32
  0
VERTEX
  8
0
  5
39DA3
 10
-365.333
 20
858.455
 30
0.000000
  70
    32
  0
VERTEX
  8
0
  5
39DA4
 10
-365.330
 20
858.463
 30
0.000000
  70
    32
  0
VERTEX
  8
0
  5
39DA5
 10
-365.326
 20
858.472
 30
0.000000
  70
    32
  0
VERTEX
  8
0
  5
39DA6
 10
-365.322
 20
858.480
 30
0.000000
  70
    32
  0
VERTEX
  8
0
  5
39DA7
 10
-365.318
 20
858.489
 30
0.000000
  70
    32
  0
VERTEX
  8
0
  5
39DA8
 10
-365.314
 20
858.497
 30
0.000000
  70
    32
  0
VERTEX
  8
0
  5
39DA9
 10
-365.311
 20
858.505
 30
0.000000
  70
    32
  0
VERTEX
  8
0
  5
39DAA
 10
-365.307
 20
858.514
 30
0.000000
  70
    32
  0
VERTEX
  8
0
  5
39DAB
 10
-365.303
 20
858.522
 30
0.000000
  70
    32
  0
VERTEX
  8
0
  5
39DAC
 10
-365.299
 20
858.531
 30
0.000000
  70
    32
  0
VERTEX
  8
0
  5
39DAD
 10
-365.295
 20
858.539
 30
0.000000
  70
    32
  0
VERTEX
  8
0
  5
39DAE
 10
-365.291
 20
858.548
 30
0.000000
  70
    32
  0
VERTEX
  8
0
  5
39DAF
 10
-365.287
 20
858.556
 30
0.000000
  70
    32
  0
VERTEX
  8
0
  5
39DB0
 10
-365.283
 20
858.564
 30
0.000000
  70
    32
  0
VERTEX
  8
0
  5
39DB1
 10
-365.279
 20
858.573
 30
0.000000
  70
    32
  0
VERTEX
  8
0
  5
39DB2
 10
-365.275
 20
858.581
 30
0.000000
  70
    32
  0
VERTEX
  8
0
  5
39DB3
 10
-365.271
 20
858.590
 30
0.000000
  70
    32
  0
VERTEX
  8
0
  5
39DB4
 10
-365.267
 20
858.598
 30
0.000000
  70
    32
  0
VERTEX
  8
0
  5
39DB5
 10
-365.263
 20
858.606
 30
0.000000
  70
    32
  0
VERTEX
  8
0
  5
39DB6
 10
-365.259
 20
858.615
 30
0.000000
  70
    32
  0
VERTEX
  8
0
  5
39DB7
 10
-365.254
 20
858.623
 30
0.000000
  70
    32
  0
VERTEX
  8
0
  5
39DB8
 10
-365.250
 20
858.631
 30
0.000000
  70
    32
  0
VERTEX
  8
0
  5
39DB9
 10
-365.246
 20
858.640
 30
0.000000
  70
    32
  0
VERTEX
  8
0
  5
39DBA
 10
-365.242
 20
858.648
 30
0.000000
  70
    32
  0
VERTEX
  8
0
  5
39DBB
 10
-365.238
 20
858.656
 30
0.000000
  70
    32
  0
VERTEX
  8
0
  5
39DBC
 10
-365.234
 20
858.665
 30
0.000000
  70
    32
  0
VERTEX
  8
0
  5
39DBD
 10
-365.229
 20
858.673
 30
0.000000
  70
    32
  0
VERTEX
  8
0
  5
39DBE
 10
-365.225
 20
858.681
 30
0.000000
  70
    32
  0
VERTEX
  8
0
  5
39DBF
 10
-365.221
 20
858.689
 30
0.000000
  70
    32
  0
VERTEX
  8
0
  5
39DC0
 10
-365.217
 20
858.698
 30
0.000000
  70
    32
  0
VERTEX
  8
0
  5
39DC1
 10
-365.212
 20
858.706
 30
0.000000
  70
    32
  0
VERTEX
  8
0
  5
39DC2
 10
-365.208
 20
858.714
 30
0.000000
  70
    32
  0
VERTEX
  8
0
  5
39DC3
 10
-365.204
 20
858.722
 30
0.000000
  70
    32
  0
VERTEX
  8
0
  5
39DC4
 10
-365.200
 20
858.731
 30
0.000000
  70
    32
  0
VERTEX
  8
0
  5
39DC5
 10
-365.195
 20
858.739
 30
0.000000
  70
    32
  0
VERTEX
  8
0
  5
39DC6
 10
-365.191
 20
858.747
 30
0.000000
  70
    32
  0
VERTEX
  8
0
  5
39DC7
 10
-365.186
 20
858.755
 30
0.000000
  70
    32
  0
VERTEX
  8
0
  5
39DC8
 10
-365.182
 20
858.764
 30
0.000000
  70
    32
  0
VERTEX
  8
0
  5
39DC9
 10
-365.178
 20
858.772
 30
0.000000
  70
    32
  0
VERTEX
  8
0
  5
39DCA
 10
-365.173
 20
858.780
 30
0.000000
  70
    32
  0
VERTEX
  8
0
  5
39DCB
 10
-365.169
 20
858.788
 30
0.000000
  70
    32
  0
VERTEX
  8
0
  5
39DCC
 10
-365.164
 20
858.796
 30
0.000000
  70
    32
  0
VERTEX
  8
0
  5
39DCD
 10
-365.160
 20
858.805
 30
0.000000
  70
    32
  0
VERTEX
  8
0
  5
39DCE
 10
-365.156
 20
858.813
 30
0.000000
  70
    32
  0
VERTEX
  8
0
  5
39DCF
 10
-365.151
 20
858.821
 30
0.000000
  70
    32
  0
VERTEX
  8
0
  5
39DD0
 10
-365.147
 20
858.829
 30
0.000000
  70
    32
  0
VERTEX
  8
0
  5
39DD1
 10
-365.142
 20
858.837
 30
0.000000
  70
    32
  0
VERTEX
  8
0
  5
39DD2
 10
-365.138
 20
858.845
 30
0.000000
  70
    32
  0
VERTEX
  8
0
  5
39DD3
 10
-365.133
 20
858.853
 30
0.000000
  70
    32
  0
VERTEX
  8
0
  5
39DD4
 10
-365.129
 20
858.862
 30
0.000000
  70
    32
  0
VERTEX
  8
0
  5
39DD5
 10
-365.124
 20
858.870
 30
0.000000
  70
    32
  0
VERTEX
  8
0
  5
39DD6
 10
-365.119
 20
858.878
 30
0.000000
  70
    32
  0
VERTEX
  8
0
  5
39DD7
 10
-365.115
 20
858.886
 30
0.000000
  70
    32
  0
VERTEX
  8
0
  5
39DD8
 10
-365.110
 20
858.894
 30
0.000000
  70
    32
  0
VERTEX
  8
0
  5
39DD9
 10
-365.106
 20
858.902
 30
0.000000
  70
    32
  0
VERTEX
  8
0
  5
39DDA
 10
-365.101
 20
858.910
 30
0.000000
  70
    32
  0
VERTEX
  8
0
  5
39DDB
 10
-365.097
 20
858.918
 30
0.000000
  70
    32
  0
VERTEX
  8
0
  5
39DDC
 10
-365.092
 20
858.926
 30
0.000000
  70
    32
  0
VERTEX
  8
0
  5
39DDD
 10
-365.087
 20
858.934
 30
0.000000
  70
    32
  0
VERTEX
  8
0
  5
39DDE
 10
-365.083
 20
858.942
 30
0.000000
  70
    32
  0
VERTEX
  8
0
  5
39DDF
 10
-365.078
 20
858.950
 30
0.000000
  70
    32
  0
VERTEX
  8
0
  5
39DE0
 10
-365.073
 20
858.958
 30
0.000000
  70
    32
  0
VERTEX
  8
0
  5
39DE1
 10
-365.069
 20
858.967
 30
0.000000
  70
    32
  0
VERTEX
  8
0
  5
39DE2
 10
-365.064
 20
858.975
 30
0.000000
  70
    32
  0
VERTEX
  8
0
  5
39DE3
 10
-365.059
 20
858.983
 30
0.000000
  70
    32
  0
VERTEX
  8
0
  5
39DE4
 10
-365.055
 20
858.991
 30
0.000000
  70
    32
  0
VERTEX
  8
0
  5
39DE5
 10
-365.050
 20
858.999
 30
0.000000
  70
    32
  0
VERTEX
  8
0
  5
39DE6
 10
-365.045
 20
859.007
 30
0.000000
  70
    32
  0
VERTEX
  8
0
  5
39DE7
 10
-365.040
 20
859.015
 30
0.000000
  70
    32
  0
VERTEX
  8
0
  5
39DE8
 10
-365.036
 20
859.023
 30
0.000000
  70
    32
  0
VERTEX
  8
0
  5
39DE9
 10
-365.031
 20
859.031
 30
0.000000
  70
    32
  0
VERTEX
  8
0
  5
39DEA
 10
-365.026
 20
859.039
 30
0.000000
  70
    32
  0
VERTEX
  8
0
  5
39DEB
 10
-365.021
 20
859.047
 30
0.000000
  70
    32
  0
VERTEX
  8
0
  5
39DEC
 10
-365.016
 20
859.054
 30
0.000000
  70
    32
  0
VERTEX
  8
0
  5
39DED
 10
-365.012
 20
859.062
 30
0.000000
  70
    32
  0
VERTEX
  8
0
  5
39DEE
 10
-365.007
 20
859.070
 30
0.000000
  70
    32
  0
VERTEX
  8
0
  5
39DEF
 10
-365.002
 20
859.078
 30
0.000000
  70
    32
  0
VERTEX
  8
0
  5
39DF0
 10
-364.997
 20
859.086
 30
0.000000
  70
    32
  0
VERTEX
  8
0
  5
39DF1
 10
-364.992
 20
859.094
 30
0.000000
  70
    32
  0
VERTEX
  8
0
  5
39DF2
 10
-364.987
 20
859.102
 30
0.000000
  70
    32
  0
VERTEX
  8
0
  5
39DF3
 10
-364.983
 20
859.110
 30
0.000000
  70
    32
  0
VERTEX
  8
0
  5
39DF4
 10
-364.978
 20
859.118
 30
0.000000
  70
    32
  0
VERTEX
  8
0
  5
39DF5
 10
-364.973
 20
859.126
 30
0.000000
  70
    32
  0
VERTEX
  8
0
  5
39DF6
 10
-364.968
 20
859.134
 30
0.000000
  70
    32
  0
VERTEX
  8
0
  5
39DF7
 10
-364.963
 20
859.142
 30
0.000000
  70
    32
  0
VERTEX
  8
0
  5
39DF8
 10
-364.958
 20
859.149
 30
0.000000
  70
    32
  0
VERTEX
  8
0
  5
39DF9
 10
-364.953
 20
859.157
 30
0.000000
  70
    32
  0
VERTEX
  8
0
  5
39DFA
 10
-364.948
 20
859.165
 30
0.000000
  70
    32
  0
VERTEX
  8
0
  5
39DFB
 10
-364.943
 20
859.173
 30
0.000000
  70
    32
  0
VERTEX
  8
0
  5
39DFC
 10
-364.938
 20
859.181
 30
0.000000
  70
    32
  0
VERTEX
  8
0
  5
39DFD
 10
-364.933
 20
859.189
 30
0.000000
  70
    32
  0
VERTEX
  8
0
  5
39DFE
 10
-364.928
 20
859.196
 30
0.000000
  70
    32
  0
VERTEX
  8
0
  5
39DFF
 10
-364.923
 20
859.204
 30
0.000000
  70
    32
  0
VERTEX
  8
0
  5
39E00
 10
-364.918
 20
859.212
 30
0.000000
  70
    32
  0
VERTEX
  8
0
  5
39E01
 10
-364.913
 20
859.220
 30
0.000000
  70
    32
  0
VERTEX
  8
0
  5
39E02
 10
-364.908
 20
859.228
 30
0.000000
  70
    32
  0
VERTEX
  8
0
  5
39E03
 10
-364.902
 20
859.235
 30
0.000000
  70
    32
  0
VERTEX
  8
0
  5
39E04
 10
-364.897
 20
859.243
 30
0.000000
  70
    32
  0
VERTEX
  8
0
  5
39E05
 10
-364.892
 20
859.251
 30
0.000000
  70
    32
  0
VERTEX
  8
0
  5
39E06
 10
-364.887
 20
859.259
 30
0.000000
  70
    32
  0
VERTEX
  8
0
  5
39E07
 10
-364.882
 20
859.266
 30
0.000000
  70
    32
  0
VERTEX
  8
0
  5
39E08
 10
-364.877
 20
859.274
 30
0.000000
  70
    32
  0
VERTEX
  8
0
  5
39E09
 10
-364.871
 20
859.282
 30
0.000000
  70
    32
  0
VERTEX
  8
0
  5
39E0A
 10
-364.866
 20
859.290
 30
0.000000
  70
    32
  0
VERTEX
  8
0
  5
39E0B
 10
-364.861
 20
859.297
 30
0.000000
  70
    32
  0
VERTEX
  8
0
  5
39E0C
 10
-364.856
 20
859.305
 30
0.000000
  70
    32
  0
VERTEX
  8
0
  5
39E0D
 10
-364.850
 20
859.313
 30
0.000000
  70
    32
  0
VERTEX
  8
0
  5
39E0E
 10
-364.845
 20
859.320
 30
0.000000
  70
    32
  0
VERTEX
  8
0
  5
39E0F
 10
-364.840
 20
859.328
 30
0.000000
  70
    32
  0
VERTEX
  8
0
  5
39E10
 10
-364.835
 20
859.336
 30
0.000000
  70
    32
  0
VERTEX
  8
0
  5
39E11
 10
-364.829
 20
859.343
 30
0.000000
  70
    32
  0
VERTEX
  8
0
  5
39E12
 10
-364.824
 20
859.351
 30
0.000000
  70
    32
  0
VERTEX
  8
0
  5
39E13
 10
-364.818
 20
859.358
 30
0.000000
  70
    32
  0
VERTEX
  8
0
  5
39E14
 10
-364.813
 20
859.366
 30
0.000000
  70
    32
  0
VERTEX
  8
0
  5
39E15
 10
-364.808
 20
859.374
 30
0.000000
  70
    32
  0
VERTEX
  8
0
  5
39E16
 10
-364.802
 20
859.381
 30
0.000000
  70
    32
  0
VERTEX
  8
0
  5
39E17
 10
-364.797
 20
859.389
 30
0.000000
  70
    32
  0
VERTEX
  8
0
  5
39E18
 10
-364.791
 20
859.396
 30
0.000000
  70
    32
  0
VERTEX
  8
0
  5
39E19
 10
-364.786
 20
859.404
 30
0.000000
  70
    32
  0
VERTEX
  8
0
  5
39E1A
 10
-364.780
 20
859.411
 30
0.000000
  70
    32
  0
VERTEX
  8
0
  5
39E1B
 10
-364.775
 20
859.419
 30
0.000000
  70
    32
  0
VERTEX
  8
0
  5
39E1C
 10
-364.769
 20
859.426
 30
0.000000
  70
    32
  0
VERTEX
  8
0
  5
39E1D
 10
-364.764
 20
859.434
 30
0.000000
  70
    32
  0
VERTEX
  8
0
  5
39E1E
 10
-364.758
 20
859.441
 30
0.000000
  70
    32
  0
VERTEX
  8
0
  5
39E1F
 10
-364.752
 20
859.449
 30
0.000000
  70
    32
  0
VERTEX
  8
0
  5
39E20
 10
-364.747
 20
859.456
 30
0.000000
  70
    32
  0
VERTEX
  8
0
  5
39E21
 10
-364.741
 20
859.463
 30
0.000000
  70
    32
  0
VERTEX
  8
0
  5
39E22
 10
-364.735
 20
859.471
 30
0.000000
  70
    32
  0
VERTEX
  8
0
  5
39E23
 10
-364.729
 20
859.478
 30
0.000000
  70
    32
  0
VERTEX
  8
0
  5
39E24
 10
-364.724
 20
859.485
 30
0.000000
  70
    32
  0
VERTEX
  8
0
  5
39E25
 10
-364.718
 20
859.493
 30
0.000000
  70
    32
  0
VERTEX
  8
0
  5
39E26
 10
-364.712
 20
859.500
 30
0.000000
  70
    32
  0
VERTEX
  8
0
  5
39E27
 10
-364.706
 20
859.507
 30
0.000000
  70
    32
  0
VERTEX
  8
0
  5
39E28
 10
-364.700
 20
859.514
 30
0.000000
  70
    32
  0
VERTEX
  8
0
  5
39E29
 10
-364.694
 20
859.521
 30
0.000000
  70
    32
  0
VERTEX
  8
0
  5
39E2A
 10
-364.688
 20
859.529
 30
0.000000
  70
    32
  0
VERTEX
  8
0
  5
39E2B
 10
-364.682
 20
859.536
 30
0.000000
  70
    32
  0
VERTEX
  8
0
  5
39E2C
 10
-364.676
 20
859.543
 30
0.000000
  70
    32
  0
VERTEX
  8
0
  5
39E2D
 10
-364.670
 20
859.550
 30
0.000000
  70
    32
  0
VERTEX
  8
0
  5
39E2E
 10
-364.664
 20
859.557
 30
0.000000
  70
    32
  0
VERTEX
  8
0
  5
39E2F
 10
-364.657
 20
859.564
 30
0.000000
  70
    32
  0
VERTEX
  8
0
  5
39E30
 10
-364.651
 20
859.571
 30
0.000000
  70
    32
  0
VERTEX
  8
0
  5
39E31
 10
-364.645
 20
859.577
 30
0.000000
  70
    32
  0
VERTEX
  8
0
  5
39E32
 10
-364.639
 20
859.584
 30
0.000000
  70
    32
  0
VERTEX
  8
0
  5
39E33
 10
-364.632
 20
859.591
 30
0.000000
  70
    32
  0
VERTEX
  8
0
  5
39E34
 10
-364.626
 20
859.598
 30
0.000000
  70
    32
  0
VERTEX
  8
0
  5
39E35
 10
-364.619
 20
859.604
 30
0.000000
  70
    32
  0
VERTEX
  8
0
  5
39E36
 10
-364.613
 20
859.611
 30
0.000000
  70
    32
  0
VERTEX
  8
0
  5
39E37
 10
-364.606
 20
859.618
 30
0.000000
  70
    32
  0
VERTEX
  8
0
  5
39E38
 10
-364.600
 20
859.624
 30
0.000000
  70
    32
  0
VERTEX
  8
0
  5
39E39
 10
-364.593
 20
859.631
 30
0.000000
  70
    32
  0
VERTEX
  8
0
  5
39E3A
 10
-364.586
 20
859.637
 30
0.000000
  70
    32
  0
VERTEX
  8
0
  5
39E3B
 10
-364.580
 20
859.644
 30
0.000000
  70
    32
  0
VERTEX
  8
0
  5
39E3C
 10
-364.573
 20
859.650
 30
0.000000
  70
    32
  0
VERTEX
  8
0
  5
39E3D
 10
-364.566
 20
859.657
 30
0.000000
  70
    32
  0
VERTEX
  8
0
  5
39E3E
 10
-364.559
 20
859.663
 30
0.000000
  70
    32
  0
VERTEX
  8
0
  5
39E3F
 10
-364.552
 20
859.669
 30
0.000000
  70
    32
  0
VERTEX
  8
0
  5
39E40
 10
-364.545
 20
859.675
 30
0.000000
  70
    32
  0
VERTEX
  8
0
  5
39E41
 10
-364.538
 20
859.682
 30
0.000000
  70
    32
  0
VERTEX
  8
0
  5
39E42
 10
-364.531
 20
859.688
 30
0.000000
  70
    32
  0
VERTEX
  8
0
  5
39E43
 10
-364.524
 20
859.694
 30
0.000000
  70
    32
  0
VERTEX
  8
0
  5
39E44
 10
-364.517
 20
859.700
 30
0.000000
  70
    32
  0
VERTEX
  8
0
  5
39E45
 10
-364.510
 20
859.706
 30
0.000000
  70
    32
  0
VERTEX
  8
0
  5
39E46
 10
-364.502
 20
859.711
 30
0.000000
  70
    32
  0
VERTEX
  8
0
  5
39E47
 10
-364.495
 20
859.717
 30
0.000000
  70
    32
  0
VERTEX
  8
0
  5
39E48
 10
-364.488
 20
859.723
 30
0.000000
  70
    32
  0
VERTEX
  8
0
  5
39E49
 10
-364.480
 20
859.729
 30
0.000000
  70
    32
  0
VERTEX
  8
0
  5
39E4A
 10
-364.473
 20
859.734
 30
0.000000
  70
    32
  0
VERTEX
  8
0
  5
39E4B
 10
-364.465
 20
859.740
 30
0.000000
  70
    32
  0
VERTEX
  8
0
  5
39E4C
 10
-364.458
 20
859.745
 30
0.000000
  70
    32
  0
VERTEX
  8
0
  5
39E4D
 10
-364.450
 20
859.751
 30
0.000000
  70
    32
  0
VERTEX
  8
0
  5
39E4E
 10
-364.442
 20
859.756
 30
0.000000
  70
    32
  0
VERTEX
  8
0
  5
39E4F
 10
-364.435
 20
859.762
 30
0.000000
  70
    32
  0
VERTEX
  8
0
  5
39E50
 10
-364.427
 20
859.767
 30
0.000000
  70
    32
  0
VERTEX
  8
0
  5
39E51
 10
-364.419
 20
859.772
 30
0.000000
  70
    32
  0
VERTEX
  8
0
  5
39E52
 10
-364.411
 20
859.777
 30
0.000000
  70
    32
  0
VERTEX
  8
0
  5
39E53
 10
-364.403
 20
859.782
 30
0.000000
  70
    32
  0
VERTEX
  8
0
  5
39E54
 10
-364.396
 20
859.787
 30
0.000000
  70
    32
  0
VERTEX
  8
0
  5
39E55
 10
-364.388
 20
859.792
 30
0.000000
  70
    32
  0
VERTEX
  8
0
  5
39E56
 10
-364.380
 20
859.797
 30
0.000000
  70
    32
  0
VERTEX
  8
0
  5
39E57
 10
-364.372
 20
859.802
 30
0.000000
  70
    32
  0
VERTEX
  8
0
  5
39E58
 10
-364.364
 20
859.806
 30
0.000000
  70
    32
  0
VERTEX
  8
0
  5
39E59
 10
-364.355
 20
859.811
 30
0.000000
  70
    32
  0
VERTEX
  8
0
  5
39E5A
 10
-364.347
 20
859.816
 30
0.000000
  70
    32
  0
VERTEX
  8
0
  5
39E5B
 10
-364.339
 20
859.820
 30
0.000000
  70
    32
  0
VERTEX
  8
0
  5
39E5C
 10
-364.331
 20
859.824
 30
0.000000
  70
    32
  0
VERTEX
  8
0
  5
39E5D
 10
-364.323
 20
859.829
 30
0.000000
  70
    32
  0
VERTEX
  8
0
  5
39E5E
 10
-364.314
 20
859.833
 30
0.000000
  70
    32
  0
VERTEX
  8
0
  5
39E5F
 10
-364.306
 20
859.837
 30
0.000000
  70
    32
  0
VERTEX
  8
0
  5
39E60
 10
-364.298
 20
859.841
 30
0.000000
  70
    32
  0
VERTEX
  8
0
  5
39E61
 10
-364.289
 20
859.845
 30
0.000000
  70
    32
  0
VERTEX
  8
0
  5
39E62
 10
-364.281
 20
859.849
 30
0.000000
  70
    32
  0
VERTEX
  8
0
  5
39E63
 10
-364.272
 20
859.853
 30
0.000000
  70
    32
  0
VERTEX
  8
0
  5
39E64
 10
-364.264
 20
859.857
 30
0.000000
  70
    32
  0
VERTEX
  8
0
  5
39E65
 10
-364.255
 20
859.860
 30
0.000000
  70
    32
  0
VERTEX
  8
0
  5
39E66
 10
-364.246
 20
859.864
 30
0.000000
  70
    32
  0
VERTEX
  8
0
  5
39E67
 10
-364.238
 20
859.867
 30
0.000000
  70
    32
  0
VERTEX
  8
0
  5
39E68
 10
-364.229
 20
859.871
 30
0.000000
  70
    32
  0
VERTEX
  8
0
  5
39E69
 10
-364.221
 20
859.874
 30
0.000000
  70
    32
  0
VERTEX
  8
0
  5
39E6A
 10
-364.212
 20
859.877
 30
0.000000
  70
    32
  0
VERTEX
  8
0
  5
39E6B
 10
-364.203
 20
859.880
 30
0.000000
  70
    32
  0
VERTEX
  8
0
  5
39E6C
 10
-364.194
 20
859.883
 30
0.000000
  70
    32
  0
VERTEX
  8
0
  5
39E6D
 10
-364.186
 20
859.887
 30
0.000000
  70
    32
  0
VERTEX
  8
0
  5
39E6E
 10
-364.177
 20
859.889
 30
0.000000
  70
    32
  0
VERTEX
  8
0
  5
39E6F
 10
-364.168
 20
859.892
 30
0.000000
  70
    32
  0
VERTEX
  8
0
  5
39E70
 10
-364.159
 20
859.895
 30
0.000000
  70
    32
  0
VERTEX
  8
0
  5
39E71
 10
-364.150
 20
859.898
 30
0.000000
  70
    32
  0
VERTEX
  8
0
  5
39E72
 10
-364.141
 20
859.901
 30
0.000000
  70
    32
  0
VERTEX
  8
0
  5
39E73
 10
-364.132
 20
859.904
 30
0.000000
  70
    32
  0
VERTEX
  8
0
  5
39E74
 10
-364.124
 20
859.906
 30
0.000000
  70
    32
  0
VERTEX
  8
0
  5
39E75
 10
-364.115
 20
859.909
 30
0.000000
  70
    32
  0
VERTEX
  8
0
  5
39E76
 10
-364.106
 20
859.912
 30
0.000000
  70
    32
  0
VERTEX
  8
0
  5
39E77
 10
-364.097
 20
859.914
 30
0.000000
  70
    32
  0
VERTEX
  8
0
  5
39E78
 10
-364.088
 20
859.917
 30
0.000000
  70
    32
  0
VERTEX
  8
0
  5
39E79
 10
-364.079
 20
859.920
 30
0.000000
  70
    32
  0
VERTEX
  8
0
  5
39E7A
 10
-364.070
 20
859.922
 30
0.000000
  70
    32
  0
VERTEX
  8
0
  5
39E7B
 10
-364.061
 20
859.925
 30
0.000000
  70
    32
  0
VERTEX
  8
0
  5
39E7C
 10
-364.052
 20
859.927
 30
0.000000
  70
    32
  0
VERTEX
  8
0
  5
39E7D
 10
-364.043
 20
859.930
 30
0.000000
  70
    32
  0
VERTEX
  8
0
  5
39E7E
 10
-364.034
 20
859.932
 30
0.000000
  70
    32
  0
VERTEX
  8
0
  5
39E7F
 10
-364.025
 20
859.935
 30
0.000000
  70
    32
  0
VERTEX
  8
0
  5
39E80
 10
-364.016
 20
859.938
 30
0.000000
  70
    32
  0
VERTEX
  8
0
  5
39E81
 10
-364.007
 20
859.940
 30
0.000000
  70
    32
  0
VERTEX
  8
0
  5
39E82
 10
-363.998
 20
859.943
 30
0.000000
  70
    32
  0
SEQEND
  8
0
  5
39E83
  0
LINE
  5
3966B
  8
0
 10
-364.84276090111757
 20
860.62174046238579
 30
0.0
 11
-367.40790334413919
 21
857.37845449595034
 31
0.0
  0
INSERT
  5
3966C
  8
0
  2
*U203
 10
0.0
 20
0.0
 30
0.0
  0
VIEWPORT
  5
BADA
 67
     1
  8
0
 10
5.249999665167536
 20
4.0168608648543138
 30
0.0
 40
16.023543186357209
 41
8.0117715931786062
 68
     2
 69
     1
1001
ACAD
1000
MVIEW
1002
{
1070
    16
1010
0.0
1020
0.0
1030
0.0
1010
0.0
1020
0.0
1030
1.0
1040
0.0
1040
8.0117715931786062
1040
5.249999665167536
1040
4.0168608648543138
1040
50.0
1040
0.0
1040
0.0
1070
     0
1070
   100
1070
     1
1070
     1
1070
     0
1070
     0
1070
     0
1070
     0
1040
0.0
1040
0.0
1040
0.0
1040
0.5
1040
0.5
1040
0.5
1040
0.5
1070
     0
1002
{
1002
}
1002
}
  0
VIEWPORT
  5
BADD
 67
     1
  8
0
 10
5.2499996294871929
 20
4.0166741807634683
 30
0.0
 40
10.44245679893058
 41
7.8813805131999892
 68
     1
 69
     2
1001
ACAD
1000
MVIEW
1002
{
1070
    16
1010
0.0
1020
0.0
1030
0.0
1010
0.0
1020
0.0
1030
1.0
1040
0.0
1040
7.881380529303665
1040
-365.78109622114471
1040
858.2430905030435
1040
50.0
1040
0.0
1040
0.0
1070
     0
1070
   100
1070
     1
1070
     2
1070
     0
1070
     0
1070
     0
1070
     0
1040
0.0
1040
0.0
1040
0.0
1040
0.5
1040
0.5
1040
0.5
1040
0.5
1070
     0
1002
{
1002
}
1002
}
  0
ENDSEC
  0
EOF
