  0
SECTION
  2
HEADER
  9
$ACADVER
  1
AC1009
  9
$INSBASE
 10
0.0
 20
0.0
 30
0.0
  9
$EXTMIN
 10
-390.21280206415412
 20
834.65667183693085
 30
0.0
  9
$EXTMAX
 10
-382.84526111473491
 20
843.05086629103664
 30
0.0
  9
$LIMMIN
 10
0.0
 20
0.0
  9
$LIMMAX
 10
1500.0
 20
1500.0
  9
$ORTHOMODE
 70
     0
  9
$REGENMODE
 70
     1
  9
$FILLMODE
 70
     1
  9
$QTEXTMODE
 70
     0
  9
$MIRRTEXT
 70
     1
  9
$DRAGMODE
 70
     2
  9
$LTSCALE
 40
1.0
  9
$OSMODE
 70
    37
  9
$ATTMODE
 70
     1
  9
$TEXTSIZE
 40
1.5
  9
$TRACEWID
 40
0.05
  9
$TEXTSTYLE
  7
STANDARD
  9
$CLAYER
  8
0
  9
$CELTYPE
  6
BYLAYER
  9
$CECOLOR
 62
   256
  9
$DIMSCALE
 40
1.0
  9
$DIMASZ
 40
0.75
  9
$DIMEXO
 40
1.5
  9
$DIMDLI
 40
2.0
  9
$DIMRND
 40
0.0
  9
$DIMDLE
 40
0.0
  9
$DIMEXE
 40
1.0
  9
$DIMTP
 40
0.0
  9
$DIMTM
 40
0.0
  9
$DIMTXT
 40
1.5
  9
$DIMCEN
 40
2.0
  9
$DIMTSZ
 40
0.0
  9
$DIMTOL
 70
     0
  9
$DIMLIM
 70
     0
  9
$DIMTIH
 70
     0
  9
$DIMTOH
 70
     0
  9
$DIMSE1
 70
     0
  9
$DIMSE2
 70
     0
  9
$DIMTAD
 70
     1
  9
$DIMZIN
 70
     0
  9
$DIMBLK
  1
ARCHTICK
  9
$DIMASO
 70
     1
  9
$DIMSHO
 70
     1
  9
$DIMPOST
  1
"
  9
$DIMAPOST
  1

  9
$DIMALT
 70
     0
  9
$DIMALTD
 70
     2
  9
$DIMALTF
 40
25.399999999999999
  9
$DIMLFAC
 40
1.0
  9
$DIMTOFL
 70
     0
  9
$DIMTVP
 40
0.0
  9
$DIMTIX
 70
     1
  9
$DIMSOXD
 70
     0
  9
$DIMSAH
 70
     0
  9
$DIMBLK1
  1

  9
$DIMBLK2
  1

  9
$DIMSTYLE
  2
THREE_QUARTER_INCH_SCALE
  9
$DIMCLRD
 70
     0
  9
$DIMCLRE
 70
     0
  9
$DIMCLRT
 70
     0
  9
$DIMTFAC
 40
1.0
  9
$DIMGAP
 40
1.0
  9
$LUNITS
 70
     2
  9
$LUPREC
 70
     4
  9
$SKETCHINC
 40
0.1
  9
$FILLETRAD
 40
0.0
  9
$AUNITS
 70
     0
  9
$AUPREC
 70
     0
  9
$MENU
  1
.
  9
$ELEVATION
 40
0.0
  9
$PELEVATION
 40
0.0
  9
$THICKNESS
 40
0.0
  9
$LIMCHECK
 70
     0
  9
$BLIPMODE
 70
     0
  9
$CHAMFERA
 40
0.5
  9
$CHAMFERB
 40
0.5
  9
$SKPOLY
 70
     0
  9
$TDCREATE
 40
2452089.395738773
  9
$TDUPDATE
 40
2453612.413959051
  9
$TDINDWG
 40
1.0953302894000001
  9
$TDUSRTIMER
 40
1.0953299305999999
  9
$USRTIMER
 70
     1
  9
$ANGBASE
 50
0.0
  9
$ANGDIR
 70
     0
  9
$PDMODE
 70
     0
  9
$PDSIZE
 40
10.0
  9
$PLINEWID
 40
0.0
  9
$COORDS
 70
     1
  9
$SPLFRAME
 70
     0
  9
$SPLINETYPE
 70
     6
  9
$SPLINESEGS
 70
     8
  9
$ATTDIA
 70
     0
  9
$ATTREQ
 70
     1
  9
$HANDLING
 70
     1
  9
$HANDSEED
  5
17780
  9
$SURFTAB1
 70
     6
  9
$SURFTAB2
 70
     6
  9
$SURFTYPE
 70
     6
  9
$SURFU
 70
     6
  9
$SURFV
 70
     6
  9
$UCSNAME
  2

  9
$UCSORG
 10
0.0
 20
0.0
 30
0.0
  9
$UCSXDIR
 10
1.0
 20
0.0
 30
0.0
  9
$UCSYDIR
 10
0.0
 20
1.0
 30
0.0
  9
$PUCSNAME
  2

  9
$PUCSORG
 10
0.0
 20
0.0
 30
0.0
  9
$PUCSXDIR
 10
1.0
 20
0.0
 30
0.0
  9
$PUCSYDIR
 10
0.0
 20
1.0
 30
0.0
  9
$USERI1
 70
     0
  9
$USERI2
 70
     0
  9
$USERI3
 70
     0
  9
$USERI4
 70
     0
  9
$USERI5
 70
     0
  9
$USERR1
 40
0.0
  9
$USERR2
 40
0.0
  9
$USERR3
 40
0.0
  9
$USERR4
 40
0.0
  9
$USERR5
 40
0.0
  9
$WORLDVIEW
 70
     1
  9
$SHADEDGE
 70
     3
  9
$SHADEDIF
 70
    70
  9
$TILEMODE
 70
     0
  9
$MAXACTVP
 70
    64
  9
$PLIMCHECK
 70
     0
  9
$PEXTMIN
 10
0.0287712300219028
 20
0.0759839241634737
 30
0.0
  9
$PEXTMAX
 10
10.47122802895248
 20
7.957364437363462
 30
0.0
  9
$PLIMMIN
 10
-0.1682389550263349
 20
-0.2033427855578579
  9
$PLIMMAX
 10
10.754640548407011
 20
8.2370640492290015
  9
$UNITMODE
 70
     0
  9
$VISRETAIN
 70
     1
  9
$PLINEGEN
 70
     0
  9
$PSLTSCALE
 70
     1
  0
ENDSEC
  0
SECTION
  2
TABLES
  0
TABLE
  2
VPORT
 70
     1
  0
VPORT
  2
*ACTIVE
 70
     0
 10
0.0
 20
0.0
 11
1.0
 21
1.0
 12
-386.52380251144001
 22
838.09204166179234
 13
0.0
 23
0.0
 14
0.5
 24
0.5
 15
0.5
 25
0.5
 16
0.0
 26
0.0
 36
1.0
 17
0.0
 27
0.0
 37
0.0
 40
3.930952126162941
 41
2.0226628895184122
 42
50.0
 43
0.0
 44
0.0
 50
0.0
 51
0.0
 71
     0
 72
   100
 73
     1
 74
     2
 75
     0
 76
     0
 77
     0
 78
     0
  0
ENDTAB
  0
TABLE
  2
LTYPE
 70
     1
  0
LTYPE
  2
CONTINUOUS
 70
     0
  3
Solid line
 72
    65
 73
     0
 40
0.0
  0
ENDTAB
  0
TABLE
  2
LAYER
 70
    10
  0
LAYER
  2
0
 70
     0
 62
     7
  6
CONTINUOUS
  0
LAYER
  2
DEFPOINTS
 70
     0
 62
     7
  6
CONTINUOUS
  0
LAYER
  2
FRAME_200
 70
     0
 62
     8
  6
CONTINUOUS
  0
LAYER
  2
FRAME_070
 70
     0
 62
     5
  6
CONTINUOUS
  0
LAYER
  2
FRAME_050
 70
     0
 62
     6
  6
CONTINUOUS
  0
LAYER
  2
TITLE_BLOCK
 70
     0
 62
     7
  6
CONTINUOUS
  0
LAYER
  2
FRAME_025
 70
     0
 62
     7
  6
CONTINUOUS
  0
LAYER
  2
VIEWPORT
 70
     0
 62
     7
  6
CONTINUOUS
  0
LAYER
  2
PROF
 70
     0
 62
     7
  6
CONTINUOUS
  0
LAYER
  2
PROFILE
 70
     0
 62
     7
  6
CONTINUOUS
  0
ENDTAB
  0
TABLE
  2
STYLE
 70
     2
  0
STYLE
  2
STANDARD
 70
     0
 40
0.0
 41
1.0
 50
0.0
 71
     0
 42
1.5
  3
txt
  4

  0
STYLE
  2
ISO_PROPORTIONAL
 70
     0
 40
0.0
 41
1.0
 50
0.0
 71
     0
 42
2.5
  3
isocp.shx
  4

  0
ENDTAB
  0
TABLE
  2
VIEW
 70
     1
  0
ENDTAB
  0
TABLE
  2
UCS
 70
     0
  0
ENDTAB
  0
TABLE
  2
APPID
 70
     6
  0
APPID
  2
ACAD
 70
     0
  0
APPID
  2
DCO15
 70
     0
  0
APPID
  2
ACAD_EXEMPT_FROM_CAD_STANDARDS
 70
     0
  0
APPID
  2
ACAD_PSEXT
 70
     0
  0
APPID
  2
CONTENTBLOCKDESCRIPTION
 70
     0
  0
APPID
  2
CONTENTBLOCKICON
 70
     0
  0
ENDTAB
  0
TABLE
  2
DIMSTYLE
 70
    10
  0
DIMSTYLE
  2
FULL_SCALE
 70
     0
  3
"
  4

  5

  6

  7

 40
1.0
 41
0.046875
 42
0.09375
 43
0.125
 44
0.0625
 45
0.0
 46
0.0
 47
0.0
 48
0.0
140
0.125
141
0.125
142
0.0
143
25.399999999999999
144
1.0
145
0.0
146
1.0
147
0.0625
 71
     0
 72
     0
 73
     0
 74
     0
 75
     0
 76
     0
 77
     1
 78
     0
170
     0
171
     2
172
     0
173
     0
174
     1
175
     0
176
     0
177
     0
178
     0
  0
DIMSTYLE
  2
HALF_SCALE
 70
     0
  3
"
  4

  5

  6

  7

 40
1.0
 41
0.09375
 42
0.1875
 43
0.25
 44
0.125
 45
0.0
 46
0.0
 47
0.0
 48
0.0
140
0.25
141
0.25
142
0.0
143
25.399999999999999
144
1.0
145
0.0
146
1.0
147
0.125
 71
     0
 72
     0
 73
     0
 74
     0
 75
     0
 76
     0
 77
     1
 78
     0
170
     0
171
     2
172
     0
173
     0
174
     1
175
     0
176
     0
177
     0
178
     0
  0
DIMSTYLE
  2
INCH_SCALE
 70
     0
  3
"
  4

  5

  6

  7

 40
1.0
 41
0.5625
 42
1.125
 43
1.5
 44
0.75
 45
0.0
 46
0.0
 47
0.0
 48
0.0
140
1.125
141
1.5
142
0.0
143
25.399999999999999
144
1.0
145
0.0
146
1.0
147
0.75
 71
     0
 72
     0
 73
     0
 74
     0
 75
     0
 76
     0
 77
     1
 78
     0
170
     0
171
     2
172
     0
173
     0
174
     1
175
     0
176
     0
177
     0
178
     0
  0
DIMSTYLE
  2
THREE_QUARTER_INCH_SCALE
 70
     0
  3
"
  4

  5

  6

  7

 40
1.0
 41
0.75
 42
1.5
 43
2.0
 44
1.0
 45
0.0
 46
0.0
 47
0.0
 48
0.0
140
1.5
141
2.0
142
0.0
143
25.399999999999999
144
1.0
145
0.0
146
1.0
147
1.0
 71
     0
 72
     0
 73
     0
 74
     0
 75
     0
 76
     0
 77
     1
 78
     0
170
     0
171
     2
172
     0
173
     0
174
     1
175
     0
176
     0
177
     0
178
     0
  0
DIMSTYLE
  2
ZHALF_INCH_SCALE
 70
     0
  3
"
  4

  5

  6

  7

 40
1.0
 41
1.125
 42
2.25
 43
3.0
 44
1.5
 45
0.0
 46
0.0
 47
0.0
 48
0.0
140
2.25
141
3.0
142
0.0
143
25.399999999999999
144
1.0
145
0.0
146
1.0
147
1.5
 71
     0
 72
     0
 73
     0
 74
     0
 75
     0
 76
     0
 77
     1
 78
     0
170
     0
171
     2
172
     0
173
     0
174
     1
175
     0
176
     0
177
     0
178
     0
  0
DIMSTYLE
  2
FULL_SCALE0
 70
     0
  3
"
  4

  5
ARCHTICK
  6

  7

 40
1.0
 41
0.046875
 42
0.09375
 43
0.125
 44
0.0625
 45
0.0
 46
0.0
 47
0.0
 48
0.0
140
0.125
141
0.125
142
0.0
143
25.399999999999999
144
1.0
145
0.0
146
1.0
147
0.0625
 71
     0
 72
     0
 73
     0
 74
     0
 75
     0
 76
     0
 77
     1
 78
     0
170
     0
171
     2
172
     0
173
     0
174
     1
175
     0
176
     0
177
     0
178
     0
  0
DIMSTYLE
  2
HALF_SCALE0
 70
     0
  3
"
  4

  5
ARCHTICK
  6

  7

 40
1.0
 41
0.09375
 42
0.1875
 43
0.25
 44
0.125
 45
0.0
 46
0.0
 47
0.0
 48
0.0
140
0.25
141
0.25
142
0.0
143
25.399999999999999
144
1.0
145
0.0
146
1.0
147
0.125
 71
     0
 72
     0
 73
     0
 74
     0
 75
     0
 76
     0
 77
     1
 78
     0
170
     0
171
     2
172
     0
173
     0
174
     1
175
     0
176
     0
177
     0
178
     0
  0
DIMSTYLE
  2
INCH_SCALE0
 70
     0
  3
"
  4

  5
ARCHTICK
  6

  7

 40
1.0
 41
0.5625
 42
1.125
 43
1.5
 44
0.75
 45
0.0
 46
0.0
 47
0.0
 48
0.0
140
1.125
141
1.5
142
0.0
143
25.399999999999999
144
1.0
145
0.0
146
1.0
147
0.75
 71
     0
 72
     0
 73
     0
 74
     0
 75
     0
 76
     0
 77
     1
 78
     0
170
     0
171
     2
172
     0
173
     0
174
     1
175
     0
176
     0
177
     0
178
     0
  0
DIMSTYLE
  2
THREE_QUARTER_INCH_SCALE0
 70
     0
  3
"
  4

  5
ARCHTICK
  6

  7

 40
1.0
 41
0.75
 42
1.5
 43
2.0
 44
1.0
 45
0.0
 46
0.0
 47
0.0
 48
0.0
140
1.5
141
2.0
142
0.0
143
25.399999999999999
144
1.0
145
0.0
146
1.0
147
1.0
 71
     0
 72
     0
 73
     0
 74
     0
 75
     0
 76
     0
 77
     1
 78
     0
170
     0
171
     2
172
     0
173
     0
174
     1
175
     0
176
     0
177
     0
178
     0
  0
DIMSTYLE
  2
ZHALF_INCH_SCALE0
 70
     0
  3
"
  4

  5
ARCHTICK
  6

  7

 40
1.0
 41
1.125
 42
2.25
 43
3.0
 44
1.5
 45
0.0
 46
0.0
 47
0.0
 48
0.0
140
2.25
141
3.0
142
0.0
143
25.399999999999999
144
1.0
145
0.0
146
1.0
147
1.5
 71
     0
 72
     0
 73
     0
 74
     0
 75
     0
 76
     0
 77
     1
 78
     0
170
     0
171
     2
172
     0
173
     0
174
     1
175
     0
176
     0
177
     0
178
     0
  0
ENDTAB
  0
ENDSEC
  0
SECTION
  2
BLOCKS
  0
BLOCK
  8
0
  2
$MODEL_SPACE
 70
     0
 10
0.0
 20
0.0
 30
0.0
  3
$MODEL_SPACE
  1

  0
ENDBLK
  5
C9DC
  8
0
  0
BLOCK
 67
     1
  8
0
  2
$PAPER_SPACE
 70
     0
 10
0.0
 20
0.0
 30
0.0
  3
$PAPER_SPACE
  1

  0
ENDBLK
  5
C9D8
 67
     1
  8
0
  0
BLOCK
  8
0
  2
_ARCHTICK
 70
     0
 10
0.0
 20
0.0
 30
0.0
  3
_ARCHTICK
  1

  0
POLYLINE
  5
158
  8
0
  6
BYBLOCK
 62
     0
 66
     1
 10
0.0
 20
0.0
 30
0.0
 40
0.15
 41
0.15
  0
VERTEX
  5
1719A
  8
0
  6
BYBLOCK
 62
     0
 10
-0.5
 20
-0.5
 30
0.0
  0
VERTEX
  5
1719B
  8
0
  6
BYBLOCK
 62
     0
 10
0.5
 20
0.5
 30
0.0
  0
SEQEND
  5
1719C
  8
0
  6
BYBLOCK
 62
     0
  0
ENDBLK
  5
15A
  8
0
  0
BLOCK
  8
0
  2
_OPEN30
 70
     0
 10
0.0
 20
0.0
 30
0.0
  3
_OPEN30
  1

  0
LINE
  5
15C
  8
0
  6
BYBLOCK
 62
     0
 10
-1.0
 20
0.26794919
 30
0.0
 11
0.0
 21
0.0
 31
0.0
  0
LINE
  5
15D
  8
0
  6
BYBLOCK
 62
     0
 10
0.0
 20
0.0
 30
0.0
 11
-1.0
 21
-0.26794919
 31
0.0
  0
LINE
  5
15E
  8
0
  6
BYBLOCK
 62
     0
 10
0.0
 20
0.0
 30
0.0
 11
-1.0
 21
0.0
 31
0.0
  0
ENDBLK
  5
160
  8
0
  0
BLOCK
  8
0
  2
ISO_A2_TITLE_BLOCK
 70
     2
 10
0.0
 20
0.0
 30
0.0
  3
ISO_A2_TITLE_BLOCK
  1

  0
LINE
  5
BDD
  8
FRAME_050
 10
299.5
 20
12.5
 30
0.0
 11
297.0
 21
7.5
 31
0.0
  0
LINE
  5
BDE
  8
FRAME_050
 10
294.5
 20
12.5
 30
0.0
 11
299.5
 21
12.5
 31
0.0
  0
LINE
  5
BDF
  8
FRAME_050
 10
247.0
 20
5.0
 30
0.0
 11
347.0
 21
5.0
 31
0.0
  0
LINE
  5
BE0
  8
FRAME_070
 10
584.0
 20
410.0
 30
0.0
 11
10.0
 21
410.0
 31
0.0
  0
LINE
  5
BE1
  8
FRAME_070
 10
10.0
 20
10.0
 30
0.0
 11
584.0
 21
10.0
 31
0.0
  0
LINE
  5
BE2
  8
FRAME_050
 10
12.5
 20
207.5
 30
0.0
 11
7.5
 21
210.0
 31
0.0
  0
LINE
  5
BE3
  8
FRAME_050
 10
12.5
 20
212.5
 30
0.0
 11
12.5
 21
207.5
 31
0.0
  0
LINE
  5
BE4
  8
FRAME_070
 10
10.0
 20
410.0
 30
0.0
 11
10.0
 21
10.0
 31
0.0
  0
LINE
  5
BE5
  8
FRAME_200
 10
0.0
 20
0.0
 30
0.0
 11
0.0
 21
10.0
 31
0.0
  0
LINE
  5
BE6
  8
FRAME_200
 10
0.0
 20
0.0
 30
0.0
 11
10.0
 21
0.0
 31
0.0
  0
TEXT
  5
BE7
  8
FRAME_050
 10
5.9000000000000004
 20
35.0
 30
0.0
 40
4.0
  1
H
  7
ISO_PROPORTIONAL
 72
     4
 11
7.5
 21
37.0
 31
0.0
  0
LINE
  5
BE8
  8
FRAME_050
 10
10.0
 20
60.0
 30
0.0
 11
5.0
 21
60.0
 31
0.0
  0
LINE
  5
BE9
  8
FRAME_050
 10
81.75
 20
5.0
 30
0.0
 11
81.75
 21
10.0
 31
0.0
  0
TEXT
  5
BEA
  8
FRAME_050
 10
44.874999999999993
 20
5.5
 30
0.0
 40
4.0
  1
1
  7
ISO_PROPORTIONAL
 72
     4
 11
45.875
 21
7.5
 31
0.0
  0
TEXT
  5
BEB
  8
FRAME_050
 10
6.0035533905932743
 20
85.0
 30
0.0
 40
4.0
  1
G
  7
ISO_PROPORTIONAL
 72
     4
 11
7.5
 21
87.0
 31
0.0
  0
LINE
  5
BEC
  8
FRAME_050
 10
10.0
 20
110.0
 30
0.0
 11
5.0
 21
110.0
 31
0.0
  0
TEXT
  5
BED
  8
FRAME_050
 10
6.0999999999999988
 20
135.0
 30
0.0
 40
4.0
  1
F
  7
ISO_PROPORTIONAL
 72
     4
 11
7.5
 21
137.0
 31
0.0
  0
LINE
  5
BEE
  8
FRAME_050
 10
10.0
 20
160.0
 30
0.0
 11
5.0
 21
160.0
 31
0.0
  0
TEXT
  5
BEF
  8
FRAME_050
 10
6.0999999999999988
 20
185.0
 30
0.0
 40
4.0
  1
E
  7
ISO_PROPORTIONAL
 72
     4
 11
7.5
 21
187.0
 31
0.0
  0
LINE
  5
BF0
  8
FRAME_050
 10
153.5
 20
5.0
 30
0.0
 11
153.5
 21
10.0
 31
0.0
  0
TEXT
  5
BF1
  8
FRAME_050
 10
116.1556692913386
 20
5.3996062992125982
 30
0.0
 40
4.0
  1
2
  7
ISO_PROPORTIONAL
 72
     4
 11
117.625
 21
7.5
 31
0.0
  0
TEXT
  5
BF2
  8
FRAME_050
 10
187.89215728752529
 20
5.5828427124746138
 30
0.0
 40
4.0
  1
3
  7
ISO_PROPORTIONAL
 72
     4
 11
189.375
 21
7.5
 31
0.0
  0
LINE
  5
BF3
  8
FRAME_050
 10
225.25
 20
5.0
 30
0.0
 11
225.25
 21
10.0
 31
0.0
  0
LINE
  5
BF4
  8
FRAME_050
 10
297.0
 20
7.5
 30
0.0
 11
294.5
 21
12.5
 31
0.0
  0
LINE
  5
BF5
  8
FRAME_050
 10
287.0
 20
5.0
 30
0.0
 11
287.0
 21
10.0
 31
0.0
  0
LINE
  5
BF6
  8
FRAME_050
 10
277.0
 20
5.0
 30
0.0
 11
277.0
 21
10.0
 31
0.0
  0
LINE
  5
BF7
  8
FRAME_050
 10
267.0
 20
5.0
 30
0.0
 11
267.0
 21
10.0
 31
0.0
  0
LINE
  5
BF8
  8
FRAME_050
 10
257.0
 20
5.0
 30
0.0
 11
257.0
 21
10.0
 31
0.0
  0
LINE
  5
BF9
  8
FRAME_050
 10
247.0
 20
5.0
 30
0.0
 11
247.0
 21
10.0
 31
0.0
  0
LINE
  5
BFA
  8
FRAME_050
 10
297.0
 20
10.0
 30
0.0
 11
297.0
 21
5.0
 31
0.0
  0
LINE
  5
BFB
  8
FRAME_050
 10
297.0
 20
10.0
 30
0.0
 11
297.0
 21
15.0
 31
0.0
  0
LINE
  5
BFC
  8
FRAME_050
 10
5.0
 20
210.0
 30
0.0
 11
15.0
 21
210.0
 31
0.0
  0
LINE
  5
BFD
  8
FRAME_050
 10
7.5
 20
210.0
 30
0.0
 11
12.5
 21
212.5
 31
0.0
  0
TEXT
  5
BFE
  8
FRAME_050
 10
5.7860912703473977
 20
235.0
 30
0.0
 40
4.0
  1
D
  7
ISO_PROPORTIONAL
 72
     4
 11
7.5
 21
237.0
 31
0.0
  0
LINE
  5
BFF
  8
FRAME_050
 10
10.0
 20
260.0
 30
0.0
 11
5.0
 21
260.0
 31
0.0
  0
TEXT
  5
C00
  8
FRAME_050
 10
6.1931980515339466
 20
285.0
 30
0.0
 40
4.0
  1
C
  7
ISO_PROPORTIONAL
 72
     4
 11
7.5
 21
287.0
 31
0.0
  0
LINE
  5
C01
  8
FRAME_050
 10
10.0
 20
310.0
 30
0.0
 11
5.0
 21
310.0
 31
0.0
  0
TEXT
  5
C02
  8
FRAME_050
 10
5.8999999999999959
 20
335.0
 30
0.0
 40
4.0
  1
B
  7
ISO_PROPORTIONAL
 72
     4
 11
7.5
 21
337.0
 31
0.0
  0
LINE
  5
C03
  8
FRAME_050
 10
10.0
 20
360.0
 30
0.0
 11
5.0
 21
360.0
 31
0.0
  0
TEXT
  5
C04
  8
FRAME_050
 10
5.6999999999999993
 20
385.0
 30
0.0
 40
4.0
  1
A
  7
ISO_PROPORTIONAL
 72
     4
 11
7.5
 21
387.0
 31
0.0
  0
LINE
  5
C05
  8
FRAME_200
 10
10.0
 20
420.0
 30
0.0
 11
0.0
 21
420.0
 31
0.0
  0
LINE
  5
C06
  8
FRAME_200
 10
0.0
 20
420.0
 30
0.0
 11
0.0
 21
410.0
 31
0.0
  0
TEXT
  5
C07
  8
FRAME_050
 10
44.874999999999993
 20
410.5
 30
0.0
 40
4.0
  1
1
  7
ISO_PROPORTIONAL
 72
     4
 11
45.875
 21
412.5
 31
0.0
  0
LINE
  5
C08
  8
FRAME_050
 10
81.75
 20
410.0
 30
0.0
 11
81.75
 21
415.0
 31
0.0
  0
TEXT
  5
C09
  8
FRAME_050
 10
116.1556692913386
 20
410.39960629921262
 30
0.0
 40
4.0
  1
2
  7
ISO_PROPORTIONAL
 72
     4
 11
117.625
 21
412.5
 31
0.0
  0
LINE
  5
C0A
  8
FRAME_050
 10
153.5
 20
410.0
 30
0.0
 11
153.5
 21
415.0
 31
0.0
  0
TEXT
  5
C0B
  8
FRAME_050
 10
187.89215728752529
 20
410.58284271247459
 30
0.0
 40
4.0
  1
3
  7
ISO_PROPORTIONAL
 72
     4
 11
189.375
 21
412.5
 31
0.0
  0
LINE
  5
C0C
  8
FRAME_050
 10
297.0
 20
405.0
 30
0.0
 11
297.0
 21
415.0
 31
0.0
  0
LINE
  5
C0D
  8
FRAME_050
 10
225.25
 20
410.0
 30
0.0
 11
225.25
 21
415.0
 31
0.0
  0
TEXT
  5
C0E
  8
FRAME_050
 10
259.52499999999998
 20
410.5
 30
0.0
 40
4.0
  1
4
  7
ISO_PROPORTIONAL
 72
     4
 11
261.125
 21
412.5
 31
0.0
  0
LINE
  5
C0F
  8
FRAME_070
 10
584.0
 20
10.0
 30
0.0
 11
584.0
 21
410.0
 31
0.0
  0
ATTDEF
  5
C10
  8
FRAME_025
 10
473.0
 20
31.75
 30
0.0
 40
2.5
  1
XXX - 00/00/00
  7
ISO_PROPORTIONAL
 11
473.0
 21
33.0
 31
0.0
  3
Approved by - Date
  2
APPROVED_BY_DATE
 70
     8
 74
     2
  0
TEXT
  5
C11
  8
FRAME_025
 10
448.0
 20
41.749999999999993
 30
0.0
 40
2.5
  1
Title/Name, designation, material, dimension etc
  7
ISO_PROPORTIONAL
 11
448.0
 21
43.0
 31
0.0
 73
     2
  0
TEXT
  5
C12
  8
FRAME_025
 10
473.0
 20
35.75
 30
0.0
 40
2.5
  1
Approved by - date
  7
ISO_PROPORTIONAL
 11
473.0
 21
37.0
 31
0.0
 73
     2
  0
LINE
  5
C13
  8
FRAME_070
 10
414.0
 20
46.0
 30
0.0
 11
584.0
 21
46.0
 31
0.0
  0
LINE
  5
C14
  8
FRAME_070
 10
414.0
 20
40.0
 30
0.0
 11
584.0
 21
40.0
 31
0.0
  0
LINE
  5
C15
  8
FRAME_070
 10
414.0
 20
30.0
 30
0.0
 11
584.0
 21
30.0
 31
0.0
  0
LINE
  5
C16
  8
FRAME_050
 10
368.75
 20
5.0
 30
0.0
 11
368.75
 21
10.0
 31
0.0
  0
LINE
  5
C17
  8
FRAME_050
 10
337.0
 20
5.0
 30
0.0
 11
337.0
 21
10.0
 31
0.0
  0
LINE
  5
C18
  8
FRAME_050
 10
327.0
 20
5.0
 30
0.0
 11
327.0
 21
10.0
 31
0.0
  0
LINE
  5
C19
  8
FRAME_050
 10
317.0
 20
5.0
 30
0.0
 11
317.0
 21
10.0
 31
0.0
  0
LINE
  5
C1A
  8
FRAME_050
 10
307.0
 20
5.0
 30
0.0
 11
307.0
 21
10.0
 31
0.0
  0
LINE
  5
C1B
  8
FRAME_050
 10
347.0
 20
5.0
 30
0.0
 11
347.0
 21
10.0
 31
0.0
  0
LINE
  5
C1C
  8
FRAME_050
 10
440.5
 20
5.0
 30
0.0
 11
440.5
 21
10.0
 31
0.0
  0
TEXT
  5
C1D
  8
FRAME_050
 10
403.24547244094481
 20
5.4102362204724406
 30
0.0
 40
4.0
  1
6
  7
ISO_PROPORTIONAL
 72
     4
 11
404.62499999999989
 21
7.5
 31
0.0
  0
TEXT
  5
C1E
  8
FRAME_050
 10
474.97499999999991
 20
5.5
 30
0.0
 40
4.0
  1
7
  7
ISO_PROPORTIONAL
 72
     4
 11
476.37499999999989
 21
7.5
 31
0.0
  0
TEXT
  5
C1F
  8
FRAME_025
 10
431.0
 20
41.749999999999993
 30
0.0
 40
2.5
  1
Quantity
  7
ISO_PROPORTIONAL
 11
431.0
 21
43.0
 31
0.0
 73
     2
  0
TEXT
  5
C20
  8
FRAME_025
 10
416.0
 20
41.749999999999993
 30
0.0
 40
2.5
  1
Itemref
  7
ISO_PROPORTIONAL
 11
416.0
 21
43.0
 31
0.0
 73
     2
  0
LINE
  5
C21
  8
FRAME_070
 10
414.0
 20
40.0
 30
0.0
 11
414.0
 21
46.0
 31
0.0
  0
LINE
  5
C22
  8
FRAME_070
 10
429.0
 20
40.0
 30
0.0
 11
429.0
 21
46.0
 31
0.0
  0
LINE
  5
C23
  8
FRAME_070
 10
414.0
 20
10.0
 30
0.0
 11
414.0
 21
40.0
 31
0.0
  0
ATTDEF
  5
C24
  8
FRAME_025
 10
416.0
 20
31.75
 30
0.0
 40
2.5
  1
XXX
  7
ISO_PROPORTIONAL
 11
416.0
 21
33.0
 31
0.0
  3
Designed by
  2
DESIGNED_BY
 70
     8
 74
     2
  0
TEXT
  5
C25
  8
FRAME_025
 10
416.0
 20
35.75
 30
0.0
 40
2.5
  1
Designed by
  7
ISO_PROPORTIONAL
 11
416.0
 21
37.0
 31
0.0
 73
     2
  0
LINE
  5
C26
  8
FRAME_070
 10
446.0
 20
40.0
 30
0.0
 11
446.0
 21
46.0
 31
0.0
  0
ATTDEF
  5
C27
  8
FRAME_025
 10
448.0
 20
31.75
 30
0.0
 40
2.5
  1
XXX
  7
ISO_PROPORTIONAL
 11
448.0
 21
33.0
 31
0.0
  3
Checked by
  2
CHECKED_BY
 70
     8
 74
     2
  0
TEXT
  5
C28
  8
FRAME_025
 10
448.0
 20
35.75
 30
0.0
 40
2.5
  1
Checked by
  7
ISO_PROPORTIONAL
 11
448.0
 21
37.0
 31
0.0
 73
     2
  0
ATTDEF
  5
C29
  8
FRAME_050
 10
444.74999999999989
 20
17.5
 30
0.0
 40
5.0
  1
XXX
  7
ISO_PROPORTIONAL
 72
     4
 11
451.49999999999989
 21
20.0
 31
0.0
  3
Owner
  2
OWNER
 70
     8
  0
LINE
  5
C2A
  8
FRAME_070
 10
446.0
 20
30.0
 30
0.0
 11
446.0
 21
40.0
 31
0.0
  0
LINE
  5
C2B
  8
FRAME_070
 10
471.0
 20
30.0
 30
0.0
 11
471.0
 21
40.0
 31
0.0
  0
LINE
  5
C2C
  8
FRAME_070
 10
489.0
 20
20.0
 30
0.0
 11
584.0
 21
20.0
 31
0.0
  0
LINE
  5
C2D
  8
FRAME_050
 10
512.25
 20
5.0
 30
0.0
 11
512.25
 21
10.0
 31
0.0
  0
TEXT
  5
C2E
  8
FRAME_050
 10
546.72499999999991
 20
5.5
 30
0.0
 40
4.0
  1
8
  7
ISO_PROPORTIONAL
 72
     4
 11
548.125
 21
7.5
 31
0.0
  0
ATTDEF
  5
C2F
  8
FRAME_050
 10
517.64999999999986
 20
13.5
 30
0.0
 40
3.0
  1
X
  7
ISO_PROPORTIONAL
 72
     4
 11
519.0
 21
15.0
 31
0.0
  3
Drawing number
  2
DRAWING_NUMBER
 70
     8
  0
ATTDEF
  5
C30
  8
FRAME_050
 10
529.75
 20
22.5
 30
0.0
 40
5.0
  1
XXX
  7
ISO_PROPORTIONAL
 72
     4
 11
536.5
 21
25.0
 31
0.0
  3
Title / Name
  2
TITLE
 70
     8
  0
LINE
  5
C31
  8
FRAME_070
 10
489.0
 20
10.0
 30
0.0
 11
489.0
 21
30.0
 31
0.0
  0
ATTDEF
  5
C32
  8
FRAME_025
 10
511.0
 20
31.75
 30
0.0
 40
2.5
  1
XXX
  7
ISO_PROPORTIONAL
 11
511.0
 21
33.0
 31
0.0
  3
Filename
  2
FILENAME
 70
     8
 74
     2
  0
TEXT
  5
C33
  8
FRAME_025
 10
511.0
 20
35.75
 30
0.0
 40
2.5
  1
Filename
  7
ISO_PROPORTIONAL
 11
511.0
 21
37.0
 31
0.0
 73
     2
  0
LINE
  5
C34
  8
FRAME_070
 10
509.0
 20
30.0
 30
0.0
 11
509.0
 21
40.0
 31
0.0
  0
TEXT
  5
C35
  8
FRAME_025
 10
536.0
 20
41.749999999999993
 30
0.0
 40
2.5
  1
Article No./Reference
  7
ISO_PROPORTIONAL
 11
536.0
 21
43.0
 31
0.0
 73
     2
  0
LINE
  5
C36
  8
FRAME_070
 10
534.0
 20
40.0
 30
0.0
 11
534.0
 21
46.0
 31
0.0
  0
ATTDEF
  5
C37
  8
FRAME_025
 10
551.0
 20
11.75
 30
0.0
 40
2.5
  1
0
  7
ISO_PROPORTIONAL
 11
551.0
 21
13.0
 31
0.0
  3
Edition
  2
EDITION
 70
     8
 74
     2
  0
TEXT
  5
C38
  8
FRAME_025
 10
551.0
 20
15.75
 30
0.0
 40
2.5
  1
Edition
  7
ISO_PROPORTIONAL
 11
551.0
 21
17.0
 31
0.0
 73
     2
  0
LINE
  5
C39
  8
FRAME_070
 10
549.0
 20
10.0
 30
0.0
 11
549.0
 21
20.0
 31
0.0
  0
ATTDEF
  5
C3A
  8
FRAME_025
 10
536.0
 20
31.75
 30
0.0
 40
2.5
  1
00/00/00
  7
ISO_PROPORTIONAL
 11
536.0
 21
33.0
 31
0.0
  3
Date
  2
DATE
 70
     8
 74
     2
  0
TEXT
  5
C3B
  8
FRAME_025
 10
536.0
 20
35.75
 30
0.0
 40
2.5
  1
Date
  7
ISO_PROPORTIONAL
 11
536.0
 21
37.0
 31
0.0
 73
     2
  0
LINE
  5
C3C
  8
FRAME_070
 10
534.0
 20
30.0
 30
0.0
 11
534.0
 21
40.0
 31
0.0
  0
ATTDEF
  5
C3D
  8
FRAME_025
 10
566.0
 20
11.75
 30
0.0
 40
2.5
  1
1/1
  7
ISO_PROPORTIONAL
 11
566.0
 21
13.0
 31
0.0
  3
Sheet
  2
SHEET
 70
     8
 74
     2
  0
TEXT
  5
C3E
  8
FRAME_025
 10
566.0
 20
15.75
 30
0.0
 40
2.5
  1
Sheet
  7
ISO_PROPORTIONAL
 11
566.0
 21
17.0
 31
0.0
 73
     2
  0
LINE
  5
C3F
  8
FRAME_070
 10
564.0
 20
10.0
 30
0.0
 11
564.0
 21
20.0
 31
0.0
  0
ATTDEF
  5
C40
  8
FRAME_025
 10
566.0
 20
31.75
 30
0.0
 40
2.5
  1
1:1
  7
ISO_PROPORTIONAL
 11
566.0
 21
33.0
 31
0.0
  3
Scale
  2
SCALE
 70
     8
 74
     2
  0
TEXT
  5
C41
  8
FRAME_025
 10
566.0
 20
35.75
 30
0.0
 40
2.5
  1
Scale
  7
ISO_PROPORTIONAL
 11
566.0
 21
37.0
 31
0.0
 73
     2
  0
LINE
  5
C42
  8
FRAME_070
 10
564.0
 20
30.0
 30
0.0
 11
564.0
 21
40.0
 31
0.0
  0
LINE
  5
C43
  8
FRAME_200
 10
594.0
 20
0.0
 30
0.0
 11
594.0
 21
10.0
 31
0.0
  0
LINE
  5
C44
  8
FRAME_200
 10
594.0
 20
0.0
 30
0.0
 11
584.0
 21
0.0
 31
0.0
  0
TEXT
  5
C45
  8
FRAME_050
 10
584.89999999999998
 20
35.0
 30
0.0
 40
4.0
  1
H
  7
ISO_PROPORTIONAL
 72
     4
 11
586.5
 21
37.0
 31
0.0
  0
LINE
  5
C46
  8
FRAME_050
 10
589.0
 20
60.0
 30
0.0
 11
584.0
 21
60.0
 31
0.0
  0
TEXT
  5
C47
  8
FRAME_050
 10
585.0035533905932
 20
85.0
 30
0.0
 40
4.0
  1
G
  7
ISO_PROPORTIONAL
 72
     4
 11
586.5
 21
87.0
 31
0.0
  0
LINE
  5
C48
  8
FRAME_050
 10
589.0
 20
110.0
 30
0.0
 11
584.0
 21
110.0
 31
0.0
  0
TEXT
  5
C49
  8
FRAME_050
 10
585.09999999999991
 20
135.0
 30
0.0
 40
4.0
  1
F
  7
ISO_PROPORTIONAL
 72
     4
 11
586.5
 21
137.0
 31
0.0
  0
LINE
  5
C4A
  8
FRAME_050
 10
589.0
 20
160.0
 30
0.0
 11
584.0
 21
160.0
 31
0.0
  0
TEXT
  5
C4B
  8
FRAME_050
 10
585.09999999999991
 20
185.0
 30
0.0
 40
4.0
  1
E
  7
ISO_PROPORTIONAL
 72
     4
 11
586.5
 21
187.0
 31
0.0
  0
LINE
  5
C4C
  8
FRAME_070
 10
414.0
 20
404.0
 30
0.0
 11
584.0
 21
404.0
 31
0.0
  0
TEXT
  5
C4D
  8
FRAME_050
 10
331.39215728752538
 20
410.58284271247459
 30
0.0
 40
4.0
  1
5
  7
ISO_PROPORTIONAL
 72
     4
 11
332.875
 21
412.5
 31
0.0
  0
LINE
  5
C4E
  8
FRAME_050
 10
368.75
 20
410.0
 30
0.0
 11
368.75
 21
415.0
 31
0.0
  0
TEXT
  5
C4F
  8
FRAME_025
 10
428.0
 20
405.75
 30
0.0
 40
2.5
  1
Revision note
  7
ISO_PROPORTIONAL
 11
428.0
 21
407.0
 31
0.0
 73
     2
  0
TEXT
  5
C50
  8
FRAME_025
 10
416.0
 20
405.75
 30
0.0
 40
2.5
  1
RevNo
  7
ISO_PROPORTIONAL
 11
416.0
 21
407.0
 31
0.0
 73
     2
  0
LINE
  5
C51
  8
FRAME_070
 10
426.0
 20
404.0
 30
0.0
 11
426.0
 21
410.0
 31
0.0
  0
LINE
  5
C52
  8
FRAME_070
 10
414.0
 20
404.0
 30
0.0
 11
414.0
 21
410.0
 31
0.0
  0
TEXT
  5
C53
  8
FRAME_050
 10
403.24547244094481
 20
410.41023622047243
 30
0.0
 40
4.0
  1
6
  7
ISO_PROPORTIONAL
 72
     4
 11
404.62499999999989
 21
412.5
 31
0.0
  0
LINE
  5
C54
  8
FRAME_050
 10
440.5
 20
410.0
 30
0.0
 11
440.5
 21
415.0
 31
0.0
  0
TEXT
  5
C55
  8
FRAME_050
 10
474.97499999999991
 20
410.5
 30
0.0
 40
4.0
  1
7
  7
ISO_PROPORTIONAL
 72
     4
 11
476.37499999999989
 21
412.5
 31
0.0
  0
LINE
  5
C56
  8
FRAME_050
 10
579.0
 20
210.0
 30
0.0
 11
589.0
 21
210.0
 31
0.0
  0
TEXT
  5
C57
  8
FRAME_050
 10
584.78609127034736
 20
235.0
 30
0.0
 40
4.0
  1
D
  7
ISO_PROPORTIONAL
 72
     4
 11
586.5
 21
237.0
 31
0.0
  0
LINE
  5
C58
  8
FRAME_050
 10
589.0
 20
260.0
 30
0.0
 11
584.0
 21
260.0
 31
0.0
  0
TEXT
  5
C59
  8
FRAME_050
 10
585.19319805153395
 20
285.0
 30
0.0
 40
4.0
  1
C
  7
ISO_PROPORTIONAL
 72
     4
 11
586.5
 21
287.0
 31
0.0
  0
LINE
  5
C5A
  8
FRAME_050
 10
589.0
 20
310.0
 30
0.0
 11
584.0
 21
310.0
 31
0.0
  0
TEXT
  5
C5B
  8
FRAME_050
 10
584.89999999999998
 20
335.0
 30
0.0
 40
4.0
  1
B
  7
ISO_PROPORTIONAL
 72
     4
 11
586.5
 21
337.0
 31
0.0
  0
TEXT
  5
C5C
  8
FRAME_025
 10
571.08299391850551
 20
405.75
 30
0.0
 40
2.5
  1
Checked
  7
ISO_PROPORTIONAL
 11
571.08299391850551
 21
407.0
 31
0.0
 73
     2
  0
TEXT
  5
C5D
  8
FRAME_025
 10
555.36099797283521
 20
405.75
 30
0.0
 40
2.5
  1
Signature
  7
ISO_PROPORTIONAL
 11
555.36099797283521
 21
407.0
 31
0.0
 73
     2
  0
TEXT
  5
C5E
  8
FRAME_025
 10
537.0
 20
405.75
 30
0.0
 40
2.5
  1
Date
  7
ISO_PROPORTIONAL
 11
537.0
 21
407.0
 31
0.0
 73
     2
  0
LINE
  5
C5F
  8
FRAME_070
 10
570.0
 20
404.0
 30
0.0
 11
570.0
 21
410.0
 31
0.0
  0
LINE
  5
C60
  8
FRAME_070
 10
555.0
 20
404.0
 30
0.0
 11
555.0
 21
410.0
 31
0.0
  0
LINE
  5
C61
  8
FRAME_070
 10
535.0
 20
404.0
 30
0.0
 11
535.0
 21
410.0
 31
0.0
  0
LINE
  5
C62
  8
FRAME_050
 10
512.25
 20
410.0
 30
0.0
 11
512.25
 21
415.0
 31
0.0
  0
TEXT
  5
C63
  8
FRAME_050
 10
546.72499999999991
 20
410.5
 30
0.0
 40
4.0
  1
8
  7
ISO_PROPORTIONAL
 72
     4
 11
548.125
 21
412.5
 31
0.0
  0
LINE
  5
C64
  8
FRAME_050
 10
589.0
 20
360.0
 30
0.0
 11
584.0
 21
360.0
 31
0.0
  0
TEXT
  5
C65
  8
FRAME_050
 10
584.70000000000005
 20
385.0
 30
0.0
 40
4.0
  1
A
  7
ISO_PROPORTIONAL
 72
     4
 11
586.5
 21
387.0
 31
0.0
  0
LINE
  5
C66
  8
FRAME_200
 10
594.0
 20
420.0
 30
0.0
 11
584.0
 21
420.0
 31
0.0
  0
LINE
  5
C67
  8
FRAME_200
 10
594.0
 20
410.0
 30
0.0
 11
594.0
 21
420.0
 31
0.0
  0
ENDBLK
  5
C69
  8
0
  0
BLOCK
  8
0
  2
WOBB001END
 70
     0
 10
0.0
 20
0.0
 30
0.0
  3
WOBB001END
  1

  0
LINE
  5
4D66
  8
0
  6
CONTINUOUS
 10
0.0
 20
0.0
 30
0.0
 11
0.8749999999999998
 21
0.0
 31
0.0
  0
ARC
  5
4D67
  8
0
  6
CONTINUOUS
 10
0.0331648379439287
 20
-0.5087238935900234
 30
0.0
 40
0.8790130605592325
 50
284.06490243660443
 51
312.19222981924361
  0
ARC
  5
4D68
  8
0
  6
CONTINUOUS
 10
0.2841534338796767
 20
-1.510548310625538
 30
0.0
 40
0.1537731892806598
 50
104.0649024366044
 51
179.4721730735024
  0
LINE
  5
4D69
  8
0
  6
CONTINUOUS
 10
0.0
 20
0.0
 30
0.0
 11
-0.0000000000000003
 21
-1.7501564476661911
 31
0.0
  0
ARC
  5
4D6A
  8
0
  6
CONTINUOUS
 10
0.1404622019506122
 20
-1.630313718354619
 30
0.0
 40
0.1198427293115722
 50
275.0
 51
85.000000000000057
  0
LINE
  5
4D6B
  8
0
  6
CONTINUOUS
 10
-0.0000000000000003
 20
-1.7501564476661911
 30
0.0
 11
0.1456946485130855
 21
-1.7501564476661911
 31
0.0
  0
LINE
  5
4D6C
  8
0
  6
CONTINUOUS
 10
0.1377603739254348
 20
-1.7508506067459131
 30
0.0
 11
0.150907184036669
 21
-1.7497004098996509
 31
0.0
  0
LINE
  5
4D6D
  8
0
  6
CONTINUOUS
 10
0.1303867696719884
 20
-1.5091317231818231
 30
0.0
 11
0.1509071840366689
 21
-1.510927026809586
 31
0.0
  0
LINE
  5
4D6E
  8
0
  6
CONTINUOUS
 10
0.8749999999999998
 20
0.0
 30
0.0
 11
0.8749999999999996
 21
-0.8649327026588228
 31
0.0
  0
LINE
  5
4D6F
  8
0
  6
CONTINUOUS
 10
0.727014513830997
 20
-0.872688293355061
 30
0.0
 11
0.727014513830997
 21
-0.9264923397184784
 31
0.0
  0
ARC
  5
4D70
  8
0
  6
CONTINUOUS
 10
0.41187090827646
 20
-0.9264923397184784
 30
0.0
 40
0.3151436055545369
 50
312.19222981924361
 51
0.0
  0
LINE
  5
4D71
  8
0
  6
CONTINUOUS
 10
0.727014513830997
 20
-0.872688293355061
 30
0.0
 11
0.8749999999999996
 21
-0.8649327026588228
 31
0.0
  0
ENDBLK
  5
4D72
  8
0
  0
BLOCK
  8
0
  2
A$C0A61123B
 70
     0
 10
0.0
 20
0.0
 30
0.0
  3
A$C0A61123B
  1

  0
LINE
  5
C0AD
  8
PROF
  6
CONTINUOUS
 10
4.9012016798694162
 20
13.325025853350891
 30
0.0000000000000002
 11
4.9012016798694162
 21
12.88585218805485
 31
0.0000000000000003
  0
INSERT
  5
C0AE
  8
0
  2
*U7
 10
0.0
 20
0.0
 30
0.0
  0
LINE
  5
C0AF
  8
PROF
 10
4.519857503186925
 20
12.72227734589444
 30
0.0000000000000001
 11
4.519857503186925
 21
12.88585218805485
 31
0.0000000000000001
  0
LINE
  5
C0B0
  8
PROF
  6
CONTINUOUS
 10
3.6306271195888362
 20
13.325025853350891
 30
0.0000000000000002
 11
4.9012016798694162
 21
13.325025853350891
 31
0.0000000000000002
  0
LINE
  5
C0B1
  8
PROF
 10
1.9750295148747341
 20
10.37671325491794
 30
0.0000000000000002
 11
1.9750295148747341
 21
10.11391186758919
 31
0.0000000000000002
  0
LINE
  5
C0B2
  8
PROF
 10
1.6079673357556299
 20
10.11391186758919
 30
0.0000000000000001
 11
1.9750295148747341
 21
10.11391186758919
 31
0.0000000000000001
  0
LINE
  5
C0B3
  8
PROF
 10
1.9750295148747341
 20
10.11391186758919
 30
0.0000000000000001
 11
1.944958486898144
 21
10.11391186758919
 31
0.0000000000000001
  0
LINE
  5
C0B4
  8
PROF
 10
1.9750295148747341
 20
10.11391186758919
 30
0.0000000000000001
 11
1.944958486898144
 21
10.11391186758919
 31
0.0000000000000001
  0
LINE
  5
C0B5
  8
PROF
 10
0.3222605517169654
 20
7.5247473351056451
 30
-0.0000000000000002
 11
-0.0000008570117416
 21
7.5247473351056451
 31
0.0
  0
LINE
  5
C0B6
  8
PROF
 10
-0.0000008570117416
 20
7.5247473351056451
 30
0.0
 11
-0.0000008570117416
 21
9.1943336957369848
 31
0.0
  0
POLYLINE
  5
C0B7
  8
PROF
 66
     1
 10
0.0
 20
0.0
 30
0.0000000000000001
 70
     4
 75
     6
  0
VERTEX
  5
C0B8
  8
PROF
 10
1.6079673357556299
 20
10.11391186758919
 30
0.0000000000000001
 70
    16
  0
VERTEX
  5
C0B9
  8
PROF
 10
1.6079673357556299
 20
10.11391186758919
 30
0.0000000000000001
 70
     8
  0
VERTEX
  5
C0BA
  8
PROF
 10
1.6468132326485809
 20
10.02198069336111
 30
0.0000000000000001
 70
     8
  0
VERTEX
  5
C0BB
  8
PROF
 10
1.67335966680929
 20
9.9344134163010231
 30
0.0000000000000001
 70
     8
  0
VERTEX
  5
C0BC
  8
PROF
 10
1.6890086400463229
 20
9.8512576644480951
 30
0.0000000000000001
 70
     8
  0
VERTEX
  5
C0BD
  8
PROF
 10
1.6951621541682571
 20
9.7725610658417281
 30
0.0000000000000001
 70
     8
  0
VERTEX
  5
C0BE
  8
PROF
 10
1.693222210983605
 20
9.6983712485214237
 30
0.0000000000000001
 70
     8
  0
VERTEX
  5
C0BF
  8
PROF
 10
1.6845908123009961
 20
9.6287358405263603
 30
0.0000000000000001
 70
     8
  0
VERTEX
  5
C0C0
  8
PROF
 10
1.670669959928885
 20
9.5637024698960431
 30
0.0000000000000001
 70
     8
  0
VERTEX
  5
C0C1
  8
PROF
 10
1.6528616556759621
 20
9.5033187646697552
 30
0.0000000000000001
 70
     8
  0
VERTEX
  5
C0C2
  8
PROF
 10
1.632356299273054
 20
9.4475843259650691
 30
0.0000000000000001
 70
     8
  0
VERTEX
  5
C0C3
  8
PROF
 10
1.609497882140658
 20
9.3963066472123273
 30
0.0000000000000001
 70
     8
  0
VERTEX
  5
C0C4
  8
PROF
 10
1.584418793621637
 20
9.3492451949202842
 30
0.0000000000000001
 70
     8
  0
VERTEX
  5
C0C5
  8
PROF
 10
1.5572514230587431
 20
9.3061594355972357
 30
0.0000000000000001
 70
     8
  0
VERTEX
  5
C0C6
  8
PROF
 10
1.5281281597949601
 20
9.2668088357519274
 30
0.0000000000000001
 70
     8
  0
VERTEX
  5
C0C7
  8
PROF
 10
1.497181393172978
 20
9.2309528618929981
 30
0.0000000000000001
 70
     8
  0
VERTEX
  5
C0C8
  8
PROF
 10
1.4645435125357249
 20
9.1983509805288541
 30
0.0000000000000001
 70
     8
  0
VERTEX
  5
C0C9
  8
PROF
 10
1.4303469072260091
 20
9.1687626581682462
 30
0.0000000000000001
 70
     8
  0
VERTEX
  5
C0CA
  8
PROF
 10
1.394736033257401
 20
9.1419547918675335
 30
0.0000000000000001
 70
     8
  0
VERTEX
  5
C0CB
  8
PROF
 10
1.3579036133264131
 20
9.1177240008747713
 30
0.0000000000000001
 70
     8
  0
VERTEX
  5
C0CC
  8
PROF
 10
1.3200544368004321
 20
9.0958743349860924
 30
0.0000000000000001
 70
     8
  0
VERTEX
  5
C0CD
  8
PROF
 10
1.281393293046676
 20
9.0762098439975034
 30
0.0000000000000001
 70
     8
  0
VERTEX
  5
C0CE
  8
PROF
 10
1.2421249714324161
 20
9.0585345777049042
 30
0.0000000000000001
 70
     8
  0
VERTEX
  5
C0CF
  8
PROF
 10
1.202454261324986
 20
9.0426525859044187
 30
0.0000000000000001
 70
     8
  0
VERTEX
  5
C0D0
  8
PROF
 10
1.162585952091659
 20
9.0283679183919503
 30
0.0000000000000001
 70
     8
  0
VERTEX
  5
C0D1
  8
PROF
 10
1.1227248330997091
 20
9.0154846249635021
 30
0.0000000000000001
 70
     8
  0
VERTEX
  5
C0D2
  8
PROF
 10
1.0829726247361
 20
9.0034643862466055
 30
0.0000000000000001
 70
     8
  0
VERTEX
  5
C0D3
  8
PROF
 10
1.043018771466222
 20
8.9903994061946833
 30
0.0000000000000001
 70
     8
  0
VERTEX
  5
C0D4
  8
PROF
 10
1.002449648775211
 20
8.9740395195925622
 30
0.0000000000000001
 70
     8
  0
VERTEX
  5
C0D5
  8
PROF
 10
0.9608516321480919
 20
8.9521345612251935
 30
0.0000000000000001
 70
     8
  0
VERTEX
  5
C0D6
  8
PROF
 10
0.9178110970699435
 20
8.9224343658775052
 30
0.0000000000000001
 70
     8
  0
VERTEX
  5
C0D7
  8
PROF
 10
0.8729144190259033
 20
8.8826887683343312
 30
0.0000000000000001
 70
     8
  0
VERTEX
  5
C0D8
  8
PROF
 10
0.8257479735009949
 20
8.8306476033806121
 30
0.0000000000000001
 70
     8
  0
VERTEX
  5
C0D9
  8
PROF
 10
0.7758981359802988
 20
8.764060705801171
 30
0.0000000000000001
 70
     8
  0
VERTEX
  5
C0DA
  8
PROF
 10
1.7292019016096549
 20
9.8629858761255491
 30
0.0000000000000001
 70
    16
  0
VERTEX
  5
C0DB
  8
PROF
 10
1.679373123114088
 20
9.4532143012734213
 30
0.0000000000000001
 70
    16
  0
VERTEX
  5
C0DC
  8
PROF
 10
1.4455611507419801
 20
9.1391837193732481
 30
0.0000000000000001
 70
    16
  0
VERTEX
  5
C0DD
  8
PROF
 10
1.1204637172738201
 20
9.0026267702428413
 30
0.0000000000000001
 70
    16
  0
VERTEX
  5
C0DE
  8
PROF
 10
0.9127765582653638
 20
8.9630202230383702
 30
0.0000000000000001
 70
    16
  0
VERTEX
  5
C0DF
  8
PROF
 10
0.7758981359802988
 20
8.764060705801171
 30
0.0000000000000001
 70
    16
  0
SEQEND
  5
C0E0
  8
PROF
  0
ARC
  5
C0E1
  8
PROF
 10
0.733429816733235
 20
8.4849506952165257
 30
0.0000000000000001
 40
0.2823224329524727
 50
269.73652020831901
 51
81.348449993176914
  0
LINE
  5
C0E2
  8
PROF
  6
CONTINUOUS
 10
-0.0000008570117416
 20
9.1943336957369848
 30
-0.0000000000000001
 11
3.6306271195888362
 21
13.325025853350891
 31
0.0000000000000002
  0
POLYLINE
  5
C0E3
  8
PROF
 66
     1
 10
0.0
 20
0.0
 30
0.0000000000000001
 70
     4
 75
     6
  0
VERTEX
  5
C0E4
  8
PROF
 10
4.519857503186925
 20
12.72227734589444
 30
0.0000000000000001
 70
    16
  0
VERTEX
  5
C0E5
  8
PROF
 10
4.519857503186925
 20
12.72227734589444
 30
0.0000000000000001
 70
     8
  0
VERTEX
  5
C0E6
  8
PROF
 10
4.4467035366886289
 20
12.741128108778071
 30
0.0000000000000001
 70
     8
  0
VERTEX
  5
C0E7
  8
PROF
 10
4.3786645761268801
 20
12.754675269913941
 30
0.0000000000000001
 70
     8
  0
VERTEX
  5
C0E8
  8
PROF
 10
4.3154364111440469
 20
12.76334314092332
 30
0.0000000000000001
 70
     8
  0
VERTEX
  5
C0E9
  8
PROF
 10
4.256714831382566
 20
12.76755603342724
 30
0.0000000000000001
 70
     8
  0
VERTEX
  5
C0EA
  8
PROF
 10
4.2021956264849791
 20
12.76773825904672
 30
0.0000000000000001
 70
     8
  0
VERTEX
  5
C0EB
  8
PROF
 10
4.1515745860935436
 20
12.764314129403139
 30
0.0000000000000001
 70
     8
  0
VERTEX
  5
C0EC
  8
PROF
 10
4.1045474998508649
 20
12.75770795611743
 30
0.0000000000000001
 70
     8
  0
VERTEX
  5
C0ED
  8
PROF
 10
4.0608101573993149
 20
12.748344050810831
 30
0.0000000000000001
 70
     8
  0
VERTEX
  5
C0EE
  8
PROF
 10
4.0200583483813261
 20
12.736646725104491
 30
0.0000000000000001
 70
     8
  0
VERTEX
  5
C0EF
  8
PROF
 10
3.981987862439381
 20
12.72304029061945
 30
0.0000000000000001
 70
     8
  0
VERTEX
  5
C0F0
  8
PROF
 10
3.946294489215858
 20
12.707949058976959
 30
0.0000000000000001
 70
     8
  0
VERTEX
  5
C0F1
  8
PROF
 10
3.912674018353242
 20
12.691797341798059
 30
0.0000000000000001
 70
     8
  0
VERTEX
  5
C0F2
  8
PROF
 10
3.8808638350742499
 20
12.67494295718654
 30
0.0000000000000001
 70
     8
  0
VERTEX
  5
C0F3
  8
PROF
 10
3.850767706922738
 20
12.65747774917668
 30
0.0000000000000001
 70
     8
  0
VERTEX
  5
C0F4
  8
PROF
 10
3.8223309970228438
 20
12.639427068285499
 30
0.0000000000000001
 70
     8
  0
VERTEX
  5
C0F5
  8
PROF
 10
3.795499068498712
 20
12.62081626503004
 30
0.0000000000000001
 70
     8
  0
VERTEX
  5
C0F6
  8
PROF
 10
3.7702172844744819
 20
12.601670689926999
 30
0.0000000000000001
 70
     8
  0
VERTEX
  5
C0F7
  8
PROF
 10
3.7464310080743521
 20
12.58201569349364
 30
0.0000000000000001
 70
     8
  0
VERTEX
  5
C0F8
  8
PROF
 10
3.7240856024224609
 20
12.56187662624666
 30
0.0000000000000001
 70
     8
  0
VERTEX
  5
C0F9
  8
PROF
 10
3.7031264306428961
 20
12.541278838703191
 30
0.0000000000000001
 70
     8
  0
VERTEX
  5
C0FA
  8
PROF
 10
3.683498855859908
 20
12.520247681380051
 30
0.0000000000000001
 70
     8
  0
VERTEX
  5
C0FB
  8
PROF
 10
3.665148241197528
 20
12.49880850479428
 30
0.0000000000000001
 70
     8
  0
VERTEX
  5
C0FC
  8
PROF
 10
3.648019949779949
 20
12.47698665946279
 30
0.0000000000000001
 70
     8
  0
VERTEX
  5
C0FD
  8
PROF
 10
3.6320593447313159
 20
12.45480749590263
 30
0.0000000000000001
 70
     8
  0
VERTEX
  5
C0FE
  8
PROF
 10
3.617189584886658
 20
12.43223790353807
 30
0.0000000000000001
 70
     8
  0
VERTEX
  5
C0FF
  8
PROF
 10
3.6032450119242849
 20
12.40901092742285
 30
0.0000000000000001
 70
     8
  0
VERTEX
  5
C100
  8
PROF
 10
3.590037763233453
 20
12.38480115151844
 30
0.0000000000000001
 70
     8
  0
VERTEX
  5
C101
  8
PROF
 10
3.5773799762033032
 20
12.35928315978594
 30
0.0000000000000001
 70
     8
  0
VERTEX
  5
C102
  8
PROF
 10
3.5650837882230899
 20
12.33213153618658
 30
0.0000000000000001
 70
     8
  0
VERTEX
  5
C103
  8
PROF
 10
3.552961336681959
 20
12.303020864681571
 30
0.0000000000000001
 70
     8
  0
VERTEX
  5
C104
  8
PROF
 10
3.540824758969165
 20
12.271625729232371
 30
0.0000000000000001
 70
     8
  0
VERTEX
  5
C105
  8
PROF
 10
3.528486192473848
 20
12.23762071379997
 30
0.0000000000000001
 70
     8
  0
VERTEX
  5
C106
  8
PROF
 10
3.5157577745852659
 20
12.200680402345711
 30
0.0000000000000001
 70
     8
  0
VERTEX
  5
C107
  8
PROF
 10
3.502451642692618
 20
12.16047937883093
 30
0.0000000000000001
 70
     8
  0
VERTEX
  5
C108
  8
PROF
 10
3.4883799341851041
 20
12.116692227216619
 30
0.0000000000000001
 70
     8
  0
VERTEX
  5
C109
  8
PROF
 10
3.4733547864519201
 20
12.06899353146423
 30
0.0000000000000001
 70
     8
  0
VERTEX
  5
C10A
  8
PROF
 10
3.45723654619428
 20
12.0172095445447
 30
0.0000000000000001
 70
     8
  0
VERTEX
  5
C10B
  8
PROF
 10
3.440078397361388
 20
11.961773195467799
 30
0.0000000000000001
 70
     8
  0
VERTEX
  5
C10C
  8
PROF
 10
3.4219817332145781
 20
11.90326908225302
 30
0.0000000000000001
 70
     8
  0
VERTEX
  5
C10D
  8
PROF
 10
3.4030479470150099
 20
11.842281802919951
 30
0.0000000000000001
 70
     8
  0
VERTEX
  5
C10E
  8
PROF
 10
3.383378432024017
 20
11.779395955487979
 30
0.0000000000000001
 70
     8
  0
VERTEX
  5
C10F
  8
PROF
 10
3.36307458150287
 20
11.7151961379768
 30
0.0000000000000001
 70
     8
  0
VERTEX
  5
C110
  8
PROF
 10
3.342237788712735
 20
11.650266948405831
 30
0.0000000000000001
 70
     8
  0
VERTEX
  5
C111
  8
PROF
 10
3.3209694469149991
 20
11.58519298479461
 30
0.0000000000000001
 70
     8
  0
VERTEX
  5
C112
  8
PROF
 10
3.299370949370767
 20
11.52055884516254
 30
0.0000000000000001
 70
     8
  0
VERTEX
  5
C113
  8
PROF
 10
3.277543689341428
 20
11.456949127529461
 30
0.0000000000000001
 70
     8
  0
VERTEX
  5
C114
  8
PROF
 10
3.2555890600881399
 20
11.3949484299145
 30
0.0000000000000001
 70
     8
  0
VERTEX
  5
C115
  8
PROF
 10
3.2336084548721811
 20
11.335141350337491
 30
0.0000000000000001
 70
     8
  0
VERTEX
  5
C116
  8
PROF
 10
3.2116715641212181
 20
11.277995447977769
 30
0.0000000000000001
 70
     8
  0
VERTEX
  5
C117
  8
PROF
 10
3.1897212669278461
 20
11.22351012665467
 30
0.0000000000000001
 70
     8
  0
VERTEX
  5
C118
  8
PROF
 10
3.1676687395512881
 20
11.17156775134765
 30
0.0000000000000001
 70
     8
  0
VERTEX
  5
C119
  8
PROF
 10
3.1454251582505321
 20
11.12205068703588
 30
0.0000000000000001
 70
     8
  0
VERTEX
  5
C11A
  8
PROF
 10
3.122901699284625
 20
11.07484129869874
 30
0.0000000000000001
 70
     8
  0
VERTEX
  5
C11B
  8
PROF
 10
3.1000095389127278
 20
11.02982195131551
 30
0.0000000000000001
 70
     8
  0
VERTEX
  5
C11C
  8
PROF
 10
3.07665985339389
 20
10.986875009865679
 30
0.0000000000000001
 70
     8
  0
VERTEX
  5
C11D
  8
PROF
 10
3.0527638189871591
 20
10.9458828393283
 30
0.0000000000000001
 70
     8
  0
VERTEX
  5
C11E
  8
PROF
 10
3.0282326119516361
 20
10.90672780468298
 30
0.0000000000000001
 70
     8
  0
VERTEX
  5
C11F
  8
PROF
 10
3.0029774085463701
 20
10.869292270908771
 30
0.0000000000000001
 70
     8
  0
VERTEX
  5
C120
  8
PROF
 10
2.9769093850304089
 20
10.833458602985161
 30
0.0000000000000001
 70
     8
  0
VERTEX
  5
C121
  8
PROF
 10
2.9499397176628559
 20
10.799109165891419
 30
0.0000000000000001
 70
     8
  0
VERTEX
  5
C122
  8
PROF
 10
2.922000609840437
 20
10.76614363969508
 30
0.0000000000000001
 70
     8
  0
VERTEX
  5
C123
  8
PROF
 10
2.8931083735102998
 20
10.7345309648158
 30
0.0000000000000001
 70
     8
  0
VERTEX
  5
C124
  8
PROF
 10
2.8633003477572729
 20
10.70425739676193
 30
0.0000000000000001
 70
     8
  0
VERTEX
  5
C125
  8
PROF
 10
2.8326138716660689
 20
10.67530919104115
 30
0.0000000000000001
 70
     8
  0
VERTEX
  5
C126
  8
PROF
 10
2.801086284321626
 20
10.647672603161711
 30
0.0000000000000001
 70
     8
  0
VERTEX
  5
C127
  8
PROF
 10
2.7687549248087162
 20
10.62133388863162
 30
0.0000000000000001
 70
     8
  0
VERTEX
  5
C128
  8
PROF
 10
2.7356571322120531
 20
10.5962793029588
 30
0.0000000000000001
 70
     8
  0
VERTEX
  5
C129
  8
PROF
 10
2.7018302456165202
 20
10.572495101651381
 30
0.0000000000000001
 70
     8
  0
VERTEX
  5
C12A
  8
PROF
 10
2.6673116041068838
 20
10.54996754021726
 30
0.0000000000000001
 70
     8
  0
VERTEX
  5
C12B
  8
PROF
 10
2.6321385467680321
 20
10.528682874164581
 30
0.0000000000000001
 70
     8
  0
VERTEX
  5
C12C
  8
PROF
 10
2.5963484126846179
 20
10.508627359001251
 30
0.0000000000000001
 70
     8
  0
VERTEX
  5
C12D
  8
PROF
 10
2.5599785409415841
 20
10.489787250235279
 30
0.0000000000000001
 70
     8
  0
VERTEX
  5
C12E
  8
PROF
 10
2.522998630314361
 20
10.472162234281081
 30
0.0000000000000001
 70
     8
  0
VERTEX
  5
C12F
  8
PROF
 10
2.4851078183409072
 20
10.455805721177621
 30
0.0000000000000001
 70
     8
  0
VERTEX
  5
C130
  8
PROF
 10
2.4459376022498982
 20
10.44078455187036
 30
0.0000000000000001
 70
     8
  0
VERTEX
  5
C131
  8
PROF
 10
2.4051194792701249
 20
10.42716556730465
 30
0.0000000000000001
 70
     8
  0
VERTEX
  5
C132
  8
PROF
 10
2.3622849466301541
 20
10.415015608425851
 30
0.0000000000000001
 70
     8
  0
VERTEX
  5
C133
  8
PROF
 10
2.317065501558714
 20
10.40440151617929
 30
0.0000000000000001
 70
     8
  0
VERTEX
  5
C134
  8
PROF
 10
2.2690926412844301
 20
10.395390131510339
 30
0.0000000000000001
 70
     8
  0
VERTEX
  5
C135
  8
PROF
 10
2.2179978630360879
 20
10.388048295364451
 30
0.0000000000000001
 70
     8
  0
VERTEX
  5
C136
  8
PROF
 10
2.1634126640422551
 20
10.38244284868688
 30
0.0000000000000001
 70
     8
  0
VERTEX
  5
C137
  8
PROF
 10
2.1049685415316031
 20
10.37864063242295
 30
0.0000000000000001
 70
     8
  0
VERTEX
  5
C138
  8
PROF
 10
2.0422969927328709
 20
10.37670848751816
 30
0.0000000000000001
 70
     8
  0
VERTEX
  5
C139
  8
PROF
 10
1.9750295148747341
 20
10.37671325491794
 30
0.0000000000000001
 70
     8
  0
VERTEX
  5
C13A
  8
PROF
 10
4.2166060115107484
 20
12.80885334975255
 30
0.0000000000000001
 70
    16
  0
VERTEX
  5
C13B
  8
PROF
 10
3.8702254102732909
 20
12.707065515763929
 30
0.0000000000000001
 70
    16
  0
VERTEX
  5
C13C
  8
PROF
 10
3.605346156896871
 20
12.46277472098552
 30
0.0000000000000001
 70
    16
  0
VERTEX
  5
C13D
  8
PROF
 10
3.500746030527238
 20
12.170680575709749
 30
0.0000000000000001
 70
    16
  0
VERTEX
  5
C13E
  8
PROF
 10
3.231798439705698
 20
11.26846416496107
 30
0.0000000000000001
 70
    16
  0
VERTEX
  5
C13F
  8
PROF
 10
2.9737109398832882
 20
10.76631086647069
 30
0.0000000000000001
 70
    16
  0
VERTEX
  5
C140
  8
PROF
 10
2.5729961067384002
 20
10.460947364504699
 30
0.0000000000000001
 70
    16
  0
VERTEX
  5
C141
  8
PROF
 10
2.2537826214546031
 20
10.372731239449759
 30
0.0000000000000001
 70
    16
  0
VERTEX
  5
C142
  8
PROF
 10
1.9750295148747341
 20
10.37671325491794
 30
0.0000000000000001
 70
    16
  0
SEQEND
  5
C143
  8
PROF
  0
LINE
  5
C144
  8
PROF
 10
4.9012016798694162
 20
12.88585218805485
 30
0.0000000000000003
 11
4.519857503186925
 21
12.88585218805485
 31
0.0000000000000003
  0
LINE
  5
C145
  8
PROF
 10
0.7321315362267457
 20
8.2026312473991556
 30
0.0000000000000006
 11
0.7321315362267457
 21
8.0511853963434952
 31
0.0000000000000006
  0
ARC
  5
C146
  8
PROF
 10
0.7977322214551919
 20
7.577333933202679
 30
0.0000000000000006
 40
0.4783708383912013
 50
97.882010168942557
 51
186.31119505698641
  0
LINE
  5
C147
  8
FRAME_050
 10
7.8016377197432121
 20
17.99371054969447
 30
0.0
 11
7.8016377197432121
 21
0.0000000000002274
 31
0.0
  0
ENDBLK
  5
C149
  8
0
  0
BLOCK
  8
0
  2
*U7
 70
     1
 10
0.0
 20
0.0
 30
0.0
  3
*U7
  1

  0
TEXT
  5
C8C3
  8
0
 10
3.5177832928899071
 20
10.38601584255777
 30
0.0
 40
0.125
  1
Crown Moulding
  0
TEXT
  5
C8C4
  8
0
 10
3.5223876585106431
 20
10.17717091304435
 30
0.0
 40
0.125
  1
TL-AB509
  0
TEXT
  5
C8C5
  8
0
 10
3.5074661032582561
 20
9.9667059289606801
 30
0.0
 40
0.125
  1
1-5/16" x 7-9/16"
  0
TEXT
  5
C8C6
  8
0
 10
3.519403347460166
 20
9.7562409448770051
 30
0.0
 40
0.125
  1
800.66.TAGUE
  0
ENDBLK
  5
C8C8
  8
0
  0
BLOCK
  8
0
  2
*U8
 70
     1
 10
0.0
 20
0.0
 30
0.0
  3
*U8
  1

  0
TEXT
  5
C8CA
  8
0
 10
5.3066868277875692
 20
1.767659498411035
 30
0.0
 40
0.125
  1
Back Band
  0
TEXT
  5
C8CB
  8
0
 10
5.3153839628489603
 20
1.55881456889762
 30
0.0
 40
0.125
  1
TL-1
  0
TEXT
  5
C8CC
  8
0
 10
5.3004624075965721
 20
1.3483495848139451
 30
0.0
 40
0.125
  1
1-3/8" x 1-9/16"
  0
TEXT
  5
C8CD
  8
0
 10
5.3123996517984811
 20
1.1378846007302701
 30
0.0
 40
0.125
  1
800.66.TAGUE
  0
ENDBLK
  5
C8CF
  8
0
  0
BLOCK
  8
0
  2
*U9
 70
     1
 10
0.0
 20
0.0
 30
0.0
  3
*U9
  1

  0
TEXT
  5
C8D1
  8
0
 10
-385.7580743253551
 20
838.2627455404056
 30
0.0
 40
0.125
  1
Back Band
  0
TEXT
  5
C8D2
  8
0
 10
-385.74937719029373
 20
838.05390061089247
 30
0.0
 40
0.125
  1
TL-1
  0
TEXT
  5
C8D3
  8
0
 10
-385.76429874554611
 20
837.84343562680851
 30
0.0
 40
0.125
  1
1-3/8" x 1-9/16"
  0
TEXT
  5
C8D4
  8
0
 10
-385.75236150134418
 20
837.63297064272513
 30
0.0
 40
0.125
  1
800.66.TAGUE
  0
ENDBLK
  5
C8D6
  8
0
  0
BLOCK
  8
0
  2
*D21
 70
     1
 10
0.0
 20
0.0
 30
0.0
  3
*D21
  1

  0
LINE
  5
CDAB
  8
0
 62
     0
 10
-346.64573732984462
 20
509.42191863586828
 30
0.0
 11
-346.03266106471222
 21
509.42191863586828
 31
0.0
  0
LINE
  5
CDAC
  8
0
 62
     0
 10
-347.59461414974379
 20
507.61166709199199
 30
0.0
 11
-346.03266106471222
 21
507.61166709199199
 31
0.0
  0
LINE
  5
CDAD
  8
0
 62
     0
 10
-346.09516106471222
 20
509.42191863586828
 30
0.0
 11
-346.09516106471222
 21
507.61166709199199
 31
0.0
  0
INSERT
  5
CDAE
  8
0
 62
     0
  2
_ARCHTICK
 10
-346.09516106471222
 20
509.42191863586828
 30
0.0
 41
0.046875
 42
0.046875
 43
0.046875
 50
90.0
  0
INSERT
  5
CDAF
  8
0
 62
     0
  2
_ARCHTICK
 10
-346.09516106471222
 20
507.61166709199199
 30
0.0
 41
0.046875
 42
0.046875
 43
0.046875
 50
270.0
  0
INSERT
  5
CDB0
  8
0
  2
*U137
 10
0.0
 20
0.0
 30
0.0
  0
POINT
  5
CDB1
  8
DEFPOINTS
 62
     0
 10
-346.73948732984462
 20
509.42191863586828
 30
0.0
  0
POINT
  5
CDB2
  8
DEFPOINTS
 62
     0
 10
-347.68836414974379
 20
507.61166709199199
 30
0.0
  0
POINT
  5
CDB3
  8
DEFPOINTS
 62
     0
 10
-346.09516106471222
 20
507.61166709199199
 30
0.0
  0
ENDBLK
  5
CDB4
  8
0
  0
BLOCK
  8
0
  2
*D23
 70
     1
 10
0.0
 20
0.0
 30
0.0
  3
*D23
  1

  0
LINE
  5
CDEB
  8
0
 62
     0
 10
-387.02714157709249
 20
839.57969957928674
 30
0.0
 11
-386.41406531196009
 21
839.57969957928674
 31
0.0
  0
LINE
  5
CDEC
  8
0
 62
     0
 10
-387.97601839699172
 20
837.76944803541039
 30
0.0
 11
-386.41406531196009
 21
837.76944803541039
 31
0.0
  0
LINE
  5
CDED
  8
0
 62
     0
 10
-386.47656531196009
 20
839.57969957928674
 30
0.0
 11
-386.47656531196009
 21
837.76944803541039
 31
0.0
  0
INSERT
  5
CDEE
  8
0
 62
     0
  2
_ARCHTICK
 10
-386.47656531196009
 20
839.57969957928674
 30
0.0
 41
0.046875
 42
0.046875
 43
0.046875
 50
90.0
  0
INSERT
  5
CDEF
  8
0
 62
     0
  2
_ARCHTICK
 10
-386.47656531196009
 20
837.76944803541039
 30
0.0
 41
0.046875
 42
0.046875
 43
0.046875
 50
270.0
  0
INSERT
  5
CDF0
  8
0
  2
*U139
 10
0.0
 20
0.0
 30
0.0
  0
POINT
  5
CDF1
  8
DEFPOINTS
 62
     0
 10
-387.12089157709249
 20
839.57969957928674
 30
0.0
  0
POINT
  5
CDF2
  8
DEFPOINTS
 62
     0
 10
-388.06976839699172
 20
837.76944803541039
 30
0.0
  0
POINT
  5
CDF3
  8
DEFPOINTS
 62
     0
 10
-386.47656531196009
 20
837.76944803541039
 30
0.0
  0
ENDBLK
  5
CDEA
  8
0
  0
BLOCK
  8
0
  2
*D79
 70
     1
 10
0.0
 20
0.0
 30
0.0
  3
*D79
  1

  0
LINE
  5
11681
  8
0
 62
     0
 10
-365.81818307486373
 20
427.35429858331162
 30
0.0
 11
-366.93955544547038
 21
427.35429858331162
 31
0.0
  0
LINE
  5
11682
  8
0
 62
     0
 10
-365.81818307486373
 20
425.60429858331167
 30
0.0
 11
-366.93955544547038
 21
425.60429858331167
 31
0.0
  0
LINE
  5
11683
  8
0
 62
     0
 10
-366.87705544547038
 20
427.35429858331162
 30
0.0
 11
-366.87705544547038
 21
425.60429858331167
 31
0.0
  0
INSERT
  5
11684
  8
0
 62
     0
  2
_ARCHTICK
 10
-366.87705544547038
 20
427.35429858331162
 30
0.0
 41
0.046875
 42
0.046875
 43
0.046875
 50
90.0
  0
INSERT
  5
11685
  8
0
 62
     0
  2
_ARCHTICK
 10
-366.87705544547038
 20
425.60429858331167
 30
0.0
 41
0.046875
 42
0.046875
 43
0.046875
 50
270.0
  0
INSERT
  5
11686
  8
0
  2
*U188
 10
0.0
 20
0.0
 30
0.0
  0
POINT
  5
11687
  8
DEFPOINTS
 62
     0
 10
-365.72443307486373
 20
427.35429858331162
 30
0.0
  0
POINT
  5
11688
  8
DEFPOINTS
 62
     0
 10
-365.72443307486373
 20
425.60429858331167
 30
0.0
  0
POINT
  5
11689
  8
DEFPOINTS
 62
     0
 10
-366.87705544547038
 20
425.60429858331167
 30
0.0
  0
ENDBLK
  5
1168A
  8
0
  0
BLOCK
  8
0
  2
*D80
 70
     1
 10
0.0
 20
0.0
 30
0.0
  3
*D80
  1

  0
LINE
  5
1168D
  8
0
 62
     0
 10
-364.54417472031452
 20
426.21180552517308
 30
0.0
 11
-364.54417472031452
 21
424.99659347863422
 31
0.0
  0
LINE
  5
1168E
  8
0
 62
     0
 10
-363.66917472031452
 20
426.21180552517308
 30
0.0
 11
-363.66917472031452
 21
424.99659347863422
 31
0.0
  0
LINE
  5
1168F
  8
0
 62
     0
 10
-364.54417472031452
 20
425.05909347863428
 30
0.0
 11
-363.66917472031452
 21
425.05909347863428
 31
0.0
  0
INSERT
  5
11690
  8
0
 62
     0
  2
_ARCHTICK
 10
-364.54417472031452
 20
425.05909347863428
 30
0.0
 41
0.046875
 42
0.046875
 43
0.046875
 50
180.0
  0
INSERT
  5
11691
  8
0
 62
     0
  2
_ARCHTICK
 10
-363.66917472031452
 20
425.05909347863428
 30
0.0
 41
0.046875
 42
0.046875
 43
0.046875
  0
INSERT
  5
11692
  8
0
  2
*U189
 10
0.0
 20
0.0
 30
0.0
  0
POINT
  5
11693
  8
DEFPOINTS
 62
     0
 10
-364.54417472031452
 20
426.30555552517302
 30
0.0
  0
POINT
  5
11694
  8
DEFPOINTS
 62
     0
 10
-363.66917472031452
 20
426.30555552517302
 30
0.0
  0
POINT
  5
11695
  8
DEFPOINTS
 62
     0
 10
-363.66917472031452
 20
425.05909347863428
 30
0.0
  0
ENDBLK
  5
11696
  8
0
  0
BLOCK
  8
0
  2
*D81
 70
     1
 10
0.0
 20
0.0
 30
0.0
  3
*D81
  1

  0
LINE
  5
11699
  8
0
 62
     0
 10
-363.88792472031452
 20
427.24305552517302
 30
0.0
 11
-362.93745003010213
 21
427.24305552517302
 31
0.0
  0
LINE
  5
1169A
  8
0
 62
     0
 10
-364.0129247203148
 20
425.72929858331162
 30
0.0
 11
-362.93745003010213
 21
425.72929858331162
 31
0.0
  0
LINE
  5
1169B
  8
0
 62
     0
 10
-362.99995003010213
 20
427.24305552517302
 30
0.0
 11
-362.99995003010213
 21
425.72929858331162
 31
0.0
  0
INSERT
  5
1169C
  8
0
 62
     0
  2
_ARCHTICK
 10
-362.99995003010213
 20
427.24305552517302
 30
0.0
 41
0.046875
 42
0.046875
 43
0.046875
 50
90.0
  0
INSERT
  5
1169D
  8
0
 62
     0
  2
_ARCHTICK
 10
-362.99995003010213
 20
425.72929858331162
 30
0.0
 41
0.046875
 42
0.046875
 43
0.046875
 50
270.0
  0
INSERT
  5
1169E
  8
0
  2
*U190
 10
0.0
 20
0.0
 30
0.0
  0
POINT
  5
1169F
  8
DEFPOINTS
 62
     0
 10
-363.98167472031452
 20
427.24305552517302
 30
0.0
  0
POINT
  5
116A0
  8
DEFPOINTS
 62
     0
 10
-364.1066747203148
 20
425.72929858331162
 30
0.0
  0
POINT
  5
116A1
  8
DEFPOINTS
 62
     0
 10
-362.99995003010213
 20
425.72929858331162
 30
0.0
  0
ENDBLK
  5
116A2
  8
0
  0
BLOCK
  8
0
  2
*D83
 70
     1
 10
0.0
 20
0.0
 30
0.0
  3
*D83
  1

  0
LINE
  5
11701
  8
0
 62
     0
 10
-386.76054169220339
 20
839.74518098663441
 30
0.0
 11
-387.88191406281021
 21
839.74518098663441
 31
0.0
  0
LINE
  5
11702
  8
0
 62
     0
 10
-386.76054169220339
 20
837.99518098663441
 30
0.0
 11
-387.88191406281021
 21
837.99518098663441
 31
0.0
  0
LINE
  5
11703
  8
0
 62
     0
 10
-387.81941406281021
 20
839.74518098663441
 30
0.0
 11
-387.81941406281021
 21
837.99518098663441
 31
0.0
  0
INSERT
  5
11704
  8
0
 62
     0
  2
_ARCHTICK
 10
-387.81941406281021
 20
839.74518098663441
 30
0.0
 41
0.046875
 42
0.046875
 43
0.046875
 50
90.0
  0
INSERT
  5
11705
  8
0
 62
     0
  2
_ARCHTICK
 10
-387.81941406281021
 20
837.99518098663441
 30
0.0
 41
0.046875
 42
0.046875
 43
0.046875
 50
270.0
  0
INSERT
  5
11706
  8
0
  2
*U191
 10
0.0
 20
0.0
 30
0.0
  0
POINT
  5
11707
  8
DEFPOINTS
 62
     0
 10
-386.66679169220339
 20
839.74518098663441
 30
0.0
  0
POINT
  5
11708
  8
DEFPOINTS
 62
     0
 10
-386.66679169220339
 20
837.99518098663441
 30
0.0
  0
POINT
  5
11709
  8
DEFPOINTS
 62
     0
 10
-387.81941406281021
 20
837.99518098663441
 30
0.0
  0
ENDBLK
  5
116E8
  8
0
  0
BLOCK
  8
0
  2
*D84
 70
     1
 10
0.0
 20
0.0
 30
0.0
  3
*D84
  1

  0
LINE
  5
1170A
  8
0
 62
     0
 10
-385.48653333765429
 20
838.60268792849581
 30
0.0
 11
-385.48653333765429
 21
837.3874758819569
 31
0.0
  0
LINE
  5
1170B
  8
0
 62
     0
 10
-384.61153333765429
 20
838.60268792849581
 30
0.0
 11
-384.61153333765429
 21
837.3874758819569
 31
0.0
  0
LINE
  5
1170C
  8
0
 62
     0
 10
-385.48653333765429
 20
837.44997588195702
 30
0.0
 11
-384.61153333765429
 21
837.44997588195702
 31
0.0
  0
INSERT
  5
1170D
  8
0
 62
     0
  2
_ARCHTICK
 10
-385.48653333765429
 20
837.44997588195702
 30
0.0
 41
0.046875
 42
0.046875
 43
0.046875
 50
180.0
  0
INSERT
  5
1170E
  8
0
 62
     0
  2
_ARCHTICK
 10
-384.61153333765429
 20
837.44997588195702
 30
0.0
 41
0.046875
 42
0.046875
 43
0.046875
  0
INSERT
  5
1170F
  8
0
  2
*U192
 10
0.0
 20
0.0
 30
0.0
  0
POINT
  5
11710
  8
DEFPOINTS
 62
     0
 10
-385.48653333765429
 20
838.6964379284957
 30
0.0
  0
POINT
  5
11711
  8
DEFPOINTS
 62
     0
 10
-384.61153333765429
 20
838.6964379284957
 30
0.0
  0
POINT
  5
11712
  8
DEFPOINTS
 62
     0
 10
-384.61153333765429
 20
837.44997588195702
 30
0.0
  0
ENDBLK
  5
116F4
  8
0
  0
BLOCK
  8
0
  2
*D85
 70
     1
 10
0.0
 20
0.0
 30
0.0
  3
*D85
  1

  0
LINE
  5
11713
  8
0
 62
     0
 10
-384.83028333765429
 20
839.63393792849581
 30
0.0
 11
-383.87980864744191
 21
839.63393792849581
 31
0.0
  0
LINE
  5
11714
  8
0
 62
     0
 10
-384.95528333765452
 20
838.1201809866343
 30
0.0
 11
-383.87980864744191
 21
838.1201809866343
 31
0.0
  0
LINE
  5
11715
  8
0
 62
     0
 10
-383.94230864744191
 20
839.63393792849581
 30
0.0
 11
-383.94230864744191
 21
838.1201809866343
 31
0.0
  0
INSERT
  5
11716
  8
0
 62
     0
  2
_ARCHTICK
 10
-383.94230864744191
 20
839.63393792849581
 30
0.0
 41
0.046875
 42
0.046875
 43
0.046875
 50
90.0
  0
INSERT
  5
11717
  8
0
 62
     0
  2
_ARCHTICK
 10
-383.94230864744191
 20
838.1201809866343
 30
0.0
 41
0.046875
 42
0.046875
 43
0.046875
 50
270.0
  0
INSERT
  5
11718
  8
0
  2
*U193
 10
0.0
 20
0.0
 30
0.0
  0
POINT
  5
11719
  8
DEFPOINTS
 62
     0
 10
-384.92403333765429
 20
839.63393792849581
 30
0.0
  0
POINT
  5
1171A
  8
DEFPOINTS
 62
     0
 10
-385.04903333765452
 20
838.1201809866343
 30
0.0
  0
POINT
  5
1171B
  8
DEFPOINTS
 62
     0
 10
-383.94230864744191
 20
838.1201809866343
 30
0.0
  0
ENDBLK
  5
11700
  8
0
  0
BLOCK
  8
0
  2
*D87
 70
     1
 10
0.0
 20
0.0
 30
0.0
  3
*D87
  1

  0
LINE
  5
11B0C
  8
0
 62
     0
 10
-321.4967715029747
 20
426.11559169813472
 30
0.0
 11
-323.04650060770268
 21
426.11559169813472
 31
0.0
  0
LINE
  5
11B0D
  8
0
 62
     0
 10
-321.4967715029747
 20
424.36559169813472
 30
0.0
 11
-323.04650060770268
 21
424.36559169813472
 31
0.0
  0
LINE
  5
11B0E
  8
0
 62
     0
 10
-322.98400060770268
 20
426.11559169813472
 30
0.0
 11
-322.98400060770268
 21
424.36559169813472
 31
0.0
  0
INSERT
  5
11B0F
  8
0
 62
     0
  2
_ARCHTICK
 10
-322.98400060770268
 20
426.11559169813472
 30
0.0
 41
0.046875
 42
0.046875
 43
0.046875
 50
90.0
  0
INSERT
  5
11B10
  8
0
 62
     0
  2
_ARCHTICK
 10
-322.98400060770268
 20
424.36559169813472
 30
0.0
 41
0.046875
 42
0.046875
 43
0.046875
 50
270.0
  0
INSERT
  5
11B11
  8
0
  2
*U194
 10
0.0
 20
0.0
 30
0.0
  0
POINT
  5
11B12
  8
DEFPOINTS
 62
     0
 10
-321.4030215029747
 20
426.11559169813472
 30
0.0
  0
POINT
  5
11B13
  8
DEFPOINTS
 62
     0
 10
-321.4030215029747
 20
424.36559169813472
 30
0.0
  0
POINT
  5
11B14
  8
DEFPOINTS
 62
     0
 10
-322.98400060770268
 20
424.36559169813472
 30
0.0
  0
ENDBLK
  5
11B15
  8
0
  0
BLOCK
  8
0
  2
*D88
 70
     1
 10
0.0
 20
0.0
 30
0.0
  3
*D88
  1

  0
LINE
  5
11B18
  8
0
 62
     0
 10
-319.28256169396042
 20
425.92809169813472
 30
0.0
 11
-318.41048055355549
 21
425.92809169813472
 31
0.0
  0
LINE
  5
11B19
  8
0
 62
     0
 10
-319.28256169396042
 20
424.55309169813472
 30
0.0
 11
-318.41048055355549
 21
424.55309169813472
 31
0.0
  0
LINE
  5
11B1A
  8
0
 62
     0
 10
-318.47298055355549
 20
425.92809169813472
 30
0.0
 11
-318.47298055355549
 21
424.55309169813472
 31
0.0
  0
INSERT
  5
11B1B
  8
0
 62
     0
  2
_ARCHTICK
 10
-318.47298055355549
 20
425.92809169813472
 30
0.0
 41
0.046875
 42
0.046875
 43
0.046875
 50
90.0
  0
INSERT
  5
11B1C
  8
0
 62
     0
  2
_ARCHTICK
 10
-318.47298055355549
 20
424.55309169813472
 30
0.0
 41
0.046875
 42
0.046875
 43
0.046875
 50
270.0
  0
INSERT
  5
11B1D
  8
0
  2
*U195
 10
0.0
 20
0.0
 30
0.0
  0
POINT
  5
11B1E
  8
DEFPOINTS
 62
     0
 10
-319.37631169396042
 20
425.92809169813472
 30
0.0
  0
POINT
  5
11B1F
  8
DEFPOINTS
 62
     0
 10
-319.37631169396042
 20
424.55309169813472
 30
0.0
  0
POINT
  5
11B20
  8
DEFPOINTS
 62
     0
 10
-318.47298055355549
 20
424.55309169813472
 30
0.0
  0
ENDBLK
  5
11B21
  8
0
  0
BLOCK
  8
0
  2
*D90
 70
     1
 10
0.0
 20
0.0
 30
0.0
  3
*D90
  1

  0
LINE
  5
11B82
  8
0
 62
     0
 10
-385.93155206415412
 20
839.89288512488679
 30
0.0
 11
-387.48128116888211
 21
839.89288512488679
 31
0.0
  0
LINE
  5
11B83
  8
0
 62
     0
 10
-385.93155206415412
 20
838.14288512488679
 30
0.0
 11
-387.48128116888211
 21
838.14288512488679
 31
0.0
  0
LINE
  5
11B84
  8
0
 62
     0
 10
-387.41878116888211
 20
839.89288512488679
 30
0.0
 11
-387.41878116888211
 21
838.14288512488679
 31
0.0
  0
INSERT
  5
11B85
  8
0
 62
     0
  2
_ARCHTICK
 10
-387.41878116888211
 20
839.89288512488679
 30
0.0
 41
0.046875
 42
0.046875
 43
0.046875
 50
90.0
  0
INSERT
  5
11B86
  8
0
 62
     0
  2
_ARCHTICK
 10
-387.41878116888211
 20
838.14288512488679
 30
0.0
 41
0.046875
 42
0.046875
 43
0.046875
 50
270.0
  0
INSERT
  5
11B87
  8
0
  2
*U196
 10
0.0
 20
0.0
 30
0.0
  0
POINT
  5
11B88
  8
DEFPOINTS
 62
     0
 10
-385.83780206415412
 20
839.89288512488679
 30
0.0
  0
POINT
  5
11B89
  8
DEFPOINTS
 62
     0
 10
-385.83780206415412
 20
838.14288512488679
 30
0.0
  0
POINT
  5
11B8A
  8
DEFPOINTS
 62
     0
 10
-387.41878116888211
 20
838.14288512488679
 30
0.0
  0
ENDBLK
  5
11B75
  8
0
  0
BLOCK
  8
0
  2
*D91
 70
     1
 10
0.0
 20
0.0
 30
0.0
  3
*D91
  1

  0
LINE
  5
11B8B
  8
0
 62
     0
 10
-383.71734225513978
 20
839.70538512488679
 30
0.0
 11
-382.84526111473491
 21
839.70538512488679
 31
0.0
  0
LINE
  5
11B8C
  8
0
 62
     0
 10
-383.71734225513978
 20
838.33038512488679
 30
0.0
 11
-382.84526111473491
 21
838.33038512488679
 31
0.0
  0
LINE
  5
11B8D
  8
0
 62
     0
 10
-382.90776111473491
 20
839.70538512488679
 30
0.0
 11
-382.90776111473491
 21
838.33038512488679
 31
0.0
  0
INSERT
  5
11B8E
  8
0
 62
     0
  2
_ARCHTICK
 10
-382.90776111473491
 20
839.70538512488679
 30
0.0
 41
0.046875
 42
0.046875
 43
0.046875
 50
90.0
  0
INSERT
  5
11B8F
  8
0
 62
     0
  2
_ARCHTICK
 10
-382.90776111473491
 20
838.33038512488679
 30
0.0
 41
0.046875
 42
0.046875
 43
0.046875
 50
270.0
  0
INSERT
  5
11B90
  8
0
  2
*U197
 10
0.0
 20
0.0
 30
0.0
  0
POINT
  5
11B91
  8
DEFPOINTS
 62
     0
 10
-383.81109225513978
 20
839.70538512488679
 30
0.0
  0
POINT
  5
11B92
  8
DEFPOINTS
 62
     0
 10
-383.81109225513978
 20
838.33038512488679
 30
0.0
  0
POINT
  5
11B93
  8
DEFPOINTS
 62
     0
 10
-382.90776111473491
 20
838.33038512488679
 30
0.0
  0
ENDBLK
  5
11B81
  8
0
  0
BLOCK
  8
0
  2
*U126
 70
     1
 10
0.0
 20
0.0
 30
0.0
  3
*U126
  1

  0
TEXT
  5
171A9
  8
0
 10
2.0520856342580478
 20
1.4053520973297959
 30
0.0
 40
0.125
  1
Exterior Casing
  0
TEXT
  5
171AA
  8
0
 10
2.0520856342580478
 20
1.1970187639964629
 30
0.0
 40
0.125
  1
TL-180
  0
TEXT
  5
171AB
  8
0
 10
2.0520856342580478
 20
0.9886854306631298
 30
0.0
 40
0.125
  1
1-1/4" x 2"
  0
TEXT
  5
171AC
  8
0
 10
2.0520856342580478
 20
0.7803520973297964
 30
0.0
 40
0.125
  1
800.66.TAGUE
  0
ENDBLK
  5
171AE
  8
0
  0
BLOCK
  8
0
  2
*U127
 70
     1
 10
0.0
 20
0.0
 30
0.0
  3
*U127
  1

  0
TEXT
  5
171B0
  8
0
 10
1.875832532300876
 20
1.1538771312937111
 30
0.0
 40
0.125
  1
Exterior Casing
  0
TEXT
  5
171B1
  8
0
 10
1.875832532300876
 20
0.9455437979603782
 30
0.0
 40
0.125
  1
TL-544
  0
TEXT
  5
171B2
  8
0
 10
1.875832532300876
 20
0.7372104646270449
 30
0.0
 40
0.125
  1
1-1/8" x 1-9/16"
  0
TEXT
  5
171B3
  8
0
 10
1.875832532300876
 20
0.5288771312937115
 30
0.0
 40
0.125
  1
800.66.TAGUE
  0
ENDBLK
  5
171B5
  8
0
  0
BLOCK
  8
0
  2
*U128
 70
     1
 10
0.0
 20
0.0
 30
0.0
  3
*U128
  1

  0
TEXT
  5
171B7
  8
0
 10
2.2653468102219558
 20
1.612015904330746
 30
0.0
 40
0.125
  1
Exterior Casing
  0
TEXT
  5
171B8
  8
0
 10
2.2653468102219558
 20
1.403682570997413
 30
0.0
 40
0.125
  1
TL-2023
  0
TEXT
  5
171B9
  8
0
 10
2.2653468102219558
 20
1.19534923766408
 30
0.0
 40
0.125
  1
1-13/16" x 3" 
  0
TEXT
  5
171BA
  8
0
 10
2.2653468102219558
 20
0.9870159043307467
 30
0.0
 40
0.125
  1
800.66.TAGUE
  0
ENDBLK
  5
171BC
  8
0
  0
BLOCK
  8
0
  2
*U129
 70
     1
 10
0.0
 20
0.0
 30
0.0
  3
*U129
  1

  0
TEXT
  5
171BE
  8
0
 10
2.0898675486657221
 20
0.9145072342178082
 30
0.0
 40
0.125
  1
Exterior Casing
  0
TEXT
  5
171BF
  8
0
 10
2.0898675486657221
 20
0.706173900884475
 30
0.0
 40
0.125
  1
TL-2087
  0
TEXT
  5
171C0
  8
0
 10
2.0898675486657221
 20
0.4978405675511416
 30
0.0
 40
0.125
  1
7/8" x 1-7/16"
  0
TEXT
  5
171C1
  8
0
 10
2.0898675486657221
 20
0.2895072342178082
 30
0.0
 40
0.125
  1
800.66.TAGUE
  0
ENDBLK
  5
171C3
  8
0
  0
BLOCK
  8
0
  2
*U130
 70
     1
 10
0.0
 20
0.0
 30
0.0
  3
*U130
  1

  0
TEXT
  5
171C5
  8
0
 10
2.1806631076311191
 20
0.8419101546792263
 30
0.0
 40
0.125
  1
Exterior Casing
  0
TEXT
  5
171C6
  8
0
 10
2.1806631076311191
 20
0.6335768213458931
 30
0.0
 40
0.125
  1
TL-2158
  0
TEXT
  5
171C7
  8
0
 10
2.1806631076311191
 20
0.4252434880125597
 30
0.0
 40
0.125
  1
1-1/16" x 1-5/16"
  0
TEXT
  5
171C8
  8
0
 10
2.1806631076311191
 20
0.2169101546792262
 30
0.0
 40
0.125
  1
800.66.TAGUE
  0
ENDBLK
  5
171CA
  8
0
  0
BLOCK
  8
0
  2
*U131
 70
     1
 10
0.0
 20
0.0
 30
0.0
  3
*U131
  1

  0
TEXT
  5
171CC
  8
0
 10
2.2408536425556909
 20
1.2992247915469759
 30
0.0
 40
0.125
  1
Exterior Casing
  0
TEXT
  5
171CD
  8
0
 10
2.2408536425556909
 20
1.090891458213642
 30
0.0
 40
0.125
  1
TL-2174
  0
TEXT
  5
171CE
  8
0
 10
2.2408536425556909
 20
0.8825581248803095
 30
0.0
 40
0.125
  1
1-3/8" x 1-7/16"
  0
TEXT
  5
171CF
  8
0
 10
2.2408536425556909
 20
0.6742247915469762
 30
0.0
 40
0.125
  1
800.66.TAGUE
  0
ENDBLK
  5
171D1
  8
0
  0
BLOCK
  8
0
  2
*U132
 70
     1
 10
0.0
 20
0.0
 30
0.0
  3
*U132
  1

  0
TEXT
  5
171D3
  8
0
 10
2.8048346441314029
 20
1.129982283289336
 30
0.0
 40
0.125
  1
Exterior Casing
  0
TEXT
  5
171D4
  8
0
 10
2.8048346441314029
 20
0.9216489499560037
 30
0.0
 40
0.125
  1
TL-2175
  0
TEXT
  5
171D5
  8
0
 10
2.8048346441314029
 20
0.7133156166226704
 30
0.0
 40
0.125
  1
1-9/32" x 1-29/32"
  0
TEXT
  5
171D6
  8
0
 10
2.8048346441314029
 20
0.504982283289337
 30
0.0
 40
0.125
  1
800.66.TAGUE
  0
ENDBLK
  5
171D8
  8
0
  0
BLOCK
  8
0
  2
*U133
 70
     1
 10
0.0
 20
0.0
 30
0.0
  3
*U133
  1

  0
TEXT
  5
171DA
  8
0
 10
2.5484960182450891
 20
0.679430053902138
 30
0.0
 40
0.125
  1
Exterior Casing
  0
TEXT
  5
171DB
  8
0
 10
2.5484960182450891
 20
0.4710967205688046
 30
0.0
 40
0.125
  1
TL-2176
  0
TEXT
  5
171DC
  8
0
 10
2.5484960182450891
 20
0.2627633872354712
 30
0.0
 40
0.125
  1
19/32" x 1-5/8"
  0
TEXT
  5
171DD
  8
0
 10
2.5484960182450891
 20
0.0544300539021379
 30
0.0
 40
0.125
  1
800.66.TAGUE
  0
ENDBLK
  5
171DF
  8
0
  0
BLOCK
  8
0
  2
*U134
 70
     1
 10
0.0
 20
0.0
 30
0.0
  3
*U134
  1

  0
TEXT
  5
171E1
  8
0
 10
2.105732231568993
 20
0.7255830389262883
 30
0.0
 40
0.125
  1
Exterior Casing
  0
TEXT
  5
171E2
  8
0
 10
2.105732231568993
 20
0.5172497055929551
 30
0.0
 40
0.125
  1
TL-2108
  0
TEXT
  5
171E3
  8
0
 10
2.105732231568993
 20
0.3089163722596217
 30
0.0
 40
0.125
  1
15/16" x 1-1/16"
  0
TEXT
  5
171E4
  8
0
 10
2.105732231568993
 20
0.1005830389262883
 30
0.0
 40
0.125
  1
800.66.TAGUE
  0
ENDBLK
  5
171E6
  8
0
  0
BLOCK
  8
0
  2
*U135
 70
     1
 10
0.0
 20
0.0
 30
0.0
  3
*U135
  1

  0
TEXT
  5
171E8
  8
0
 10
0.0469294570366401
 20
0.67943073463357
 30
0.0
 40
0.125
  1
Exterior Casing
  0
TEXT
  5
171E9
  8
0
 10
0.0469294570366401
 20
0.4710974013002366
 30
0.0
 40
0.125
  1
TL-2206
  0
TEXT
  5
171EA
  8
0
 10
0.0469294570366401
 20
0.2627640679669033
 30
0.0
 40
0.125
  1
1-3/32" x 1-23/32"
  0
TEXT
  5
171EB
  8
0
 10
0.0469294570366401
 20
0.05443073463357
 30
0.0
 40
0.125
  1
800.66.TAGUE
  0
ENDBLK
  5
171ED
  8
0
  0
BLOCK
  8
0
  2
*U136
 70
     1
 10
0.0
 20
0.0
 30
0.0
  3
*U136
  1

  0
TEXT
  5
171EF
  8
0
 10
0.0449853036485593
 20
0.6794309447934666
 30
0.0
 40
0.125
  1
Exterior Casing
  0
TEXT
  5
171F0
  8
0
 10
0.0449853036485593
 20
0.4710976114601333
 30
0.0
 40
0.125
  1
TL-2207
  0
TEXT
  5
171F1
  8
0
 10
0.0449853036485593
 20
0.2627642781267999
 30
0.0
 40
0.125
  1
1-1/8" x 2-15/16"
  0
TEXT
  5
171F2
  8
0
 10
0.0449853036485593
 20
0.0544309447934666
 30
0.0
 40
0.125
  1
800.66.TAGUE
  0
ENDBLK
  5
171F4
  8
0
  0
BLOCK
  8
0
  2
*U137
 70
     1
 10
0.0
 20
0.0
 30
0.0
  3
*U137
  1

  0
TEXT
  5
171F6
  8
0
 62
     0
 10
-346.15979271546257
 20
508.16262619726342
 30
0.0
 40
0.125
  1
Cutter
 50
90.0
  0
ENDBLK
  5
171F8
  8
0
  0
BLOCK
  8
0
  2
*U138
 70
     1
 10
0.0
 20
0.0
 30
0.0
  3
*U138
  1

  0
TEXT
  5
171FA
  8
0
 10
3.5112004937425918
 20
2.3236705000861089
 30
0.0
 40
0.125
  1
Exterior Casing
  0
TEXT
  5
171FB
  8
0
 10
3.5112004937425918
 20
2.1153371667527749
 30
0.0
 40
0.125
  1
TL-2242
  0
TEXT
  5
171FC
  8
0
 10
3.5112004937425918
 20
1.9070038334194419
 30
0.0
 40
0.125
  1
2" x 4-1/2"
  0
TEXT
  5
171FD
  8
0
 10
3.5112004937425918
 20
1.6986705000861091
 30
0.0
 40
0.125
  1
800.66.TAGUE
  0
ENDBLK
  5
171FF
  8
0
  0
BLOCK
  8
0
  2
*U139
 70
     1
 10
0.0
 20
0.0
 30
0.0
  3
*U139
  1

  0
TEXT
  5
17201
  8
0
 62
     0
 10
-386.5390653119602
 20
838.32040714068194
 30
0.0
 40
0.125
  1
Cutter
 50
90.0
  0
ENDBLK
  5
17203
  8
0
  0
BLOCK
  8
0
  2
*U140
 70
     1
 10
0.0
 20
0.0
 30
0.0
  3
*U140
  1

  0
TEXT
  5
17205
  8
0
 10
1.983241637717696
 20
1.2297917133489591
 30
0.0
 40
0.125
  1
Exterior Casing
  0
TEXT
  5
17206
  8
0
 10
1.983241637717696
 20
1.0214583800156249
 30
0.0
 40
0.125
  1
TL-2254
  0
TEXT
  5
17207
  8
0
 10
1.983241637717696
 20
0.8131250466822924
 30
0.0
 40
0.125
  1
1-1/4" x 1-3/4"
  0
TEXT
  5
17208
  8
0
 10
1.983241637717696
 20
0.6047917133489591
 30
0.0
 40
0.125
  1
800.66.TAGUE
  0
ENDBLK
  5
1720A
  8
0
  0
BLOCK
  8
0
  2
*U141
 70
     1
 10
0.0
 20
0.0
 30
0.0
  3
*U141
  1

  0
TEXT
  5
1720C
  8
0
 10
2.2285402119240412
 20
3.7215677387475798
 30
0.0
 40
0.125
  1
Exterior Jamb
  0
TEXT
  5
1720D
  8
0
 10
2.2285402119240412
 20
3.5132344054142468
 30
0.0
 40
0.125
  1
TL-2126
  0
TEXT
  5
1720E
  8
0
 10
2.2285402119240412
 20
3.3049010720809142
 30
0.0
 40
0.125
  1
1-1/4" x 6-5/8"
  0
TEXT
  5
1720F
  8
0
 10
2.2285402119240412
 20
3.0965677387475798
 30
0.0
 40
0.125
  1
800.66.TAGUE
  0
ENDBLK
  5
17211
  8
0
  0
BLOCK
  8
0
  2
*U142
 70
     1
 10
0.0
 20
0.0
 30
0.0
  3
*U142
  1

  0
TEXT
  5
17213
  8
0
 10
2.025590122046196
 20
3.8877018206065941
 30
0.0
 40
0.125
  1
Exterior Jamb
  0
TEXT
  5
17214
  8
0
 10
2.025590122046196
 20
3.6793684872732602
 30
0.0
 40
0.125
  1
TL-2127
  0
TEXT
  5
17215
  8
0
 10
2.025590122046196
 20
3.4710351539399271
 30
0.0
 40
0.125
  1
1-1/4" x 6-5/8"
  0
TEXT
  5
17216
  8
0
 10
2.025590122046196
 20
3.2627018206065941
 30
0.0
 40
0.125
  1
800.66.TAGUE
  0
ENDBLK
  5
17218
  8
0
  0
BLOCK
  8
0
  2
*U143
 70
     1
 10
0.0
 20
0.0
 30
0.0
  3
*U143
  1

  0
TEXT
  5
1721A
  8
0
 10
1.8279899277385421
 20
2.0085009357213721
 30
0.0
 40
0.125
  1
Fluting
  0
TEXT
  5
1721B
  8
0
 10
1.8279899277385421
 20
1.800167602388038
 30
0.0
 40
0.125
  1
TL-123
  0
TEXT
  5
1721C
  8
0
 10
1.8279899277385421
 20
1.5918342690547049
 30
0.0
 40
0.125
  1
3/4" x 3-1/2"
  0
TEXT
  5
1721D
  8
0
 10
1.8279899277385421
 20
1.3835009357213719
 30
0.0
 40
0.125
  1
800.66.TAGUE
  0
ENDBLK
  5
1721F
  8
0
  0
BLOCK
  8
0
  2
*U144
 70
     1
 10
0.0
 20
0.0
 30
0.0
  3
*U144
  1

  0
TEXT
  5
17221
  8
0
 10
1.9710461263608181
 20
3.9608870512416838
 30
0.0
 40
0.125
  1
Fluting
  0
TEXT
  5
17222
  8
0
 10
1.9710461263608181
 20
3.7525537179083499
 30
0.0
 40
0.125
  1
TL-343
  0
TEXT
  5
17223
  8
0
 10
1.9710461263608181
 20
3.5442203845750169
 30
0.0
 40
0.125
  1
7/8" x 7-3/16"
  0
TEXT
  5
17224
  8
0
 10
1.9710461263608181
 20
3.3358870512416838
 30
0.0
 40
0.125
  1
800.66.TAGUE
  0
ENDBLK
  5
17226
  8
0
  0
BLOCK
  8
0
  2
*U145
 70
     1
 10
0.0
 20
0.0
 30
0.0
  3
*U145
  1

  0
TEXT
  5
17228
  8
0
 10
1.4662897697170929
 20
3.8395028676267202
 30
0.0
 40
0.125
  1
Fluting
  0
TEXT
  5
17229
  8
0
 10
1.4662897697170929
 20
3.6311695342933858
 30
0.0
 40
0.125
  1
TL-2183
  0
TEXT
  5
1722A
  8
0
 10
1.4662897697170929
 20
3.4228362009600528
 30
0.0
 40
0.125
  1
3/4" x 7-1/4"
  0
TEXT
  5
1722B
  8
0
 10
1.4662897697170929
 20
3.2145028676267202
 30
0.0
 40
0.125
  1
800.66.TAGUE
  0
ENDBLK
  5
1722D
  8
0
  0
BLOCK
  8
0
  2
*U146
 70
     1
 10
0.0
 20
0.0
 30
0.0
  3
*U146
  1

  0
TEXT
  5
1722F
  8
0
 10
2.0951853732560148
 20
2.6676693683394879
 30
0.0
 40
0.125
  1
Fluting
  0
TEXT
  5
17230
  8
0
 10
2.0951853732560148
 20
2.4593360350061548
 30
0.0
 40
0.125
  1
TL-2276
  0
TEXT
  5
17231
  8
0
 10
2.0951853732560148
 20
2.2510027016728218
 30
0.0
 40
0.125
  1
11/16" x 3"
  0
TEXT
  5
17232
  8
0
 10
2.0951853732560148
 20
2.0426693683394879
 30
0.0
 40
0.125
  1
800.66.TAGUE
  0
ENDBLK
  5
17234
  8
0
  0
BLOCK
  8
0
  2
*U147
 70
     1
 10
0.0
 20
0.0
 30
0.0
  3
*U147
  1

  0
TEXT
  5
17236
  8
0
 10
2.4586482925877808
 20
1.0775582798773931
 30
0.0
 40
0.125
  1
Full Round
  0
TEXT
  5
17237
  8
0
 10
2.4586482925877808
 20
0.8692249465440607
 30
0.0
 40
0.125
  1
TL-232
  0
TEXT
  5
17238
  8
0
 10
2.4586482925877808
 20
0.6608916132107274
 30
0.0
 40
0.125
  1
1-7/16" x 1-7/16"
  0
TEXT
  5
17239
  8
0
 10
2.4586482925877808
 20
0.452558279877394
 30
0.0
 40
0.125
  1
800.66.TAGUE
  0
ENDBLK
  5
1723B
  8
0
  0
BLOCK
  8
0
  2
*U148
 70
     1
 10
0.0
 20
0.0
 30
0.0
  3
*U148
  1

  0
TEXT
  5
1723D
  8
0
 10
2.339763263951113
 20
0.912090443150646
 30
0.0
 40
0.125
  1
Full Round
  0
TEXT
  5
1723E
  8
0
 10
2.339763263951113
 20
0.7037571098173128
 30
0.0
 40
0.125
  1
TL-233
  0
TEXT
  5
1723F
  8
0
 10
2.339763263951113
 20
0.4954237764839795
 30
0.0
 40
0.125
  1
1-3/16" x 1-3/16"
  0
TEXT
  5
17240
  8
0
 10
2.339763263951113
 20
0.287090443150646
 30
0.0
 40
0.125
  1
800.66.TAGUE
  0
ENDBLK
  5
17242
  8
0
  0
BLOCK
  8
0
  2
*U149
 70
     1
 10
0.0
 20
0.0
 30
0.0
  3
*U149
  1

  0
TEXT
  5
17244
  8
0
 10
2.2927598682417729
 20
0.8643692839127652
 30
0.0
 40
0.125
  1
Full Round
  0
TEXT
  5
17245
  8
0
 10
2.2927598682417729
 20
0.6560359505794321
 30
0.0
 40
0.125
  1
TL-234
  0
TEXT
  5
17246
  8
0
 10
2.2927598682417729
 20
0.4477026172460987
 30
0.0
 40
0.125
  1
1-1/16" x 1-1/16"
  0
TEXT
  5
17247
  8
0
 10
2.2927598682417729
 20
0.2393692839127652
 30
0.0
 40
0.125
  1
800.66.TAGUE
  0
ENDBLK
  5
17249
  8
0
  0
BLOCK
  8
0
  2
*U150
 70
     1
 10
0.0
 20
0.0
 30
0.0
  3
*U150
  1

  0
TEXT
  5
1724B
  8
0
 10
2.0765905058337921
 20
1.0252762384561711
 30
0.0
 40
0.125
  1
Glass Bead
  0
TEXT
  5
1724C
  8
0
 10
2.0765905058337921
 20
0.8169429051228387
 30
0.0
 40
0.125
  1
TL-145
  0
TEXT
  5
1724D
  8
0
 10
2.0765905058337921
 20
0.6086095717895054
 30
0.0
 40
0.125
  1
11/16" x 3/4"
  0
TEXT
  5
1724E
  8
0
 10
2.0765905058337921
 20
0.400276238456172
 30
0.0
 40
0.125
  1
800.66.TAGUE
  0
ENDBLK
  5
17250
  8
0
  0
BLOCK
  8
0
  2
*U151
 70
     1
 10
0.0
 20
0.0
 30
0.0
  3
*U151
  1

  0
TEXT
  5
17252
  8
0
 10
1.468683703905185
 20
0.7455079879047162
 30
0.0
 40
0.125
  1
Glass Bead
  0
TEXT
  5
17253
  8
0
 10
1.468683703905185
 20
0.537174654571383
 30
0.0
 40
0.125
  1
TL-147
  0
TEXT
  5
17254
  8
0
 10
1.468683703905185
 20
0.3288413212380496
 30
0.0
 40
0.125
  1
1/2" x 9/16"
  0
TEXT
  5
17255
  8
0
 10
1.468683703905185
 20
0.1205079879047162
 30
0.0
 40
0.125
  1
800.66.TAGUE
  0
ENDBLK
  5
17257
  8
0
  0
BLOCK
  8
0
  2
*U152
 70
     1
 10
0.0
 20
0.0
 30
0.0
  3
*U152
  1

  0
TEXT
  5
17259
  8
0
 10
1.584020839760341
 20
0.6794303041602916
 30
0.0
 40
0.125
  1
Glass Bead
  0
TEXT
  5
1725A
  8
0
 10
1.584020839760341
 20
0.4710969708269583
 30
0.0
 40
0.125
  1
TL-152
  0
TEXT
  5
1725B
  8
0
 10
1.584020839760341
 20
0.262763637493625
 30
0.0
 40
0.125
  1
3/8" x 11/16"
  0
TEXT
  5
1725C
  8
0
 10
1.584020839760341
 20
0.0544303041602916
 30
0.0
 40
0.125
  1
800.66.TAGUE
  0
ENDBLK
  5
1725E
  8
0
  0
BLOCK
  8
0
  2
*U153
 70
     1
 10
0.0
 20
0.0
 30
0.0
  3
*U153
  1

  0
TEXT
  5
17260
  8
0
 10
1.3526095965341931
 20
0.7381811042487243
 30
0.0
 40
0.125
  1
Glass Bead
  0
TEXT
  5
17261
  8
0
 10
1.3526095965341931
 20
0.5298477709153912
 30
0.0
 40
0.125
  1
TL-2142
  0
TEXT
  5
17262
  8
0
 10
1.3526095965341931
 20
0.3215144375820577
 30
0.0
 40
0.125
  1
11/32" x 29/32"
  0
TEXT
  5
17263
  8
0
 10
1.3526095965341931
 20
0.1131811042487243
 30
0.0
 40
0.125
  1
800.66.TAGUE
  0
ENDBLK
  5
17265
  8
0
  0
BLOCK
  8
0
  2
*U154
 70
     1
 10
0.0
 20
0.0
 30
0.0
  3
*U154
  1

  0
TEXT
  5
17267
  8
0
 10
1.3435544091540801
 20
0.6794309539541246
 30
0.0
 40
0.125
  1
Glass Bead
  0
TEXT
  5
17268
  8
0
 10
1.3435544091540801
 20
0.4710976206207913
 30
0.0
 40
0.125
  1
TL-2149
  0
TEXT
  5
17269
  8
0
 10
1.3435544091540801
 20
0.2627642872874579
 30
0.0
 40
0.125
  1
3/8" x 1/2"
  0
TEXT
  5
1726A
  8
0
 10
1.3435544091540801
 20
0.0544309539541246
 30
0.0
 40
0.125
  1
800.66.TAGUE
  0
ENDBLK
  5
1726C
  8
0
  0
BLOCK
  8
0
  2
*U155
 70
     1
 10
0.0
 20
0.0
 30
0.0
  3
*U155
  1

  0
TEXT
  5
1726E
  8
0
 10
1.488844305553698
 20
0.6807937379744545
 30
0.0
 40
0.125
  1
Glass Bead
  0
TEXT
  5
1726F
  8
0
 10
1.488844305553698
 20
0.4724604046411212
 30
0.0
 40
0.125
  1
TL-2155
  0
TEXT
  5
17270
  8
0
 10
1.488844305553698
 20
0.2641270713077878
 30
0.0
 40
0.125
  1
1/2" x 13/16"
  0
TEXT
  5
17271
  8
0
 10
1.488844305553698
 20
0.0557937379744544
 30
0.0
 40
0.125
  1
800.66.TAGUE
  0
ENDBLK
  5
17273
  8
0
  0
BLOCK
  8
0
  2
*U156
 70
     1
 10
0.0
 20
0.0
 30
0.0
  3
*U156
  1

  0
TEXT
  5
17275
  8
0
 10
1.52304343587059
 20
0.6794307504626432
 30
0.0
 40
0.125
  1
Glass Bead
  0
TEXT
  5
17276
  8
0
 10
1.52304343587059
 20
0.4710974171293099
 30
0.0
 40
0.125
  1
TL-2218
  0
TEXT
  5
17277
  8
0
 10
1.52304343587059
 20
0.2627640837959765
 30
0.0
 40
0.125
  1
1/4" x 5/8"
  0
TEXT
  5
17278
  8
0
 10
1.52304343587059
 20
0.0544307504626431
 30
0.0
 40
0.125
  1
800.66.TAGUE
  0
ENDBLK
  5
1727A
  8
0
  0
BLOCK
  8
0
  2
*U157
 70
     1
 10
0.0
 20
0.0
 30
0.0
  3
*U157
  1

  0
TEXT
  5
1727C
  8
0
 10
2.8235364504146778
 20
0.7161662597191026
 30
0.0
 40
0.125
  1
Half Round
  0
TEXT
  5
1727D
  8
0
 10
2.8235364504146778
 20
0.5078329263857692
 30
0.0
 40
0.125
  1
TL-6
  0
TEXT
  5
1727E
  8
0
 10
2.8235364504146778
 20
0.2994995930524358
 30
0.0
 40
0.125
  1
7/8" x 1-3/4"
  0
TEXT
  5
1727F
  8
0
 10
2.8235364504146778
 20
0.0911662597191025
 30
0.0
 40
0.125
  1
800.66.TAGUE
  0
ENDBLK
  5
17281
  8
0
  0
BLOCK
  8
0
  2
*U158
 70
     1
 10
0.0
 20
0.0
 30
0.0
  3
*U158
  1

  0
TEXT
  5
17283
  8
0
 10
2.8316039409763221
 20
0.7222806133900122
 30
0.0
 40
0.125
  1
Half Round
  0
TEXT
  5
17284
  8
0
 10
2.8316039409763221
 20
0.5139472800566788
 30
0.0
 40
0.125
  1
TL-7
  0
TEXT
  5
17285
  8
0
 10
2.8316039409763221
 20
0.3056139467233454
 30
0.0
 40
0.125
  1
1" x 2"
  0
TEXT
  5
17286
  8
0
 10
2.8316039409763221
 20
0.0972806133900122
 30
0.0
 40
0.125
  1
800.66.TAGUE
  0
ENDBLK
  5
17288
  8
0
  0
BLOCK
  8
0
  2
*U159
 70
     1
 10
0.0
 20
0.0
 30
0.0
  3
*U159
  1

  0
TEXT
  5
1728A
  8
0
 10
4.3092556456276148
 20
0.8292621657587915
 30
0.0
 40
0.125
  1
Half Round
  0
TEXT
  5
1728B
  8
0
 10
4.3092556456276148
 20
0.6209288324254582
 30
0.0
 40
0.125
  1
TL-8
  0
TEXT
  5
1728C
  8
0
 10
4.3092556456276148
 20
0.4125954990921248
 30
0.0
 40
0.125
  1
1-1/2" x 3"
  0
TEXT
  5
1728D
  8
0
 10
4.3092556456276148
 20
0.2042621657587915
 30
0.0
 40
0.125
  1
800.66.TAGUE
  0
ENDBLK
  5
1728F
  8
0
  0
BLOCK
  8
0
  2
*U160
 70
     1
 10
0.0
 20
0.0
 30
0.0
  3
*U160
  1

  0
TEXT
  5
17291
  8
0
 10
2.524104426630799
 20
0.6794299200373644
 30
0.0
 40
0.125
  1
Half Round
  0
TEXT
  5
17292
  8
0
 10
2.524104426630799
 20
0.471096586704031
 30
0.0
 40
0.125
  1
TL-116
  0
TEXT
  5
17293
  8
0
 10
2.524104426630799
 20
0.2627632533706976
 30
0.0
 40
0.125
  1
3/4" x 1-1/2"
  0
TEXT
  5
17294
  8
0
 10
2.524104426630799
 20
0.0544299200373644
 30
0.0
 40
0.125
  1
800.66.TAGUE
  0
ENDBLK
  5
17296
  8
0
  0
BLOCK
  8
0
  2
*U161
 70
     1
 10
0.0
 20
0.0
 30
0.0
  3
*U161
  1

  0
TEXT
  5
17298
  8
0
 10
2.4691699319003528
 20
0.6794301275302815
 30
0.0
 40
0.125
  1
Half Round
  0
TEXT
  5
17299
  8
0
 10
2.4691699319003528
 20
0.4710967941969481
 30
0.0
 40
0.125
  1
TL-119
  0
TEXT
  5
1729A
  8
0
 10
2.4691699319003528
 20
0.2627634608636147
 30
0.0
 40
0.125
  1
5/8" x 1-1/4"
  0
TEXT
  5
1729B
  8
0
 10
2.4691699319003528
 20
0.0544301275302814
 30
0.0
 40
0.125
  1
800.66.TAGUE
  0
ENDBLK
  5
1729D
  8
0
  0
BLOCK
  8
0
  2
*U162
 70
     1
 10
0.0
 20
0.0
 30
0.0
  3
*U162
  1

  0
TEXT
  5
1729F
  8
0
 10
1.96218194837894
 20
0.679429735423696
 30
0.0
 40
0.125
  1
Half Round
  0
TEXT
  5
172A0
  8
0
 10
1.96218194837894
 20
0.4710964020903626
 30
0.0
 40
0.125
  1
TL-120
  0
TEXT
  5
172A1
  8
0
 10
1.96218194837894
 20
0.2627630687570293
 30
0.0
 40
0.125
  1
1/2" x 1"
  0
TEXT
  5
172A2
  8
0
 10
1.96218194837894
 20
0.054429735423696
 30
0.0
 40
0.125
  1
800.66.TAGUE
  0
ENDBLK
  5
172A4
  8
0
  0
BLOCK
  8
0
  2
*U163
 70
     1
 10
0.0
 20
0.0
 30
0.0
  3
*U163
  1

  0
TEXT
  5
172A6
  8
0
 10
1.51989036816559
 20
0.679429754589819
 30
0.0
 40
0.125
  1
Half Round
  0
TEXT
  5
172A7
  8
0
 10
1.51989036816559
 20
0.4710964212564856
 30
0.0
 40
0.125
  1
TL-122
  0
TEXT
  5
172A8
  8
0
 10
1.51989036816559
 20
0.2627630879231522
 30
0.0
 40
0.125
  1
11/32" x 11/16"
  0
TEXT
  5
172A9
  8
0
 10
1.51989036816559
 20
0.0544297545898189
 30
0.0
 40
0.125
  1
800.66.TAGUE
  0
ENDBLK
  5
172AB
  8
0
  0
BLOCK
  8
0
  2
*U164
 70
     1
 10
0.0
 20
0.0
 30
0.0
  3
*U164
  1

  0
TEXT
  5
172AD
  8
0
 10
1.332760358760481
 20
0.6794306489528026
 30
0.0
 40
0.125
  1
Half Round
  0
TEXT
  5
172AE
  8
0
 10
1.332760358760481
 20
0.4710973156194692
 30
0.0
 40
0.125
  1
TL-124
  0
TEXT
  5
172AF
  8
0
 10
1.332760358760481
 20
0.2627639822861358
 30
0.0
 40
0.125
  1
1/4" x 1/2"
  0
TEXT
  5
172B0
  8
0
 10
1.332760358760481
 20
0.0544306489528026
 30
0.0
 40
0.125
  1
800.66.TAGUE
  0
ENDBLK
  5
172B2
  8
0
  0
BLOCK
  8
0
  2
*U165
 70
     1
 10
0.0
 20
0.0
 30
0.0
  3
*U165
  1

  0
TEXT
  5
172B4
  8
0
 10
2.6263646070054838
 20
2.827461056571678
 30
0.0
 40
0.125
  1
Hand Rail
  0
TEXT
  5
172B5
  8
0
 10
2.6263646070054838
 20
2.6191277232383441
 30
0.0
 40
0.125
  1
TL-14
  0
TEXT
  5
172B6
  8
0
 10
2.6263646070054838
 20
2.410794389905011
 30
0.0
 40
0.125
  1
1-5/8" x 5-1/4"
  0
TEXT
  5
172B7
  8
0
 10
2.6263646070054838
 20
2.202461056571678
 30
0.0
 40
0.125
  1
800.66.TAGUE
  0
ENDBLK
  5
172B9
  8
0
  0
BLOCK
  8
0
  2
*U166
 70
     1
 10
0.0
 20
0.0
 30
0.0
  3
*U166
  1

  0
TEXT
  5
172BB
  8
0
 10
2.2830209502855041
 20
2.755934710444194
 30
0.0
 40
0.125
  1
Hand Rail
  0
TEXT
  5
172BC
  8
0
 10
2.2830209502855041
 20
2.5476013771108601
 30
0.0
 40
0.125
  1
TL-15
  0
TEXT
  5
172BD
  8
0
 10
2.2830209502855041
 20
2.3392680437775271
 30
0.0
 40
0.125
  1
1-3/8" x 5-1/2"
  0
TEXT
  5
172BE
  8
0
 10
2.2830209502855041
 20
2.130934710444194
 30
0.0
 40
0.125
  1
800.66.TAGUE
  0
ENDBLK
  5
172C0
  8
0
  0
BLOCK
  8
0
  2
*U167
 70
     1
 10
0.0
 20
0.0
 30
0.0
  3
*U167
  1

  0
TEXT
  5
172C2
  8
0
 10
3.5100871080940119
 20
1.046126857764647
 30
0.0
 40
0.125
  1
Hand Rail
  0
TEXT
  5
172C3
  8
0
 10
3.5100871080940119
 20
0.8377935244313146
 30
0.0
 40
0.125
  1
TL-96
  0
TEXT
  5
172C4
  8
0
 10
3.5100871080940119
 20
0.6294601910979814
 30
0.0
 40
0.125
  1
1-1/4" x 2-1/4"
  0
TEXT
  5
172C5
  8
0
 10
3.5100871080940119
 20
0.4211268577646479
 30
0.0
 40
0.125
  1
800.66.TAGUE
  0
ENDBLK
  5
172C7
  8
0
  0
BLOCK
  8
0
  2
*U168
 70
     1
 10
0.0
 20
0.0
 30
0.0
  3
*U168
  1

  0
TEXT
  5
172C9
  8
0
 10
2.3417636350062589
 20
4.2171919217870482
 30
0.0
 40
0.125
  1
Hand Rail
  0
TEXT
  5
172CA
  8
0
 10
2.3417636350062589
 20
4.0088585884537151
 30
0.0
 40
0.125
  1
TL-117
  0
TEXT
  5
172CB
  8
0
 10
2.3417636350062589
 20
3.8005252551203812
 30
0.0
 40
0.125
  1
1-1/4" x 8-1/8"
  0
TEXT
  5
172CC
  8
0
 10
2.3417636350062589
 20
3.5921919217870482
 30
0.0
 40
0.125
  1
800.66.TAGUE
  0
ENDBLK
  5
172CE
  8
0
  0
BLOCK
  8
0
  2
*U169
 70
     1
 10
0.0
 20
0.0
 30
0.0
  3
*U169
  1

  0
TEXT
  5
172D0
  8
0
 10
2.7125232555794119
 20
1.098442957172892
 30
0.0
 40
0.125
  1
Hand Rail
  0
TEXT
  5
172D1
  8
0
 10
2.7125232555794119
 20
0.8901096238395592
 30
0.0
 40
0.125
  1
TL-231
  0
TEXT
  5
172D2
  8
0
 10
2.7125232555794119
 20
0.6817762905062259
 30
0.0
 40
0.125
  1
1-1/2" x 1-11/16"
  0
TEXT
  5
172D3
  8
0
 10
2.7125232555794119
 20
0.4734429571728925
 30
0.0
 40
0.125
  1
800.66.TAGUE
  0
ENDBLK
  5
172D5
  8
0
  0
BLOCK
  8
0
  2
*U170
 70
     1
 10
0.0
 20
0.0
 30
0.0
  3
*U170
  1

  0
TEXT
  5
172D7
  8
0
 10
2.960252587020249
 20
0.6772989443436474
 30
0.0
 40
0.125
  1
Lattice
  0
TEXT
  5
172D8
  8
0
 10
2.960252587020249
 20
0.468965611010314
 30
0.0
 40
0.125
  1
TL-266
  0
TEXT
  5
172D9
  8
0
 10
2.960252587020249
 20
0.2606322776769806
 30
0.0
 40
0.125
  1
1/4" x 1-5/8"
  0
TEXT
  5
172DA
  8
0
 10
2.960252587020249
 20
0.0522989443436472
 30
0.0
 40
0.125
  1
800.66.TAGUE
  0
ENDBLK
  5
172DC
  8
0
  0
BLOCK
  8
0
  2
*U171
 70
     1
 10
0.0
 20
0.0
 30
0.0
  3
*U171
  1

  0
TEXT
  5
172DE
  8
0
 10
2.5177643903332401
 20
0.6772985360157691
 30
0.0
 40
0.125
  1
Lattice
  0
TEXT
  5
172DF
  8
0
 10
2.5177643903332401
 20
0.4689652026824358
 30
0.0
 40
0.125
  1
TL-267
  0
TEXT
  5
172E0
  8
0
 10
2.5177643903332401
 20
0.2606318693491024
 30
0.0
 40
0.125
  1
1/4" x 1-3/8"
  0
TEXT
  5
172E1
  8
0
 10
2.5177643903332401
 20
0.0522985360157691
 30
0.0
 40
0.125
  1
800.66.TAGUE
  0
ENDBLK
  5
172E3
  8
0
  0
BLOCK
  8
0
  2
*U172
 70
     1
 10
0.0
 20
0.0
 30
0.0
  3
*U172
  1

  0
TEXT
  5
172E5
  8
0
 10
2.3872073702682419
 20
0.6772987437404936
 30
0.0
 40
0.125
  1
Lattice
  0
TEXT
  5
172E6
  8
0
 10
2.3872073702682419
 20
0.4689654104071603
 30
0.0
 40
0.125
  1
TL-268
  0
TEXT
  5
172E7
  8
0
 10
2.3872073702682419
 20
0.260632077073827
 30
0.0
 40
0.125
  1
1/4" x 1-1/8"
  0
TEXT
  5
172E8
  8
0
 10
2.3872073702682419
 20
0.0522987437404936
 30
0.0
 40
0.125
  1
800.66.TAGUE
  0
ENDBLK
  5
172EA
  8
0
  0
BLOCK
  8
0
  2
*U173
 70
     1
 10
0.0
 20
0.0
 30
0.0
  3
*U173
  1

  0
TEXT
  5
172EC
  8
0
 10
1.7198452767448771
 20
0.6772982915522335
 30
0.0
 40
0.125
  1
Lattice
  0
TEXT
  5
172ED
  8
0
 10
1.7198452767448771
 20
0.4689649582189002
 30
0.0
 40
0.125
  1
TL-269
  0
TEXT
  5
172EE
  8
0
 10
1.7198452767448771
 20
0.2606316248855668
 30
0.0
 40
0.125
  1
1/4" x 3/4"
  0
TEXT
  5
172EF
  8
0
 10
1.7198452767448771
 20
0.0522982915522334
 30
0.0
 40
0.125
  1
800.66.TAGUE
  0
ENDBLK
  5
172F1
  8
0
  0
BLOCK
  8
0
  2
*U174
 70
     1
 10
0.0
 20
0.0
 30
0.0
  3
*U174
  1

  0
TEXT
  5
172F3
  8
0
 10
2.0085733028087129
 20
0.6772989387914095
 30
0.0
 40
0.125
  1
Lattice
  0
TEXT
  5
172F4
  8
0
 10
2.0085733028087129
 20
0.4689656054580762
 30
0.0
 40
0.125
  1
TL-270
  0
TEXT
  5
172F5
  8
0
 10
2.0085733028087129
 20
0.2606322721247428
 30
0.0
 40
0.125
  1
1/4" x 7/8"
  0
TEXT
  5
172F6
  8
0
 10
2.0085733028087129
 20
0.0522989387914095
 30
0.0
 40
0.125
  1
800.66.TAGUE
  0
ENDBLK
  5
172F8
  8
0
  0
BLOCK
  8
0
  2
*U175
 70
     1
 10
0.0
 20
0.0
 30
0.0
  3
*U175
  1

  0
TEXT
  5
172FA
  8
0
 10
2.940701223973178
 20
0.6772980715210224
 30
0.0
 40
0.125
  1
Lattice
  0
TEXT
  5
172FB
  8
0
 10
2.940701223973178
 20
0.4689647381876891
 30
0.0
 40
0.125
  1
TL-962
  0
TEXT
  5
172FC
  8
0
 10
2.940701223973178
 20
0.2606314048543558
 30
0.0
 40
0.125
  1
1/4" x 2"
  0
TEXT
  5
172FD
  8
0
 10
2.940701223973178
 20
0.0522980715210224
 30
0.0
 40
0.125
  1
800.66.TAGUE
  0
ENDBLK
  5
172FF
  8
0
  0
BLOCK
  8
0
  2
*U176
 70
     1
 10
0.0
 20
0.0
 30
0.0
  3
*U176
  1

  0
TEXT
  5
17301
  8
0
 10
1.983768624240724
 20
1.1498699559202801
 30
0.0
 40
0.125
  1
Lip Moulding
  0
TEXT
  5
17302
  8
0
 10
1.983768624240724
 20
0.9415366225869473
 30
0.0
 40
0.125
  1
TL-18
  0
TEXT
  5
17303
  8
0
 10
1.983768624240724
 20
0.7332032892536139
 30
0.0
 40
0.125
  1
3/4" x 1-15/16"
  0
TEXT
  5
17304
  8
0
 10
1.983768624240724
 20
0.5248699559202806
 30
0.0
 40
0.125
  1
800.66.TAGUE
  0
ENDBLK
  5
17306
  8
0
  0
BLOCK
  8
0
  2
*U177
 70
     1
 10
0.0
 20
0.0
 30
0.0
  3
*U177
  1

  0
TEXT
  5
17308
  8
0
 10
2.2853728967398861
 20
1.2855052394233999
 30
0.0
 40
0.125
  1
Lip Moulding
  0
TEXT
  5
17309
  8
0
 10
2.2853728967398861
 20
1.0771719060900671
 30
0.0
 40
0.125
  1
TL-530
  0
TEXT
  5
1730A
  8
0
 10
2.2853728967398861
 20
0.8688385727567342
 30
0.0
 40
0.125
  1
5/8" x 1-5/8"
  0
TEXT
  5
1730B
  8
0
 10
2.2853728967398861
 20
0.6605052394234008
 30
0.0
 40
0.125
  1
800.66.TAGUE
  0
ENDBLK
  5
1730D
  8
0
  0
BLOCK
  8
0
  2
*U178
 70
     1
 10
0.0
 20
0.0
 30
0.0
  3
*U178
  1

  0
TEXT
  5
1730F
  8
0
 10
2.269200201813987
 20
1.1997502285778401
 30
0.0
 40
0.125
  1
Lip Moulding
  0
TEXT
  5
17310
  8
0
 10
2.269200201813987
 20
0.9914168952445077
 30
0.0
 40
0.125
  1
TL-532
  0
TEXT
  5
17311
  8
0
 10
2.269200201813987
 20
0.7830835619111745
 30
0.0
 40
0.125
  1
3/4" x 1-3/4"
  0
TEXT
  5
17312
  8
0
 10
2.269200201813987
 20
0.574750228577841
 30
0.0
 40
0.125
  1
800.66.TAGUE
  0
ENDBLK
  5
17314
  8
0
  0
BLOCK
  8
0
  2
*U179
 70
     1
 10
0.0
 20
0.0
 30
0.0
  3
*U179
  1

  0
TEXT
  5
17316
  8
0
 10
1.8892783014391621
 20
1.241449235052527
 30
0.0
 40
0.125
  1
Lip Moulding
  0
TEXT
  5
17317
  8
0
 10
1.8892783014391621
 20
1.033115901719194
 30
0.0
 40
0.125
  1
TL-2169
  0
TEXT
  5
17318
  8
0
 10
1.8892783014391621
 20
0.8247825683858613
 30
0.0
 40
0.125
  1
11/16" x 1-7/8"
  0
TEXT
  5
17319
  8
0
 10
1.8892783014391621
 20
0.6164492350525279
 30
0.0
 40
0.125
  1
800.66.TAGUE
  0
ENDBLK
  5
1731B
  8
0
  0
BLOCK
  8
0
  2
*U180
 70
     1
 10
0.0
 20
0.0
 30
0.0
  3
*U180
  1

  0
TEXT
  5
1731D
  8
0
 10
1.620143794977025
 20
1.0038028284741349
 30
0.0
 40
0.125
  1
Lip Moulding
  0
TEXT
  5
1731E
  8
0
 10
1.620143794977025
 20
0.7954694951408026
 30
0.0
 40
0.125
  1
TL-2179
  0
TEXT
  5
1731F
  8
0
 10
1.620143794977025
 20
0.5871361618074693
 30
0.0
 40
0.125
  1
3/4" x 1-1/4"
  0
TEXT
  5
17320
  8
0
 10
1.620143794977025
 20
0.3788028284741358
 30
0.0
 40
0.125
  1
800.66.TAGUE
  0
ENDBLK
  5
17322
  8
0
  0
BLOCK
  8
0
  2
*U181
 70
     1
 10
0.0
 20
0.0
 30
0.0
  3
*U181
  1

  0
TEXT
  5
17324
  8
0
 10
1.9163743563030939
 20
1.019442403193352
 30
0.0
 40
0.125
  1
Lip Moulding
  0
TEXT
  5
17325
  8
0
 10
1.9163743563030939
 20
0.811109069860019
 30
0.0
 40
0.125
  1
TL-2181
  0
TEXT
  5
17326
  8
0
 10
1.9163743563030939
 20
0.6027757365266857
 30
0.0
 40
0.125
  1
3/4" x 1-11/16"
  0
TEXT
  5
17327
  8
0
 10
1.9163743563030939
 20
0.3944424031933522
 30
0.0
 40
0.125
  1
800.66.TAGUE
  0
ENDBLK
  5
17329
  8
0
  0
BLOCK
  8
0
  2
*U182
 70
     1
 10
0.0
 20
0.0
 30
0.0
  3
*U182
  1

  0
TEXT
  5
1732B
  8
0
 10
2.0010341316657332
 20
0.9876257387668374
 30
0.0
 40
0.125
  1
Lip Moulding
  0
TEXT
  5
1732C
  8
0
 10
2.0010341316657332
 20
0.7792924054335043
 30
0.0
 40
0.125
  1
TL-2211
  0
TEXT
  5
1732D
  8
0
 10
2.0010341316657332
 20
0.5709590721001709
 30
0.0
 40
0.125
  1
1" x 1-15/32"
  0
TEXT
  5
1732E
  8
0
 10
2.0010341316657332
 20
0.3626257387668375
 30
0.0
 40
0.125
  1
800.66.TAGUE
  0
ENDBLK
  5
17330
  8
0
  0
BLOCK
  8
0
  2
*U183
 70
     1
 10
0.0
 20
0.0
 30
0.0
  3
*U183
  1

  0
TEXT
  5
17332
  8
0
 10
1.9547841412725111
 20
1.2443911534714971
 30
0.0
 40
0.125
  1
Lip Mldg
  0
TEXT
  5
17333
  8
0
 10
1.9547841412725111
 20
1.0360578201381629
 30
0.0
 40
0.125
  1
TL-2302
  0
TEXT
  5
17334
  8
0
 10
1.9547841412725111
 20
0.8277244868048304
 30
0.0
 40
0.125
  1
13/16" x 1-3/4"
  0
TEXT
  5
17335
  8
0
 10
1.9547841412725111
 20
0.6193911534714971
 30
0.0
 40
0.125
  1
800.66.TAGUE
  0
ENDBLK
  5
17337
  8
0
  0
BLOCK
  8
0
  2
*U184
 70
     1
 10
0.0
 20
0.0
 30
0.0
  3
*U184
  1

  0
TEXT
  5
17339
  8
0
 10
1.971391504344296
 20
2.3593485866246051
 30
0.0
 40
0.125
  1
Mantle Moulding
  0
TEXT
  5
1733A
  8
0
 10
1.971391504344296
 20
2.1510152532912721
 30
0.0
 40
0.125
  1
TL-9
  0
TEXT
  5
1733B
  8
0
 10
1.971391504344296
 20
1.942681919957939
 30
0.0
 40
0.125
  1
1-5/8" x 5-1/8"
  0
TEXT
  5
1733C
  8
0
 10
1.971391504344296
 20
1.7343485866246049
 30
0.0
 40
0.125
  1
800.66.TAGUE
  0
ENDBLK
  5
1733E
  8
0
  0
BLOCK
  8
0
  2
*U185
 70
     1
 10
0.0
 20
0.0
 30
0.0
  3
*U185
  1

  0
TEXT
  5
17340
  8
0
 10
1.824484143033146
 20
2.7467482000251939
 30
0.0
 40
0.125
  1
Mantle Moulding
  0
TEXT
  5
17341
  8
0
 10
1.824484143033146
 20
2.5384148666918609
 30
0.0
 40
0.125
  1
TL-10
  0
TEXT
  5
17342
  8
0
 10
1.824484143033146
 20
2.3300815333585279
 30
0.0
 40
0.125
  1
1-3/8" x 5"
  0
TEXT
  5
17343
  8
0
 10
1.824484143033146
 20
2.1217482000251939
 30
0.0
 40
0.125
  1
800.66.TAGUE
  0
ENDBLK
  5
17345
  8
0
  0
BLOCK
  8
0
  2
*U186
 70
     1
 10
0.0
 20
0.0
 30
0.0
  3
*U186
  1

  0
TEXT
  5
17347
  8
0
 10
1.778440342841463
 20
0.6794305349126262
 30
0.0
 40
0.125
  1
Mantle Shelf
  0
TEXT
  5
17348
  8
0
 10
1.778440342841463
 20
0.4710972015792928
 30
0.0
 40
0.125
  1
TL-2184
  0
TEXT
  5
17349
  8
0
 10
1.778440342841463
 20
0.2627638682459594
 30
0.0
 40
0.125
  1
1-1/4" x 5-1/2"
  0
TEXT
  5
1734A
  8
0
 10
1.778440342841463
 20
0.0544305349126262
 30
0.0
 40
0.125
  1
800.66.TAGUE
  0
ENDBLK
  5
1734C
  8
0
  0
BLOCK
  8
0
  2
*U187
 70
     1
 10
0.0
 20
0.0
 30
0.0
  3
*U187
  1

  0
TEXT
  5
1734E
  8
0
 10
2.009611089016857
 20
0.679430549910876
 30
0.0
 40
0.125
  1
Mantle Shelf
  0
TEXT
  5
1734F
  8
0
 10
2.009611089016857
 20
0.4710972165775426
 30
0.0
 40
0.125
  1
TL-2185
  0
TEXT
  5
17350
  8
0
 10
2.009611089016857
 20
0.2627638832442092
 30
0.0
 40
0.125
  1
1-1/2" x 5-1/2"
  0
TEXT
  5
17351
  8
0
 10
2.009611089016857
 20
0.0544305499108759
 30
0.0
 40
0.125
  1
800.66.TAGUE
  0
ENDBLK
  5
17353
  8
0
  0
BLOCK
  8
0
  2
*U188
 70
     1
 10
0.0
 20
0.0
 30
0.0
  3
*U188
  1

  0
TEXT
  5
17355
  8
0
 62
     0
 10
-367.02425303528412
 20
426.35429858331162
 30
0.0
 40
0.125
  1
1
 50
90.0
  0
TEXT
  5
17356
  8
0
 62
     0
 10
-367.10758636861738
 20
426.43763191664488
 30
0.0
 40
0.125
  1
3
 50
90.0
  0
LINE
  5
17357
  8
0
 62
     0
 10
-367.08675303528412
 20
426.43763191664488
 30
0.0
 11
-367.08675303528412
 21
426.52096524997819
 31
0.0
  0
TEXT
  5
17358
  8
0
 62
     0
 10
-366.9409197019508
 20
426.43763191664488
 30
0.0
 40
0.125
  1
4
 50
90.0
  0
TEXT
  5
17359
  8
0
 62
     0
 10
-367.02425303528412
 20
426.56263191664482
 30
0.0
 40
0.125
  1
"
 50
90.0
  0
ENDBLK
  5
1735B
  8
0
  0
BLOCK
  8
0
  2
*U189
 70
     1
 10
0.0
 20
0.0
 30
0.0
  3
*U189
  1

  0
TEXT
  5
1735D
  8
0
 62
     0
 10
-364.19000805364777
 20
425.28877174148101
 30
0.0
 40
0.125
  1
7
  0
LINE
  5
1735E
  8
0
 62
     0
 10
-364.19000805364777
 20
425.2679384081477
 30
0.0
 11
-364.10667472031452
 21
425.2679384081477
 31
0.0
  0
TEXT
  5
1735F
  8
0
 62
     0
 10
-364.19000805364777
 20
425.12210507481433
 30
0.0
 40
0.125
  1
8
  0
TEXT
  5
17360
  8
0
 62
     0
 10
-364.06500805364777
 20
425.2054384081477
 30
0.0
 40
0.125
  1
"
  0
ENDBLK
  5
17362
  8
0
  0
BLOCK
  8
0
  2
*U190
 70
     1
 10
0.0
 20
0.0
 30
0.0
  3
*U190
  1

  0
TEXT
  5
17364
  8
0
 62
     0
 10
-363.14629495961572
 20
426.36117705424232
 30
0.0
 40
0.125
  1
1
 50
90.0
  0
TEXT
  5
17365
  8
0
 62
     0
 10
-363.22962829294897
 20
426.46534372090889
 30
0.0
 40
0.125
  1
1
 50
90.0
  0
LINE
  5
17366
  8
0
 62
     0
 10
-363.20879495961572
 20
426.44451038757558
 30
0.0
 11
-363.20879495961572
 21
426.52784372090889
 31
0.0
  0
TEXT
  5
17367
  8
0
 62
     0
 10
-363.06296162628229
 20
426.44451038757558
 30
0.0
 40
0.125
  1
2
 50
90.0
  0
TEXT
  5
17368
  8
0
 62
     0
 10
-363.14629495961572
 20
426.56951038757558
 30
0.0
 40
0.125
  1
"
 50
90.0
  0
ENDBLK
  5
1736A
  8
0
  0
BLOCK
  8
0
  2
*U191
 70
     1
 10
0.0
 20
0.0
 30
0.0
  3
*U191
  1

  0
TEXT
  5
1736C
  8
0
 62
     0
 10
-387.96524739614358
 20
838.7451809866343
 30
0.0
 40
0.125
  1
1
 50
90.0
  0
TEXT
  5
1736D
  8
0
 62
     0
 10
-388.0485807294769
 20
838.82851431996767
 30
0.0
 40
0.125
  1
3
 50
90.0
  0
LINE
  5
1736E
  8
0
 62
     0
 10
-388.02774739614358
 20
838.82851431996767
 30
0.0
 11
-388.02774739614358
 21
838.91184765330104
 31
0.0
  0
TEXT
  5
1736F
  8
0
 62
     0
 10
-387.88191406281032
 20
838.82851431996767
 30
0.0
 40
0.125
  1
4
 50
90.0
  0
TEXT
  5
17370
  8
0
 62
     0
 10
-387.96524739614358
 20
838.95351431996755
 30
0.0
 40
0.125
  1
"
 50
90.0
  0
ENDBLK
  5
17372
  8
0
  0
BLOCK
  8
0
  2
*U192
 70
     1
 10
0.0
 20
0.0
 30
0.0
  3
*U192
  1

  0
TEXT
  5
17374
  8
0
 62
     0
 10
-385.13236667098761
 20
837.67914254862364
 30
0.0
 40
0.125
  1
7
  0
LINE
  5
17375
  8
0
 62
     0
 10
-385.13236667098761
 20
837.65830921529016
 30
0.0
 11
-385.04903333765429
 21
837.65830921529016
 31
0.0
  0
TEXT
  5
17376
  8
0
 62
     0
 10
-385.13236667098761
 20
837.51247588195702
 30
0.0
 40
0.125
  1
8
  0
TEXT
  5
17377
  8
0
 62
     0
 10
-385.00736667098761
 20
837.59580921529039
 30
0.0
 40
0.125
  1
"
  0
ENDBLK
  5
17379
  8
0
  0
BLOCK
  8
0
  2
*U193
 70
     1
 10
0.0
 20
0.0
 30
0.0
  3
*U193
  1

  0
TEXT
  5
1737B
  8
0
 62
     0
 10
-384.08814198077528
 20
838.75205945756488
 30
0.0
 40
0.125
  1
1
 50
90.0
  0
TEXT
  5
1737C
  8
0
 62
     0
 10
-384.1714753141087
 20
838.85622612423163
 30
0.0
 40
0.125
  1
1
 50
90.0
  0
LINE
  5
1737D
  8
0
 62
     0
 10
-384.15064198077539
 20
838.83539279089825
 30
0.0
 11
-384.15064198077539
 21
838.91872612423185
 31
0.0
  0
TEXT
  5
1737E
  8
0
 62
     0
 10
-384.00480864744202
 20
838.83539279089825
 30
0.0
 40
0.125
  1
2
 50
90.0
  0
TEXT
  5
1737F
  8
0
 62
     0
 10
-384.08814198077528
 20
838.96039279089837
 30
0.0
 40
0.125
  1
"
 50
90.0
  0
ENDBLK
  5
17381
  8
0
  0
BLOCK
  8
0
  2
*U194
 70
     1
 10
0.0
 20
0.0
 30
0.0
  3
*U194
  1

  0
TEXT
  5
17383
  8
0
 62
     0
 10
-323.13119819751643
 20
425.11559169813461
 30
0.0
 40
0.125
  1
1
 50
90.0
  0
TEXT
  5
17384
  8
0
 62
     0
 10
-323.2145315308498
 20
425.19892503146798
 30
0.0
 40
0.125
  1
3
 50
90.0
  0
LINE
  5
17385
  8
0
 62
     0
 10
-323.19369819751643
 20
425.19892503146798
 30
0.0
 11
-323.19369819751643
 21
425.28225836480118
 31
0.0
  0
TEXT
  5
17386
  8
0
 62
     0
 10
-323.04786486418311
 20
425.19892503146798
 30
0.0
 40
0.125
  1
4
 50
90.0
  0
TEXT
  5
17387
  8
0
 62
     0
 10
-323.13119819751643
 20
425.32392503146792
 30
0.0
 40
0.125
  1
"
 50
90.0
  0
ENDBLK
  5
17389
  8
0
  0
BLOCK
  8
0
  2
*U195
 70
     1
 10
0.0
 20
0.0
 30
0.0
  3
*U195
  1

  0
TEXT
  5
1738B
  8
0
 62
     0
 10
-318.6214997668344
 20
425.11559169813461
 30
0.0
 40
0.125
  1
1
 50
90.0
  0
TEXT
  5
1738C
  8
0
 62
     0
 10
-318.70483310016772
 20
425.19892503146798
 30
0.0
 40
0.125
  1
3
 50
90.0
  0
LINE
  5
1738D
  8
0
 62
     0
 10
-318.6839997668344
 20
425.19892503146798
 30
0.0
 11
-318.6839997668344
 21
425.28225836480118
 31
0.0
  0
TEXT
  5
1738E
  8
0
 62
     0
 10
-318.53816643350109
 20
425.19892503146798
 30
0.0
 40
0.125
  1
8
 50
90.0
  0
TEXT
  5
1738F
  8
0
 62
     0
 10
-318.6214997668344
 20
425.32392503146792
 30
0.0
 40
0.125
  1
"
 50
90.0
  0
ENDBLK
  5
17391
  8
0
  0
BLOCK
  8
0
  2
*U196
 70
     1
 10
0.0
 20
0.0
 30
0.0
  3
*U196
  1

  0
TEXT
  5
17393
  8
0
 62
     0
 10
-387.56461450221548
 20
838.89288512488679
 30
0.0
 40
0.125
  1
1
 50
90.0
  0
TEXT
  5
17394
  8
0
 62
     0
 10
-387.64794783554891
 20
838.97621845822005
 30
0.0
 40
0.125
  1
3
 50
90.0
  0
LINE
  5
17395
  8
0
 62
     0
 10
-387.62711450221559
 20
838.97621845822005
 30
0.0
 11
-387.62711450221559
 21
839.05955179155353
 31
0.0
  0
TEXT
  5
17396
  8
0
 62
     0
 10
-387.48128116888222
 20
838.97621845822005
 30
0.0
 40
0.125
  1
4
 50
90.0
  0
TEXT
  5
17397
  8
0
 62
     0
 10
-387.56461450221548
 20
839.10121845822005
 30
0.0
 40
0.125
  1
"
 50
90.0
  0
ENDBLK
  5
17399
  8
0
  0
BLOCK
  8
0
  2
*U197
 70
     1
 10
0.0
 20
0.0
 30
0.0
  3
*U197
  1

  0
TEXT
  5
1739B
  8
0
 62
     0
 10
-383.05359444806828
 20
838.89288512488679
 30
0.0
 40
0.125
  1
1
 50
90.0
  0
TEXT
  5
1739C
  8
0
 62
     0
 10
-383.13692778140171
 20
838.97621845822005
 30
0.0
 40
0.125
  1
3
 50
90.0
  0
LINE
  5
1739D
  8
0
 62
     0
 10
-383.1160944480684
 20
838.97621845822005
 30
0.0
 11
-383.1160944480684
 21
839.05955179155353
 31
0.0
  0
TEXT
  5
1739E
  8
0
 62
     0
 10
-382.97026111473502
 20
838.97621845822005
 30
0.0
 40
0.125
  1
8
 50
90.0
  0
TEXT
  5
1739F
  8
0
 62
     0
 10
-383.05359444806828
 20
839.10121845822005
 30
0.0
 40
0.125
  1
"
 50
90.0
  0
ENDBLK
  5
173A1
  8
0
  0
BLOCK
  8
0
  2
*U198
 70
     1
 10
0.0
 20
0.0
 30
0.0
  3
*U198
  1

  0
TEXT
  5
173A3
  8
0
 10
1.872123119890716
 20
0.7588046473348414
 30
0.0
 40
0.125
  1
Nosing & Cove
  0
TEXT
  5
173A4
  8
0
 10
1.872123119890716
 20
0.5504713140015081
 30
0.0
 40
0.125
  1
TL-20
  0
TEXT
  5
173A5
  8
0
 10
1.872123119890716
 20
0.3421379806681747
 30
0.0
 40
0.125
  1
3/4" x 1-5/16"
  0
TEXT
  5
173A6
  8
0
 10
1.872123119890716
 20
0.1338046473348413
 30
0.0
 40
0.125
  1
800.66.TAGUE
  0
ENDBLK
  5
173A8
  8
0
  0
BLOCK
  8
0
  2
*U199
 70
     1
 10
0.0
 20
0.0
 30
0.0
  3
*U199
  1

  0
TEXT
  5
173AA
  8
0
 10
1.914126813415123
 20
0.8585704022782466
 30
0.0
 40
0.125
  1
Nosing & Cove
  0
TEXT
  5
173AB
  8
0
 10
1.914126813415123
 20
0.6502370689449134
 30
0.0
 40
0.125
  1
TL-21
  0
TEXT
  5
173AC
  8
0
 10
1.914126813415123
 20
0.44190373561158
 30
0.0
 40
0.125
  1
1-1/8" x 1-3/4"
  0
TEXT
  5
173AD
  8
0
 10
1.914126813415123
 20
0.2335704022782465
 30
0.0
 40
0.125
  1
800.66.TAGUE
  0
ENDBLK
  5
173AF
  8
0
  0
BLOCK
  8
0
  2
*U200
 70
     1
 10
0.0
 20
0.0
 30
0.0
  3
*U200
  1

  0
TEXT
  5
173B1
  8
0
 10
2.1633643582791811
 20
1.2559710060997979
 30
0.0
 40
0.125
  1
Nosing & Cove
  0
TEXT
  5
173B2
  8
0
 10
2.1633643582791811
 20
1.0476376727664649
 30
0.0
 40
0.125
  1
TL-22
  0
TEXT
  5
173B3
  8
0
 10
2.1633643582791811
 20
0.839304339433132
 30
0.0
 40
0.125
  1
1-5/16" x 2-1/4"
  0
TEXT
  5
173B4
  8
0
 10
2.1633643582791811
 20
0.6309710060997987
 30
0.0
 40
0.125
  1
800.66.TAGUE
  0
ENDBLK
  5
173B6
  8
0
  0
BLOCK
  8
0
  2
*U201
 70
     1
 10
0.0
 20
0.0
 30
0.0
  3
*U201
  1

  0
TEXT
  5
173B8
  8
0
 10
1.1386258441601731
 20
1.192489029325315
 30
0.0
 40
0.125
  1
Nosing & Cove
  0
TEXT
  5
173B9
  8
0
 10
1.1386258441601731
 20
0.9841556959919824
 30
0.0
 40
0.125
  1
TL-2256
  0
TEXT
  5
173BA
  8
0
 10
1.1386258441601731
 20
0.7758223626586491
 30
0.0
 40
0.125
  1
5/8" x 1-1/2"
  0
TEXT
  5
173BB
  8
0
 10
1.1386258441601731
 20
0.5674890293253158
 30
0.0
 40
0.125
  1
800.66.TAGUE
  0
ENDBLK
  5
173BD
  8
0
  0
BLOCK
  8
0
  2
*U202
 70
     1
 10
0.0
 20
0.0
 30
0.0
  3
*U202
  1

  0
TEXT
  5
173BF
  8
0
 10
0.8465252202594228
 20
0.679429976342135
 30
0.0
 40
0.125
  1
Nosing & Cove
  0
TEXT
  5
173C0
  8
0
 10
0.8465252202594228
 20
0.4710966430088017
 30
0.0
 40
0.125
  1
TL-2257
  0
TEXT
  5
173C1
  8
0
 10
0.8465252202594228
 20
0.2627633096754684
 30
0.0
 40
0.125
  1
5/16" x 1/2"
  0
TEXT
  5
173C2
  8
0
 10
0.8465252202594228
 20
0.054429976342135
 30
0.0
 40
0.125
  1
800.66.TAGUE
  0
ENDBLK
  5
173C4
  8
0
  0
BLOCK
  8
0
  2
*U203
 70
     1
 10
0.0
 20
0.0
 30
0.0
  3
*U203
  1

  0
TEXT
  5
173C6
  8
0
 10
2.3806405474079488
 20
1.3133539302667709
 30
0.0
 40
0.125
  1
Ogee
  0
TEXT
  5
173C7
  8
0
 10
2.3806405474079488
 20
1.1050205969334379
 30
0.0
 40
0.125
  1
TL-16
  0
TEXT
  5
173C8
  8
0
 10
2.3806405474079488
 20
0.8966872636001046
 30
0.0
 40
0.125
  1
1-3/8" x 2"
  0
TEXT
  5
173C9
  8
0
 10
2.3806405474079488
 20
0.6883539302667714
 30
0.0
 40
0.125
  1
800.66.TAGUE
  0
ENDBLK
  5
173CB
  8
0
  0
BLOCK
  8
0
  2
*U204
 70
     1
 10
0.0
 20
0.0
 30
0.0
  3
*U204
  1

  0
TEXT
  5
173DE
  8
0
 10
2.7261344289668719
 20
1.6601320963039821
 30
0.0
 40
0.125
  1
Ogee
  0
TEXT
  5
173DF
  8
0
 10
2.7261344289668719
 20
1.451798762970649
 30
0.0
 40
0.125
  1
TL-17
  0
TEXT
  5
173E0
  8
0
 10
2.7261344289668719
 20
1.2434654296373151
 30
0.0
 40
0.125
  1
2-5/16" x 1-7/8"
  0
TEXT
  5
173E1
  8
0
 10
2.7261344289668719
 20
1.0351320963039821
 30
0.0
 40
0.125
  1
800.66.TAGUE
  0
ENDBLK
  5
173E3
  8
0
  0
BLOCK
  8
0
  2
*U205
 70
     1
 10
0.0
 20
0.0
 30
0.0
  3
*U205
  1

  0
TEXT
  5
173E5
  8
0
 10
1.8303727118446309
 20
0.9120296408366357
 30
0.0
 40
0.125
  1
Ogee
  0
TEXT
  5
173E6
  8
0
 10
1.8303727118446309
 20
0.7036963075033026
 30
0.0
 40
0.125
  1
TL-166
  0
TEXT
  5
173E7
  8
0
 10
1.8303727118446309
 20
0.4953629741699692
 30
0.0
 40
0.125
  1
11/16" x 1-1/4"
  0
TEXT
  5
173E8
  8
0
 10
1.8303727118446309
 20
0.2870296408366357
 30
0.0
 40
0.125
  1
800.66.TAGUE
  0
ENDBLK
  5
173EA
  8
0
  0
BLOCK
  8
0
  2
*U206
 70
     1
 10
0.0
 20
0.0
 30
0.0
  3
*U206
  1

  0
TEXT
  5
173EC
  8
0
 10
1.573032674973148
 20
0.835411988577448
 30
0.0
 40
0.125
  1
Ogee
  0
TEXT
  5
173ED
  8
0
 10
1.573032674973148
 20
0.6270786552441149
 30
0.0
 40
0.125
  1
TL-167
  0
TEXT
  5
173EE
  8
0
 10
1.573032674973148
 20
0.4187453219107815
 30
0.0
 40
0.125
  1
11/16" x 7/8"
  0
TEXT
  5
173EF
  8
0
 10
1.573032674973148
 20
0.210411988577448
 30
0.0
 40
0.125
  1
800.66.TAGUE
  0
ENDBLK
  5
173F1
  8
0
  0
BLOCK
  8
0
  2
*U207
 70
     1
 10
0.0
 20
0.0
 30
0.0
  3
*U207
  1

  0
TEXT
  5
173F3
  8
0
 10
1.814825501310565
 20
1.0878383681827011
 30
0.0
 40
0.125
  1
Ogee Moulding
  0
TEXT
  5
173F4
  8
0
 10
1.814825501310565
 20
0.8795050348493685
 30
0.0
 40
0.125
  1
TL-2240
  0
TEXT
  5
173F5
  8
0
 10
1.814825501310565
 20
0.6711717015160352
 30
0.0
 40
0.125
  1
25/32" x 13/16"
  0
TEXT
  5
173F6
  8
0
 10
1.814825501310565
 20
0.4628383681827018
 30
0.0
 40
0.125
  1
800.66.TAGUE
  0
ENDBLK
  5
173F8
  8
0
  0
BLOCK
  8
0
  2
*U208
 70
     1
 10
0.0
 20
0.0
 30
0.0
  3
*U208
  1

  0
TEXT
  5
173FA
  8
0
 10
2.966704883543116
 20
1.2733224952305591
 30
0.0
 40
0.125
  1
Ogee Moulding
  0
TEXT
  5
173FB
  8
0
 10
2.966704883543116
 20
1.0649891618972249
 30
0.0
 40
0.125
  1
TL-2255
  0
TEXT
  5
173FC
  8
0
 10
2.966704883543116
 20
0.8566558285638924
 30
0.0
 40
0.125
  1
1-1/2" x 2-1/8"
  0
TEXT
  5
173FD
  8
0
 10
2.966704883543116
 20
0.6483224952305591
 30
0.0
 40
0.125
  1
800.66.TAGUE
  0
ENDBLK
  5
173FF
  8
0
  0
BLOCK
  8
0
  2
*U209
 70
     1
 10
0.0
 20
0.0
 30
0.0
  3
*U209
  1

  0
TEXT
  5
17401
  8
0
 10
1.767740232165522
 20
0.6795164786933583
 30
0.0
 40
0.125
  1
Ogee
  0
TEXT
  5
17402
  8
0
 10
1.767740232165522
 20
0.471183145360025
 30
0.0
 40
0.125
  1
TL-2280
  0
TEXT
  5
17403
  8
0
 10
1.767740232165522
 20
0.2628498120266917
 30
0.0
 40
0.125
  1
1/2"  x 5/8"
  0
TEXT
  5
17404
  8
0
 10
1.767740232165522
 20
0.0545164786933583
 30
0.0
 40
0.125
  1
800.66.TAGUE
  0
ENDBLK
  5
17406
  8
0
  0
BLOCK
  8
0
  2
*U210
 70
     1
 10
0.0
 20
0.0
 30
0.0
  3
*U210
  1

  0
TEXT
  5
17408
  8
0
 10
2.5765420776576198
 20
0.9513347006069352
 30
0.0
 40
0.125
  1
Ogee
  0
TEXT
  5
17409
  8
0
 10
2.5765420776576198
 20
0.7430013672736021
 30
0.0
 40
0.125
  1
TL-2326
  0
TEXT
  5
1740A
  8
0
 10
2.5765420776576198
 20
0.5346680339402687
 30
0.0
 40
0.125
  1
1-3/4" x 1-13/32"
  0
TEXT
  5
1740B
  8
0
 10
2.5765420776576198
 20
0.3263347006069353
 30
0.0
 40
0.125
  1
800.66.TAGUE
  0
ENDBLK
  5
1740D
  8
0
  0
BLOCK
  8
0
  2
*U211
 70
     1
 10
0.0
 20
0.0
 30
0.0
  3
*U211
  1

  0
TEXT
  5
1740F
  8
0
 10
1.8232672208571321
 20
1.0097170300313101
 30
0.0
 40
0.125
  1
Panel Moulding
  0
TEXT
  5
17410
  8
0
 10
1.8232672208571321
 20
0.8013836966979775
 30
0.0
 40
0.125
  1
TL-54
  0
TEXT
  5
17411
  8
0
 10
1.8232672208571321
 20
0.5930503633646445
 30
0.0
 40
0.125
  1
5/8" x 1-3/8"
  0
TEXT
  5
17412
  8
0
 10
1.8232672208571321
 20
0.384717030031311
 30
0.0
 40
0.125
  1
800.66.TAGUE
  0
ENDBLK
  5
17414
  8
0
  0
BLOCK
  8
0
  2
*U212
 70
     1
 10
0.0
 20
0.0
 30
0.0
  3
*U212
  1

  0
TEXT
  5
17416
  8
0
 10
1.6082414945508381
 20
0.8848429445537249
 30
0.0
 40
0.125
  1
Panel Moulding
  0
TEXT
  5
17417
  8
0
 10
1.6082414945508381
 20
0.6765096112203916
 30
0.0
 40
0.125
  1
TL-56
  0
TEXT
  5
17418
  8
0
 10
1.6082414945508381
 20
0.4681762778870584
 30
0.0
 40
0.125
  1
3/4" x 1-1/2"
  0
TEXT
  5
17419
  8
0
 10
1.6082414945508381
 20
0.2598429445537249
 30
0.0
 40
0.125
  1
800.66.TAGUE
  0
ENDBLK
  5
1741B
  8
0
  0
BLOCK
  8
0
  2
*U213
 70
     1
 10
0.0
 20
0.0
 30
0.0
  3
*U213
  1

  0
TEXT
  5
1741D
  8
0
 10
1.430001145945198
 20
1.055442987142782
 30
0.0
 40
0.125
  1
Panel Moulding
  0
TEXT
  5
1741E
  8
0
 10
1.430001145945198
 20
0.8471096538094494
 30
0.0
 40
0.125
  1
TL-57
  0
TEXT
  5
1741F
  8
0
 10
1.430001145945198
 20
0.6387763204761163
 30
0.0
 40
0.125
  1
9/16" x 1-15/16"
  0
TEXT
  5
17420
  8
0
 10
1.430001145945198
 20
0.4304429871427829
 30
0.0
 40
0.125
  1
800.66.TAGUE
  0
ENDBLK
  5
17422
  8
0
  0
BLOCK
  8
0
  2
*U214
 70
     1
 10
0.0
 20
0.0
 30
0.0
  3
*U214
  1

  0
TEXT
  5
17424
  8
0
 10
1.681303805809534
 20
1.2026941795735411
 30
0.0
 40
0.125
  1
Panel Moulding
  0
TEXT
  5
17425
  8
0
 10
1.681303805809534
 20
0.9943608462402076
 30
0.0
 40
0.125
  1
TL-62
  0
TEXT
  5
17426
  8
0
 10
1.681303805809534
 20
0.7860275129068745
 30
0.0
 40
0.125
  1
1" x 1-3/4"
  0
TEXT
  5
17427
  8
0
 10
1.681303805809534
 20
0.5776941795735411
 30
0.0
 40
0.125
  1
800.66.TAGUE
  0
ENDBLK
  5
17429
  8
0
  0
BLOCK
  8
0
  2
*U215
 70
     1
 10
0.0
 20
0.0
 30
0.0
  3
*U215
  1

  0
TEXT
  5
1742B
  8
0
 10
2.133056331073703
 20
1.437235578786044
 30
0.0
 40
0.125
  1
Panel Moulding
  0
TEXT
  5
1742C
  8
0
 10
2.133056331073703
 20
1.2289022454527101
 30
0.0
 40
0.125
  1
TL-64
  0
TEXT
  5
1742D
  8
0
 10
2.133056331073703
 20
1.0205689121193771
 30
0.0
 40
0.125
  1
1-1/4" x 1-15/16"
  0
TEXT
  5
1742E
  8
0
 10
2.133056331073703
 20
0.8122355787860442
 30
0.0
 40
0.125
  1
800.66.TAGUE
  0
ENDBLK
  5
17430
  8
0
  0
BLOCK
  8
0
  2
*U216
 70
     1
 10
0.0
 20
0.0
 30
0.0
  3
*U216
  1

  0
TEXT
  5
17432
  8
0
 10
1.6378445869512459
 20
1.1242484052883119
 30
0.0
 40
0.125
  1
Panel Moulding
  0
TEXT
  5
17433
  8
0
 10
1.6378445869512459
 20
0.9159150719549795
 30
0.0
 40
0.125
  1
TL-314
  0
TEXT
  5
17434
  8
0
 10
1.6378445869512459
 20
0.7075817386216463
 30
0.0
 40
0.125
  1
3/4" x 1-3/8"
  0
TEXT
  5
17435
  8
0
 10
1.6378445869512459
 20
0.4992484052883129
 30
0.0
 40
0.125
  1
800.66.TAGUE
  0
ENDBLK
  5
17437
  8
0
  0
BLOCK
  8
0
  2
*U217
 70
     1
 10
0.0
 20
0.0
 30
0.0
  3
*U217
  1

  0
TEXT
  5
17439
  8
0
 10
1.793042575215281
 20
1.3157146661659449
 30
0.0
 40
0.125
  1
Panel Moulding
  0
TEXT
  5
1743A
  8
0
 10
1.793042575215281
 20
1.107381332832611
 30
0.0
 40
0.125
  1
TL-2032
  0
TEXT
  5
1743B
  8
0
 10
1.793042575215281
 20
0.8990479994992785
 30
0.0
 40
0.125
  1
3/4" x 2"
  0
TEXT
  5
1743C
  8
0
 10
1.793042575215281
 20
0.6907146661659454
 30
0.0
 40
0.125
  1
800.66.TAGUE
  0
ENDBLK
  5
1743E
  8
0
  0
BLOCK
  8
0
  2
*U218
 70
     1
 10
0.0
 20
0.0
 30
0.0
  3
*U218
  1

  0
TEXT
  5
17440
  8
0
 10
1.8141185831191251
 20
0.8182814091084082
 30
0.0
 40
0.125
  1
Panel Moulding
  0
TEXT
  5
17441
  8
0
 10
1.8141185831191251
 20
0.6099480757750749
 30
0.0
 40
0.125
  1
TL-2016
  0
TEXT
  5
17442
  8
0
 10
1.8141185831191251
 20
0.4016147424417417
 30
0.0
 40
0.125
  1
15/16" x 1-11/16"
  0
TEXT
  5
17443
  8
0
 10
1.8141185831191251
 20
0.1932814091084083
 30
0.0
 40
0.125
  1
800.66.TAGUE
  0
ENDBLK
  5
17445
  8
0
  0
BLOCK
  8
0
  2
*U219
 70
     1
 10
0.0
 20
0.0
 30
0.0
  3
*U219
  1

  0
TEXT
  5
17447
  8
0
 10
1.6323248967152031
 20
0.9094451817165918
 30
0.0
 40
0.125
  1
Panel Moulding
  0
TEXT
  5
17448
  8
0
 10
1.6323248967152031
 20
0.7011118483832585
 30
0.0
 40
0.125
  1
TL-2136
  0
TEXT
  5
17449
  8
0
 10
1.6323248967152031
 20
0.4927785150499253
 30
0.0
 40
0.125
  1
21/32" x 1"
  0
TEXT
  5
1744A
  8
0
 10
1.6323248967152031
 20
0.2844451817165918
 30
0.0
 40
0.125
  1
800.66.TAGUE
  0
ENDBLK
  5
1744C
  8
0
  0
BLOCK
  8
0
  2
*U220
 70
     1
 10
0.0
 20
0.0
 30
0.0
  3
*U220
  1

  0
TEXT
  5
1744E
  8
0
 10
1.417623633629318
 20
0.9199699342109398
 30
0.0
 40
0.125
  1
Panel Moulding
  0
TEXT
  5
1744F
  8
0
 10
1.417623633629318
 20
0.7116366008776064
 30
0.0
 40
0.125
  1
TL-2198
  0
TEXT
  5
17450
  8
0
 10
1.417623633629318
 20
0.5033032675442732
 30
0.0
 40
0.125
  1
3/8" x 15/16"
  0
TEXT
  5
17451
  8
0
 10
1.417623633629318
 20
0.2949699342109397
 30
0.0
 40
0.125
  1
800.66.TAGUE
  0
ENDBLK
  5
17453
  8
0
  0
BLOCK
  8
0
  2
*U221
 70
     1
 10
0.0
 20
0.0
 30
0.0
  3
*U221
  1

  0
TEXT
  5
17455
  8
0
 10
1.152367654636123
 20
0.6934204479599658
 30
0.0
 40
0.125
  1
Panel Moulding
  0
TEXT
  5
17456
  8
0
 10
1.152367654636123
 20
0.4850871146266324
 30
0.0
 40
0.125
  1
TL-2068
  0
TEXT
  5
17457
  8
0
 10
1.152367654636123
 20
0.276753781293299
 30
0.0
 40
0.125
  1
3/8" x 3/4"
  0
TEXT
  5
17458
  8
0
 10
1.152367654636123
 20
0.0684204479599657
 30
0.0
 40
0.125
  1
800.66.TAGUE
  0
ENDBLK
  5
1745A
  8
0
  0
BLOCK
  8
0
  2
*U222
 70
     1
 10
0.0
 20
0.0
 30
0.0
  3
*U222
  1

  0
TEXT
  5
1745C
  8
0
 10
1.6525119768826919
 20
0.6772984067825975
 30
0.0
 40
0.125
  1
Panel Moulding
  0
TEXT
  5
1745D
  8
0
 10
1.6525119768826919
 20
0.468965073449264
 30
0.0
 40
0.125
  1
TL-2074
  0
TEXT
  5
1745E
  8
0
 10
1.6525119768826919
 20
0.2606317401159307
 30
0.0
 40
0.125
  1
1/2" x 17/32"
  0
TEXT
  5
1745F
  8
0
 10
1.6525119768826919
 20
0.0522984067825974
 30
0.0
 40
0.125
  1
800.66.TAGUE
  0
ENDBLK
  5
17461
  8
0
  0
BLOCK
  8
0
  2
*U223
 70
     1
 10
0.0
 20
0.0
 30
0.0
  3
*U223
  1

  0
TEXT
  5
17463
  8
0
 10
1.2174996695814571
 20
0.677298529590189
 30
0.0
 40
0.125
  1
Panel Moulding
  0
TEXT
  5
17464
  8
0
 10
1.2174996695814571
 20
0.4689651962568556
 30
0.0
 40
0.125
  1
TL-2178
  0
TEXT
  5
17465
  8
0
 10
1.2174996695814571
 20
0.2606318629235224
 30
0.0
 40
0.125
  1
5/16" x 11/16"
  0
TEXT
  5
17466
  8
0
 10
1.2174996695814571
 20
0.052298529590189
 30
0.0
 40
0.125
  1
800.66.TAGUE
  0
ENDBLK
  5
17468
  8
0
  0
BLOCK
  8
0
  2
*U224
 70
     1
 10
0.0
 20
0.0
 30
0.0
  3
*U224
  1

  0
TEXT
  5
1746A
  8
0
 10
1.621705506624266
 20
1.0164844833981299
 30
0.0
 40
0.125
  1
Panel Moulding
  0
TEXT
  5
1746B
  8
0
 10
1.621705506624266
 20
0.8081511500647971
 30
0.0
 40
0.125
  1
TL-2237
  0
TEXT
  5
1746C
  8
0
 10
1.621705506624266
 20
0.599817816731464
 30
0.0
 40
0.125
  1
3/4" x 1-1/2"
  0
TEXT
  5
1746D
  8
0
 10
1.621705506624266
 20
0.3914844833981306
 30
0.0
 40
0.125
  1
800.66.TAGUE
  0
ENDBLK
  5
1746F
  8
0
  0
BLOCK
  8
0
  2
*U225
 70
     1
 10
0.0
 20
0.0
 30
0.0
  3
*U225
  1

  0
TEXT
  5
17471
  8
0
 10
2.0683925889327379
 20
1.262249770558469
 30
0.0
 40
0.125
  1
Panel Moulding
  0
TEXT
  5
17472
  8
0
 10
2.0683925889327379
 20
1.0539164372251351
 30
0.0
 40
0.125
  1
TL-2239
  0
TEXT
  5
17473
  8
0
 10
2.0683925889327379
 20
0.8455831038918026
 30
0.0
 40
0.125
  1
27/32" x 1-7/8"
  0
TEXT
  5
17474
  8
0
 10
2.0683925889327379
 20
0.6372497705584692
 30
0.0
 40
0.125
  1
800.66.TAGUE
  0
ENDBLK
  5
17476
  8
0
  0
BLOCK
  8
0
  2
*U226
 70
     1
 10
0.0
 20
0.0
 30
0.0
  3
*U226
  1

  0
TEXT
  5
17478
  8
0
 10
2.746924783524491
 20
2.4371414641403808
 30
0.0
 40
0.125
  1
Panel Moulding
  0
TEXT
  5
17479
  8
0
 10
2.746924783524491
 20
2.2288081308070482
 30
0.0
 40
0.125
  1
TL-2241
  0
TEXT
  5
1747A
  8
0
 10
2.746924783524491
 20
2.0204747974737152
 30
0.0
 40
0.125
  1
1-5/32" x 3-9/16"
  0
TEXT
  5
1747B
  8
0
 10
2.746924783524491
 20
1.812141464140381
 30
0.0
 40
0.125
  1
800.66.TAGUE
  0
ENDBLK
  5
1747D
  8
0
  0
BLOCK
  8
0
  2
*U227
 70
     1
 10
0.0
 20
0.0
 30
0.0
  3
*U227
  1

  0
TEXT
  5
1747F
  8
0
 10
1.48967271797386
 20
1.0711974611003821
 30
0.0
 40
0.125
  1
Panel Moulding
  0
TEXT
  5
17480
  8
0
 10
1.48967271797386
 20
0.8628641277670491
 30
0.0
 40
0.125
  1
TL-2248
  0
TEXT
  5
17481
  8
0
 10
1.48967271797386
 20
0.6545307944337159
 30
0.0
 40
0.125
  1
7/8" x 1-7/8"
  0
TEXT
  5
17482
  8
0
 10
1.48967271797386
 20
0.4461974611003825
 30
0.0
 40
0.125
  1
800.66.TAGUE
  0
ENDBLK
  5
17484
  8
0
  0
BLOCK
  8
0
  2
*U228
 70
     1
 10
0.0
 20
0.0
 30
0.0
  3
*U228
  1

  0
TEXT
  5
17486
  8
0
 10
1.3774554366254961
 20
1.0325907140347681
 30
0.0
 40
0.125
  1
Panel Moulding
  0
TEXT
  5
17487
  8
0
 10
1.3774554366254961
 20
0.8242573807014347
 30
0.0
 40
0.125
  1
TL-2259
  0
TEXT
  5
17488
  8
0
 10
1.3774554366254961
 20
0.6159240473681015
 30
0.0
 40
0.125
  1
1/2" x 1-3/16"
  0
TEXT
  5
17489
  8
0
 10
1.3774554366254961
 20
0.4075907140347681
 30
0.0
 40
0.125
  1
800.66.TAGUE
  0
ENDBLK
  5
1748B
  8
0
  0
BLOCK
  8
0
  2
*U229
 70
     1
 10
0.0
 20
0.0
 30
0.0
  3
*U229
  1

  0
TEXT
  5
1748D
  8
0
 10
1.4427956644998969
 20
1.4622105465398361
 30
0.0
 40
0.125
  1
Panel Moulding
  0
TEXT
  5
1748E
  8
0
 10
1.4427956644998969
 20
1.2538772132065019
 30
0.0
 40
0.125
  1
TL-2260
  0
TEXT
  5
1748F
  8
0
 10
1.4427956644998969
 20
1.0455438798731691
 30
0.0
 40
0.125
  1
1/2" x 1-13/16"
  0
TEXT
  5
17490
  8
0
 10
1.4427956644998969
 20
0.8372105465398362
 30
0.0
 40
0.125
  1
800.66.TAGUE
  0
ENDBLK
  5
17492
  8
0
  0
BLOCK
  8
0
  2
*U230
 70
     1
 10
0.0
 20
0.0
 30
0.0
  3
*U230
  1

  0
TEXT
  5
17494
  8
0
 10
-387.17802110460133
 20
838.89992719373106
 30
0.0
 40
0.125
  1
Panel Moulding
  0
TEXT
  5
17495
  8
0
 10
-387.17802110460133
 20
838.6915938603978
 30
0.0
 40
0.125
  1
TL-2260
  0
TEXT
  5
17496
  8
0
 10
-387.17802110460133
 20
838.48326052706454
 30
0.0
 40
0.125
  1
1/2" x 1-13/16"
  0
TEXT
  5
17497
  8
0
 10
-387.17802110460133
 20
838.27492719373117
 30
0.0
 40
0.125
  1
800.66.TAGUE
  0
ENDBLK
  5
17499
  8
0
  0
ENDSEC
  0
SECTION
  2
ENTITIES
  0
LINE
  5
1718D
  8
0
 10
-388.45647608170401
 20
839.13801681876021
 30
0.0
 11
-388.45647608170401
 21
839.25021667093711
 31
0.0
  0
LINE
  5
1718E
  8
0
 10
-388.45647608170401
 20
839.25021667093711
 30
0.0
 11
-388.62081521913501
 21
839.25021667093711
 31
0.0
  0
LINE
  5
1718F
  8
0
 10
-388.62081521913501
 20
839.25021667093711
 30
0.0
 11
-388.62081521913501
 21
837.43771667093699
 31
0.0
  0
LINE
  5
17190
  8
0
 10
-388.62081521913501
 20
837.43771667093699
 30
0.0
 11
-388.39611963320692
 21
837.43771667093699
 31
0.0
  0
LINE
  5
17191
  8
0
 10
-388.26177669859931
 20
837.62356668314033
 30
0.0
 11
-388.26177669859931
 21
837.69584168928748
 31
0.0
  0
LINE
  5
17192
  8
0
 10
-388.26177669859931
 20
837.69584168928748
 30
0.0
 11
-388.15154661275801
 21
837.69584168928748
 31
0.0
  0
LINE
  5
17193
  8
0
 10
-388.15154661275801
 20
837.69584168928748
 30
0.0
 11
-388.15154661275801
 21
838.17767506360258
 31
0.0
  0
LINE
  5
17194
  8
0
 10
-388.15154661275801
 20
838.17767506360258
 30
0.0
 11
-388.25144263388108
 21
838.17767506360258
 31
0.0
  0
LINE
  5
17195
  8
0
 10
-388.25144263388108
 20
838.17767506360258
 30
0.0
 11
-388.25144263388108
 21
838.22585840103397
 31
0.0
  0
POLYLINE
  8
0
  5
1749A
  66
     1
 10
0.000000
 20
0.000000
 30
0.000000
  70
     8
  0
VERTEX
  8
0
  5
1749B
 10
-388.396
 20
837.438
 30
0.000000
  70
    32
  0
VERTEX
  8
0
  5
1749C
 10
-388.396
 20
837.439
 30
0.000000
  70
    32
  0
VERTEX
  8
0
  5
1749D
 10
-388.396
 20
837.440
 30
0.000000
  70
    32
  0
VERTEX
  8
0
  5
1749E
 10
-388.396
 20
837.441
 30
0.000000
  70
    32
  0
VERTEX
  8
0
  5
1749F
 10
-388.396
 20
837.442
 30
0.000000
  70
    32
  0
VERTEX
  8
0
  5
174A0
 10
-388.396
 20
837.443
 30
0.000000
  70
    32
  0
VERTEX
  8
0
  5
174A1
 10
-388.396
 20
837.445
 30
0.000000
  70
    32
  0
VERTEX
  8
0
  5
174A2
 10
-388.396
 20
837.446
 30
0.000000
  70
    32
  0
VERTEX
  8
0
  5
174A3
 10
-388.396
 20
837.447
 30
0.000000
  70
    32
  0
VERTEX
  8
0
  5
174A4
 10
-388.396
 20
837.448
 30
0.000000
  70
    32
  0
VERTEX
  8
0
  5
174A5
 10
-388.396
 20
837.449
 30
0.000000
  70
    32
  0
VERTEX
  8
0
  5
174A6
 10
-388.396
 20
837.451
 30
0.000000
  70
    32
  0
VERTEX
  8
0
  5
174A7
 10
-388.396
 20
837.452
 30
0.000000
  70
    32
  0
VERTEX
  8
0
  5
174A8
 10
-388.396
 20
837.453
 30
0.000000
  70
    32
  0
VERTEX
  8
0
  5
174A9
 10
-388.396
 20
837.454
 30
0.000000
  70
    32
  0
VERTEX
  8
0
  5
174AA
 10
-388.396
 20
837.455
 30
0.000000
  70
    32
  0
VERTEX
  8
0
  5
174AB
 10
-388.396
 20
837.456
 30
0.000000
  70
    32
  0
VERTEX
  8
0
  5
174AC
 10
-388.396
 20
837.458
 30
0.000000
  70
    32
  0
VERTEX
  8
0
  5
174AD
 10
-388.396
 20
837.459
 30
0.000000
  70
    32
  0
VERTEX
  8
0
  5
174AE
 10
-388.396
 20
837.460
 30
0.000000
  70
    32
  0
VERTEX
  8
0
  5
174AF
 10
-388.396
 20
837.461
 30
0.000000
  70
    32
  0
VERTEX
  8
0
  5
174B0
 10
-388.396
 20
837.462
 30
0.000000
  70
    32
  0
VERTEX
  8
0
  5
174B1
 10
-388.397
 20
837.464
 30
0.000000
  70
    32
  0
VERTEX
  8
0
  5
174B2
 10
-388.397
 20
837.465
 30
0.000000
  70
    32
  0
VERTEX
  8
0
  5
174B3
 10
-388.397
 20
837.466
 30
0.000000
  70
    32
  0
VERTEX
  8
0
  5
174B4
 10
-388.397
 20
837.467
 30
0.000000
  70
    32
  0
VERTEX
  8
0
  5
174B5
 10
-388.397
 20
837.468
 30
0.000000
  70
    32
  0
VERTEX
  8
0
  5
174B6
 10
-388.397
 20
837.469
 30
0.000000
  70
    32
  0
VERTEX
  8
0
  5
174B7
 10
-388.397
 20
837.471
 30
0.000000
  70
    32
  0
VERTEX
  8
0
  5
174B8
 10
-388.397
 20
837.472
 30
0.000000
  70
    32
  0
VERTEX
  8
0
  5
174B9
 10
-388.397
 20
837.473
 30
0.000000
  70
    32
  0
VERTEX
  8
0
  5
174BA
 10
-388.397
 20
837.474
 30
0.000000
  70
    32
  0
VERTEX
  8
0
  5
174BB
 10
-388.397
 20
837.475
 30
0.000000
  70
    32
  0
VERTEX
  8
0
  5
174BC
 10
-388.397
 20
837.477
 30
0.000000
  70
    32
  0
VERTEX
  8
0
  5
174BD
 10
-388.397
 20
837.478
 30
0.000000
  70
    32
  0
VERTEX
  8
0
  5
174BE
 10
-388.397
 20
837.479
 30
0.000000
  70
    32
  0
VERTEX
  8
0
  5
174BF
 10
-388.397
 20
837.480
 30
0.000000
  70
    32
  0
VERTEX
  8
0
  5
174C0
 10
-388.397
 20
837.481
 30
0.000000
  70
    32
  0
VERTEX
  8
0
  5
174C1
 10
-388.397
 20
837.483
 30
0.000000
  70
    32
  0
VERTEX
  8
0
  5
174C2
 10
-388.397
 20
837.484
 30
0.000000
  70
    32
  0
VERTEX
  8
0
  5
174C3
 10
-388.397
 20
837.485
 30
0.000000
  70
    32
  0
VERTEX
  8
0
  5
174C4
 10
-388.397
 20
837.486
 30
0.000000
  70
    32
  0
VERTEX
  8
0
  5
174C5
 10
-388.397
 20
837.487
 30
0.000000
  70
    32
  0
VERTEX
  8
0
  5
174C6
 10
-388.397
 20
837.488
 30
0.000000
  70
    32
  0
VERTEX
  8
0
  5
174C7
 10
-388.397
 20
837.490
 30
0.000000
  70
    32
  0
VERTEX
  8
0
  5
174C8
 10
-388.397
 20
837.491
 30
0.000000
  70
    32
  0
VERTEX
  8
0
  5
174C9
 10
-388.397
 20
837.492
 30
0.000000
  70
    32
  0
VERTEX
  8
0
  5
174CA
 10
-388.397
 20
837.493
 30
0.000000
  70
    32
  0
VERTEX
  8
0
  5
174CB
 10
-388.397
 20
837.494
 30
0.000000
  70
    32
  0
VERTEX
  8
0
  5
174CC
 10
-388.397
 20
837.496
 30
0.000000
  70
    32
  0
VERTEX
  8
0
  5
174CD
 10
-388.397
 20
837.497
 30
0.000000
  70
    32
  0
VERTEX
  8
0
  5
174CE
 10
-388.397
 20
837.498
 30
0.000000
  70
    32
  0
VERTEX
  8
0
  5
174CF
 10
-388.397
 20
837.499
 30
0.000000
  70
    32
  0
VERTEX
  8
0
  5
174D0
 10
-388.396
 20
837.500
 30
0.000000
  70
    32
  0
VERTEX
  8
0
  5
174D1
 10
-388.396
 20
837.501
 30
0.000000
  70
    32
  0
VERTEX
  8
0
  5
174D2
 10
-388.396
 20
837.502
 30
0.000000
  70
    32
  0
VERTEX
  8
0
  5
174D3
 10
-388.396
 20
837.504
 30
0.000000
  70
    32
  0
VERTEX
  8
0
  5
174D4
 10
-388.396
 20
837.505
 30
0.000000
  70
    32
  0
VERTEX
  8
0
  5
174D5
 10
-388.396
 20
837.506
 30
0.000000
  70
    32
  0
VERTEX
  8
0
  5
174D6
 10
-388.396
 20
837.507
 30
0.000000
  70
    32
  0
VERTEX
  8
0
  5
174D7
 10
-388.396
 20
837.508
 30
0.000000
  70
    32
  0
VERTEX
  8
0
  5
174D8
 10
-388.396
 20
837.509
 30
0.000000
  70
    32
  0
VERTEX
  8
0
  5
174D9
 10
-388.395
 20
837.510
 30
0.000000
  70
    32
  0
VERTEX
  8
0
  5
174DA
 10
-388.395
 20
837.512
 30
0.000000
  70
    32
  0
VERTEX
  8
0
  5
174DB
 10
-388.395
 20
837.513
 30
0.000000
  70
    32
  0
VERTEX
  8
0
  5
174DC
 10
-388.395
 20
837.514
 30
0.000000
  70
    32
  0
VERTEX
  8
0
  5
174DD
 10
-388.395
 20
837.515
 30
0.000000
  70
    32
  0
VERTEX
  8
0
  5
174DE
 10
-388.394
 20
837.516
 30
0.000000
  70
    32
  0
VERTEX
  8
0
  5
174DF
 10
-388.394
 20
837.517
 30
0.000000
  70
    32
  0
VERTEX
  8
0
  5
174E0
 10
-388.394
 20
837.518
 30
0.000000
  70
    32
  0
VERTEX
  8
0
  5
174E1
 10
-388.394
 20
837.519
 30
0.000000
  70
    32
  0
VERTEX
  8
0
  5
174E2
 10
-388.394
 20
837.520
 30
0.000000
  70
    32
  0
VERTEX
  8
0
  5
174E3
 10
-388.393
 20
837.521
 30
0.000000
  70
    32
  0
VERTEX
  8
0
  5
174E4
 10
-388.393
 20
837.522
 30
0.000000
  70
    32
  0
VERTEX
  8
0
  5
174E5
 10
-388.393
 20
837.524
 30
0.000000
  70
    32
  0
VERTEX
  8
0
  5
174E6
 10
-388.392
 20
837.525
 30
0.000000
  70
    32
  0
VERTEX
  8
0
  5
174E7
 10
-388.392
 20
837.526
 30
0.000000
  70
    32
  0
VERTEX
  8
0
  5
174E8
 10
-388.392
 20
837.527
 30
0.000000
  70
    32
  0
VERTEX
  8
0
  5
174E9
 10
-388.391
 20
837.528
 30
0.000000
  70
    32
  0
VERTEX
  8
0
  5
174EA
 10
-388.391
 20
837.529
 30
0.000000
  70
    32
  0
VERTEX
  8
0
  5
174EB
 10
-388.391
 20
837.530
 30
0.000000
  70
    32
  0
VERTEX
  8
0
  5
174EC
 10
-388.390
 20
837.531
 30
0.000000
  70
    32
  0
VERTEX
  8
0
  5
174ED
 10
-388.390
 20
837.532
 30
0.000000
  70
    32
  0
VERTEX
  8
0
  5
174EE
 10
-388.389
 20
837.533
 30
0.000000
  70
    32
  0
VERTEX
  8
0
  5
174EF
 10
-388.389
 20
837.534
 30
0.000000
  70
    32
  0
VERTEX
  8
0
  5
174F0
 10
-388.389
 20
837.535
 30
0.000000
  70
    32
  0
VERTEX
  8
0
  5
174F1
 10
-388.388
 20
837.536
 30
0.000000
  70
    32
  0
VERTEX
  8
0
  5
174F2
 10
-388.388
 20
837.537
 30
0.000000
  70
    32
  0
VERTEX
  8
0
  5
174F3
 10
-388.387
 20
837.538
 30
0.000000
  70
    32
  0
VERTEX
  8
0
  5
174F4
 10
-388.387
 20
837.539
 30
0.000000
  70
    32
  0
VERTEX
  8
0
  5
174F5
 10
-388.386
 20
837.540
 30
0.000000
  70
    32
  0
VERTEX
  8
0
  5
174F6
 10
-388.386
 20
837.541
 30
0.000000
  70
    32
  0
VERTEX
  8
0
  5
174F7
 10
-388.385
 20
837.542
 30
0.000000
  70
    32
  0
VERTEX
  8
0
  5
174F8
 10
-388.384
 20
837.543
 30
0.000000
  70
    32
  0
VERTEX
  8
0
  5
174F9
 10
-388.384
 20
837.544
 30
0.000000
  70
    32
  0
VERTEX
  8
0
  5
174FA
 10
-388.383
 20
837.545
 30
0.000000
  70
    32
  0
VERTEX
  8
0
  5
174FB
 10
-388.383
 20
837.546
 30
0.000000
  70
    32
  0
VERTEX
  8
0
  5
174FC
 10
-388.382
 20
837.546
 30
0.000000
  70
    32
  0
VERTEX
  8
0
  5
174FD
 10
-388.381
 20
837.547
 30
0.000000
  70
    32
  0
VERTEX
  8
0
  5
174FE
 10
-388.381
 20
837.548
 30
0.000000
  70
    32
  0
VERTEX
  8
0
  5
174FF
 10
-388.380
 20
837.549
 30
0.000000
  70
    32
  0
VERTEX
  8
0
  5
17500
 10
-388.379
 20
837.550
 30
0.000000
  70
    32
  0
VERTEX
  8
0
  5
17501
 10
-388.379
 20
837.551
 30
0.000000
  70
    32
  0
VERTEX
  8
0
  5
17502
 10
-388.378
 20
837.552
 30
0.000000
  70
    32
  0
VERTEX
  8
0
  5
17503
 10
-388.377
 20
837.553
 30
0.000000
  70
    32
  0
VERTEX
  8
0
  5
17504
 10
-388.377
 20
837.554
 30
0.000000
  70
    32
  0
VERTEX
  8
0
  5
17505
 10
-388.376
 20
837.555
 30
0.000000
  70
    32
  0
VERTEX
  8
0
  5
17506
 10
-388.375
 20
837.555
 30
0.000000
  70
    32
  0
VERTEX
  8
0
  5
17507
 10
-388.374
 20
837.556
 30
0.000000
  70
    32
  0
VERTEX
  8
0
  5
17508
 10
-388.374
 20
837.557
 30
0.000000
  70
    32
  0
VERTEX
  8
0
  5
17509
 10
-388.373
 20
837.558
 30
0.000000
  70
    32
  0
VERTEX
  8
0
  5
1750A
 10
-388.372
 20
837.559
 30
0.000000
  70
    32
  0
VERTEX
  8
0
  5
1750B
 10
-388.371
 20
837.560
 30
0.000000
  70
    32
  0
VERTEX
  8
0
  5
1750C
 10
-388.371
 20
837.561
 30
0.000000
  70
    32
  0
VERTEX
  8
0
  5
1750D
 10
-388.370
 20
837.561
 30
0.000000
  70
    32
  0
VERTEX
  8
0
  5
1750E
 10
-388.369
 20
837.562
 30
0.000000
  70
    32
  0
VERTEX
  8
0
  5
1750F
 10
-388.368
 20
837.563
 30
0.000000
  70
    32
  0
VERTEX
  8
0
  5
17510
 10
-388.367
 20
837.564
 30
0.000000
  70
    32
  0
VERTEX
  8
0
  5
17511
 10
-388.366
 20
837.565
 30
0.000000
  70
    32
  0
VERTEX
  8
0
  5
17512
 10
-388.366
 20
837.566
 30
0.000000
  70
    32
  0
VERTEX
  8
0
  5
17513
 10
-388.365
 20
837.566
 30
0.000000
  70
    32
  0
VERTEX
  8
0
  5
17514
 10
-388.364
 20
837.567
 30
0.000000
  70
    32
  0
VERTEX
  8
0
  5
17515
 10
-388.363
 20
837.568
 30
0.000000
  70
    32
  0
VERTEX
  8
0
  5
17516
 10
-388.362
 20
837.569
 30
0.000000
  70
    32
  0
VERTEX
  8
0
  5
17517
 10
-388.361
 20
837.570
 30
0.000000
  70
    32
  0
VERTEX
  8
0
  5
17518
 10
-388.360
 20
837.570
 30
0.000000
  70
    32
  0
VERTEX
  8
0
  5
17519
 10
-388.360
 20
837.571
 30
0.000000
  70
    32
  0
VERTEX
  8
0
  5
1751A
 10
-388.359
 20
837.572
 30
0.000000
  70
    32
  0
VERTEX
  8
0
  5
1751B
 10
-388.358
 20
837.573
 30
0.000000
  70
    32
  0
VERTEX
  8
0
  5
1751C
 10
-388.357
 20
837.573
 30
0.000000
  70
    32
  0
VERTEX
  8
0
  5
1751D
 10
-388.356
 20
837.574
 30
0.000000
  70
    32
  0
VERTEX
  8
0
  5
1751E
 10
-388.355
 20
837.575
 30
0.000000
  70
    32
  0
VERTEX
  8
0
  5
1751F
 10
-388.354
 20
837.576
 30
0.000000
  70
    32
  0
VERTEX
  8
0
  5
17520
 10
-388.353
 20
837.576
 30
0.000000
  70
    32
  0
VERTEX
  8
0
  5
17521
 10
-388.352
 20
837.577
 30
0.000000
  70
    32
  0
VERTEX
  8
0
  5
17522
 10
-388.351
 20
837.578
 30
0.000000
  70
    32
  0
VERTEX
  8
0
  5
17523
 10
-388.350
 20
837.579
 30
0.000000
  70
    32
  0
VERTEX
  8
0
  5
17524
 10
-388.349
 20
837.579
 30
0.000000
  70
    32
  0
VERTEX
  8
0
  5
17525
 10
-388.349
 20
837.580
 30
0.000000
  70
    32
  0
VERTEX
  8
0
  5
17526
 10
-388.348
 20
837.581
 30
0.000000
  70
    32
  0
VERTEX
  8
0
  5
17527
 10
-388.347
 20
837.582
 30
0.000000
  70
    32
  0
VERTEX
  8
0
  5
17528
 10
-388.346
 20
837.582
 30
0.000000
  70
    32
  0
VERTEX
  8
0
  5
17529
 10
-388.345
 20
837.583
 30
0.000000
  70
    32
  0
VERTEX
  8
0
  5
1752A
 10
-388.344
 20
837.584
 30
0.000000
  70
    32
  0
VERTEX
  8
0
  5
1752B
 10
-388.343
 20
837.585
 30
0.000000
  70
    32
  0
VERTEX
  8
0
  5
1752C
 10
-388.342
 20
837.585
 30
0.000000
  70
    32
  0
VERTEX
  8
0
  5
1752D
 10
-388.341
 20
837.586
 30
0.000000
  70
    32
  0
VERTEX
  8
0
  5
1752E
 10
-388.340
 20
837.587
 30
0.000000
  70
    32
  0
VERTEX
  8
0
  5
1752F
 10
-388.339
 20
837.587
 30
0.000000
  70
    32
  0
VERTEX
  8
0
  5
17530
 10
-388.338
 20
837.588
 30
0.000000
  70
    32
  0
VERTEX
  8
0
  5
17531
 10
-388.337
 20
837.589
 30
0.000000
  70
    32
  0
VERTEX
  8
0
  5
17532
 10
-388.336
 20
837.590
 30
0.000000
  70
    32
  0
VERTEX
  8
0
  5
17533
 10
-388.335
 20
837.590
 30
0.000000
  70
    32
  0
VERTEX
  8
0
  5
17534
 10
-388.334
 20
837.591
 30
0.000000
  70
    32
  0
VERTEX
  8
0
  5
17535
 10
-388.333
 20
837.592
 30
0.000000
  70
    32
  0
VERTEX
  8
0
  5
17536
 10
-388.332
 20
837.592
 30
0.000000
  70
    32
  0
VERTEX
  8
0
  5
17537
 10
-388.331
 20
837.593
 30
0.000000
  70
    32
  0
VERTEX
  8
0
  5
17538
 10
-388.330
 20
837.594
 30
0.000000
  70
    32
  0
VERTEX
  8
0
  5
17539
 10
-388.330
 20
837.594
 30
0.000000
  70
    32
  0
VERTEX
  8
0
  5
1753A
 10
-388.329
 20
837.595
 30
0.000000
  70
    32
  0
VERTEX
  8
0
  5
1753B
 10
-388.328
 20
837.596
 30
0.000000
  70
    32
  0
VERTEX
  8
0
  5
1753C
 10
-388.327
 20
837.597
 30
0.000000
  70
    32
  0
VERTEX
  8
0
  5
1753D
 10
-388.326
 20
837.597
 30
0.000000
  70
    32
  0
VERTEX
  8
0
  5
1753E
 10
-388.325
 20
837.598
 30
0.000000
  70
    32
  0
VERTEX
  8
0
  5
1753F
 10
-388.324
 20
837.599
 30
0.000000
  70
    32
  0
VERTEX
  8
0
  5
17540
 10
-388.323
 20
837.599
 30
0.000000
  70
    32
  0
VERTEX
  8
0
  5
17541
 10
-388.322
 20
837.600
 30
0.000000
  70
    32
  0
VERTEX
  8
0
  5
17542
 10
-388.321
 20
837.600
 30
0.000000
  70
    32
  0
VERTEX
  8
0
  5
17543
 10
-388.320
 20
837.601
 30
0.000000
  70
    32
  0
VERTEX
  8
0
  5
17544
 10
-388.319
 20
837.602
 30
0.000000
  70
    32
  0
VERTEX
  8
0
  5
17545
 10
-388.318
 20
837.602
 30
0.000000
  70
    32
  0
VERTEX
  8
0
  5
17546
 10
-388.317
 20
837.603
 30
0.000000
  70
    32
  0
VERTEX
  8
0
  5
17547
 10
-388.316
 20
837.604
 30
0.000000
  70
    32
  0
VERTEX
  8
0
  5
17548
 10
-388.315
 20
837.604
 30
0.000000
  70
    32
  0
VERTEX
  8
0
  5
17549
 10
-388.314
 20
837.605
 30
0.000000
  70
    32
  0
VERTEX
  8
0
  5
1754A
 10
-388.313
 20
837.605
 30
0.000000
  70
    32
  0
VERTEX
  8
0
  5
1754B
 10
-388.312
 20
837.606
 30
0.000000
  70
    32
  0
VERTEX
  8
0
  5
1754C
 10
-388.311
 20
837.607
 30
0.000000
  70
    32
  0
VERTEX
  8
0
  5
1754D
 10
-388.310
 20
837.607
 30
0.000000
  70
    32
  0
VERTEX
  8
0
  5
1754E
 10
-388.309
 20
837.608
 30
0.000000
  70
    32
  0
VERTEX
  8
0
  5
1754F
 10
-388.308
 20
837.608
 30
0.000000
  70
    32
  0
VERTEX
  8
0
  5
17550
 10
-388.307
 20
837.609
 30
0.000000
  70
    32
  0
VERTEX
  8
0
  5
17551
 10
-388.306
 20
837.609
 30
0.000000
  70
    32
  0
VERTEX
  8
0
  5
17552
 10
-388.305
 20
837.610
 30
0.000000
  70
    32
  0
VERTEX
  8
0
  5
17553
 10
-388.304
 20
837.611
 30
0.000000
  70
    32
  0
VERTEX
  8
0
  5
17554
 10
-388.303
 20
837.611
 30
0.000000
  70
    32
  0
VERTEX
  8
0
  5
17555
 10
-388.302
 20
837.612
 30
0.000000
  70
    32
  0
VERTEX
  8
0
  5
17556
 10
-388.301
 20
837.612
 30
0.000000
  70
    32
  0
VERTEX
  8
0
  5
17557
 10
-388.300
 20
837.613
 30
0.000000
  70
    32
  0
VERTEX
  8
0
  5
17558
 10
-388.299
 20
837.613
 30
0.000000
  70
    32
  0
VERTEX
  8
0
  5
17559
 10
-388.298
 20
837.613
 30
0.000000
  70
    32
  0
VERTEX
  8
0
  5
1755A
 10
-388.297
 20
837.614
 30
0.000000
  70
    32
  0
VERTEX
  8
0
  5
1755B
 10
-388.296
 20
837.614
 30
0.000000
  70
    32
  0
VERTEX
  8
0
  5
1755C
 10
-388.295
 20
837.615
 30
0.000000
  70
    32
  0
VERTEX
  8
0
  5
1755D
 10
-388.294
 20
837.615
 30
0.000000
  70
    32
  0
VERTEX
  8
0
  5
1755E
 10
-388.293
 20
837.616
 30
0.000000
  70
    32
  0
VERTEX
  8
0
  5
1755F
 10
-388.292
 20
837.616
 30
0.000000
  70
    32
  0
VERTEX
  8
0
  5
17560
 10
-388.291
 20
837.616
 30
0.000000
  70
    32
  0
VERTEX
  8
0
  5
17561
 10
-388.290
 20
837.617
 30
0.000000
  70
    32
  0
VERTEX
  8
0
  5
17562
 10
-388.289
 20
837.617
 30
0.000000
  70
    32
  0
VERTEX
  8
0
  5
17563
 10
-388.288
 20
837.618
 30
0.000000
  70
    32
  0
VERTEX
  8
0
  5
17564
 10
-388.286
 20
837.618
 30
0.000000
  70
    32
  0
VERTEX
  8
0
  5
17565
 10
-388.285
 20
837.618
 30
0.000000
  70
    32
  0
VERTEX
  8
0
  5
17566
 10
-388.284
 20
837.619
 30
0.000000
  70
    32
  0
VERTEX
  8
0
  5
17567
 10
-388.283
 20
837.619
 30
0.000000
  70
    32
  0
VERTEX
  8
0
  5
17568
 10
-388.282
 20
837.619
 30
0.000000
  70
    32
  0
VERTEX
  8
0
  5
17569
 10
-388.281
 20
837.620
 30
0.000000
  70
    32
  0
VERTEX
  8
0
  5
1756A
 10
-388.280
 20
837.620
 30
0.000000
  70
    32
  0
VERTEX
  8
0
  5
1756B
 10
-388.279
 20
837.620
 30
0.000000
  70
    32
  0
VERTEX
  8
0
  5
1756C
 10
-388.278
 20
837.620
 30
0.000000
  70
    32
  0
VERTEX
  8
0
  5
1756D
 10
-388.276
 20
837.621
 30
0.000000
  70
    32
  0
VERTEX
  8
0
  5
1756E
 10
-388.275
 20
837.621
 30
0.000000
  70
    32
  0
VERTEX
  8
0
  5
1756F
 10
-388.274
 20
837.621
 30
0.000000
  70
    32
  0
VERTEX
  8
0
  5
17570
 10
-388.273
 20
837.622
 30
0.000000
  70
    32
  0
VERTEX
  8
0
  5
17571
 10
-388.272
 20
837.622
 30
0.000000
  70
    32
  0
VERTEX
  8
0
  5
17572
 10
-388.271
 20
837.622
 30
0.000000
  70
    32
  0
VERTEX
  8
0
  5
17573
 10
-388.270
 20
837.622
 30
0.000000
  70
    32
  0
VERTEX
  8
0
  5
17574
 10
-388.269
 20
837.622
 30
0.000000
  70
    32
  0
VERTEX
  8
0
  5
17575
 10
-388.267
 20
837.623
 30
0.000000
  70
    32
  0
VERTEX
  8
0
  5
17576
 10
-388.266
 20
837.623
 30
0.000000
  70
    32
  0
VERTEX
  8
0
  5
17577
 10
-388.265
 20
837.623
 30
0.000000
  70
    32
  0
VERTEX
  8
0
  5
17578
 10
-388.264
 20
837.623
 30
0.000000
  70
    32
  0
VERTEX
  8
0
  5
17579
 10
-388.263
 20
837.623
 30
0.000000
  70
    32
  0
VERTEX
  8
0
  5
1757A
 10
-388.262
 20
837.624
 30
0.000000
  70
    32
  0
SEQEND
  8
0
  5
1757B
  0
POLYLINE
  8
0
  5
1757C
  66
     1
 10
0.000000
 20
0.000000
 30
0.000000
  70
     8
  0
VERTEX
  8
0
  5
1757D
 10
-388.251
 20
838.226
 30
0.000000
  70
    32
  0
VERTEX
  8
0
  5
1757E
 10
-388.253
 20
838.228
 30
0.000000
  70
    32
  0
VERTEX
  8
0
  5
1757F
 10
-388.255
 20
838.230
 30
0.000000
  70
    32
  0
VERTEX
  8
0
  5
17580
 10
-388.257
 20
838.232
 30
0.000000
  70
    32
  0
VERTEX
  8
0
  5
17581
 10
-388.258
 20
838.234
 30
0.000000
  70
    32
  0
VERTEX
  8
0
  5
17582
 10
-388.260
 20
838.236
 30
0.000000
  70
    32
  0
VERTEX
  8
0
  5
17583
 10
-388.262
 20
838.238
 30
0.000000
  70
    32
  0
VERTEX
  8
0
  5
17584
 10
-388.263
 20
838.240
 30
0.000000
  70
    32
  0
VERTEX
  8
0
  5
17585
 10
-388.265
 20
838.242
 30
0.000000
  70
    32
  0
VERTEX
  8
0
  5
17586
 10
-388.267
 20
838.244
 30
0.000000
  70
    32
  0
VERTEX
  8
0
  5
17587
 10
-388.268
 20
838.247
 30
0.000000
  70
    32
  0
VERTEX
  8
0
  5
17588
 10
-388.270
 20
838.249
 30
0.000000
  70
    32
  0
VERTEX
  8
0
  5
17589
 10
-388.272
 20
838.251
 30
0.000000
  70
    32
  0
VERTEX
  8
0
  5
1758A
 10
-388.273
 20
838.253
 30
0.000000
  70
    32
  0
VERTEX
  8
0
  5
1758B
 10
-388.275
 20
838.255
 30
0.000000
  70
    32
  0
VERTEX
  8
0
  5
1758C
 10
-388.276
 20
838.257
 30
0.000000
  70
    32
  0
VERTEX
  8
0
  5
1758D
 10
-388.278
 20
838.259
 30
0.000000
  70
    32
  0
VERTEX
  8
0
  5
1758E
 10
-388.280
 20
838.261
 30
0.000000
  70
    32
  0
VERTEX
  8
0
  5
1758F
 10
-388.281
 20
838.264
 30
0.000000
  70
    32
  0
VERTEX
  8
0
  5
17590
 10
-388.283
 20
838.266
 30
0.000000
  70
    32
  0
VERTEX
  8
0
  5
17591
 10
-388.284
 20
838.268
 30
0.000000
  70
    32
  0
VERTEX
  8
0
  5
17592
 10
-388.286
 20
838.270
 30
0.000000
  70
    32
  0
VERTEX
  8
0
  5
17593
 10
-388.287
 20
838.272
 30
0.000000
  70
    32
  0
VERTEX
  8
0
  5
17594
 10
-388.289
 20
838.275
 30
0.000000
  70
    32
  0
VERTEX
  8
0
  5
17595
 10
-388.290
 20
838.277
 30
0.000000
  70
    32
  0
VERTEX
  8
0
  5
17596
 10
-388.292
 20
838.279
 30
0.000000
  70
    32
  0
VERTEX
  8
0
  5
17597
 10
-388.293
 20
838.281
 30
0.000000
  70
    32
  0
VERTEX
  8
0
  5
17598
 10
-388.295
 20
838.283
 30
0.000000
  70
    32
  0
VERTEX
  8
0
  5
17599
 10
-388.296
 20
838.286
 30
0.000000
  70
    32
  0
VERTEX
  8
0
  5
1759A
 10
-388.298
 20
838.288
 30
0.000000
  70
    32
  0
VERTEX
  8
0
  5
1759B
 10
-388.299
 20
838.290
 30
0.000000
  70
    32
  0
VERTEX
  8
0
  5
1759C
 10
-388.301
 20
838.292
 30
0.000000
  70
    32
  0
VERTEX
  8
0
  5
1759D
 10
-388.302
 20
838.294
 30
0.000000
  70
    32
  0
VERTEX
  8
0
  5
1759E
 10
-388.304
 20
838.297
 30
0.000000
  70
    32
  0
VERTEX
  8
0
  5
1759F
 10
-388.305
 20
838.299
 30
0.000000
  70
    32
  0
VERTEX
  8
0
  5
175A0
 10
-388.307
 20
838.301
 30
0.000000
  70
    32
  0
VERTEX
  8
0
  5
175A1
 10
-388.308
 20
838.304
 30
0.000000
  70
    32
  0
VERTEX
  8
0
  5
175A2
 10
-388.309
 20
838.306
 30
0.000000
  70
    32
  0
VERTEX
  8
0
  5
175A3
 10
-388.311
 20
838.308
 30
0.000000
  70
    32
  0
VERTEX
  8
0
  5
175A4
 10
-388.312
 20
838.310
 30
0.000000
  70
    32
  0
VERTEX
  8
0
  5
175A5
 10
-388.314
 20
838.313
 30
0.000000
  70
    32
  0
VERTEX
  8
0
  5
175A6
 10
-388.315
 20
838.315
 30
0.000000
  70
    32
  0
VERTEX
  8
0
  5
175A7
 10
-388.316
 20
838.317
 30
0.000000
  70
    32
  0
VERTEX
  8
0
  5
175A8
 10
-388.318
 20
838.320
 30
0.000000
  70
    32
  0
VERTEX
  8
0
  5
175A9
 10
-388.319
 20
838.322
 30
0.000000
  70
    32
  0
VERTEX
  8
0
  5
175AA
 10
-388.320
 20
838.324
 30
0.000000
  70
    32
  0
VERTEX
  8
0
  5
175AB
 10
-388.322
 20
838.327
 30
0.000000
  70
    32
  0
VERTEX
  8
0
  5
175AC
 10
-388.323
 20
838.329
 30
0.000000
  70
    32
  0
VERTEX
  8
0
  5
175AD
 10
-388.324
 20
838.331
 30
0.000000
  70
    32
  0
VERTEX
  8
0
  5
175AE
 10
-388.325
 20
838.334
 30
0.000000
  70
    32
  0
VERTEX
  8
0
  5
175AF
 10
-388.327
 20
838.336
 30
0.000000
  70
    32
  0
VERTEX
  8
0
  5
175B0
 10
-388.328
 20
838.338
 30
0.000000
  70
    32
  0
VERTEX
  8
0
  5
175B1
 10
-388.329
 20
838.341
 30
0.000000
  70
    32
  0
VERTEX
  8
0
  5
175B2
 10
-388.330
 20
838.343
 30
0.000000
  70
    32
  0
VERTEX
  8
0
  5
175B3
 10
-388.332
 20
838.345
 30
0.000000
  70
    32
  0
VERTEX
  8
0
  5
175B4
 10
-388.333
 20
838.348
 30
0.000000
  70
    32
  0
VERTEX
  8
0
  5
175B5
 10
-388.334
 20
838.350
 30
0.000000
  70
    32
  0
VERTEX
  8
0
  5
175B6
 10
-388.335
 20
838.353
 30
0.000000
  70
    32
  0
VERTEX
  8
0
  5
175B7
 10
-388.336
 20
838.355
 30
0.000000
  70
    32
  0
VERTEX
  8
0
  5
175B8
 10
-388.337
 20
838.357
 30
0.000000
  70
    32
  0
VERTEX
  8
0
  5
175B9
 10
-388.339
 20
838.360
 30
0.000000
  70
    32
  0
VERTEX
  8
0
  5
175BA
 10
-388.340
 20
838.362
 30
0.000000
  70
    32
  0
VERTEX
  8
0
  5
175BB
 10
-388.341
 20
838.365
 30
0.000000
  70
    32
  0
VERTEX
  8
0
  5
175BC
 10
-388.342
 20
838.367
 30
0.000000
  70
    32
  0
VERTEX
  8
0
  5
175BD
 10
-388.343
 20
838.369
 30
0.000000
  70
    32
  0
VERTEX
  8
0
  5
175BE
 10
-388.344
 20
838.372
 30
0.000000
  70
    32
  0
VERTEX
  8
0
  5
175BF
 10
-388.345
 20
838.374
 30
0.000000
  70
    32
  0
VERTEX
  8
0
  5
175C0
 10
-388.346
 20
838.377
 30
0.000000
  70
    32
  0
VERTEX
  8
0
  5
175C1
 10
-388.347
 20
838.379
 30
0.000000
  70
    32
  0
VERTEX
  8
0
  5
175C2
 10
-388.348
 20
838.382
 30
0.000000
  70
    32
  0
VERTEX
  8
0
  5
175C3
 10
-388.349
 20
838.384
 30
0.000000
  70
    32
  0
VERTEX
  8
0
  5
175C4
 10
-388.350
 20
838.387
 30
0.000000
  70
    32
  0
VERTEX
  8
0
  5
175C5
 10
-388.351
 20
838.389
 30
0.000000
  70
    32
  0
VERTEX
  8
0
  5
175C6
 10
-388.352
 20
838.392
 30
0.000000
  70
    32
  0
VERTEX
  8
0
  5
175C7
 10
-388.353
 20
838.394
 30
0.000000
  70
    32
  0
VERTEX
  8
0
  5
175C8
 10
-388.354
 20
838.397
 30
0.000000
  70
    32
  0
VERTEX
  8
0
  5
175C9
 10
-388.355
 20
838.399
 30
0.000000
  70
    32
  0
VERTEX
  8
0
  5
175CA
 10
-388.356
 20
838.402
 30
0.000000
  70
    32
  0
VERTEX
  8
0
  5
175CB
 10
-388.357
 20
838.404
 30
0.000000
  70
    32
  0
VERTEX
  8
0
  5
175CC
 10
-388.358
 20
838.407
 30
0.000000
  70
    32
  0
VERTEX
  8
0
  5
175CD
 10
-388.359
 20
838.409
 30
0.000000
  70
    32
  0
VERTEX
  8
0
  5
175CE
 10
-388.360
 20
838.412
 30
0.000000
  70
    32
  0
VERTEX
  8
0
  5
175CF
 10
-388.361
 20
838.414
 30
0.000000
  70
    32
  0
VERTEX
  8
0
  5
175D0
 10
-388.362
 20
838.417
 30
0.000000
  70
    32
  0
VERTEX
  8
0
  5
175D1
 10
-388.362
 20
838.419
 30
0.000000
  70
    32
  0
VERTEX
  8
0
  5
175D2
 10
-388.363
 20
838.422
 30
0.000000
  70
    32
  0
VERTEX
  8
0
  5
175D3
 10
-388.364
 20
838.424
 30
0.000000
  70
    32
  0
VERTEX
  8
0
  5
175D4
 10
-388.365
 20
838.427
 30
0.000000
  70
    32
  0
VERTEX
  8
0
  5
175D5
 10
-388.366
 20
838.429
 30
0.000000
  70
    32
  0
VERTEX
  8
0
  5
175D6
 10
-388.367
 20
838.432
 30
0.000000
  70
    32
  0
VERTEX
  8
0
  5
175D7
 10
-388.368
 20
838.434
 30
0.000000
  70
    32
  0
VERTEX
  8
0
  5
175D8
 10
-388.368
 20
838.437
 30
0.000000
  70
    32
  0
VERTEX
  8
0
  5
175D9
 10
-388.369
 20
838.439
 30
0.000000
  70
    32
  0
VERTEX
  8
0
  5
175DA
 10
-388.370
 20
838.442
 30
0.000000
  70
    32
  0
VERTEX
  8
0
  5
175DB
 10
-388.371
 20
838.444
 30
0.000000
  70
    32
  0
VERTEX
  8
0
  5
175DC
 10
-388.372
 20
838.447
 30
0.000000
  70
    32
  0
VERTEX
  8
0
  5
175DD
 10
-388.372
 20
838.450
 30
0.000000
  70
    32
  0
VERTEX
  8
0
  5
175DE
 10
-388.373
 20
838.452
 30
0.000000
  70
    32
  0
VERTEX
  8
0
  5
175DF
 10
-388.374
 20
838.455
 30
0.000000
  70
    32
  0
VERTEX
  8
0
  5
175E0
 10
-388.375
 20
838.457
 30
0.000000
  70
    32
  0
VERTEX
  8
0
  5
175E1
 10
-388.375
 20
838.460
 30
0.000000
  70
    32
  0
VERTEX
  8
0
  5
175E2
 10
-388.376
 20
838.462
 30
0.000000
  70
    32
  0
VERTEX
  8
0
  5
175E3
 10
-388.377
 20
838.465
 30
0.000000
  70
    32
  0
VERTEX
  8
0
  5
175E4
 10
-388.378
 20
838.468
 30
0.000000
  70
    32
  0
VERTEX
  8
0
  5
175E5
 10
-388.378
 20
838.470
 30
0.000000
  70
    32
  0
VERTEX
  8
0
  5
175E6
 10
-388.379
 20
838.473
 30
0.000000
  70
    32
  0
VERTEX
  8
0
  5
175E7
 10
-388.380
 20
838.475
 30
0.000000
  70
    32
  0
VERTEX
  8
0
  5
175E8
 10
-388.380
 20
838.478
 30
0.000000
  70
    32
  0
VERTEX
  8
0
  5
175E9
 10
-388.381
 20
838.481
 30
0.000000
  70
    32
  0
VERTEX
  8
0
  5
175EA
 10
-388.382
 20
838.483
 30
0.000000
  70
    32
  0
VERTEX
  8
0
  5
175EB
 10
-388.382
 20
838.486
 30
0.000000
  70
    32
  0
VERTEX
  8
0
  5
175EC
 10
-388.383
 20
838.488
 30
0.000000
  70
    32
  0
VERTEX
  8
0
  5
175ED
 10
-388.384
 20
838.491
 30
0.000000
  70
    32
  0
VERTEX
  8
0
  5
175EE
 10
-388.384
 20
838.493
 30
0.000000
  70
    32
  0
VERTEX
  8
0
  5
175EF
 10
-388.385
 20
838.496
 30
0.000000
  70
    32
  0
VERTEX
  8
0
  5
175F0
 10
-388.386
 20
838.499
 30
0.000000
  70
    32
  0
VERTEX
  8
0
  5
175F1
 10
-388.386
 20
838.501
 30
0.000000
  70
    32
  0
VERTEX
  8
0
  5
175F2
 10
-388.387
 20
838.504
 30
0.000000
  70
    32
  0
VERTEX
  8
0
  5
175F3
 10
-388.388
 20
838.506
 30
0.000000
  70
    32
  0
VERTEX
  8
0
  5
175F4
 10
-388.388
 20
838.509
 30
0.000000
  70
    32
  0
VERTEX
  8
0
  5
175F5
 10
-388.389
 20
838.512
 30
0.000000
  70
    32
  0
VERTEX
  8
0
  5
175F6
 10
-388.389
 20
838.514
 30
0.000000
  70
    32
  0
VERTEX
  8
0
  5
175F7
 10
-388.390
 20
838.517
 30
0.000000
  70
    32
  0
VERTEX
  8
0
  5
175F8
 10
-388.391
 20
838.519
 30
0.000000
  70
    32
  0
VERTEX
  8
0
  5
175F9
 10
-388.391
 20
838.522
 30
0.000000
  70
    32
  0
VERTEX
  8
0
  5
175FA
 10
-388.392
 20
838.525
 30
0.000000
  70
    32
  0
VERTEX
  8
0
  5
175FB
 10
-388.392
 20
838.527
 30
0.000000
  70
    32
  0
VERTEX
  8
0
  5
175FC
 10
-388.393
 20
838.530
 30
0.000000
  70
    32
  0
VERTEX
  8
0
  5
175FD
 10
-388.393
 20
838.533
 30
0.000000
  70
    32
  0
VERTEX
  8
0
  5
175FE
 10
-388.394
 20
838.535
 30
0.000000
  70
    32
  0
VERTEX
  8
0
  5
175FF
 10
-388.395
 20
838.538
 30
0.000000
  70
    32
  0
VERTEX
  8
0
  5
17600
 10
-388.395
 20
838.540
 30
0.000000
  70
    32
  0
VERTEX
  8
0
  5
17601
 10
-388.396
 20
838.543
 30
0.000000
  70
    32
  0
VERTEX
  8
0
  5
17602
 10
-388.396
 20
838.546
 30
0.000000
  70
    32
  0
VERTEX
  8
0
  5
17603
 10
-388.397
 20
838.548
 30
0.000000
  70
    32
  0
VERTEX
  8
0
  5
17604
 10
-388.397
 20
838.551
 30
0.000000
  70
    32
  0
VERTEX
  8
0
  5
17605
 10
-388.398
 20
838.553
 30
0.000000
  70
    32
  0
VERTEX
  8
0
  5
17606
 10
-388.398
 20
838.556
 30
0.000000
  70
    32
  0
VERTEX
  8
0
  5
17607
 10
-388.399
 20
838.559
 30
0.000000
  70
    32
  0
VERTEX
  8
0
  5
17608
 10
-388.399
 20
838.561
 30
0.000000
  70
    32
  0
VERTEX
  8
0
  5
17609
 10
-388.400
 20
838.564
 30
0.000000
  70
    32
  0
VERTEX
  8
0
  5
1760A
 10
-388.400
 20
838.567
 30
0.000000
  70
    32
  0
VERTEX
  8
0
  5
1760B
 10
-388.401
 20
838.569
 30
0.000000
  70
    32
  0
VERTEX
  8
0
  5
1760C
 10
-388.401
 20
838.572
 30
0.000000
  70
    32
  0
VERTEX
  8
0
  5
1760D
 10
-388.402
 20
838.574
 30
0.000000
  70
    32
  0
VERTEX
  8
0
  5
1760E
 10
-388.402
 20
838.577
 30
0.000000
  70
    32
  0
VERTEX
  8
0
  5
1760F
 10
-388.402
 20
838.580
 30
0.000000
  70
    32
  0
VERTEX
  8
0
  5
17610
 10
-388.403
 20
838.582
 30
0.000000
  70
    32
  0
VERTEX
  8
0
  5
17611
 10
-388.403
 20
838.585
 30
0.000000
  70
    32
  0
VERTEX
  8
0
  5
17612
 10
-388.404
 20
838.588
 30
0.000000
  70
    32
  0
VERTEX
  8
0
  5
17613
 10
-388.404
 20
838.590
 30
0.000000
  70
    32
  0
VERTEX
  8
0
  5
17614
 10
-388.405
 20
838.593
 30
0.000000
  70
    32
  0
VERTEX
  8
0
  5
17615
 10
-388.405
 20
838.596
 30
0.000000
  70
    32
  0
VERTEX
  8
0
  5
17616
 10
-388.406
 20
838.598
 30
0.000000
  70
    32
  0
VERTEX
  8
0
  5
17617
 10
-388.406
 20
838.601
 30
0.000000
  70
    32
  0
VERTEX
  8
0
  5
17618
 10
-388.406
 20
838.603
 30
0.000000
  70
    32
  0
VERTEX
  8
0
  5
17619
 10
-388.407
 20
838.606
 30
0.000000
  70
    32
  0
VERTEX
  8
0
  5
1761A
 10
-388.407
 20
838.609
 30
0.000000
  70
    32
  0
VERTEX
  8
0
  5
1761B
 10
-388.408
 20
838.611
 30
0.000000
  70
    32
  0
VERTEX
  8
0
  5
1761C
 10
-388.408
 20
838.614
 30
0.000000
  70
    32
  0
VERTEX
  8
0
  5
1761D
 10
-388.408
 20
838.617
 30
0.000000
  70
    32
  0
VERTEX
  8
0
  5
1761E
 10
-388.409
 20
838.619
 30
0.000000
  70
    32
  0
VERTEX
  8
0
  5
1761F
 10
-388.409
 20
838.622
 30
0.000000
  70
    32
  0
VERTEX
  8
0
  5
17620
 10
-388.409
 20
838.625
 30
0.000000
  70
    32
  0
VERTEX
  8
0
  5
17621
 10
-388.410
 20
838.627
 30
0.000000
  70
    32
  0
VERTEX
  8
0
  5
17622
 10
-388.410
 20
838.630
 30
0.000000
  70
    32
  0
VERTEX
  8
0
  5
17623
 10
-388.410
 20
838.632
 30
0.000000
  70
    32
  0
VERTEX
  8
0
  5
17624
 10
-388.411
 20
838.635
 30
0.000000
  70
    32
  0
VERTEX
  8
0
  5
17625
 10
-388.411
 20
838.638
 30
0.000000
  70
    32
  0
VERTEX
  8
0
  5
17626
 10
-388.411
 20
838.640
 30
0.000000
  70
    32
  0
VERTEX
  8
0
  5
17627
 10
-388.412
 20
838.643
 30
0.000000
  70
    32
  0
VERTEX
  8
0
  5
17628
 10
-388.412
 20
838.646
 30
0.000000
  70
    32
  0
VERTEX
  8
0
  5
17629
 10
-388.412
 20
838.648
 30
0.000000
  70
    32
  0
VERTEX
  8
0
  5
1762A
 10
-388.413
 20
838.651
 30
0.000000
  70
    32
  0
VERTEX
  8
0
  5
1762B
 10
-388.413
 20
838.654
 30
0.000000
  70
    32
  0
VERTEX
  8
0
  5
1762C
 10
-388.413
 20
838.656
 30
0.000000
  70
    32
  0
VERTEX
  8
0
  5
1762D
 10
-388.414
 20
838.659
 30
0.000000
  70
    32
  0
VERTEX
  8
0
  5
1762E
 10
-388.414
 20
838.662
 30
0.000000
  70
    32
  0
VERTEX
  8
0
  5
1762F
 10
-388.414
 20
838.664
 30
0.000000
  70
    32
  0
VERTEX
  8
0
  5
17630
 10
-388.414
 20
838.667
 30
0.000000
  70
    32
  0
VERTEX
  8
0
  5
17631
 10
-388.415
 20
838.670
 30
0.000000
  70
    32
  0
VERTEX
  8
0
  5
17632
 10
-388.415
 20
838.672
 30
0.000000
  70
    32
  0
VERTEX
  8
0
  5
17633
 10
-388.415
 20
838.675
 30
0.000000
  70
    32
  0
VERTEX
  8
0
  5
17634
 10
-388.416
 20
838.677
 30
0.000000
  70
    32
  0
VERTEX
  8
0
  5
17635
 10
-388.416
 20
838.680
 30
0.000000
  70
    32
  0
VERTEX
  8
0
  5
17636
 10
-388.416
 20
838.683
 30
0.000000
  70
    32
  0
VERTEX
  8
0
  5
17637
 10
-388.416
 20
838.685
 30
0.000000
  70
    32
  0
VERTEX
  8
0
  5
17638
 10
-388.417
 20
838.688
 30
0.000000
  70
    32
  0
VERTEX
  8
0
  5
17639
 10
-388.417
 20
838.691
 30
0.000000
  70
    32
  0
VERTEX
  8
0
  5
1763A
 10
-388.417
 20
838.693
 30
0.000000
  70
    32
  0
VERTEX
  8
0
  5
1763B
 10
-388.417
 20
838.696
 30
0.000000
  70
    32
  0
VERTEX
  8
0
  5
1763C
 10
-388.417
 20
838.699
 30
0.000000
  70
    32
  0
VERTEX
  8
0
  5
1763D
 10
-388.418
 20
838.701
 30
0.000000
  70
    32
  0
VERTEX
  8
0
  5
1763E
 10
-388.418
 20
838.704
 30
0.000000
  70
    32
  0
VERTEX
  8
0
  5
1763F
 10
-388.418
 20
838.707
 30
0.000000
  70
    32
  0
VERTEX
  8
0
  5
17640
 10
-388.418
 20
838.709
 30
0.000000
  70
    32
  0
VERTEX
  8
0
  5
17641
 10
-388.418
 20
838.712
 30
0.000000
  70
    32
  0
VERTEX
  8
0
  5
17642
 10
-388.419
 20
838.715
 30
0.000000
  70
    32
  0
VERTEX
  8
0
  5
17643
 10
-388.419
 20
838.717
 30
0.000000
  70
    32
  0
VERTEX
  8
0
  5
17644
 10
-388.419
 20
838.720
 30
0.000000
  70
    32
  0
VERTEX
  8
0
  5
17645
 10
-388.419
 20
838.723
 30
0.000000
  70
    32
  0
VERTEX
  8
0
  5
17646
 10
-388.419
 20
838.725
 30
0.000000
  70
    32
  0
VERTEX
  8
0
  5
17647
 10
-388.420
 20
838.728
 30
0.000000
  70
    32
  0
VERTEX
  8
0
  5
17648
 10
-388.420
 20
838.731
 30
0.000000
  70
    32
  0
VERTEX
  8
0
  5
17649
 10
-388.420
 20
838.733
 30
0.000000
  70
    32
  0
VERTEX
  8
0
  5
1764A
 10
-388.420
 20
838.736
 30
0.000000
  70
    32
  0
VERTEX
  8
0
  5
1764B
 10
-388.420
 20
838.739
 30
0.000000
  70
    32
  0
VERTEX
  8
0
  5
1764C
 10
-388.420
 20
838.741
 30
0.000000
  70
    32
  0
VERTEX
  8
0
  5
1764D
 10
-388.420
 20
838.744
 30
0.000000
  70
    32
  0
VERTEX
  8
0
  5
1764E
 10
-388.421
 20
838.747
 30
0.000000
  70
    32
  0
VERTEX
  8
0
  5
1764F
 10
-388.421
 20
838.749
 30
0.000000
  70
    32
  0
VERTEX
  8
0
  5
17650
 10
-388.421
 20
838.752
 30
0.000000
  70
    32
  0
VERTEX
  8
0
  5
17651
 10
-388.421
 20
838.755
 30
0.000000
  70
    32
  0
VERTEX
  8
0
  5
17652
 10
-388.421
 20
838.757
 30
0.000000
  70
    32
  0
VERTEX
  8
0
  5
17653
 10
-388.421
 20
838.760
 30
0.000000
  70
    32
  0
VERTEX
  8
0
  5
17654
 10
-388.421
 20
838.763
 30
0.000000
  70
    32
  0
VERTEX
  8
0
  5
17655
 10
-388.421
 20
838.765
 30
0.000000
  70
    32
  0
VERTEX
  8
0
  5
17656
 10
-388.421
 20
838.768
 30
0.000000
  70
    32
  0
VERTEX
  8
0
  5
17657
 10
-388.421
 20
838.771
 30
0.000000
  70
    32
  0
VERTEX
  8
0
  5
17658
 10
-388.422
 20
838.773
 30
0.000000
  70
    32
  0
VERTEX
  8
0
  5
17659
 10
-388.422
 20
838.776
 30
0.000000
  70
    32
  0
VERTEX
  8
0
  5
1765A
 10
-388.422
 20
838.779
 30
0.000000
  70
    32
  0
VERTEX
  8
0
  5
1765B
 10
-388.422
 20
838.781
 30
0.000000
  70
    32
  0
VERTEX
  8
0
  5
1765C
 10
-388.422
 20
838.784
 30
0.000000
  70
    32
  0
VERTEX
  8
0
  5
1765D
 10
-388.422
 20
838.787
 30
0.000000
  70
    32
  0
VERTEX
  8
0
  5
1765E
 10
-388.422
 20
838.789
 30
0.000000
  70
    32
  0
VERTEX
  8
0
  5
1765F
 10
-388.422
 20
838.792
 30
0.000000
  70
    32
  0
VERTEX
  8
0
  5
17660
 10
-388.422
 20
838.795
 30
0.000000
  70
    32
  0
VERTEX
  8
0
  5
17661
 10
-388.422
 20
838.797
 30
0.000000
  70
    32
  0
VERTEX
  8
0
  5
17662
 10
-388.422
 20
838.800
 30
0.000000
  70
    32
  0
VERTEX
  8
0
  5
17663
 10
-388.422
 20
838.803
 30
0.000000
  70
    32
  0
VERTEX
  8
0
  5
17664
 10
-388.422
 20
838.805
 30
0.000000
  70
    32
  0
VERTEX
  8
0
  5
17665
 10
-388.422
 20
838.808
 30
0.000000
  70
    32
  0
VERTEX
  8
0
  5
17666
 10
-388.422
 20
838.810
 30
0.000000
  70
    32
  0
VERTEX
  8
0
  5
17667
 10
-388.422
 20
838.813
 30
0.000000
  70
    32
  0
VERTEX
  8
0
  5
17668
 10
-388.422
 20
838.816
 30
0.000000
  70
    32
  0
VERTEX
  8
0
  5
17669
 10
-388.422
 20
838.818
 30
0.000000
  70
    32
  0
VERTEX
  8
0
  5
1766A
 10
-388.422
 20
838.821
 30
0.000000
  70
    32
  0
VERTEX
  8
0
  5
1766B
 10
-388.422
 20
838.824
 30
0.000000
  70
    32
  0
VERTEX
  8
0
  5
1766C
 10
-388.422
 20
838.826
 30
0.000000
  70
    32
  0
VERTEX
  8
0
  5
1766D
 10
-388.422
 20
838.829
 30
0.000000
  70
    32
  0
VERTEX
  8
0
  5
1766E
 10
-388.422
 20
838.832
 30
0.000000
  70
    32
  0
VERTEX
  8
0
  5
1766F
 10
-388.422
 20
838.834
 30
0.000000
  70
    32
  0
VERTEX
  8
0
  5
17670
 10
-388.422
 20
838.837
 30
0.000000
  70
    32
  0
VERTEX
  8
0
  5
17671
 10
-388.422
 20
838.840
 30
0.000000
  70
    32
  0
VERTEX
  8
0
  5
17672
 10
-388.422
 20
838.842
 30
0.000000
  70
    32
  0
VERTEX
  8
0
  5
17673
 10
-388.422
 20
838.845
 30
0.000000
  70
    32
  0
VERTEX
  8
0
  5
17674
 10
-388.422
 20
838.848
 30
0.000000
  70
    32
  0
VERTEX
  8
0
  5
17675
 10
-388.422
 20
838.850
 30
0.000000
  70
    32
  0
VERTEX
  8
0
  5
17676
 10
-388.422
 20
838.853
 30
0.000000
  70
    32
  0
VERTEX
  8
0
  5
17677
 10
-388.422
 20
838.856
 30
0.000000
  70
    32
  0
VERTEX
  8
0
  5
17678
 10
-388.422
 20
838.858
 30
0.000000
  70
    32
  0
VERTEX
  8
0
  5
17679
 10
-388.422
 20
838.861
 30
0.000000
  70
    32
  0
VERTEX
  8
0
  5
1767A
 10
-388.422
 20
838.864
 30
0.000000
  70
    32
  0
VERTEX
  8
0
  5
1767B
 10
-388.422
 20
838.866
 30
0.000000
  70
    32
  0
VERTEX
  8
0
  5
1767C
 10
-388.422
 20
838.869
 30
0.000000
  70
    32
  0
SEQEND
  8
0
  5
1767D
  0
POLYLINE
  8
0
  5
1767E
  66
     1
 10
0.000000
 20
0.000000
 30
0.000000
  70
     8
  0
VERTEX
  8
0
  5
1767F
 10
-388.456
 20
839.138
 30
0.000000
  70
    32
  0
VERTEX
  8
0
  5
17680
 10
-388.455
 20
839.138
 30
0.000000
  70
    32
  0
VERTEX
  8
0
  5
17681
 10
-388.453
 20
839.137
 30
0.000000
  70
    32
  0
VERTEX
  8
0
  5
17682
 10
-388.452
 20
839.137
 30
0.000000
  70
    32
  0
VERTEX
  8
0
  5
17683
 10
-388.450
 20
839.136
 30
0.000000
  70
    32
  0
VERTEX
  8
0
  5
17684
 10
-388.449
 20
839.136
 30
0.000000
  70
    32
  0
VERTEX
  8
0
  5
17685
 10
-388.447
 20
839.136
 30
0.000000
  70
    32
  0
VERTEX
  8
0
  5
17686
 10
-388.446
 20
839.135
 30
0.000000
  70
    32
  0
VERTEX
  8
0
  5
17687
 10
-388.444
 20
839.135
 30
0.000000
  70
    32
  0
VERTEX
  8
0
  5
17688
 10
-388.442
 20
839.134
 30
0.000000
  70
    32
  0
VERTEX
  8
0
  5
17689
 10
-388.441
 20
839.134
 30
0.000000
  70
    32
  0
VERTEX
  8
0
  5
1768A
 10
-388.439
 20
839.134
 30
0.000000
  70
    32
  0
VERTEX
  8
0
  5
1768B
 10
-388.438
 20
839.133
 30
0.000000
  70
    32
  0
VERTEX
  8
0
  5
1768C
 10
-388.436
 20
839.133
 30
0.000000
  70
    32
  0
VERTEX
  8
0
  5
1768D
 10
-388.434
 20
839.133
 30
0.000000
  70
    32
  0
VERTEX
  8
0
  5
1768E
 10
-388.433
 20
839.133
 30
0.000000
  70
    32
  0
VERTEX
  8
0
  5
1768F
 10
-388.431
 20
839.132
 30
0.000000
  70
    32
  0
VERTEX
  8
0
  5
17690
 10
-388.430
 20
839.132
 30
0.000000
  70
    32
  0
VERTEX
  8
0
  5
17691
 10
-388.428
 20
839.132
 30
0.000000
  70
    32
  0
VERTEX
  8
0
  5
17692
 10
-388.426
 20
839.131
 30
0.000000
  70
    32
  0
VERTEX
  8
0
  5
17693
 10
-388.425
 20
839.131
 30
0.000000
  70
    32
  0
VERTEX
  8
0
  5
17694
 10
-388.423
 20
839.131
 30
0.000000
  70
    32
  0
VERTEX
  8
0
  5
17695
 10
-388.422
 20
839.130
 30
0.000000
  70
    32
  0
VERTEX
  8
0
  5
17696
 10
-388.420
 20
839.130
 30
0.000000
  70
    32
  0
VERTEX
  8
0
  5
17697
 10
-388.419
 20
839.130
 30
0.000000
  70
    32
  0
VERTEX
  8
0
  5
17698
 10
-388.417
 20
839.129
 30
0.000000
  70
    32
  0
VERTEX
  8
0
  5
17699
 10
-388.415
 20
839.129
 30
0.000000
  70
    32
  0
VERTEX
  8
0
  5
1769A
 10
-388.414
 20
839.129
 30
0.000000
  70
    32
  0
VERTEX
  8
0
  5
1769B
 10
-388.412
 20
839.128
 30
0.000000
  70
    32
  0
VERTEX
  8
0
  5
1769C
 10
-388.411
 20
839.128
 30
0.000000
  70
    32
  0
VERTEX
  8
0
  5
1769D
 10
-388.409
 20
839.128
 30
0.000000
  70
    32
  0
VERTEX
  8
0
  5
1769E
 10
-388.407
 20
839.127
 30
0.000000
  70
    32
  0
VERTEX
  8
0
  5
1769F
 10
-388.406
 20
839.127
 30
0.000000
  70
    32
  0
VERTEX
  8
0
  5
176A0
 10
-388.404
 20
839.127
 30
0.000000
  70
    32
  0
VERTEX
  8
0
  5
176A1
 10
-388.403
 20
839.126
 30
0.000000
  70
    32
  0
VERTEX
  8
0
  5
176A2
 10
-388.401
 20
839.126
 30
0.000000
  70
    32
  0
VERTEX
  8
0
  5
176A3
 10
-388.400
 20
839.125
 30
0.000000
  70
    32
  0
VERTEX
  8
0
  5
176A4
 10
-388.398
 20
839.125
 30
0.000000
  70
    32
  0
VERTEX
  8
0
  5
176A5
 10
-388.397
 20
839.124
 30
0.000000
  70
    32
  0
VERTEX
  8
0
  5
176A6
 10
-388.395
 20
839.124
 30
0.000000
  70
    32
  0
VERTEX
  8
0
  5
176A7
 10
-388.393
 20
839.123
 30
0.000000
  70
    32
  0
VERTEX
  8
0
  5
176A8
 10
-388.392
 20
839.123
 30
0.000000
  70
    32
  0
VERTEX
  8
0
  5
176A9
 10
-388.390
 20
839.122
 30
0.000000
  70
    32
  0
VERTEX
  8
0
  5
176AA
 10
-388.389
 20
839.122
 30
0.000000
  70
    32
  0
VERTEX
  8
0
  5
176AB
 10
-388.387
 20
839.121
 30
0.000000
  70
    32
  0
VERTEX
  8
0
  5
176AC
 10
-388.386
 20
839.121
 30
0.000000
  70
    32
  0
VERTEX
  8
0
  5
176AD
 10
-388.384
 20
839.120
 30
0.000000
  70
    32
  0
VERTEX
  8
0
  5
176AE
 10
-388.383
 20
839.120
 30
0.000000
  70
    32
  0
VERTEX
  8
0
  5
176AF
 10
-388.381
 20
839.119
 30
0.000000
  70
    32
  0
VERTEX
  8
0
  5
176B0
 10
-388.380
 20
839.118
 30
0.000000
  70
    32
  0
VERTEX
  8
0
  5
176B1
 10
-388.378
 20
839.118
 30
0.000000
  70
    32
  0
VERTEX
  8
0
  5
176B2
 10
-388.377
 20
839.117
 30
0.000000
  70
    32
  0
VERTEX
  8
0
  5
176B3
 10
-388.375
 20
839.116
 30
0.000000
  70
    32
  0
VERTEX
  8
0
  5
176B4
 10
-388.374
 20
839.116
 30
0.000000
  70
    32
  0
VERTEX
  8
0
  5
176B5
 10
-388.372
 20
839.115
 30
0.000000
  70
    32
  0
VERTEX
  8
0
  5
176B6
 10
-388.371
 20
839.114
 30
0.000000
  70
    32
  0
VERTEX
  8
0
  5
176B7
 10
-388.370
 20
839.113
 30
0.000000
  70
    32
  0
VERTEX
  8
0
  5
176B8
 10
-388.368
 20
839.113
 30
0.000000
  70
    32
  0
VERTEX
  8
0
  5
176B9
 10
-388.367
 20
839.112
 30
0.000000
  70
    32
  0
VERTEX
  8
0
  5
176BA
 10
-388.365
 20
839.111
 30
0.000000
  70
    32
  0
VERTEX
  8
0
  5
176BB
 10
-388.364
 20
839.110
 30
0.000000
  70
    32
  0
VERTEX
  8
0
  5
176BC
 10
-388.362
 20
839.109
 30
0.000000
  70
    32
  0
VERTEX
  8
0
  5
176BD
 10
-388.361
 20
839.108
 30
0.000000
  70
    32
  0
VERTEX
  8
0
  5
176BE
 10
-388.360
 20
839.107
 30
0.000000
  70
    32
  0
VERTEX
  8
0
  5
176BF
 10
-388.358
 20
839.106
 30
0.000000
  70
    32
  0
VERTEX
  8
0
  5
176C0
 10
-388.357
 20
839.106
 30
0.000000
  70
    32
  0
VERTEX
  8
0
  5
176C1
 10
-388.356
 20
839.105
 30
0.000000
  70
    32
  0
VERTEX
  8
0
  5
176C2
 10
-388.354
 20
839.104
 30
0.000000
  70
    32
  0
VERTEX
  8
0
  5
176C3
 10
-388.353
 20
839.103
 30
0.000000
  70
    32
  0
VERTEX
  8
0
  5
176C4
 10
-388.352
 20
839.102
 30
0.000000
  70
    32
  0
VERTEX
  8
0
  5
176C5
 10
-388.351
 20
839.101
 30
0.000000
  70
    32
  0
VERTEX
  8
0
  5
176C6
 10
-388.349
 20
839.100
 30
0.000000
  70
    32
  0
VERTEX
  8
0
  5
176C7
 10
-388.348
 20
839.099
 30
0.000000
  70
    32
  0
VERTEX
  8
0
  5
176C8
 10
-388.347
 20
839.097
 30
0.000000
  70
    32
  0
VERTEX
  8
0
  5
176C9
 10
-388.346
 20
839.096
 30
0.000000
  70
    32
  0
VERTEX
  8
0
  5
176CA
 10
-388.344
 20
839.095
 30
0.000000
  70
    32
  0
VERTEX
  8
0
  5
176CB
 10
-388.343
 20
839.094
 30
0.000000
  70
    32
  0
VERTEX
  8
0
  5
176CC
 10
-388.342
 20
839.093
 30
0.000000
  70
    32
  0
VERTEX
  8
0
  5
176CD
 10
-388.341
 20
839.092
 30
0.000000
  70
    32
  0
VERTEX
  8
0
  5
176CE
 10
-388.340
 20
839.091
 30
0.000000
  70
    32
  0
VERTEX
  8
0
  5
176CF
 10
-388.338
 20
839.090
 30
0.000000
  70
    32
  0
VERTEX
  8
0
  5
176D0
 10
-388.337
 20
839.088
 30
0.000000
  70
    32
  0
VERTEX
  8
0
  5
176D1
 10
-388.336
 20
839.087
 30
0.000000
  70
    32
  0
VERTEX
  8
0
  5
176D2
 10
-388.335
 20
839.086
 30
0.000000
  70
    32
  0
VERTEX
  8
0
  5
176D3
 10
-388.334
 20
839.085
 30
0.000000
  70
    32
  0
VERTEX
  8
0
  5
176D4
 10
-388.333
 20
839.083
 30
0.000000
  70
    32
  0
VERTEX
  8
0
  5
176D5
 10
-388.332
 20
839.082
 30
0.000000
  70
    32
  0
VERTEX
  8
0
  5
176D6
 10
-388.331
 20
839.081
 30
0.000000
  70
    32
  0
VERTEX
  8
0
  5
176D7
 10
-388.330
 20
839.080
 30
0.000000
  70
    32
  0
VERTEX
  8
0
  5
176D8
 10
-388.329
 20
839.078
 30
0.000000
  70
    32
  0
VERTEX
  8
0
  5
176D9
 10
-388.328
 20
839.077
 30
0.000000
  70
    32
  0
VERTEX
  8
0
  5
176DA
 10
-388.327
 20
839.076
 30
0.000000
  70
    32
  0
VERTEX
  8
0
  5
176DB
 10
-388.326
 20
839.074
 30
0.000000
  70
    32
  0
VERTEX
  8
0
  5
176DC
 10
-388.325
 20
839.073
 30
0.000000
  70
    32
  0
VERTEX
  8
0
  5
176DD
 10
-388.324
 20
839.071
 30
0.000000
  70
    32
  0
VERTEX
  8
0
  5
176DE
 10
-388.323
 20
839.070
 30
0.000000
  70
    32
  0
VERTEX
  8
0
  5
176DF
 10
-388.323
 20
839.069
 30
0.000000
  70
    32
  0
VERTEX
  8
0
  5
176E0
 10
-388.322
 20
839.067
 30
0.000000
  70
    32
  0
VERTEX
  8
0
  5
176E1
 10
-388.321
 20
839.066
 30
0.000000
  70
    32
  0
VERTEX
  8
0
  5
176E2
 10
-388.320
 20
839.064
 30
0.000000
  70
    32
  0
VERTEX
  8
0
  5
176E3
 10
-388.319
 20
839.063
 30
0.000000
  70
    32
  0
VERTEX
  8
0
  5
176E4
 10
-388.319
 20
839.061
 30
0.000000
  70
    32
  0
VERTEX
  8
0
  5
176E5
 10
-388.318
 20
839.060
 30
0.000000
  70
    32
  0
VERTEX
  8
0
  5
176E6
 10
-388.317
 20
839.058
 30
0.000000
  70
    32
  0
VERTEX
  8
0
  5
176E7
 10
-388.316
 20
839.057
 30
0.000000
  70
    32
  0
VERTEX
  8
0
  5
176E8
 10
-388.316
 20
839.055
 30
0.000000
  70
    32
  0
VERTEX
  8
0
  5
176E9
 10
-388.315
 20
839.054
 30
0.000000
  70
    32
  0
VERTEX
  8
0
  5
176EA
 10
-388.314
 20
839.052
 30
0.000000
  70
    32
  0
VERTEX
  8
0
  5
176EB
 10
-388.314
 20
839.051
 30
0.000000
  70
    32
  0
VERTEX
  8
0
  5
176EC
 10
-388.313
 20
839.049
 30
0.000000
  70
    32
  0
VERTEX
  8
0
  5
176ED
 10
-388.313
 20
839.048
 30
0.000000
  70
    32
  0
VERTEX
  8
0
  5
176EE
 10
-388.312
 20
839.046
 30
0.000000
  70
    32
  0
VERTEX
  8
0
  5
176EF
 10
-388.312
 20
839.045
 30
0.000000
  70
    32
  0
VERTEX
  8
0
  5
176F0
 10
-388.311
 20
839.043
 30
0.000000
  70
    32
  0
VERTEX
  8
0
  5
176F1
 10
-388.310
 20
839.041
 30
0.000000
  70
    32
  0
VERTEX
  8
0
  5
176F2
 10
-388.310
 20
839.040
 30
0.000000
  70
    32
  0
VERTEX
  8
0
  5
176F3
 10
-388.310
 20
839.038
 30
0.000000
  70
    32
  0
VERTEX
  8
0
  5
176F4
 10
-388.309
 20
839.037
 30
0.000000
  70
    32
  0
VERTEX
  8
0
  5
176F5
 10
-388.309
 20
839.035
 30
0.000000
  70
    32
  0
VERTEX
  8
0
  5
176F6
 10
-388.308
 20
839.033
 30
0.000000
  70
    32
  0
VERTEX
  8
0
  5
176F7
 10
-388.308
 20
839.032
 30
0.000000
  70
    32
  0
VERTEX
  8
0
  5
176F8
 10
-388.307
 20
839.030
 30
0.000000
  70
    32
  0
VERTEX
  8
0
  5
176F9
 10
-388.307
 20
839.029
 30
0.000000
  70
    32
  0
VERTEX
  8
0
  5
176FA
 10
-388.307
 20
839.027
 30
0.000000
  70
    32
  0
VERTEX
  8
0
  5
176FB
 10
-388.306
 20
839.025
 30
0.000000
  70
    32
  0
VERTEX
  8
0
  5
176FC
 10
-388.306
 20
839.024
 30
0.000000
  70
    32
  0
VERTEX
  8
0
  5
176FD
 10
-388.306
 20
839.022
 30
0.000000
  70
    32
  0
VERTEX
  8
0
  5
176FE
 10
-388.306
 20
839.020
 30
0.000000
  70
    32
  0
VERTEX
  8
0
  5
176FF
 10
-388.305
 20
839.019
 30
0.000000
  70
    32
  0
VERTEX
  8
0
  5
17700
 10
-388.305
 20
839.017
 30
0.000000
  70
    32
  0
VERTEX
  8
0
  5
17701
 10
-388.305
 20
839.015
 30
0.000000
  70
    32
  0
VERTEX
  8
0
  5
17702
 10
-388.305
 20
839.014
 30
0.000000
  70
    32
  0
VERTEX
  8
0
  5
17703
 10
-388.305
 20
839.012
 30
0.000000
  70
    32
  0
VERTEX
  8
0
  5
17704
 10
-388.305
 20
839.010
 30
0.000000
  70
    32
  0
VERTEX
  8
0
  5
17705
 10
-388.304
 20
839.009
 30
0.000000
  70
    32
  0
VERTEX
  8
0
  5
17706
 10
-388.304
 20
839.007
 30
0.000000
  70
    32
  0
VERTEX
  8
0
  5
17707
 10
-388.304
 20
839.005
 30
0.000000
  70
    32
  0
VERTEX
  8
0
  5
17708
 10
-388.304
 20
839.004
 30
0.000000
  70
    32
  0
VERTEX
  8
0
  5
17709
 10
-388.304
 20
839.002
 30
0.000000
  70
    32
  0
VERTEX
  8
0
  5
1770A
 10
-388.304
 20
839.000
 30
0.000000
  70
    32
  0
VERTEX
  8
0
  5
1770B
 10
-388.304
 20
838.999
 30
0.000000
  70
    32
  0
VERTEX
  8
0
  5
1770C
 10
-388.304
 20
838.997
 30
0.000000
  70
    32
  0
VERTEX
  8
0
  5
1770D
 10
-388.304
 20
838.995
 30
0.000000
  70
    32
  0
VERTEX
  8
0
  5
1770E
 10
-388.304
 20
838.994
 30
0.000000
  70
    32
  0
VERTEX
  8
0
  5
1770F
 10
-388.305
 20
838.992
 30
0.000000
  70
    32
  0
VERTEX
  8
0
  5
17710
 10
-388.305
 20
838.990
 30
0.000000
  70
    32
  0
VERTEX
  8
0
  5
17711
 10
-388.305
 20
838.988
 30
0.000000
  70
    32
  0
VERTEX
  8
0
  5
17712
 10
-388.305
 20
838.987
 30
0.000000
  70
    32
  0
VERTEX
  8
0
  5
17713
 10
-388.305
 20
838.985
 30
0.000000
  70
    32
  0
VERTEX
  8
0
  5
17714
 10
-388.305
 20
838.983
 30
0.000000
  70
    32
  0
VERTEX
  8
0
  5
17715
 10
-388.306
 20
838.982
 30
0.000000
  70
    32
  0
VERTEX
  8
0
  5
17716
 10
-388.306
 20
838.980
 30
0.000000
  70
    32
  0
VERTEX
  8
0
  5
17717
 10
-388.306
 20
838.978
 30
0.000000
  70
    32
  0
VERTEX
  8
0
  5
17718
 10
-388.306
 20
838.977
 30
0.000000
  70
    32
  0
VERTEX
  8
0
  5
17719
 10
-388.307
 20
838.975
 30
0.000000
  70
    32
  0
VERTEX
  8
0
  5
1771A
 10
-388.307
 20
838.973
 30
0.000000
  70
    32
  0
VERTEX
  8
0
  5
1771B
 10
-388.308
 20
838.972
 30
0.000000
  70
    32
  0
VERTEX
  8
0
  5
1771C
 10
-388.308
 20
838.970
 30
0.000000
  70
    32
  0
VERTEX
  8
0
  5
1771D
 10
-388.308
 20
838.969
 30
0.000000
  70
    32
  0
VERTEX
  8
0
  5
1771E
 10
-388.309
 20
838.967
 30
0.000000
  70
    32
  0
VERTEX
  8
0
  5
1771F
 10
-388.309
 20
838.965
 30
0.000000
  70
    32
  0
VERTEX
  8
0
  5
17720
 10
-388.310
 20
838.964
 30
0.000000
  70
    32
  0
VERTEX
  8
0
  5
17721
 10
-388.310
 20
838.962
 30
0.000000
  70
    32
  0
VERTEX
  8
0
  5
17722
 10
-388.311
 20
838.960
 30
0.000000
  70
    32
  0
VERTEX
  8
0
  5
17723
 10
-388.311
 20
838.959
 30
0.000000
  70
    32
  0
VERTEX
  8
0
  5
17724
 10
-388.312
 20
838.957
 30
0.000000
  70
    32
  0
VERTEX
  8
0
  5
17725
 10
-388.312
 20
838.956
 30
0.000000
  70
    32
  0
VERTEX
  8
0
  5
17726
 10
-388.313
 20
838.954
 30
0.000000
  70
    32
  0
VERTEX
  8
0
  5
17727
 10
-388.314
 20
838.952
 30
0.000000
  70
    32
  0
VERTEX
  8
0
  5
17728
 10
-388.314
 20
838.951
 30
0.000000
  70
    32
  0
VERTEX
  8
0
  5
17729
 10
-388.315
 20
838.949
 30
0.000000
  70
    32
  0
VERTEX
  8
0
  5
1772A
 10
-388.316
 20
838.948
 30
0.000000
  70
    32
  0
VERTEX
  8
0
  5
1772B
 10
-388.316
 20
838.946
 30
0.000000
  70
    32
  0
VERTEX
  8
0
  5
1772C
 10
-388.317
 20
838.945
 30
0.000000
  70
    32
  0
VERTEX
  8
0
  5
1772D
 10
-388.318
 20
838.943
 30
0.000000
  70
    32
  0
VERTEX
  8
0
  5
1772E
 10
-388.318
 20
838.942
 30
0.000000
  70
    32
  0
VERTEX
  8
0
  5
1772F
 10
-388.319
 20
838.940
 30
0.000000
  70
    32
  0
VERTEX
  8
0
  5
17730
 10
-388.320
 20
838.939
 30
0.000000
  70
    32
  0
VERTEX
  8
0
  5
17731
 10
-388.321
 20
838.937
 30
0.000000
  70
    32
  0
VERTEX
  8
0
  5
17732
 10
-388.322
 20
838.936
 30
0.000000
  70
    32
  0
VERTEX
  8
0
  5
17733
 10
-388.322
 20
838.934
 30
0.000000
  70
    32
  0
VERTEX
  8
0
  5
17734
 10
-388.323
 20
838.933
 30
0.000000
  70
    32
  0
VERTEX
  8
0
  5
17735
 10
-388.324
 20
838.931
 30
0.000000
  70
    32
  0
VERTEX
  8
0
  5
17736
 10
-388.325
 20
838.930
 30
0.000000
  70
    32
  0
VERTEX
  8
0
  5
17737
 10
-388.326
 20
838.928
 30
0.000000
  70
    32
  0
VERTEX
  8
0
  5
17738
 10
-388.327
 20
838.927
 30
0.000000
  70
    32
  0
VERTEX
  8
0
  5
17739
 10
-388.328
 20
838.926
 30
0.000000
  70
    32
  0
VERTEX
  8
0
  5
1773A
 10
-388.329
 20
838.924
 30
0.000000
  70
    32
  0
VERTEX
  8
0
  5
1773B
 10
-388.330
 20
838.923
 30
0.000000
  70
    32
  0
VERTEX
  8
0
  5
1773C
 10
-388.331
 20
838.921
 30
0.000000
  70
    32
  0
VERTEX
  8
0
  5
1773D
 10
-388.332
 20
838.920
 30
0.000000
  70
    32
  0
VERTEX
  8
0
  5
1773E
 10
-388.333
 20
838.919
 30
0.000000
  70
    32
  0
VERTEX
  8
0
  5
1773F
 10
-388.334
 20
838.918
 30
0.000000
  70
    32
  0
VERTEX
  8
0
  5
17740
 10
-388.335
 20
838.916
 30
0.000000
  70
    32
  0
VERTEX
  8
0
  5
17741
 10
-388.336
 20
838.915
 30
0.000000
  70
    32
  0
VERTEX
  8
0
  5
17742
 10
-388.337
 20
838.914
 30
0.000000
  70
    32
  0
VERTEX
  8
0
  5
17743
 10
-388.338
 20
838.912
 30
0.000000
  70
    32
  0
VERTEX
  8
0
  5
17744
 10
-388.339
 20
838.911
 30
0.000000
  70
    32
  0
VERTEX
  8
0
  5
17745
 10
-388.340
 20
838.910
 30
0.000000
  70
    32
  0
VERTEX
  8
0
  5
17746
 10
-388.341
 20
838.909
 30
0.000000
  70
    32
  0
VERTEX
  8
0
  5
17747
 10
-388.343
 20
838.908
 30
0.000000
  70
    32
  0
VERTEX
  8
0
  5
17748
 10
-388.344
 20
838.907
 30
0.000000
  70
    32
  0
VERTEX
  8
0
  5
17749
 10
-388.345
 20
838.905
 30
0.000000
  70
    32
  0
VERTEX
  8
0
  5
1774A
 10
-388.346
 20
838.904
 30
0.000000
  70
    32
  0
VERTEX
  8
0
  5
1774B
 10
-388.347
 20
838.903
 30
0.000000
  70
    32
  0
VERTEX
  8
0
  5
1774C
 10
-388.349
 20
838.902
 30
0.000000
  70
    32
  0
VERTEX
  8
0
  5
1774D
 10
-388.350
 20
838.901
 30
0.000000
  70
    32
  0
VERTEX
  8
0
  5
1774E
 10
-388.351
 20
838.900
 30
0.000000
  70
    32
  0
VERTEX
  8
0
  5
1774F
 10
-388.352
 20
838.899
 30
0.000000
  70
    32
  0
VERTEX
  8
0
  5
17750
 10
-388.354
 20
838.898
 30
0.000000
  70
    32
  0
VERTEX
  8
0
  5
17751
 10
-388.355
 20
838.897
 30
0.000000
  70
    32
  0
VERTEX
  8
0
  5
17752
 10
-388.356
 20
838.896
 30
0.000000
  70
    32
  0
VERTEX
  8
0
  5
17753
 10
-388.358
 20
838.895
 30
0.000000
  70
    32
  0
VERTEX
  8
0
  5
17754
 10
-388.359
 20
838.894
 30
0.000000
  70
    32
  0
VERTEX
  8
0
  5
17755
 10
-388.360
 20
838.893
 30
0.000000
  70
    32
  0
VERTEX
  8
0
  5
17756
 10
-388.362
 20
838.892
 30
0.000000
  70
    32
  0
VERTEX
  8
0
  5
17757
 10
-388.363
 20
838.892
 30
0.000000
  70
    32
  0
VERTEX
  8
0
  5
17758
 10
-388.364
 20
838.891
 30
0.000000
  70
    32
  0
VERTEX
  8
0
  5
17759
 10
-388.366
 20
838.890
 30
0.000000
  70
    32
  0
VERTEX
  8
0
  5
1775A
 10
-388.367
 20
838.889
 30
0.000000
  70
    32
  0
VERTEX
  8
0
  5
1775B
 10
-388.369
 20
838.888
 30
0.000000
  70
    32
  0
VERTEX
  8
0
  5
1775C
 10
-388.370
 20
838.888
 30
0.000000
  70
    32
  0
VERTEX
  8
0
  5
1775D
 10
-388.372
 20
838.887
 30
0.000000
  70
    32
  0
VERTEX
  8
0
  5
1775E
 10
-388.373
 20
838.886
 30
0.000000
  70
    32
  0
VERTEX
  8
0
  5
1775F
 10
-388.374
 20
838.886
 30
0.000000
  70
    32
  0
VERTEX
  8
0
  5
17760
 10
-388.376
 20
838.885
 30
0.000000
  70
    32
  0
VERTEX
  8
0
  5
17761
 10
-388.377
 20
838.884
 30
0.000000
  70
    32
  0
VERTEX
  8
0
  5
17762
 10
-388.379
 20
838.884
 30
0.000000
  70
    32
  0
VERTEX
  8
0
  5
17763
 10
-388.380
 20
838.883
 30
0.000000
  70
    32
  0
VERTEX
  8
0
  5
17764
 10
-388.382
 20
838.882
 30
0.000000
  70
    32
  0
VERTEX
  8
0
  5
17765
 10
-388.383
 20
838.882
 30
0.000000
  70
    32
  0
VERTEX
  8
0
  5
17766
 10
-388.385
 20
838.881
 30
0.000000
  70
    32
  0
VERTEX
  8
0
  5
17767
 10
-388.386
 20
838.881
 30
0.000000
  70
    32
  0
VERTEX
  8
0
  5
17768
 10
-388.388
 20
838.880
 30
0.000000
  70
    32
  0
VERTEX
  8
0
  5
17769
 10
-388.389
 20
838.880
 30
0.000000
  70
    32
  0
VERTEX
  8
0
  5
1776A
 10
-388.391
 20
838.879
 30
0.000000
  70
    32
  0
VERTEX
  8
0
  5
1776B
 10
-388.393
 20
838.879
 30
0.000000
  70
    32
  0
VERTEX
  8
0
  5
1776C
 10
-388.394
 20
838.878
 30
0.000000
  70
    32
  0
VERTEX
  8
0
  5
1776D
 10
-388.396
 20
838.878
 30
0.000000
  70
    32
  0
VERTEX
  8
0
  5
1776E
 10
-388.397
 20
838.877
 30
0.000000
  70
    32
  0
VERTEX
  8
0
  5
1776F
 10
-388.399
 20
838.877
 30
0.000000
  70
    32
  0
VERTEX
  8
0
  5
17770
 10
-388.400
 20
838.876
 30
0.000000
  70
    32
  0
VERTEX
  8
0
  5
17771
 10
-388.402
 20
838.876
 30
0.000000
  70
    32
  0
VERTEX
  8
0
  5
17772
 10
-388.403
 20
838.875
 30
0.000000
  70
    32
  0
VERTEX
  8
0
  5
17773
 10
-388.405
 20
838.875
 30
0.000000
  70
    32
  0
VERTEX
  8
0
  5
17774
 10
-388.407
 20
838.874
 30
0.000000
  70
    32
  0
VERTEX
  8
0
  5
17775
 10
-388.408
 20
838.874
 30
0.000000
  70
    32
  0
VERTEX
  8
0
  5
17776
 10
-388.410
 20
838.873
 30
0.000000
  70
    32
  0
VERTEX
  8
0
  5
17777
 10
-388.411
 20
838.873
 30
0.000000
  70
    32
  0
VERTEX
  8
0
  5
17778
 10
-388.413
 20
838.872
 30
0.000000
  70
    32
  0
VERTEX
  8
0
  5
17779
 10
-388.414
 20
838.872
 30
0.000000
  70
    32
  0
VERTEX
  8
0
  5
1777A
 10
-388.416
 20
838.871
 30
0.000000
  70
    32
  0
VERTEX
  8
0
  5
1777B
 10
-388.417
 20
838.871
 30
0.000000
  70
    32
  0
VERTEX
  8
0
  5
1777C
 10
-388.419
 20
838.870
 30
0.000000
  70
    32
  0
VERTEX
  8
0
  5
1777D
 10
-388.420
 20
838.870
 30
0.000000
  70
    32
  0
VERTEX
  8
0
  5
1777E
 10
-388.422
 20
838.869
 30
0.000000
  70
    32
  0
SEQEND
  8
0
  5
1777F
  0
INSERT
  5
17199
  8
0
  2
*U230
 10
0.0
 20
0.0
 30
0.0
  0
VIEWPORT
  5
BADA
 67
     1
  8
0
 10
5.249999665167528
 20
4.016860864854312
 30
0.0
 40
16.259362384438411
 41
8.0158201110956853
 68
     2
 69
     1
1001
ACAD
1000
MVIEW
1002
{
1070
    16
1010
0.0
1020
0.0
1030
0.0
1010
0.0
1020
0.0
1030
1.0
1040
0.0
1040
8.0158201110956853
1040
5.249999665167528
1040
4.016860864854312
1040
50.0
1040
0.0
1040
0.0
1070
     0
1070
   100
1070
     1
1070
     1
1070
     0
1070
     0
1070
     0
1070
     0
1040
0.0
1040
0.0
1040
0.0
1040
0.5
1040
0.5
1040
0.5
1040
0.5
1070
     0
1002
{
1002
}
1002
}
  0
VIEWPORT
  5
BADD
 67
     1
  8
0
 10
5.249999629487192
 20
4.0166741807634683
 30
0.0
 40
10.44245679893058
 41
7.8813805131999892
 68
     1
 69
     2
1001
ACAD
1000
MVIEW
1002
{
1070
    16
1010
0.0
1020
0.0
1030
0.0
1010
0.0
1020
0.0
1030
1.0
1040
0.0
1040
7.881380531263555
1040
-387.21028611501271
1040
838.18724373717725
1040
50.0
1040
0.0
1040
0.0
1070
     0
1070
   100
1070
     1
1070
     2
1070
     0
1070
     0
1070
     0
1070
     0
1040
0.0
1040
0.0
1040
0.0
1040
0.5
1040
0.5
1040
0.5
1040
0.5
1070
     0
1002
{
1002
}
1002
}
  0
ENDSEC
  0
EOF
