  0
SECTION
  2
HEADER
  9
$ACADVER
  1
AC1009
  9
$INSBASE
 10
0.0
 20
0.0
 30
0.0
  9
$EXTMIN
 10
-388.68856784484967
 20
837.26220834327114
 30
0.0
  9
$EXTMAX
 10
-385.69889660227801
 20
841.76358100618279
 30
0.0
  9
$LIMMIN
 10
0.0
 20
0.0
  9
$LIMMAX
 10
1500.0
 20
1500.0
  9
$ORTHOMODE
 70
     1
  9
$REGENMODE
 70
     1
  9
$FILLMODE
 70
     1
  9
$QTEXTMODE
 70
     0
  9
$MIRRTEXT
 70
     1
  9
$DRAGMODE
 70
     2
  9
$LTSCALE
 40
1.0
  9
$OSMODE
 70
    63
  9
$ATTMODE
 70
     1
  9
$TEXTSIZE
 40
1.5
  9
$TRACEWID
 40
0.05
  9
$TEXTSTYLE
  7
STANDARD
  9
$CLAYER
  8
0
  9
$CELTYPE
  6
BYLAYER
  9
$CECOLOR
 62
   256
  9
$DIMSCALE
 40
1.0
  9
$DIMASZ
 40
0.75
  9
$DIMEXO
 40
1.5
  9
$DIMDLI
 40
2.0
  9
$DIMRND
 40
0.0
  9
$DIMDLE
 40
0.0
  9
$DIMEXE
 40
1.0
  9
$DIMTP
 40
0.0
  9
$DIMTM
 40
0.0
  9
$DIMTXT
 40
1.5
  9
$DIMCEN
 40
2.0
  9
$DIMTSZ
 40
0.0
  9
$DIMTOL
 70
     0
  9
$DIMLIM
 70
     0
  9
$DIMTIH
 70
     0
  9
$DIMTOH
 70
     0
  9
$DIMSE1
 70
     0
  9
$DIMSE2
 70
     0
  9
$DIMTAD
 70
     1
  9
$DIMZIN
 70
     0
  9
$DIMBLK
  1
ARCHTICK
  9
$DIMASO
 70
     1
  9
$DIMSHO
 70
     1
  9
$DIMPOST
  1
"
  9
$DIMAPOST
  1

  9
$DIMALT
 70
     0
  9
$DIMALTD
 70
     2
  9
$DIMALTF
 40
25.399999999999999
  9
$DIMLFAC
 40
1.0
  9
$DIMTOFL
 70
     0
  9
$DIMTVP
 40
0.0
  9
$DIMTIX
 70
     1
  9
$DIMSOXD
 70
     0
  9
$DIMSAH
 70
     0
  9
$DIMBLK1
  1

  9
$DIMBLK2
  1

  9
$DIMSTYLE
  2
THREE_QUARTER_INCH_SCALE
  9
$DIMCLRD
 70
     0
  9
$DIMCLRE
 70
     0
  9
$DIMCLRT
 70
     0
  9
$DIMTFAC
 40
1.0
  9
$DIMGAP
 40
1.0
  9
$LUNITS
 70
     2
  9
$LUPREC
 70
     4
  9
$SKETCHINC
 40
0.1
  9
$FILLETRAD
 40
0.0
  9
$AUNITS
 70
     0
  9
$AUPREC
 70
     0
  9
$MENU
  1
.
  9
$ELEVATION
 40
0.0
  9
$PELEVATION
 40
0.0
  9
$THICKNESS
 40
0.0
  9
$LIMCHECK
 70
     0
  9
$BLIPMODE
 70
     0
  9
$CHAMFERA
 40
0.5
  9
$CHAMFERB
 40
0.5
  9
$SKPOLY
 70
     0
  9
$TDCREATE
 40
2452089.395738773
  9
$TDUPDATE
 40
2453621.5279840282
  9
$TDINDWG
 40
1.0943005556000001
  9
$TDUSRTIMER
 40
1.0943001967999999
  9
$USRTIMER
 70
     1
  9
$ANGBASE
 50
0.0
  9
$ANGDIR
 70
     0
  9
$PDMODE
 70
     0
  9
$PDSIZE
 40
10.0
  9
$PLINEWID
 40
0.0
  9
$COORDS
 70
     0
  9
$SPLFRAME
 70
     0
  9
$SPLINETYPE
 70
     6
  9
$SPLINESEGS
 70
     8
  9
$ATTDIA
 70
     0
  9
$ATTREQ
 70
     1
  9
$HANDLING
 70
     1
  9
$HANDSEED
  5
170EF
  9
$SURFTAB1
 70
     6
  9
$SURFTAB2
 70
     6
  9
$SURFTYPE
 70
     6
  9
$SURFU
 70
     6
  9
$SURFV
 70
     6
  9
$UCSNAME
  2

  9
$UCSORG
 10
0.0
 20
0.0
 30
0.0
  9
$UCSXDIR
 10
1.0
 20
0.0
 30
0.0
  9
$UCSYDIR
 10
0.0
 20
1.0
 30
0.0
  9
$PUCSNAME
  2

  9
$PUCSORG
 10
0.0
 20
0.0
 30
0.0
  9
$PUCSXDIR
 10
1.0
 20
0.0
 30
0.0
  9
$PUCSYDIR
 10
0.0
 20
1.0
 30
0.0
  9
$USERI1
 70
     0
  9
$USERI2
 70
     0
  9
$USERI3
 70
     0
  9
$USERI4
 70
     0
  9
$USERI5
 70
     0
  9
$USERR1
 40
0.0
  9
$USERR2
 40
0.0
  9
$USERR3
 40
0.0
  9
$USERR4
 40
0.0
  9
$USERR5
 40
0.0
  9
$WORLDVIEW
 70
     1
  9
$SHADEDGE
 70
     3
  9
$SHADEDIF
 70
    70
  9
$TILEMODE
 70
     0
  9
$MAXACTVP
 70
    64
  9
$PLIMCHECK
 70
     0
  9
$PEXTMIN
 10
0.0287712300219028
 20
0.0759839241634737
 30
0.0
  9
$PEXTMAX
 10
10.47122802895248
 20
7.957364437363462
 30
0.0
  9
$PLIMMIN
 10
-0.1682389550263349
 20
-0.2033427855578579
  9
$PLIMMAX
 10
10.754640548407011
 20
8.2370640492290015
  9
$UNITMODE
 70
     0
  9
$VISRETAIN
 70
     1
  9
$PLINEGEN
 70
     0
  9
$PSLTSCALE
 70
     1
  0
ENDSEC
  0
SECTION
  2
TABLES
  0
TABLE
  2
VPORT
 70
     1
  0
VPORT
  2
*ACTIVE
 70
     0
 10
0.0
 20
0.0
 11
1.0
 21
1.0
 12
-386.52380251144001
 22
838.09204166179234
 13
0.0
 23
0.0
 14
0.5
 24
0.5
 15
0.5
 25
0.5
 16
0.0
 26
0.0
 36
1.0
 17
0.0
 27
0.0
 37
0.0
 40
3.930952126162941
 41
2.0226628895184122
 42
50.0
 43
0.0
 44
0.0
 50
0.0
 51
0.0
 71
     0
 72
   100
 73
     1
 74
     2
 75
     0
 76
     0
 77
     0
 78
     0
  0
ENDTAB
  0
TABLE
  2
LTYPE
 70
     1
  0
LTYPE
  2
CONTINUOUS
 70
     0
  3
Solid line
 72
    65
 73
     0
 40
0.0
  0
ENDTAB
  0
TABLE
  2
LAYER
 70
    10
  0
LAYER
  2
0
 70
     0
 62
     7
  6
CONTINUOUS
  0
LAYER
  2
DEFPOINTS
 70
     0
 62
     7
  6
CONTINUOUS
  0
LAYER
  2
FRAME_200
 70
     0
 62
     8
  6
CONTINUOUS
  0
LAYER
  2
FRAME_070
 70
     0
 62
     5
  6
CONTINUOUS
  0
LAYER
  2
FRAME_050
 70
     0
 62
     6
  6
CONTINUOUS
  0
LAYER
  2
TITLE_BLOCK
 70
     0
 62
     7
  6
CONTINUOUS
  0
LAYER
  2
FRAME_025
 70
     0
 62
     7
  6
CONTINUOUS
  0
LAYER
  2
VIEWPORT
 70
     0
 62
     7
  6
CONTINUOUS
  0
LAYER
  2
PROF
 70
     0
 62
     7
  6
CONTINUOUS
  0
LAYER
  2
PROFILE
 70
     0
 62
     7
  6
CONTINUOUS
  0
ENDTAB
  0
TABLE
  2
STYLE
 70
     2
  0
STYLE
  2
STANDARD
 70
     0
 40
0.0
 41
1.0
 50
0.0
 71
     0
 42
1.5
  3
txt
  4

  0
STYLE
  2
ISO_PROPORTIONAL
 70
     0
 40
0.0
 41
1.0
 50
0.0
 71
     0
 42
2.5
  3
isocp.shx
  4

  0
ENDTAB
  0
TABLE
  2
VIEW
 70
     1
  0
ENDTAB
  0
TABLE
  2
UCS
 70
     0
  0
ENDTAB
  0
TABLE
  2
APPID
 70
     6
  0
APPID
  2
ACAD
 70
     0
  0
APPID
  2
DCO15
 70
     0
  0
APPID
  2
ACAD_EXEMPT_FROM_CAD_STANDARDS
 70
     0
  0
APPID
  2
ACAD_PSEXT
 70
     0
  0
APPID
  2
CONTENTBLOCKDESCRIPTION
 70
     0
  0
APPID
  2
CONTENTBLOCKICON
 70
     0
  0
ENDTAB
  0
TABLE
  2
DIMSTYLE
 70
    10
  0
DIMSTYLE
  2
FULL_SCALE
 70
     0
  3
"
  4

  5

  6

  7

 40
1.0
 41
0.046875
 42
0.09375
 43
0.125
 44
0.0625
 45
0.0
 46
0.0
 47
0.0
 48
0.0
140
0.125
141
0.125
142
0.0
143
25.399999999999999
144
1.0
145
0.0
146
1.0
147
0.0625
 71
     0
 72
     0
 73
     0
 74
     0
 75
     0
 76
     0
 77
     1
 78
     0
170
     0
171
     2
172
     0
173
     0
174
     1
175
     0
176
     0
177
     0
178
     0
  0
DIMSTYLE
  2
HALF_SCALE
 70
     0
  3
"
  4

  5

  6

  7

 40
1.0
 41
0.09375
 42
0.1875
 43
0.25
 44
0.125
 45
0.0
 46
0.0
 47
0.0
 48
0.0
140
0.25
141
0.25
142
0.0
143
25.399999999999999
144
1.0
145
0.0
146
1.0
147
0.125
 71
     0
 72
     0
 73
     0
 74
     0
 75
     0
 76
     0
 77
     1
 78
     0
170
     0
171
     2
172
     0
173
     0
174
     1
175
     0
176
     0
177
     0
178
     0
  0
DIMSTYLE
  2
INCH_SCALE
 70
     0
  3
"
  4

  5

  6

  7

 40
1.0
 41
0.5625
 42
1.125
 43
1.5
 44
0.75
 45
0.0
 46
0.0
 47
0.0
 48
0.0
140
1.125
141
1.5
142
0.0
143
25.399999999999999
144
1.0
145
0.0
146
1.0
147
0.75
 71
     0
 72
     0
 73
     0
 74
     0
 75
     0
 76
     0
 77
     1
 78
     0
170
     0
171
     2
172
     0
173
     0
174
     1
175
     0
176
     0
177
     0
178
     0
  0
DIMSTYLE
  2
THREE_QUARTER_INCH_SCALE
 70
     0
  3
"
  4

  5

  6

  7

 40
1.0
 41
0.75
 42
1.5
 43
2.0
 44
1.0
 45
0.0
 46
0.0
 47
0.0
 48
0.0
140
1.5
141
2.0
142
0.0
143
25.399999999999999
144
1.0
145
0.0
146
1.0
147
1.0
 71
     0
 72
     0
 73
     0
 74
     0
 75
     0
 76
     0
 77
     1
 78
     0
170
     0
171
     2
172
     0
173
     0
174
     1
175
     0
176
     0
177
     0
178
     0
  0
DIMSTYLE
  2
ZHALF_INCH_SCALE
 70
     0
  3
"
  4

  5

  6

  7

 40
1.0
 41
1.125
 42
2.25
 43
3.0
 44
1.5
 45
0.0
 46
0.0
 47
0.0
 48
0.0
140
2.25
141
3.0
142
0.0
143
25.399999999999999
144
1.0
145
0.0
146
1.0
147
1.5
 71
     0
 72
     0
 73
     0
 74
     0
 75
     0
 76
     0
 77
     1
 78
     0
170
     0
171
     2
172
     0
173
     0
174
     1
175
     0
176
     0
177
     0
178
     0
  0
DIMSTYLE
  2
FULL_SCALE0
 70
     0
  3
"
  4

  5
ARCHTICK
  6

  7

 40
1.0
 41
0.046875
 42
0.09375
 43
0.125
 44
0.0625
 45
0.0
 46
0.0
 47
0.0
 48
0.0
140
0.125
141
0.125
142
0.0
143
25.399999999999999
144
1.0
145
0.0
146
1.0
147
0.0625
 71
     0
 72
     0
 73
     0
 74
     0
 75
     0
 76
     0
 77
     1
 78
     0
170
     0
171
     2
172
     0
173
     0
174
     1
175
     0
176
     0
177
     0
178
     0
  0
DIMSTYLE
  2
HALF_SCALE0
 70
     0
  3
"
  4

  5
ARCHTICK
  6

  7

 40
1.0
 41
0.09375
 42
0.1875
 43
0.25
 44
0.125
 45
0.0
 46
0.0
 47
0.0
 48
0.0
140
0.25
141
0.25
142
0.0
143
25.399999999999999
144
1.0
145
0.0
146
1.0
147
0.125
 71
     0
 72
     0
 73
     0
 74
     0
 75
     0
 76
     0
 77
     1
 78
     0
170
     0
171
     2
172
     0
173
     0
174
     1
175
     0
176
     0
177
     0
178
     0
  0
DIMSTYLE
  2
INCH_SCALE0
 70
     0
  3
"
  4

  5
ARCHTICK
  6

  7

 40
1.0
 41
0.5625
 42
1.125
 43
1.5
 44
0.75
 45
0.0
 46
0.0
 47
0.0
 48
0.0
140
1.125
141
1.5
142
0.0
143
25.399999999999999
144
1.0
145
0.0
146
1.0
147
0.75
 71
     0
 72
     0
 73
     0
 74
     0
 75
     0
 76
     0
 77
     1
 78
     0
170
     0
171
     2
172
     0
173
     0
174
     1
175
     0
176
     0
177
     0
178
     0
  0
DIMSTYLE
  2
THREE_QUARTER_INCH_SCALE0
 70
     0
  3
"
  4

  5
ARCHTICK
  6

  7

 40
1.0
 41
0.75
 42
1.5
 43
2.0
 44
1.0
 45
0.0
 46
0.0
 47
0.0
 48
0.0
140
1.5
141
2.0
142
0.0
143
25.399999999999999
144
1.0
145
0.0
146
1.0
147
1.0
 71
     0
 72
     0
 73
     0
 74
     0
 75
     0
 76
     0
 77
     1
 78
     0
170
     0
171
     2
172
     0
173
     0
174
     1
175
     0
176
     0
177
     0
178
     0
  0
DIMSTYLE
  2
ZHALF_INCH_SCALE0
 70
     0
  3
"
  4

  5
ARCHTICK
  6

  7

 40
1.0
 41
1.125
 42
2.25
 43
3.0
 44
1.5
 45
0.0
 46
0.0
 47
0.0
 48
0.0
140
2.25
141
3.0
142
0.0
143
25.399999999999999
144
1.0
145
0.0
146
1.0
147
1.5
 71
     0
 72
     0
 73
     0
 74
     0
 75
     0
 76
     0
 77
     1
 78
     0
170
     0
171
     2
172
     0
173
     0
174
     1
175
     0
176
     0
177
     0
178
     0
  0
ENDTAB
  0
ENDSEC
  0
SECTION
  2
BLOCKS
  0
BLOCK
  8
0
  2
$MODEL_SPACE
 70
     0
 10
0.0
 20
0.0
 30
0.0
  3
$MODEL_SPACE
  1

  0
ENDBLK
  5
C9DC
  8
0
  0
BLOCK
 67
     1
  8
0
  2
$PAPER_SPACE
 70
     0
 10
0.0
 20
0.0
 30
0.0
  3
$PAPER_SPACE
  1

  0
ENDBLK
  5
C9D8
 67
     1
  8
0
  0
BLOCK
  8
0
  2
_ARCHTICK
 70
     0
 10
0.0
 20
0.0
 30
0.0
  3
_ARCHTICK
  1

  0
POLYLINE
  5
158
  8
0
  6
BYBLOCK
 62
     0
 66
     1
 10
0.0
 20
0.0
 30
0.0
 40
0.15
 41
0.15
  0
VERTEX
  5
16E80
  8
0
  6
BYBLOCK
 62
     0
 10
-0.5
 20
-0.5
 30
0.0
  0
VERTEX
  5
16E81
  8
0
  6
BYBLOCK
 62
     0
 10
0.5
 20
0.5
 30
0.0
  0
SEQEND
  5
16E82
  8
0
  6
BYBLOCK
 62
     0
  0
ENDBLK
  5
15A
  8
0
  0
BLOCK
  8
0
  2
_OPEN30
 70
     0
 10
0.0
 20
0.0
 30
0.0
  3
_OPEN30
  1

  0
LINE
  5
15C
  8
0
  6
BYBLOCK
 62
     0
 10
-1.0
 20
0.26794919
 30
0.0
 11
0.0
 21
0.0
 31
0.0
  0
LINE
  5
15D
  8
0
  6
BYBLOCK
 62
     0
 10
0.0
 20
0.0
 30
0.0
 11
-1.0
 21
-0.26794919
 31
0.0
  0
LINE
  5
15E
  8
0
  6
BYBLOCK
 62
     0
 10
0.0
 20
0.0
 30
0.0
 11
-1.0
 21
0.0
 31
0.0
  0
ENDBLK
  5
160
  8
0
  0
BLOCK
  8
0
  2
ISO_A2_TITLE_BLOCK
 70
     2
 10
0.0
 20
0.0
 30
0.0
  3
ISO_A2_TITLE_BLOCK
  1

  0
LINE
  5
BDD
  8
FRAME_050
 10
299.5
 20
12.5
 30
0.0
 11
297.0
 21
7.5
 31
0.0
  0
LINE
  5
BDE
  8
FRAME_050
 10
294.5
 20
12.5
 30
0.0
 11
299.5
 21
12.5
 31
0.0
  0
LINE
  5
BDF
  8
FRAME_050
 10
247.0
 20
5.0
 30
0.0
 11
347.0
 21
5.0
 31
0.0
  0
LINE
  5
BE0
  8
FRAME_070
 10
584.0
 20
410.0
 30
0.0
 11
10.0
 21
410.0
 31
0.0
  0
LINE
  5
BE1
  8
FRAME_070
 10
10.0
 20
10.0
 30
0.0
 11
584.0
 21
10.0
 31
0.0
  0
LINE
  5
BE2
  8
FRAME_050
 10
12.5
 20
207.5
 30
0.0
 11
7.5
 21
210.0
 31
0.0
  0
LINE
  5
BE3
  8
FRAME_050
 10
12.5
 20
212.5
 30
0.0
 11
12.5
 21
207.5
 31
0.0
  0
LINE
  5
BE4
  8
FRAME_070
 10
10.0
 20
410.0
 30
0.0
 11
10.0
 21
10.0
 31
0.0
  0
LINE
  5
BE5
  8
FRAME_200
 10
0.0
 20
0.0
 30
0.0
 11
0.0
 21
10.0
 31
0.0
  0
LINE
  5
BE6
  8
FRAME_200
 10
0.0
 20
0.0
 30
0.0
 11
10.0
 21
0.0
 31
0.0
  0
TEXT
  5
BE7
  8
FRAME_050
 10
5.9000000000000004
 20
35.0
 30
0.0
 40
4.0
  1
H
  7
ISO_PROPORTIONAL
 72
     4
 11
7.5
 21
37.0
 31
0.0
  0
LINE
  5
BE8
  8
FRAME_050
 10
10.0
 20
60.0
 30
0.0
 11
5.0
 21
60.0
 31
0.0
  0
LINE
  5
BE9
  8
FRAME_050
 10
81.75
 20
5.0
 30
0.0
 11
81.75
 21
10.0
 31
0.0
  0
TEXT
  5
BEA
  8
FRAME_050
 10
44.874999999999993
 20
5.5
 30
0.0
 40
4.0
  1
1
  7
ISO_PROPORTIONAL
 72
     4
 11
45.875
 21
7.5
 31
0.0
  0
TEXT
  5
BEB
  8
FRAME_050
 10
6.0035533905932743
 20
85.0
 30
0.0
 40
4.0
  1
G
  7
ISO_PROPORTIONAL
 72
     4
 11
7.5
 21
87.0
 31
0.0
  0
LINE
  5
BEC
  8
FRAME_050
 10
10.0
 20
110.0
 30
0.0
 11
5.0
 21
110.0
 31
0.0
  0
TEXT
  5
BED
  8
FRAME_050
 10
6.0999999999999988
 20
135.0
 30
0.0
 40
4.0
  1
F
  7
ISO_PROPORTIONAL
 72
     4
 11
7.5
 21
137.0
 31
0.0
  0
LINE
  5
BEE
  8
FRAME_050
 10
10.0
 20
160.0
 30
0.0
 11
5.0
 21
160.0
 31
0.0
  0
TEXT
  5
BEF
  8
FRAME_050
 10
6.0999999999999988
 20
185.0
 30
0.0
 40
4.0
  1
E
  7
ISO_PROPORTIONAL
 72
     4
 11
7.5
 21
187.0
 31
0.0
  0
LINE
  5
BF0
  8
FRAME_050
 10
153.5
 20
5.0
 30
0.0
 11
153.5
 21
10.0
 31
0.0
  0
TEXT
  5
BF1
  8
FRAME_050
 10
116.1556692913386
 20
5.3996062992125982
 30
0.0
 40
4.0
  1
2
  7
ISO_PROPORTIONAL
 72
     4
 11
117.625
 21
7.5
 31
0.0
  0
TEXT
  5
BF2
  8
FRAME_050
 10
187.89215728752529
 20
5.5828427124746138
 30
0.0
 40
4.0
  1
3
  7
ISO_PROPORTIONAL
 72
     4
 11
189.375
 21
7.5
 31
0.0
  0
LINE
  5
BF3
  8
FRAME_050
 10
225.25
 20
5.0
 30
0.0
 11
225.25
 21
10.0
 31
0.0
  0
LINE
  5
BF4
  8
FRAME_050
 10
297.0
 20
7.5
 30
0.0
 11
294.5
 21
12.5
 31
0.0
  0
LINE
  5
BF5
  8
FRAME_050
 10
287.0
 20
5.0
 30
0.0
 11
287.0
 21
10.0
 31
0.0
  0
LINE
  5
BF6
  8
FRAME_050
 10
277.0
 20
5.0
 30
0.0
 11
277.0
 21
10.0
 31
0.0
  0
LINE
  5
BF7
  8
FRAME_050
 10
267.0
 20
5.0
 30
0.0
 11
267.0
 21
10.0
 31
0.0
  0
LINE
  5
BF8
  8
FRAME_050
 10
257.0
 20
5.0
 30
0.0
 11
257.0
 21
10.0
 31
0.0
  0
LINE
  5
BF9
  8
FRAME_050
 10
247.0
 20
5.0
 30
0.0
 11
247.0
 21
10.0
 31
0.0
  0
LINE
  5
BFA
  8
FRAME_050
 10
297.0
 20
10.0
 30
0.0
 11
297.0
 21
5.0
 31
0.0
  0
LINE
  5
BFB
  8
FRAME_050
 10
297.0
 20
10.0
 30
0.0
 11
297.0
 21
15.0
 31
0.0
  0
LINE
  5
BFC
  8
FRAME_050
 10
5.0
 20
210.0
 30
0.0
 11
15.0
 21
210.0
 31
0.0
  0
LINE
  5
BFD
  8
FRAME_050
 10
7.5
 20
210.0
 30
0.0
 11
12.5
 21
212.5
 31
0.0
  0
TEXT
  5
BFE
  8
FRAME_050
 10
5.7860912703473977
 20
235.0
 30
0.0
 40
4.0
  1
D
  7
ISO_PROPORTIONAL
 72
     4
 11
7.5
 21
237.0
 31
0.0
  0
LINE
  5
BFF
  8
FRAME_050
 10
10.0
 20
260.0
 30
0.0
 11
5.0
 21
260.0
 31
0.0
  0
TEXT
  5
C00
  8
FRAME_050
 10
6.1931980515339466
 20
285.0
 30
0.0
 40
4.0
  1
C
  7
ISO_PROPORTIONAL
 72
     4
 11
7.5
 21
287.0
 31
0.0
  0
LINE
  5
C01
  8
FRAME_050
 10
10.0
 20
310.0
 30
0.0
 11
5.0
 21
310.0
 31
0.0
  0
TEXT
  5
C02
  8
FRAME_050
 10
5.8999999999999959
 20
335.0
 30
0.0
 40
4.0
  1
B
  7
ISO_PROPORTIONAL
 72
     4
 11
7.5
 21
337.0
 31
0.0
  0
LINE
  5
C03
  8
FRAME_050
 10
10.0
 20
360.0
 30
0.0
 11
5.0
 21
360.0
 31
0.0
  0
TEXT
  5
C04
  8
FRAME_050
 10
5.6999999999999993
 20
385.0
 30
0.0
 40
4.0
  1
A
  7
ISO_PROPORTIONAL
 72
     4
 11
7.5
 21
387.0
 31
0.0
  0
LINE
  5
C05
  8
FRAME_200
 10
10.0
 20
420.0
 30
0.0
 11
0.0
 21
420.0
 31
0.0
  0
LINE
  5
C06
  8
FRAME_200
 10
0.0
 20
420.0
 30
0.0
 11
0.0
 21
410.0
 31
0.0
  0
TEXT
  5
C07
  8
FRAME_050
 10
44.874999999999993
 20
410.5
 30
0.0
 40
4.0
  1
1
  7
ISO_PROPORTIONAL
 72
     4
 11
45.875
 21
412.5
 31
0.0
  0
LINE
  5
C08
  8
FRAME_050
 10
81.75
 20
410.0
 30
0.0
 11
81.75
 21
415.0
 31
0.0
  0
TEXT
  5
C09
  8
FRAME_050
 10
116.1556692913386
 20
410.39960629921262
 30
0.0
 40
4.0
  1
2
  7
ISO_PROPORTIONAL
 72
     4
 11
117.625
 21
412.5
 31
0.0
  0
LINE
  5
C0A
  8
FRAME_050
 10
153.5
 20
410.0
 30
0.0
 11
153.5
 21
415.0
 31
0.0
  0
TEXT
  5
C0B
  8
FRAME_050
 10
187.89215728752529
 20
410.58284271247459
 30
0.0
 40
4.0
  1
3
  7
ISO_PROPORTIONAL
 72
     4
 11
189.375
 21
412.5
 31
0.0
  0
LINE
  5
C0C
  8
FRAME_050
 10
297.0
 20
405.0
 30
0.0
 11
297.0
 21
415.0
 31
0.0
  0
LINE
  5
C0D
  8
FRAME_050
 10
225.25
 20
410.0
 30
0.0
 11
225.25
 21
415.0
 31
0.0
  0
TEXT
  5
C0E
  8
FRAME_050
 10
259.52499999999998
 20
410.5
 30
0.0
 40
4.0
  1
4
  7
ISO_PROPORTIONAL
 72
     4
 11
261.125
 21
412.5
 31
0.0
  0
LINE
  5
C0F
  8
FRAME_070
 10
584.0
 20
10.0
 30
0.0
 11
584.0
 21
410.0
 31
0.0
  0
ATTDEF
  5
C10
  8
FRAME_025
 10
473.0
 20
31.75
 30
0.0
 40
2.5
  1
XXX - 00/00/00
  7
ISO_PROPORTIONAL
 11
473.0
 21
33.0
 31
0.0
  3
Approved by - Date
  2
APPROVED_BY_DATE
 70
     8
 74
     2
  0
TEXT
  5
C11
  8
FRAME_025
 10
448.0
 20
41.749999999999993
 30
0.0
 40
2.5
  1
Title/Name, designation, material, dimension etc
  7
ISO_PROPORTIONAL
 11
448.0
 21
43.0
 31
0.0
 73
     2
  0
TEXT
  5
C12
  8
FRAME_025
 10
473.0
 20
35.75
 30
0.0
 40
2.5
  1
Approved by - date
  7
ISO_PROPORTIONAL
 11
473.0
 21
37.0
 31
0.0
 73
     2
  0
LINE
  5
C13
  8
FRAME_070
 10
414.0
 20
46.0
 30
0.0
 11
584.0
 21
46.0
 31
0.0
  0
LINE
  5
C14
  8
FRAME_070
 10
414.0
 20
40.0
 30
0.0
 11
584.0
 21
40.0
 31
0.0
  0
LINE
  5
C15
  8
FRAME_070
 10
414.0
 20
30.0
 30
0.0
 11
584.0
 21
30.0
 31
0.0
  0
LINE
  5
C16
  8
FRAME_050
 10
368.75
 20
5.0
 30
0.0
 11
368.75
 21
10.0
 31
0.0
  0
LINE
  5
C17
  8
FRAME_050
 10
337.0
 20
5.0
 30
0.0
 11
337.0
 21
10.0
 31
0.0
  0
LINE
  5
C18
  8
FRAME_050
 10
327.0
 20
5.0
 30
0.0
 11
327.0
 21
10.0
 31
0.0
  0
LINE
  5
C19
  8
FRAME_050
 10
317.0
 20
5.0
 30
0.0
 11
317.0
 21
10.0
 31
0.0
  0
LINE
  5
C1A
  8
FRAME_050
 10
307.0
 20
5.0
 30
0.0
 11
307.0
 21
10.0
 31
0.0
  0
LINE
  5
C1B
  8
FRAME_050
 10
347.0
 20
5.0
 30
0.0
 11
347.0
 21
10.0
 31
0.0
  0
LINE
  5
C1C
  8
FRAME_050
 10
440.5
 20
5.0
 30
0.0
 11
440.5
 21
10.0
 31
0.0
  0
TEXT
  5
C1D
  8
FRAME_050
 10
403.24547244094481
 20
5.4102362204724406
 30
0.0
 40
4.0
  1
6
  7
ISO_PROPORTIONAL
 72
     4
 11
404.62499999999989
 21
7.5
 31
0.0
  0
TEXT
  5
C1E
  8
FRAME_050
 10
474.97499999999991
 20
5.5
 30
0.0
 40
4.0
  1
7
  7
ISO_PROPORTIONAL
 72
     4
 11
476.37499999999989
 21
7.5
 31
0.0
  0
TEXT
  5
C1F
  8
FRAME_025
 10
431.0
 20
41.749999999999993
 30
0.0
 40
2.5
  1
Quantity
  7
ISO_PROPORTIONAL
 11
431.0
 21
43.0
 31
0.0
 73
     2
  0
TEXT
  5
C20
  8
FRAME_025
 10
416.0
 20
41.749999999999993
 30
0.0
 40
2.5
  1
Itemref
  7
ISO_PROPORTIONAL
 11
416.0
 21
43.0
 31
0.0
 73
     2
  0
LINE
  5
C21
  8
FRAME_070
 10
414.0
 20
40.0
 30
0.0
 11
414.0
 21
46.0
 31
0.0
  0
LINE
  5
C22
  8
FRAME_070
 10
429.0
 20
40.0
 30
0.0
 11
429.0
 21
46.0
 31
0.0
  0
LINE
  5
C23
  8
FRAME_070
 10
414.0
 20
10.0
 30
0.0
 11
414.0
 21
40.0
 31
0.0
  0
ATTDEF
  5
C24
  8
FRAME_025
 10
416.0
 20
31.75
 30
0.0
 40
2.5
  1
XXX
  7
ISO_PROPORTIONAL
 11
416.0
 21
33.0
 31
0.0
  3
Designed by
  2
DESIGNED_BY
 70
     8
 74
     2
  0
TEXT
  5
C25
  8
FRAME_025
 10
416.0
 20
35.75
 30
0.0
 40
2.5
  1
Designed by
  7
ISO_PROPORTIONAL
 11
416.0
 21
37.0
 31
0.0
 73
     2
  0
LINE
  5
C26
  8
FRAME_070
 10
446.0
 20
40.0
 30
0.0
 11
446.0
 21
46.0
 31
0.0
  0
ATTDEF
  5
C27
  8
FRAME_025
 10
448.0
 20
31.75
 30
0.0
 40
2.5
  1
XXX
  7
ISO_PROPORTIONAL
 11
448.0
 21
33.0
 31
0.0
  3
Checked by
  2
CHECKED_BY
 70
     8
 74
     2
  0
TEXT
  5
C28
  8
FRAME_025
 10
448.0
 20
35.75
 30
0.0
 40
2.5
  1
Checked by
  7
ISO_PROPORTIONAL
 11
448.0
 21
37.0
 31
0.0
 73
     2
  0
ATTDEF
  5
C29
  8
FRAME_050
 10
444.74999999999989
 20
17.5
 30
0.0
 40
5.0
  1
XXX
  7
ISO_PROPORTIONAL
 72
     4
 11
451.49999999999989
 21
20.0
 31
0.0
  3
Owner
  2
OWNER
 70
     8
  0
LINE
  5
C2A
  8
FRAME_070
 10
446.0
 20
30.0
 30
0.0
 11
446.0
 21
40.0
 31
0.0
  0
LINE
  5
C2B
  8
FRAME_070
 10
471.0
 20
30.0
 30
0.0
 11
471.0
 21
40.0
 31
0.0
  0
LINE
  5
C2C
  8
FRAME_070
 10
489.0
 20
20.0
 30
0.0
 11
584.0
 21
20.0
 31
0.0
  0
LINE
  5
C2D
  8
FRAME_050
 10
512.25
 20
5.0
 30
0.0
 11
512.25
 21
10.0
 31
0.0
  0
TEXT
  5
C2E
  8
FRAME_050
 10
546.72499999999991
 20
5.5
 30
0.0
 40
4.0
  1
8
  7
ISO_PROPORTIONAL
 72
     4
 11
548.125
 21
7.5
 31
0.0
  0
ATTDEF
  5
C2F
  8
FRAME_050
 10
517.64999999999986
 20
13.5
 30
0.0
 40
3.0
  1
X
  7
ISO_PROPORTIONAL
 72
     4
 11
519.0
 21
15.0
 31
0.0
  3
Drawing number
  2
DRAWING_NUMBER
 70
     8
  0
ATTDEF
  5
C30
  8
FRAME_050
 10
529.75
 20
22.5
 30
0.0
 40
5.0
  1
XXX
  7
ISO_PROPORTIONAL
 72
     4
 11
536.5
 21
25.0
 31
0.0
  3
Title / Name
  2
TITLE
 70
     8
  0
LINE
  5
C31
  8
FRAME_070
 10
489.0
 20
10.0
 30
0.0
 11
489.0
 21
30.0
 31
0.0
  0
ATTDEF
  5
C32
  8
FRAME_025
 10
511.0
 20
31.75
 30
0.0
 40
2.5
  1
XXX
  7
ISO_PROPORTIONAL
 11
511.0
 21
33.0
 31
0.0
  3
Filename
  2
FILENAME
 70
     8
 74
     2
  0
TEXT
  5
C33
  8
FRAME_025
 10
511.0
 20
35.75
 30
0.0
 40
2.5
  1
Filename
  7
ISO_PROPORTIONAL
 11
511.0
 21
37.0
 31
0.0
 73
     2
  0
LINE
  5
C34
  8
FRAME_070
 10
509.0
 20
30.0
 30
0.0
 11
509.0
 21
40.0
 31
0.0
  0
TEXT
  5
C35
  8
FRAME_025
 10
536.0
 20
41.749999999999993
 30
0.0
 40
2.5
  1
Article No./Reference
  7
ISO_PROPORTIONAL
 11
536.0
 21
43.0
 31
0.0
 73
     2
  0
LINE
  5
C36
  8
FRAME_070
 10
534.0
 20
40.0
 30
0.0
 11
534.0
 21
46.0
 31
0.0
  0
ATTDEF
  5
C37
  8
FRAME_025
 10
551.0
 20
11.75
 30
0.0
 40
2.5
  1
0
  7
ISO_PROPORTIONAL
 11
551.0
 21
13.0
 31
0.0
  3
Edition
  2
EDITION
 70
     8
 74
     2
  0
TEXT
  5
C38
  8
FRAME_025
 10
551.0
 20
15.75
 30
0.0
 40
2.5
  1
Edition
  7
ISO_PROPORTIONAL
 11
551.0
 21
17.0
 31
0.0
 73
     2
  0
LINE
  5
C39
  8
FRAME_070
 10
549.0
 20
10.0
 30
0.0
 11
549.0
 21
20.0
 31
0.0
  0
ATTDEF
  5
C3A
  8
FRAME_025
 10
536.0
 20
31.75
 30
0.0
 40
2.5
  1
00/00/00
  7
ISO_PROPORTIONAL
 11
536.0
 21
33.0
 31
0.0
  3
Date
  2
DATE
 70
     8
 74
     2
  0
TEXT
  5
C3B
  8
FRAME_025
 10
536.0
 20
35.75
 30
0.0
 40
2.5
  1
Date
  7
ISO_PROPORTIONAL
 11
536.0
 21
37.0
 31
0.0
 73
     2
  0
LINE
  5
C3C
  8
FRAME_070
 10
534.0
 20
30.0
 30
0.0
 11
534.0
 21
40.0
 31
0.0
  0
ATTDEF
  5
C3D
  8
FRAME_025
 10
566.0
 20
11.75
 30
0.0
 40
2.5
  1
1/1
  7
ISO_PROPORTIONAL
 11
566.0
 21
13.0
 31
0.0
  3
Sheet
  2
SHEET
 70
     8
 74
     2
  0
TEXT
  5
C3E
  8
FRAME_025
 10
566.0
 20
15.75
 30
0.0
 40
2.5
  1
Sheet
  7
ISO_PROPORTIONAL
 11
566.0
 21
17.0
 31
0.0
 73
     2
  0
LINE
  5
C3F
  8
FRAME_070
 10
564.0
 20
10.0
 30
0.0
 11
564.0
 21
20.0
 31
0.0
  0
ATTDEF
  5
C40
  8
FRAME_025
 10
566.0
 20
31.75
 30
0.0
 40
2.5
  1
1:1
  7
ISO_PROPORTIONAL
 11
566.0
 21
33.0
 31
0.0
  3
Scale
  2
SCALE
 70
     8
 74
     2
  0
TEXT
  5
C41
  8
FRAME_025
 10
566.0
 20
35.75
 30
0.0
 40
2.5
  1
Scale
  7
ISO_PROPORTIONAL
 11
566.0
 21
37.0
 31
0.0
 73
     2
  0
LINE
  5
C42
  8
FRAME_070
 10
564.0
 20
30.0
 30
0.0
 11
564.0
 21
40.0
 31
0.0
  0
LINE
  5
C43
  8
FRAME_200
 10
594.0
 20
0.0
 30
0.0
 11
594.0
 21
10.0
 31
0.0
  0
LINE
  5
C44
  8
FRAME_200
 10
594.0
 20
0.0
 30
0.0
 11
584.0
 21
0.0
 31
0.0
  0
TEXT
  5
C45
  8
FRAME_050
 10
584.89999999999998
 20
35.0
 30
0.0
 40
4.0
  1
H
  7
ISO_PROPORTIONAL
 72
     4
 11
586.5
 21
37.0
 31
0.0
  0
LINE
  5
C46
  8
FRAME_050
 10
589.0
 20
60.0
 30
0.0
 11
584.0
 21
60.0
 31
0.0
  0
TEXT
  5
C47
  8
FRAME_050
 10
585.0035533905932
 20
85.0
 30
0.0
 40
4.0
  1
G
  7
ISO_PROPORTIONAL
 72
     4
 11
586.5
 21
87.0
 31
0.0
  0
LINE
  5
C48
  8
FRAME_050
 10
589.0
 20
110.0
 30
0.0
 11
584.0
 21
110.0
 31
0.0
  0
TEXT
  5
C49
  8
FRAME_050
 10
585.09999999999991
 20
135.0
 30
0.0
 40
4.0
  1
F
  7
ISO_PROPORTIONAL
 72
     4
 11
586.5
 21
137.0
 31
0.0
  0
LINE
  5
C4A
  8
FRAME_050
 10
589.0
 20
160.0
 30
0.0
 11
584.0
 21
160.0
 31
0.0
  0
TEXT
  5
C4B
  8
FRAME_050
 10
585.09999999999991
 20
185.0
 30
0.0
 40
4.0
  1
E
  7
ISO_PROPORTIONAL
 72
     4
 11
586.5
 21
187.0
 31
0.0
  0
LINE
  5
C4C
  8
FRAME_070
 10
414.0
 20
404.0
 30
0.0
 11
584.0
 21
404.0
 31
0.0
  0
TEXT
  5
C4D
  8
FRAME_050
 10
331.39215728752538
 20
410.58284271247459
 30
0.0
 40
4.0
  1
5
  7
ISO_PROPORTIONAL
 72
     4
 11
332.875
 21
412.5
 31
0.0
  0
LINE
  5
C4E
  8
FRAME_050
 10
368.75
 20
410.0
 30
0.0
 11
368.75
 21
415.0
 31
0.0
  0
TEXT
  5
C4F
  8
FRAME_025
 10
428.0
 20
405.75
 30
0.0
 40
2.5
  1
Revision note
  7
ISO_PROPORTIONAL
 11
428.0
 21
407.0
 31
0.0
 73
     2
  0
TEXT
  5
C50
  8
FRAME_025
 10
416.0
 20
405.75
 30
0.0
 40
2.5
  1
RevNo
  7
ISO_PROPORTIONAL
 11
416.0
 21
407.0
 31
0.0
 73
     2
  0
LINE
  5
C51
  8
FRAME_070
 10
426.0
 20
404.0
 30
0.0
 11
426.0
 21
410.0
 31
0.0
  0
LINE
  5
C52
  8
FRAME_070
 10
414.0
 20
404.0
 30
0.0
 11
414.0
 21
410.0
 31
0.0
  0
TEXT
  5
C53
  8
FRAME_050
 10
403.24547244094481
 20
410.41023622047243
 30
0.0
 40
4.0
  1
6
  7
ISO_PROPORTIONAL
 72
     4
 11
404.62499999999989
 21
412.5
 31
0.0
  0
LINE
  5
C54
  8
FRAME_050
 10
440.5
 20
410.0
 30
0.0
 11
440.5
 21
415.0
 31
0.0
  0
TEXT
  5
C55
  8
FRAME_050
 10
474.97499999999991
 20
410.5
 30
0.0
 40
4.0
  1
7
  7
ISO_PROPORTIONAL
 72
     4
 11
476.37499999999989
 21
412.5
 31
0.0
  0
LINE
  5
C56
  8
FRAME_050
 10
579.0
 20
210.0
 30
0.0
 11
589.0
 21
210.0
 31
0.0
  0
TEXT
  5
C57
  8
FRAME_050
 10
584.78609127034736
 20
235.0
 30
0.0
 40
4.0
  1
D
  7
ISO_PROPORTIONAL
 72
     4
 11
586.5
 21
237.0
 31
0.0
  0
LINE
  5
C58
  8
FRAME_050
 10
589.0
 20
260.0
 30
0.0
 11
584.0
 21
260.0
 31
0.0
  0
TEXT
  5
C59
  8
FRAME_050
 10
585.19319805153395
 20
285.0
 30
0.0
 40
4.0
  1
C
  7
ISO_PROPORTIONAL
 72
     4
 11
586.5
 21
287.0
 31
0.0
  0
LINE
  5
C5A
  8
FRAME_050
 10
589.0
 20
310.0
 30
0.0
 11
584.0
 21
310.0
 31
0.0
  0
TEXT
  5
C5B
  8
FRAME_050
 10
584.89999999999998
 20
335.0
 30
0.0
 40
4.0
  1
B
  7
ISO_PROPORTIONAL
 72
     4
 11
586.5
 21
337.0
 31
0.0
  0
TEXT
  5
C5C
  8
FRAME_025
 10
571.08299391850551
 20
405.75
 30
0.0
 40
2.5
  1
Checked
  7
ISO_PROPORTIONAL
 11
571.08299391850551
 21
407.0
 31
0.0
 73
     2
  0
TEXT
  5
C5D
  8
FRAME_025
 10
555.36099797283521
 20
405.75
 30
0.0
 40
2.5
  1
Signature
  7
ISO_PROPORTIONAL
 11
555.36099797283521
 21
407.0
 31
0.0
 73
     2
  0
TEXT
  5
C5E
  8
FRAME_025
 10
537.0
 20
405.75
 30
0.0
 40
2.5
  1
Date
  7
ISO_PROPORTIONAL
 11
537.0
 21
407.0
 31
0.0
 73
     2
  0
LINE
  5
C5F
  8
FRAME_070
 10
570.0
 20
404.0
 30
0.0
 11
570.0
 21
410.0
 31
0.0
  0
LINE
  5
C60
  8
FRAME_070
 10
555.0
 20
404.0
 30
0.0
 11
555.0
 21
410.0
 31
0.0
  0
LINE
  5
C61
  8
FRAME_070
 10
535.0
 20
404.0
 30
0.0
 11
535.0
 21
410.0
 31
0.0
  0
LINE
  5
C62
  8
FRAME_050
 10
512.25
 20
410.0
 30
0.0
 11
512.25
 21
415.0
 31
0.0
  0
TEXT
  5
C63
  8
FRAME_050
 10
546.72499999999991
 20
410.5
 30
0.0
 40
4.0
  1
8
  7
ISO_PROPORTIONAL
 72
     4
 11
548.125
 21
412.5
 31
0.0
  0
LINE
  5
C64
  8
FRAME_050
 10
589.0
 20
360.0
 30
0.0
 11
584.0
 21
360.0
 31
0.0
  0
TEXT
  5
C65
  8
FRAME_050
 10
584.70000000000005
 20
385.0
 30
0.0
 40
4.0
  1
A
  7
ISO_PROPORTIONAL
 72
     4
 11
586.5
 21
387.0
 31
0.0
  0
LINE
  5
C66
  8
FRAME_200
 10
594.0
 20
420.0
 30
0.0
 11
584.0
 21
420.0
 31
0.0
  0
LINE
  5
C67
  8
FRAME_200
 10
594.0
 20
410.0
 30
0.0
 11
594.0
 21
420.0
 31
0.0
  0
ENDBLK
  5
C69
  8
0
  0
BLOCK
  8
0
  2
WOBB001END
 70
     0
 10
0.0
 20
0.0
 30
0.0
  3
WOBB001END
  1

  0
LINE
  5
4D66
  8
0
  6
CONTINUOUS
 10
0.0
 20
0.0
 30
0.0
 11
0.8749999999999998
 21
0.0
 31
0.0
  0
ARC
  5
4D67
  8
0
  6
CONTINUOUS
 10
0.0331648379439287
 20
-0.5087238935900234
 30
0.0
 40
0.8790130605592325
 50
284.06490243660443
 51
312.19222981924361
  0
ARC
  5
4D68
  8
0
  6
CONTINUOUS
 10
0.2841534338796767
 20
-1.510548310625538
 30
0.0
 40
0.1537731892806598
 50
104.0649024366044
 51
179.4721730735024
  0
LINE
  5
4D69
  8
0
  6
CONTINUOUS
 10
0.0
 20
0.0
 30
0.0
 11
-0.0000000000000003
 21
-1.7501564476661911
 31
0.0
  0
ARC
  5
4D6A
  8
0
  6
CONTINUOUS
 10
0.1404622019506122
 20
-1.630313718354619
 30
0.0
 40
0.1198427293115722
 50
275.0
 51
85.000000000000057
  0
LINE
  5
4D6B
  8
0
  6
CONTINUOUS
 10
-0.0000000000000003
 20
-1.7501564476661911
 30
0.0
 11
0.1456946485130855
 21
-1.7501564476661911
 31
0.0
  0
LINE
  5
4D6C
  8
0
  6
CONTINUOUS
 10
0.1377603739254348
 20
-1.7508506067459131
 30
0.0
 11
0.150907184036669
 21
-1.7497004098996509
 31
0.0
  0
LINE
  5
4D6D
  8
0
  6
CONTINUOUS
 10
0.1303867696719884
 20
-1.5091317231818231
 30
0.0
 11
0.1509071840366689
 21
-1.510927026809586
 31
0.0
  0
LINE
  5
4D6E
  8
0
  6
CONTINUOUS
 10
0.8749999999999998
 20
0.0
 30
0.0
 11
0.8749999999999996
 21
-0.8649327026588228
 31
0.0
  0
LINE
  5
4D6F
  8
0
  6
CONTINUOUS
 10
0.727014513830997
 20
-0.872688293355061
 30
0.0
 11
0.727014513830997
 21
-0.9264923397184784
 31
0.0
  0
ARC
  5
4D70
  8
0
  6
CONTINUOUS
 10
0.41187090827646
 20
-0.9264923397184784
 30
0.0
 40
0.3151436055545369
 50
312.19222981924361
 51
0.0
  0
LINE
  5
4D71
  8
0
  6
CONTINUOUS
 10
0.727014513830997
 20
-0.872688293355061
 30
0.0
 11
0.8749999999999996
 21
-0.8649327026588228
 31
0.0
  0
ENDBLK
  5
4D72
  8
0
  0
BLOCK
  8
0
  2
A$C0A61123B
 70
     0
 10
0.0
 20
0.0
 30
0.0
  3
A$C0A61123B
  1

  0
LINE
  5
C0AD
  8
PROF
  6
CONTINUOUS
 10
4.9012016798694162
 20
13.325025853350891
 30
0.0000000000000002
 11
4.9012016798694162
 21
12.88585218805485
 31
0.0000000000000003
  0
INSERT
  5
C0AE
  8
0
  2
*U7
 10
0.0
 20
0.0
 30
0.0
  0
LINE
  5
C0AF
  8
PROF
 10
4.519857503186925
 20
12.72227734589444
 30
0.0000000000000001
 11
4.519857503186925
 21
12.88585218805485
 31
0.0000000000000001
  0
LINE
  5
C0B0
  8
PROF
  6
CONTINUOUS
 10
3.6306271195888362
 20
13.325025853350891
 30
0.0000000000000002
 11
4.9012016798694162
 21
13.325025853350891
 31
0.0000000000000002
  0
LINE
  5
C0B1
  8
PROF
 10
1.9750295148747341
 20
10.37671325491794
 30
0.0000000000000002
 11
1.9750295148747341
 21
10.11391186758919
 31
0.0000000000000002
  0
LINE
  5
C0B2
  8
PROF
 10
1.6079673357556299
 20
10.11391186758919
 30
0.0000000000000001
 11
1.9750295148747341
 21
10.11391186758919
 31
0.0000000000000001
  0
LINE
  5
C0B3
  8
PROF
 10
1.9750295148747341
 20
10.11391186758919
 30
0.0000000000000001
 11
1.944958486898144
 21
10.11391186758919
 31
0.0000000000000001
  0
LINE
  5
C0B4
  8
PROF
 10
1.9750295148747341
 20
10.11391186758919
 30
0.0000000000000001
 11
1.944958486898144
 21
10.11391186758919
 31
0.0000000000000001
  0
LINE
  5
C0B5
  8
PROF
 10
0.3222605517169654
 20
7.5247473351056451
 30
-0.0000000000000002
 11
-0.0000008570117416
 21
7.5247473351056451
 31
0.0
  0
LINE
  5
C0B6
  8
PROF
 10
-0.0000008570117416
 20
7.5247473351056451
 30
0.0
 11
-0.0000008570117416
 21
9.1943336957369848
 31
0.0
  0
POLYLINE
  5
C0B7
  8
PROF
 66
     1
 10
0.0
 20
0.0
 30
0.0000000000000001
 70
     4
 75
     6
  0
VERTEX
  5
C0B8
  8
PROF
 10
1.6079673357556299
 20
10.11391186758919
 30
0.0000000000000001
 70
    16
  0
VERTEX
  5
C0B9
  8
PROF
 10
1.6079673357556299
 20
10.11391186758919
 30
0.0000000000000001
 70
     8
  0
VERTEX
  5
C0BA
  8
PROF
 10
1.6468132326485809
 20
10.02198069336111
 30
0.0000000000000001
 70
     8
  0
VERTEX
  5
C0BB
  8
PROF
 10
1.67335966680929
 20
9.9344134163010231
 30
0.0000000000000001
 70
     8
  0
VERTEX
  5
C0BC
  8
PROF
 10
1.6890086400463229
 20
9.8512576644480951
 30
0.0000000000000001
 70
     8
  0
VERTEX
  5
C0BD
  8
PROF
 10
1.6951621541682571
 20
9.7725610658417281
 30
0.0000000000000001
 70
     8
  0
VERTEX
  5
C0BE
  8
PROF
 10
1.693222210983605
 20
9.6983712485214237
 30
0.0000000000000001
 70
     8
  0
VERTEX
  5
C0BF
  8
PROF
 10
1.6845908123009961
 20
9.6287358405263603
 30
0.0000000000000001
 70
     8
  0
VERTEX
  5
C0C0
  8
PROF
 10
1.670669959928885
 20
9.5637024698960431
 30
0.0000000000000001
 70
     8
  0
VERTEX
  5
C0C1
  8
PROF
 10
1.6528616556759621
 20
9.5033187646697552
 30
0.0000000000000001
 70
     8
  0
VERTEX
  5
C0C2
  8
PROF
 10
1.632356299273054
 20
9.4475843259650691
 30
0.0000000000000001
 70
     8
  0
VERTEX
  5
C0C3
  8
PROF
 10
1.609497882140658
 20
9.3963066472123273
 30
0.0000000000000001
 70
     8
  0
VERTEX
  5
C0C4
  8
PROF
 10
1.584418793621637
 20
9.3492451949202842
 30
0.0000000000000001
 70
     8
  0
VERTEX
  5
C0C5
  8
PROF
 10
1.5572514230587431
 20
9.3061594355972357
 30
0.0000000000000001
 70
     8
  0
VERTEX
  5
C0C6
  8
PROF
 10
1.5281281597949601
 20
9.2668088357519274
 30
0.0000000000000001
 70
     8
  0
VERTEX
  5
C0C7
  8
PROF
 10
1.497181393172978
 20
9.2309528618929981
 30
0.0000000000000001
 70
     8
  0
VERTEX
  5
C0C8
  8
PROF
 10
1.4645435125357249
 20
9.1983509805288541
 30
0.0000000000000001
 70
     8
  0
VERTEX
  5
C0C9
  8
PROF
 10
1.4303469072260091
 20
9.1687626581682462
 30
0.0000000000000001
 70
     8
  0
VERTEX
  5
C0CA
  8
PROF
 10
1.394736033257401
 20
9.1419547918675335
 30
0.0000000000000001
 70
     8
  0
VERTEX
  5
C0CB
  8
PROF
 10
1.3579036133264131
 20
9.1177240008747713
 30
0.0000000000000001
 70
     8
  0
VERTEX
  5
C0CC
  8
PROF
 10
1.3200544368004321
 20
9.0958743349860924
 30
0.0000000000000001
 70
     8
  0
VERTEX
  5
C0CD
  8
PROF
 10
1.281393293046676
 20
9.0762098439975034
 30
0.0000000000000001
 70
     8
  0
VERTEX
  5
C0CE
  8
PROF
 10
1.2421249714324161
 20
9.0585345777049042
 30
0.0000000000000001
 70
     8
  0
VERTEX
  5
C0CF
  8
PROF
 10
1.202454261324986
 20
9.0426525859044187
 30
0.0000000000000001
 70
     8
  0
VERTEX
  5
C0D0
  8
PROF
 10
1.162585952091659
 20
9.0283679183919503
 30
0.0000000000000001
 70
     8
  0
VERTEX
  5
C0D1
  8
PROF
 10
1.1227248330997091
 20
9.0154846249635021
 30
0.0000000000000001
 70
     8
  0
VERTEX
  5
C0D2
  8
PROF
 10
1.0829726247361
 20
9.0034643862466055
 30
0.0000000000000001
 70
     8
  0
VERTEX
  5
C0D3
  8
PROF
 10
1.043018771466222
 20
8.9903994061946833
 30
0.0000000000000001
 70
     8
  0
VERTEX
  5
C0D4
  8
PROF
 10
1.002449648775211
 20
8.9740395195925622
 30
0.0000000000000001
 70
     8
  0
VERTEX
  5
C0D5
  8
PROF
 10
0.9608516321480919
 20
8.9521345612251935
 30
0.0000000000000001
 70
     8
  0
VERTEX
  5
C0D6
  8
PROF
 10
0.9178110970699435
 20
8.9224343658775052
 30
0.0000000000000001
 70
     8
  0
VERTEX
  5
C0D7
  8
PROF
 10
0.8729144190259033
 20
8.8826887683343312
 30
0.0000000000000001
 70
     8
  0
VERTEX
  5
C0D8
  8
PROF
 10
0.8257479735009949
 20
8.8306476033806121
 30
0.0000000000000001
 70
     8
  0
VERTEX
  5
C0D9
  8
PROF
 10
0.7758981359802988
 20
8.764060705801171
 30
0.0000000000000001
 70
     8
  0
VERTEX
  5
C0DA
  8
PROF
 10
1.7292019016096549
 20
9.8629858761255491
 30
0.0000000000000001
 70
    16
  0
VERTEX
  5
C0DB
  8
PROF
 10
1.679373123114088
 20
9.4532143012734213
 30
0.0000000000000001
 70
    16
  0
VERTEX
  5
C0DC
  8
PROF
 10
1.4455611507419801
 20
9.1391837193732481
 30
0.0000000000000001
 70
    16
  0
VERTEX
  5
C0DD
  8
PROF
 10
1.1204637172738201
 20
9.0026267702428413
 30
0.0000000000000001
 70
    16
  0
VERTEX
  5
C0DE
  8
PROF
 10
0.9127765582653638
 20
8.9630202230383702
 30
0.0000000000000001
 70
    16
  0
VERTEX
  5
C0DF
  8
PROF
 10
0.7758981359802988
 20
8.764060705801171
 30
0.0000000000000001
 70
    16
  0
SEQEND
  5
C0E0
  8
PROF
  0
ARC
  5
C0E1
  8
PROF
 10
0.733429816733235
 20
8.4849506952165257
 30
0.0000000000000001
 40
0.2823224329524727
 50
269.73652020831901
 51
81.348449993176914
  0
LINE
  5
C0E2
  8
PROF
  6
CONTINUOUS
 10
-0.0000008570117416
 20
9.1943336957369848
 30
-0.0000000000000001
 11
3.6306271195888362
 21
13.325025853350891
 31
0.0000000000000002
  0
POLYLINE
  5
C0E3
  8
PROF
 66
     1
 10
0.0
 20
0.0
 30
0.0000000000000001
 70
     4
 75
     6
  0
VERTEX
  5
C0E4
  8
PROF
 10
4.519857503186925
 20
12.72227734589444
 30
0.0000000000000001
 70
    16
  0
VERTEX
  5
C0E5
  8
PROF
 10
4.519857503186925
 20
12.72227734589444
 30
0.0000000000000001
 70
     8
  0
VERTEX
  5
C0E6
  8
PROF
 10
4.4467035366886289
 20
12.741128108778071
 30
0.0000000000000001
 70
     8
  0
VERTEX
  5
C0E7
  8
PROF
 10
4.3786645761268801
 20
12.754675269913941
 30
0.0000000000000001
 70
     8
  0
VERTEX
  5
C0E8
  8
PROF
 10
4.3154364111440469
 20
12.76334314092332
 30
0.0000000000000001
 70
     8
  0
VERTEX
  5
C0E9
  8
PROF
 10
4.256714831382566
 20
12.76755603342724
 30
0.0000000000000001
 70
     8
  0
VERTEX
  5
C0EA
  8
PROF
 10
4.2021956264849791
 20
12.76773825904672
 30
0.0000000000000001
 70
     8
  0
VERTEX
  5
C0EB
  8
PROF
 10
4.1515745860935436
 20
12.764314129403139
 30
0.0000000000000001
 70
     8
  0
VERTEX
  5
C0EC
  8
PROF
 10
4.1045474998508649
 20
12.75770795611743
 30
0.0000000000000001
 70
     8
  0
VERTEX
  5
C0ED
  8
PROF
 10
4.0608101573993149
 20
12.748344050810831
 30
0.0000000000000001
 70
     8
  0
VERTEX
  5
C0EE
  8
PROF
 10
4.0200583483813261
 20
12.736646725104491
 30
0.0000000000000001
 70
     8
  0
VERTEX
  5
C0EF
  8
PROF
 10
3.981987862439381
 20
12.72304029061945
 30
0.0000000000000001
 70
     8
  0
VERTEX
  5
C0F0
  8
PROF
 10
3.946294489215858
 20
12.707949058976959
 30
0.0000000000000001
 70
     8
  0
VERTEX
  5
C0F1
  8
PROF
 10
3.912674018353242
 20
12.691797341798059
 30
0.0000000000000001
 70
     8
  0
VERTEX
  5
C0F2
  8
PROF
 10
3.8808638350742499
 20
12.67494295718654
 30
0.0000000000000001
 70
     8
  0
VERTEX
  5
C0F3
  8
PROF
 10
3.850767706922738
 20
12.65747774917668
 30
0.0000000000000001
 70
     8
  0
VERTEX
  5
C0F4
  8
PROF
 10
3.8223309970228438
 20
12.639427068285499
 30
0.0000000000000001
 70
     8
  0
VERTEX
  5
C0F5
  8
PROF
 10
3.795499068498712
 20
12.62081626503004
 30
0.0000000000000001
 70
     8
  0
VERTEX
  5
C0F6
  8
PROF
 10
3.7702172844744819
 20
12.601670689926999
 30
0.0000000000000001
 70
     8
  0
VERTEX
  5
C0F7
  8
PROF
 10
3.7464310080743521
 20
12.58201569349364
 30
0.0000000000000001
 70
     8
  0
VERTEX
  5
C0F8
  8
PROF
 10
3.7240856024224609
 20
12.56187662624666
 30
0.0000000000000001
 70
     8
  0
VERTEX
  5
C0F9
  8
PROF
 10
3.7031264306428961
 20
12.541278838703191
 30
0.0000000000000001
 70
     8
  0
VERTEX
  5
C0FA
  8
PROF
 10
3.683498855859908
 20
12.520247681380051
 30
0.0000000000000001
 70
     8
  0
VERTEX
  5
C0FB
  8
PROF
 10
3.665148241197528
 20
12.49880850479428
 30
0.0000000000000001
 70
     8
  0
VERTEX
  5
C0FC
  8
PROF
 10
3.648019949779949
 20
12.47698665946279
 30
0.0000000000000001
 70
     8
  0
VERTEX
  5
C0FD
  8
PROF
 10
3.6320593447313159
 20
12.45480749590263
 30
0.0000000000000001
 70
     8
  0
VERTEX
  5
C0FE
  8
PROF
 10
3.617189584886658
 20
12.43223790353807
 30
0.0000000000000001
 70
     8
  0
VERTEX
  5
C0FF
  8
PROF
 10
3.6032450119242849
 20
12.40901092742285
 30
0.0000000000000001
 70
     8
  0
VERTEX
  5
C100
  8
PROF
 10
3.590037763233453
 20
12.38480115151844
 30
0.0000000000000001
 70
     8
  0
VERTEX
  5
C101
  8
PROF
 10
3.5773799762033032
 20
12.35928315978594
 30
0.0000000000000001
 70
     8
  0
VERTEX
  5
C102
  8
PROF
 10
3.5650837882230899
 20
12.33213153618658
 30
0.0000000000000001
 70
     8
  0
VERTEX
  5
C103
  8
PROF
 10
3.552961336681959
 20
12.303020864681571
 30
0.0000000000000001
 70
     8
  0
VERTEX
  5
C104
  8
PROF
 10
3.540824758969165
 20
12.271625729232371
 30
0.0000000000000001
 70
     8
  0
VERTEX
  5
C105
  8
PROF
 10
3.528486192473848
 20
12.23762071379997
 30
0.0000000000000001
 70
     8
  0
VERTEX
  5
C106
  8
PROF
 10
3.5157577745852659
 20
12.200680402345711
 30
0.0000000000000001
 70
     8
  0
VERTEX
  5
C107
  8
PROF
 10
3.502451642692618
 20
12.16047937883093
 30
0.0000000000000001
 70
     8
  0
VERTEX
  5
C108
  8
PROF
 10
3.4883799341851041
 20
12.116692227216619
 30
0.0000000000000001
 70
     8
  0
VERTEX
  5
C109
  8
PROF
 10
3.4733547864519201
 20
12.06899353146423
 30
0.0000000000000001
 70
     8
  0
VERTEX
  5
C10A
  8
PROF
 10
3.45723654619428
 20
12.0172095445447
 30
0.0000000000000001
 70
     8
  0
VERTEX
  5
C10B
  8
PROF
 10
3.440078397361388
 20
11.961773195467799
 30
0.0000000000000001
 70
     8
  0
VERTEX
  5
C10C
  8
PROF
 10
3.4219817332145781
 20
11.90326908225302
 30
0.0000000000000001
 70
     8
  0
VERTEX
  5
C10D
  8
PROF
 10
3.4030479470150099
 20
11.842281802919951
 30
0.0000000000000001
 70
     8
  0
VERTEX
  5
C10E
  8
PROF
 10
3.383378432024017
 20
11.779395955487979
 30
0.0000000000000001
 70
     8
  0
VERTEX
  5
C10F
  8
PROF
 10
3.36307458150287
 20
11.7151961379768
 30
0.0000000000000001
 70
     8
  0
VERTEX
  5
C110
  8
PROF
 10
3.342237788712735
 20
11.650266948405831
 30
0.0000000000000001
 70
     8
  0
VERTEX
  5
C111
  8
PROF
 10
3.3209694469149991
 20
11.58519298479461
 30
0.0000000000000001
 70
     8
  0
VERTEX
  5
C112
  8
PROF
 10
3.299370949370767
 20
11.52055884516254
 30
0.0000000000000001
 70
     8
  0
VERTEX
  5
C113
  8
PROF
 10
3.277543689341428
 20
11.456949127529461
 30
0.0000000000000001
 70
     8
  0
VERTEX
  5
C114
  8
PROF
 10
3.2555890600881399
 20
11.3949484299145
 30
0.0000000000000001
 70
     8
  0
VERTEX
  5
C115
  8
PROF
 10
3.2336084548721811
 20
11.335141350337491
 30
0.0000000000000001
 70
     8
  0
VERTEX
  5
C116
  8
PROF
 10
3.2116715641212181
 20
11.277995447977769
 30
0.0000000000000001
 70
     8
  0
VERTEX
  5
C117
  8
PROF
 10
3.1897212669278461
 20
11.22351012665467
 30
0.0000000000000001
 70
     8
  0
VERTEX
  5
C118
  8
PROF
 10
3.1676687395512881
 20
11.17156775134765
 30
0.0000000000000001
 70
     8
  0
VERTEX
  5
C119
  8
PROF
 10
3.1454251582505321
 20
11.12205068703588
 30
0.0000000000000001
 70
     8
  0
VERTEX
  5
C11A
  8
PROF
 10
3.122901699284625
 20
11.07484129869874
 30
0.0000000000000001
 70
     8
  0
VERTEX
  5
C11B
  8
PROF
 10
3.1000095389127278
 20
11.02982195131551
 30
0.0000000000000001
 70
     8
  0
VERTEX
  5
C11C
  8
PROF
 10
3.07665985339389
 20
10.986875009865679
 30
0.0000000000000001
 70
     8
  0
VERTEX
  5
C11D
  8
PROF
 10
3.0527638189871591
 20
10.9458828393283
 30
0.0000000000000001
 70
     8
  0
VERTEX
  5
C11E
  8
PROF
 10
3.0282326119516361
 20
10.90672780468298
 30
0.0000000000000001
 70
     8
  0
VERTEX
  5
C11F
  8
PROF
 10
3.0029774085463701
 20
10.869292270908771
 30
0.0000000000000001
 70
     8
  0
VERTEX
  5
C120
  8
PROF
 10
2.9769093850304089
 20
10.833458602985161
 30
0.0000000000000001
 70
     8
  0
VERTEX
  5
C121
  8
PROF
 10
2.9499397176628559
 20
10.799109165891419
 30
0.0000000000000001
 70
     8
  0
VERTEX
  5
C122
  8
PROF
 10
2.922000609840437
 20
10.76614363969508
 30
0.0000000000000001
 70
     8
  0
VERTEX
  5
C123
  8
PROF
 10
2.8931083735102998
 20
10.7345309648158
 30
0.0000000000000001
 70
     8
  0
VERTEX
  5
C124
  8
PROF
 10
2.8633003477572729
 20
10.70425739676193
 30
0.0000000000000001
 70
     8
  0
VERTEX
  5
C125
  8
PROF
 10
2.8326138716660689
 20
10.67530919104115
 30
0.0000000000000001
 70
     8
  0
VERTEX
  5
C126
  8
PROF
 10
2.801086284321626
 20
10.647672603161711
 30
0.0000000000000001
 70
     8
  0
VERTEX
  5
C127
  8
PROF
 10
2.7687549248087162
 20
10.62133388863162
 30
0.0000000000000001
 70
     8
  0
VERTEX
  5
C128
  8
PROF
 10
2.7356571322120531
 20
10.5962793029588
 30
0.0000000000000001
 70
     8
  0
VERTEX
  5
C129
  8
PROF
 10
2.7018302456165202
 20
10.572495101651381
 30
0.0000000000000001
 70
     8
  0
VERTEX
  5
C12A
  8
PROF
 10
2.6673116041068838
 20
10.54996754021726
 30
0.0000000000000001
 70
     8
  0
VERTEX
  5
C12B
  8
PROF
 10
2.6321385467680321
 20
10.528682874164581
 30
0.0000000000000001
 70
     8
  0
VERTEX
  5
C12C
  8
PROF
 10
2.5963484126846179
 20
10.508627359001251
 30
0.0000000000000001
 70
     8
  0
VERTEX
  5
C12D
  8
PROF
 10
2.5599785409415841
 20
10.489787250235279
 30
0.0000000000000001
 70
     8
  0
VERTEX
  5
C12E
  8
PROF
 10
2.522998630314361
 20
10.472162234281081
 30
0.0000000000000001
 70
     8
  0
VERTEX
  5
C12F
  8
PROF
 10
2.4851078183409072
 20
10.455805721177621
 30
0.0000000000000001
 70
     8
  0
VERTEX
  5
C130
  8
PROF
 10
2.4459376022498982
 20
10.44078455187036
 30
0.0000000000000001
 70
     8
  0
VERTEX
  5
C131
  8
PROF
 10
2.4051194792701249
 20
10.42716556730465
 30
0.0000000000000001
 70
     8
  0
VERTEX
  5
C132
  8
PROF
 10
2.3622849466301541
 20
10.415015608425851
 30
0.0000000000000001
 70
     8
  0
VERTEX
  5
C133
  8
PROF
 10
2.317065501558714
 20
10.40440151617929
 30
0.0000000000000001
 70
     8
  0
VERTEX
  5
C134
  8
PROF
 10
2.2690926412844301
 20
10.395390131510339
 30
0.0000000000000001
 70
     8
  0
VERTEX
  5
C135
  8
PROF
 10
2.2179978630360879
 20
10.388048295364451
 30
0.0000000000000001
 70
     8
  0
VERTEX
  5
C136
  8
PROF
 10
2.1634126640422551
 20
10.38244284868688
 30
0.0000000000000001
 70
     8
  0
VERTEX
  5
C137
  8
PROF
 10
2.1049685415316031
 20
10.37864063242295
 30
0.0000000000000001
 70
     8
  0
VERTEX
  5
C138
  8
PROF
 10
2.0422969927328709
 20
10.37670848751816
 30
0.0000000000000001
 70
     8
  0
VERTEX
  5
C139
  8
PROF
 10
1.9750295148747341
 20
10.37671325491794
 30
0.0000000000000001
 70
     8
  0
VERTEX
  5
C13A
  8
PROF
 10
4.2166060115107484
 20
12.80885334975255
 30
0.0000000000000001
 70
    16
  0
VERTEX
  5
C13B
  8
PROF
 10
3.8702254102732909
 20
12.707065515763929
 30
0.0000000000000001
 70
    16
  0
VERTEX
  5
C13C
  8
PROF
 10
3.605346156896871
 20
12.46277472098552
 30
0.0000000000000001
 70
    16
  0
VERTEX
  5
C13D
  8
PROF
 10
3.500746030527238
 20
12.170680575709749
 30
0.0000000000000001
 70
    16
  0
VERTEX
  5
C13E
  8
PROF
 10
3.231798439705698
 20
11.26846416496107
 30
0.0000000000000001
 70
    16
  0
VERTEX
  5
C13F
  8
PROF
 10
2.9737109398832882
 20
10.76631086647069
 30
0.0000000000000001
 70
    16
  0
VERTEX
  5
C140
  8
PROF
 10
2.5729961067384002
 20
10.460947364504699
 30
0.0000000000000001
 70
    16
  0
VERTEX
  5
C141
  8
PROF
 10
2.2537826214546031
 20
10.372731239449759
 30
0.0000000000000001
 70
    16
  0
VERTEX
  5
C142
  8
PROF
 10
1.9750295148747341
 20
10.37671325491794
 30
0.0000000000000001
 70
    16
  0
SEQEND
  5
C143
  8
PROF
  0
LINE
  5
C144
  8
PROF
 10
4.9012016798694162
 20
12.88585218805485
 30
0.0000000000000003
 11
4.519857503186925
 21
12.88585218805485
 31
0.0000000000000003
  0
LINE
  5
C145
  8
PROF
 10
0.7321315362267457
 20
8.2026312473991556
 30
0.0000000000000006
 11
0.7321315362267457
 21
8.0511853963434952
 31
0.0000000000000006
  0
ARC
  5
C146
  8
PROF
 10
0.7977322214551919
 20
7.577333933202679
 30
0.0000000000000006
 40
0.4783708383912013
 50
97.882010168942557
 51
186.31119505698641
  0
LINE
  5
C147
  8
FRAME_050
 10
7.8016377197432121
 20
17.99371054969447
 30
0.0
 11
7.8016377197432121
 21
0.0000000000002274
 31
0.0
  0
ENDBLK
  5
C149
  8
0
  0
BLOCK
  8
0
  2
*U7
 70
     1
 10
0.0
 20
0.0
 30
0.0
  3
*U7
  1

  0
TEXT
  5
C8C3
  8
0
 10
3.5177832928899071
 20
10.38601584255777
 30
0.0
 40
0.125
  1
Crown Moulding
  0
TEXT
  5
C8C4
  8
0
 10
3.5223876585106431
 20
10.17717091304435
 30
0.0
 40
0.125
  1
TL-AB509
  0
TEXT
  5
C8C5
  8
0
 10
3.5074661032582561
 20
9.9667059289606801
 30
0.0
 40
0.125
  1
1-5/16" x 7-9/16"
  0
TEXT
  5
C8C6
  8
0
 10
3.519403347460166
 20
9.7562409448770051
 30
0.0
 40
0.125
  1
800.66.TAGUE
  0
ENDBLK
  5
C8C8
  8
0
  0
BLOCK
  8
0
  2
*U22
 70
     1
 10
0.0
 20
0.0
 30
0.0
  3
*U22
  1

  0
TEXT
  5
16E8F
  8
0
 62
     0
 10
-346.15979271546257
 20
508.16262619726342
 30
0.0
 40
0.125
  1
Cutter
 50
90.0
  0
ENDBLK
  5
16E91
  8
0
  0
BLOCK
  8
0
  2
*U23
 70
     1
 10
0.0
 20
0.0
 30
0.0
  3
*U23
  1

  0
TEXT
  5
16E93
  8
0
 62
     0
 10
-386.5390653119602
 20
838.32040714068194
 30
0.0
 40
0.125
  1
Cutter
 50
90.0
  0
ENDBLK
  5
16E95
  8
0
  0
BLOCK
  8
0
  2
*U24
 70
     1
 10
0.0
 20
0.0
 30
0.0
  3
*U24
  1

  0
TEXT
  5
16E97
  8
0
 62
     0
 10
-367.02425303528412
 20
426.35429858331162
 30
0.0
 40
0.125
  1
1
 50
90.0
  0
TEXT
  5
16E98
  8
0
 62
     0
 10
-367.10758636861738
 20
426.43763191664488
 30
0.0
 40
0.125
  1
3
 50
90.0
  0
LINE
  5
16E99
  8
0
 62
     0
 10
-367.08675303528412
 20
426.43763191664488
 30
0.0
 11
-367.08675303528412
 21
426.52096524997819
 31
0.0
  0
TEXT
  5
16E9A
  8
0
 62
     0
 10
-366.9409197019508
 20
426.43763191664488
 30
0.0
 40
0.125
  1
4
 50
90.0
  0
TEXT
  5
16E9B
  8
0
 62
     0
 10
-367.02425303528412
 20
426.56263191664482
 30
0.0
 40
0.125
  1
"
 50
90.0
  0
ENDBLK
  5
16E9D
  8
0
  0
BLOCK
  8
0
  2
*U25
 70
     1
 10
0.0
 20
0.0
 30
0.0
  3
*U25
  1

  0
TEXT
  5
16E9F
  8
0
 62
     0
 10
-364.19000805364777
 20
425.28877174148101
 30
0.0
 40
0.125
  1
7
  0
LINE
  5
16EA0
  8
0
 62
     0
 10
-364.19000805364777
 20
425.2679384081477
 30
0.0
 11
-364.10667472031452
 21
425.2679384081477
 31
0.0
  0
TEXT
  5
16EA1
  8
0
 62
     0
 10
-364.19000805364777
 20
425.12210507481433
 30
0.0
 40
0.125
  1
8
  0
TEXT
  5
16EA2
  8
0
 62
     0
 10
-364.06500805364777
 20
425.2054384081477
 30
0.0
 40
0.125
  1
"
  0
ENDBLK
  5
16EA4
  8
0
  0
BLOCK
  8
0
  2
*U26
 70
     1
 10
0.0
 20
0.0
 30
0.0
  3
*U26
  1

  0
TEXT
  5
16EA6
  8
0
 62
     0
 10
-363.14629495961572
 20
426.36117705424232
 30
0.0
 40
0.125
  1
1
 50
90.0
  0
TEXT
  5
16EA7
  8
0
 62
     0
 10
-363.22962829294897
 20
426.46534372090889
 30
0.0
 40
0.125
  1
1
 50
90.0
  0
LINE
  5
16EA8
  8
0
 62
     0
 10
-363.20879495961572
 20
426.44451038757558
 30
0.0
 11
-363.20879495961572
 21
426.52784372090889
 31
0.0
  0
TEXT
  5
16EA9
  8
0
 62
     0
 10
-363.06296162628229
 20
426.44451038757558
 30
0.0
 40
0.125
  1
2
 50
90.0
  0
TEXT
  5
16EAA
  8
0
 62
     0
 10
-363.14629495961572
 20
426.56951038757558
 30
0.0
 40
0.125
  1
"
 50
90.0
  0
ENDBLK
  5
16EAC
  8
0
  0
BLOCK
  8
0
  2
*U27
 70
     1
 10
0.0
 20
0.0
 30
0.0
  3
*U27
  1

  0
TEXT
  5
16EAE
  8
0
 62
     0
 10
-387.96524739614358
 20
838.7451809866343
 30
0.0
 40
0.125
  1
1
 50
90.0
  0
TEXT
  5
16EAF
  8
0
 62
     0
 10
-388.0485807294769
 20
838.82851431996767
 30
0.0
 40
0.125
  1
3
 50
90.0
  0
LINE
  5
16EB0
  8
0
 62
     0
 10
-388.02774739614358
 20
838.82851431996767
 30
0.0
 11
-388.02774739614358
 21
838.91184765330104
 31
0.0
  0
TEXT
  5
16EB1
  8
0
 62
     0
 10
-387.88191406281032
 20
838.82851431996767
 30
0.0
 40
0.125
  1
4
 50
90.0
  0
TEXT
  5
16EB2
  8
0
 62
     0
 10
-387.96524739614358
 20
838.95351431996755
 30
0.0
 40
0.125
  1
"
 50
90.0
  0
ENDBLK
  5
16EB4
  8
0
  0
BLOCK
  8
0
  2
*U28
 70
     1
 10
0.0
 20
0.0
 30
0.0
  3
*U28
  1

  0
TEXT
  5
16EB6
  8
0
 62
     0
 10
-385.13236667098761
 20
837.67914254862364
 30
0.0
 40
0.125
  1
7
  0
LINE
  5
16EB7
  8
0
 62
     0
 10
-385.13236667098761
 20
837.65830921529016
 30
0.0
 11
-385.04903333765429
 21
837.65830921529016
 31
0.0
  0
TEXT
  5
16EB8
  8
0
 62
     0
 10
-385.13236667098761
 20
837.51247588195702
 30
0.0
 40
0.125
  1
8
  0
TEXT
  5
16EB9
  8
0
 62
     0
 10
-385.00736667098761
 20
837.59580921529039
 30
0.0
 40
0.125
  1
"
  0
ENDBLK
  5
16EBB
  8
0
  0
BLOCK
  8
0
  2
*U29
 70
     1
 10
0.0
 20
0.0
 30
0.0
  3
*U29
  1

  0
TEXT
  5
16EBD
  8
0
 62
     0
 10
-384.08814198077528
 20
838.75205945756488
 30
0.0
 40
0.125
  1
1
 50
90.0
  0
TEXT
  5
16EBE
  8
0
 62
     0
 10
-384.1714753141087
 20
838.85622612423163
 30
0.0
 40
0.125
  1
1
 50
90.0
  0
LINE
  5
16EBF
  8
0
 62
     0
 10
-384.15064198077539
 20
838.83539279089825
 30
0.0
 11
-384.15064198077539
 21
838.91872612423185
 31
0.0
  0
TEXT
  5
16EC0
  8
0
 62
     0
 10
-384.00480864744202
 20
838.83539279089825
 30
0.0
 40
0.125
  1
2
 50
90.0
  0
TEXT
  5
16EC1
  8
0
 62
     0
 10
-384.08814198077528
 20
838.96039279089837
 30
0.0
 40
0.125
  1
"
 50
90.0
  0
ENDBLK
  5
16EC3
  8
0
  0
BLOCK
  8
0
  2
*U30
 70
     1
 10
0.0
 20
0.0
 30
0.0
  3
*U30
  1

  0
TEXT
  5
16EC5
  8
0
 62
     0
 10
-323.13119819751643
 20
425.11559169813461
 30
0.0
 40
0.125
  1
1
 50
90.0
  0
TEXT
  5
16EC6
  8
0
 62
     0
 10
-323.2145315308498
 20
425.19892503146798
 30
0.0
 40
0.125
  1
3
 50
90.0
  0
LINE
  5
16EC7
  8
0
 62
     0
 10
-323.19369819751643
 20
425.19892503146798
 30
0.0
 11
-323.19369819751643
 21
425.28225836480118
 31
0.0
  0
TEXT
  5
16EC8
  8
0
 62
     0
 10
-323.04786486418311
 20
425.19892503146798
 30
0.0
 40
0.125
  1
4
 50
90.0
  0
TEXT
  5
16EC9
  8
0
 62
     0
 10
-323.13119819751643
 20
425.32392503146792
 30
0.0
 40
0.125
  1
"
 50
90.0
  0
ENDBLK
  5
16ECB
  8
0
  0
BLOCK
  8
0
  2
*U31
 70
     1
 10
0.0
 20
0.0
 30
0.0
  3
*U31
  1

  0
TEXT
  5
16ECD
  8
0
 62
     0
 10
-318.6214997668344
 20
425.11559169813461
 30
0.0
 40
0.125
  1
1
 50
90.0
  0
TEXT
  5
16ECE
  8
0
 62
     0
 10
-318.70483310016772
 20
425.19892503146798
 30
0.0
 40
0.125
  1
3
 50
90.0
  0
LINE
  5
16ECF
  8
0
 62
     0
 10
-318.6839997668344
 20
425.19892503146798
 30
0.0
 11
-318.6839997668344
 21
425.28225836480118
 31
0.0
  0
TEXT
  5
16ED0
  8
0
 62
     0
 10
-318.53816643350109
 20
425.19892503146798
 30
0.0
 40
0.125
  1
8
 50
90.0
  0
TEXT
  5
16ED1
  8
0
 62
     0
 10
-318.6214997668344
 20
425.32392503146792
 30
0.0
 40
0.125
  1
"
 50
90.0
  0
ENDBLK
  5
16ED3
  8
0
  0
BLOCK
  8
0
  2
*U32
 70
     1
 10
0.0
 20
0.0
 30
0.0
  3
*U32
  1

  0
TEXT
  5
16ED5
  8
0
 62
     0
 10
-387.56461450221548
 20
838.89288512488679
 30
0.0
 40
0.125
  1
1
 50
90.0
  0
TEXT
  5
16ED6
  8
0
 62
     0
 10
-387.64794783554891
 20
838.97621845822005
 30
0.0
 40
0.125
  1
3
 50
90.0
  0
LINE
  5
16ED7
  8
0
 62
     0
 10
-387.62711450221559
 20
838.97621845822005
 30
0.0
 11
-387.62711450221559
 21
839.05955179155353
 31
0.0
  0
TEXT
  5
16ED8
  8
0
 62
     0
 10
-387.48128116888222
 20
838.97621845822005
 30
0.0
 40
0.125
  1
4
 50
90.0
  0
TEXT
  5
16ED9
  8
0
 62
     0
 10
-387.56461450221548
 20
839.10121845822005
 30
0.0
 40
0.125
  1
"
 50
90.0
  0
ENDBLK
  5
16EDB
  8
0
  0
BLOCK
  8
0
  2
*U33
 70
     1
 10
0.0
 20
0.0
 30
0.0
  3
*U33
  1

  0
TEXT
  5
16EDD
  8
0
 62
     0
 10
-383.05359444806828
 20
838.89288512488679
 30
0.0
 40
0.125
  1
1
 50
90.0
  0
TEXT
  5
16EDE
  8
0
 62
     0
 10
-383.13692778140171
 20
838.97621845822005
 30
0.0
 40
0.125
  1
3
 50
90.0
  0
LINE
  5
16EDF
  8
0
 62
     0
 10
-383.1160944480684
 20
838.97621845822005
 30
0.0
 11
-383.1160944480684
 21
839.05955179155353
 31
0.0
  0
TEXT
  5
16EE0
  8
0
 62
     0
 10
-382.97026111473502
 20
838.97621845822005
 30
0.0
 40
0.125
  1
8
 50
90.0
  0
TEXT
  5
16EE1
  8
0
 62
     0
 10
-383.05359444806828
 20
839.10121845822005
 30
0.0
 40
0.125
  1
"
 50
90.0
  0
ENDBLK
  5
16EE3
  8
0
  0
BLOCK
  8
0
  2
*U34
 70
     1
 10
0.0
 20
0.0
 30
0.0
  3
*U34
  1

  0
TEXT
  5
16EE5
  8
0
 10
-387.19889660227801
 20
838.46454458985556
 30
0.0
 40
0.125
  1
Panel Moulding
  0
TEXT
  5
16EE6
  8
0
 10
-387.19889660227801
 20
838.25621125652219
 30
0.0
 40
0.125
  1
TL-2248
  0
TEXT
  5
16EE7
  8
0
 10
-387.19889660227801
 20
838.04787792318893
 30
0.0
 40
0.125
  1
7/8" x 1-7/8"
  0
TEXT
  5
16EE8
  8
0
 10
-387.19889660227801
 20
837.83954458985556
 30
0.0
 40
0.125
  1
800.66.TAGUE
  0
ENDBLK
  5
16EEA
  8
0
  0
ENDSEC
  0
SECTION
  2
ENTITIES
  0
INSERT
  5
16B6F
  8
0
  2
*U34
 10
0.0
 20
0.0
 30
0.0
  0
ARC
  5
16B70
  8
0
 10
-388.33379134895603
 20
837.57916270079841
 30
0.0
 40
0.1628232759227445
 50
258.82454019175179
 51
83.790438880874504
  0
POLYLINE
  8
0
  5
16EEB
  66
     1
 10
0.000000
 20
0.000000
 30
0.000000
  70
     8
  0
VERTEX
  8
0
  5
16EEC
 10
-387.944
 20
838.554
 30
0.000000
  70
    32
  0
VERTEX
  8
0
  5
16EED
 10
-387.944
 20
838.551
 30
0.000000
  70
    32
  0
VERTEX
  8
0
  5
16EEE
 10
-387.944
 20
838.548
 30
0.000000
  70
    32
  0
VERTEX
  8
0
  5
16EEF
 10
-387.945
 20
838.545
 30
0.000000
  70
    32
  0
VERTEX
  8
0
  5
16EF0
 10
-387.945
 20
838.542
 30
0.000000
  70
    32
  0
VERTEX
  8
0
  5
16EF1
 10
-387.945
 20
838.539
 30
0.000000
  70
    32
  0
VERTEX
  8
0
  5
16EF2
 10
-387.945
 20
838.536
 30
0.000000
  70
    32
  0
VERTEX
  8
0
  5
16EF3
 10
-387.945
 20
838.533
 30
0.000000
  70
    32
  0
VERTEX
  8
0
  5
16EF4
 10
-387.946
 20
838.530
 30
0.000000
  70
    32
  0
VERTEX
  8
0
  5
16EF5
 10
-387.946
 20
838.527
 30
0.000000
  70
    32
  0
VERTEX
  8
0
  5
16EF6
 10
-387.946
 20
838.523
 30
0.000000
  70
    32
  0
VERTEX
  8
0
  5
16EF7
 10
-387.947
 20
838.520
 30
0.000000
  70
    32
  0
VERTEX
  8
0
  5
16EF8
 10
-387.947
 20
838.517
 30
0.000000
  70
    32
  0
VERTEX
  8
0
  5
16EF9
 10
-387.948
 20
838.514
 30
0.000000
  70
    32
  0
VERTEX
  8
0
  5
16EFA
 10
-387.948
 20
838.511
 30
0.000000
  70
    32
  0
VERTEX
  8
0
  5
16EFB
 10
-387.949
 20
838.508
 30
0.000000
  70
    32
  0
VERTEX
  8
0
  5
16EFC
 10
-387.949
 20
838.505
 30
0.000000
  70
    32
  0
VERTEX
  8
0
  5
16EFD
 10
-387.950
 20
838.502
 30
0.000000
  70
    32
  0
VERTEX
  8
0
  5
16EFE
 10
-387.951
 20
838.499
 30
0.000000
  70
    32
  0
VERTEX
  8
0
  5
16EFF
 10
-387.951
 20
838.496
 30
0.000000
  70
    32
  0
VERTEX
  8
0
  5
16F00
 10
-387.952
 20
838.493
 30
0.000000
  70
    32
  0
VERTEX
  8
0
  5
16F01
 10
-387.953
 20
838.490
 30
0.000000
  70
    32
  0
VERTEX
  8
0
  5
16F02
 10
-387.954
 20
838.487
 30
0.000000
  70
    32
  0
VERTEX
  8
0
  5
16F03
 10
-387.955
 20
838.484
 30
0.000000
  70
    32
  0
VERTEX
  8
0
  5
16F04
 10
-387.956
 20
838.482
 30
0.000000
  70
    32
  0
VERTEX
  8
0
  5
16F05
 10
-387.957
 20
838.479
 30
0.000000
  70
    32
  0
VERTEX
  8
0
  5
16F06
 10
-387.958
 20
838.476
 30
0.000000
  70
    32
  0
VERTEX
  8
0
  5
16F07
 10
-387.960
 20
838.473
 30
0.000000
  70
    32
  0
VERTEX
  8
0
  5
16F08
 10
-387.961
 20
838.471
 30
0.000000
  70
    32
  0
VERTEX
  8
0
  5
16F09
 10
-387.962
 20
838.468
 30
0.000000
  70
    32
  0
VERTEX
  8
0
  5
16F0A
 10
-387.964
 20
838.466
 30
0.000000
  70
    32
  0
VERTEX
  8
0
  5
16F0B
 10
-387.965
 20
838.463
 30
0.000000
  70
    32
  0
VERTEX
  8
0
  5
16F0C
 10
-387.967
 20
838.461
 30
0.000000
  70
    32
  0
VERTEX
  8
0
  5
16F0D
 10
-387.968
 20
838.458
 30
0.000000
  70
    32
  0
VERTEX
  8
0
  5
16F0E
 10
-387.970
 20
838.456
 30
0.000000
  70
    32
  0
VERTEX
  8
0
  5
16F0F
 10
-387.972
 20
838.454
 30
0.000000
  70
    32
  0
VERTEX
  8
0
  5
16F10
 10
-387.973
 20
838.451
 30
0.000000
  70
    32
  0
VERTEX
  8
0
  5
16F11
 10
-387.975
 20
838.449
 30
0.000000
  70
    32
  0
VERTEX
  8
0
  5
16F12
 10
-387.977
 20
838.447
 30
0.000000
  70
    32
  0
VERTEX
  8
0
  5
16F13
 10
-387.979
 20
838.445
 30
0.000000
  70
    32
  0
VERTEX
  8
0
  5
16F14
 10
-387.981
 20
838.443
 30
0.000000
  70
    32
  0
VERTEX
  8
0
  5
16F15
 10
-387.983
 20
838.441
 30
0.000000
  70
    32
  0
VERTEX
  8
0
  5
16F16
 10
-387.986
 20
838.439
 30
0.000000
  70
    32
  0
VERTEX
  8
0
  5
16F17
 10
-387.988
 20
838.437
 30
0.000000
  70
    32
  0
VERTEX
  8
0
  5
16F18
 10
-387.990
 20
838.436
 30
0.000000
  70
    32
  0
VERTEX
  8
0
  5
16F19
 10
-387.992
 20
838.434
 30
0.000000
  70
    32
  0
VERTEX
  8
0
  5
16F1A
 10
-387.995
 20
838.432
 30
0.000000
  70
    32
  0
VERTEX
  8
0
  5
16F1B
 10
-387.997
 20
838.431
 30
0.000000
  70
    32
  0
VERTEX
  8
0
  5
16F1C
 10
-388.000
 20
838.429
 30
0.000000
  70
    32
  0
VERTEX
  8
0
  5
16F1D
 10
-388.002
 20
838.428
 30
0.000000
  70
    32
  0
VERTEX
  8
0
  5
16F1E
 10
-388.005
 20
838.426
 30
0.000000
  70
    32
  0
VERTEX
  8
0
  5
16F1F
 10
-388.007
 20
838.425
 30
0.000000
  70
    32
  0
VERTEX
  8
0
  5
16F20
 10
-388.010
 20
838.423
 30
0.000000
  70
    32
  0
VERTEX
  8
0
  5
16F21
 10
-388.013
 20
838.422
 30
0.000000
  70
    32
  0
VERTEX
  8
0
  5
16F22
 10
-388.015
 20
838.420
 30
0.000000
  70
    32
  0
VERTEX
  8
0
  5
16F23
 10
-388.018
 20
838.419
 30
0.000000
  70
    32
  0
VERTEX
  8
0
  5
16F24
 10
-388.021
 20
838.418
 30
0.000000
  70
    32
  0
VERTEX
  8
0
  5
16F25
 10
-388.024
 20
838.416
 30
0.000000
  70
    32
  0
VERTEX
  8
0
  5
16F26
 10
-388.026
 20
838.415
 30
0.000000
  70
    32
  0
VERTEX
  8
0
  5
16F27
 10
-388.029
 20
838.414
 30
0.000000
  70
    32
  0
VERTEX
  8
0
  5
16F28
 10
-388.032
 20
838.412
 30
0.000000
  70
    32
  0
VERTEX
  8
0
  5
16F29
 10
-388.035
 20
838.411
 30
0.000000
  70
    32
  0
VERTEX
  8
0
  5
16F2A
 10
-388.038
 20
838.410
 30
0.000000
  70
    32
  0
VERTEX
  8
0
  5
16F2B
 10
-388.041
 20
838.409
 30
0.000000
  70
    32
  0
VERTEX
  8
0
  5
16F2C
 10
-388.043
 20
838.407
 30
0.000000
  70
    32
  0
VERTEX
  8
0
  5
16F2D
 10
-388.046
 20
838.406
 30
0.000000
  70
    32
  0
VERTEX
  8
0
  5
16F2E
 10
-388.049
 20
838.405
 30
0.000000
  70
    32
  0
VERTEX
  8
0
  5
16F2F
 10
-388.052
 20
838.404
 30
0.000000
  70
    32
  0
VERTEX
  8
0
  5
16F30
 10
-388.055
 20
838.403
 30
0.000000
  70
    32
  0
VERTEX
  8
0
  5
16F31
 10
-388.058
 20
838.401
 30
0.000000
  70
    32
  0
VERTEX
  8
0
  5
16F32
 10
-388.061
 20
838.400
 30
0.000000
  70
    32
  0
VERTEX
  8
0
  5
16F33
 10
-388.063
 20
838.399
 30
0.000000
  70
    32
  0
VERTEX
  8
0
  5
16F34
 10
-388.066
 20
838.398
 30
0.000000
  70
    32
  0
VERTEX
  8
0
  5
16F35
 10
-388.069
 20
838.396
 30
0.000000
  70
    32
  0
VERTEX
  8
0
  5
16F36
 10
-388.072
 20
838.395
 30
0.000000
  70
    32
  0
VERTEX
  8
0
  5
16F37
 10
-388.075
 20
838.394
 30
0.000000
  70
    32
  0
VERTEX
  8
0
  5
16F38
 10
-388.077
 20
838.392
 30
0.000000
  70
    32
  0
VERTEX
  8
0
  5
16F39
 10
-388.080
 20
838.391
 30
0.000000
  70
    32
  0
VERTEX
  8
0
  5
16F3A
 10
-388.083
 20
838.390
 30
0.000000
  70
    32
  0
VERTEX
  8
0
  5
16F3B
 10
-388.086
 20
838.388
 30
0.000000
  70
    32
  0
VERTEX
  8
0
  5
16F3C
 10
-388.088
 20
838.387
 30
0.000000
  70
    32
  0
VERTEX
  8
0
  5
16F3D
 10
-388.091
 20
838.386
 30
0.000000
  70
    32
  0
VERTEX
  8
0
  5
16F3E
 10
-388.094
 20
838.384
 30
0.000000
  70
    32
  0
VERTEX
  8
0
  5
16F3F
 10
-388.096
 20
838.383
 30
0.000000
  70
    32
  0
VERTEX
  8
0
  5
16F40
 10
-388.099
 20
838.381
 30
0.000000
  70
    32
  0
VERTEX
  8
0
  5
16F41
 10
-388.102
 20
838.380
 30
0.000000
  70
    32
  0
VERTEX
  8
0
  5
16F42
 10
-388.104
 20
838.378
 30
0.000000
  70
    32
  0
VERTEX
  8
0
  5
16F43
 10
-388.107
 20
838.377
 30
0.000000
  70
    32
  0
VERTEX
  8
0
  5
16F44
 10
-388.109
 20
838.375
 30
0.000000
  70
    32
  0
VERTEX
  8
0
  5
16F45
 10
-388.112
 20
838.374
 30
0.000000
  70
    32
  0
VERTEX
  8
0
  5
16F46
 10
-388.114
 20
838.372
 30
0.000000
  70
    32
  0
VERTEX
  8
0
  5
16F47
 10
-388.117
 20
838.371
 30
0.000000
  70
    32
  0
VERTEX
  8
0
  5
16F48
 10
-388.119
 20
838.369
 30
0.000000
  70
    32
  0
VERTEX
  8
0
  5
16F49
 10
-388.122
 20
838.367
 30
0.000000
  70
    32
  0
VERTEX
  8
0
  5
16F4A
 10
-388.124
 20
838.366
 30
0.000000
  70
    32
  0
VERTEX
  8
0
  5
16F4B
 10
-388.126
 20
838.364
 30
0.000000
  70
    32
  0
VERTEX
  8
0
  5
16F4C
 10
-388.129
 20
838.362
 30
0.000000
  70
    32
  0
VERTEX
  8
0
  5
16F4D
 10
-388.131
 20
838.360
 30
0.000000
  70
    32
  0
VERTEX
  8
0
  5
16F4E
 10
-388.133
 20
838.359
 30
0.000000
  70
    32
  0
VERTEX
  8
0
  5
16F4F
 10
-388.136
 20
838.357
 30
0.000000
  70
    32
  0
VERTEX
  8
0
  5
16F50
 10
-388.138
 20
838.355
 30
0.000000
  70
    32
  0
VERTEX
  8
0
  5
16F51
 10
-388.140
 20
838.353
 30
0.000000
  70
    32
  0
VERTEX
  8
0
  5
16F52
 10
-388.142
 20
838.351
 30
0.000000
  70
    32
  0
VERTEX
  8
0
  5
16F53
 10
-388.144
 20
838.349
 30
0.000000
  70
    32
  0
VERTEX
  8
0
  5
16F54
 10
-388.146
 20
838.347
 30
0.000000
  70
    32
  0
VERTEX
  8
0
  5
16F55
 10
-388.148
 20
838.345
 30
0.000000
  70
    32
  0
VERTEX
  8
0
  5
16F56
 10
-388.151
 20
838.343
 30
0.000000
  70
    32
  0
VERTEX
  8
0
  5
16F57
 10
-388.152
 20
838.341
 30
0.000000
  70
    32
  0
VERTEX
  8
0
  5
16F58
 10
-388.154
 20
838.339
 30
0.000000
  70
    32
  0
VERTEX
  8
0
  5
16F59
 10
-388.156
 20
838.336
 30
0.000000
  70
    32
  0
VERTEX
  8
0
  5
16F5A
 10
-388.158
 20
838.334
 30
0.000000
  70
    32
  0
VERTEX
  8
0
  5
16F5B
 10
-388.160
 20
838.332
 30
0.000000
  70
    32
  0
VERTEX
  8
0
  5
16F5C
 10
-388.162
 20
838.330
 30
0.000000
  70
    32
  0
VERTEX
  8
0
  5
16F5D
 10
-388.164
 20
838.327
 30
0.000000
  70
    32
  0
VERTEX
  8
0
  5
16F5E
 10
-388.166
 20
838.325
 30
0.000000
  70
    32
  0
VERTEX
  8
0
  5
16F5F
 10
-388.167
 20
838.323
 30
0.000000
  70
    32
  0
VERTEX
  8
0
  5
16F60
 10
-388.169
 20
838.320
 30
0.000000
  70
    32
  0
VERTEX
  8
0
  5
16F61
 10
-388.171
 20
838.318
 30
0.000000
  70
    32
  0
VERTEX
  8
0
  5
16F62
 10
-388.172
 20
838.315
 30
0.000000
  70
    32
  0
VERTEX
  8
0
  5
16F63
 10
-388.174
 20
838.313
 30
0.000000
  70
    32
  0
VERTEX
  8
0
  5
16F64
 10
-388.176
 20
838.310
 30
0.000000
  70
    32
  0
VERTEX
  8
0
  5
16F65
 10
-388.177
 20
838.308
 30
0.000000
  70
    32
  0
VERTEX
  8
0
  5
16F66
 10
-388.179
 20
838.305
 30
0.000000
  70
    32
  0
VERTEX
  8
0
  5
16F67
 10
-388.180
 20
838.303
 30
0.000000
  70
    32
  0
VERTEX
  8
0
  5
16F68
 10
-388.182
 20
838.300
 30
0.000000
  70
    32
  0
VERTEX
  8
0
  5
16F69
 10
-388.184
 20
838.298
 30
0.000000
  70
    32
  0
VERTEX
  8
0
  5
16F6A
 10
-388.185
 20
838.295
 30
0.000000
  70
    32
  0
VERTEX
  8
0
  5
16F6B
 10
-388.186
 20
838.292
 30
0.000000
  70
    32
  0
VERTEX
  8
0
  5
16F6C
 10
-388.188
 20
838.290
 30
0.000000
  70
    32
  0
VERTEX
  8
0
  5
16F6D
 10
-388.189
 20
838.287
 30
0.000000
  70
    32
  0
VERTEX
  8
0
  5
16F6E
 10
-388.191
 20
838.284
 30
0.000000
  70
    32
  0
VERTEX
  8
0
  5
16F6F
 10
-388.192
 20
838.282
 30
0.000000
  70
    32
  0
VERTEX
  8
0
  5
16F70
 10
-388.194
 20
838.279
 30
0.000000
  70
    32
  0
VERTEX
  8
0
  5
16F71
 10
-388.195
 20
838.276
 30
0.000000
  70
    32
  0
VERTEX
  8
0
  5
16F72
 10
-388.196
 20
838.274
 30
0.000000
  70
    32
  0
VERTEX
  8
0
  5
16F73
 10
-388.198
 20
838.271
 30
0.000000
  70
    32
  0
VERTEX
  8
0
  5
16F74
 10
-388.199
 20
838.268
 30
0.000000
  70
    32
  0
VERTEX
  8
0
  5
16F75
 10
-388.200
 20
838.265
 30
0.000000
  70
    32
  0
VERTEX
  8
0
  5
16F76
 10
-388.202
 20
838.263
 30
0.000000
  70
    32
  0
VERTEX
  8
0
  5
16F77
 10
-388.203
 20
838.260
 30
0.000000
  70
    32
  0
VERTEX
  8
0
  5
16F78
 10
-388.204
 20
838.257
 30
0.000000
  70
    32
  0
VERTEX
  8
0
  5
16F79
 10
-388.205
 20
838.254
 30
0.000000
  70
    32
  0
VERTEX
  8
0
  5
16F7A
 10
-388.207
 20
838.252
 30
0.000000
  70
    32
  0
VERTEX
  8
0
  5
16F7B
 10
-388.208
 20
838.249
 30
0.000000
  70
    32
  0
VERTEX
  8
0
  5
16F7C
 10
-388.209
 20
838.246
 30
0.000000
  70
    32
  0
VERTEX
  8
0
  5
16F7D
 10
-388.210
 20
838.243
 30
0.000000
  70
    32
  0
VERTEX
  8
0
  5
16F7E
 10
-388.212
 20
838.240
 30
0.000000
  70
    32
  0
VERTEX
  8
0
  5
16F7F
 10
-388.213
 20
838.238
 30
0.000000
  70
    32
  0
VERTEX
  8
0
  5
16F80
 10
-388.214
 20
838.235
 30
0.000000
  70
    32
  0
VERTEX
  8
0
  5
16F81
 10
-388.215
 20
838.232
 30
0.000000
  70
    32
  0
VERTEX
  8
0
  5
16F82
 10
-388.216
 20
838.229
 30
0.000000
  70
    32
  0
VERTEX
  8
0
  5
16F83
 10
-388.217
 20
838.226
 30
0.000000
  70
    32
  0
VERTEX
  8
0
  5
16F84
 10
-388.219
 20
838.224
 30
0.000000
  70
    32
  0
VERTEX
  8
0
  5
16F85
 10
-388.220
 20
838.221
 30
0.000000
  70
    32
  0
VERTEX
  8
0
  5
16F86
 10
-388.221
 20
838.218
 30
0.000000
  70
    32
  0
VERTEX
  8
0
  5
16F87
 10
-388.222
 20
838.215
 30
0.000000
  70
    32
  0
VERTEX
  8
0
  5
16F88
 10
-388.223
 20
838.213
 30
0.000000
  70
    32
  0
VERTEX
  8
0
  5
16F89
 10
-388.224
 20
838.210
 30
0.000000
  70
    32
  0
VERTEX
  8
0
  5
16F8A
 10
-388.226
 20
838.207
 30
0.000000
  70
    32
  0
VERTEX
  8
0
  5
16F8B
 10
-388.227
 20
838.204
 30
0.000000
  70
    32
  0
VERTEX
  8
0
  5
16F8C
 10
-388.228
 20
838.202
 30
0.000000
  70
    32
  0
VERTEX
  8
0
  5
16F8D
 10
-388.229
 20
838.199
 30
0.000000
  70
    32
  0
VERTEX
  8
0
  5
16F8E
 10
-388.230
 20
838.196
 30
0.000000
  70
    32
  0
VERTEX
  8
0
  5
16F8F
 10
-388.231
 20
838.193
 30
0.000000
  70
    32
  0
VERTEX
  8
0
  5
16F90
 10
-388.232
 20
838.190
 30
0.000000
  70
    32
  0
VERTEX
  8
0
  5
16F91
 10
-388.233
 20
838.188
 30
0.000000
  70
    32
  0
VERTEX
  8
0
  5
16F92
 10
-388.234
 20
838.185
 30
0.000000
  70
    32
  0
VERTEX
  8
0
  5
16F93
 10
-388.235
 20
838.182
 30
0.000000
  70
    32
  0
VERTEX
  8
0
  5
16F94
 10
-388.236
 20
838.179
 30
0.000000
  70
    32
  0
VERTEX
  8
0
  5
16F95
 10
-388.238
 20
838.177
 30
0.000000
  70
    32
  0
VERTEX
  8
0
  5
16F96
 10
-388.239
 20
838.174
 30
0.000000
  70
    32
  0
VERTEX
  8
0
  5
16F97
 10
-388.240
 20
838.171
 30
0.000000
  70
    32
  0
VERTEX
  8
0
  5
16F98
 10
-388.241
 20
838.168
 30
0.000000
  70
    32
  0
VERTEX
  8
0
  5
16F99
 10
-388.242
 20
838.165
 30
0.000000
  70
    32
  0
VERTEX
  8
0
  5
16F9A
 10
-388.243
 20
838.163
 30
0.000000
  70
    32
  0
VERTEX
  8
0
  5
16F9B
 10
-388.244
 20
838.160
 30
0.000000
  70
    32
  0
VERTEX
  8
0
  5
16F9C
 10
-388.245
 20
838.157
 30
0.000000
  70
    32
  0
VERTEX
  8
0
  5
16F9D
 10
-388.246
 20
838.154
 30
0.000000
  70
    32
  0
VERTEX
  8
0
  5
16F9E
 10
-388.247
 20
838.152
 30
0.000000
  70
    32
  0
VERTEX
  8
0
  5
16F9F
 10
-388.248
 20
838.149
 30
0.000000
  70
    32
  0
VERTEX
  8
0
  5
16FA0
 10
-388.249
 20
838.146
 30
0.000000
  70
    32
  0
VERTEX
  8
0
  5
16FA1
 10
-388.250
 20
838.143
 30
0.000000
  70
    32
  0
VERTEX
  8
0
  5
16FA2
 10
-388.251
 20
838.141
 30
0.000000
  70
    32
  0
VERTEX
  8
0
  5
16FA3
 10
-388.252
 20
838.138
 30
0.000000
  70
    32
  0
VERTEX
  8
0
  5
16FA4
 10
-388.253
 20
838.135
 30
0.000000
  70
    32
  0
VERTEX
  8
0
  5
16FA5
 10
-388.254
 20
838.132
 30
0.000000
  70
    32
  0
VERTEX
  8
0
  5
16FA6
 10
-388.255
 20
838.129
 30
0.000000
  70
    32
  0
VERTEX
  8
0
  5
16FA7
 10
-388.256
 20
838.127
 30
0.000000
  70
    32
  0
VERTEX
  8
0
  5
16FA8
 10
-388.257
 20
838.124
 30
0.000000
  70
    32
  0
VERTEX
  8
0
  5
16FA9
 10
-388.258
 20
838.121
 30
0.000000
  70
    32
  0
VERTEX
  8
0
  5
16FAA
 10
-388.259
 20
838.118
 30
0.000000
  70
    32
  0
VERTEX
  8
0
  5
16FAB
 10
-388.260
 20
838.115
 30
0.000000
  70
    32
  0
VERTEX
  8
0
  5
16FAC
 10
-388.261
 20
838.113
 30
0.000000
  70
    32
  0
VERTEX
  8
0
  5
16FAD
 10
-388.261
 20
838.110
 30
0.000000
  70
    32
  0
VERTEX
  8
0
  5
16FAE
 10
-388.262
 20
838.107
 30
0.000000
  70
    32
  0
VERTEX
  8
0
  5
16FAF
 10
-388.263
 20
838.104
 30
0.000000
  70
    32
  0
VERTEX
  8
0
  5
16FB0
 10
-388.264
 20
838.101
 30
0.000000
  70
    32
  0
VERTEX
  8
0
  5
16FB1
 10
-388.265
 20
838.099
 30
0.000000
  70
    32
  0
VERTEX
  8
0
  5
16FB2
 10
-388.266
 20
838.096
 30
0.000000
  70
    32
  0
VERTEX
  8
0
  5
16FB3
 10
-388.267
 20
838.093
 30
0.000000
  70
    32
  0
VERTEX
  8
0
  5
16FB4
 10
-388.268
 20
838.090
 30
0.000000
  70
    32
  0
VERTEX
  8
0
  5
16FB5
 10
-388.269
 20
838.087
 30
0.000000
  70
    32
  0
VERTEX
  8
0
  5
16FB6
 10
-388.270
 20
838.084
 30
0.000000
  70
    32
  0
VERTEX
  8
0
  5
16FB7
 10
-388.270
 20
838.082
 30
0.000000
  70
    32
  0
VERTEX
  8
0
  5
16FB8
 10
-388.271
 20
838.079
 30
0.000000
  70
    32
  0
VERTEX
  8
0
  5
16FB9
 10
-388.272
 20
838.076
 30
0.000000
  70
    32
  0
VERTEX
  8
0
  5
16FBA
 10
-388.273
 20
838.073
 30
0.000000
  70
    32
  0
VERTEX
  8
0
  5
16FBB
 10
-388.274
 20
838.070
 30
0.000000
  70
    32
  0
VERTEX
  8
0
  5
16FBC
 10
-388.275
 20
838.067
 30
0.000000
  70
    32
  0
VERTEX
  8
0
  5
16FBD
 10
-388.276
 20
838.064
 30
0.000000
  70
    32
  0
VERTEX
  8
0
  5
16FBE
 10
-388.276
 20
838.062
 30
0.000000
  70
    32
  0
VERTEX
  8
0
  5
16FBF
 10
-388.277
 20
838.059
 30
0.000000
  70
    32
  0
VERTEX
  8
0
  5
16FC0
 10
-388.278
 20
838.056
 30
0.000000
  70
    32
  0
VERTEX
  8
0
  5
16FC1
 10
-388.279
 20
838.053
 30
0.000000
  70
    32
  0
VERTEX
  8
0
  5
16FC2
 10
-388.280
 20
838.050
 30
0.000000
  70
    32
  0
VERTEX
  8
0
  5
16FC3
 10
-388.280
 20
838.047
 30
0.000000
  70
    32
  0
VERTEX
  8
0
  5
16FC4
 10
-388.281
 20
838.044
 30
0.000000
  70
    32
  0
VERTEX
  8
0
  5
16FC5
 10
-388.282
 20
838.042
 30
0.000000
  70
    32
  0
VERTEX
  8
0
  5
16FC6
 10
-388.283
 20
838.039
 30
0.000000
  70
    32
  0
VERTEX
  8
0
  5
16FC7
 10
-388.283
 20
838.036
 30
0.000000
  70
    32
  0
VERTEX
  8
0
  5
16FC8
 10
-388.284
 20
838.033
 30
0.000000
  70
    32
  0
VERTEX
  8
0
  5
16FC9
 10
-388.285
 20
838.030
 30
0.000000
  70
    32
  0
VERTEX
  8
0
  5
16FCA
 10
-388.286
 20
838.027
 30
0.000000
  70
    32
  0
VERTEX
  8
0
  5
16FCB
 10
-388.286
 20
838.024
 30
0.000000
  70
    32
  0
VERTEX
  8
0
  5
16FCC
 10
-388.287
 20
838.021
 30
0.000000
  70
    32
  0
VERTEX
  8
0
  5
16FCD
 10
-388.288
 20
838.018
 30
0.000000
  70
    32
  0
VERTEX
  8
0
  5
16FCE
 10
-388.288
 20
838.016
 30
0.000000
  70
    32
  0
VERTEX
  8
0
  5
16FCF
 10
-388.289
 20
838.013
 30
0.000000
  70
    32
  0
VERTEX
  8
0
  5
16FD0
 10
-388.290
 20
838.010
 30
0.000000
  70
    32
  0
VERTEX
  8
0
  5
16FD1
 10
-388.291
 20
838.007
 30
0.000000
  70
    32
  0
VERTEX
  8
0
  5
16FD2
 10
-388.291
 20
838.004
 30
0.000000
  70
    32
  0
VERTEX
  8
0
  5
16FD3
 10
-388.292
 20
838.001
 30
0.000000
  70
    32
  0
VERTEX
  8
0
  5
16FD4
 10
-388.292
 20
837.998
 30
0.000000
  70
    32
  0
VERTEX
  8
0
  5
16FD5
 10
-388.293
 20
837.995
 30
0.000000
  70
    32
  0
VERTEX
  8
0
  5
16FD6
 10
-388.294
 20
837.992
 30
0.000000
  70
    32
  0
VERTEX
  8
0
  5
16FD7
 10
-388.294
 20
837.989
 30
0.000000
  70
    32
  0
VERTEX
  8
0
  5
16FD8
 10
-388.295
 20
837.987
 30
0.000000
  70
    32
  0
VERTEX
  8
0
  5
16FD9
 10
-388.295
 20
837.984
 30
0.000000
  70
    32
  0
VERTEX
  8
0
  5
16FDA
 10
-388.296
 20
837.981
 30
0.000000
  70
    32
  0
VERTEX
  8
0
  5
16FDB
 10
-388.297
 20
837.978
 30
0.000000
  70
    32
  0
VERTEX
  8
0
  5
16FDC
 10
-388.297
 20
837.975
 30
0.000000
  70
    32
  0
VERTEX
  8
0
  5
16FDD
 10
-388.298
 20
837.972
 30
0.000000
  70
    32
  0
VERTEX
  8
0
  5
16FDE
 10
-388.298
 20
837.969
 30
0.000000
  70
    32
  0
VERTEX
  8
0
  5
16FDF
 10
-388.299
 20
837.966
 30
0.000000
  70
    32
  0
VERTEX
  8
0
  5
16FE0
 10
-388.299
 20
837.963
 30
0.000000
  70
    32
  0
VERTEX
  8
0
  5
16FE1
 10
-388.300
 20
837.960
 30
0.000000
  70
    32
  0
VERTEX
  8
0
  5
16FE2
 10
-388.300
 20
837.957
 30
0.000000
  70
    32
  0
VERTEX
  8
0
  5
16FE3
 10
-388.301
 20
837.954
 30
0.000000
  70
    32
  0
VERTEX
  8
0
  5
16FE4
 10
-388.301
 20
837.951
 30
0.000000
  70
    32
  0
VERTEX
  8
0
  5
16FE5
 10
-388.302
 20
837.948
 30
0.000000
  70
    32
  0
VERTEX
  8
0
  5
16FE6
 10
-388.302
 20
837.946
 30
0.000000
  70
    32
  0
VERTEX
  8
0
  5
16FE7
 10
-388.303
 20
837.943
 30
0.000000
  70
    32
  0
VERTEX
  8
0
  5
16FE8
 10
-388.303
 20
837.940
 30
0.000000
  70
    32
  0
VERTEX
  8
0
  5
16FE9
 10
-388.303
 20
837.937
 30
0.000000
  70
    32
  0
VERTEX
  8
0
  5
16FEA
 10
-388.304
 20
837.934
 30
0.000000
  70
    32
  0
VERTEX
  8
0
  5
16FEB
 10
-388.304
 20
837.931
 30
0.000000
  70
    32
  0
VERTEX
  8
0
  5
16FEC
 10
-388.305
 20
837.928
 30
0.000000
  70
    32
  0
VERTEX
  8
0
  5
16FED
 10
-388.305
 20
837.925
 30
0.000000
  70
    32
  0
VERTEX
  8
0
  5
16FEE
 10
-388.305
 20
837.922
 30
0.000000
  70
    32
  0
VERTEX
  8
0
  5
16FEF
 10
-388.306
 20
837.919
 30
0.000000
  70
    32
  0
VERTEX
  8
0
  5
16FF0
 10
-388.306
 20
837.916
 30
0.000000
  70
    32
  0
VERTEX
  8
0
  5
16FF1
 10
-388.306
 20
837.913
 30
0.000000
  70
    32
  0
VERTEX
  8
0
  5
16FF2
 10
-388.307
 20
837.910
 30
0.000000
  70
    32
  0
VERTEX
  8
0
  5
16FF3
 10
-388.307
 20
837.907
 30
0.000000
  70
    32
  0
VERTEX
  8
0
  5
16FF4
 10
-388.307
 20
837.904
 30
0.000000
  70
    32
  0
VERTEX
  8
0
  5
16FF5
 10
-388.307
 20
837.901
 30
0.000000
  70
    32
  0
VERTEX
  8
0
  5
16FF6
 10
-388.308
 20
837.898
 30
0.000000
  70
    32
  0
VERTEX
  8
0
  5
16FF7
 10
-388.308
 20
837.895
 30
0.000000
  70
    32
  0
VERTEX
  8
0
  5
16FF8
 10
-388.308
 20
837.892
 30
0.000000
  70
    32
  0
VERTEX
  8
0
  5
16FF9
 10
-388.308
 20
837.889
 30
0.000000
  70
    32
  0
VERTEX
  8
0
  5
16FFA
 10
-388.309
 20
837.886
 30
0.000000
  70
    32
  0
VERTEX
  8
0
  5
16FFB
 10
-388.309
 20
837.884
 30
0.000000
  70
    32
  0
VERTEX
  8
0
  5
16FFC
 10
-388.309
 20
837.881
 30
0.000000
  70
    32
  0
VERTEX
  8
0
  5
16FFD
 10
-388.309
 20
837.878
 30
0.000000
  70
    32
  0
VERTEX
  8
0
  5
16FFE
 10
-388.310
 20
837.875
 30
0.000000
  70
    32
  0
VERTEX
  8
0
  5
16FFF
 10
-388.310
 20
837.872
 30
0.000000
  70
    32
  0
VERTEX
  8
0
  5
17000
 10
-388.310
 20
837.869
 30
0.000000
  70
    32
  0
VERTEX
  8
0
  5
17001
 10
-388.310
 20
837.866
 30
0.000000
  70
    32
  0
VERTEX
  8
0
  5
17002
 10
-388.310
 20
837.863
 30
0.000000
  70
    32
  0
VERTEX
  8
0
  5
17003
 10
-388.311
 20
837.860
 30
0.000000
  70
    32
  0
VERTEX
  8
0
  5
17004
 10
-388.311
 20
837.857
 30
0.000000
  70
    32
  0
VERTEX
  8
0
  5
17005
 10
-388.311
 20
837.854
 30
0.000000
  70
    32
  0
VERTEX
  8
0
  5
17006
 10
-388.311
 20
837.851
 30
0.000000
  70
    32
  0
VERTEX
  8
0
  5
17007
 10
-388.311
 20
837.848
 30
0.000000
  70
    32
  0
VERTEX
  8
0
  5
17008
 10
-388.311
 20
837.845
 30
0.000000
  70
    32
  0
VERTEX
  8
0
  5
17009
 10
-388.312
 20
837.842
 30
0.000000
  70
    32
  0
VERTEX
  8
0
  5
1700A
 10
-388.312
 20
837.839
 30
0.000000
  70
    32
  0
VERTEX
  8
0
  5
1700B
 10
-388.312
 20
837.836
 30
0.000000
  70
    32
  0
VERTEX
  8
0
  5
1700C
 10
-388.312
 20
837.833
 30
0.000000
  70
    32
  0
VERTEX
  8
0
  5
1700D
 10
-388.312
 20
837.830
 30
0.000000
  70
    32
  0
VERTEX
  8
0
  5
1700E
 10
-388.312
 20
837.827
 30
0.000000
  70
    32
  0
VERTEX
  8
0
  5
1700F
 10
-388.312
 20
837.824
 30
0.000000
  70
    32
  0
VERTEX
  8
0
  5
17010
 10
-388.313
 20
837.821
 30
0.000000
  70
    32
  0
VERTEX
  8
0
  5
17011
 10
-388.313
 20
837.818
 30
0.000000
  70
    32
  0
VERTEX
  8
0
  5
17012
 10
-388.313
 20
837.815
 30
0.000000
  70
    32
  0
VERTEX
  8
0
  5
17013
 10
-388.313
 20
837.812
 30
0.000000
  70
    32
  0
VERTEX
  8
0
  5
17014
 10
-388.313
 20
837.809
 30
0.000000
  70
    32
  0
VERTEX
  8
0
  5
17015
 10
-388.313
 20
837.806
 30
0.000000
  70
    32
  0
VERTEX
  8
0
  5
17016
 10
-388.313
 20
837.803
 30
0.000000
  70
    32
  0
VERTEX
  8
0
  5
17017
 10
-388.313
 20
837.800
 30
0.000000
  70
    32
  0
VERTEX
  8
0
  5
17018
 10
-388.314
 20
837.797
 30
0.000000
  70
    32
  0
VERTEX
  8
0
  5
17019
 10
-388.314
 20
837.794
 30
0.000000
  70
    32
  0
VERTEX
  8
0
  5
1701A
 10
-388.314
 20
837.792
 30
0.000000
  70
    32
  0
VERTEX
  8
0
  5
1701B
 10
-388.314
 20
837.789
 30
0.000000
  70
    32
  0
VERTEX
  8
0
  5
1701C
 10
-388.314
 20
837.786
 30
0.000000
  70
    32
  0
VERTEX
  8
0
  5
1701D
 10
-388.314
 20
837.783
 30
0.000000
  70
    32
  0
VERTEX
  8
0
  5
1701E
 10
-388.314
 20
837.780
 30
0.000000
  70
    32
  0
VERTEX
  8
0
  5
1701F
 10
-388.314
 20
837.777
 30
0.000000
  70
    32
  0
VERTEX
  8
0
  5
17020
 10
-388.315
 20
837.774
 30
0.000000
  70
    32
  0
VERTEX
  8
0
  5
17021
 10
-388.315
 20
837.771
 30
0.000000
  70
    32
  0
VERTEX
  8
0
  5
17022
 10
-388.315
 20
837.768
 30
0.000000
  70
    32
  0
VERTEX
  8
0
  5
17023
 10
-388.315
 20
837.765
 30
0.000000
  70
    32
  0
VERTEX
  8
0
  5
17024
 10
-388.315
 20
837.762
 30
0.000000
  70
    32
  0
VERTEX
  8
0
  5
17025
 10
-388.315
 20
837.759
 30
0.000000
  70
    32
  0
VERTEX
  8
0
  5
17026
 10
-388.315
 20
837.756
 30
0.000000
  70
    32
  0
VERTEX
  8
0
  5
17027
 10
-388.316
 20
837.753
 30
0.000000
  70
    32
  0
VERTEX
  8
0
  5
17028
 10
-388.316
 20
837.750
 30
0.000000
  70
    32
  0
VERTEX
  8
0
  5
17029
 10
-388.316
 20
837.747
 30
0.000000
  70
    32
  0
VERTEX
  8
0
  5
1702A
 10
-388.316
 20
837.744
 30
0.000000
  70
    32
  0
VERTEX
  8
0
  5
1702B
 10
-388.316
 20
837.741
 30
0.000000
  70
    32
  0
SEQEND
  8
0
  5
1702C
  0
POLYLINE
  8
0
  5
1702D
  66
     1
 10
0.000000
 20
0.000000
 30
0.000000
  70
     8
  0
VERTEX
  8
0
  5
1702E
 10
-387.838
 20
838.851
 30
0.000000
  70
    32
  0
VERTEX
  8
0
  5
1702F
 10
-387.838
 20
838.850
 30
0.000000
  70
    32
  0
VERTEX
  8
0
  5
17030
 10
-387.838
 20
838.849
 30
0.000000
  70
    32
  0
VERTEX
  8
0
  5
17031
 10
-387.838
 20
838.848
 30
0.000000
  70
    32
  0
VERTEX
  8
0
  5
17032
 10
-387.838
 20
838.846
 30
0.000000
  70
    32
  0
VERTEX
  8
0
  5
17033
 10
-387.838
 20
838.845
 30
0.000000
  70
    32
  0
VERTEX
  8
0
  5
17034
 10
-387.838
 20
838.844
 30
0.000000
  70
    32
  0
VERTEX
  8
0
  5
17035
 10
-387.838
 20
838.842
 30
0.000000
  70
    32
  0
VERTEX
  8
0
  5
17036
 10
-387.838
 20
838.841
 30
0.000000
  70
    32
  0
VERTEX
  8
0
  5
17037
 10
-387.838
 20
838.840
 30
0.000000
  70
    32
  0
VERTEX
  8
0
  5
17038
 10
-387.838
 20
838.839
 30
0.000000
  70
    32
  0
VERTEX
  8
0
  5
17039
 10
-387.838
 20
838.837
 30
0.000000
  70
    32
  0
VERTEX
  8
0
  5
1703A
 10
-387.838
 20
838.836
 30
0.000000
  70
    32
  0
VERTEX
  8
0
  5
1703B
 10
-387.838
 20
838.835
 30
0.000000
  70
    32
  0
VERTEX
  8
0
  5
1703C
 10
-387.838
 20
838.833
 30
0.000000
  70
    32
  0
VERTEX
  8
0
  5
1703D
 10
-387.838
 20
838.832
 30
0.000000
  70
    32
  0
VERTEX
  8
0
  5
1703E
 10
-387.839
 20
838.831
 30
0.000000
  70
    32
  0
VERTEX
  8
0
  5
1703F
 10
-387.839
 20
838.830
 30
0.000000
  70
    32
  0
VERTEX
  8
0
  5
17040
 10
-387.839
 20
838.828
 30
0.000000
  70
    32
  0
VERTEX
  8
0
  5
17041
 10
-387.839
 20
838.827
 30
0.000000
  70
    32
  0
VERTEX
  8
0
  5
17042
 10
-387.839
 20
838.826
 30
0.000000
  70
    32
  0
VERTEX
  8
0
  5
17043
 10
-387.839
 20
838.825
 30
0.000000
  70
    32
  0
VERTEX
  8
0
  5
17044
 10
-387.839
 20
838.823
 30
0.000000
  70
    32
  0
VERTEX
  8
0
  5
17045
 10
-387.839
 20
838.822
 30
0.000000
  70
    32
  0
VERTEX
  8
0
  5
17046
 10
-387.839
 20
838.821
 30
0.000000
  70
    32
  0
VERTEX
  8
0
  5
17047
 10
-387.839
 20
838.819
 30
0.000000
  70
    32
  0
VERTEX
  8
0
  5
17048
 10
-387.839
 20
838.818
 30
0.000000
  70
    32
  0
VERTEX
  8
0
  5
17049
 10
-387.840
 20
838.817
 30
0.000000
  70
    32
  0
VERTEX
  8
0
  5
1704A
 10
-387.840
 20
838.816
 30
0.000000
  70
    32
  0
VERTEX
  8
0
  5
1704B
 10
-387.840
 20
838.814
 30
0.000000
  70
    32
  0
VERTEX
  8
0
  5
1704C
 10
-387.840
 20
838.813
 30
0.000000
  70
    32
  0
VERTEX
  8
0
  5
1704D
 10
-387.840
 20
838.812
 30
0.000000
  70
    32
  0
VERTEX
  8
0
  5
1704E
 10
-387.840
 20
838.811
 30
0.000000
  70
    32
  0
VERTEX
  8
0
  5
1704F
 10
-387.840
 20
838.809
 30
0.000000
  70
    32
  0
VERTEX
  8
0
  5
17050
 10
-387.840
 20
838.808
 30
0.000000
  70
    32
  0
VERTEX
  8
0
  5
17051
 10
-387.841
 20
838.807
 30
0.000000
  70
    32
  0
VERTEX
  8
0
  5
17052
 10
-387.841
 20
838.806
 30
0.000000
  70
    32
  0
VERTEX
  8
0
  5
17053
 10
-387.841
 20
838.804
 30
0.000000
  70
    32
  0
VERTEX
  8
0
  5
17054
 10
-387.841
 20
838.803
 30
0.000000
  70
    32
  0
VERTEX
  8
0
  5
17055
 10
-387.841
 20
838.802
 30
0.000000
  70
    32
  0
VERTEX
  8
0
  5
17056
 10
-387.841
 20
838.800
 30
0.000000
  70
    32
  0
VERTEX
  8
0
  5
17057
 10
-387.841
 20
838.799
 30
0.000000
  70
    32
  0
VERTEX
  8
0
  5
17058
 10
-387.842
 20
838.798
 30
0.000000
  70
    32
  0
VERTEX
  8
0
  5
17059
 10
-387.842
 20
838.797
 30
0.000000
  70
    32
  0
VERTEX
  8
0
  5
1705A
 10
-387.842
 20
838.795
 30
0.000000
  70
    32
  0
VERTEX
  8
0
  5
1705B
 10
-387.842
 20
838.794
 30
0.000000
  70
    32
  0
VERTEX
  8
0
  5
1705C
 10
-387.842
 20
838.793
 30
0.000000
  70
    32
  0
VERTEX
  8
0
  5
1705D
 10
-387.842
 20
838.792
 30
0.000000
  70
    32
  0
VERTEX
  8
0
  5
1705E
 10
-387.843
 20
838.790
 30
0.000000
  70
    32
  0
VERTEX
  8
0
  5
1705F
 10
-387.843
 20
838.789
 30
0.000000
  70
    32
  0
VERTEX
  8
0
  5
17060
 10
-387.843
 20
838.788
 30
0.000000
  70
    32
  0
VERTEX
  8
0
  5
17061
 10
-387.843
 20
838.786
 30
0.000000
  70
    32
  0
VERTEX
  8
0
  5
17062
 10
-387.843
 20
838.785
 30
0.000000
  70
    32
  0
VERTEX
  8
0
  5
17063
 10
-387.844
 20
838.784
 30
0.000000
  70
    32
  0
VERTEX
  8
0
  5
17064
 10
-387.844
 20
838.783
 30
0.000000
  70
    32
  0
VERTEX
  8
0
  5
17065
 10
-387.844
 20
838.781
 30
0.000000
  70
    32
  0
VERTEX
  8
0
  5
17066
 10
-387.844
 20
838.780
 30
0.000000
  70
    32
  0
VERTEX
  8
0
  5
17067
 10
-387.844
 20
838.779
 30
0.000000
  70
    32
  0
VERTEX
  8
0
  5
17068
 10
-387.845
 20
838.777
 30
0.000000
  70
    32
  0
VERTEX
  8
0
  5
17069
 10
-387.845
 20
838.776
 30
0.000000
  70
    32
  0
VERTEX
  8
0
  5
1706A
 10
-387.845
 20
838.775
 30
0.000000
  70
    32
  0
VERTEX
  8
0
  5
1706B
 10
-387.845
 20
838.774
 30
0.000000
  70
    32
  0
VERTEX
  8
0
  5
1706C
 10
-387.846
 20
838.772
 30
0.000000
  70
    32
  0
VERTEX
  8
0
  5
1706D
 10
-387.846
 20
838.771
 30
0.000000
  70
    32
  0
VERTEX
  8
0
  5
1706E
 10
-387.846
 20
838.770
 30
0.000000
  70
    32
  0
VERTEX
  8
0
  5
1706F
 10
-387.846
 20
838.768
 30
0.000000
  70
    32
  0
VERTEX
  8
0
  5
17070
 10
-387.847
 20
838.767
 30
0.000000
  70
    32
  0
VERTEX
  8
0
  5
17071
 10
-387.847
 20
838.766
 30
0.000000
  70
    32
  0
VERTEX
  8
0
  5
17072
 10
-387.847
 20
838.765
 30
0.000000
  70
    32
  0
VERTEX
  8
0
  5
17073
 10
-387.847
 20
838.763
 30
0.000000
  70
    32
  0
VERTEX
  8
0
  5
17074
 10
-387.848
 20
838.762
 30
0.000000
  70
    32
  0
VERTEX
  8
0
  5
17075
 10
-387.848
 20
838.761
 30
0.000000
  70
    32
  0
VERTEX
  8
0
  5
17076
 10
-387.848
 20
838.759
 30
0.000000
  70
    32
  0
VERTEX
  8
0
  5
17077
 10
-387.848
 20
838.758
 30
0.000000
  70
    32
  0
VERTEX
  8
0
  5
17078
 10
-387.849
 20
838.757
 30
0.000000
  70
    32
  0
VERTEX
  8
0
  5
17079
 10
-387.849
 20
838.755
 30
0.000000
  70
    32
  0
VERTEX
  8
0
  5
1707A
 10
-387.849
 20
838.754
 30
0.000000
  70
    32
  0
VERTEX
  8
0
  5
1707B
 10
-387.849
 20
838.753
 30
0.000000
  70
    32
  0
VERTEX
  8
0
  5
1707C
 10
-387.850
 20
838.752
 30
0.000000
  70
    32
  0
VERTEX
  8
0
  5
1707D
 10
-387.850
 20
838.750
 30
0.000000
  70
    32
  0
VERTEX
  8
0
  5
1707E
 10
-387.850
 20
838.749
 30
0.000000
  70
    32
  0
VERTEX
  8
0
  5
1707F
 10
-387.851
 20
838.748
 30
0.000000
  70
    32
  0
VERTEX
  8
0
  5
17080
 10
-387.851
 20
838.746
 30
0.000000
  70
    32
  0
VERTEX
  8
0
  5
17081
 10
-387.851
 20
838.745
 30
0.000000
  70
    32
  0
VERTEX
  8
0
  5
17082
 10
-387.851
 20
838.744
 30
0.000000
  70
    32
  0
VERTEX
  8
0
  5
17083
 10
-387.852
 20
838.742
 30
0.000000
  70
    32
  0
VERTEX
  8
0
  5
17084
 10
-387.852
 20
838.741
 30
0.000000
  70
    32
  0
VERTEX
  8
0
  5
17085
 10
-387.852
 20
838.740
 30
0.000000
  70
    32
  0
VERTEX
  8
0
  5
17086
 10
-387.853
 20
838.738
 30
0.000000
  70
    32
  0
VERTEX
  8
0
  5
17087
 10
-387.853
 20
838.737
 30
0.000000
  70
    32
  0
VERTEX
  8
0
  5
17088
 10
-387.853
 20
838.736
 30
0.000000
  70
    32
  0
VERTEX
  8
0
  5
17089
 10
-387.854
 20
838.734
 30
0.000000
  70
    32
  0
VERTEX
  8
0
  5
1708A
 10
-387.854
 20
838.733
 30
0.000000
  70
    32
  0
VERTEX
  8
0
  5
1708B
 10
-387.854
 20
838.732
 30
0.000000
  70
    32
  0
VERTEX
  8
0
  5
1708C
 10
-387.855
 20
838.730
 30
0.000000
  70
    32
  0
VERTEX
  8
0
  5
1708D
 10
-387.855
 20
838.729
 30
0.000000
  70
    32
  0
VERTEX
  8
0
  5
1708E
 10
-387.855
 20
838.728
 30
0.000000
  70
    32
  0
VERTEX
  8
0
  5
1708F
 10
-387.856
 20
838.727
 30
0.000000
  70
    32
  0
VERTEX
  8
0
  5
17090
 10
-387.856
 20
838.725
 30
0.000000
  70
    32
  0
VERTEX
  8
0
  5
17091
 10
-387.857
 20
838.724
 30
0.000000
  70
    32
  0
VERTEX
  8
0
  5
17092
 10
-387.857
 20
838.723
 30
0.000000
  70
    32
  0
VERTEX
  8
0
  5
17093
 10
-387.857
 20
838.721
 30
0.000000
  70
    32
  0
VERTEX
  8
0
  5
17094
 10
-387.858
 20
838.720
 30
0.000000
  70
    32
  0
VERTEX
  8
0
  5
17095
 10
-387.858
 20
838.719
 30
0.000000
  70
    32
  0
VERTEX
  8
0
  5
17096
 10
-387.859
 20
838.718
 30
0.000000
  70
    32
  0
VERTEX
  8
0
  5
17097
 10
-387.859
 20
838.716
 30
0.000000
  70
    32
  0
VERTEX
  8
0
  5
17098
 10
-387.860
 20
838.715
 30
0.000000
  70
    32
  0
VERTEX
  8
0
  5
17099
 10
-387.860
 20
838.714
 30
0.000000
  70
    32
  0
VERTEX
  8
0
  5
1709A
 10
-387.861
 20
838.713
 30
0.000000
  70
    32
  0
VERTEX
  8
0
  5
1709B
 10
-387.861
 20
838.711
 30
0.000000
  70
    32
  0
VERTEX
  8
0
  5
1709C
 10
-387.862
 20
838.710
 30
0.000000
  70
    32
  0
VERTEX
  8
0
  5
1709D
 10
-387.862
 20
838.709
 30
0.000000
  70
    32
  0
VERTEX
  8
0
  5
1709E
 10
-387.863
 20
838.708
 30
0.000000
  70
    32
  0
VERTEX
  8
0
  5
1709F
 10
-387.863
 20
838.707
 30
0.000000
  70
    32
  0
VERTEX
  8
0
  5
170A0
 10
-387.864
 20
838.705
 30
0.000000
  70
    32
  0
VERTEX
  8
0
  5
170A1
 10
-387.864
 20
838.704
 30
0.000000
  70
    32
  0
VERTEX
  8
0
  5
170A2
 10
-387.865
 20
838.703
 30
0.000000
  70
    32
  0
VERTEX
  8
0
  5
170A3
 10
-387.865
 20
838.702
 30
0.000000
  70
    32
  0
VERTEX
  8
0
  5
170A4
 10
-387.866
 20
838.701
 30
0.000000
  70
    32
  0
VERTEX
  8
0
  5
170A5
 10
-387.867
 20
838.700
 30
0.000000
  70
    32
  0
VERTEX
  8
0
  5
170A6
 10
-387.867
 20
838.699
 30
0.000000
  70
    32
  0
VERTEX
  8
0
  5
170A7
 10
-387.868
 20
838.697
 30
0.000000
  70
    32
  0
VERTEX
  8
0
  5
170A8
 10
-387.868
 20
838.696
 30
0.000000
  70
    32
  0
VERTEX
  8
0
  5
170A9
 10
-387.869
 20
838.695
 30
0.000000
  70
    32
  0
VERTEX
  8
0
  5
170AA
 10
-387.870
 20
838.694
 30
0.000000
  70
    32
  0
VERTEX
  8
0
  5
170AB
 10
-387.870
 20
838.693
 30
0.000000
  70
    32
  0
VERTEX
  8
0
  5
170AC
 10
-387.871
 20
838.692
 30
0.000000
  70
    32
  0
VERTEX
  8
0
  5
170AD
 10
-387.872
 20
838.691
 30
0.000000
  70
    32
  0
VERTEX
  8
0
  5
170AE
 10
-387.873
 20
838.690
 30
0.000000
  70
    32
  0
VERTEX
  8
0
  5
170AF
 10
-387.873
 20
838.689
 30
0.000000
  70
    32
  0
VERTEX
  8
0
  5
170B0
 10
-387.874
 20
838.688
 30
0.000000
  70
    32
  0
VERTEX
  8
0
  5
170B1
 10
-387.875
 20
838.687
 30
0.000000
  70
    32
  0
VERTEX
  8
0
  5
170B2
 10
-387.876
 20
838.686
 30
0.000000
  70
    32
  0
VERTEX
  8
0
  5
170B3
 10
-387.876
 20
838.685
 30
0.000000
  70
    32
  0
VERTEX
  8
0
  5
170B4
 10
-387.877
 20
838.684
 30
0.000000
  70
    32
  0
VERTEX
  8
0
  5
170B5
 10
-387.878
 20
838.683
 30
0.000000
  70
    32
  0
VERTEX
  8
0
  5
170B6
 10
-387.879
 20
838.682
 30
0.000000
  70
    32
  0
VERTEX
  8
0
  5
170B7
 10
-387.880
 20
838.681
 30
0.000000
  70
    32
  0
VERTEX
  8
0
  5
170B8
 10
-387.881
 20
838.681
 30
0.000000
  70
    32
  0
VERTEX
  8
0
  5
170B9
 10
-387.882
 20
838.680
 30
0.000000
  70
    32
  0
VERTEX
  8
0
  5
170BA
 10
-387.883
 20
838.679
 30
0.000000
  70
    32
  0
VERTEX
  8
0
  5
170BB
 10
-387.884
 20
838.678
 30
0.000000
  70
    32
  0
VERTEX
  8
0
  5
170BC
 10
-387.885
 20
838.677
 30
0.000000
  70
    32
  0
VERTEX
  8
0
  5
170BD
 10
-387.886
 20
838.676
 30
0.000000
  70
    32
  0
VERTEX
  8
0
  5
170BE
 10
-387.887
 20
838.676
 30
0.000000
  70
    32
  0
VERTEX
  8
0
  5
170BF
 10
-387.888
 20
838.675
 30
0.000000
  70
    32
  0
VERTEX
  8
0
  5
170C0
 10
-387.889
 20
838.674
 30
0.000000
  70
    32
  0
VERTEX
  8
0
  5
170C1
 10
-387.890
 20
838.673
 30
0.000000
  70
    32
  0
VERTEX
  8
0
  5
170C2
 10
-387.891
 20
838.673
 30
0.000000
  70
    32
  0
VERTEX
  8
0
  5
170C3
 10
-387.892
 20
838.672
 30
0.000000
  70
    32
  0
VERTEX
  8
0
  5
170C4
 10
-387.893
 20
838.671
 30
0.000000
  70
    32
  0
VERTEX
  8
0
  5
170C5
 10
-387.894
 20
838.671
 30
0.000000
  70
    32
  0
VERTEX
  8
0
  5
170C6
 10
-387.895
 20
838.670
 30
0.000000
  70
    32
  0
VERTEX
  8
0
  5
170C7
 10
-387.896
 20
838.669
 30
0.000000
  70
    32
  0
VERTEX
  8
0
  5
170C8
 10
-387.897
 20
838.669
 30
0.000000
  70
    32
  0
VERTEX
  8
0
  5
170C9
 10
-387.899
 20
838.668
 30
0.000000
  70
    32
  0
VERTEX
  8
0
  5
170CA
 10
-387.900
 20
838.668
 30
0.000000
  70
    32
  0
VERTEX
  8
0
  5
170CB
 10
-387.901
 20
838.667
 30
0.000000
  70
    32
  0
VERTEX
  8
0
  5
170CC
 10
-387.902
 20
838.667
 30
0.000000
  70
    32
  0
VERTEX
  8
0
  5
170CD
 10
-387.903
 20
838.666
 30
0.000000
  70
    32
  0
VERTEX
  8
0
  5
170CE
 10
-387.905
 20
838.665
 30
0.000000
  70
    32
  0
VERTEX
  8
0
  5
170CF
 10
-387.906
 20
838.665
 30
0.000000
  70
    32
  0
VERTEX
  8
0
  5
170D0
 10
-387.907
 20
838.664
 30
0.000000
  70
    32
  0
VERTEX
  8
0
  5
170D1
 10
-387.908
 20
838.664
 30
0.000000
  70
    32
  0
VERTEX
  8
0
  5
170D2
 10
-387.909
 20
838.664
 30
0.000000
  70
    32
  0
VERTEX
  8
0
  5
170D3
 10
-387.911
 20
838.663
 30
0.000000
  70
    32
  0
VERTEX
  8
0
  5
170D4
 10
-387.912
 20
838.663
 30
0.000000
  70
    32
  0
VERTEX
  8
0
  5
170D5
 10
-387.913
 20
838.662
 30
0.000000
  70
    32
  0
VERTEX
  8
0
  5
170D6
 10
-387.914
 20
838.662
 30
0.000000
  70
    32
  0
VERTEX
  8
0
  5
170D7
 10
-387.916
 20
838.661
 30
0.000000
  70
    32
  0
VERTEX
  8
0
  5
170D8
 10
-387.917
 20
838.661
 30
0.000000
  70
    32
  0
VERTEX
  8
0
  5
170D9
 10
-387.918
 20
838.661
 30
0.000000
  70
    32
  0
VERTEX
  8
0
  5
170DA
 10
-387.920
 20
838.660
 30
0.000000
  70
    32
  0
VERTEX
  8
0
  5
170DB
 10
-387.921
 20
838.660
 30
0.000000
  70
    32
  0
VERTEX
  8
0
  5
170DC
 10
-387.922
 20
838.660
 30
0.000000
  70
    32
  0
VERTEX
  8
0
  5
170DD
 10
-387.923
 20
838.659
 30
0.000000
  70
    32
  0
VERTEX
  8
0
  5
170DE
 10
-387.925
 20
838.659
 30
0.000000
  70
    32
  0
VERTEX
  8
0
  5
170DF
 10
-387.926
 20
838.659
 30
0.000000
  70
    32
  0
VERTEX
  8
0
  5
170E0
 10
-387.927
 20
838.658
 30
0.000000
  70
    32
  0
VERTEX
  8
0
  5
170E1
 10
-387.929
 20
838.658
 30
0.000000
  70
    32
  0
VERTEX
  8
0
  5
170E2
 10
-387.930
 20
838.658
 30
0.000000
  70
    32
  0
VERTEX
  8
0
  5
170E3
 10
-387.931
 20
838.658
 30
0.000000
  70
    32
  0
VERTEX
  8
0
  5
170E4
 10
-387.933
 20
838.657
 30
0.000000
  70
    32
  0
VERTEX
  8
0
  5
170E5
 10
-387.934
 20
838.657
 30
0.000000
  70
    32
  0
VERTEX
  8
0
  5
170E6
 10
-387.935
 20
838.657
 30
0.000000
  70
    32
  0
VERTEX
  8
0
  5
170E7
 10
-387.937
 20
838.657
 30
0.000000
  70
    32
  0
VERTEX
  8
0
  5
170E8
 10
-387.938
 20
838.657
 30
0.000000
  70
    32
  0
VERTEX
  8
0
  5
170E9
 10
-387.939
 20
838.657
 30
0.000000
  70
    32
  0
VERTEX
  8
0
  5
170EA
 10
-387.940
 20
838.656
 30
0.000000
  70
    32
  0
VERTEX
  8
0
  5
170EB
 10
-387.942
 20
838.656
 30
0.000000
  70
    32
  0
VERTEX
  8
0
  5
170EC
 10
-387.943
 20
838.656
 30
0.000000
  70
    32
  0
VERTEX
  8
0
  5
170ED
 10
-387.944
 20
838.656
 30
0.000000
  70
    32
  0
SEQEND
  8
0
  5
170EE
  0
LINE
  5
16B73
  8
0
 10
-387.94431356629309
 20
838.65592906043275
 30
0.0
 11
-387.94431356629309
 21
838.55394951432595
 31
0.0
  0
LINE
  5
16B74
  8
0
 10
-387.83799151393657
 20
839.1275845444228
 30
0.0
 11
-387.83799151393657
 21
838.85138989677853
 31
0.0
  0
LINE
  5
16B75
  8
0
 10
-388.68856784484967
 20
839.1275845444228
 30
0.0
 11
-387.83799151393657
 21
839.1275845444228
 31
0.0
  0
LINE
  5
16B76
  8
0
 10
-388.68856784484967
 20
837.26220834327114
 30
0.0
 11
-388.68856784484967
 21
839.1275845444228
 31
0.0
  0
LINE
  5
16B77
  8
0
 10
-388.36534880920362
 20
837.26220834327114
 30
0.0
 11
-388.68856784484967
 21
837.26220834327114
 31
0.0
  0
LINE
  5
16B78
  8
0
 10
-388.36534880920362
 20
837.41942683793422
 30
0.0
 11
-388.36534880920362
 21
837.26220834327114
 31
0.0
  0
VIEWPORT
  5
BADA
 67
     1
  8
0
 10
5.249999665167528
 20
5.3976156192433988
 30
0.0
 40
16.259362384438411
 41
10.777329619873861
 68
     2
 69
     1
1001
ACAD
1000
MVIEW
1002
{
1070
    16
1010
0.0
1020
0.0
1030
0.0
1010
0.0
1020
0.0
1030
1.0
1040
0.0
1040
10.777329619873861
1040
5.249999665167528
1040
5.3976156192433988
1040
50.0
1040
0.0
1040
0.0
1070
     0
1070
   100
1070
     1
1070
     1
1070
     0
1070
     0
1070
     0
1070
     0
1040
0.0
1040
0.0
1040
0.0
1040
0.5
1040
0.5
1040
0.5
1040
0.5
1070
     0
1002
{
1002
}
1002
}
  0
VIEWPORT
  5
BADD
 67
     1
  8
0
 10
5.249999629487192
 20
4.0166741807634683
 30
0.0
 40
10.44245679893058
 41
7.8813805131999892
 68
     1
 69
     2
1001
ACAD
1000
MVIEW
1002
{
1070
    16
1010
0.0
1020
0.0
1030
0.0
1010
0.0
1020
0.0
1030
1.0
1040
0.0
1040
7.881380531263555
1040
-387.21028611501271
1040
838.18724373717725
1040
50.0
1040
0.0
1040
0.0
1070
     0
1070
   100
1070
     1
1070
     2
1070
     0
1070
     0
1070
     0
1070
     0
1040
0.0
1040
0.0
1040
0.0
1040
0.5
1040
0.5
1040
0.5
1040
0.5
1070
     0
1002
{
1002
}
1002
}
  0
ENDSEC
  0
EOF
