  0
SECTION
  2
HEADER
  9
$ACADVER
  1
AC1009
  9
$INSBASE
 10
0.0
 20
0.0
 30
0.0
  9
$EXTMIN
 10
-382.4698407366717
 20
842.84356499994283
 30
0.0
  9
$EXTMAX
 10
-378.88278350204371
 20
847.35403261138958
 30
0.0
  9
$LIMMIN
 10
0.0
 20
0.0
  9
$LIMMAX
 10
1500.0
 20
1500.0
  9
$ORTHOMODE
 70
     0
  9
$REGENMODE
 70
     1
  9
$FILLMODE
 70
     1
  9
$QTEXTMODE
 70
     0
  9
$MIRRTEXT
 70
     1
  9
$DRAGMODE
 70
     2
  9
$LTSCALE
 40
1.0
  9
$OSMODE
 70
    63
  9
$ATTMODE
 70
     1
  9
$TEXTSIZE
 40
1.5
  9
$TRACEWID
 40
0.05
  9
$TEXTSTYLE
  7
STANDARD
  9
$CLAYER
  8
0
  9
$CELTYPE
  6
BYLAYER
  9
$CECOLOR
 62
   256
  9
$DIMSCALE
 40
1.0
  9
$DIMASZ
 40
0.75
  9
$DIMEXO
 40
1.5
  9
$DIMDLI
 40
2.0
  9
$DIMRND
 40
0.0
  9
$DIMDLE
 40
0.0
  9
$DIMEXE
 40
1.0
  9
$DIMTP
 40
0.0
  9
$DIMTM
 40
0.0
  9
$DIMTXT
 40
1.5
  9
$DIMCEN
 40
2.0
  9
$DIMTSZ
 40
0.0
  9
$DIMTOL
 70
     0
  9
$DIMLIM
 70
     0
  9
$DIMTIH
 70
     0
  9
$DIMTOH
 70
     0
  9
$DIMSE1
 70
     0
  9
$DIMSE2
 70
     0
  9
$DIMTAD
 70
     1
  9
$DIMZIN
 70
     0
  9
$DIMBLK
  1
ARCHTICK
  9
$DIMASO
 70
     1
  9
$DIMSHO
 70
     1
  9
$DIMPOST
  1
"
  9
$DIMAPOST
  1

  9
$DIMALT
 70
     0
  9
$DIMALTD
 70
     2
  9
$DIMALTF
 40
25.399999999999999
  9
$DIMLFAC
 40
1.0
  9
$DIMTOFL
 70
     0
  9
$DIMTVP
 40
0.0
  9
$DIMTIX
 70
     1
  9
$DIMSOXD
 70
     0
  9
$DIMSAH
 70
     0
  9
$DIMBLK1
  1

  9
$DIMBLK2
  1

  9
$DIMSTYLE
  2
THREE_QUARTER_INCH_SCALE
  9
$DIMCLRD
 70
     0
  9
$DIMCLRE
 70
     0
  9
$DIMCLRT
 70
     0
  9
$DIMTFAC
 40
1.0
  9
$DIMGAP
 40
1.0
  9
$LUNITS
 70
     2
  9
$LUPREC
 70
     4
  9
$SKETCHINC
 40
0.1
  9
$FILLETRAD
 40
0.0
  9
$AUNITS
 70
     0
  9
$AUPREC
 70
     0
  9
$MENU
  1
.
  9
$ELEVATION
 40
0.0
  9
$PELEVATION
 40
0.0
  9
$THICKNESS
 40
0.0
  9
$LIMCHECK
 70
     0
  9
$BLIPMODE
 70
     0
  9
$CHAMFERA
 40
0.5
  9
$CHAMFERB
 40
0.5
  9
$SKPOLY
 70
     0
  9
$TDCREATE
 40
2452089.395738773
  9
$TDUPDATE
 40
2453621.5254901848
  9
$TDINDWG
 40
1.3219978703999999
  9
$TDUSRTIMER
 40
1.3219978703999999
  9
$USRTIMER
 70
     1
  9
$ANGBASE
 50
0.0
  9
$ANGDIR
 70
     0
  9
$PDMODE
 70
     0
  9
$PDSIZE
 40
10.0
  9
$PLINEWID
 40
0.0
  9
$COORDS
 70
     0
  9
$SPLFRAME
 70
     0
  9
$SPLINETYPE
 70
     6
  9
$SPLINESEGS
 70
     8
  9
$ATTDIA
 70
     0
  9
$ATTREQ
 70
     1
  9
$HANDLING
 70
     1
  9
$HANDSEED
  5
2C0BE
  9
$SURFTAB1
 70
     6
  9
$SURFTAB2
 70
     6
  9
$SURFTYPE
 70
     6
  9
$SURFU
 70
     6
  9
$SURFV
 70
     6
  9
$UCSNAME
  2

  9
$UCSORG
 10
0.0
 20
0.0
 30
0.0
  9
$UCSXDIR
 10
1.0
 20
0.0
 30
0.0
  9
$UCSYDIR
 10
0.0
 20
1.0
 30
0.0
  9
$PUCSNAME
  2

  9
$PUCSORG
 10
0.0
 20
0.0
 30
0.0
  9
$PUCSXDIR
 10
1.0
 20
0.0
 30
0.0
  9
$PUCSYDIR
 10
0.0
 20
1.0
 30
0.0
  9
$USERI1
 70
     0
  9
$USERI2
 70
     0
  9
$USERI3
 70
     0
  9
$USERI4
 70
     0
  9
$USERI5
 70
     0
  9
$USERR1
 40
0.0
  9
$USERR2
 40
0.0
  9
$USERR3
 40
0.0
  9
$USERR4
 40
0.0
  9
$USERR5
 40
0.0
  9
$WORLDVIEW
 70
     1
  9
$SHADEDGE
 70
     3
  9
$SHADEDIF
 70
    70
  9
$TILEMODE
 70
     0
  9
$MAXACTVP
 70
    64
  9
$PLIMCHECK
 70
     0
  9
$PEXTMIN
 10
0.0287712300219028
 20
0.0759839241634737
 30
0.0
  9
$PEXTMAX
 10
10.47122802895248
 20
7.957364437363462
 30
0.0
  9
$PLIMMIN
 10
-0.2500002402958907
 20
-0.2499999962453767
  9
$PLIMMAX
 10
10.74999951940821
 20
8.2499997634587316
  9
$UNITMODE
 70
     0
  9
$VISRETAIN
 70
     1
  9
$PLINEGEN
 70
     0
  9
$PSLTSCALE
 70
     1
  0
ENDSEC
  0
SECTION
  2
TABLES
  0
TABLE
  2
VPORT
 70
     1
  0
VPORT
  2
*ACTIVE
 70
     0
 10
0.0
 20
0.0
 11
1.0
 21
1.0
 12
-381.52600122126211
 22
845.16779400026962
 13
0.0
 23
0.0
 14
0.5
 24
0.5
 15
0.5
 25
0.5
 16
0.0
 26
0.0
 36
1.0
 17
0.0
 27
0.0
 37
0.0
 40
7.7974136879046219
 41
2.0
 42
50.0
 43
0.0
 44
0.0
 50
0.0
 51
0.0
 71
     0
 72
   100
 73
     1
 74
     2
 75
     0
 76
     0
 77
     0
 78
     0
  0
ENDTAB
  0
TABLE
  2
LTYPE
 70
     1
  0
LTYPE
  2
CONTINUOUS
 70
     0
  3
Solid line
 72
    65
 73
     0
 40
0.0
  0
ENDTAB
  0
TABLE
  2
LAYER
 70
    10
  0
LAYER
  2
0
 70
     0
 62
     7
  6
CONTINUOUS
  0
LAYER
  2
DEFPOINTS
 70
     0
 62
     7
  6
CONTINUOUS
  0
LAYER
  2
FRAME_200
 70
     0
 62
     8
  6
CONTINUOUS
  0
LAYER
  2
FRAME_070
 70
     0
 62
     5
  6
CONTINUOUS
  0
LAYER
  2
FRAME_050
 70
     0
 62
     6
  6
CONTINUOUS
  0
LAYER
  2
TITLE_BLOCK
 70
     0
 62
     7
  6
CONTINUOUS
  0
LAYER
  2
FRAME_025
 70
     0
 62
     7
  6
CONTINUOUS
  0
LAYER
  2
VIEWPORT
 70
     0
 62
     7
  6
CONTINUOUS
  0
LAYER
  2
PROF
 70
     0
 62
     7
  6
CONTINUOUS
  0
LAYER
  2
PROFILE
 70
     0
 62
     7
  6
CONTINUOUS
  0
ENDTAB
  0
TABLE
  2
STYLE
 70
     2
  0
STYLE
  2
STANDARD
 70
     0
 40
0.0
 41
1.0
 50
0.0
 71
     0
 42
1.5
  3
txt
  4

  0
STYLE
  2
ISO_PROPORTIONAL
 70
     0
 40
0.0
 41
1.0
 50
0.0
 71
     0
 42
2.5
  3
isocp.shx
  4

  0
ENDTAB
  0
TABLE
  2
VIEW
 70
     1
  0
ENDTAB
  0
TABLE
  2
UCS
 70
     0
  0
ENDTAB
  0
TABLE
  2
APPID
 70
     6
  0
APPID
  2
ACAD
 70
     0
  0
APPID
  2
DCO15
 70
     0
  0
APPID
  2
ACAD_EXEMPT_FROM_CAD_STANDARDS
 70
     0
  0
APPID
  2
ACAD_PSEXT
 70
     0
  0
APPID
  2
CONTENTBLOCKDESCRIPTION
 70
     0
  0
APPID
  2
CONTENTBLOCKICON
 70
     0
  0
ENDTAB
  0
TABLE
  2
DIMSTYLE
 70
     5
  0
DIMSTYLE
  2
FULL_SCALE
 70
     0
  3
"
  4

  5
ARCHTICK
  6

  7

 40
1.0
 41
0.046875
 42
0.09375
 43
0.125
 44
0.0625
 45
0.0
 46
0.0
 47
0.0
 48
0.0
140
0.125
141
0.125
142
0.0
143
25.399999999999999
144
1.0
145
0.0
146
1.0
147
0.0625
 71
     0
 72
     0
 73
     0
 74
     0
 75
     0
 76
     0
 77
     1
 78
     0
170
     0
171
     2
172
     0
173
     0
174
     1
175
     0
176
     0
177
     0
178
     0
  0
DIMSTYLE
  2
HALF_SCALE
 70
     0
  3
"
  4

  5
ARCHTICK
  6

  7

 40
1.0
 41
0.09375
 42
0.1875
 43
0.25
 44
0.125
 45
0.0
 46
0.0
 47
0.0
 48
0.0
140
0.25
141
0.25
142
0.0
143
25.399999999999999
144
1.0
145
0.0
146
1.0
147
0.125
 71
     0
 72
     0
 73
     0
 74
     0
 75
     0
 76
     0
 77
     1
 78
     0
170
     0
171
     2
172
     0
173
     0
174
     1
175
     0
176
     0
177
     0
178
     0
  0
DIMSTYLE
  2
INCH_SCALE
 70
     0
  3
"
  4

  5
ARCHTICK
  6

  7

 40
1.0
 41
0.5625
 42
1.125
 43
1.5
 44
0.75
 45
0.0
 46
0.0
 47
0.0
 48
0.0
140
1.125
141
1.5
142
0.0
143
25.399999999999999
144
1.0
145
0.0
146
1.0
147
0.75
 71
     0
 72
     0
 73
     0
 74
     0
 75
     0
 76
     0
 77
     1
 78
     0
170
     0
171
     2
172
     0
173
     0
174
     1
175
     0
176
     0
177
     0
178
     0
  0
DIMSTYLE
  2
THREE_QUARTER_INCH_SCALE
 70
     0
  3
"
  4

  5
ARCHTICK
  6

  7

 40
1.0
 41
0.75
 42
1.5
 43
2.0
 44
1.0
 45
0.0
 46
0.0
 47
0.0
 48
0.0
140
1.5
141
2.0
142
0.0
143
25.399999999999999
144
1.0
145
0.0
146
1.0
147
1.0
 71
     0
 72
     0
 73
     0
 74
     0
 75
     0
 76
     0
 77
     1
 78
     0
170
     0
171
     2
172
     0
173
     0
174
     1
175
     0
176
     0
177
     0
178
     0
  0
DIMSTYLE
  2
ZHALF_INCH_SCALE
 70
     0
  3
"
  4

  5
ARCHTICK
  6

  7

 40
1.0
 41
1.125
 42
2.25
 43
3.0
 44
1.5
 45
0.0
 46
0.0
 47
0.0
 48
0.0
140
2.25
141
3.0
142
0.0
143
25.399999999999999
144
1.0
145
0.0
146
1.0
147
1.5
 71
     0
 72
     0
 73
     0
 74
     0
 75
     0
 76
     0
 77
     1
 78
     0
170
     0
171
     2
172
     0
173
     0
174
     1
175
     0
176
     0
177
     0
178
     0
  0
ENDTAB
  0
ENDSEC
  0
SECTION
  2
BLOCKS
  0
BLOCK
  8
0
  2
$MODEL_SPACE
 70
     0
 10
0.0
 20
0.0
 30
0.0
  3
$MODEL_SPACE
  1

  0
ENDBLK
  5
21
  8
0
  0
BLOCK
 67
     1
  8
0
  2
$PAPER_SPACE
 70
     0
 10
0.0
 20
0.0
 30
0.0
  3
$PAPER_SPACE
  1

  0
ENDBLK
  5
BAD5
 67
     1
  8
0
  0
BLOCK
  8
0
  2
_ARCHTICK
 70
     0
 10
0.0
 20
0.0
 30
0.0
  3
_ARCHTICK
  1

  0
POLYLINE
  5
158
  8
0
  6
BYBLOCK
 62
     0
 66
     1
 10
0.0
 20
0.0
 30
0.0
 40
0.15
 41
0.15
  0
VERTEX
  5
2BECA
  8
0
  6
BYBLOCK
 62
     0
 10
-0.5
 20
-0.5
 30
0.0
  0
VERTEX
  5
2BECB
  8
0
  6
BYBLOCK
 62
     0
 10
0.5
 20
0.5
 30
0.0
  0
SEQEND
  5
2BECC
  8
0
  6
BYBLOCK
 62
     0
  0
ENDBLK
  5
15A
  8
0
  0
BLOCK
  8
0
  2
_OPEN30
 70
     0
 10
0.0
 20
0.0
 30
0.0
  3
_OPEN30
  1

  0
LINE
  5
15C
  8
0
  6
BYBLOCK
 62
     0
 10
-1.0
 20
0.26794919
 30
0.0
 11
0.0
 21
0.0
 31
0.0
  0
LINE
  5
15D
  8
0
  6
BYBLOCK
 62
     0
 10
0.0
 20
0.0
 30
0.0
 11
-1.0
 21
-0.26794919
 31
0.0
  0
LINE
  5
15E
  8
0
  6
BYBLOCK
 62
     0
 10
0.0
 20
0.0
 30
0.0
 11
-1.0
 21
0.0
 31
0.0
  0
ENDBLK
  5
160
  8
0
  0
BLOCK
  8
0
  2
ISO_A2_TITLE_BLOCK
 70
     2
 10
0.0
 20
0.0
 30
0.0
  3
ISO_A2_TITLE_BLOCK
  1

  0
LINE
  5
BDD
  8
FRAME_050
 10
299.5
 20
12.5
 30
0.0
 11
297.0
 21
7.5
 31
0.0
  0
LINE
  5
BDE
  8
FRAME_050
 10
294.5
 20
12.5
 30
0.0
 11
299.5
 21
12.5
 31
0.0
  0
LINE
  5
BDF
  8
FRAME_050
 10
247.0
 20
5.0
 30
0.0
 11
347.0
 21
5.0
 31
0.0
  0
LINE
  5
BE0
  8
FRAME_070
 10
584.0
 20
410.0
 30
0.0
 11
10.0
 21
410.0
 31
0.0
  0
LINE
  5
BE1
  8
FRAME_070
 10
10.0
 20
10.0
 30
0.0
 11
584.0
 21
10.0
 31
0.0
  0
LINE
  5
BE2
  8
FRAME_050
 10
12.5
 20
207.5
 30
0.0
 11
7.5
 21
210.0
 31
0.0
  0
LINE
  5
BE3
  8
FRAME_050
 10
12.5
 20
212.5
 30
0.0
 11
12.5
 21
207.5
 31
0.0
  0
LINE
  5
BE4
  8
FRAME_070
 10
10.0
 20
410.0
 30
0.0
 11
10.0
 21
10.0
 31
0.0
  0
LINE
  5
BE5
  8
FRAME_200
 10
0.0
 20
0.0
 30
0.0
 11
0.0
 21
10.0
 31
0.0
  0
LINE
  5
BE6
  8
FRAME_200
 10
0.0
 20
0.0
 30
0.0
 11
10.0
 21
0.0
 31
0.0
  0
TEXT
  5
BE7
  8
FRAME_050
 10
5.9000000000000004
 20
35.0
 30
0.0
 40
4.0
  1
H
  7
ISO_PROPORTIONAL
 72
     4
 11
7.5
 21
37.0
 31
0.0
  0
LINE
  5
BE8
  8
FRAME_050
 10
10.0
 20
60.0
 30
0.0
 11
5.0
 21
60.0
 31
0.0
  0
LINE
  5
BE9
  8
FRAME_050
 10
81.75
 20
5.0
 30
0.0
 11
81.75
 21
10.0
 31
0.0
  0
TEXT
  5
BEA
  8
FRAME_050
 10
44.874999999999993
 20
5.5
 30
0.0
 40
4.0
  1
1
  7
ISO_PROPORTIONAL
 72
     4
 11
45.875
 21
7.5
 31
0.0
  0
TEXT
  5
BEB
  8
FRAME_050
 10
6.0035533905932743
 20
85.0
 30
0.0
 40
4.0
  1
G
  7
ISO_PROPORTIONAL
 72
     4
 11
7.5
 21
87.0
 31
0.0
  0
LINE
  5
BEC
  8
FRAME_050
 10
10.0
 20
110.0
 30
0.0
 11
5.0
 21
110.0
 31
0.0
  0
TEXT
  5
BED
  8
FRAME_050
 10
6.0999999999999988
 20
135.0
 30
0.0
 40
4.0
  1
F
  7
ISO_PROPORTIONAL
 72
     4
 11
7.5
 21
137.0
 31
0.0
  0
LINE
  5
BEE
  8
FRAME_050
 10
10.0
 20
160.0
 30
0.0
 11
5.0
 21
160.0
 31
0.0
  0
TEXT
  5
BEF
  8
FRAME_050
 10
6.0999999999999988
 20
185.0
 30
0.0
 40
4.0
  1
E
  7
ISO_PROPORTIONAL
 72
     4
 11
7.5
 21
187.0
 31
0.0
  0
LINE
  5
BF0
  8
FRAME_050
 10
153.5
 20
5.0
 30
0.0
 11
153.5
 21
10.0
 31
0.0
  0
TEXT
  5
BF1
  8
FRAME_050
 10
116.1556692913386
 20
5.3996062992125982
 30
0.0
 40
4.0
  1
2
  7
ISO_PROPORTIONAL
 72
     4
 11
117.625
 21
7.5
 31
0.0
  0
TEXT
  5
BF2
  8
FRAME_050
 10
187.89215728752529
 20
5.5828427124746138
 30
0.0
 40
4.0
  1
3
  7
ISO_PROPORTIONAL
 72
     4
 11
189.375
 21
7.5
 31
0.0
  0
LINE
  5
BF3
  8
FRAME_050
 10
225.25
 20
5.0
 30
0.0
 11
225.25
 21
10.0
 31
0.0
  0
LINE
  5
BF4
  8
FRAME_050
 10
297.0
 20
7.5
 30
0.0
 11
294.5
 21
12.5
 31
0.0
  0
LINE
  5
BF5
  8
FRAME_050
 10
287.0
 20
5.0
 30
0.0
 11
287.0
 21
10.0
 31
0.0
  0
LINE
  5
BF6
  8
FRAME_050
 10
277.0
 20
5.0
 30
0.0
 11
277.0
 21
10.0
 31
0.0
  0
LINE
  5
BF7
  8
FRAME_050
 10
267.0
 20
5.0
 30
0.0
 11
267.0
 21
10.0
 31
0.0
  0
LINE
  5
BF8
  8
FRAME_050
 10
257.0
 20
5.0
 30
0.0
 11
257.0
 21
10.0
 31
0.0
  0
LINE
  5
BF9
  8
FRAME_050
 10
247.0
 20
5.0
 30
0.0
 11
247.0
 21
10.0
 31
0.0
  0
LINE
  5
BFA
  8
FRAME_050
 10
297.0
 20
10.0
 30
0.0
 11
297.0
 21
5.0
 31
0.0
  0
LINE
  5
BFB
  8
FRAME_050
 10
297.0
 20
10.0
 30
0.0
 11
297.0
 21
15.0
 31
0.0
  0
LINE
  5
BFC
  8
FRAME_050
 10
5.0
 20
210.0
 30
0.0
 11
15.0
 21
210.0
 31
0.0
  0
LINE
  5
BFD
  8
FRAME_050
 10
7.5
 20
210.0
 30
0.0
 11
12.5
 21
212.5
 31
0.0
  0
TEXT
  5
BFE
  8
FRAME_050
 10
5.7860912703473977
 20
235.0
 30
0.0
 40
4.0
  1
D
  7
ISO_PROPORTIONAL
 72
     4
 11
7.5
 21
237.0
 31
0.0
  0
LINE
  5
BFF
  8
FRAME_050
 10
10.0
 20
260.0
 30
0.0
 11
5.0
 21
260.0
 31
0.0
  0
TEXT
  5
C00
  8
FRAME_050
 10
6.1931980515339466
 20
285.0
 30
0.0
 40
4.0
  1
C
  7
ISO_PROPORTIONAL
 72
     4
 11
7.5
 21
287.0
 31
0.0
  0
LINE
  5
C01
  8
FRAME_050
 10
10.0
 20
310.0
 30
0.0
 11
5.0
 21
310.0
 31
0.0
  0
TEXT
  5
C02
  8
FRAME_050
 10
5.8999999999999959
 20
335.0
 30
0.0
 40
4.0
  1
B
  7
ISO_PROPORTIONAL
 72
     4
 11
7.5
 21
337.0
 31
0.0
  0
LINE
  5
C03
  8
FRAME_050
 10
10.0
 20
360.0
 30
0.0
 11
5.0
 21
360.0
 31
0.0
  0
TEXT
  5
C04
  8
FRAME_050
 10
5.6999999999999993
 20
385.0
 30
0.0
 40
4.0
  1
A
  7
ISO_PROPORTIONAL
 72
     4
 11
7.5
 21
387.0
 31
0.0
  0
LINE
  5
C05
  8
FRAME_200
 10
10.0
 20
420.0
 30
0.0
 11
0.0
 21
420.0
 31
0.0
  0
LINE
  5
C06
  8
FRAME_200
 10
0.0
 20
420.0
 30
0.0
 11
0.0
 21
410.0
 31
0.0
  0
TEXT
  5
C07
  8
FRAME_050
 10
44.874999999999993
 20
410.5
 30
0.0
 40
4.0
  1
1
  7
ISO_PROPORTIONAL
 72
     4
 11
45.875
 21
412.5
 31
0.0
  0
LINE
  5
C08
  8
FRAME_050
 10
81.75
 20
410.0
 30
0.0
 11
81.75
 21
415.0
 31
0.0
  0
TEXT
  5
C09
  8
FRAME_050
 10
116.1556692913386
 20
410.39960629921262
 30
0.0
 40
4.0
  1
2
  7
ISO_PROPORTIONAL
 72
     4
 11
117.625
 21
412.5
 31
0.0
  0
LINE
  5
C0A
  8
FRAME_050
 10
153.5
 20
410.0
 30
0.0
 11
153.5
 21
415.0
 31
0.0
  0
TEXT
  5
C0B
  8
FRAME_050
 10
187.89215728752529
 20
410.58284271247459
 30
0.0
 40
4.0
  1
3
  7
ISO_PROPORTIONAL
 72
     4
 11
189.375
 21
412.5
 31
0.0
  0
LINE
  5
C0C
  8
FRAME_050
 10
297.0
 20
405.0
 30
0.0
 11
297.0
 21
415.0
 31
0.0
  0
LINE
  5
C0D
  8
FRAME_050
 10
225.25
 20
410.0
 30
0.0
 11
225.25
 21
415.0
 31
0.0
  0
TEXT
  5
C0E
  8
FRAME_050
 10
259.52499999999998
 20
410.5
 30
0.0
 40
4.0
  1
4
  7
ISO_PROPORTIONAL
 72
     4
 11
261.125
 21
412.5
 31
0.0
  0
LINE
  5
C0F
  8
FRAME_070
 10
584.0
 20
10.0
 30
0.0
 11
584.0
 21
410.0
 31
0.0
  0
ATTDEF
  5
C10
  8
FRAME_025
 10
473.0
 20
31.75
 30
0.0
 40
2.5
  1
XXX - 00/00/00
  7
ISO_PROPORTIONAL
 11
473.0
 21
33.0
 31
0.0
  3
Approved by - Date
  2
APPROVED_BY_DATE
 70
     8
 74
     2
  0
TEXT
  5
C11
  8
FRAME_025
 10
448.0
 20
41.749999999999993
 30
0.0
 40
2.5
  1
Title/Name, designation, material, dimension etc
  7
ISO_PROPORTIONAL
 11
448.0
 21
43.0
 31
0.0
 73
     2
  0
TEXT
  5
C12
  8
FRAME_025
 10
473.0
 20
35.75
 30
0.0
 40
2.5
  1
Approved by - date
  7
ISO_PROPORTIONAL
 11
473.0
 21
37.0
 31
0.0
 73
     2
  0
LINE
  5
C13
  8
FRAME_070
 10
414.0
 20
46.0
 30
0.0
 11
584.0
 21
46.0
 31
0.0
  0
LINE
  5
C14
  8
FRAME_070
 10
414.0
 20
40.0
 30
0.0
 11
584.0
 21
40.0
 31
0.0
  0
LINE
  5
C15
  8
FRAME_070
 10
414.0
 20
30.0
 30
0.0
 11
584.0
 21
30.0
 31
0.0
  0
LINE
  5
C16
  8
FRAME_050
 10
368.75
 20
5.0
 30
0.0
 11
368.75
 21
10.0
 31
0.0
  0
LINE
  5
C17
  8
FRAME_050
 10
337.0
 20
5.0
 30
0.0
 11
337.0
 21
10.0
 31
0.0
  0
LINE
  5
C18
  8
FRAME_050
 10
327.0
 20
5.0
 30
0.0
 11
327.0
 21
10.0
 31
0.0
  0
LINE
  5
C19
  8
FRAME_050
 10
317.0
 20
5.0
 30
0.0
 11
317.0
 21
10.0
 31
0.0
  0
LINE
  5
C1A
  8
FRAME_050
 10
307.0
 20
5.0
 30
0.0
 11
307.0
 21
10.0
 31
0.0
  0
LINE
  5
C1B
  8
FRAME_050
 10
347.0
 20
5.0
 30
0.0
 11
347.0
 21
10.0
 31
0.0
  0
LINE
  5
C1C
  8
FRAME_050
 10
440.5
 20
5.0
 30
0.0
 11
440.5
 21
10.0
 31
0.0
  0
TEXT
  5
C1D
  8
FRAME_050
 10
403.24547244094481
 20
5.4102362204724406
 30
0.0
 40
4.0
  1
6
  7
ISO_PROPORTIONAL
 72
     4
 11
404.62499999999989
 21
7.5
 31
0.0
  0
TEXT
  5
C1E
  8
FRAME_050
 10
474.97500000000002
 20
5.5
 30
0.0
 40
4.0
  1
7
  7
ISO_PROPORTIONAL
 72
     4
 11
476.37499999999989
 21
7.5
 31
0.0
  0
TEXT
  5
C1F
  8
FRAME_025
 10
431.0
 20
41.749999999999993
 30
0.0
 40
2.5
  1
Quantity
  7
ISO_PROPORTIONAL
 11
431.0
 21
43.0
 31
0.0
 73
     2
  0
TEXT
  5
C20
  8
FRAME_025
 10
416.0
 20
41.749999999999993
 30
0.0
 40
2.5
  1
Itemref
  7
ISO_PROPORTIONAL
 11
416.0
 21
43.0
 31
0.0
 73
     2
  0
LINE
  5
C21
  8
FRAME_070
 10
414.0
 20
40.0
 30
0.0
 11
414.0
 21
46.0
 31
0.0
  0
LINE
  5
C22
  8
FRAME_070
 10
429.0
 20
40.0
 30
0.0
 11
429.0
 21
46.0
 31
0.0
  0
LINE
  5
C23
  8
FRAME_070
 10
414.0
 20
10.0
 30
0.0
 11
414.0
 21
40.0
 31
0.0
  0
ATTDEF
  5
C24
  8
FRAME_025
 10
416.0
 20
31.75
 30
0.0
 40
2.5
  1
XXX
  7
ISO_PROPORTIONAL
 11
416.0
 21
33.0
 31
0.0
  3
Designed by
  2
DESIGNED_BY
 70
     8
 74
     2
  0
TEXT
  5
C25
  8
FRAME_025
 10
416.0
 20
35.75
 30
0.0
 40
2.5
  1
Designed by
  7
ISO_PROPORTIONAL
 11
416.0
 21
37.0
 31
0.0
 73
     2
  0
LINE
  5
C26
  8
FRAME_070
 10
446.0
 20
40.0
 30
0.0
 11
446.0
 21
46.0
 31
0.0
  0
ATTDEF
  5
C27
  8
FRAME_025
 10
448.0
 20
31.75
 30
0.0
 40
2.5
  1
XXX
  7
ISO_PROPORTIONAL
 11
448.0
 21
33.0
 31
0.0
  3
Checked by
  2
CHECKED_BY
 70
     8
 74
     2
  0
TEXT
  5
C28
  8
FRAME_025
 10
448.0
 20
35.75
 30
0.0
 40
2.5
  1
Checked by
  7
ISO_PROPORTIONAL
 11
448.0
 21
37.0
 31
0.0
 73
     2
  0
ATTDEF
  5
C29
  8
FRAME_050
 10
444.74999999999989
 20
17.5
 30
0.0
 40
5.0
  1
XXX
  7
ISO_PROPORTIONAL
 72
     4
 11
451.49999999999989
 21
20.0
 31
0.0
  3
Owner
  2
OWNER
 70
     8
  0
LINE
  5
C2A
  8
FRAME_070
 10
446.0
 20
30.0
 30
0.0
 11
446.0
 21
40.0
 31
0.0
  0
LINE
  5
C2B
  8
FRAME_070
 10
471.0
 20
30.0
 30
0.0
 11
471.0
 21
40.0
 31
0.0
  0
LINE
  5
C2C
  8
FRAME_070
 10
489.0
 20
20.0
 30
0.0
 11
584.0
 21
20.0
 31
0.0
  0
LINE
  5
C2D
  8
FRAME_050
 10
512.25
 20
5.0
 30
0.0
 11
512.25
 21
10.0
 31
0.0
  0
TEXT
  5
C2E
  8
FRAME_050
 10
546.72499999999991
 20
5.5
 30
0.0
 40
4.0
  1
8
  7
ISO_PROPORTIONAL
 72
     4
 11
548.125
 21
7.5
 31
0.0
  0
ATTDEF
  5
C2F
  8
FRAME_050
 10
517.64999999999986
 20
13.5
 30
0.0
 40
3.0
  1
X
  7
ISO_PROPORTIONAL
 72
     4
 11
519.0
 21
15.0
 31
0.0
  3
Drawing number
  2
DRAWING_NUMBER
 70
     8
  0
ATTDEF
  5
C30
  8
FRAME_050
 10
529.75
 20
22.5
 30
0.0
 40
5.0
  1
XXX
  7
ISO_PROPORTIONAL
 72
     4
 11
536.5
 21
25.0
 31
0.0
  3
Title / Name
  2
TITLE
 70
     8
  0
LINE
  5
C31
  8
FRAME_070
 10
489.0
 20
10.0
 30
0.0
 11
489.0
 21
30.0
 31
0.0
  0
ATTDEF
  5
C32
  8
FRAME_025
 10
511.0
 20
31.75
 30
0.0
 40
2.5
  1
XXX
  7
ISO_PROPORTIONAL
 11
511.0
 21
33.0
 31
0.0
  3
Filename
  2
FILENAME
 70
     8
 74
     2
  0
TEXT
  5
C33
  8
FRAME_025
 10
511.0
 20
35.75
 30
0.0
 40
2.5
  1
Filename
  7
ISO_PROPORTIONAL
 11
511.0
 21
37.0
 31
0.0
 73
     2
  0
LINE
  5
C34
  8
FRAME_070
 10
509.0
 20
30.0
 30
0.0
 11
509.0
 21
40.0
 31
0.0
  0
TEXT
  5
C35
  8
FRAME_025
 10
536.0
 20
41.749999999999993
 30
0.0
 40
2.5
  1
Article No./Reference
  7
ISO_PROPORTIONAL
 11
536.0
 21
43.0
 31
0.0
 73
     2
  0
LINE
  5
C36
  8
FRAME_070
 10
534.0
 20
40.0
 30
0.0
 11
534.0
 21
46.0
 31
0.0
  0
ATTDEF
  5
C37
  8
FRAME_025
 10
551.0
 20
11.75
 30
0.0
 40
2.5
  1
0
  7
ISO_PROPORTIONAL
 11
551.0
 21
13.0
 31
0.0
  3
Edition
  2
EDITION
 70
     8
 74
     2
  0
TEXT
  5
C38
  8
FRAME_025
 10
551.0
 20
15.75
 30
0.0
 40
2.5
  1
Edition
  7
ISO_PROPORTIONAL
 11
551.0
 21
17.0
 31
0.0
 73
     2
  0
LINE
  5
C39
  8
FRAME_070
 10
549.0
 20
10.0
 30
0.0
 11
549.0
 21
20.0
 31
0.0
  0
ATTDEF
  5
C3A
  8
FRAME_025
 10
536.0
 20
31.75
 30
0.0
 40
2.5
  1
00/00/00
  7
ISO_PROPORTIONAL
 11
536.0
 21
33.0
 31
0.0
  3
Date
  2
DATE
 70
     8
 74
     2
  0
TEXT
  5
C3B
  8
FRAME_025
 10
536.0
 20
35.75
 30
0.0
 40
2.5
  1
Date
  7
ISO_PROPORTIONAL
 11
536.0
 21
37.0
 31
0.0
 73
     2
  0
LINE
  5
C3C
  8
FRAME_070
 10
534.0
 20
30.0
 30
0.0
 11
534.0
 21
40.0
 31
0.0
  0
ATTDEF
  5
C3D
  8
FRAME_025
 10
566.0
 20
11.75
 30
0.0
 40
2.5
  1
1/1
  7
ISO_PROPORTIONAL
 11
566.0
 21
13.0
 31
0.0
  3
Sheet
  2
SHEET
 70
     8
 74
     2
  0
TEXT
  5
C3E
  8
FRAME_025
 10
566.0
 20
15.75
 30
0.0
 40
2.5
  1
Sheet
  7
ISO_PROPORTIONAL
 11
566.0
 21
17.0
 31
0.0
 73
     2
  0
LINE
  5
C3F
  8
FRAME_070
 10
564.0
 20
10.0
 30
0.0
 11
564.0
 21
20.0
 31
0.0
  0
ATTDEF
  5
C40
  8
FRAME_025
 10
566.0
 20
31.75
 30
0.0
 40
2.5
  1
1:1
  7
ISO_PROPORTIONAL
 11
566.0
 21
33.0
 31
0.0
  3
Scale
  2
SCALE
 70
     8
 74
     2
  0
TEXT
  5
C41
  8
FRAME_025
 10
566.0
 20
35.75
 30
0.0
 40
2.5
  1
Scale
  7
ISO_PROPORTIONAL
 11
566.0
 21
37.0
 31
0.0
 73
     2
  0
LINE
  5
C42
  8
FRAME_070
 10
564.0
 20
30.0
 30
0.0
 11
564.0
 21
40.0
 31
0.0
  0
LINE
  5
C43
  8
FRAME_200
 10
594.0
 20
0.0
 30
0.0
 11
594.0
 21
10.0
 31
0.0
  0
LINE
  5
C44
  8
FRAME_200
 10
594.0
 20
0.0
 30
0.0
 11
584.0
 21
0.0
 31
0.0
  0
TEXT
  5
C45
  8
FRAME_050
 10
584.89999999999998
 20
35.0
 30
0.0
 40
4.0
  1
H
  7
ISO_PROPORTIONAL
 72
     4
 11
586.5
 21
37.0
 31
0.0
  0
LINE
  5
C46
  8
FRAME_050
 10
589.0
 20
60.0
 30
0.0
 11
584.0
 21
60.0
 31
0.0
  0
TEXT
  5
C47
  8
FRAME_050
 10
585.0035533905932
 20
85.0
 30
0.0
 40
4.0
  1
G
  7
ISO_PROPORTIONAL
 72
     4
 11
586.5
 21
87.0
 31
0.0
  0
LINE
  5
C48
  8
FRAME_050
 10
589.0
 20
110.0
 30
0.0
 11
584.0
 21
110.0
 31
0.0
  0
TEXT
  5
C49
  8
FRAME_050
 10
585.09999999999991
 20
135.0
 30
0.0
 40
4.0
  1
F
  7
ISO_PROPORTIONAL
 72
     4
 11
586.5
 21
137.0
 31
0.0
  0
LINE
  5
C4A
  8
FRAME_050
 10
589.0
 20
160.0
 30
0.0
 11
584.0
 21
160.0
 31
0.0
  0
TEXT
  5
C4B
  8
FRAME_050
 10
585.09999999999991
 20
185.0
 30
0.0
 40
4.0
  1
E
  7
ISO_PROPORTIONAL
 72
     4
 11
586.5
 21
187.0
 31
0.0
  0
LINE
  5
C4C
  8
FRAME_070
 10
414.0
 20
404.0
 30
0.0
 11
584.0
 21
404.0
 31
0.0
  0
TEXT
  5
C4D
  8
FRAME_050
 10
331.39215728752538
 20
410.58284271247459
 30
0.0
 40
4.0
  1
5
  7
ISO_PROPORTIONAL
 72
     4
 11
332.875
 21
412.5
 31
0.0
  0
LINE
  5
C4E
  8
FRAME_050
 10
368.75
 20
410.0
 30
0.0
 11
368.75
 21
415.0
 31
0.0
  0
TEXT
  5
C4F
  8
FRAME_025
 10
428.0
 20
405.75
 30
0.0
 40
2.5
  1
Revision note
  7
ISO_PROPORTIONAL
 11
428.0
 21
407.0
 31
0.0
 73
     2
  0
TEXT
  5
C50
  8
FRAME_025
 10
416.0
 20
405.75
 30
0.0
 40
2.5
  1
RevNo
  7
ISO_PROPORTIONAL
 11
416.0
 21
407.0
 31
0.0
 73
     2
  0
LINE
  5
C51
  8
FRAME_070
 10
426.0
 20
404.0
 30
0.0
 11
426.0
 21
410.0
 31
0.0
  0
LINE
  5
C52
  8
FRAME_070
 10
414.0
 20
404.0
 30
0.0
 11
414.0
 21
410.0
 31
0.0
  0
TEXT
  5
C53
  8
FRAME_050
 10
403.24547244094481
 20
410.41023622047243
 30
0.0
 40
4.0
  1
6
  7
ISO_PROPORTIONAL
 72
     4
 11
404.62499999999989
 21
412.5
 31
0.0
  0
LINE
  5
C54
  8
FRAME_050
 10
440.5
 20
410.0
 30
0.0
 11
440.5
 21
415.0
 31
0.0
  0
TEXT
  5
C55
  8
FRAME_050
 10
474.97500000000002
 20
410.5
 30
0.0
 40
4.0
  1
7
  7
ISO_PROPORTIONAL
 72
     4
 11
476.37499999999989
 21
412.5
 31
0.0
  0
LINE
  5
C56
  8
FRAME_050
 10
579.0
 20
210.0
 30
0.0
 11
589.0
 21
210.0
 31
0.0
  0
TEXT
  5
C57
  8
FRAME_050
 10
584.78609127034736
 20
235.0
 30
0.0
 40
4.0
  1
D
  7
ISO_PROPORTIONAL
 72
     4
 11
586.5
 21
237.0
 31
0.0
  0
LINE
  5
C58
  8
FRAME_050
 10
589.0
 20
260.0
 30
0.0
 11
584.0
 21
260.0
 31
0.0
  0
TEXT
  5
C59
  8
FRAME_050
 10
585.19319805153395
 20
285.0
 30
0.0
 40
4.0
  1
C
  7
ISO_PROPORTIONAL
 72
     4
 11
586.5
 21
287.0
 31
0.0
  0
LINE
  5
C5A
  8
FRAME_050
 10
589.0
 20
310.0
 30
0.0
 11
584.0
 21
310.0
 31
0.0
  0
TEXT
  5
C5B
  8
FRAME_050
 10
584.89999999999998
 20
335.0
 30
0.0
 40
4.0
  1
B
  7
ISO_PROPORTIONAL
 72
     4
 11
586.5
 21
337.0
 31
0.0
  0
TEXT
  5
C5C
  8
FRAME_025
 10
571.08299391850551
 20
405.75
 30
0.0
 40
2.5
  1
Checked
  7
ISO_PROPORTIONAL
 11
571.08299391850551
 21
407.0
 31
0.0
 73
     2
  0
TEXT
  5
C5D
  8
FRAME_025
 10
555.36099797283532
 20
405.75
 30
0.0
 40
2.5
  1
Signature
  7
ISO_PROPORTIONAL
 11
555.36099797283532
 21
407.0
 31
0.0
 73
     2
  0
TEXT
  5
C5E
  8
FRAME_025
 10
537.0
 20
405.75
 30
0.0
 40
2.5
  1
Date
  7
ISO_PROPORTIONAL
 11
537.0
 21
407.0
 31
0.0
 73
     2
  0
LINE
  5
C5F
  8
FRAME_070
 10
570.0
 20
404.0
 30
0.0
 11
570.0
 21
410.0
 31
0.0
  0
LINE
  5
C60
  8
FRAME_070
 10
555.0
 20
404.0
 30
0.0
 11
555.0
 21
410.0
 31
0.0
  0
LINE
  5
C61
  8
FRAME_070
 10
535.0
 20
404.0
 30
0.0
 11
535.0
 21
410.0
 31
0.0
  0
LINE
  5
C62
  8
FRAME_050
 10
512.25
 20
410.0
 30
0.0
 11
512.25
 21
415.0
 31
0.0
  0
TEXT
  5
C63
  8
FRAME_050
 10
546.72499999999991
 20
410.5
 30
0.0
 40
4.0
  1
8
  7
ISO_PROPORTIONAL
 72
     4
 11
548.125
 21
412.5
 31
0.0
  0
LINE
  5
C64
  8
FRAME_050
 10
589.0
 20
360.0
 30
0.0
 11
584.0
 21
360.0
 31
0.0
  0
TEXT
  5
C65
  8
FRAME_050
 10
584.70000000000005
 20
385.0
 30
0.0
 40
4.0
  1
A
  7
ISO_PROPORTIONAL
 72
     4
 11
586.5
 21
387.0
 31
0.0
  0
LINE
  5
C66
  8
FRAME_200
 10
594.0
 20
420.0
 30
0.0
 11
584.0
 21
420.0
 31
0.0
  0
LINE
  5
C67
  8
FRAME_200
 10
594.0
 20
410.0
 30
0.0
 11
594.0
 21
420.0
 31
0.0
  0
ENDBLK
  5
C69
  8
0
  0
BLOCK
  8
0
  2
WOBB001END
 70
     0
 10
0.0
 20
0.0
 30
0.0
  3
WOBB001END
  1

  0
LINE
  5
4D66
  8
0
  6
CONTINUOUS
 10
0.0
 20
0.0
 30
0.0
 11
0.8749999999999998
 21
0.0
 31
0.0
  0
ARC
  5
4D67
  8
0
  6
CONTINUOUS
 10
0.0331648379439287
 20
-0.5087238935900232
 30
0.0
 40
0.8790130605592325
 50
284.06490243660443
 51
312.19222981924361
  0
ARC
  5
4D68
  8
0
  6
CONTINUOUS
 10
0.2841534338796767
 20
-1.510548310625538
 30
0.0
 40
0.1537731892806598
 50
104.0649024366044
 51
179.4721730735024
  0
LINE
  5
4D69
  8
0
  6
CONTINUOUS
 10
0.0
 20
0.0
 30
0.0
 11
-0.0000000000000003
 21
-1.7501564476661919
 31
0.0
  0
ARC
  5
4D6A
  8
0
  6
CONTINUOUS
 10
0.1404622019506122
 20
-1.6303137183546199
 30
0.0
 40
0.1198427293115722
 50
275.0
 51
85.000000000000057
  0
LINE
  5
4D6B
  8
0
  6
CONTINUOUS
 10
-0.0000000000000003
 20
-1.7501564476661919
 30
0.0
 11
0.1456946485130855
 21
-1.7501564476661919
 31
0.0
  0
LINE
  5
4D6C
  8
0
  6
CONTINUOUS
 10
0.1377603739254348
 20
-1.7508506067459131
 30
0.0
 11
0.150907184036669
 21
-1.749700409899652
 31
0.0
  0
LINE
  5
4D6D
  8
0
  6
CONTINUOUS
 10
0.1303867696719884
 20
-1.5091317231818231
 30
0.0
 11
0.1509071840366689
 21
-1.5109270268095869
 31
0.0
  0
LINE
  5
4D6E
  8
0
  6
CONTINUOUS
 10
0.8749999999999998
 20
0.0
 30
0.0
 11
0.8749999999999996
 21
-0.8649327026588228
 31
0.0
  0
LINE
  5
4D6F
  8
0
  6
CONTINUOUS
 10
0.727014513830997
 20
-0.8726882933550612
 30
0.0
 11
0.727014513830997
 21
-0.9264923397184784
 31
0.0
  0
ARC
  5
4D70
  8
0
  6
CONTINUOUS
 10
0.41187090827646
 20
-0.9264923397184784
 30
0.0
 40
0.315143605554537
 50
312.19222981924361
 51
0.0
  0
LINE
  5
4D71
  8
0
  6
CONTINUOUS
 10
0.727014513830997
 20
-0.8726882933550612
 30
0.0
 11
0.8749999999999996
 21
-0.8649327026588228
 31
0.0
  0
ENDBLK
  5
4D72
  8
0
  0
BLOCK
  8
0
  2
A$C0A61123B
 70
     0
 10
0.0
 20
0.0
 30
0.0
  3
A$C0A61123B
  1

  0
LINE
  5
C0AD
  8
PROF
  6
CONTINUOUS
 10
4.9012016798694162
 20
13.325025853350891
 30
0.0000000000000002
 11
4.9012016798694162
 21
12.88585218805485
 31
0.0000000000000003
  0
INSERT
  5
C0AE
  8
0
  2
*U8
 10
0.0
 20
0.0
 30
0.0
  0
LINE
  5
C0AF
  8
PROF
 10
4.5198575031869259
 20
12.72227734589444
 30
0.0000000000000001
 11
4.5198575031869259
 21
12.88585218805485
 31
0.0000000000000001
  0
LINE
  5
C0B0
  8
PROF
  6
CONTINUOUS
 10
3.6306271195888371
 20
13.325025853350891
 30
0.0000000000000002
 11
4.9012016798694162
 21
13.325025853350891
 31
0.0000000000000002
  0
LINE
  5
C0B1
  8
PROF
 10
1.9750295148747341
 20
10.37671325491794
 30
0.0000000000000002
 11
1.9750295148747341
 21
10.11391186758919
 31
0.0000000000000002
  0
LINE
  5
C0B2
  8
PROF
 10
1.607967335755631
 20
10.11391186758919
 30
0.0000000000000001
 11
1.9750295148747341
 21
10.11391186758919
 31
0.0000000000000001
  0
LINE
  5
C0B3
  8
PROF
 10
1.9750295148747341
 20
10.11391186758919
 30
0.0000000000000001
 11
1.944958486898144
 21
10.11391186758919
 31
0.0000000000000001
  0
LINE
  5
C0B4
  8
PROF
 10
1.9750295148747341
 20
10.11391186758919
 30
0.0000000000000001
 11
1.944958486898144
 21
10.11391186758919
 31
0.0000000000000001
  0
LINE
  5
C0B5
  8
PROF
 10
0.3222605517169654
 20
7.5247473351056442
 30
-0.0000000000000002
 11
-0.0000008570117416
 21
7.5247473351056442
 31
0.0
  0
LINE
  5
C0B6
  8
PROF
 10
-0.0000008570117416
 20
7.5247473351056442
 30
0.0
 11
-0.0000008570117416
 21
9.1943336957369866
 31
0.0
  0
POLYLINE
  5
C0B7
  8
PROF
 66
     1
 10
0.0
 20
0.0
 30
0.0000000000000001
 70
     4
 75
     6
  0
VERTEX
  5
C0B8
  8
PROF
 10
1.607967335755631
 20
10.11391186758919
 30
0.0000000000000001
 70
    16
  0
VERTEX
  5
C0B9
  8
PROF
 10
1.607967335755631
 20
10.11391186758919
 30
0.0000000000000001
 70
     8
  0
VERTEX
  5
C0BA
  8
PROF
 10
1.646813232648582
 20
10.02198069336111
 30
0.0000000000000001
 70
     8
  0
VERTEX
  5
C0BB
  8
PROF
 10
1.67335966680929
 20
9.9344134163010267
 30
0.0000000000000001
 70
     8
  0
VERTEX
  5
C0BC
  8
PROF
 10
1.689008640046324
 20
9.8512576644480987
 30
0.0000000000000001
 70
     8
  0
VERTEX
  5
C0BD
  8
PROF
 10
1.695162154168258
 20
9.7725610658417281
 30
0.0000000000000001
 70
     8
  0
VERTEX
  5
C0BE
  8
PROF
 10
1.6932222109836059
 20
9.6983712485214255
 30
0.0000000000000001
 70
     8
  0
VERTEX
  5
C0BF
  8
PROF
 10
1.6845908123009961
 20
9.6287358405263603
 30
0.0000000000000001
 70
     8
  0
VERTEX
  5
C0C0
  8
PROF
 10
1.6706699599288859
 20
9.5637024698960431
 30
0.0000000000000001
 70
     8
  0
VERTEX
  5
C0C1
  8
PROF
 10
1.6528616556759621
 20
9.503318764669757
 30
0.0000000000000001
 70
     8
  0
VERTEX
  5
C0C2
  8
PROF
 10
1.6323562992730549
 20
9.4475843259650674
 30
0.0000000000000001
 70
     8
  0
VERTEX
  5
C0C3
  8
PROF
 10
1.609497882140658
 20
9.3963066472123273
 30
0.0000000000000001
 70
     8
  0
VERTEX
  5
C0C4
  8
PROF
 10
1.584418793621637
 20
9.3492451949202842
 30
0.0000000000000001
 70
     8
  0
VERTEX
  5
C0C5
  8
PROF
 10
1.557251423058744
 20
9.3061594355972375
 30
0.0000000000000001
 70
     8
  0
VERTEX
  5
C0C6
  8
PROF
 10
1.5281281597949601
 20
9.2668088357519292
 30
0.0000000000000001
 70
     8
  0
VERTEX
  5
C0C7
  8
PROF
 10
1.4971813931729789
 20
9.2309528618930017
 30
0.0000000000000001
 70
     8
  0
VERTEX
  5
C0C8
  8
PROF
 10
1.464543512535726
 20
9.1983509805288577
 30
0.0000000000000001
 70
     8
  0
VERTEX
  5
C0C9
  8
PROF
 10
1.4303469072260091
 20
9.1687626581682462
 30
0.0000000000000001
 70
     8
  0
VERTEX
  5
C0CA
  8
PROF
 10
1.3947360332574019
 20
9.1419547918675335
 30
0.0000000000000001
 70
     8
  0
VERTEX
  5
C0CB
  8
PROF
 10
1.3579036133264131
 20
9.1177240008747731
 30
0.0000000000000001
 70
     8
  0
VERTEX
  5
C0CC
  8
PROF
 10
1.3200544368004321
 20
9.0958743349860924
 30
0.0000000000000001
 70
     8
  0
VERTEX
  5
C0CD
  8
PROF
 10
1.281393293046676
 20
9.0762098439975034
 30
0.0000000000000001
 70
     8
  0
VERTEX
  5
C0CE
  8
PROF
 10
1.242124971432417
 20
9.0585345777049042
 30
0.0000000000000001
 70
     8
  0
VERTEX
  5
C0CF
  8
PROF
 10
1.2024542613249869
 20
9.0426525859044204
 30
0.0000000000000001
 70
     8
  0
VERTEX
  5
C0D0
  8
PROF
 10
1.1625859520916599
 20
9.0283679183919503
 30
0.0000000000000001
 70
     8
  0
VERTEX
  5
C0D1
  8
PROF
 10
1.1227248330997091
 20
9.0154846249635057
 30
0.0000000000000001
 70
     8
  0
VERTEX
  5
C0D2
  8
PROF
 10
1.0829726247361
 20
9.0034643862466055
 30
0.0000000000000001
 70
     8
  0
VERTEX
  5
C0D3
  8
PROF
 10
1.043018771466222
 20
8.9903994061946833
 30
0.0000000000000001
 70
     8
  0
VERTEX
  5
C0D4
  8
PROF
 10
1.002449648775211
 20
8.9740395195925657
 30
0.0000000000000001
 70
     8
  0
VERTEX
  5
C0D5
  8
PROF
 10
0.9608516321480919
 20
8.9521345612251935
 30
0.0000000000000001
 70
     8
  0
VERTEX
  5
C0D6
  8
PROF
 10
0.9178110970699435
 20
8.9224343658775052
 30
0.0000000000000001
 70
     8
  0
VERTEX
  5
C0D7
  8
PROF
 10
0.8729144190259034
 20
8.8826887683343312
 30
0.0000000000000001
 70
     8
  0
VERTEX
  5
C0D8
  8
PROF
 10
0.8257479735009951
 20
8.8306476033806121
 30
0.0000000000000001
 70
     8
  0
VERTEX
  5
C0D9
  8
PROF
 10
0.7758981359802988
 20
8.764060705801171
 30
0.0000000000000001
 70
     8
  0
VERTEX
  5
C0DA
  8
PROF
 10
1.729201901609656
 20
9.8629858761255491
 30
0.0000000000000001
 70
    16
  0
VERTEX
  5
C0DB
  8
PROF
 10
1.6793731231140889
 20
9.4532143012734196
 30
0.0000000000000001
 70
    16
  0
VERTEX
  5
C0DC
  8
PROF
 10
1.4455611507419801
 20
9.1391837193732481
 30
0.0000000000000001
 70
    16
  0
VERTEX
  5
C0DD
  8
PROF
 10
1.120463717273821
 20
9.0026267702428413
 30
0.0000000000000001
 70
    16
  0
VERTEX
  5
C0DE
  8
PROF
 10
0.9127765582653638
 20
8.9630202230383702
 30
0.0000000000000001
 70
    16
  0
VERTEX
  5
C0DF
  8
PROF
 10
0.7758981359802988
 20
8.764060705801171
 30
0.0000000000000001
 70
    16
  0
SEQEND
  5
C0E0
  8
PROF
  0
ARC
  5
C0E1
  8
PROF
 10
0.733429816733235
 20
8.4849506952165257
 30
0.0000000000000001
 40
0.2823224329524727
 50
269.73652020831901
 51
81.348449993176914
  0
LINE
  5
C0E2
  8
PROF
  6
CONTINUOUS
 10
-0.0000008570117416
 20
9.1943336957369866
 30
-0.0000000000000001
 11
3.6306271195888371
 21
13.325025853350891
 31
0.0000000000000002
  0
POLYLINE
  5
C0E3
  8
PROF
 66
     1
 10
0.0
 20
0.0
 30
0.0000000000000001
 70
     4
 75
     6
  0
VERTEX
  5
C0E4
  8
PROF
 10
4.5198575031869259
 20
12.72227734589444
 30
0.0000000000000001
 70
    16
  0
VERTEX
  5
C0E5
  8
PROF
 10
4.5198575031869259
 20
12.72227734589444
 30
0.0000000000000001
 70
     8
  0
VERTEX
  5
C0E6
  8
PROF
 10
4.4467035366886298
 20
12.741128108778071
 30
0.0000000000000001
 70
     8
  0
VERTEX
  5
C0E7
  8
PROF
 10
4.3786645761268801
 20
12.754675269913941
 30
0.0000000000000001
 70
     8
  0
VERTEX
  5
C0E8
  8
PROF
 10
4.3154364111440477
 20
12.76334314092332
 30
0.0000000000000001
 70
     8
  0
VERTEX
  5
C0E9
  8
PROF
 10
4.256714831382566
 20
12.76755603342724
 30
0.0000000000000001
 70
     8
  0
VERTEX
  5
C0EA
  8
PROF
 10
4.2021956264849791
 20
12.76773825904672
 30
0.0000000000000001
 70
     8
  0
VERTEX
  5
C0EB
  8
PROF
 10
4.1515745860935453
 20
12.764314129403139
 30
0.0000000000000001
 70
     8
  0
VERTEX
  5
C0EC
  8
PROF
 10
4.1045474998508658
 20
12.75770795611743
 30
0.0000000000000001
 70
     8
  0
VERTEX
  5
C0ED
  8
PROF
 10
4.0608101573993158
 20
12.748344050810831
 30
0.0000000000000001
 70
     8
  0
VERTEX
  5
C0EE
  8
PROF
 10
4.0200583483813261
 20
12.736646725104491
 30
0.0000000000000001
 70
     8
  0
VERTEX
  5
C0EF
  8
PROF
 10
3.9819878624393819
 20
12.72304029061945
 30
0.0000000000000001
 70
     8
  0
VERTEX
  5
C0F0
  8
PROF
 10
3.946294489215858
 20
12.707949058976959
 30
0.0000000000000001
 70
     8
  0
VERTEX
  5
C0F1
  8
PROF
 10
3.9126740183532429
 20
12.691797341798059
 30
0.0000000000000001
 70
     8
  0
VERTEX
  5
C0F2
  8
PROF
 10
3.8808638350742508
 20
12.67494295718654
 30
0.0000000000000001
 70
     8
  0
VERTEX
  5
C0F3
  8
PROF
 10
3.850767706922738
 20
12.65747774917668
 30
0.0000000000000001
 70
     8
  0
VERTEX
  5
C0F4
  8
PROF
 10
3.8223309970228452
 20
12.639427068285499
 30
0.0000000000000001
 70
     8
  0
VERTEX
  5
C0F5
  8
PROF
 10
3.7954990684987129
 20
12.62081626503004
 30
0.0000000000000001
 70
     8
  0
VERTEX
  5
C0F6
  8
PROF
 10
3.7702172844744828
 20
12.601670689926999
 30
0.0000000000000001
 70
     8
  0
VERTEX
  5
C0F7
  8
PROF
 10
3.746431008074353
 20
12.58201569349364
 30
0.0000000000000001
 70
     8
  0
VERTEX
  5
C0F8
  8
PROF
 10
3.7240856024224618
 20
12.56187662624666
 30
0.0000000000000001
 70
     8
  0
VERTEX
  5
C0F9
  8
PROF
 10
3.7031264306428961
 20
12.541278838703191
 30
0.0000000000000001
 70
     8
  0
VERTEX
  5
C0FA
  8
PROF
 10
3.6834988558599089
 20
12.520247681380051
 30
0.0000000000000001
 70
     8
  0
VERTEX
  5
C0FB
  8
PROF
 10
3.665148241197528
 20
12.49880850479428
 30
0.0000000000000001
 70
     8
  0
VERTEX
  5
C0FC
  8
PROF
 10
3.6480199497799499
 20
12.47698665946279
 30
0.0000000000000001
 70
     8
  0
VERTEX
  5
C0FD
  8
PROF
 10
3.6320593447313172
 20
12.45480749590263
 30
0.0000000000000001
 70
     8
  0
VERTEX
  5
C0FE
  8
PROF
 10
3.6171895848866589
 20
12.43223790353807
 30
0.0000000000000001
 70
     8
  0
VERTEX
  5
C0FF
  8
PROF
 10
3.6032450119242858
 20
12.40901092742285
 30
0.0000000000000001
 70
     8
  0
VERTEX
  5
C100
  8
PROF
 10
3.590037763233453
 20
12.38480115151844
 30
0.0000000000000001
 70
     8
  0
VERTEX
  5
C101
  8
PROF
 10
3.5773799762033032
 20
12.35928315978594
 30
0.0000000000000001
 70
     8
  0
VERTEX
  5
C102
  8
PROF
 10
3.5650837882230908
 20
12.33213153618658
 30
0.0000000000000001
 70
     8
  0
VERTEX
  5
C103
  8
PROF
 10
3.5529613366819599
 20
12.303020864681571
 30
0.0000000000000001
 70
     8
  0
VERTEX
  5
C104
  8
PROF
 10
3.540824758969165
 20
12.271625729232371
 30
0.0000000000000001
 70
     8
  0
VERTEX
  5
C105
  8
PROF
 10
3.5284861924738489
 20
12.23762071379997
 30
0.0000000000000001
 70
     8
  0
VERTEX
  5
C106
  8
PROF
 10
3.5157577745852668
 20
12.200680402345711
 30
0.0000000000000001
 70
     8
  0
VERTEX
  5
C107
  8
PROF
 10
3.5024516426926189
 20
12.16047937883093
 30
0.0000000000000001
 70
     8
  0
VERTEX
  5
C108
  8
PROF
 10
3.4883799341851041
 20
12.116692227216619
 30
0.0000000000000001
 70
     8
  0
VERTEX
  5
C109
  8
PROF
 10
3.4733547864519201
 20
12.06899353146423
 30
0.0000000000000001
 70
     8
  0
VERTEX
  5
C10A
  8
PROF
 10
3.45723654619428
 20
12.0172095445447
 30
0.0000000000000001
 70
     8
  0
VERTEX
  5
C10B
  8
PROF
 10
3.4400783973613889
 20
11.961773195467799
 30
0.0000000000000001
 70
     8
  0
VERTEX
  5
C10C
  8
PROF
 10
3.421981733214579
 20
11.90326908225302
 30
0.0000000000000001
 70
     8
  0
VERTEX
  5
C10D
  8
PROF
 10
3.4030479470150108
 20
11.842281802919951
 30
0.0000000000000001
 70
     8
  0
VERTEX
  5
C10E
  8
PROF
 10
3.383378432024017
 20
11.779395955487979
 30
0.0000000000000001
 70
     8
  0
VERTEX
  5
C10F
  8
PROF
 10
3.3630745815028709
 20
11.715196137976809
 30
0.0000000000000001
 70
     8
  0
VERTEX
  5
C110
  8
PROF
 10
3.3422377887127359
 20
11.650266948405831
 30
0.0000000000000001
 70
     8
  0
VERTEX
  5
C111
  8
PROF
 10
3.320969446915
 20
11.58519298479461
 30
0.0000000000000001
 70
     8
  0
VERTEX
  5
C112
  8
PROF
 10
3.2993709493707679
 20
11.520558845162549
 30
0.0000000000000001
 70
     8
  0
VERTEX
  5
C113
  8
PROF
 10
3.277543689341428
 20
11.456949127529469
 30
0.0000000000000001
 70
     8
  0
VERTEX
  5
C114
  8
PROF
 10
3.2555890600881412
 20
11.3949484299145
 30
0.0000000000000001
 70
     8
  0
VERTEX
  5
C115
  8
PROF
 10
3.233608454872182
 20
11.335141350337491
 30
0.0000000000000001
 70
     8
  0
VERTEX
  5
C116
  8
PROF
 10
3.2116715641212181
 20
11.27799544797778
 30
0.0000000000000001
 70
     8
  0
VERTEX
  5
C117
  8
PROF
 10
3.189721266927847
 20
11.22351012665467
 30
0.0000000000000001
 70
     8
  0
VERTEX
  5
C118
  8
PROF
 10
3.1676687395512881
 20
11.17156775134765
 30
0.0000000000000001
 70
     8
  0
VERTEX
  5
C119
  8
PROF
 10
3.1454251582505321
 20
11.12205068703588
 30
0.0000000000000001
 70
     8
  0
VERTEX
  5
C11A
  8
PROF
 10
3.122901699284625
 20
11.07484129869874
 30
0.0000000000000001
 70
     8
  0
VERTEX
  5
C11B
  8
PROF
 10
3.1000095389127291
 20
11.02982195131551
 30
0.0000000000000001
 70
     8
  0
VERTEX
  5
C11C
  8
PROF
 10
3.0766598533938909
 20
10.986875009865679
 30
0.0000000000000001
 70
     8
  0
VERTEX
  5
C11D
  8
PROF
 10
3.0527638189871591
 20
10.9458828393283
 30
0.0000000000000001
 70
     8
  0
VERTEX
  5
C11E
  8
PROF
 10
3.0282326119516361
 20
10.90672780468298
 30
0.0000000000000001
 70
     8
  0
VERTEX
  5
C11F
  8
PROF
 10
3.002977408546371
 20
10.869292270908771
 30
0.0000000000000001
 70
     8
  0
VERTEX
  5
C120
  8
PROF
 10
2.9769093850304098
 20
10.833458602985161
 30
0.0000000000000001
 70
     8
  0
VERTEX
  5
C121
  8
PROF
 10
2.9499397176628568
 20
10.799109165891419
 30
0.0000000000000001
 70
     8
  0
VERTEX
  5
C122
  8
PROF
 10
2.9220006098404379
 20
10.76614363969508
 30
0.0000000000000001
 70
     8
  0
VERTEX
  5
C123
  8
PROF
 10
2.8931083735103011
 20
10.7345309648158
 30
0.0000000000000001
 70
     8
  0
VERTEX
  5
C124
  8
PROF
 10
2.8633003477572738
 20
10.70425739676193
 30
0.0000000000000001
 70
     8
  0
VERTEX
  5
C125
  8
PROF
 10
2.8326138716660689
 20
10.67530919104115
 30
0.0000000000000001
 70
     8
  0
VERTEX
  5
C126
  8
PROF
 10
2.8010862843216269
 20
10.647672603161711
 30
0.0000000000000001
 70
     8
  0
VERTEX
  5
C127
  8
PROF
 10
2.7687549248087171
 20
10.62133388863162
 30
0.0000000000000001
 70
     8
  0
VERTEX
  5
C128
  8
PROF
 10
2.735657132212054
 20
10.5962793029588
 30
0.0000000000000001
 70
     8
  0
VERTEX
  5
C129
  8
PROF
 10
2.7018302456165202
 20
10.572495101651381
 30
0.0000000000000001
 70
     8
  0
VERTEX
  5
C12A
  8
PROF
 10
2.6673116041068852
 20
10.54996754021726
 30
0.0000000000000001
 70
     8
  0
VERTEX
  5
C12B
  8
PROF
 10
2.6321385467680321
 20
10.528682874164581
 30
0.0000000000000001
 70
     8
  0
VERTEX
  5
C12C
  8
PROF
 10
2.5963484126846188
 20
10.508627359001251
 30
0.0000000000000001
 70
     8
  0
VERTEX
  5
C12D
  8
PROF
 10
2.5599785409415849
 20
10.489787250235279
 30
0.0000000000000001
 70
     8
  0
VERTEX
  5
C12E
  8
PROF
 10
2.522998630314361
 20
10.472162234281081
 30
0.0000000000000001
 70
     8
  0
VERTEX
  5
C12F
  8
PROF
 10
2.4851078183409072
 20
10.455805721177621
 30
0.0000000000000001
 70
     8
  0
VERTEX
  5
C130
  8
PROF
 10
2.4459376022498982
 20
10.44078455187036
 30
0.0000000000000001
 70
     8
  0
VERTEX
  5
C131
  8
PROF
 10
2.4051194792701258
 20
10.42716556730465
 30
0.0000000000000001
 70
     8
  0
VERTEX
  5
C132
  8
PROF
 10
2.3622849466301541
 20
10.415015608425851
 30
0.0000000000000001
 70
     8
  0
VERTEX
  5
C133
  8
PROF
 10
2.3170655015587149
 20
10.40440151617929
 30
0.0000000000000001
 70
     8
  0
VERTEX
  5
C134
  8
PROF
 10
2.2690926412844301
 20
10.395390131510339
 30
0.0000000000000001
 70
     8
  0
VERTEX
  5
C135
  8
PROF
 10
2.2179978630360888
 20
10.388048295364451
 30
0.0000000000000001
 70
     8
  0
VERTEX
  5
C136
  8
PROF
 10
2.1634126640422551
 20
10.38244284868688
 30
0.0000000000000001
 70
     8
  0
VERTEX
  5
C137
  8
PROF
 10
2.104968541531604
 20
10.37864063242295
 30
0.0000000000000001
 70
     8
  0
VERTEX
  5
C138
  8
PROF
 10
2.0422969927328718
 20
10.37670848751816
 30
0.0000000000000001
 70
     8
  0
VERTEX
  5
C139
  8
PROF
 10
1.9750295148747341
 20
10.37671325491794
 30
0.0000000000000001
 70
     8
  0
VERTEX
  5
C13A
  8
PROF
 10
4.2166060115107484
 20
12.80885334975255
 30
0.0000000000000001
 70
    16
  0
VERTEX
  5
C13B
  8
PROF
 10
3.8702254102732918
 20
12.707065515763929
 30
0.0000000000000001
 70
    16
  0
VERTEX
  5
C13C
  8
PROF
 10
3.605346156896871
 20
12.46277472098552
 30
0.0000000000000001
 70
    16
  0
VERTEX
  5
C13D
  8
PROF
 10
3.500746030527238
 20
12.170680575709749
 30
0.0000000000000001
 70
    16
  0
VERTEX
  5
C13E
  8
PROF
 10
3.231798439705698
 20
11.26846416496107
 30
0.0000000000000001
 70
    16
  0
VERTEX
  5
C13F
  8
PROF
 10
2.9737109398832891
 20
10.76631086647069
 30
0.0000000000000001
 70
    16
  0
VERTEX
  5
C140
  8
PROF
 10
2.5729961067384011
 20
10.460947364504699
 30
0.0000000000000001
 70
    16
  0
VERTEX
  5
C141
  8
PROF
 10
2.253782621454604
 20
10.372731239449759
 30
0.0000000000000001
 70
    16
  0
VERTEX
  5
C142
  8
PROF
 10
1.9750295148747341
 20
10.37671325491794
 30
0.0000000000000001
 70
    16
  0
SEQEND
  5
C143
  8
PROF
  0
LINE
  5
C144
  8
PROF
 10
4.9012016798694162
 20
12.88585218805485
 30
0.0000000000000003
 11
4.5198575031869259
 21
12.88585218805485
 31
0.0000000000000003
  0
LINE
  5
C145
  8
PROF
 10
0.7321315362267457
 20
8.2026312473991538
 30
0.0000000000000006
 11
0.7321315362267457
 21
8.0511853963434987
 31
0.0000000000000006
  0
ARC
  5
C146
  8
PROF
 10
0.7977322214551919
 20
7.5773339332026799
 30
0.0000000000000006
 40
0.4783708383912012
 50
97.882010168942529
 51
186.31119505698649
  0
LINE
  5
C147
  8
FRAME_050
 10
7.8016377197432121
 20
17.99371054969447
 30
0.0
 11
7.8016377197432121
 21
0.0000000000002274
 31
0.0
  0
ENDBLK
  5
C149
  8
0
  0
BLOCK
  8
0
  2
A$C3A7C6791
 70
     0
 10
0.0
 20
0.0
 30
0.0
  3
A$C3A7C6791
  1

  0
ARC
  5
1A561
  8
0
 10
1.0342682520551421
 20
11.169869575314801
 30
0.0
 40
0.3900479059662017
 50
183.5871702804647
 51
250.12003892297869
  0
ARC
  5
1A562
  8
0
 10
0.3331235273064408
 20
14.96835148878222
 30
0.0
 40
0.279776987736341
 50
290.26301102890392
 51
72.509116341854423
  0
ARC
  5
1A563
  8
0
 10
0.7948887850711232
 20
10.60700392177659
 30
0.0
 40
0.2232361910347119
 50
300.2914142988875
 51
61.434469032044603
  0
LINE
  5
1A564
  8
0
 10
-0.0000015027120526
 20
9.7351929270671462
 30
0.0
 11
1.0332573394856579
 21
9.7351929270671462
 31
0.0
  0
LINE
  5
1A565
  8
0
 10
1.0332573394856579
 20
10.377304601683591
 30
0.0
 11
0.9074887268004658
 21
10.377304601683591
 31
0.0
  0
LINE
  5
1A566
  8
0
 10
0.6449845421777241
 20
11.145465432783791
 30
0.0
 11
0.5554296092705046
 21
11.181249222917581
 31
0.0
  0
LINE
  5
1A567
  8
0
 10
0.5554296092705046
 20
14.67010534946894
 30
0.0
 11
0.430018718777319
 21
14.67010534946894
 31
0.0
  0
LINE
  5
1A568
  8
0
 10
0.4172116339615855
 20
15.235192927067139
 30
0.0
 11
-0.0000015027120526
 21
15.235192927067139
 31
0.0
  0
LINE
  5
1A569
  8
0
 10
-0.0000015027120526
 20
15.235192927067139
 30
0.0
 11
-0.0000015027120526
 21
9.7351929270671462
 31
0.0
  0
LINE
  5
1A56A
  8
0
 10
1.0332573394856579
 20
9.7351929270671462
 30
0.0
 11
1.0332573394856579
 21
10.377304601683591
 31
0.0
  0
LINE
  5
1A56B
  8
0
 10
0.9074887268004658
 20
10.377304601683591
 30
0.0
 11
0.9074887268003521
 21
10.414245912577821
 31
0.0
  0
LINE
  5
1A56C
  8
0
 10
0.5554296092705046
 20
11.181249222917581
 30
0.0
 11
0.5554296092705046
 21
14.67010534946894
 31
0.0
  0
LINE
  5
1A56D
  8
0
 10
0.430018718777319
 20
14.67010534946894
 30
0.0
 11
0.4300187187771485
 21
14.705889139602959
 31
0.0
  0
INSERT
  5
1A56E
  8
0
  2
*U9
 10
0.0
 20
0.0
 30
0.0
  0
LINE
  5
1A56F
  8
FRAME_050
 10
5.1382720395286006
 20
17.993710579095019
 30
0.0
 11
5.1382720395286006
 21
0.0000000294007805
 31
0.0
  0
ENDBLK
  5
1A571
  8
0
  0
BLOCK
  8
0
  2
A$C212248C0
 70
     0
 10
0.0
 20
0.0
 30
0.0
  3
A$C212248C0
  1

  0
LINE
  5
2846E
  8
0
 10
-0.0000002092490945
 20
10.41741894345523
 30
0.0
 11
-0.000000218823061
 21
12.91741894345523
 31
0.0
  0
LINE
  5
2846F
  8
0
 10
0.8061752779508424
 20
10.41741894654251
 30
0.0
 11
0.80617527442746
 21
11.337459194522349
 31
0.0
  0
LINE
  5
28470
  8
0
 10
-0.0000002092490945
 20
10.41741894345523
 30
0.0
 11
0.8061752779508424
 21
10.41741894654251
 31
0.0
  0
LINE
  5
28471
  8
0
 10
-0.000000218823061
 20
12.91741894345523
 30
0.0
 11
0.1835338022692099
 21
12.91741894415804
 31
0.0
  0
LINE
  5
28472
  8
0
 10
0.5432593756756888
 20
11.33745919351543
 30
0.0
 11
0.8061752744275167
 21
11.337459194522349
 31
0.0
  0
LINE
  5
28473
  8
0
 10
0.5432593756756888
 20
11.33745919351543
 30
0.0
 11
0.54325937522907
 21
11.454074799268589
 31
0.0
  0
ARC
  5
28474
  8
0
 10
0.5406585726453841
 20
11.69407225899795
 30
0.0
 40
0.2400115514942006
 50
270.62087814899439
 51
10.065567101317541
  0
ARC
  5
28475
  8
0
 10
0.3766221072655185
 20
12.57830290724473
 30
0.0
 40
0.1204493443528103
 50
92.075522465847911
 51
186.90606997904499
  0
ARC
  5
28476
  8
0
 10
0.3522648873053527
 20
11.66572609276443
 30
0.0
 40
0.4304889887359197
 50
9.3978639632316945
 51
32.979139282634932
  0
ARC
  5
28477
  8
0
 10
-3.1652042745943159
 20
9.0577862235478506
 30
0.0
 40
4.8085319198703189
 50
36.234313076985558
 51
42.402692063571678
  0
LINE
  5
28478
  8
0
 10
0.1835338022692099
 20
12.91741894415804
 30
0.0
 11
0.3722598200128004
 21
12.698673231681139
 31
0.0
  0
ARC
  5
28479
  8
0
 10
0.9319226152692294
 20
12.72987725098619
 30
0.0
 40
0.6950054723870779
 50
193.8233761419454
 51
218.1708864341492
  0
LINE
  5
2847A
  8
0
 10
-0.0000002092490945
 20
10.41741894345523
 30
0.0
 11
-0.0000002092490945
 21
12.91741894345523
 31
0.0
  0
INSERT
  5
2847B
  8
0
  2
*U10
 10
0.0
 20
0.0
 30
0.0
  0
LINE
  5
2847C
  8
FRAME_050
 10
6.2588202718825414
 20
17.993710579095019
 30
0.0
 11
6.2588202718825414
 21
0.0000000294007805
 31
0.0
  0
ENDBLK
  5
2847E
  8
0
  0
BLOCK
  8
0
  2
A$C52DE5D80
 70
     0
 10
0.0
 20
0.0
 30
0.0
  3
A$C52DE5D80
  1

  0
INSERT
  5
2B89A
  8
0
  2
*U11
 10
0.0
 20
0.0
 30
0.0
  0
LINE
  5
2B89B
  8
0
 10
0.0000014767382481
 20
7.878552666495465
 30
0.0
 11
1.5240062297528421
 21
7.8785526664953522
 31
0.0
  0
LINE
  5
2B89C
  8
0
 10
1.5240062297528421
 20
8.3261365866769665
 30
0.0
 11
1.5240062297528421
 21
7.8785526664953522
 31
0.0
  0
LINE
  5
2B89D
  8
0
 10
1.394539806559862
 20
8.3261365866769665
 30
0.0
 11
1.5240062297528421
 21
8.3261365866769665
 31
0.0
  0
LINE
  5
2B89E
  8
0
 10
0.7472076905950758
 20
9.2582948336663549
 30
0.0
 11
0.8951693171012493
 21
9.2582948336665822
 31
0.0
  0
POLYLINE
  8
0
  5
2BEFA
  62
7
  66
     1
 10
0.000000
 20
0.000000
 30
0.000000
  70
     8
  0
VERTEX
  8
0
  5
2BEFB
 10
1.39454
 20
8.32614
 30
0.000000
  70
    32
  0
VERTEX
  8
0
  5
2BEFC
 10
1.39468
 20
8.33131
 30
0.000000
  70
    32
  0
VERTEX
  8
0
  5
2BEFD
 10
1.39482
 20
8.33649
 30
0.000000
  70
    32
  0
VERTEX
  8
0
  5
2BEFE
 10
1.39495
 20
8.34167
 30
0.000000
  70
    32
  0
VERTEX
  8
0
  5
2BEFF
 10
1.39508
 20
8.34684
 30
0.000000
  70
    32
  0
VERTEX
  8
0
  5
2BF00
 10
1.39521
 20
8.35201
 30
0.000000
  70
    32
  0
VERTEX
  8
0
  5
2BF01
 10
1.39532
 20
8.35718
 30
0.000000
  70
    32
  0
VERTEX
  8
0
  5
2BF02
 10
1.39542
 20
8.36234
 30
0.000000
  70
    32
  0
VERTEX
  8
0
  5
2BF03
 10
1.39552
 20
8.36749
 30
0.000000
  70
    32
  0
VERTEX
  8
0
  5
2BF04
 10
1.39559
 20
8.37264
 30
0.000000
  70
    32
  0
VERTEX
  8
0
  5
2BF05
 10
1.39566
 20
8.37779
 30
0.000000
  70
    32
  0
VERTEX
  8
0
  5
2BF06
 10
1.39570
 20
8.38292
 30
0.000000
  70
    32
  0
VERTEX
  8
0
  5
2BF07
 10
1.39573
 20
8.38805
 30
0.000000
  70
    32
  0
VERTEX
  8
0
  5
2BF08
 10
1.39574
 20
8.39316
 30
0.000000
  70
    32
  0
VERTEX
  8
0
  5
2BF09
 10
1.39572
 20
8.39827
 30
0.000000
  70
    32
  0
VERTEX
  8
0
  5
2BF0A
 10
1.39569
 20
8.40337
 30
0.000000
  70
    32
  0
VERTEX
  8
0
  5
2BF0B
 10
1.39562
 20
8.40845
 30
0.000000
  70
    32
  0
VERTEX
  8
0
  5
2BF0C
 10
1.39553
 20
8.41352
 30
0.000000
  70
    32
  0
VERTEX
  8
0
  5
2BF0D
 10
1.39541
 20
8.41858
 30
0.000000
  70
    32
  0
VERTEX
  8
0
  5
2BF0E
 10
1.39526
 20
8.42363
 30
0.000000
  70
    32
  0
VERTEX
  8
0
  5
2BF0F
 10
1.39507
 20
8.42866
 30
0.000000
  70
    32
  0
VERTEX
  8
0
  5
2BF10
 10
1.39486
 20
8.43367
 30
0.000000
  70
    32
  0
VERTEX
  8
0
  5
2BF11
 10
1.39460
 20
8.43867
 30
0.000000
  70
    32
  0
VERTEX
  8
0
  5
2BF12
 10
1.39431
 20
8.44365
 30
0.000000
  70
    32
  0
VERTEX
  8
0
  5
2BF13
 10
1.39398
 20
8.44862
 30
0.000000
  70
    32
  0
VERTEX
  8
0
  5
2BF14
 10
1.39361
 20
8.45356
 30
0.000000
  70
    32
  0
VERTEX
  8
0
  5
2BF15
 10
1.39320
 20
8.45849
 30
0.000000
  70
    32
  0
VERTEX
  8
0
  5
2BF16
 10
1.39274
 20
8.46339
 30
0.000000
  70
    32
  0
VERTEX
  8
0
  5
2BF17
 10
1.39224
 20
8.46828
 30
0.000000
  70
    32
  0
VERTEX
  8
0
  5
2BF18
 10
1.39168
 20
8.47314
 30
0.000000
  70
    32
  0
VERTEX
  8
0
  5
2BF19
 10
1.39108
 20
8.47798
 30
0.000000
  70
    32
  0
VERTEX
  8
0
  5
2BF1A
 10
1.39043
 20
8.48280
 30
0.000000
  70
    32
  0
VERTEX
  8
0
  5
2BF1B
 10
1.38973
 20
8.48759
 30
0.000000
  70
    32
  0
VERTEX
  8
0
  5
2BF1C
 10
1.38897
 20
8.49236
 30
0.000000
  70
    32
  0
VERTEX
  8
0
  5
2BF1D
 10
1.38815
 20
8.49711
 30
0.000000
  70
    32
  0
VERTEX
  8
0
  5
2BF1E
 10
1.38728
 20
8.50182
 30
0.000000
  70
    32
  0
VERTEX
  8
0
  5
2BF1F
 10
1.38635
 20
8.50651
 30
0.000000
  70
    32
  0
VERTEX
  8
0
  5
2BF20
 10
1.38535
 20
8.51117
 30
0.000000
  70
    32
  0
VERTEX
  8
0
  5
2BF21
 10
1.38429
 20
8.51581
 30
0.000000
  70
    32
  0
VERTEX
  8
0
  5
2BF22
 10
1.38317
 20
8.52041
 30
0.000000
  70
    32
  0
VERTEX
  8
0
  5
2BF23
 10
1.38198
 20
8.52498
 30
0.000000
  70
    32
  0
VERTEX
  8
0
  5
2BF24
 10
1.38073
 20
8.52953
 30
0.000000
  70
    32
  0
VERTEX
  8
0
  5
2BF25
 10
1.37940
 20
8.53404
 30
0.000000
  70
    32
  0
VERTEX
  8
0
  5
2BF26
 10
1.37800
 20
8.53851
 30
0.000000
  70
    32
  0
VERTEX
  8
0
  5
2BF27
 10
1.37653
 20
8.54296
 30
0.000000
  70
    32
  0
VERTEX
  8
0
  5
2BF28
 10
1.37499
 20
8.54737
 30
0.000000
  70
    32
  0
VERTEX
  8
0
  5
2BF29
 10
1.37337
 20
8.55175
 30
0.000000
  70
    32
  0
VERTEX
  8
0
  5
2BF2A
 10
1.37167
 20
8.55609
 30
0.000000
  70
    32
  0
VERTEX
  8
0
  5
2BF2B
 10
1.36991
 20
8.56040
 30
0.000000
  70
    32
  0
VERTEX
  8
0
  5
2BF2C
 10
1.36807
 20
8.56468
 30
0.000000
  70
    32
  0
VERTEX
  8
0
  5
2BF2D
 10
1.36616
 20
8.56893
 30
0.000000
  70
    32
  0
VERTEX
  8
0
  5
2BF2E
 10
1.36418
 20
8.57314
 30
0.000000
  70
    32
  0
VERTEX
  8
0
  5
2BF2F
 10
1.36214
 20
8.57733
 30
0.000000
  70
    32
  0
VERTEX
  8
0
  5
2BF30
 10
1.36003
 20
8.58148
 30
0.000000
  70
    32
  0
VERTEX
  8
0
  5
2BF31
 10
1.35785
 20
8.58560
 30
0.000000
  70
    32
  0
VERTEX
  8
0
  5
2BF32
 10
1.35561
 20
8.58970
 30
0.000000
  70
    32
  0
VERTEX
  8
0
  5
2BF33
 10
1.35330
 20
8.59377
 30
0.000000
  70
    32
  0
VERTEX
  8
0
  5
2BF34
 10
1.35093
 20
8.59781
 30
0.000000
  70
    32
  0
VERTEX
  8
0
  5
2BF35
 10
1.34851
 20
8.60182
 30
0.000000
  70
    32
  0
VERTEX
  8
0
  5
2BF36
 10
1.34602
 20
8.60581
 30
0.000000
  70
    32
  0
VERTEX
  8
0
  5
2BF37
 10
1.34347
 20
8.60976
 30
0.000000
  70
    32
  0
VERTEX
  8
0
  5
2BF38
 10
1.34086
 20
8.61370
 30
0.000000
  70
    32
  0
VERTEX
  8
0
  5
2BF39
 10
1.33820
 20
8.61761
 30
0.000000
  70
    32
  0
VERTEX
  8
0
  5
2BF3A
 10
1.33549
 20
8.62149
 30
0.000000
  70
    32
  0
VERTEX
  8
0
  5
2BF3B
 10
1.33271
 20
8.62535
 30
0.000000
  70
    32
  0
VERTEX
  8
0
  5
2BF3C
 10
1.32989
 20
8.62919
 30
0.000000
  70
    32
  0
VERTEX
  8
0
  5
2BF3D
 10
1.32701
 20
8.63300
 30
0.000000
  70
    32
  0
VERTEX
  8
0
  5
2BF3E
 10
1.32408
 20
8.63679
 30
0.000000
  70
    32
  0
VERTEX
  8
0
  5
2BF3F
 10
1.32111
 20
8.64056
 30
0.000000
  70
    32
  0
VERTEX
  8
0
  5
2BF40
 10
1.31808
 20
8.64431
 30
0.000000
  70
    32
  0
VERTEX
  8
0
  5
2BF41
 10
1.31501
 20
8.64803
 30
0.000000
  70
    32
  0
VERTEX
  8
0
  5
2BF42
 10
1.31189
 20
8.65174
 30
0.000000
  70
    32
  0
VERTEX
  8
0
  5
2BF43
 10
1.30872
 20
8.65543
 30
0.000000
  70
    32
  0
VERTEX
  8
0
  5
2BF44
 10
1.30551
 20
8.65910
 30
0.000000
  70
    32
  0
VERTEX
  8
0
  5
2BF45
 10
1.30226
 20
8.66275
 30
0.000000
  70
    32
  0
VERTEX
  8
0
  5
2BF46
 10
1.29896
 20
8.66638
 30
0.000000
  70
    32
  0
VERTEX
  8
0
  5
2BF47
 10
1.29563
 20
8.66999
 30
0.000000
  70
    32
  0
VERTEX
  8
0
  5
2BF48
 10
1.29225
 20
8.67359
 30
0.000000
  70
    32
  0
VERTEX
  8
0
  5
2BF49
 10
1.28884
 20
8.67717
 30
0.000000
  70
    32
  0
VERTEX
  8
0
  5
2BF4A
 10
1.28539
 20
8.68074
 30
0.000000
  70
    32
  0
VERTEX
  8
0
  5
2BF4B
 10
1.28190
 20
8.68429
 30
0.000000
  70
    32
  0
VERTEX
  8
0
  5
2BF4C
 10
1.27838
 20
8.68782
 30
0.000000
  70
    32
  0
VERTEX
  8
0
  5
2BF4D
 10
1.27482
 20
8.69134
 30
0.000000
  70
    32
  0
VERTEX
  8
0
  5
2BF4E
 10
1.27123
 20
8.69485
 30
0.000000
  70
    32
  0
VERTEX
  8
0
  5
2BF4F
 10
1.26761
 20
8.69835
 30
0.000000
  70
    32
  0
VERTEX
  8
0
  5
2BF50
 10
1.26396
 20
8.70183
 30
0.000000
  70
    32
  0
VERTEX
  8
0
  5
2BF51
 10
1.26028
 20
8.70530
 30
0.000000
  70
    32
  0
VERTEX
  8
0
  5
2BF52
 10
1.25657
 20
8.70876
 30
0.000000
  70
    32
  0
VERTEX
  8
0
  5
2BF53
 10
1.25283
 20
8.71220
 30
0.000000
  70
    32
  0
VERTEX
  8
0
  5
2BF54
 10
1.24907
 20
8.71564
 30
0.000000
  70
    32
  0
VERTEX
  8
0
  5
2BF55
 10
1.24528
 20
8.71907
 30
0.000000
  70
    32
  0
VERTEX
  8
0
  5
2BF56
 10
1.24147
 20
8.72249
 30
0.000000
  70
    32
  0
VERTEX
  8
0
  5
2BF57
 10
1.23764
 20
8.72590
 30
0.000000
  70
    32
  0
VERTEX
  8
0
  5
2BF58
 10
1.23379
 20
8.72930
 30
0.000000
  70
    32
  0
VERTEX
  8
0
  5
2BF59
 10
1.22991
 20
8.73270
 30
0.000000
  70
    32
  0
VERTEX
  8
0
  5
2BF5A
 10
1.22601
 20
8.73609
 30
0.000000
  70
    32
  0
VERTEX
  8
0
  5
2BF5B
 10
1.22210
 20
8.73947
 30
0.000000
  70
    32
  0
VERTEX
  8
0
  5
2BF5C
 10
1.21817
 20
8.74284
 30
0.000000
  70
    32
  0
VERTEX
  8
0
  5
2BF5D
 10
1.21423
 20
8.74621
 30
0.000000
  70
    32
  0
VERTEX
  8
0
  5
2BF5E
 10
1.21027
 20
8.74958
 30
0.000000
  70
    32
  0
VERTEX
  8
0
  5
2BF5F
 10
1.20629
 20
8.75294
 30
0.000000
  70
    32
  0
VERTEX
  8
0
  5
2BF60
 10
1.20230
 20
8.75630
 30
0.000000
  70
    32
  0
VERTEX
  8
0
  5
2BF61
 10
1.19831
 20
8.75965
 30
0.000000
  70
    32
  0
VERTEX
  8
0
  5
2BF62
 10
1.19430
 20
8.76300
 30
0.000000
  70
    32
  0
VERTEX
  8
0
  5
2BF63
 10
1.19028
 20
8.76636
 30
0.000000
  70
    32
  0
VERTEX
  8
0
  5
2BF64
 10
1.18626
 20
8.76970
 30
0.000000
  70
    32
  0
VERTEX
  8
0
  5
2BF65
 10
1.18222
 20
8.77305
 30
0.000000
  70
    32
  0
VERTEX
  8
0
  5
2BF66
 10
1.17819
 20
8.77640
 30
0.000000
  70
    32
  0
VERTEX
  8
0
  5
2BF67
 10
1.17414
 20
8.77975
 30
0.000000
  70
    32
  0
VERTEX
  8
0
  5
2BF68
 10
1.17010
 20
8.78310
 30
0.000000
  70
    32
  0
VERTEX
  8
0
  5
2BF69
 10
1.16605
 20
8.78645
 30
0.000000
  70
    32
  0
VERTEX
  8
0
  5
2BF6A
 10
1.16200
 20
8.78980
 30
0.000000
  70
    32
  0
VERTEX
  8
0
  5
2BF6B
 10
1.15795
 20
8.79315
 30
0.000000
  70
    32
  0
VERTEX
  8
0
  5
2BF6C
 10
1.15390
 20
8.79651
 30
0.000000
  70
    32
  0
VERTEX
  8
0
  5
2BF6D
 10
1.14986
 20
8.79987
 30
0.000000
  70
    32
  0
VERTEX
  8
0
  5
2BF6E
 10
1.14582
 20
8.80323
 30
0.000000
  70
    32
  0
VERTEX
  8
0
  5
2BF6F
 10
1.14178
 20
8.80660
 30
0.000000
  70
    32
  0
VERTEX
  8
0
  5
2BF70
 10
1.13775
 20
8.80998
 30
0.000000
  70
    32
  0
VERTEX
  8
0
  5
2BF71
 10
1.13372
 20
8.81336
 30
0.000000
  70
    32
  0
VERTEX
  8
0
  5
2BF72
 10
1.12970
 20
8.81674
 30
0.000000
  70
    32
  0
VERTEX
  8
0
  5
2BF73
 10
1.12569
 20
8.82014
 30
0.000000
  70
    32
  0
VERTEX
  8
0
  5
2BF74
 10
1.12170
 20
8.82354
 30
0.000000
  70
    32
  0
VERTEX
  8
0
  5
2BF75
 10
1.11771
 20
8.82695
 30
0.000000
  70
    32
  0
VERTEX
  8
0
  5
2BF76
 10
1.11373
 20
8.83036
 30
0.000000
  70
    32
  0
VERTEX
  8
0
  5
2BF77
 10
1.10977
 20
8.83379
 30
0.000000
  70
    32
  0
VERTEX
  8
0
  5
2BF78
 10
1.10583
 20
8.83723
 30
0.000000
  70
    32
  0
VERTEX
  8
0
  5
2BF79
 10
1.10190
 20
8.84067
 30
0.000000
  70
    32
  0
VERTEX
  8
0
  5
2BF7A
 10
1.09798
 20
8.84413
 30
0.000000
  70
    32
  0
VERTEX
  8
0
  5
2BF7B
 10
1.09409
 20
8.84760
 30
0.000000
  70
    32
  0
VERTEX
  8
0
  5
2BF7C
 10
1.09021
 20
8.85107
 30
0.000000
  70
    32
  0
VERTEX
  8
0
  5
2BF7D
 10
1.08635
 20
8.85457
 30
0.000000
  70
    32
  0
VERTEX
  8
0
  5
2BF7E
 10
1.08251
 20
8.85807
 30
0.000000
  70
    32
  0
VERTEX
  8
0
  5
2BF7F
 10
1.07870
 20
8.86158
 30
0.000000
  70
    32
  0
VERTEX
  8
0
  5
2BF80
 10
1.07490
 20
8.86511
 30
0.000000
  70
    32
  0
VERTEX
  8
0
  5
2BF81
 10
1.07113
 20
8.86865
 30
0.000000
  70
    32
  0
VERTEX
  8
0
  5
2BF82
 10
1.06738
 20
8.87220
 30
0.000000
  70
    32
  0
VERTEX
  8
0
  5
2BF83
 10
1.06365
 20
8.87576
 30
0.000000
  70
    32
  0
VERTEX
  8
0
  5
2BF84
 10
1.05995
 20
8.87934
 30
0.000000
  70
    32
  0
VERTEX
  8
0
  5
2BF85
 10
1.05628
 20
8.88294
 30
0.000000
  70
    32
  0
VERTEX
  8
0
  5
2BF86
 10
1.05263
 20
8.88654
 30
0.000000
  70
    32
  0
VERTEX
  8
0
  5
2BF87
 10
1.04900
 20
8.89016
 30
0.000000
  70
    32
  0
VERTEX
  8
0
  5
2BF88
 10
1.04541
 20
8.89380
 30
0.000000
  70
    32
  0
VERTEX
  8
0
  5
2BF89
 10
1.04185
 20
8.89745
 30
0.000000
  70
    32
  0
VERTEX
  8
0
  5
2BF8A
 10
1.03831
 20
8.90112
 30
0.000000
  70
    32
  0
VERTEX
  8
0
  5
2BF8B
 10
1.03481
 20
8.90480
 30
0.000000
  70
    32
  0
VERTEX
  8
0
  5
2BF8C
 10
1.03133
 20
8.90850
 30
0.000000
  70
    32
  0
VERTEX
  8
0
  5
2BF8D
 10
1.02789
 20
8.91221
 30
0.000000
  70
    32
  0
VERTEX
  8
0
  5
2BF8E
 10
1.02448
 20
8.91594
 30
0.000000
  70
    32
  0
VERTEX
  8
0
  5
2BF8F
 10
1.02111
 20
8.91969
 30
0.000000
  70
    32
  0
VERTEX
  8
0
  5
2BF90
 10
1.01777
 20
8.92345
 30
0.000000
  70
    32
  0
VERTEX
  8
0
  5
2BF91
 10
1.01446
 20
8.92723
 30
0.000000
  70
    32
  0
VERTEX
  8
0
  5
2BF92
 10
1.01119
 20
8.93103
 30
0.000000
  70
    32
  0
VERTEX
  8
0
  5
2BF93
 10
1.00796
 20
8.93484
 30
0.000000
  70
    32
  0
VERTEX
  8
0
  5
2BF94
 10
1.00476
 20
8.93868
 30
0.000000
  70
    32
  0
VERTEX
  8
0
  5
2BF95
 10
1.00160
 20
8.94253
 30
0.000000
  70
    32
  0
VERTEX
  8
0
  5
2BF96
 10
0.998485
 20
8.94640
 30
0.000000
  70
    32
  0
VERTEX
  8
0
  5
2BF97
 10
0.995407
 20
8.95029
 30
0.000000
  70
    32
  0
VERTEX
  8
0
  5
2BF98
 10
0.992369
 20
8.95420
 30
0.000000
  70
    32
  0
VERTEX
  8
0
  5
2BF99
 10
0.989373
 20
8.95813
 30
0.000000
  70
    32
  0
VERTEX
  8
0
  5
2BF9A
 10
0.986419
 20
8.96208
 30
0.000000
  70
    32
  0
VERTEX
  8
0
  5
2BF9B
 10
0.983508
 20
8.96605
 30
0.000000
  70
    32
  0
VERTEX
  8
0
  5
2BF9C
 10
0.980642
 20
8.97004
 30
0.000000
  70
    32
  0
VERTEX
  8
0
  5
2BF9D
 10
0.977819
 20
8.97405
 30
0.000000
  70
    32
  0
VERTEX
  8
0
  5
2BF9E
 10
0.975042
 20
8.97808
 30
0.000000
  70
    32
  0
VERTEX
  8
0
  5
2BF9F
 10
0.972312
 20
8.98213
 30
0.000000
  70
    32
  0
VERTEX
  8
0
  5
2BFA0
 10
0.969628
 20
8.98621
 30
0.000000
  70
    32
  0
VERTEX
  8
0
  5
2BFA1
 10
0.966993
 20
8.99030
 30
0.000000
  70
    32
  0
VERTEX
  8
0
  5
2BFA2
 10
0.964406
 20
8.99442
 30
0.000000
  70
    32
  0
VERTEX
  8
0
  5
2BFA3
 10
0.961868
 20
8.99856
 30
0.000000
  70
    32
  0
VERTEX
  8
0
  5
2BFA4
 10
0.959381
 20
9.00272
 30
0.000000
  70
    32
  0
VERTEX
  8
0
  5
2BFA5
 10
0.956944
 20
9.00691
 30
0.000000
  70
    32
  0
VERTEX
  8
0
  5
2BFA6
 10
0.954559
 20
9.01112
 30
0.000000
  70
    32
  0
VERTEX
  8
0
  5
2BFA7
 10
0.952227
 20
9.01535
 30
0.000000
  70
    32
  0
VERTEX
  8
0
  5
2BFA8
 10
0.949949
 20
9.01960
 30
0.000000
  70
    32
  0
VERTEX
  8
0
  5
2BFA9
 10
0.947724
 20
9.02388
 30
0.000000
  70
    32
  0
VERTEX
  8
0
  5
2BFAA
 10
0.945555
 20
9.02819
 30
0.000000
  70
    32
  0
VERTEX
  8
0
  5
2BFAB
 10
0.943441
 20
9.03252
 30
0.000000
  70
    32
  0
VERTEX
  8
0
  5
2BFAC
 10
0.941383
 20
9.03687
 30
0.000000
  70
    32
  0
VERTEX
  8
0
  5
2BFAD
 10
0.939384
 20
9.04125
 30
0.000000
  70
    32
  0
VERTEX
  8
0
  5
2BFAE
 10
0.937442
 20
9.04566
 30
0.000000
  70
    32
  0
VERTEX
  8
0
  5
2BFAF
 10
0.935559
 20
9.05009
 30
0.000000
  70
    32
  0
VERTEX
  8
0
  5
2BFB0
 10
0.933736
 20
9.05455
 30
0.000000
  70
    32
  0
VERTEX
  8
0
  5
2BFB1
 10
0.931973
 20
9.05903
 30
0.000000
  70
    32
  0
VERTEX
  8
0
  5
2BFB2
 10
0.930271
 20
9.06354
 30
0.000000
  70
    32
  0
VERTEX
  8
0
  5
2BFB3
 10
0.928629
 20
9.06808
 30
0.000000
  70
    32
  0
VERTEX
  8
0
  5
2BFB4
 10
0.927045
 20
9.07264
 30
0.000000
  70
    32
  0
VERTEX
  8
0
  5
2BFB5
 10
0.925517
 20
9.07722
 30
0.000000
  70
    32
  0
VERTEX
  8
0
  5
2BFB6
 10
0.924045
 20
9.08183
 30
0.000000
  70
    32
  0
VERTEX
  8
0
  5
2BFB7
 10
0.922626
 20
9.08647
 30
0.000000
  70
    32
  0
VERTEX
  8
0
  5
2BFB8
 10
0.921259
 20
9.09112
 30
0.000000
  70
    32
  0
VERTEX
  8
0
  5
2BFB9
 10
0.919943
 20
9.09580
 30
0.000000
  70
    32
  0
VERTEX
  8
0
  5
2BFBA
 10
0.918676
 20
9.10050
 30
0.000000
  70
    32
  0
VERTEX
  8
0
  5
2BFBB
 10
0.917457
 20
9.10522
 30
0.000000
  70
    32
  0
VERTEX
  8
0
  5
2BFBC
 10
0.916283
 20
9.10996
 30
0.000000
  70
    32
  0
VERTEX
  8
0
  5
2BFBD
 10
0.915155
 20
9.11472
 30
0.000000
  70
    32
  0
VERTEX
  8
0
  5
2BFBE
 10
0.914070
 20
9.11950
 30
0.000000
  70
    32
  0
VERTEX
  8
0
  5
2BFBF
 10
0.913026
 20
9.12429
 30
0.000000
  70
    32
  0
VERTEX
  8
0
  5
2BFC0
 10
0.912023
 20
9.12911
 30
0.000000
  70
    32
  0
VERTEX
  8
0
  5
2BFC1
 10
0.911058
 20
9.13394
 30
0.000000
  70
    32
  0
VERTEX
  8
0
  5
2BFC2
 10
0.910131
 20
9.13879
 30
0.000000
  70
    32
  0
VERTEX
  8
0
  5
2BFC3
 10
0.909239
 20
9.14365
 30
0.000000
  70
    32
  0
VERTEX
  8
0
  5
2BFC4
 10
0.908381
 20
9.14853
 30
0.000000
  70
    32
  0
VERTEX
  8
0
  5
2BFC5
 10
0.907557
 20
9.15342
 30
0.000000
  70
    32
  0
VERTEX
  8
0
  5
2BFC6
 10
0.906763
 20
9.15832
 30
0.000000
  70
    32
  0
VERTEX
  8
0
  5
2BFC7
 10
0.906000
 20
9.16324
 30
0.000000
  70
    32
  0
VERTEX
  8
0
  5
2BFC8
 10
0.905264
 20
9.16817
 30
0.000000
  70
    32
  0
VERTEX
  8
0
  5
2BFC9
 10
0.904556
 20
9.17312
 30
0.000000
  70
    32
  0
VERTEX
  8
0
  5
2BFCA
 10
0.903873
 20
9.17807
 30
0.000000
  70
    32
  0
VERTEX
  8
0
  5
2BFCB
 10
0.903213
 20
9.18303
 30
0.000000
  70
    32
  0
VERTEX
  8
0
  5
2BFCC
 10
0.902576
 20
9.18801
 30
0.000000
  70
    32
  0
VERTEX
  8
0
  5
2BFCD
 10
0.901960
 20
9.19299
 30
0.000000
  70
    32
  0
VERTEX
  8
0
  5
2BFCE
 10
0.901363
 20
9.19798
 30
0.000000
  70
    32
  0
VERTEX
  8
0
  5
2BFCF
 10
0.900784
 20
9.20298
 30
0.000000
  70
    32
  0
VERTEX
  8
0
  5
2BFD0
 10
0.900222
 20
9.20799
 30
0.000000
  70
    32
  0
VERTEX
  8
0
  5
2BFD1
 10
0.899674
 20
9.21300
 30
0.000000
  70
    32
  0
VERTEX
  8
0
  5
2BFD2
 10
0.899140
 20
9.21802
 30
0.000000
  70
    32
  0
VERTEX
  8
0
  5
2BFD3
 10
0.898617
 20
9.22304
 30
0.000000
  70
    32
  0
VERTEX
  8
0
  5
2BFD4
 10
0.898105
 20
9.22807
 30
0.000000
  70
    32
  0
VERTEX
  8
0
  5
2BFD5
 10
0.897602
 20
9.23310
 30
0.000000
  70
    32
  0
VERTEX
  8
0
  5
2BFD6
 10
0.897107
 20
9.23813
 30
0.000000
  70
    32
  0
VERTEX
  8
0
  5
2BFD7
 10
0.896617
 20
9.24317
 30
0.000000
  70
    32
  0
VERTEX
  8
0
  5
2BFD8
 10
0.896132
 20
9.24821
 30
0.000000
  70
    32
  0
VERTEX
  8
0
  5
2BFD9
 10
0.895650
 20
9.25325
 30
0.000000
  70
    32
  0
VERTEX
  8
0
  5
2BFDA
 10
0.895169
 20
9.25829
 30
0.000000
  70
    32
  0
SEQEND
  8
0
  5
2BFDB
  0
LINE
  5
2B8A0
  8
0
  6
CONTINUOUS
 62
     7
 10
0.7472076905950758
 20
9.2582948336663549
 30
0.0
 11
0.7472076905949621
 21
11.826520277942111
 31
0.0
  0
LINE
  5
2B8A1
  8
0
  6
CONTINUOUS
 62
     7
 10
0.4997076905949598
 20
12.389020277942111
 30
0.0
 11
0.000001476738305
 21
12.389020277942111
 31
0.0
  0
ARC
  5
2B8A2
  8
0
 10
0.4997076905949598
 20
12.139020277942111
 30
0.0
 40
0.2500000000000009
 50
269.42703265506509
 51
90.0
  0
LINE
  5
2B8A3
  8
0
  6
CONTINUOUS
 62
     7
 10
0.7472076905949621
 20
11.826520277942111
 30
0.0
 11
0.5597076905949621
 21
11.826520277942111
 31
0.0
  0
LINE
  5
2B8A4
  8
0
  6
CONTINUOUS
 62
     7
 10
0.4972076905949621
 20
11.826520277942111
 30
0.0
 11
0.4972076905949621
 21
11.88903277828603
 31
0.0
  0
LINE
  5
2B8A5
  8
0
 10
0.0000014767382481
 20
7.878552666495465
 30
0.0
 11
0.000001476738305
 21
12.389020277942111
 31
0.0
  0
LINE
  5
2B8A6
  8
0
 10
0.7472076905949621
 20
11.826520277942111
 30
0.0
 11
0.4972076905949621
 21
11.826520277942111
 31
0.0
  0
LINE
  5
2B8A7
  8
FRAME_050
 10
6.5744546621590407
 20
17.993710579095019
 30
0.0
 11
6.5744546621590407
 21
0.0000000294007805
 31
0.0
  0
ENDBLK
  5
2B8A9
  8
0
  0
BLOCK
  8
0
  2
*U8
 70
     1
 10
0.0
 20
0.0
 30
0.0
  3
*U8
  1

  0
TEXT
  5
2BED8
  8
0
 10
3.5177832928899071
 20
10.38601584255777
 30
0.0
 40
0.125
  1
Crown Moulding
  0
TEXT
  5
2BED9
  8
0
 10
3.5223876585106431
 20
10.17717091304435
 30
0.0
 40
0.125
  1
TL-AB509
  0
TEXT
  5
2BEDA
  8
0
 10
3.5074661032582561
 20
9.9667059289606801
 30
0.0
 40
0.125
  1
1-5/16" x 7-9/16"
  0
TEXT
  5
2BEDB
  8
0
 10
3.519403347460166
 20
9.7562409448770051
 30
0.0
 40
0.125
  1
800.66.TAGUE
  0
ENDBLK
  5
2BEDD
  8
0
  0
BLOCK
  8
0
  2
*U9
 70
     1
 10
0.0
 20
0.0
 30
0.0
  3
*U9
  1

  0
TEXT
  5
2BEDF
  8
0
 10
1.4086740032724709
 20
13.04264108713495
 30
0.0
 40
0.125
  1
Casing
  0
TEXT
  5
2BEE0
  8
0
 10
1.4132783688932069
 20
12.83379615762154
 30
0.0
 40
0.125
  1
TL-2019
  0
TEXT
  5
2BEE1
  8
0
 10
1.39835681364082
 20
12.62333117353786
 30
0.0
 40
0.125
  1
1-1/16" x 5-1/2"
  0
TEXT
  5
2BEE2
  8
0
 10
1.4102940578427301
 20
12.41286618945419
 30
0.0
 40
0.125
  1
800.66.TAGUE
  0
ENDBLK
  5
2BEE4
  8
0
  0
BLOCK
  8
0
  2
*U10
 70
     1
 10
0.0
 20
0.0
 30
0.0
  3
*U10
  1

  0
TEXT
  5
2BEE6
  8
0
 10
1.9061884295105971
 20
11.78127341408482
 30
0.0
 40
0.125
  1
Casing
  0
TEXT
  5
2BEE7
  8
0
 10
1.9107927951313339
 20
11.572428484571409
 30
0.0
 40
0.125
  1
TL-2318
  0
TEXT
  5
2BEE8
  8
0
 10
1.8958712398789459
 20
11.361963500487731
 30
0.0
 40
0.125
  1
13/16" x 2-1/2"
  0
TEXT
  5
2BEE9
  8
0
 10
1.907808484080856
 20
11.151498516404059
 30
0.0
 40
0.125
  1
800.66.TAGUE
  0
ENDBLK
  5
2BEEB
  8
0
  0
BLOCK
  8
0
  2
*U11
 70
     1
 10
0.0
 20
0.0
 30
0.0
  3
*U11
  1

  0
TEXT
  5
2BEED
  8
0
 10
2.2380648505203782
 20
10.70752122569969
 30
0.0
 40
0.125
  1
Casing Assembly
  0
TEXT
  5
2BEEE
  8
0
 10
2.242669216141115
 20
10.498676296186281
 30
0.0
 40
0.125
  1
TL-2225
  0
TEXT
  5
2BEEF
  8
0
 10
2.2277476608887281
 20
10.2882113121026
 30
0.0
 40
0.125
  1
1-9/16" x 4-1/2"
  0
TEXT
  5
2BEF0
  8
0
 10
2.239684905090638
 20
10.077746328018931
 30
0.0
 40
0.125
  1
800.66.TAGUE
  0
ENDBLK
  5
2BEF2
  8
0
  0
BLOCK
  8
0
  2
*U12
 70
     1
 10
0.0
 20
0.0
 30
0.0
  3
*U12
  1

  0
TEXT
  5
2BEF4
  8
0
 10
-380.2317773628896
 20
845.67253355914715
 30
0.0
 40
0.125
  1
Casing 
  0
TEXT
  5
2BEF5
  8
0
 10
-380.22717299726878
 20
845.46368862963379
 30
0.0
 40
0.125
  1
TL-2225
  0
TEXT
  5
2BEF6
  8
0
 10
-380.24209455252128
 20
845.25322364554995
 30
0.0
 40
0.125
  1
1-9/16" x 4-1/2"
  0
TEXT
  5
2BEF7
  8
0
 10
-380.23015730831929
 20
845.04275866146634
 30
0.0
 40
0.125
  1
800.66.TAGUE
  0
ENDBLK
  5
2BEF9
  8
0
  0
ENDSEC
  0
SECTION
  2
ENTITIES
  0
INSERT
  5
2B8BB
  8
0
  2
*U12
 10
0.0
 20
0.0
 30
0.0
  0
LINE
  5
2B8BC
  8
0
 10
-382.4698407366717
 20
842.84356499994283
 30
0.0
 11
-380.9458359836571
 21
842.84356499994283
 31
0.0
  0
LINE
  5
2B8BD
  8
0
 10
-380.9458359836571
 20
843.29114892012433
 30
0.0
 11
-380.9458359836571
 21
842.84356499994283
 31
0.0
  0
LINE
  5
2B8BE
  8
0
 10
-381.07530240685008
 20
843.29114892012433
 30
0.0
 11
-380.9458359836571
 21
843.29114892012433
 31
0.0
  0
LINE
  5
2B8BF
  8
0
 10
-381.72263452281487
 20
844.22330716711383
 30
0.0
 11
-381.5746728963087
 21
844.22330716711394
 31
0.0
  0
POLYLINE
  8
0
  5
2BFDC
  62
7
  66
     1
 10
0.000000
 20
0.000000
 30
0.000000
  70
     8
  0
VERTEX
  8
0
  5
2BFDD
 10
-381.075
 20
843.291
 30
0.000000
  70
    32
  0
VERTEX
  8
0
  5
2BFDE
 10
-381.075
 20
843.296
 30
0.000000
  70
    32
  0
VERTEX
  8
0
  5
2BFDF
 10
-381.075
 20
843.302
 30
0.000000
  70
    32
  0
VERTEX
  8
0
  5
2BFE0
 10
-381.075
 20
843.307
 30
0.000000
  70
    32
  0
VERTEX
  8
0
  5
2BFE1
 10
-381.075
 20
843.312
 30
0.000000
  70
    32
  0
VERTEX
  8
0
  5
2BFE2
 10
-381.075
 20
843.317
 30
0.000000
  70
    32
  0
VERTEX
  8
0
  5
2BFE3
 10
-381.075
 20
843.322
 30
0.000000
  70
    32
  0
VERTEX
  8
0
  5
2BFE4
 10
-381.074
 20
843.327
 30
0.000000
  70
    32
  0
VERTEX
  8
0
  5
2BFE5
 10
-381.074
 20
843.333
 30
0.000000
  70
    32
  0
VERTEX
  8
0
  5
2BFE6
 10
-381.074
 20
843.338
 30
0.000000
  70
    32
  0
VERTEX
  8
0
  5
2BFE7
 10
-381.074
 20
843.343
 30
0.000000
  70
    32
  0
VERTEX
  8
0
  5
2BFE8
 10
-381.074
 20
843.348
 30
0.000000
  70
    32
  0
VERTEX
  8
0
  5
2BFE9
 10
-381.074
 20
843.353
 30
0.000000
  70
    32
  0
VERTEX
  8
0
  5
2BFEA
 10
-381.074
 20
843.358
 30
0.000000
  70
    32
  0
VERTEX
  8
0
  5
2BFEB
 10
-381.074
 20
843.363
 30
0.000000
  70
    32
  0
VERTEX
  8
0
  5
2BFEC
 10
-381.074
 20
843.368
 30
0.000000
  70
    32
  0
VERTEX
  8
0
  5
2BFED
 10
-381.074
 20
843.373
 30
0.000000
  70
    32
  0
VERTEX
  8
0
  5
2BFEE
 10
-381.074
 20
843.379
 30
0.000000
  70
    32
  0
VERTEX
  8
0
  5
2BFEF
 10
-381.074
 20
843.384
 30
0.000000
  70
    32
  0
VERTEX
  8
0
  5
2BFF0
 10
-381.075
 20
843.389
 30
0.000000
  70
    32
  0
VERTEX
  8
0
  5
2BFF1
 10
-381.075
 20
843.394
 30
0.000000
  70
    32
  0
VERTEX
  8
0
  5
2BFF2
 10
-381.075
 20
843.399
 30
0.000000
  70
    32
  0
VERTEX
  8
0
  5
2BFF3
 10
-381.075
 20
843.404
 30
0.000000
  70
    32
  0
VERTEX
  8
0
  5
2BFF4
 10
-381.076
 20
843.409
 30
0.000000
  70
    32
  0
VERTEX
  8
0
  5
2BFF5
 10
-381.076
 20
843.414
 30
0.000000
  70
    32
  0
VERTEX
  8
0
  5
2BFF6
 10
-381.076
 20
843.419
 30
0.000000
  70
    32
  0
VERTEX
  8
0
  5
2BFF7
 10
-381.077
 20
843.424
 30
0.000000
  70
    32
  0
VERTEX
  8
0
  5
2BFF8
 10
-381.077
 20
843.428
 30
0.000000
  70
    32
  0
VERTEX
  8
0
  5
2BFF9
 10
-381.078
 20
843.433
 30
0.000000
  70
    32
  0
VERTEX
  8
0
  5
2BFFA
 10
-381.078
 20
843.438
 30
0.000000
  70
    32
  0
VERTEX
  8
0
  5
2BFFB
 10
-381.079
 20
843.443
 30
0.000000
  70
    32
  0
VERTEX
  8
0
  5
2BFFC
 10
-381.079
 20
843.448
 30
0.000000
  70
    32
  0
VERTEX
  8
0
  5
2BFFD
 10
-381.080
 20
843.453
 30
0.000000
  70
    32
  0
VERTEX
  8
0
  5
2BFFE
 10
-381.081
 20
843.457
 30
0.000000
  70
    32
  0
VERTEX
  8
0
  5
2BFFF
 10
-381.082
 20
843.462
 30
0.000000
  70
    32
  0
VERTEX
  8
0
  5
2C000
 10
-381.083
 20
843.467
 30
0.000000
  70
    32
  0
VERTEX
  8
0
  5
2C001
 10
-381.083
 20
843.472
 30
0.000000
  70
    32
  0
VERTEX
  8
0
  5
2C002
 10
-381.084
 20
843.476
 30
0.000000
  70
    32
  0
VERTEX
  8
0
  5
2C003
 10
-381.086
 20
843.481
 30
0.000000
  70
    32
  0
VERTEX
  8
0
  5
2C004
 10
-381.087
 20
843.485
 30
0.000000
  70
    32
  0
VERTEX
  8
0
  5
2C005
 10
-381.088
 20
843.490
 30
0.000000
  70
    32
  0
VERTEX
  8
0
  5
2C006
 10
-381.089
 20
843.495
 30
0.000000
  70
    32
  0
VERTEX
  8
0
  5
2C007
 10
-381.090
 20
843.499
 30
0.000000
  70
    32
  0
VERTEX
  8
0
  5
2C008
 10
-381.092
 20
843.504
 30
0.000000
  70
    32
  0
VERTEX
  8
0
  5
2C009
 10
-381.093
 20
843.508
 30
0.000000
  70
    32
  0
VERTEX
  8
0
  5
2C00A
 10
-381.095
 20
843.512
 30
0.000000
  70
    32
  0
VERTEX
  8
0
  5
2C00B
 10
-381.096
 20
843.517
 30
0.000000
  70
    32
  0
VERTEX
  8
0
  5
2C00C
 10
-381.098
 20
843.521
 30
0.000000
  70
    32
  0
VERTEX
  8
0
  5
2C00D
 10
-381.100
 20
843.525
 30
0.000000
  70
    32
  0
VERTEX
  8
0
  5
2C00E
 10
-381.102
 20
843.530
 30
0.000000
  70
    32
  0
VERTEX
  8
0
  5
2C00F
 10
-381.104
 20
843.534
 30
0.000000
  70
    32
  0
VERTEX
  8
0
  5
2C010
 10
-381.106
 20
843.538
 30
0.000000
  70
    32
  0
VERTEX
  8
0
  5
2C011
 10
-381.108
 20
843.542
 30
0.000000
  70
    32
  0
VERTEX
  8
0
  5
2C012
 10
-381.110
 20
843.546
 30
0.000000
  70
    32
  0
VERTEX
  8
0
  5
2C013
 10
-381.112
 20
843.551
 30
0.000000
  70
    32
  0
VERTEX
  8
0
  5
2C014
 10
-381.114
 20
843.555
 30
0.000000
  70
    32
  0
VERTEX
  8
0
  5
2C015
 10
-381.117
 20
843.559
 30
0.000000
  70
    32
  0
VERTEX
  8
0
  5
2C016
 10
-381.119
 20
843.563
 30
0.000000
  70
    32
  0
VERTEX
  8
0
  5
2C017
 10
-381.121
 20
843.567
 30
0.000000
  70
    32
  0
VERTEX
  8
0
  5
2C018
 10
-381.124
 20
843.571
 30
0.000000
  70
    32
  0
VERTEX
  8
0
  5
2C019
 10
-381.126
 20
843.575
 30
0.000000
  70
    32
  0
VERTEX
  8
0
  5
2C01A
 10
-381.129
 20
843.579
 30
0.000000
  70
    32
  0
VERTEX
  8
0
  5
2C01B
 10
-381.132
 20
843.583
 30
0.000000
  70
    32
  0
VERTEX
  8
0
  5
2C01C
 10
-381.134
 20
843.587
 30
0.000000
  70
    32
  0
VERTEX
  8
0
  5
2C01D
 10
-381.137
 20
843.590
 30
0.000000
  70
    32
  0
VERTEX
  8
0
  5
2C01E
 10
-381.140
 20
843.594
 30
0.000000
  70
    32
  0
VERTEX
  8
0
  5
2C01F
 10
-381.143
 20
843.598
 30
0.000000
  70
    32
  0
VERTEX
  8
0
  5
2C020
 10
-381.146
 20
843.602
 30
0.000000
  70
    32
  0
VERTEX
  8
0
  5
2C021
 10
-381.149
 20
843.606
 30
0.000000
  70
    32
  0
VERTEX
  8
0
  5
2C022
 10
-381.152
 20
843.609
 30
0.000000
  70
    32
  0
VERTEX
  8
0
  5
2C023
 10
-381.155
 20
843.613
 30
0.000000
  70
    32
  0
VERTEX
  8
0
  5
2C024
 10
-381.158
 20
843.617
 30
0.000000
  70
    32
  0
VERTEX
  8
0
  5
2C025
 10
-381.161
 20
843.620
 30
0.000000
  70
    32
  0
VERTEX
  8
0
  5
2C026
 10
-381.164
 20
843.624
 30
0.000000
  70
    32
  0
VERTEX
  8
0
  5
2C027
 10
-381.168
 20
843.628
 30
0.000000
  70
    32
  0
VERTEX
  8
0
  5
2C028
 10
-381.171
 20
843.631
 30
0.000000
  70
    32
  0
VERTEX
  8
0
  5
2C029
 10
-381.174
 20
843.635
 30
0.000000
  70
    32
  0
VERTEX
  8
0
  5
2C02A
 10
-381.178
 20
843.639
 30
0.000000
  70
    32
  0
VERTEX
  8
0
  5
2C02B
 10
-381.181
 20
843.642
 30
0.000000
  70
    32
  0
VERTEX
  8
0
  5
2C02C
 10
-381.184
 20
843.646
 30
0.000000
  70
    32
  0
VERTEX
  8
0
  5
2C02D
 10
-381.188
 20
843.649
 30
0.000000
  70
    32
  0
VERTEX
  8
0
  5
2C02E
 10
-381.191
 20
843.653
 30
0.000000
  70
    32
  0
VERTEX
  8
0
  5
2C02F
 10
-381.195
 20
843.656
 30
0.000000
  70
    32
  0
VERTEX
  8
0
  5
2C030
 10
-381.199
 20
843.660
 30
0.000000
  70
    32
  0
VERTEX
  8
0
  5
2C031
 10
-381.202
 20
843.663
 30
0.000000
  70
    32
  0
VERTEX
  8
0
  5
2C032
 10
-381.206
 20
843.667
 30
0.000000
  70
    32
  0
VERTEX
  8
0
  5
2C033
 10
-381.210
 20
843.670
 30
0.000000
  70
    32
  0
VERTEX
  8
0
  5
2C034
 10
-381.213
 20
843.674
 30
0.000000
  70
    32
  0
VERTEX
  8
0
  5
2C035
 10
-381.217
 20
843.677
 30
0.000000
  70
    32
  0
VERTEX
  8
0
  5
2C036
 10
-381.221
 20
843.681
 30
0.000000
  70
    32
  0
VERTEX
  8
0
  5
2C037
 10
-381.225
 20
843.684
 30
0.000000
  70
    32
  0
VERTEX
  8
0
  5
2C038
 10
-381.228
 20
843.688
 30
0.000000
  70
    32
  0
VERTEX
  8
0
  5
2C039
 10
-381.232
 20
843.691
 30
0.000000
  70
    32
  0
VERTEX
  8
0
  5
2C03A
 10
-381.236
 20
843.694
 30
0.000000
  70
    32
  0
VERTEX
  8
0
  5
2C03B
 10
-381.240
 20
843.698
 30
0.000000
  70
    32
  0
VERTEX
  8
0
  5
2C03C
 10
-381.244
 20
843.701
 30
0.000000
  70
    32
  0
VERTEX
  8
0
  5
2C03D
 10
-381.248
 20
843.704
 30
0.000000
  70
    32
  0
VERTEX
  8
0
  5
2C03E
 10
-381.252
 20
843.708
 30
0.000000
  70
    32
  0
VERTEX
  8
0
  5
2C03F
 10
-381.256
 20
843.711
 30
0.000000
  70
    32
  0
VERTEX
  8
0
  5
2C040
 10
-381.260
 20
843.715
 30
0.000000
  70
    32
  0
VERTEX
  8
0
  5
2C041
 10
-381.264
 20
843.718
 30
0.000000
  70
    32
  0
VERTEX
  8
0
  5
2C042
 10
-381.268
 20
843.721
 30
0.000000
  70
    32
  0
VERTEX
  8
0
  5
2C043
 10
-381.272
 20
843.725
 30
0.000000
  70
    32
  0
VERTEX
  8
0
  5
2C044
 10
-381.276
 20
843.728
 30
0.000000
  70
    32
  0
VERTEX
  8
0
  5
2C045
 10
-381.280
 20
843.731
 30
0.000000
  70
    32
  0
VERTEX
  8
0
  5
2C046
 10
-381.284
 20
843.735
 30
0.000000
  70
    32
  0
VERTEX
  8
0
  5
2C047
 10
-381.288
 20
843.738
 30
0.000000
  70
    32
  0
VERTEX
  8
0
  5
2C048
 10
-381.292
 20
843.741
 30
0.000000
  70
    32
  0
VERTEX
  8
0
  5
2C049
 10
-381.296
 20
843.745
 30
0.000000
  70
    32
  0
VERTEX
  8
0
  5
2C04A
 10
-381.300
 20
843.748
 30
0.000000
  70
    32
  0
VERTEX
  8
0
  5
2C04B
 10
-381.304
 20
843.751
 30
0.000000
  70
    32
  0
VERTEX
  8
0
  5
2C04C
 10
-381.308
 20
843.755
 30
0.000000
  70
    32
  0
VERTEX
  8
0
  5
2C04D
 10
-381.312
 20
843.758
 30
0.000000
  70
    32
  0
VERTEX
  8
0
  5
2C04E
 10
-381.316
 20
843.762
 30
0.000000
  70
    32
  0
VERTEX
  8
0
  5
2C04F
 10
-381.320
 20
843.765
 30
0.000000
  70
    32
  0
VERTEX
  8
0
  5
2C050
 10
-381.324
 20
843.768
 30
0.000000
  70
    32
  0
VERTEX
  8
0
  5
2C051
 10
-381.328
 20
843.772
 30
0.000000
  70
    32
  0
VERTEX
  8
0
  5
2C052
 10
-381.332
 20
843.775
 30
0.000000
  70
    32
  0
VERTEX
  8
0
  5
2C053
 10
-381.336
 20
843.778
 30
0.000000
  70
    32
  0
VERTEX
  8
0
  5
2C054
 10
-381.340
 20
843.782
 30
0.000000
  70
    32
  0
VERTEX
  8
0
  5
2C055
 10
-381.344
 20
843.785
 30
0.000000
  70
    32
  0
VERTEX
  8
0
  5
2C056
 10
-381.348
 20
843.789
 30
0.000000
  70
    32
  0
VERTEX
  8
0
  5
2C057
 10
-381.352
 20
843.792
 30
0.000000
  70
    32
  0
VERTEX
  8
0
  5
2C058
 10
-381.356
 20
843.795
 30
0.000000
  70
    32
  0
VERTEX
  8
0
  5
2C059
 10
-381.360
 20
843.799
 30
0.000000
  70
    32
  0
VERTEX
  8
0
  5
2C05A
 10
-381.364
 20
843.802
 30
0.000000
  70
    32
  0
VERTEX
  8
0
  5
2C05B
 10
-381.368
 20
843.806
 30
0.000000
  70
    32
  0
VERTEX
  8
0
  5
2C05C
 10
-381.372
 20
843.809
 30
0.000000
  70
    32
  0
VERTEX
  8
0
  5
2C05D
 10
-381.376
 20
843.813
 30
0.000000
  70
    32
  0
VERTEX
  8
0
  5
2C05E
 10
-381.380
 20
843.816
 30
0.000000
  70
    32
  0
VERTEX
  8
0
  5
2C05F
 10
-381.383
 20
843.820
 30
0.000000
  70
    32
  0
VERTEX
  8
0
  5
2C060
 10
-381.387
 20
843.823
 30
0.000000
  70
    32
  0
VERTEX
  8
0
  5
2C061
 10
-381.391
 20
843.827
 30
0.000000
  70
    32
  0
VERTEX
  8
0
  5
2C062
 10
-381.395
 20
843.830
 30
0.000000
  70
    32
  0
VERTEX
  8
0
  5
2C063
 10
-381.399
 20
843.834
 30
0.000000
  70
    32
  0
VERTEX
  8
0
  5
2C064
 10
-381.402
 20
843.837
 30
0.000000
  70
    32
  0
VERTEX
  8
0
  5
2C065
 10
-381.406
 20
843.841
 30
0.000000
  70
    32
  0
VERTEX
  8
0
  5
2C066
 10
-381.410
 20
843.844
 30
0.000000
  70
    32
  0
VERTEX
  8
0
  5
2C067
 10
-381.414
 20
843.848
 30
0.000000
  70
    32
  0
VERTEX
  8
0
  5
2C068
 10
-381.417
 20
843.852
 30
0.000000
  70
    32
  0
VERTEX
  8
0
  5
2C069
 10
-381.421
 20
843.855
 30
0.000000
  70
    32
  0
VERTEX
  8
0
  5
2C06A
 10
-381.424
 20
843.859
 30
0.000000
  70
    32
  0
VERTEX
  8
0
  5
2C06B
 10
-381.428
 20
843.862
 30
0.000000
  70
    32
  0
VERTEX
  8
0
  5
2C06C
 10
-381.432
 20
843.866
 30
0.000000
  70
    32
  0
VERTEX
  8
0
  5
2C06D
 10
-381.435
 20
843.870
 30
0.000000
  70
    32
  0
VERTEX
  8
0
  5
2C06E
 10
-381.439
 20
843.874
 30
0.000000
  70
    32
  0
VERTEX
  8
0
  5
2C06F
 10
-381.442
 20
843.877
 30
0.000000
  70
    32
  0
VERTEX
  8
0
  5
2C070
 10
-381.445
 20
843.881
 30
0.000000
  70
    32
  0
VERTEX
  8
0
  5
2C071
 10
-381.449
 20
843.885
 30
0.000000
  70
    32
  0
VERTEX
  8
0
  5
2C072
 10
-381.452
 20
843.888
 30
0.000000
  70
    32
  0
VERTEX
  8
0
  5
2C073
 10
-381.455
 20
843.892
 30
0.000000
  70
    32
  0
VERTEX
  8
0
  5
2C074
 10
-381.459
 20
843.896
 30
0.000000
  70
    32
  0
VERTEX
  8
0
  5
2C075
 10
-381.462
 20
843.900
 30
0.000000
  70
    32
  0
VERTEX
  8
0
  5
2C076
 10
-381.465
 20
843.904
 30
0.000000
  70
    32
  0
VERTEX
  8
0
  5
2C077
 10
-381.468
 20
843.908
 30
0.000000
  70
    32
  0
VERTEX
  8
0
  5
2C078
 10
-381.471
 20
843.911
 30
0.000000
  70
    32
  0
VERTEX
  8
0
  5
2C079
 10
-381.474
 20
843.915
 30
0.000000
  70
    32
  0
VERTEX
  8
0
  5
2C07A
 10
-381.477
 20
843.919
 30
0.000000
  70
    32
  0
VERTEX
  8
0
  5
2C07B
 10
-381.480
 20
843.923
 30
0.000000
  70
    32
  0
VERTEX
  8
0
  5
2C07C
 10
-381.483
 20
843.927
 30
0.000000
  70
    32
  0
VERTEX
  8
0
  5
2C07D
 10
-381.486
 20
843.931
 30
0.000000
  70
    32
  0
VERTEX
  8
0
  5
2C07E
 10
-381.489
 20
843.935
 30
0.000000
  70
    32
  0
VERTEX
  8
0
  5
2C07F
 10
-381.492
 20
843.939
 30
0.000000
  70
    32
  0
VERTEX
  8
0
  5
2C080
 10
-381.495
 20
843.943
 30
0.000000
  70
    32
  0
VERTEX
  8
0
  5
2C081
 10
-381.498
 20
843.947
 30
0.000000
  70
    32
  0
VERTEX
  8
0
  5
2C082
 10
-381.500
 20
843.951
 30
0.000000
  70
    32
  0
VERTEX
  8
0
  5
2C083
 10
-381.503
 20
843.955
 30
0.000000
  70
    32
  0
VERTEX
  8
0
  5
2C084
 10
-381.505
 20
843.959
 30
0.000000
  70
    32
  0
VERTEX
  8
0
  5
2C085
 10
-381.508
 20
843.964
 30
0.000000
  70
    32
  0
VERTEX
  8
0
  5
2C086
 10
-381.510
 20
843.968
 30
0.000000
  70
    32
  0
VERTEX
  8
0
  5
2C087
 10
-381.513
 20
843.972
 30
0.000000
  70
    32
  0
VERTEX
  8
0
  5
2C088
 10
-381.515
 20
843.976
 30
0.000000
  70
    32
  0
VERTEX
  8
0
  5
2C089
 10
-381.518
 20
843.980
 30
0.000000
  70
    32
  0
VERTEX
  8
0
  5
2C08A
 10
-381.520
 20
843.985
 30
0.000000
  70
    32
  0
VERTEX
  8
0
  5
2C08B
 10
-381.522
 20
843.989
 30
0.000000
  70
    32
  0
VERTEX
  8
0
  5
2C08C
 10
-381.524
 20
843.993
 30
0.000000
  70
    32
  0
VERTEX
  8
0
  5
2C08D
 10
-381.526
 20
843.998
 30
0.000000
  70
    32
  0
VERTEX
  8
0
  5
2C08E
 10
-381.528
 20
844.002
 30
0.000000
  70
    32
  0
VERTEX
  8
0
  5
2C08F
 10
-381.530
 20
844.006
 30
0.000000
  70
    32
  0
VERTEX
  8
0
  5
2C090
 10
-381.532
 20
844.011
 30
0.000000
  70
    32
  0
VERTEX
  8
0
  5
2C091
 10
-381.534
 20
844.015
 30
0.000000
  70
    32
  0
VERTEX
  8
0
  5
2C092
 10
-381.536
 20
844.020
 30
0.000000
  70
    32
  0
VERTEX
  8
0
  5
2C093
 10
-381.538
 20
844.024
 30
0.000000
  70
    32
  0
VERTEX
  8
0
  5
2C094
 10
-381.540
 20
844.029
 30
0.000000
  70
    32
  0
VERTEX
  8
0
  5
2C095
 10
-381.541
 20
844.033
 30
0.000000
  70
    32
  0
VERTEX
  8
0
  5
2C096
 10
-381.543
 20
844.038
 30
0.000000
  70
    32
  0
VERTEX
  8
0
  5
2C097
 10
-381.544
 20
844.042
 30
0.000000
  70
    32
  0
VERTEX
  8
0
  5
2C098
 10
-381.546
 20
844.047
 30
0.000000
  70
    32
  0
VERTEX
  8
0
  5
2C099
 10
-381.547
 20
844.051
 30
0.000000
  70
    32
  0
VERTEX
  8
0
  5
2C09A
 10
-381.549
 20
844.056
 30
0.000000
  70
    32
  0
VERTEX
  8
0
  5
2C09B
 10
-381.550
 20
844.061
 30
0.000000
  70
    32
  0
VERTEX
  8
0
  5
2C09C
 10
-381.551
 20
844.066
 30
0.000000
  70
    32
  0
VERTEX
  8
0
  5
2C09D
 10
-381.552
 20
844.070
 30
0.000000
  70
    32
  0
VERTEX
  8
0
  5
2C09E
 10
-381.554
 20
844.075
 30
0.000000
  70
    32
  0
VERTEX
  8
0
  5
2C09F
 10
-381.555
 20
844.080
 30
0.000000
  70
    32
  0
VERTEX
  8
0
  5
2C0A0
 10
-381.556
 20
844.085
 30
0.000000
  70
    32
  0
VERTEX
  8
0
  5
2C0A1
 10
-381.557
 20
844.089
 30
0.000000
  70
    32
  0
VERTEX
  8
0
  5
2C0A2
 10
-381.558
 20
844.094
 30
0.000000
  70
    32
  0
VERTEX
  8
0
  5
2C0A3
 10
-381.559
 20
844.099
 30
0.000000
  70
    32
  0
VERTEX
  8
0
  5
2C0A4
 10
-381.560
 20
844.104
 30
0.000000
  70
    32
  0
VERTEX
  8
0
  5
2C0A5
 10
-381.561
 20
844.109
 30
0.000000
  70
    32
  0
VERTEX
  8
0
  5
2C0A6
 10
-381.561
 20
844.114
 30
0.000000
  70
    32
  0
VERTEX
  8
0
  5
2C0A7
 10
-381.562
 20
844.118
 30
0.000000
  70
    32
  0
VERTEX
  8
0
  5
2C0A8
 10
-381.563
 20
844.123
 30
0.000000
  70
    32
  0
VERTEX
  8
0
  5
2C0A9
 10
-381.564
 20
844.128
 30
0.000000
  70
    32
  0
VERTEX
  8
0
  5
2C0AA
 10
-381.565
 20
844.133
 30
0.000000
  70
    32
  0
VERTEX
  8
0
  5
2C0AB
 10
-381.565
 20
844.138
 30
0.000000
  70
    32
  0
VERTEX
  8
0
  5
2C0AC
 10
-381.566
 20
844.143
 30
0.000000
  70
    32
  0
VERTEX
  8
0
  5
2C0AD
 10
-381.567
 20
844.148
 30
0.000000
  70
    32
  0
VERTEX
  8
0
  5
2C0AE
 10
-381.567
 20
844.153
 30
0.000000
  70
    32
  0
VERTEX
  8
0
  5
2C0AF
 10
-381.568
 20
844.158
 30
0.000000
  70
    32
  0
VERTEX
  8
0
  5
2C0B0
 10
-381.568
 20
844.163
 30
0.000000
  70
    32
  0
VERTEX
  8
0
  5
2C0B1
 10
-381.569
 20
844.168
 30
0.000000
  70
    32
  0
VERTEX
  8
0
  5
2C0B2
 10
-381.570
 20
844.173
 30
0.000000
  70
    32
  0
VERTEX
  8
0
  5
2C0B3
 10
-381.570
 20
844.178
 30
0.000000
  70
    32
  0
VERTEX
  8
0
  5
2C0B4
 10
-381.571
 20
844.183
 30
0.000000
  70
    32
  0
VERTEX
  8
0
  5
2C0B5
 10
-381.571
 20
844.188
 30
0.000000
  70
    32
  0
VERTEX
  8
0
  5
2C0B6
 10
-381.572
 20
844.193
 30
0.000000
  70
    32
  0
VERTEX
  8
0
  5
2C0B7
 10
-381.572
 20
844.198
 30
0.000000
  70
    32
  0
VERTEX
  8
0
  5
2C0B8
 10
-381.573
 20
844.203
 30
0.000000
  70
    32
  0
VERTEX
  8
0
  5
2C0B9
 10
-381.573
 20
844.208
 30
0.000000
  70
    32
  0
VERTEX
  8
0
  5
2C0BA
 10
-381.574
 20
844.213
 30
0.000000
  70
    32
  0
VERTEX
  8
0
  5
2C0BB
 10
-381.574
 20
844.218
 30
0.000000
  70
    32
  0
VERTEX
  8
0
  5
2C0BC
 10
-381.575
 20
844.223
 30
0.000000
  70
    32
  0
SEQEND
  8
0
  5
2C0BD
  0
LINE
  5
2B8C1
  8
0
  6
CONTINUOUS
 62
     7
 10
-381.72263452281487
 20
844.22330716711383
 30
0.0
 11
-381.72263452281499
 21
846.79153261138958
 31
0.0
  0
LINE
  5
2B8C2
  8
0
  6
CONTINUOUS
 62
     7
 10
-381.97013452281499
 20
847.35403261138958
 30
0.0
 11
-382.46984073667159
 21
847.35403261138958
 31
0.0
  0
ARC
  5
2B8C3
  8
0
 10
-381.97013452281499
 20
847.10403261138947
 30
0.0
 40
0.2500000000000009
 50
269.42703265506509
 51
90.0
  0
LINE
  5
2B8C4
  8
0
  6
CONTINUOUS
 62
     7
 10
-381.72263452281499
 20
846.79153261138958
 30
0.0
 11
-381.91013452281499
 21
846.79153261138958
 31
0.0
  0
LINE
  5
2B8C5
  8
0
  6
CONTINUOUS
 62
     7
 10
-381.97263452281499
 20
846.79153261138958
 30
0.0
 11
-381.97263452281499
 21
846.8540451117334
 31
0.0
  0
LINE
  5
2B8C6
  8
0
 10
-382.4698407366717
 20
842.84356499994283
 30
0.0
 11
-382.46984073667159
 21
847.35403261138958
 31
0.0
  0
LINE
  5
2B8C7
  8
0
 10
-381.72263452281499
 20
846.79153261138958
 30
0.0
 11
-381.97263452281499
 21
846.79153261138958
 31
0.0
  0
VIEWPORT
  5
BADA
 67
     1
  8
0
 10
5.249999665167536
 20
5.3214848691578043
 30
0.0
 40
16.023543186357209
 41
10.621019601785591
 68
     2
 69
     1
1001
ACAD
1000
MVIEW
1002
{
1070
    16
1010
0.0
1020
0.0
1030
0.0
1010
0.0
1020
0.0
1030
1.0
1040
0.0
1040
10.621019601785591
1040
5.249999665167536
1040
5.3214848691578043
1040
50.0
1040
0.0
1040
0.0
1070
     0
1070
   100
1070
     1
1070
     1
1070
     0
1070
     0
1070
     0
1070
     0
1040
0.0
1040
0.0
1040
0.0
1040
0.5
1040
0.5
1040
0.5
1040
0.5
1070
     0
1002
{
1002
}
1002
}
  0
VIEWPORT
  5
BADD
 67
     1
  8
0
 10
5.2499996294871929
 20
4.0166741807634683
 30
0.0
 40
10.44245679893058
 41
7.8813805131999892
 68
     1
 69
     2
1001
ACAD
1000
MVIEW
1002
{
1070
    16
1010
0.0
1020
0.0
1030
0.0
1010
0.0
1020
0.0
1030
1.0
1040
0.0
1040
7.8813805174158871
1040
-380.84530184909141
1040
844.98659215787325
1040
50.0
1040
0.0
1040
0.0
1070
     0
1070
   100
1070
     1
1070
     2
1070
     0
1070
     0
1070
     0
1070
     0
1040
0.0
1040
0.0
1040
0.0
1040
0.5
1040
0.5
1040
0.5
1040
0.5
1070
     0
1002
{
1002
}
1002
}
  0
ENDSEC
  0
EOF
