  0
SECTION
  2
HEADER
  9
$ACADVER
  1
AC1009
  9
$INSBASE
 10
0.0
 20
0.0
 30
0.0
  9
$EXTMIN
 10
-385.91798425318342
 20
839.67652672216491
 30
0.0
  9
$EXTMAX
 10
-382.58452213517268
 20
841.33277672216525
 30
0.0
  9
$LIMMIN
 10
0.0
 20
0.0
  9
$LIMMAX
 10
1500.0
 20
1500.0
  9
$ORTHOMODE
 70
     0
  9
$REGENMODE
 70
     1
  9
$FILLMODE
 70
     1
  9
$QTEXTMODE
 70
     0
  9
$MIRRTEXT
 70
     1
  9
$DRAGMODE
 70
     2
  9
$LTSCALE
 40
1.0
  9
$OSMODE
 70
    37
  9
$ATTMODE
 70
     1
  9
$TEXTSIZE
 40
1.5
  9
$TRACEWID
 40
0.05
  9
$TEXTSTYLE
  7
STANDARD
  9
$CLAYER
  8
0
  9
$CELTYPE
  6
BYLAYER
  9
$CECOLOR
 62
   256
  9
$DIMSCALE
 40
1.0
  9
$DIMASZ
 40
0.75
  9
$DIMEXO
 40
1.5
  9
$DIMDLI
 40
2.0
  9
$DIMRND
 40
0.0
  9
$DIMDLE
 40
0.0
  9
$DIMEXE
 40
1.0
  9
$DIMTP
 40
0.0
  9
$DIMTM
 40
0.0
  9
$DIMTXT
 40
1.5
  9
$DIMCEN
 40
2.0
  9
$DIMTSZ
 40
0.0
  9
$DIMTOL
 70
     0
  9
$DIMLIM
 70
     0
  9
$DIMTIH
 70
     0
  9
$DIMTOH
 70
     0
  9
$DIMSE1
 70
     0
  9
$DIMSE2
 70
     0
  9
$DIMTAD
 70
     1
  9
$DIMZIN
 70
     0
  9
$DIMBLK
  1
ARCHTICK
  9
$DIMASO
 70
     1
  9
$DIMSHO
 70
     1
  9
$DIMPOST
  1
"
  9
$DIMAPOST
  1

  9
$DIMALT
 70
     0
  9
$DIMALTD
 70
     2
  9
$DIMALTF
 40
25.399999999999999
  9
$DIMLFAC
 40
1.0
  9
$DIMTOFL
 70
     0
  9
$DIMTVP
 40
0.0
  9
$DIMTIX
 70
     1
  9
$DIMSOXD
 70
     0
  9
$DIMSAH
 70
     0
  9
$DIMBLK1
  1

  9
$DIMBLK2
  1

  9
$DIMSTYLE
  2
THREE_QUARTER_INCH_SCALE
  9
$DIMCLRD
 70
     0
  9
$DIMCLRE
 70
     0
  9
$DIMCLRT
 70
     0
  9
$DIMTFAC
 40
1.0
  9
$DIMGAP
 40
1.0
  9
$LUNITS
 70
     2
  9
$LUPREC
 70
     4
  9
$SKETCHINC
 40
0.1
  9
$FILLETRAD
 40
0.0
  9
$AUNITS
 70
     0
  9
$AUPREC
 70
     0
  9
$MENU
  1
.
  9
$ELEVATION
 40
0.0
  9
$PELEVATION
 40
0.0
  9
$THICKNESS
 40
0.0
  9
$LIMCHECK
 70
     0
  9
$BLIPMODE
 70
     0
  9
$CHAMFERA
 40
0.5
  9
$CHAMFERB
 40
0.5
  9
$SKPOLY
 70
     0
  9
$TDCREATE
 40
2452089.395738773
  9
$TDUPDATE
 40
2453607.5830580788
  9
$TDINDWG
 40
1.0884370255
  9
$TDUSRTIMER
 40
1.0884368403
  9
$USRTIMER
 70
     1
  9
$ANGBASE
 50
0.0
  9
$ANGDIR
 70
     0
  9
$PDMODE
 70
     0
  9
$PDSIZE
 40
10.0
  9
$PLINEWID
 40
0.0
  9
$COORDS
 70
     1
  9
$SPLFRAME
 70
     0
  9
$SPLINETYPE
 70
     6
  9
$SPLINESEGS
 70
     8
  9
$ATTDIA
 70
     0
  9
$ATTREQ
 70
     1
  9
$HANDLING
 70
     1
  9
$HANDSEED
  5
13B27
  9
$SURFTAB1
 70
     6
  9
$SURFTAB2
 70
     6
  9
$SURFTYPE
 70
     6
  9
$SURFU
 70
     6
  9
$SURFV
 70
     6
  9
$UCSNAME
  2

  9
$UCSORG
 10
0.0
 20
0.0
 30
0.0
  9
$UCSXDIR
 10
1.0
 20
0.0
 30
0.0
  9
$UCSYDIR
 10
0.0
 20
1.0
 30
0.0
  9
$PUCSNAME
  2

  9
$PUCSORG
 10
0.0
 20
0.0
 30
0.0
  9
$PUCSXDIR
 10
1.0
 20
0.0
 30
0.0
  9
$PUCSYDIR
 10
0.0
 20
1.0
 30
0.0
  9
$USERI1
 70
     0
  9
$USERI2
 70
     0
  9
$USERI3
 70
     0
  9
$USERI4
 70
     0
  9
$USERI5
 70
     0
  9
$USERR1
 40
0.0
  9
$USERR2
 40
0.0
  9
$USERR3
 40
0.0
  9
$USERR4
 40
0.0
  9
$USERR5
 40
0.0
  9
$WORLDVIEW
 70
     1
  9
$SHADEDGE
 70
     3
  9
$SHADEDIF
 70
    70
  9
$TILEMODE
 70
     0
  9
$MAXACTVP
 70
    64
  9
$PLIMCHECK
 70
     0
  9
$PEXTMIN
 10
0.0282895744820628
 20
0.0759353784799721
 30
-0.0015258207003583
  9
$PEXTMAX
 10
10.47170975585299
 20
7.9577863512286546
 30
0.0000000349246037
  9
$PLIMMIN
 10
-0.1682389550263349
 20
-0.2033427855578579
  9
$PLIMMAX
 10
10.754640548407011
 20
8.2370640492290015
  9
$UNITMODE
 70
     0
  9
$VISRETAIN
 70
     1
  9
$PLINEGEN
 70
     0
  9
$PSLTSCALE
 70
     1
  0
ENDSEC
  0
SECTION
  2
TABLES
  0
TABLE
  2
VPORT
 70
     1
  0
VPORT
  2
*ACTIVE
 70
     0
 10
0.0
 20
0.0
 11
1.0
 21
1.0
 12
-385.78409896863661
 22
840.59566587302641
 13
0.0
 23
0.0
 14
0.5
 24
0.5
 15
0.5
 25
0.5
 16
0.0
 26
0.0
 36
1.0
 17
0.0
 27
0.0
 37
0.0
 40
5.8992019951828061
 41
2.0284090909090891
 42
50.0
 43
0.0
 44
0.0
 50
0.0
 51
0.0
 71
     0
 72
   100
 73
     1
 74
     2
 75
     0
 76
     0
 77
     0
 78
     0
  0
ENDTAB
  0
TABLE
  2
LTYPE
 70
     1
  0
LTYPE
  2
CONTINUOUS
 70
     0
  3
Solid line
 72
    65
 73
     0
 40
0.0
  0
ENDTAB
  0
TABLE
  2
LAYER
 70
    10
  0
LAYER
  2
0
 70
     0
 62
     7
  6
CONTINUOUS
  0
LAYER
  2
DEFPOINTS
 70
     0
 62
     7
  6
CONTINUOUS
  0
LAYER
  2
FRAME_200
 70
     0
 62
     8
  6
CONTINUOUS
  0
LAYER
  2
FRAME_070
 70
     0
 62
     5
  6
CONTINUOUS
  0
LAYER
  2
FRAME_050
 70
     0
 62
     6
  6
CONTINUOUS
  0
LAYER
  2
TITLE_BLOCK
 70
     0
 62
     7
  6
CONTINUOUS
  0
LAYER
  2
FRAME_025
 70
     0
 62
     7
  6
CONTINUOUS
  0
LAYER
  2
VIEWPORT
 70
     0
 62
     7
  6
CONTINUOUS
  0
LAYER
  2
PROF
 70
     0
 62
     7
  6
CONTINUOUS
  0
LAYER
  2
PROFILE
 70
     0
 62
     7
  6
CONTINUOUS
  0
ENDTAB
  0
TABLE
  2
STYLE
 70
     2
  0
STYLE
  2
STANDARD
 70
     0
 40
0.0
 41
1.0
 50
0.0
 71
     0
 42
1.5
  3
txt
  4

  0
STYLE
  2
ISO_PROPORTIONAL
 70
     0
 40
0.0
 41
1.0
 50
0.0
 71
     0
 42
2.5
  3
isocp.shx
  4

  0
ENDTAB
  0
TABLE
  2
VIEW
 70
     0
  0
ENDTAB
  0
TABLE
  2
UCS
 70
     0
  0
ENDTAB
  0
TABLE
  2
APPID
 70
     6
  0
APPID
  2
ACAD
 70
     0
  0
APPID
  2
DCO15
 70
     0
  0
APPID
  2
ACAD_EXEMPT_FROM_CAD_STANDARDS
 70
     0
  0
APPID
  2
ACAD_PSEXT
 70
     0
  0
APPID
  2
CONTENTBLOCKDESCRIPTION
 70
     0
  0
APPID
  2
CONTENTBLOCKICON
 70
     0
  0
ENDTAB
  0
TABLE
  2
DIMSTYLE
 70
     5
  0
DIMSTYLE
  2
FULL_SCALE
 70
     0
  3
"
  4

  5

  6

  7

 40
1.0
 41
0.046875
 42
0.09375
 43
0.125
 44
0.0625
 45
0.0
 46
0.0
 47
0.0
 48
0.0
140
0.125
141
0.125
142
0.0
143
25.399999999999999
144
1.0
145
0.0
146
1.0
147
0.0625
 71
     0
 72
     0
 73
     0
 74
     0
 75
     0
 76
     0
 77
     1
 78
     0
170
     0
171
     2
172
     0
173
     0
174
     1
175
     0
176
     0
177
     0
178
     0
  0
DIMSTYLE
  2
HALF_SCALE
 70
     0
  3
"
  4

  5

  6

  7

 40
1.0
 41
0.09375
 42
0.1875
 43
0.25
 44
0.125
 45
0.0
 46
0.0
 47
0.0
 48
0.0
140
0.25
141
0.25
142
0.0
143
25.399999999999999
144
1.0
145
0.0
146
1.0
147
0.125
 71
     0
 72
     0
 73
     0
 74
     0
 75
     0
 76
     0
 77
     1
 78
     0
170
     0
171
     2
172
     0
173
     0
174
     1
175
     0
176
     0
177
     0
178
     0
  0
DIMSTYLE
  2
INCH_SCALE
 70
     0
  3
"
  4

  5

  6

  7

 40
1.0
 41
0.5625
 42
1.125
 43
1.5
 44
0.75
 45
0.0
 46
0.0
 47
0.0
 48
0.0
140
1.125
141
1.5
142
0.0
143
25.399999999999999
144
1.0
145
0.0
146
1.0
147
0.75
 71
     0
 72
     0
 73
     0
 74
     0
 75
     0
 76
     0
 77
     1
 78
     0
170
     0
171
     2
172
     0
173
     0
174
     1
175
     0
176
     0
177
     0
178
     0
  0
DIMSTYLE
  2
THREE_QUARTER_INCH_SCALE
 70
     0
  3
"
  4

  5

  6

  7

 40
1.0
 41
0.75
 42
1.5
 43
2.0
 44
1.0
 45
0.0
 46
0.0
 47
0.0
 48
0.0
140
1.5
141
2.0
142
0.0
143
25.399999999999999
144
1.0
145
0.0
146
1.0
147
1.0
 71
     0
 72
     0
 73
     0
 74
     0
 75
     0
 76
     0
 77
     1
 78
     0
170
     0
171
     2
172
     0
173
     0
174
     1
175
     0
176
     0
177
     0
178
     0
  0
DIMSTYLE
  2
ZHALF_INCH_SCALE
 70
     0
  3
"
  4

  5

  6

  7

 40
1.0
 41
1.125
 42
2.25
 43
3.0
 44
1.5
 45
0.0
 46
0.0
 47
0.0
 48
0.0
140
2.25
141
3.0
142
0.0
143
25.399999999999999
144
1.0
145
0.0
146
1.0
147
1.5
 71
     0
 72
     0
 73
     0
 74
     0
 75
     0
 76
     0
 77
     1
 78
     0
170
     0
171
     2
172
     0
173
     0
174
     1
175
     0
176
     0
177
     0
178
     0
  0
ENDTAB
  0
ENDSEC
  0
SECTION
  2
BLOCKS
  0
BLOCK
  8
0
  2
$MODEL_SPACE
 70
     0
 10
0.0
 20
0.0
 30
0.0
  3
$MODEL_SPACE
  1

  0
ENDBLK
  5
139E7
  8
0
  0
BLOCK
 67
     1
  8
0
  2
$PAPER_SPACE
 70
     0
 10
0.0
 20
0.0
 30
0.0
  3
$PAPER_SPACE
  1

  0
ENDBLK
  5
139E3
 67
     1
  8
0
  0
BLOCK
  8
0
  2
_ARCHTICK
 70
     0
 10
0.0
 20
0.0
 30
0.0
  3
_ARCHTICK
  1

  0
POLYLINE
  5
158
  8
0
  6
BYBLOCK
 62
     0
 66
     1
 10
0.0
 20
0.0
 30
0.0
 40
0.15
 41
0.15
  0
VERTEX
  5
13AD4
  8
0
  6
BYBLOCK
 62
     0
 10
-0.5
 20
-0.5
 30
0.0
  0
VERTEX
  5
13AD5
  8
0
  6
BYBLOCK
 62
     0
 10
0.5
 20
0.5
 30
0.0
  0
SEQEND
  5
13AD6
  8
0
  6
BYBLOCK
 62
     0
  0
ENDBLK
  5
15A
  8
0
  0
BLOCK
  8
0
  2
_OPEN30
 70
     0
 10
0.0
 20
0.0
 30
0.0
  3
_OPEN30
  1

  0
LINE
  5
15C
  8
0
  6
BYBLOCK
 62
     0
 10
-1.0
 20
0.26794919
 30
0.0
 11
0.0
 21
0.0
 31
0.0
  0
LINE
  5
15D
  8
0
  6
BYBLOCK
 62
     0
 10
0.0
 20
0.0
 30
0.0
 11
-1.0
 21
-0.26794919
 31
0.0
  0
LINE
  5
15E
  8
0
  6
BYBLOCK
 62
     0
 10
0.0
 20
0.0
 30
0.0
 11
-1.0
 21
0.0
 31
0.0
  0
ENDBLK
  5
160
  8
0
  0
BLOCK
  8
0
  2
ISO_A2_TITLE_BLOCK
 70
     2
 10
0.0
 20
0.0
 30
0.0
  3
ISO_A2_TITLE_BLOCK
  1

  0
LINE
  5
BDD
  8
FRAME_050
 10
299.5
 20
12.5
 30
0.0
 11
297.0
 21
7.5
 31
0.0
  0
LINE
  5
BDE
  8
FRAME_050
 10
294.5
 20
12.5
 30
0.0
 11
299.5
 21
12.5
 31
0.0
  0
LINE
  5
BDF
  8
FRAME_050
 10
247.0
 20
5.0
 30
0.0
 11
347.0
 21
5.0
 31
0.0
  0
LINE
  5
BE0
  8
FRAME_070
 10
584.0
 20
410.0
 30
0.0
 11
10.0
 21
410.0
 31
0.0
  0
LINE
  5
BE1
  8
FRAME_070
 10
10.0
 20
10.0
 30
0.0
 11
584.0
 21
10.0
 31
0.0
  0
LINE
  5
BE2
  8
FRAME_050
 10
12.5
 20
207.5
 30
0.0
 11
7.5
 21
210.0
 31
0.0
  0
LINE
  5
BE3
  8
FRAME_050
 10
12.5
 20
212.5
 30
0.0
 11
12.5
 21
207.5
 31
0.0
  0
LINE
  5
BE4
  8
FRAME_070
 10
10.0
 20
410.0
 30
0.0
 11
10.0
 21
10.0
 31
0.0
  0
LINE
  5
BE5
  8
FRAME_200
 10
0.0
 20
0.0
 30
0.0
 11
0.0
 21
10.0
 31
0.0
  0
LINE
  5
BE6
  8
FRAME_200
 10
0.0
 20
0.0
 30
0.0
 11
10.0
 21
0.0
 31
0.0
  0
TEXT
  5
BE7
  8
FRAME_050
 10
5.9000000000000004
 20
35.0
 30
0.0
 40
4.0
  1
H
  7
ISO_PROPORTIONAL
 72
     4
 11
7.5
 21
37.0
 31
0.0
  0
LINE
  5
BE8
  8
FRAME_050
 10
10.0
 20
60.0
 30
0.0
 11
5.0
 21
60.0
 31
0.0
  0
LINE
  5
BE9
  8
FRAME_050
 10
81.75
 20
5.0
 30
0.0
 11
81.75
 21
10.0
 31
0.0
  0
TEXT
  5
BEA
  8
FRAME_050
 10
44.874999999999993
 20
5.5
 30
0.0
 40
4.0
  1
1
  7
ISO_PROPORTIONAL
 72
     4
 11
45.875
 21
7.5
 31
0.0
  0
TEXT
  5
BEB
  8
FRAME_050
 10
6.0035533905932743
 20
85.0
 30
0.0
 40
4.0
  1
G
  7
ISO_PROPORTIONAL
 72
     4
 11
7.5
 21
87.0
 31
0.0
  0
LINE
  5
BEC
  8
FRAME_050
 10
10.0
 20
110.0
 30
0.0
 11
5.0
 21
110.0
 31
0.0
  0
TEXT
  5
BED
  8
FRAME_050
 10
6.0999999999999988
 20
135.0
 30
0.0
 40
4.0
  1
F
  7
ISO_PROPORTIONAL
 72
     4
 11
7.5
 21
137.0
 31
0.0
  0
LINE
  5
BEE
  8
FRAME_050
 10
10.0
 20
160.0
 30
0.0
 11
5.0
 21
160.0
 31
0.0
  0
TEXT
  5
BEF
  8
FRAME_050
 10
6.0999999999999988
 20
185.0
 30
0.0
 40
4.0
  1
E
  7
ISO_PROPORTIONAL
 72
     4
 11
7.5
 21
187.0
 31
0.0
  0
LINE
  5
BF0
  8
FRAME_050
 10
153.5
 20
5.0
 30
0.0
 11
153.5
 21
10.0
 31
0.0
  0
TEXT
  5
BF1
  8
FRAME_050
 10
116.1556692913386
 20
5.3996062992125982
 30
0.0
 40
4.0
  1
2
  7
ISO_PROPORTIONAL
 72
     4
 11
117.625
 21
7.5
 31
0.0
  0
TEXT
  5
BF2
  8
FRAME_050
 10
187.89215728752529
 20
5.5828427124746138
 30
0.0
 40
4.0
  1
3
  7
ISO_PROPORTIONAL
 72
     4
 11
189.375
 21
7.5
 31
0.0
  0
LINE
  5
BF3
  8
FRAME_050
 10
225.25
 20
5.0
 30
0.0
 11
225.25
 21
10.0
 31
0.0
  0
LINE
  5
BF4
  8
FRAME_050
 10
297.0
 20
7.5
 30
0.0
 11
294.5
 21
12.5
 31
0.0
  0
LINE
  5
BF5
  8
FRAME_050
 10
287.0
 20
5.0
 30
0.0
 11
287.0
 21
10.0
 31
0.0
  0
LINE
  5
BF6
  8
FRAME_050
 10
277.0
 20
5.0
 30
0.0
 11
277.0
 21
10.0
 31
0.0
  0
LINE
  5
BF7
  8
FRAME_050
 10
267.0
 20
5.0
 30
0.0
 11
267.0
 21
10.0
 31
0.0
  0
LINE
  5
BF8
  8
FRAME_050
 10
257.0
 20
5.0
 30
0.0
 11
257.0
 21
10.0
 31
0.0
  0
LINE
  5
BF9
  8
FRAME_050
 10
247.0
 20
5.0
 30
0.0
 11
247.0
 21
10.0
 31
0.0
  0
LINE
  5
BFA
  8
FRAME_050
 10
297.0
 20
10.0
 30
0.0
 11
297.0
 21
5.0
 31
0.0
  0
LINE
  5
BFB
  8
FRAME_050
 10
297.0
 20
10.0
 30
0.0
 11
297.0
 21
15.0
 31
0.0
  0
LINE
  5
BFC
  8
FRAME_050
 10
5.0
 20
210.0
 30
0.0
 11
15.0
 21
210.0
 31
0.0
  0
LINE
  5
BFD
  8
FRAME_050
 10
7.5
 20
210.0
 30
0.0
 11
12.5
 21
212.5
 31
0.0
  0
TEXT
  5
BFE
  8
FRAME_050
 10
5.7860912703473977
 20
235.0
 30
0.0
 40
4.0
  1
D
  7
ISO_PROPORTIONAL
 72
     4
 11
7.5
 21
237.0
 31
0.0
  0
LINE
  5
BFF
  8
FRAME_050
 10
10.0
 20
260.0
 30
0.0
 11
5.0
 21
260.0
 31
0.0
  0
TEXT
  5
C00
  8
FRAME_050
 10
6.1931980515339466
 20
285.0
 30
0.0
 40
4.0
  1
C
  7
ISO_PROPORTIONAL
 72
     4
 11
7.5
 21
287.0
 31
0.0
  0
LINE
  5
C01
  8
FRAME_050
 10
10.0
 20
310.0
 30
0.0
 11
5.0
 21
310.0
 31
0.0
  0
TEXT
  5
C02
  8
FRAME_050
 10
5.8999999999999959
 20
335.0
 30
0.0
 40
4.0
  1
B
  7
ISO_PROPORTIONAL
 72
     4
 11
7.5
 21
337.0
 31
0.0
  0
LINE
  5
C03
  8
FRAME_050
 10
10.0
 20
360.0
 30
0.0
 11
5.0
 21
360.0
 31
0.0
  0
TEXT
  5
C04
  8
FRAME_050
 10
5.6999999999999993
 20
385.0
 30
0.0
 40
4.0
  1
A
  7
ISO_PROPORTIONAL
 72
     4
 11
7.5
 21
387.0
 31
0.0
  0
LINE
  5
C05
  8
FRAME_200
 10
10.0
 20
420.0
 30
0.0
 11
0.0
 21
420.0
 31
0.0
  0
LINE
  5
C06
  8
FRAME_200
 10
0.0
 20
420.0
 30
0.0
 11
0.0
 21
410.0
 31
0.0
  0
TEXT
  5
C07
  8
FRAME_050
 10
44.874999999999993
 20
410.5
 30
0.0
 40
4.0
  1
1
  7
ISO_PROPORTIONAL
 72
     4
 11
45.875
 21
412.5
 31
0.0
  0
LINE
  5
C08
  8
FRAME_050
 10
81.75
 20
410.0
 30
0.0
 11
81.75
 21
415.0
 31
0.0
  0
TEXT
  5
C09
  8
FRAME_050
 10
116.1556692913386
 20
410.39960629921262
 30
0.0
 40
4.0
  1
2
  7
ISO_PROPORTIONAL
 72
     4
 11
117.625
 21
412.5
 31
0.0
  0
LINE
  5
C0A
  8
FRAME_050
 10
153.5
 20
410.0
 30
0.0
 11
153.5
 21
415.0
 31
0.0
  0
TEXT
  5
C0B
  8
FRAME_050
 10
187.89215728752529
 20
410.58284271247459
 30
0.0
 40
4.0
  1
3
  7
ISO_PROPORTIONAL
 72
     4
 11
189.375
 21
412.5
 31
0.0
  0
LINE
  5
C0C
  8
FRAME_050
 10
297.0
 20
405.0
 30
0.0
 11
297.0
 21
415.0
 31
0.0
  0
LINE
  5
C0D
  8
FRAME_050
 10
225.25
 20
410.0
 30
0.0
 11
225.25
 21
415.0
 31
0.0
  0
TEXT
  5
C0E
  8
FRAME_050
 10
259.52499999999998
 20
410.5
 30
0.0
 40
4.0
  1
4
  7
ISO_PROPORTIONAL
 72
     4
 11
261.125
 21
412.5
 31
0.0
  0
LINE
  5
C0F
  8
FRAME_070
 10
584.0
 20
10.0
 30
0.0
 11
584.0
 21
410.0
 31
0.0
  0
ATTDEF
  5
C10
  8
FRAME_025
 10
473.0
 20
31.75
 30
0.0
 40
2.5
  1
XXX - 00/00/00
  7
ISO_PROPORTIONAL
 11
473.0
 21
33.0
 31
0.0
  3
Approved by - Date
  2
APPROVED_BY_DATE
 70
     8
 74
     2
  0
TEXT
  5
C11
  8
FRAME_025
 10
448.0
 20
41.749999999999993
 30
0.0
 40
2.5
  1
Title/Name, designation, material, dimension etc
  7
ISO_PROPORTIONAL
 11
448.0
 21
43.0
 31
0.0
 73
     2
  0
TEXT
  5
C12
  8
FRAME_025
 10
473.0
 20
35.75
 30
0.0
 40
2.5
  1
Approved by - date
  7
ISO_PROPORTIONAL
 11
473.0
 21
37.0
 31
0.0
 73
     2
  0
LINE
  5
C13
  8
FRAME_070
 10
414.0
 20
46.0
 30
0.0
 11
584.0
 21
46.0
 31
0.0
  0
LINE
  5
C14
  8
FRAME_070
 10
414.0
 20
40.0
 30
0.0
 11
584.0
 21
40.0
 31
0.0
  0
LINE
  5
C15
  8
FRAME_070
 10
414.0
 20
30.0
 30
0.0
 11
584.0
 21
30.0
 31
0.0
  0
LINE
  5
C16
  8
FRAME_050
 10
368.75
 20
5.0
 30
0.0
 11
368.75
 21
10.0
 31
0.0
  0
LINE
  5
C17
  8
FRAME_050
 10
337.0
 20
5.0
 30
0.0
 11
337.0
 21
10.0
 31
0.0
  0
LINE
  5
C18
  8
FRAME_050
 10
327.0
 20
5.0
 30
0.0
 11
327.0
 21
10.0
 31
0.0
  0
LINE
  5
C19
  8
FRAME_050
 10
317.0
 20
5.0
 30
0.0
 11
317.0
 21
10.0
 31
0.0
  0
LINE
  5
C1A
  8
FRAME_050
 10
307.0
 20
5.0
 30
0.0
 11
307.0
 21
10.0
 31
0.0
  0
LINE
  5
C1B
  8
FRAME_050
 10
347.0
 20
5.0
 30
0.0
 11
347.0
 21
10.0
 31
0.0
  0
LINE
  5
C1C
  8
FRAME_050
 10
440.5
 20
5.0
 30
0.0
 11
440.5
 21
10.0
 31
0.0
  0
TEXT
  5
C1D
  8
FRAME_050
 10
403.24547244094481
 20
5.4102362204724406
 30
0.0
 40
4.0
  1
6
  7
ISO_PROPORTIONAL
 72
     4
 11
404.62499999999989
 21
7.5
 31
0.0
  0
TEXT
  5
C1E
  8
FRAME_050
 10
474.97499999999991
 20
5.5
 30
0.0
 40
4.0
  1
7
  7
ISO_PROPORTIONAL
 72
     4
 11
476.37499999999989
 21
7.5
 31
0.0
  0
TEXT
  5
C1F
  8
FRAME_025
 10
431.0
 20
41.749999999999993
 30
0.0
 40
2.5
  1
Quantity
  7
ISO_PROPORTIONAL
 11
431.0
 21
43.0
 31
0.0
 73
     2
  0
TEXT
  5
C20
  8
FRAME_025
 10
416.0
 20
41.749999999999993
 30
0.0
 40
2.5
  1
Itemref
  7
ISO_PROPORTIONAL
 11
416.0
 21
43.0
 31
0.0
 73
     2
  0
LINE
  5
C21
  8
FRAME_070
 10
414.0
 20
40.0
 30
0.0
 11
414.0
 21
46.0
 31
0.0
  0
LINE
  5
C22
  8
FRAME_070
 10
429.0
 20
40.0
 30
0.0
 11
429.0
 21
46.0
 31
0.0
  0
LINE
  5
C23
  8
FRAME_070
 10
414.0
 20
10.0
 30
0.0
 11
414.0
 21
40.0
 31
0.0
  0
ATTDEF
  5
C24
  8
FRAME_025
 10
416.0
 20
31.75
 30
0.0
 40
2.5
  1
XXX
  7
ISO_PROPORTIONAL
 11
416.0
 21
33.0
 31
0.0
  3
Designed by
  2
DESIGNED_BY
 70
     8
 74
     2
  0
TEXT
  5
C25
  8
FRAME_025
 10
416.0
 20
35.75
 30
0.0
 40
2.5
  1
Designed by
  7
ISO_PROPORTIONAL
 11
416.0
 21
37.0
 31
0.0
 73
     2
  0
LINE
  5
C26
  8
FRAME_070
 10
446.0
 20
40.0
 30
0.0
 11
446.0
 21
46.0
 31
0.0
  0
ATTDEF
  5
C27
  8
FRAME_025
 10
448.0
 20
31.75
 30
0.0
 40
2.5
  1
XXX
  7
ISO_PROPORTIONAL
 11
448.0
 21
33.0
 31
0.0
  3
Checked by
  2
CHECKED_BY
 70
     8
 74
     2
  0
TEXT
  5
C28
  8
FRAME_025
 10
448.0
 20
35.75
 30
0.0
 40
2.5
  1
Checked by
  7
ISO_PROPORTIONAL
 11
448.0
 21
37.0
 31
0.0
 73
     2
  0
ATTDEF
  5
C29
  8
FRAME_050
 10
444.74999999999989
 20
17.5
 30
0.0
 40
5.0
  1
XXX
  7
ISO_PROPORTIONAL
 72
     4
 11
451.49999999999989
 21
20.0
 31
0.0
  3
Owner
  2
OWNER
 70
     8
  0
LINE
  5
C2A
  8
FRAME_070
 10
446.0
 20
30.0
 30
0.0
 11
446.0
 21
40.0
 31
0.0
  0
LINE
  5
C2B
  8
FRAME_070
 10
471.0
 20
30.0
 30
0.0
 11
471.0
 21
40.0
 31
0.0
  0
LINE
  5
C2C
  8
FRAME_070
 10
489.0
 20
20.0
 30
0.0
 11
584.0
 21
20.0
 31
0.0
  0
LINE
  5
C2D
  8
FRAME_050
 10
512.25
 20
5.0
 30
0.0
 11
512.25
 21
10.0
 31
0.0
  0
TEXT
  5
C2E
  8
FRAME_050
 10
546.72499999999991
 20
5.5
 30
0.0
 40
4.0
  1
8
  7
ISO_PROPORTIONAL
 72
     4
 11
548.125
 21
7.5
 31
0.0
  0
ATTDEF
  5
C2F
  8
FRAME_050
 10
517.64999999999986
 20
13.5
 30
0.0
 40
3.0
  1
X
  7
ISO_PROPORTIONAL
 72
     4
 11
519.0
 21
15.0
 31
0.0
  3
Drawing number
  2
DRAWING_NUMBER
 70
     8
  0
ATTDEF
  5
C30
  8
FRAME_050
 10
529.75
 20
22.5
 30
0.0
 40
5.0
  1
XXX
  7
ISO_PROPORTIONAL
 72
     4
 11
536.5
 21
25.0
 31
0.0
  3
Title / Name
  2
TITLE
 70
     8
  0
LINE
  5
C31
  8
FRAME_070
 10
489.0
 20
10.0
 30
0.0
 11
489.0
 21
30.0
 31
0.0
  0
ATTDEF
  5
C32
  8
FRAME_025
 10
511.0
 20
31.75
 30
0.0
 40
2.5
  1
XXX
  7
ISO_PROPORTIONAL
 11
511.0
 21
33.0
 31
0.0
  3
Filename
  2
FILENAME
 70
     8
 74
     2
  0
TEXT
  5
C33
  8
FRAME_025
 10
511.0
 20
35.75
 30
0.0
 40
2.5
  1
Filename
  7
ISO_PROPORTIONAL
 11
511.0
 21
37.0
 31
0.0
 73
     2
  0
LINE
  5
C34
  8
FRAME_070
 10
509.0
 20
30.0
 30
0.0
 11
509.0
 21
40.0
 31
0.0
  0
TEXT
  5
C35
  8
FRAME_025
 10
536.0
 20
41.749999999999993
 30
0.0
 40
2.5
  1
Article No./Reference
  7
ISO_PROPORTIONAL
 11
536.0
 21
43.0
 31
0.0
 73
     2
  0
LINE
  5
C36
  8
FRAME_070
 10
534.0
 20
40.0
 30
0.0
 11
534.0
 21
46.0
 31
0.0
  0
ATTDEF
  5
C37
  8
FRAME_025
 10
551.0
 20
11.75
 30
0.0
 40
2.5
  1
0
  7
ISO_PROPORTIONAL
 11
551.0
 21
13.0
 31
0.0
  3
Edition
  2
EDITION
 70
     8
 74
     2
  0
TEXT
  5
C38
  8
FRAME_025
 10
551.0
 20
15.75
 30
0.0
 40
2.5
  1
Edition
  7
ISO_PROPORTIONAL
 11
551.0
 21
17.0
 31
0.0
 73
     2
  0
LINE
  5
C39
  8
FRAME_070
 10
549.0
 20
10.0
 30
0.0
 11
549.0
 21
20.0
 31
0.0
  0
ATTDEF
  5
C3A
  8
FRAME_025
 10
536.0
 20
31.75
 30
0.0
 40
2.5
  1
00/00/00
  7
ISO_PROPORTIONAL
 11
536.0
 21
33.0
 31
0.0
  3
Date
  2
DATE
 70
     8
 74
     2
  0
TEXT
  5
C3B
  8
FRAME_025
 10
536.0
 20
35.75
 30
0.0
 40
2.5
  1
Date
  7
ISO_PROPORTIONAL
 11
536.0
 21
37.0
 31
0.0
 73
     2
  0
LINE
  5
C3C
  8
FRAME_070
 10
534.0
 20
30.0
 30
0.0
 11
534.0
 21
40.0
 31
0.0
  0
ATTDEF
  5
C3D
  8
FRAME_025
 10
566.0
 20
11.75
 30
0.0
 40
2.5
  1
1/1
  7
ISO_PROPORTIONAL
 11
566.0
 21
13.0
 31
0.0
  3
Sheet
  2
SHEET
 70
     8
 74
     2
  0
TEXT
  5
C3E
  8
FRAME_025
 10
566.0
 20
15.75
 30
0.0
 40
2.5
  1
Sheet
  7
ISO_PROPORTIONAL
 11
566.0
 21
17.0
 31
0.0
 73
     2
  0
LINE
  5
C3F
  8
FRAME_070
 10
564.0
 20
10.0
 30
0.0
 11
564.0
 21
20.0
 31
0.0
  0
ATTDEF
  5
C40
  8
FRAME_025
 10
566.0
 20
31.75
 30
0.0
 40
2.5
  1
1:1
  7
ISO_PROPORTIONAL
 11
566.0
 21
33.0
 31
0.0
  3
Scale
  2
SCALE
 70
     8
 74
     2
  0
TEXT
  5
C41
  8
FRAME_025
 10
566.0
 20
35.75
 30
0.0
 40
2.5
  1
Scale
  7
ISO_PROPORTIONAL
 11
566.0
 21
37.0
 31
0.0
 73
     2
  0
LINE
  5
C42
  8
FRAME_070
 10
564.0
 20
30.0
 30
0.0
 11
564.0
 21
40.0
 31
0.0
  0
LINE
  5
C43
  8
FRAME_200
 10
594.0
 20
0.0
 30
0.0
 11
594.0
 21
10.0
 31
0.0
  0
LINE
  5
C44
  8
FRAME_200
 10
594.0
 20
0.0
 30
0.0
 11
584.0
 21
0.0
 31
0.0
  0
TEXT
  5
C45
  8
FRAME_050
 10
584.89999999999998
 20
35.0
 30
0.0
 40
4.0
  1
H
  7
ISO_PROPORTIONAL
 72
     4
 11
586.5
 21
37.0
 31
0.0
  0
LINE
  5
C46
  8
FRAME_050
 10
589.0
 20
60.0
 30
0.0
 11
584.0
 21
60.0
 31
0.0
  0
TEXT
  5
C47
  8
FRAME_050
 10
585.0035533905932
 20
85.0
 30
0.0
 40
4.0
  1
G
  7
ISO_PROPORTIONAL
 72
     4
 11
586.5
 21
87.0
 31
0.0
  0
LINE
  5
C48
  8
FRAME_050
 10
589.0
 20
110.0
 30
0.0
 11
584.0
 21
110.0
 31
0.0
  0
TEXT
  5
C49
  8
FRAME_050
 10
585.09999999999991
 20
135.0
 30
0.0
 40
4.0
  1
F
  7
ISO_PROPORTIONAL
 72
     4
 11
586.5
 21
137.0
 31
0.0
  0
LINE
  5
C4A
  8
FRAME_050
 10
589.0
 20
160.0
 30
0.0
 11
584.0
 21
160.0
 31
0.0
  0
TEXT
  5
C4B
  8
FRAME_050
 10
585.09999999999991
 20
185.0
 30
0.0
 40
4.0
  1
E
  7
ISO_PROPORTIONAL
 72
     4
 11
586.5
 21
187.0
 31
0.0
  0
LINE
  5
C4C
  8
FRAME_070
 10
414.0
 20
404.0
 30
0.0
 11
584.0
 21
404.0
 31
0.0
  0
TEXT
  5
C4D
  8
FRAME_050
 10
331.39215728752538
 20
410.58284271247459
 30
0.0
 40
4.0
  1
5
  7
ISO_PROPORTIONAL
 72
     4
 11
332.875
 21
412.5
 31
0.0
  0
LINE
  5
C4E
  8
FRAME_050
 10
368.75
 20
410.0
 30
0.0
 11
368.75
 21
415.0
 31
0.0
  0
TEXT
  5
C4F
  8
FRAME_025
 10
428.0
 20
405.75
 30
0.0
 40
2.5
  1
Revision note
  7
ISO_PROPORTIONAL
 11
428.0
 21
407.0
 31
0.0
 73
     2
  0
TEXT
  5
C50
  8
FRAME_025
 10
416.0
 20
405.75
 30
0.0
 40
2.5
  1
RevNo
  7
ISO_PROPORTIONAL
 11
416.0
 21
407.0
 31
0.0
 73
     2
  0
LINE
  5
C51
  8
FRAME_070
 10
426.0
 20
404.0
 30
0.0
 11
426.0
 21
410.0
 31
0.0
  0
LINE
  5
C52
  8
FRAME_070
 10
414.0
 20
404.0
 30
0.0
 11
414.0
 21
410.0
 31
0.0
  0
TEXT
  5
C53
  8
FRAME_050
 10
403.24547244094481
 20
410.41023622047243
 30
0.0
 40
4.0
  1
6
  7
ISO_PROPORTIONAL
 72
     4
 11
404.62499999999989
 21
412.5
 31
0.0
  0
LINE
  5
C54
  8
FRAME_050
 10
440.5
 20
410.0
 30
0.0
 11
440.5
 21
415.0
 31
0.0
  0
TEXT
  5
C55
  8
FRAME_050
 10
474.97499999999991
 20
410.5
 30
0.0
 40
4.0
  1
7
  7
ISO_PROPORTIONAL
 72
     4
 11
476.37499999999989
 21
412.5
 31
0.0
  0
LINE
  5
C56
  8
FRAME_050
 10
579.0
 20
210.0
 30
0.0
 11
589.0
 21
210.0
 31
0.0
  0
TEXT
  5
C57
  8
FRAME_050
 10
584.78609127034736
 20
235.0
 30
0.0
 40
4.0
  1
D
  7
ISO_PROPORTIONAL
 72
     4
 11
586.5
 21
237.0
 31
0.0
  0
LINE
  5
C58
  8
FRAME_050
 10
589.0
 20
260.0
 30
0.0
 11
584.0
 21
260.0
 31
0.0
  0
TEXT
  5
C59
  8
FRAME_050
 10
585.19319805153395
 20
285.0
 30
0.0
 40
4.0
  1
C
  7
ISO_PROPORTIONAL
 72
     4
 11
586.5
 21
287.0
 31
0.0
  0
LINE
  5
C5A
  8
FRAME_050
 10
589.0
 20
310.0
 30
0.0
 11
584.0
 21
310.0
 31
0.0
  0
TEXT
  5
C5B
  8
FRAME_050
 10
584.89999999999998
 20
335.0
 30
0.0
 40
4.0
  1
B
  7
ISO_PROPORTIONAL
 72
     4
 11
586.5
 21
337.0
 31
0.0
  0
TEXT
  5
C5C
  8
FRAME_025
 10
571.08299391850551
 20
405.75
 30
0.0
 40
2.5
  1
Checked
  7
ISO_PROPORTIONAL
 11
571.08299391850551
 21
407.0
 31
0.0
 73
     2
  0
TEXT
  5
C5D
  8
FRAME_025
 10
555.36099797283521
 20
405.75
 30
0.0
 40
2.5
  1
Signature
  7
ISO_PROPORTIONAL
 11
555.36099797283521
 21
407.0
 31
0.0
 73
     2
  0
TEXT
  5
C5E
  8
FRAME_025
 10
537.0
 20
405.75
 30
0.0
 40
2.5
  1
Date
  7
ISO_PROPORTIONAL
 11
537.0
 21
407.0
 31
0.0
 73
     2
  0
LINE
  5
C5F
  8
FRAME_070
 10
570.0
 20
404.0
 30
0.0
 11
570.0
 21
410.0
 31
0.0
  0
LINE
  5
C60
  8
FRAME_070
 10
555.0
 20
404.0
 30
0.0
 11
555.0
 21
410.0
 31
0.0
  0
LINE
  5
C61
  8
FRAME_070
 10
535.0
 20
404.0
 30
0.0
 11
535.0
 21
410.0
 31
0.0
  0
LINE
  5
C62
  8
FRAME_050
 10
512.25
 20
410.0
 30
0.0
 11
512.25
 21
415.0
 31
0.0
  0
TEXT
  5
C63
  8
FRAME_050
 10
546.72499999999991
 20
410.5
 30
0.0
 40
4.0
  1
8
  7
ISO_PROPORTIONAL
 72
     4
 11
548.125
 21
412.5
 31
0.0
  0
LINE
  5
C64
  8
FRAME_050
 10
589.0
 20
360.0
 30
0.0
 11
584.0
 21
360.0
 31
0.0
  0
TEXT
  5
C65
  8
FRAME_050
 10
584.70000000000005
 20
385.0
 30
0.0
 40
4.0
  1
A
  7
ISO_PROPORTIONAL
 72
     4
 11
586.5
 21
387.0
 31
0.0
  0
LINE
  5
C66
  8
FRAME_200
 10
594.0
 20
420.0
 30
0.0
 11
584.0
 21
420.0
 31
0.0
  0
LINE
  5
C67
  8
FRAME_200
 10
594.0
 20
410.0
 30
0.0
 11
594.0
 21
420.0
 31
0.0
  0
ENDBLK
  5
C69
  8
0
  0
BLOCK
  8
0
  2
WOBB001END
 70
     0
 10
0.0
 20
0.0
 30
0.0
  3
WOBB001END
  1

  0
LINE
  5
4D66
  8
0
  6
CONTINUOUS
 10
0.0
 20
0.0
 30
0.0
 11
0.8749999999999998
 21
0.0
 31
0.0
  0
ARC
  5
4D67
  8
0
  6
CONTINUOUS
 10
0.0331648379439287
 20
-0.5087238935900234
 30
0.0
 40
0.8790130605592325
 50
284.06490243660443
 51
312.19222981924361
  0
ARC
  5
4D68
  8
0
  6
CONTINUOUS
 10
0.2841534338796767
 20
-1.510548310625538
 30
0.0
 40
0.1537731892806598
 50
104.0649024366044
 51
179.4721730735024
  0
LINE
  5
4D69
  8
0
  6
CONTINUOUS
 10
0.0
 20
0.0
 30
0.0
 11
-0.0000000000000003
 21
-1.7501564476661911
 31
0.0
  0
ARC
  5
4D6A
  8
0
  6
CONTINUOUS
 10
0.1404622019506122
 20
-1.630313718354619
 30
0.0
 40
0.1198427293115722
 50
275.0
 51
85.000000000000057
  0
LINE
  5
4D6B
  8
0
  6
CONTINUOUS
 10
-0.0000000000000003
 20
-1.7501564476661911
 30
0.0
 11
0.1456946485130855
 21
-1.7501564476661911
 31
0.0
  0
LINE
  5
4D6C
  8
0
  6
CONTINUOUS
 10
0.1377603739254348
 20
-1.7508506067459131
 30
0.0
 11
0.150907184036669
 21
-1.7497004098996509
 31
0.0
  0
LINE
  5
4D6D
  8
0
  6
CONTINUOUS
 10
0.1303867696719884
 20
-1.5091317231818231
 30
0.0
 11
0.1509071840366689
 21
-1.510927026809586
 31
0.0
  0
LINE
  5
4D6E
  8
0
  6
CONTINUOUS
 10
0.8749999999999998
 20
0.0
 30
0.0
 11
0.8749999999999996
 21
-0.8649327026588228
 31
0.0
  0
LINE
  5
4D6F
  8
0
  6
CONTINUOUS
 10
0.727014513830997
 20
-0.872688293355061
 30
0.0
 11
0.727014513830997
 21
-0.9264923397184784
 31
0.0
  0
ARC
  5
4D70
  8
0
  6
CONTINUOUS
 10
0.41187090827646
 20
-0.9264923397184784
 30
0.0
 40
0.3151436055545369
 50
312.19222981924361
 51
0.0
  0
LINE
  5
4D71
  8
0
  6
CONTINUOUS
 10
0.727014513830997
 20
-0.872688293355061
 30
0.0
 11
0.8749999999999996
 21
-0.8649327026588228
 31
0.0
  0
ENDBLK
  5
4D72
  8
0
  0
BLOCK
  8
0
  2
A$C0A61123B
 70
     0
 10
0.0
 20
0.0
 30
0.0
  3
A$C0A61123B
  1

  0
LINE
  5
C0AD
  8
PROF
  6
CONTINUOUS
 10
4.9012016798694162
 20
13.325025853350891
 30
0.0000000000000002
 11
4.9012016798694162
 21
12.88585218805485
 31
0.0000000000000003
  0
INSERT
  5
C0AE
  8
0
  2
*U7
 10
0.0
 20
0.0
 30
0.0
  0
LINE
  5
C0AF
  8
PROF
 10
4.519857503186925
 20
12.72227734589444
 30
0.0000000000000001
 11
4.519857503186925
 21
12.88585218805485
 31
0.0000000000000001
  0
LINE
  5
C0B0
  8
PROF
  6
CONTINUOUS
 10
3.6306271195888362
 20
13.325025853350891
 30
0.0000000000000002
 11
4.9012016798694162
 21
13.325025853350891
 31
0.0000000000000002
  0
LINE
  5
C0B1
  8
PROF
 10
1.9750295148747341
 20
10.37671325491794
 30
0.0000000000000002
 11
1.9750295148747341
 21
10.11391186758919
 31
0.0000000000000002
  0
LINE
  5
C0B2
  8
PROF
 10
1.6079673357556299
 20
10.11391186758919
 30
0.0000000000000001
 11
1.9750295148747341
 21
10.11391186758919
 31
0.0000000000000001
  0
LINE
  5
C0B3
  8
PROF
 10
1.9750295148747341
 20
10.11391186758919
 30
0.0000000000000001
 11
1.944958486898144
 21
10.11391186758919
 31
0.0000000000000001
  0
LINE
  5
C0B4
  8
PROF
 10
1.9750295148747341
 20
10.11391186758919
 30
0.0000000000000001
 11
1.944958486898144
 21
10.11391186758919
 31
0.0000000000000001
  0
LINE
  5
C0B5
  8
PROF
 10
0.3222605517169654
 20
7.5247473351056451
 30
-0.0000000000000002
 11
-0.0000008570117416
 21
7.5247473351056451
 31
0.0
  0
LINE
  5
C0B6
  8
PROF
 10
-0.0000008570117416
 20
7.5247473351056451
 30
0.0
 11
-0.0000008570117416
 21
9.1943336957369848
 31
0.0
  0
POLYLINE
  5
C0B7
  8
PROF
 66
     1
 10
0.0
 20
0.0
 30
0.0000000000000001
 70
     4
 75
     6
  0
VERTEX
  5
C0B8
  8
PROF
 10
1.6079673357556299
 20
10.11391186758919
 30
0.0000000000000001
 70
    16
  0
VERTEX
  5
C0B9
  8
PROF
 10
1.6079673357556299
 20
10.11391186758919
 30
0.0000000000000001
 70
     8
  0
VERTEX
  5
C0BA
  8
PROF
 10
1.6468132326485809
 20
10.02198069336111
 30
0.0000000000000001
 70
     8
  0
VERTEX
  5
C0BB
  8
PROF
 10
1.67335966680929
 20
9.9344134163010231
 30
0.0000000000000001
 70
     8
  0
VERTEX
  5
C0BC
  8
PROF
 10
1.6890086400463229
 20
9.8512576644480951
 30
0.0000000000000001
 70
     8
  0
VERTEX
  5
C0BD
  8
PROF
 10
1.6951621541682571
 20
9.7725610658417281
 30
0.0000000000000001
 70
     8
  0
VERTEX
  5
C0BE
  8
PROF
 10
1.693222210983605
 20
9.6983712485214237
 30
0.0000000000000001
 70
     8
  0
VERTEX
  5
C0BF
  8
PROF
 10
1.6845908123009961
 20
9.6287358405263603
 30
0.0000000000000001
 70
     8
  0
VERTEX
  5
C0C0
  8
PROF
 10
1.670669959928885
 20
9.5637024698960431
 30
0.0000000000000001
 70
     8
  0
VERTEX
  5
C0C1
  8
PROF
 10
1.6528616556759621
 20
9.5033187646697552
 30
0.0000000000000001
 70
     8
  0
VERTEX
  5
C0C2
  8
PROF
 10
1.632356299273054
 20
9.4475843259650691
 30
0.0000000000000001
 70
     8
  0
VERTEX
  5
C0C3
  8
PROF
 10
1.609497882140658
 20
9.3963066472123273
 30
0.0000000000000001
 70
     8
  0
VERTEX
  5
C0C4
  8
PROF
 10
1.584418793621637
 20
9.3492451949202842
 30
0.0000000000000001
 70
     8
  0
VERTEX
  5
C0C5
  8
PROF
 10
1.5572514230587431
 20
9.3061594355972357
 30
0.0000000000000001
 70
     8
  0
VERTEX
  5
C0C6
  8
PROF
 10
1.5281281597949601
 20
9.2668088357519274
 30
0.0000000000000001
 70
     8
  0
VERTEX
  5
C0C7
  8
PROF
 10
1.497181393172978
 20
9.2309528618929981
 30
0.0000000000000001
 70
     8
  0
VERTEX
  5
C0C8
  8
PROF
 10
1.4645435125357249
 20
9.1983509805288541
 30
0.0000000000000001
 70
     8
  0
VERTEX
  5
C0C9
  8
PROF
 10
1.4303469072260091
 20
9.1687626581682462
 30
0.0000000000000001
 70
     8
  0
VERTEX
  5
C0CA
  8
PROF
 10
1.394736033257401
 20
9.1419547918675335
 30
0.0000000000000001
 70
     8
  0
VERTEX
  5
C0CB
  8
PROF
 10
1.3579036133264131
 20
9.1177240008747713
 30
0.0000000000000001
 70
     8
  0
VERTEX
  5
C0CC
  8
PROF
 10
1.3200544368004321
 20
9.0958743349860924
 30
0.0000000000000001
 70
     8
  0
VERTEX
  5
C0CD
  8
PROF
 10
1.281393293046676
 20
9.0762098439975034
 30
0.0000000000000001
 70
     8
  0
VERTEX
  5
C0CE
  8
PROF
 10
1.2421249714324161
 20
9.0585345777049042
 30
0.0000000000000001
 70
     8
  0
VERTEX
  5
C0CF
  8
PROF
 10
1.202454261324986
 20
9.0426525859044187
 30
0.0000000000000001
 70
     8
  0
VERTEX
  5
C0D0
  8
PROF
 10
1.162585952091659
 20
9.0283679183919503
 30
0.0000000000000001
 70
     8
  0
VERTEX
  5
C0D1
  8
PROF
 10
1.1227248330997091
 20
9.0154846249635021
 30
0.0000000000000001
 70
     8
  0
VERTEX
  5
C0D2
  8
PROF
 10
1.0829726247361
 20
9.0034643862466055
 30
0.0000000000000001
 70
     8
  0
VERTEX
  5
C0D3
  8
PROF
 10
1.043018771466222
 20
8.9903994061946833
 30
0.0000000000000001
 70
     8
  0
VERTEX
  5
C0D4
  8
PROF
 10
1.002449648775211
 20
8.9740395195925622
 30
0.0000000000000001
 70
     8
  0
VERTEX
  5
C0D5
  8
PROF
 10
0.9608516321480919
 20
8.9521345612251935
 30
0.0000000000000001
 70
     8
  0
VERTEX
  5
C0D6
  8
PROF
 10
0.9178110970699435
 20
8.9224343658775052
 30
0.0000000000000001
 70
     8
  0
VERTEX
  5
C0D7
  8
PROF
 10
0.8729144190259033
 20
8.8826887683343312
 30
0.0000000000000001
 70
     8
  0
VERTEX
  5
C0D8
  8
PROF
 10
0.8257479735009949
 20
8.8306476033806121
 30
0.0000000000000001
 70
     8
  0
VERTEX
  5
C0D9
  8
PROF
 10
0.7758981359802988
 20
8.764060705801171
 30
0.0000000000000001
 70
     8
  0
VERTEX
  5
C0DA
  8
PROF
 10
1.7292019016096549
 20
9.8629858761255491
 30
0.0000000000000001
 70
    16
  0
VERTEX
  5
C0DB
  8
PROF
 10
1.679373123114088
 20
9.4532143012734213
 30
0.0000000000000001
 70
    16
  0
VERTEX
  5
C0DC
  8
PROF
 10
1.4455611507419801
 20
9.1391837193732481
 30
0.0000000000000001
 70
    16
  0
VERTEX
  5
C0DD
  8
PROF
 10
1.1204637172738201
 20
9.0026267702428413
 30
0.0000000000000001
 70
    16
  0
VERTEX
  5
C0DE
  8
PROF
 10
0.9127765582653638
 20
8.9630202230383702
 30
0.0000000000000001
 70
    16
  0
VERTEX
  5
C0DF
  8
PROF
 10
0.7758981359802988
 20
8.764060705801171
 30
0.0000000000000001
 70
    16
  0
SEQEND
  5
C0E0
  8
PROF
  0
ARC
  5
C0E1
  8
PROF
 10
0.733429816733235
 20
8.4849506952165257
 30
0.0000000000000001
 40
0.2823224329524727
 50
269.73652020831901
 51
81.348449993176914
  0
LINE
  5
C0E2
  8
PROF
  6
CONTINUOUS
 10
-0.0000008570117416
 20
9.1943336957369848
 30
-0.0000000000000001
 11
3.6306271195888362
 21
13.325025853350891
 31
0.0000000000000002
  0
POLYLINE
  5
C0E3
  8
PROF
 66
     1
 10
0.0
 20
0.0
 30
0.0000000000000001
 70
     4
 75
     6
  0
VERTEX
  5
C0E4
  8
PROF
 10
4.519857503186925
 20
12.72227734589444
 30
0.0000000000000001
 70
    16
  0
VERTEX
  5
C0E5
  8
PROF
 10
4.519857503186925
 20
12.72227734589444
 30
0.0000000000000001
 70
     8
  0
VERTEX
  5
C0E6
  8
PROF
 10
4.4467035366886289
 20
12.741128108778071
 30
0.0000000000000001
 70
     8
  0
VERTEX
  5
C0E7
  8
PROF
 10
4.3786645761268801
 20
12.754675269913941
 30
0.0000000000000001
 70
     8
  0
VERTEX
  5
C0E8
  8
PROF
 10
4.3154364111440469
 20
12.76334314092332
 30
0.0000000000000001
 70
     8
  0
VERTEX
  5
C0E9
  8
PROF
 10
4.256714831382566
 20
12.76755603342724
 30
0.0000000000000001
 70
     8
  0
VERTEX
  5
C0EA
  8
PROF
 10
4.2021956264849791
 20
12.76773825904672
 30
0.0000000000000001
 70
     8
  0
VERTEX
  5
C0EB
  8
PROF
 10
4.1515745860935436
 20
12.764314129403139
 30
0.0000000000000001
 70
     8
  0
VERTEX
  5
C0EC
  8
PROF
 10
4.1045474998508649
 20
12.75770795611743
 30
0.0000000000000001
 70
     8
  0
VERTEX
  5
C0ED
  8
PROF
 10
4.0608101573993149
 20
12.748344050810831
 30
0.0000000000000001
 70
     8
  0
VERTEX
  5
C0EE
  8
PROF
 10
4.0200583483813261
 20
12.736646725104491
 30
0.0000000000000001
 70
     8
  0
VERTEX
  5
C0EF
  8
PROF
 10
3.981987862439381
 20
12.72304029061945
 30
0.0000000000000001
 70
     8
  0
VERTEX
  5
C0F0
  8
PROF
 10
3.946294489215858
 20
12.707949058976959
 30
0.0000000000000001
 70
     8
  0
VERTEX
  5
C0F1
  8
PROF
 10
3.912674018353242
 20
12.691797341798059
 30
0.0000000000000001
 70
     8
  0
VERTEX
  5
C0F2
  8
PROF
 10
3.8808638350742499
 20
12.67494295718654
 30
0.0000000000000001
 70
     8
  0
VERTEX
  5
C0F3
  8
PROF
 10
3.850767706922738
 20
12.65747774917668
 30
0.0000000000000001
 70
     8
  0
VERTEX
  5
C0F4
  8
PROF
 10
3.8223309970228438
 20
12.639427068285499
 30
0.0000000000000001
 70
     8
  0
VERTEX
  5
C0F5
  8
PROF
 10
3.795499068498712
 20
12.62081626503004
 30
0.0000000000000001
 70
     8
  0
VERTEX
  5
C0F6
  8
PROF
 10
3.7702172844744819
 20
12.601670689926999
 30
0.0000000000000001
 70
     8
  0
VERTEX
  5
C0F7
  8
PROF
 10
3.7464310080743521
 20
12.58201569349364
 30
0.0000000000000001
 70
     8
  0
VERTEX
  5
C0F8
  8
PROF
 10
3.7240856024224609
 20
12.56187662624666
 30
0.0000000000000001
 70
     8
  0
VERTEX
  5
C0F9
  8
PROF
 10
3.7031264306428961
 20
12.541278838703191
 30
0.0000000000000001
 70
     8
  0
VERTEX
  5
C0FA
  8
PROF
 10
3.683498855859908
 20
12.520247681380051
 30
0.0000000000000001
 70
     8
  0
VERTEX
  5
C0FB
  8
PROF
 10
3.665148241197528
 20
12.49880850479428
 30
0.0000000000000001
 70
     8
  0
VERTEX
  5
C0FC
  8
PROF
 10
3.648019949779949
 20
12.47698665946279
 30
0.0000000000000001
 70
     8
  0
VERTEX
  5
C0FD
  8
PROF
 10
3.6320593447313159
 20
12.45480749590263
 30
0.0000000000000001
 70
     8
  0
VERTEX
  5
C0FE
  8
PROF
 10
3.617189584886658
 20
12.43223790353807
 30
0.0000000000000001
 70
     8
  0
VERTEX
  5
C0FF
  8
PROF
 10
3.6032450119242849
 20
12.40901092742285
 30
0.0000000000000001
 70
     8
  0
VERTEX
  5
C100
  8
PROF
 10
3.590037763233453
 20
12.38480115151844
 30
0.0000000000000001
 70
     8
  0
VERTEX
  5
C101
  8
PROF
 10
3.5773799762033032
 20
12.35928315978594
 30
0.0000000000000001
 70
     8
  0
VERTEX
  5
C102
  8
PROF
 10
3.5650837882230899
 20
12.33213153618658
 30
0.0000000000000001
 70
     8
  0
VERTEX
  5
C103
  8
PROF
 10
3.552961336681959
 20
12.303020864681571
 30
0.0000000000000001
 70
     8
  0
VERTEX
  5
C104
  8
PROF
 10
3.540824758969165
 20
12.271625729232371
 30
0.0000000000000001
 70
     8
  0
VERTEX
  5
C105
  8
PROF
 10
3.528486192473848
 20
12.23762071379997
 30
0.0000000000000001
 70
     8
  0
VERTEX
  5
C106
  8
PROF
 10
3.5157577745852659
 20
12.200680402345711
 30
0.0000000000000001
 70
     8
  0
VERTEX
  5
C107
  8
PROF
 10
3.502451642692618
 20
12.16047937883093
 30
0.0000000000000001
 70
     8
  0
VERTEX
  5
C108
  8
PROF
 10
3.4883799341851041
 20
12.116692227216619
 30
0.0000000000000001
 70
     8
  0
VERTEX
  5
C109
  8
PROF
 10
3.4733547864519201
 20
12.06899353146423
 30
0.0000000000000001
 70
     8
  0
VERTEX
  5
C10A
  8
PROF
 10
3.45723654619428
 20
12.0172095445447
 30
0.0000000000000001
 70
     8
  0
VERTEX
  5
C10B
  8
PROF
 10
3.440078397361388
 20
11.961773195467799
 30
0.0000000000000001
 70
     8
  0
VERTEX
  5
C10C
  8
PROF
 10
3.4219817332145781
 20
11.90326908225302
 30
0.0000000000000001
 70
     8
  0
VERTEX
  5
C10D
  8
PROF
 10
3.4030479470150099
 20
11.842281802919951
 30
0.0000000000000001
 70
     8
  0
VERTEX
  5
C10E
  8
PROF
 10
3.383378432024017
 20
11.779395955487979
 30
0.0000000000000001
 70
     8
  0
VERTEX
  5
C10F
  8
PROF
 10
3.36307458150287
 20
11.7151961379768
 30
0.0000000000000001
 70
     8
  0
VERTEX
  5
C110
  8
PROF
 10
3.342237788712735
 20
11.650266948405831
 30
0.0000000000000001
 70
     8
  0
VERTEX
  5
C111
  8
PROF
 10
3.3209694469149991
 20
11.58519298479461
 30
0.0000000000000001
 70
     8
  0
VERTEX
  5
C112
  8
PROF
 10
3.299370949370767
 20
11.52055884516254
 30
0.0000000000000001
 70
     8
  0
VERTEX
  5
C113
  8
PROF
 10
3.277543689341428
 20
11.456949127529461
 30
0.0000000000000001
 70
     8
  0
VERTEX
  5
C114
  8
PROF
 10
3.2555890600881399
 20
11.3949484299145
 30
0.0000000000000001
 70
     8
  0
VERTEX
  5
C115
  8
PROF
 10
3.2336084548721811
 20
11.335141350337491
 30
0.0000000000000001
 70
     8
  0
VERTEX
  5
C116
  8
PROF
 10
3.2116715641212181
 20
11.277995447977769
 30
0.0000000000000001
 70
     8
  0
VERTEX
  5
C117
  8
PROF
 10
3.1897212669278461
 20
11.22351012665467
 30
0.0000000000000001
 70
     8
  0
VERTEX
  5
C118
  8
PROF
 10
3.1676687395512881
 20
11.17156775134765
 30
0.0000000000000001
 70
     8
  0
VERTEX
  5
C119
  8
PROF
 10
3.1454251582505321
 20
11.12205068703588
 30
0.0000000000000001
 70
     8
  0
VERTEX
  5
C11A
  8
PROF
 10
3.122901699284625
 20
11.07484129869874
 30
0.0000000000000001
 70
     8
  0
VERTEX
  5
C11B
  8
PROF
 10
3.1000095389127278
 20
11.02982195131551
 30
0.0000000000000001
 70
     8
  0
VERTEX
  5
C11C
  8
PROF
 10
3.07665985339389
 20
10.986875009865679
 30
0.0000000000000001
 70
     8
  0
VERTEX
  5
C11D
  8
PROF
 10
3.0527638189871591
 20
10.9458828393283
 30
0.0000000000000001
 70
     8
  0
VERTEX
  5
C11E
  8
PROF
 10
3.0282326119516361
 20
10.90672780468298
 30
0.0000000000000001
 70
     8
  0
VERTEX
  5
C11F
  8
PROF
 10
3.0029774085463701
 20
10.869292270908771
 30
0.0000000000000001
 70
     8
  0
VERTEX
  5
C120
  8
PROF
 10
2.9769093850304089
 20
10.833458602985161
 30
0.0000000000000001
 70
     8
  0
VERTEX
  5
C121
  8
PROF
 10
2.9499397176628559
 20
10.799109165891419
 30
0.0000000000000001
 70
     8
  0
VERTEX
  5
C122
  8
PROF
 10
2.922000609840437
 20
10.76614363969508
 30
0.0000000000000001
 70
     8
  0
VERTEX
  5
C123
  8
PROF
 10
2.8931083735102998
 20
10.7345309648158
 30
0.0000000000000001
 70
     8
  0
VERTEX
  5
C124
  8
PROF
 10
2.8633003477572729
 20
10.70425739676193
 30
0.0000000000000001
 70
     8
  0
VERTEX
  5
C125
  8
PROF
 10
2.8326138716660689
 20
10.67530919104115
 30
0.0000000000000001
 70
     8
  0
VERTEX
  5
C126
  8
PROF
 10
2.801086284321626
 20
10.647672603161711
 30
0.0000000000000001
 70
     8
  0
VERTEX
  5
C127
  8
PROF
 10
2.7687549248087162
 20
10.62133388863162
 30
0.0000000000000001
 70
     8
  0
VERTEX
  5
C128
  8
PROF
 10
2.7356571322120531
 20
10.5962793029588
 30
0.0000000000000001
 70
     8
  0
VERTEX
  5
C129
  8
PROF
 10
2.7018302456165202
 20
10.572495101651381
 30
0.0000000000000001
 70
     8
  0
VERTEX
  5
C12A
  8
PROF
 10
2.6673116041068838
 20
10.54996754021726
 30
0.0000000000000001
 70
     8
  0
VERTEX
  5
C12B
  8
PROF
 10
2.6321385467680321
 20
10.528682874164581
 30
0.0000000000000001
 70
     8
  0
VERTEX
  5
C12C
  8
PROF
 10
2.5963484126846179
 20
10.508627359001251
 30
0.0000000000000001
 70
     8
  0
VERTEX
  5
C12D
  8
PROF
 10
2.5599785409415841
 20
10.489787250235279
 30
0.0000000000000001
 70
     8
  0
VERTEX
  5
C12E
  8
PROF
 10
2.522998630314361
 20
10.472162234281081
 30
0.0000000000000001
 70
     8
  0
VERTEX
  5
C12F
  8
PROF
 10
2.4851078183409072
 20
10.455805721177621
 30
0.0000000000000001
 70
     8
  0
VERTEX
  5
C130
  8
PROF
 10
2.4459376022498982
 20
10.44078455187036
 30
0.0000000000000001
 70
     8
  0
VERTEX
  5
C131
  8
PROF
 10
2.4051194792701249
 20
10.42716556730465
 30
0.0000000000000001
 70
     8
  0
VERTEX
  5
C132
  8
PROF
 10
2.3622849466301541
 20
10.415015608425851
 30
0.0000000000000001
 70
     8
  0
VERTEX
  5
C133
  8
PROF
 10
2.317065501558714
 20
10.40440151617929
 30
0.0000000000000001
 70
     8
  0
VERTEX
  5
C134
  8
PROF
 10
2.2690926412844301
 20
10.395390131510339
 30
0.0000000000000001
 70
     8
  0
VERTEX
  5
C135
  8
PROF
 10
2.2179978630360879
 20
10.388048295364451
 30
0.0000000000000001
 70
     8
  0
VERTEX
  5
C136
  8
PROF
 10
2.1634126640422551
 20
10.38244284868688
 30
0.0000000000000001
 70
     8
  0
VERTEX
  5
C137
  8
PROF
 10
2.1049685415316031
 20
10.37864063242295
 30
0.0000000000000001
 70
     8
  0
VERTEX
  5
C138
  8
PROF
 10
2.0422969927328709
 20
10.37670848751816
 30
0.0000000000000001
 70
     8
  0
VERTEX
  5
C139
  8
PROF
 10
1.9750295148747341
 20
10.37671325491794
 30
0.0000000000000001
 70
     8
  0
VERTEX
  5
C13A
  8
PROF
 10
4.2166060115107484
 20
12.80885334975255
 30
0.0000000000000001
 70
    16
  0
VERTEX
  5
C13B
  8
PROF
 10
3.8702254102732909
 20
12.707065515763929
 30
0.0000000000000001
 70
    16
  0
VERTEX
  5
C13C
  8
PROF
 10
3.605346156896871
 20
12.46277472098552
 30
0.0000000000000001
 70
    16
  0
VERTEX
  5
C13D
  8
PROF
 10
3.500746030527238
 20
12.170680575709749
 30
0.0000000000000001
 70
    16
  0
VERTEX
  5
C13E
  8
PROF
 10
3.231798439705698
 20
11.26846416496107
 30
0.0000000000000001
 70
    16
  0
VERTEX
  5
C13F
  8
PROF
 10
2.9737109398832882
 20
10.76631086647069
 30
0.0000000000000001
 70
    16
  0
VERTEX
  5
C140
  8
PROF
 10
2.5729961067384002
 20
10.460947364504699
 30
0.0000000000000001
 70
    16
  0
VERTEX
  5
C141
  8
PROF
 10
2.2537826214546031
 20
10.372731239449759
 30
0.0000000000000001
 70
    16
  0
VERTEX
  5
C142
  8
PROF
 10
1.9750295148747341
 20
10.37671325491794
 30
0.0000000000000001
 70
    16
  0
SEQEND
  5
C143
  8
PROF
  0
LINE
  5
C144
  8
PROF
 10
4.9012016798694162
 20
12.88585218805485
 30
0.0000000000000003
 11
4.519857503186925
 21
12.88585218805485
 31
0.0000000000000003
  0
LINE
  5
C145
  8
PROF
 10
0.7321315362267457
 20
8.2026312473991556
 30
0.0000000000000006
 11
0.7321315362267457
 21
8.0511853963434952
 31
0.0000000000000006
  0
ARC
  5
C146
  8
PROF
 10
0.7977322214551919
 20
7.577333933202679
 30
0.0000000000000006
 40
0.4783708383912013
 50
97.882010168942557
 51
186.31119505698641
  0
LINE
  5
C147
  8
FRAME_050
 10
7.8016377197432121
 20
17.99371054969447
 30
0.0
 11
7.8016377197432121
 21
0.0000000000002274
 31
0.0
  0
ENDBLK
  5
C149
  8
0
  0
BLOCK
  8
0
  2
*U7
 70
     1
 10
0.0
 20
0.0
 30
0.0
  3
*U7
  1

  0
TEXT
  5
1362F
  8
0
 10
3.5177832928899071
 20
10.38601584255777
 30
0.0
 40
0.125
  1
Crown Moulding
  0
TEXT
  5
13630
  8
0
 10
3.5223876585106431
 20
10.17717091304435
 30
0.0
 40
0.125
  1
TL-AB509
  0
TEXT
  5
13631
  8
0
 10
3.5074661032582561
 20
9.9667059289606801
 30
0.0
 40
0.125
  1
1-5/16" x 7-9/16"
  0
TEXT
  5
13632
  8
0
 10
3.519403347460166
 20
9.7562409448770051
 30
0.0
 40
0.125
  1
800.66.TAGUE
  0
ENDBLK
  5
13634
  8
0
  0
BLOCK
  8
0
  2
*U8
 70
     1
 10
0.0
 20
0.0
 30
0.0
  3
*U8
  1

  0
TEXT
  5
13636
  8
0
 10
5.3066868277875692
 20
1.767659498411035
 30
0.0
 40
0.125
  1
Back Band
  0
TEXT
  5
13637
  8
0
 10
5.3153839628489603
 20
1.55881456889762
 30
0.0
 40
0.125
  1
TL-1
  0
TEXT
  5
13638
  8
0
 10
5.3004624075965721
 20
1.3483495848139451
 30
0.0
 40
0.125
  1
1-3/8" x 1-9/16"
  0
TEXT
  5
13639
  8
0
 10
5.3123996517984811
 20
1.1378846007302701
 30
0.0
 40
0.125
  1
800.66.TAGUE
  0
ENDBLK
  5
1363B
  8
0
  0
BLOCK
  8
0
  2
*U9
 70
     1
 10
0.0
 20
0.0
 30
0.0
  3
*U9
  1

  0
TEXT
  5
1363D
  8
0
 10
2.551252809835812
 20
0.9623111621543783
 30
0.0
 40
0.125
  1
Back Band
  0
TEXT
  5
1363E
  8
0
 10
2.5599499448972041
 20
0.7534662326409634
 30
0.0
 40
0.125
  1
TL-288
  0
TEXT
  5
1363F
  8
0
 10
2.5450283896448149
 20
0.5430012485572889
 30
0.0
 40
0.125
  1
1-11/16" x 1-13/16"
  0
TEXT
  5
13640
  8
0
 10
2.5569656338467261
 20
0.3325362644736145
 30
0.0
 40
0.125
  1
800.66.TAGUE
  0
ENDBLK
  5
13642
  8
0
  0
BLOCK
  8
0
  2
*U10
 70
     1
 10
0.0
 20
0.0
 30
0.0
  3
*U10
  1

  0
TEXT
  5
13644
  8
0
 10
1.8364329238504911
 20
0.8829827782459458
 30
0.0
 40
0.125
  1
Back Band
  0
TEXT
  5
13645
  8
0
 10
1.8451300589118811
 20
0.6741378487325309
 30
0.0
 40
0.125
  1
TL-289
  0
TEXT
  5
13646
  8
0
 10
1.8302085036594951
 20
0.4636728646488565
 30
0.0
 40
0.125
  1
1-1/16" x 1-11/16"
  0
TEXT
  5
13647
  8
0
 10
1.8421457478614041
 20
0.2532078805651821
 30
0.0
 40
0.125
  1
800.66.TAGUE
  0
ENDBLK
  5
13649
  8
0
  0
BLOCK
  8
0
  2
*U11
 70
     1
 10
0.0
 20
0.0
 30
0.0
  3
*U11
  1

  0
TEXT
  5
1364B
  8
0
 10
1.9299317867740149
 20
0.8512665098620573
 30
0.0
 40
0.125
  1
Back Band
  0
TEXT
  5
1364C
  8
0
 10
1.938628921835406
 20
0.6424215803486422
 30
0.0
 40
0.125
  1
TL-601
  0
TEXT
  5
1364D
  8
0
 10
1.92370736658302
 20
0.4319565962649678
 30
0.0
 40
0.125
  1
1-5/16" x 1-3/8"
  0
TEXT
  5
1364E
  8
0
 10
1.9356446107849301
 20
0.2214916121812933
 30
0.0
 40
0.125
  1
800.66.TAGUE
  0
ENDBLK
  5
13650
  8
0
  0
BLOCK
  8
0
  2
*U12
 70
     1
 10
0.0
 20
0.0
 30
0.0
  3
*U12
  1

  0
TEXT
  5
13652
  8
0
 10
1.823773990479632
 20
0.9081704084311468
 30
0.0
 40
0.125
  1
Back Band
  0
TEXT
  5
13653
  8
0
 10
1.832471125541024
 20
0.6993254789177317
 30
0.0
 40
0.125
  1
TL-2075
  0
TEXT
  5
13654
  8
0
 10
1.817549570288636
 20
0.4888604948340574
 30
0.0
 40
0.125
  1
1-5/16" x 1-5/8"
  0
TEXT
  5
13655
  8
0
 10
1.8294868144905461
 20
0.2783955107503828
 30
0.0
 40
0.125
  1
800.66.TAGUE
  0
ENDBLK
  5
13657
  8
0
  0
BLOCK
  8
0
  2
*U13
 70
     1
 10
0.0
 20
0.0
 30
0.0
  3
*U13
  1

  0
TEXT
  5
13659
  8
0
 10
1.9545668919090351
 20
0.8644213446237927
 30
0.0
 40
0.125
  1
Back Band
  0
TEXT
  5
1365A
  8
0
 10
1.963264026970426
 20
0.6555764151103776
 30
0.0
 40
0.125
  1
TL-2208 
  0
TEXT
  5
1365B
  8
0
 10
1.9483424717180391
 20
0.4451114310267032
 30
0.0
 40
0.125
  1
1-3/8" x 1-5/8"
  0
TEXT
  5
1365C
  8
0
 10
1.960279715919949
 20
0.2346464469430287
 30
0.0
 40
0.125
  1
800.66.TAGUE
  0
ENDBLK
  5
1365E
  8
0
  0
BLOCK
  8
0
  2
*U14
 70
     1
 10
0.0
 20
0.0
 30
0.0
  3
*U14
  1

  0
TEXT
  5
13660
  8
0
 10
2.7644474121262679
 20
0.8344220463493455
 30
0.0
 40
0.125
  1
Back Band
  0
TEXT
  5
13661
  8
0
 10
2.7731445471876599
 20
0.6255771168359307
 30
0.0
 40
0.125
  1
TL-2221 
  0
TEXT
  5
13662
  8
0
 10
2.7689665117169922
 20
0.4151121327522561
 30
0.0
 40
0.125
  1
7/8" x 1-3/4"
  0
TEXT
  5
13663
  8
0
 10
2.770160236137182
 20
0.2046471486685817
 30
0.0
 40
0.125
  1
800.66.TAGUE
  0
ENDBLK
  5
13665
  8
0
  0
BLOCK
  8
0
  2
*U15
 70
     1
 10
0.0
 20
0.0
 30
0.0
  3
*U15
  1

  0
TEXT
  5
13667
  8
0
 10
2.69153244850086
 20
1.1836703361148011
 30
0.0
 40
0.125
  1
Back Band
  0
TEXT
  5
13668
  8
0
 10
2.7002295835622521
 20
0.974825406601386
 30
0.0
 40
0.125
  1
TL-2266
  0
TEXT
  5
13669
  8
0
 10
2.6853080283098651
 20
0.7643604225177115
 30
0.0
 40
0.125
  1
1-11/32" x 1-15/32"
  0
TEXT
  5
1366A
  8
0
 10
2.697245272511775
 20
0.5538954384340373
 30
0.0
 40
0.125
  1
800.66.TAGUE
  0
ENDBLK
  5
1366C
  8
0
  0
BLOCK
  8
0
  2
*U16
 70
     1
 10
0.0
 20
0.0
 30
0.0
  3
*U16
  1

  0
TEXT
  5
1366E
  8
0
 10
3.1852595440213158
 20
1.482613965595986
 30
0.0
 40
0.125
  1
Back Band
  0
TEXT
  5
1366F
  8
0
 10
3.193956679082707
 20
1.2737690360825711
 30
0.0
 40
0.125
  1
TL-2293
  0
TEXT
  5
13670
  8
0
 10
3.1790351238303201
 20
1.0147194680971241
 30
0.0
 40
0.125
  1
1-
  0
TEXT
  5
13671
  8
0
 10
3.3285150010472382
 20
1.104069740948419
 30
0.0
 40
0.0875
  1
7
  0
LINE
  5
13672
  8
0
 10
3.3553421833758441
 20
1.0323939370731321
 30
0.0
 11
3.4557180597372761
 21
1.1757455448237071
 31
0.0
  0
TEXT
  5
13673
  8
0
 10
3.4151594985461
 20
0.9855528014304578
 30
0.0
 40
0.0875
  1
8
  0
TEXT
  5
13674
  8
0
 10
3.4836195940440531
 20
1.0147194680971241
 30
0.0
 40
0.125
  1
" x 2-
  0
TEXT
  5
13675
  8
0
 10
3.8794330319703838
 20
1.104069740948419
 30
0.0
 40
0.0875
  1
7
  0
LINE
  5
13676
  8
0
 10
3.9062602142989902
 20
1.0323939370731321
 30
0.0
 11
4.0066360906604244
 21
1.1757455448237071
 31
0.0
  0
TEXT
  5
13677
  8
0
 10
3.957721458527911
 20
0.9855528014304578
 30
0.0
 40
0.0875
  1
16
  0
TEXT
  5
13678
  8
0
 10
4.0939254148717019
 20
1.0147194680971241
 30
0.0
 40
0.125
  1
"
  0
TEXT
  5
13679
  8
0
 10
3.1909723680322299
 20
0.8459211506801168
 30
0.0
 40
0.125
  1
800.66.TAGUE
  0
ENDBLK
  5
1367B
  8
0
  0
BLOCK
  8
0
  2
*U17
 70
     1
 10
0.0
 20
0.0
 30
0.0
  3
*U17
  1

  0
TEXT
  5
1367D
  8
0
 10
2.4900996379053399
 20
1.0092498715596481
 30
0.0
 40
0.125
  1
Baluster Stock
  0
TEXT
  5
1367E
  8
0
 10
2.498796772966732
 20
0.800404942046233
 30
0.0
 40
0.125
  1
TL-236
  0
TEXT
  5
1367F
  8
0
 10
2.4838752177143442
 20
0.5899399579625585
 30
0.0
 40
0.125
  1
1-9/16" x 1-9/16"
  0
TEXT
  5
13680
  8
0
 10
2.4958124619162541
 20
0.3794749738788841
 30
0.0
 40
0.125
  1
800.66.TAGUE
  0
ENDBLK
  5
13682
  8
0
  0
BLOCK
  8
0
  2
*U18
 70
     1
 10
0.0
 20
0.0
 30
0.0
  3
*U18
  1

  0
TEXT
  5
13684
  8
0
 10
2.3591545502839431
 20
0.9010435759007736
 30
0.0
 40
0.125
  1
Baluster Stock
  0
TEXT
  5
13685
  8
0
 10
2.3678516853453342
 20
0.6921986463873587
 30
0.0
 40
0.125
  1
TL-237
  0
TEXT
  5
13686
  8
0
 10
2.3529301300929459
 20
0.4817336623036842
 30
0.0
 40
0.125
  1
1-5/16" x 1-5/16"
  0
TEXT
  5
13687
  8
0
 10
2.3648673742948558
 20
0.2712686782200098
 30
0.0
 40
0.125
  1
800.66.TAGUE
  0
ENDBLK
  5
13689
  8
0
  0
BLOCK
  8
0
  2
*U19
 70
     1
 10
0.0
 20
0.0
 30
0.0
  3
*U19
  1

  0
TEXT
  5
1368B
  8
0
 10
2.0985104506553212
 20
0.7826568183311498
 30
0.0
 40
0.125
  1
Baluster Stock
  0
TEXT
  5
1368C
  8
0
 10
2.1072075857167119
 20
0.5738118888177346
 30
0.0
 40
0.125
  1
TL-238
  0
TEXT
  5
1368D
  8
0
 10
2.0922860304643249
 20
0.3633469047340601
 30
0.0
 40
0.125
  1
1-1/16" x 1-1/16"
  0
TEXT
  5
1368E
  8
0
 10
2.1042232746662362
 20
0.1528819206503857
 30
0.0
 40
0.125
  1
800.66.TAGUE
  0
ENDBLK
  5
13690
  8
0
  0
BLOCK
  8
0
  2
*U20
 70
     1
 10
0.0
 20
0.0
 30
0.0
  3
*U20
  1

  0
TEXT
  5
13692
  8
0
 10
1.7835912292499461
 20
0.6784890753194919
 30
0.0
 40
0.125
  1
Baluster Stock
  0
TEXT
  5
13693
  8
0
 10
1.7922883643113361
 20
0.4696441458060768
 30
0.0
 40
0.125
  1
TL-239
  0
TEXT
  5
13694
  8
0
 10
1.789048255170818
 20
0.2591791617224023
 30
0.0
 40
0.125
  1
3/4" x 3/4"
  0
TEXT
  5
13695
  8
0
 10
1.78930405326086
 20
0.0487141776387279
 30
0.0
 40
0.125
  1
800.66.TAGUE
  0
ENDBLK
  5
13697
  8
0
  0
BLOCK
  8
0
  2
*U21
 70
     1
 10
0.0
 20
0.0
 30
0.0
  3
*U21
  1

  0
TEXT
  5
13699
  8
0
 10
2.750346038648086
 20
1.209669783574115
 30
0.0
 40
0.125
  1
Baluster Stock
  0
TEXT
  5
1369A
  8
0
 10
2.7590431737094758
 20
1.0008248540607001
 30
0.0
 40
0.125
  1
TL-526
  0
TEXT
  5
1369B
  8
0
 10
2.7441216184570889
 20
0.7903598699770261
 30
0.0
 40
0.125
  1
1-3/4" x 1-3/4"
  0
TEXT
  5
1369C
  8
0
 10
2.7560588626590001
 20
0.5798948858933519
 30
0.0
 40
0.125
  1
800.66.TAGUE
  0
ENDBLK
  5
1369E
  8
0
  0
BLOCK
  8
0
  2
*U22
 70
     1
 10
0.0
 20
0.0
 30
0.0
  3
*U22
  1

  0
TEXT
  5
136A0
  8
0
 10
4.1934393821158942
 20
3.6154353709422362
 30
0.0
 40
0.125
  1
Bar Rail
  0
TEXT
  5
136A1
  8
0
 10
4.2021365171772844
 20
3.4065904414288202
 30
0.0
 40
0.125
  1
TL-13
  0
TEXT
  5
136A2
  8
0
 10
4.19898167406678
 20
3.1961254573451461
 30
0.0
 40
0.125
  1
5-1/2" x 1-5/8"
  0
TEXT
  5
136A3
  8
0
 10
4.1991522061268061
 20
2.9856604732614711
 30
0.0
 40
0.125
  1
800.66.TAGUE
  0
ENDBLK
  5
136A5
  8
0
  0
BLOCK
  8
0
  2
*U23
 70
     1
 10
0.0
 20
0.0
 30
0.0
  3
*U23
  1

  0
TEXT
  5
136A7
  8
0
 10
2.7915496004018041
 20
1.6928133759646471
 30
0.0
 40
0.125
  1
Bar Rail
  0
TEXT
  5
136A8
  8
0
 10
2.8002467354631961
 20
1.483968446451231
 30
0.0
 40
0.125
  1
TL-130
  0
TEXT
  5
136A9
  8
0
 10
2.785325180210807
 20
1.273503462367557
 30
0.0
 40
0.125
  1
1-11/16" x 2-1/4"
  0
TEXT
  5
136AA
  8
0
 10
2.7972624244127182
 20
1.0630384782838831
 30
0.0
 40
0.125
  1
800.66.TAGUE
  0
ENDBLK
  5
136AC
  8
0
  0
BLOCK
  8
0
  2
*U24
 70
     1
 10
0.0
 20
0.0
 30
0.0
  3
*U24
  1

  0
TEXT
  5
136AE
  8
0
 10
0.7422973615718825
 20
1.83447380854534
 30
0.0
 40
0.125
  1
Bar Rail
  0
TEXT
  5
136AF
  8
0
 10
0.7509944966332741
 20
1.6256288790319231
 30
0.0
 40
0.125
  1
TL-537
  0
TEXT
  5
136B0
  8
0
 10
0.7360729413808864
 20
1.415163894948249
 30
0.0
 40
0.125
  1
1-5/16" x 5-3/16" / 7/8" x 3-1/16"
  0
TEXT
  5
136B1
  8
0
 10
0.7480101855827966
 20
1.204698910864576
 30
0.0
 40
0.125
  1
800.66.TAGUE
  0
ENDBLK
  5
136B3
  8
0
  0
BLOCK
  8
0
  2
*U25
 70
     1
 10
0.0
 20
0.0
 30
0.0
  3
*U25
  1

  0
TEXT
  5
136B5
  8
0
 10
1.816400461137599
 20
3.819697741885534
 30
0.0
 40
0.125
  1
Base Board Assembly
  0
TEXT
  5
136B6
  8
0
 10
1.825097596198991
 20
3.610852812372118
 30
0.0
 40
0.125
  1
TL-680
  0
TEXT
  5
136B7
  8
0
 10
1.810176040946603
 20
3.400387828288443
 30
0.0
 40
0.125
  1
1-1/16" x 6-3/4"
  0
TEXT
  5
136B8
  8
0
 10
1.822113285148514
 20
3.1899228442047689
 30
0.0
 40
0.125
  1
800.66.TAGUE
  0
ENDBLK
  5
136BA
  8
0
  0
BLOCK
  8
0
  2
*U26
 70
     1
 10
0.0
 20
0.0
 30
0.0
  3
*U26
  1

  0
TEXT
  5
136BC
  8
0
 10
1.880121442934813
 20
2.5708737061797922
 30
0.0
 40
0.125
  1
TL-541
  0
ENDBLK
  5
136BE
  8
0
  0
BLOCK
  8
0
  2
*U27
 70
     1
 10
0.0
 20
0.0
 30
0.0
  3
*U27
  1

  0
INSERT
  5
136C0
  8
0
  2
_OPEN30
 10
0.9370004965966243
 20
1.998969839043752
 30
0.0
 41
0.046875
 42
0.046875
 43
0.046875
 50
220.2352165150823
  0
POLYLINE
  5
136C1
  8
0
 66
     1
 10
0.0
 20
0.0
 30
0.0
  0
VERTEX
  5
13ADB
  8
0
 10
0.9727848321090522
 20
2.0292476685058181
 30
0.0
  0
VERTEX
  5
13ADC
  8
0
 10
1.687083141229663
 20
2.6336295042698321
 30
0.0
  0
VERTEX
  5
13ADD
  8
0
 10
1.8217142123754679
 20
2.6336295042698321
 30
0.0
  0
SEQEND
  5
13ADE
  8
0
  0
ENDBLK
  5
136C7
  8
0
  0
BLOCK
  8
0
  2
*U28
 70
     1
 10
0.0
 20
0.0
 30
0.0
  3
*U28
  1

  0
TEXT
  5
136C9
  8
0
 10
1.860887541817708
 20
6.6078272811635204
 30
0.0
 40
0.125
  1
TL-540
  0
TEXT
  5
136CA
  8
0
 10
1.8649803112583641
 20
6.399238149740146
 30
0.0
 40
0.125
  1
 
  0
ENDBLK
  5
136CC
  8
0
  0
BLOCK
  8
0
  2
*U29
 70
     1
 10
0.0
 20
0.0
 30
0.0
  3
*U29
  1

  0
INSERT
  5
136CE
  8
0
  2
_OPEN30
 10
0.8157519259211197
 20
5.9858143171212532
 30
0.0
 41
0.046875
 42
0.046875
 43
0.046875
 50
218.1633806826421
  0
POLYLINE
  5
136CF
  8
0
 66
     1
 10
0.0
 20
0.0
 30
0.0
  0
VERTEX
  5
13ADF
  8
0
 10
0.8526074872282775
 20
6.0147786611624072
 30
0.0
  0
VERTEX
  5
13AE0
  8
0
 10
1.687083141229663
 20
6.670583079253559
 30
0.0
  0
VERTEX
  5
13AE1
  8
0
 10
1.8024803112583641
 20
6.670583079253559
 30
0.0
  0
SEQEND
  5
13AE2
  8
0
  0
ENDBLK
  5
136D5
  8
0
  0
BLOCK
  8
0
  2
*U30
 70
     1
 10
0.0
 20
0.0
 30
0.0
  3
*U30
  1

  0
TEXT
  5
136D7
  8
0
 10
1.200091944455248
 20
3.6095250915403749
 30
0.0
 40
0.125
  1
Base Board Assembly
  0
TEXT
  5
136D8
  8
0
 10
1.2087890795166401
 20
3.4006801620269602
 30
0.0
 40
0.125
  1
TL-681
  0
TEXT
  5
136D9
  8
0
 10
1.1938675242642509
 20
3.190215177943287
 30
0.0
 40
0.125
  1
1" x 9-1/4"
  0
TEXT
  5
136DA
  8
0
 10
1.205804768466161
 20
2.9797501938596112
 30
0.0
 40
0.125
  1
800.66.TAGUE
  0
ENDBLK
  5
136DC
  8
0
  0
BLOCK
  8
0
  2
*U31
 70
     1
 10
0.0
 20
0.0
 30
0.0
  3
*U31
  1

  0
INSERT
  5
136DE
  8
0
  6
CONTINUOUS
  2
_OPEN30
 10
0.7500005591156196
 20
6.587852449929982
 30
0.0
 41
0.046875
 42
0.046875
 43
0.046875
 50
224.0914683771941
  0
POLYLINE
  5
136DF
  8
0
  6
CONTINUOUS
 66
     1
 10
0.0
 20
0.0
 30
0.0
  0
VERTEX
  5
13AE3
  8
0
  6
CONTINUOUS
 10
0.7836675863640285
 20
6.6204683494462451
 30
0.0
  0
VERTEX
  5
13AE4
  8
0
  6
CONTINUOUS
 10
1.7133956757769511
 20
7.5211691365396973
 30
0.0
  0
VERTEX
  5
13AE5
  8
0
  6
CONTINUOUS
 10
1.9000752793112941
 20
7.5211691365396973
 30
0.0
  0
SEQEND
  5
13AE6
  8
0
  6
CONTINUOUS
  0
ENDBLK
  5
136E5
  8
0
  0
BLOCK
  8
0
  2
*U32
 70
     1
 10
0.0
 20
0.0
 30
0.0
  3
*U32
  1

  0
TEXT
  5
136E7
  8
0
 10
1.9584825098706391
 20
7.458413338449656
 30
0.0
 40
0.125
  1
TL-602
  0
ENDBLK
  5
136E9
  8
0
  0
BLOCK
  8
0
  2
*U33
 70
     1
 10
0.0
 20
0.0
 30
0.0
  3
*U33
  1

  0
INSERT
  5
136EB
  8
0
  6
CONTINUOUS
  2
_OPEN30
 10
1.000000559115618
 20
0.8124995480944788
 30
0.0
 41
0.046875
 42
0.046875
 43
0.046875
 50
224.0914683771941
  0
POLYLINE
  5
136EC
  8
0
  6
CONTINUOUS
 66
     1
 10
0.0
 20
0.0
 30
0.0
  0
VERTEX
  5
13AE7
  8
0
  6
CONTINUOUS
 10
1.033667586364027
 20
0.845115447610741
 30
0.0
  0
VERTEX
  5
13AE8
  8
0
  6
CONTINUOUS
 10
1.9633956757769511
 20
1.745816234704193
 30
0.0
  0
VERTEX
  5
13AE9
  8
0
  6
CONTINUOUS
 10
2.1500752793112952
 20
1.745816234704193
 30
0.0
  0
SEQEND
  5
13AEA
  8
0
  6
CONTINUOUS
  0
ENDBLK
  5
136F2
  8
0
  0
BLOCK
  8
0
  2
*U34
 70
     1
 10
0.0
 20
0.0
 30
0.0
  3
*U34
  1

  0
TEXT
  5
136F4
  8
0
 10
2.2084825098706391
 20
1.6828046385241111
 30
0.0
 40
0.125
  1
TL-266
  0
ENDBLK
  5
136F6
  8
0
  0
BLOCK
  8
0
  2
*U35
 70
     1
 10
0.0
 20
0.0
 30
0.0
  3
*U35
  1

  0
INSERT
  5
136F8
  8
0
  6
CONTINUOUS
  2
_OPEN30
 10
0.7500004105942253
 20
6.3960963538685291
 30
0.0
 41
0.046875
 42
0.046875
 43
0.046875
 50
219.47434747209351
  0
POLYLINE
  5
136F9
  8
0
  6
CONTINUOUS
 66
     1
 10
0.0
 20
0.0
 30
0.0
  0
VERTEX
  5
13AEB
  8
0
  6
CONTINUOUS
 10
0.7861836586409799
 20
6.425896323428697
 30
0.0
  0
VERTEX
  5
13AEC
  8
0
  6
CONTINUOUS
 10
1.374056000801033
 20
6.9100589911637371
 30
0.0
  0
VERTEX
  5
13AED
  8
0
  6
CONTINUOUS
 10
1.5384924777565061
 20
6.9100589911637371
 30
0.0
  0
SEQEND
  5
13AEE
  8
0
  6
CONTINUOUS
  0
ENDBLK
  5
136FF
  8
0
  0
BLOCK
  8
0
  2
*U36
 70
     1
 10
0.0
 20
0.0
 30
0.0
  3
*U36
  1

  0
TEXT
  5
13701
  8
0
 10
1.59689970831585
 20
6.8473031930736949
 30
0.0
 40
0.125
  1
TL-550
  0
ENDBLK
  5
13703
  8
0
  0
BLOCK
  8
0
  2
*U37
 70
     1
 10
0.0
 20
0.0
 30
0.0
  3
*U37
  1

  0
INSERT
  5
13705
  8
0
  6
CONTINUOUS
  2
_OPEN30
 10
0.7500004105942253
 20
2.5326701870179691
 30
0.0
 41
0.046875
 42
0.046875
 43
0.046875
 50
222.22478218143391
  0
POLYLINE
  5
13706
  8
0
  6
CONTINUOUS
 66
     1
 10
0.0
 20
0.0
 30
0.0
  0
VERTEX
  5
13AEF
  8
0
  6
CONTINUOUS
 10
0.784712003746515
 20
2.564172106417109
 30
0.0
  0
VERTEX
  5
13AF0
  8
0
  6
CONTINUOUS
 10
1.5311175519539111
 20
3.2415598401215671
 30
0.0
  0
VERTEX
  5
13AF1
  8
0
  6
CONTINUOUS
 10
1.6247289838881891
 20
3.241617746544192
 30
0.0
  0
SEQEND
  5
13AF2
  8
0
  6
CONTINUOUS
  0
ENDBLK
  5
1370C
  8
0
  0
BLOCK
  8
0
  2
*U38
 70
     1
 10
0.0
 20
0.0
 30
0.0
  3
*U38
  1

  0
TEXT
  5
1370E
  8
0
 10
1.683136214447533
 20
3.1788619484541512
 30
0.0
 40
0.125
  1
TL-551
  0
ENDBLK
  5
13710
  8
0
  0
BLOCK
  8
0
  2
*U39
 70
     1
 10
0.0
 20
0.0
 30
0.0
  3
*U39
  1

  0
INSERT
  5
13712
  8
0
  6
CONTINUOUS
  2
_OPEN30
 10
1.0473817572116091
 20
0.4967917735383482
 30
0.0
 41
0.046875
 42
0.046875
 43
0.046875
 50
212.67418530855349
  0
POLYLINE
  5
13713
  8
0
  6
CONTINUOUS
 66
     1
 10
0.0
 20
0.0
 30
0.0
  0
VERTEX
  5
13AF3
  8
0
  6
CONTINUOUS
 10
1.0868389807680281
 20
0.5220977636240739
 30
0.0
  0
VERTEX
  5
13AF4
  8
0
  6
CONTINUOUS
 10
1.478583989572938
 20
0.7733444154513336
 30
0.0
  0
VERTEX
  5
13AF5
  8
0
  6
CONTINUOUS
 10
1.535363721355395
 20
0.7733444154513336
 30
0.0
  0
SEQEND
  5
13AF6
  8
0
  6
CONTINUOUS
  0
ENDBLK
  5
13719
  8
0
  0
BLOCK
  8
0
  2
*U40
 70
     1
 10
0.0
 20
0.0
 30
0.0
  3
*U40
  1

  0
TEXT
  5
1371B
  8
0
 10
1.5937709519147401
 20
0.7105886173612928
 30
0.0
 40
0.125
  1
TL-127
  0
ENDBLK
  5
1371D
  8
0
  0
BLOCK
  8
0
  2
*U41
 70
     1
 10
0.0
 20
0.0
 30
0.0
  3
*U41
  1

  0
TEXT
  5
1371F
  8
0
 10
2.140945870967224
 20
2.686900987499369
 30
0.0
 40
0.125
  1
Base Board Assembly
  0
TEXT
  5
13720
  8
0
 10
2.149643006028616
 20
2.4780560579859552
 30
0.0
 40
0.125
  1
TL-682
  0
TEXT
  5
13721
  8
0
 10
2.1347214507762282
 20
2.2675910739022802
 30
0.0
 40
0.125
  1
1-1/16" x 7-3/8"
  0
TEXT
  5
13722
  8
0
 10
2.1466586949781381
 20
2.057126089818607
 30
0.0
 40
0.125
  1
800.66.TAGUE
  0
ENDBLK
  5
13724
  8
0
  0
BLOCK
  8
0
  2
*U42
 70
     1
 10
0.0
 20
0.0
 30
0.0
  3
*U42
  1

  0
TEXT
  5
13726
  8
0
 10
2.290801695922692
 20
2.6689022993974718
 30
0.0
 40
0.125
  1
Base Board Assembly
  0
TEXT
  5
13727
  8
0
 10
2.2994988309840831
 20
2.4600573698840562
 30
0.0
 40
0.125
  1
TL-683
  0
TEXT
  5
13728
  8
0
 10
2.2845772757316962
 20
2.249592385800383
 30
0.0
 40
0.125
  1
1-1/8" x 5-15/16"
  0
TEXT
  5
13729
  8
0
 10
2.2965145199336061
 20
2.039127401716708
 30
0.0
 40
0.125
  1
800.66.TAGUE
  0
ENDBLK
  5
1372B
  8
0
  0
BLOCK
  8
0
  2
*U43
 70
     1
 10
0.0
 20
0.0
 30
0.0
  3
*U43
  1

  0
INSERT
  5
1372D
  8
0
  6
CONTINUOUS
  2
_OPEN30
 10
1.12500054900903
 20
5.65624955358237
 30
0.0
 41
0.046875
 42
0.046875
 43
0.046875
 50
212.76268937863
  0
POLYLINE
  5
1372E
  8
0
  6
CONTINUOUS
 66
     1
 10
0.0
 20
0.0
 30
0.0
  0
VERTEX
  5
13AF7
  8
0
  6
CONTINUOUS
 10
1.1644186356627211
 20
5.6816164625300898
 30
0.0
  0
VERTEX
  5
13AF8
  8
0
  6
CONTINUOUS
 10
1.5566905795914741
 20
5.9340570939541522
 30
0.0
  0
VERTEX
  5
13AF9
  8
0
  6
CONTINUOUS
 10
1.625384535953855
 20
5.9340570939541522
 30
0.0
  0
SEQEND
  5
13AFA
  8
0
  6
CONTINUOUS
  0
ENDBLK
  5
13734
  8
0
  0
BLOCK
  8
0
  2
*U44
 70
     1
 10
0.0
 20
0.0
 30
0.0
  3
*U44
  1

  0
TEXT
  5
13736
  8
0
 10
1.6837917665132001
 20
5.8710454977740687
 30
0.0
 40
0.125
  1
TL-522
  0
ENDBLK
  5
13738
  8
0
  0
BLOCK
  8
0
  2
*U45
 70
     1
 10
0.0
 20
0.0
 30
0.0
  3
*U45
  1

  0
INSERT
  5
1373A
  8
0
  6
CONTINUOUS
  2
_OPEN30
 10
1.2500005459876871
 20
0.2499995505611423
 30
0.0
 41
0.046875
 42
0.046875
 43
0.046875
 50
202.31861548713121
  0
POLYLINE
  5
1373B
  8
0
  6
CONTINUOUS
 66
     1
 10
0.0
 20
0.0
 30
0.0
  0
VERTEX
  5
13AFB
  8
0
  6
CONTINUOUS
 10
1.293363970221912
 20
0.2678006478217807
 30
0.0
  0
VERTEX
  5
13AFC
  8
0
  6
CONTINUOUS
 10
2.1572010681318261
 20
0.6224139761923198
 30
0.0
  0
VERTEX
  5
13AFD
  8
0
  6
CONTINUOUS
 10
2.2687807536349842
 20
0.6262104660301021
 30
0.0
  0
SEQEND
  5
13AFE
  8
0
  6
CONTINUOUS
  0
ENDBLK
  5
13741
  8
0
  0
BLOCK
  8
0
  2
*U46
 70
     1
 10
0.0
 20
0.0
 30
0.0
  3
*U46
  1

  0
TEXT
  5
13743
  8
0
 10
2.327187984194329
 20
0.5634546679400611
 30
0.0
 40
0.125
  1
TL-126
  0
ENDBLK
  5
13745
  8
0
  0
BLOCK
  8
0
  2
*U47
 70
     1
 10
0.0
 20
0.0
 30
0.0
  3
*U47
  1

  0
INSERT
  5
13747
  8
0
  6
CONTINUOUS
  2
_OPEN30
 10
0.7500005490090304
 20
2.74999955358237
 30
0.0
 41
0.046875
 42
0.046875
 43
0.046875
 50
202.16313132933621
  0
POLYLINE
  5
13748
  8
0
  6
CONTINUOUS
 66
     1
 10
0.0
 20
0.0
 30
0.0
  0
VERTEX
  5
13AFF
  8
0
  6
CONTINUOUS
 10
0.7934121205394016
 20
2.7676829096626911
 30
0.0
  0
VERTEX
  5
13B00
  8
0
  6
CONTINUOUS
 10
1.4033563796629649
 20
3.0161388199879862
 30
0.0
  0
VERTEX
  5
13B01
  8
0
  6
CONTINUOUS
 10
1.4759478210543191
 20
3.0161388199879862
 30
0.0
  0
SEQEND
  5
13B02
  8
0
  6
CONTINUOUS
  0
ENDBLK
  5
1374E
  8
0
  0
BLOCK
  8
0
  2
*U48
 70
     1
 10
0.0
 20
0.0
 30
0.0
  3
*U48
  1

  0
TEXT
  5
13750
  8
0
 10
1.519433496361275
 20
2.953383021897944
 30
0.0
 40
0.125
  1
1 x 6
  0
ENDBLK
  5
13752
  8
0
  0
BLOCK
  8
0
  2
*U49
 70
     1
 10
0.0
 20
0.0
 30
0.0
  3
*U49
  1

  0
TEXT
  5
13754
  8
0
 10
2.7041372880336021
 20
3.3321152296135761
 30
0.0
 40
0.125
  1
Base Board Assembly
  0
TEXT
  5
13755
  8
0
 10
2.712834423094995
 20
3.1232703001001609
 30
0.0
 40
0.125
  1
TL-684
  0
TEXT
  5
13756
  8
0
 10
2.6979128678426072
 20
2.9128053160164882
 30
0.0
 40
0.125
  1
1-1/4" x 7-1/8"
  0
TEXT
  5
13757
  8
0
 10
2.7098501120445162
 20
2.7023403319328141
 30
0.0
 40
0.125
  1
800.66.TAGUE
  0
ENDBLK
  5
13759
  8
0
  0
BLOCK
  8
0
  2
*U50
 70
     1
 10
0.0
 20
0.0
 30
0.0
  3
*U50
  1

  0
INSERT
  5
1375B
  8
0
  6
CONTINUOUS
  2
_OPEN30
 10
0.7451914169819816
 20
2.7500006434855759
 30
0.0
 41
0.046875
 42
0.046875
 43
0.046875
 50
202.16313132933621
  0
POLYLINE
  5
1375C
  8
0
  6
CONTINUOUS
 66
     1
 10
0.0
 20
0.0
 30
0.0
  0
VERTEX
  5
13B03
  8
0
  6
CONTINUOUS
 10
0.7886029885123529
 20
2.7676839995658979
 30
0.0
  0
VERTEX
  5
13B04
  8
0
  6
CONTINUOUS
 10
1.3985472476359171
 20
3.016139909891193
 30
0.0
  0
VERTEX
  5
13B05
  8
0
  6
CONTINUOUS
 10
1.47113868902727
 20
3.016139909891193
 30
0.0
  0
SEQEND
  5
13B06
  8
0
  6
CONTINUOUS
  0
ENDBLK
  5
13762
  8
0
  0
BLOCK
  8
0
  2
*U51
 70
     1
 10
0.0
 20
0.0
 30
0.0
  3
*U51
  1

  0
TEXT
  5
13764
  8
0
 10
1.5146243643342281
 20
2.953384111801153
 30
0.0
 40
0.125
  1
1 x 6
  0
ENDBLK
  5
13766
  8
0
  0
BLOCK
  8
0
  2
*U52
 70
     1
 10
0.0
 20
0.0
 30
0.0
  3
*U52
  1

  0
INSERT
  5
13768
  8
0
  6
CONTINUOUS
  2
_OPEN30
 10
1.180191416981982
 20
0.4698936434855341
 30
0.0
 41
0.046875
 42
0.046875
 43
0.046875
 50
202.31861548713249
  0
POLYLINE
  5
13769
  8
0
  6
CONTINUOUS
 66
     1
 10
0.0
 20
0.0
 30
0.0
  0
VERTEX
  5
13B07
  8
0
  6
CONTINUOUS
 10
1.2235548412162061
 20
0.4876947407461734
 30
0.0
  0
VERTEX
  5
13B08
  8
0
  6
CONTINUOUS
 10
2.0873919391260629
 20
0.8423080691167115
 30
0.0
  0
VERTEX
  5
13B09
  8
0
  6
CONTINUOUS
 10
2.1989716246292801
 20
0.8461045589546075
 30
0.0
  0
SEQEND
  5
13B0A
  8
0
  6
CONTINUOUS
  0
ENDBLK
  5
1376F
  8
0
  0
BLOCK
  8
0
  2
*U53
 70
     1
 10
0.0
 20
0.0
 30
0.0
  3
*U53
  1

  0
TEXT
  5
13771
  8
0
 10
2.257378855188624
 20
0.7830929627745256
 30
0.0
 40
0.125
  1
TL-936
  0
ENDBLK
  5
13773
  8
0
  0
BLOCK
  8
0
  2
*U54
 70
     1
 10
0.0
 20
0.0
 30
0.0
  3
*U54
  1

  0
INSERT
  5
13775
  8
0
  6
CONTINUOUS
  2
_OPEN30
 10
1.114037035312434
 20
6.0172615651794086
 30
0.0
 41
0.046875
 42
0.046875
 43
0.046875
 50
212.76268937861931
  0
POLYLINE
  5
13776
  8
0
  6
CONTINUOUS
 66
     1
 10
0.0
 20
0.0
 30
0.0
  0
VERTEX
  5
13B0B
  8
0
  6
CONTINUOUS
 10
1.1534551219661311
 20
6.042628474127123
 30
0.0
  0
VERTEX
  5
13B0C
  8
0
  6
CONTINUOUS
 10
1.5457270658948801
 20
6.295069105551077
 30
0.0
  0
VERTEX
  5
13B0D
  8
0
  6
CONTINUOUS
 10
1.614421022257261
 20
6.295069105551077
 30
0.0
  0
SEQEND
  5
13B0E
  8
0
  6
CONTINUOUS
  0
ENDBLK
  5
1377C
  8
0
  0
BLOCK
  8
0
  2
*U55
 70
     1
 10
0.0
 20
0.0
 30
0.0
  3
*U55
  1

  0
TEXT
  5
1377E
  8
0
 10
1.6728282528166061
 20
6.2320575093709971
 30
0.0
 40
0.125
  1
TL-64
  0
ENDBLK
  5
13780
  8
0
  0
BLOCK
  8
0
  2
*U56
 70
     1
 10
0.0
 20
0.0
 30
0.0
  3
*U56
  1

  0
INSERT
  5
13782
  8
0
  2
_OPEN30
 10
0.7499984483362711
 20
3.323717158281283
 30
0.0
 41
0.046875
 42
0.046875
 43
0.046875
 50
223.3453603417224
  0
POLYLINE
  5
13783
  8
0
 66
     1
 10
0.0
 20
0.0
 30
0.0
  0
VERTEX
  5
13B0F
  8
0
 10
0.7840873347090377
 20
3.3558918913938438
 30
0.0
  0
VERTEX
  5
13B10
  8
0
 10
1.588620963404195
 20
4.1152494867193363
 30
0.0
  0
VERTEX
  5
13B11
  8
0
 10
1.696609421136031
 20
4.1152494867193363
 30
0.0
  0
SEQEND
  5
13B12
  8
0
  0
ENDBLK
  5
13789
  8
0
  0
BLOCK
  8
0
  2
*U57
 70
     1
 10
0.0
 20
0.0
 30
0.0
  3
*U57
  1

  0
TEXT
  5
1378B
  8
0
 10
1.755016651695376
 20
4.052237890539252
 30
0.0
 40
0.125
  1
TL-AB212
  0
ENDBLK
  5
1378D
  8
0
  0
BLOCK
  8
0
  2
*U58
 70
     1
 10
0.0
 20
0.0
 30
0.0
  3
*U58
  1

  0
INSERT
  5
1378F
  8
0
  2
_OPEN30
 10
1.044936595452554
 20
0.5089059855812366
 30
0.0
 41
0.046875
 42
0.046875
 43
0.046875
 50
218.32432662178419
  0
POLYLINE
  5
13790
  8
0
 66
     1
 10
0.0
 20
0.0
 30
0.0
  0
VERTEX
  5
13B13
  8
0
 10
1.0817106495577451
 20
0.5379737438310308
 30
0.0
  0
VERTEX
  5
13B14
  8
0
 10
1.6246171159814351
 20
0.967109837260182
 30
0.0
  0
VERTEX
  5
13B15
  8
0
 10
1.7056084592803691
 20
0.967109837260182
 30
0.0
  0
SEQEND
  5
13B16
  8
0
  0
ENDBLK
  5
13796
  8
0
  0
BLOCK
  8
0
  2
*U59
 70
     1
 10
0.0
 20
0.0
 30
0.0
  3
*U59
  1

  0
TEXT
  5
13798
  8
0
 10
1.764015689839713
 20
0.9043540391701407
 30
0.0
 40
0.125
  1
TL-AB027
  0
ENDBLK
  5
1379A
  8
0
  0
BLOCK
  8
0
  2
*U60
 70
     1
 10
0.0
 20
0.0
 30
0.0
  3
*U60
  1

  0
TEXT
  5
1379C
  8
0
 10
2.1745549234235391
 20
2.6225473309813192
 30
0.0
 40
0.125
  1
Base Board Assembly
  0
TEXT
  5
1379D
  8
0
 10
2.1832520584849302
 20
2.413702401467904
 30
0.0
 40
0.125
  1
TL-685
  0
TEXT
  5
1379E
  8
0
 10
2.168330503232542
 20
2.2032374173842282
 30
0.0
 40
0.125
  1
1-1/4" x 5-1/2"
  0
TEXT
  5
1379F
  8
0
 10
2.1802677474344518
 20
1.9927724333005541
 30
0.0
 40
0.125
  1
800.66.TAGUE
  0
ENDBLK
  5
137A1
  8
0
  0
BLOCK
  8
0
  2
*U61
 70
     1
 10
0.0
 20
0.0
 30
0.0
  3
*U61
  1

  0
INSERT
  5
137A3
  8
0
  2
_OPEN30
 10
1.2374037317955511
 20
0.7228374639378217
 30
0.0
 41
0.046875
 42
0.046875
 43
0.046875
 50
218.32432662178419
  0
POLYLINE
  5
137A4
  8
0
 66
     1
 10
0.0
 20
0.0
 30
0.0
  0
VERTEX
  5
13B17
  8
0
 10
1.2741777859007419
 20
0.7519052221876159
 30
0.0
  0
VERTEX
  5
13B18
  8
0
 10
1.817084252324433
 20
1.1810413156167661
 30
0.0
  0
VERTEX
  5
13B19
  8
0
 10
1.8980755956233659
 20
1.1810413156167661
 30
0.0
  0
SEQEND
  5
13B1A
  8
0
  0
ENDBLK
  5
137AA
  8
0
  0
BLOCK
  8
0
  2
*U62
 70
     1
 10
0.0
 20
0.0
 30
0.0
  3
*U62
  1

  0
TEXT
  5
137AC
  8
0
 10
1.9564828261827121
 20
1.1180297194366851
 30
0.0
 40
0.125
  1
TL-AB205-2
  0
ENDBLK
  5
137AE
  8
0
  0
BLOCK
  8
0
  2
*U63
 70
     1
 10
0.0
 20
0.0
 30
0.0
  3
*U63
  1

  0
INSERT
  5
137B0
  8
0
  2
_OPEN30
 10
0.7805394140341379
 20
3.428009497764946
 30
0.0
 41
0.046875
 42
0.046875
 43
0.046875
 50
223.3453603417224
  0
POLYLINE
  5
137B1
  8
0
 66
     1
 10
0.0
 20
0.0
 30
0.0
  0
VERTEX
  5
13B1B
  8
0
 10
0.8146283004069044
 20
3.4601842308775081
 30
0.0
  0
VERTEX
  5
13B1C
  8
0
 10
1.6191619291020609
 20
4.219541826202998
 30
0.0
  0
VERTEX
  5
13B1D
  8
0
 10
1.727150386833898
 20
4.219541826202998
 30
0.0
  0
SEQEND
  5
13B1E
  8
0
  0
ENDBLK
  5
137B7
  8
0
  0
BLOCK
  8
0
  2
*U64
 70
     1
 10
0.0
 20
0.0
 30
0.0
  3
*U64
  1

  0
TEXT
  5
137B9
  8
0
 10
1.785557617393243
 20
4.1565302300229172
 30
0.0
 40
0.125
  1
TL-AB205-1
  0
ENDBLK
  5
137BB
  8
0
  0
BLOCK
  8
0
  2
*U65
 70
     1
 10
0.0
 20
0.0
 30
0.0
  3
*U65
  1

  0
TEXT
  5
137BD
  8
0
 10
1.7754612827841161
 20
2.9617887573592721
 30
0.0
 40
0.125
  1
Base Board Assembly
  0
TEXT
  5
137BE
  8
0
 10
1.7841584178455081
 20
2.752943827845856
 30
0.0
 40
0.125
  1
TL-686
  0
TEXT
  5
137BF
  8
0
 10
1.7692368625931201
 20
2.542478843762181
 30
0.0
 40
0.125
  1
1-1/4" x 6"
  0
TEXT
  5
137C0
  8
0
 10
1.7811741067950311
 20
2.3320138596785069
 30
0.0
 40
0.125
  1
800.66.TAGUE
  0
ENDBLK
  5
137C2
  8
0
  0
BLOCK
  8
0
  2
*U66
 70
     1
 10
0.0
 20
0.0
 30
0.0
  3
*U66
  1

  0
TEXT
  5
137C4
  8
0
 10
1.8629812104003161
 20
1.3751718201384611
 30
0.0
 40
0.125
  1
Base Board
  0
TEXT
  5
137C5
  8
0
 10
1.8716783454617081
 20
1.166326890625045
 30
0.0
 40
0.125
  1
TL-540
  0
TEXT
  5
137C6
  8
0
 10
1.8567567902093201
 20
0.9558619065413724
 30
0.0
 40
0.125
  1
1-1/16" x 1-7/8"
  0
TEXT
  5
137C7
  8
0
 10
1.8686940344112311
 20
0.745396922457698
 30
0.0
 40
0.125
  1
800.66.TAGUE
  0
ENDBLK
  5
137C9
  8
0
  0
BLOCK
  8
0
  2
*U67
 70
     1
 10
0.0
 20
0.0
 30
0.0
  3
*U67
  1

  0
TEXT
  5
137CB
  8
0
 10
2.095166123738732
 20
2.843700788541923
 30
0.0
 40
0.125
  1
Base Board
  0
TEXT
  5
137CC
  8
0
 10
2.1038632588001231
 20
2.6348558590285069
 30
0.0
 40
0.125
  1
TL-541
  0
TEXT
  5
137CD
  8
0
 10
2.0889417035477349
 20
2.424390874944832
 30
0.0
 40
0.125
  1
1-5/16" x 5-1/8"
  0
TEXT
  5
137CE
  8
0
 10
2.1008789477496461
 20
2.2139258908611592
 30
0.0
 40
0.125
  1
800.66.TAGUE
  0
ENDBLK
  5
137D0
  8
0
  0
BLOCK
  8
0
  2
*U68
 70
     1
 10
0.0
 20
0.0
 30
0.0
  3
*U68
  1

  0
TEXT
  5
137D2
  8
0
 10
1.3029084100507851
 20
2.5127676930541152
 30
0.0
 40
0.125
  1
Base Board
  0
TEXT
  5
137D3
  8
0
 10
1.3116055451121771
 20
2.3039227635407
 30
0.0
 40
0.125
  1
TL-36
  0
TEXT
  5
137D4
  8
0
 10
1.308450702001672
 20
2.093457779457025
 30
0.0
 40
0.125
  1
9/16" x 5-1/16"
  0
TEXT
  5
137D5
  8
0
 10
1.3086212340617001
 20
1.8829927953733501
 30
0.0
 40
0.125
  1
800.66.TAGUE
  0
ENDBLK
  5
137D7
  8
0
  0
BLOCK
  8
0
  2
*U69
 70
     1
 10
0.0
 20
0.0
 30
0.0
  3
*U69
  1

  0
TEXT
  5
137D9
  8
0
 10
1.1612344098374301
 20
2.1628857347385511
 30
0.0
 40
0.125
  1
Base Board
  0
TEXT
  5
137DA
  8
0
 10
1.169931544898821
 20
1.954040805225135
 30
0.0
 40
0.125
  1
TL-543
  0
TEXT
  5
137DB
  8
0
 10
1.1667767017883151
 20
1.743575821141462
 30
0.0
 40
0.125
  1
9/16" x 4-3/16"
  0
TEXT
  5
137DC
  8
0
 10
1.1669472338483431
 20
1.5331108370577871
 30
0.0
 40
0.125
  1
800.66.TAGUE
  0
ENDBLK
  5
137DE
  8
0
  0
BLOCK
  8
0
  2
*U70
 70
     1
 10
0.0
 20
0.0
 30
0.0
  3
*U70
  1

  0
TEXT
  5
137E0
  8
0
 10
1.0389926042141531
 20
2.7540114932149882
 30
0.0
 40
0.125
  1
Base Board
  0
TEXT
  5
137E1
  8
0
 10
1.0476897392755451
 20
2.545166563701573
 30
0.0
 40
0.125
  1
TL-618
  0
TEXT
  5
137E2
  8
0
 10
1.04453489616504
 20
2.334701579617898
 30
0.0
 40
0.125
  1
9/16" x 5-1/4"
  0
TEXT
  5
137E3
  8
0
 10
1.0447054282250681
 20
2.1242365955342239
 30
0.0
 40
0.125
  1
800.66.TAGUE
  0
ENDBLK
  5
137E5
  8
0
  0
BLOCK
  8
0
  2
*U71
 70
     1
 10
0.0
 20
0.0
 30
0.0
  3
*U71
  1

  0
TEXT
  5
137E7
  8
0
 10
1.182401194441109
 20
1.8197662144376621
 30
0.0
 40
0.125
  1
Base Board
  0
TEXT
  5
137E8
  8
0
 10
1.1910983295024991
 20
1.610921284924248
 30
0.0
 40
0.125
  1
TL-623
  0
TEXT
  5
137E9
  8
0
 10
1.1879434863919951
 20
1.400456300840573
 30
0.0
 40
0.125
  1
9/16" x 3-1/2"
  0
TEXT
  5
137EA
  8
0
 10
1.188114018452022
 20
1.189991316756899
 30
0.0
 40
0.125
  1
800.66.TAGUE
  0
ENDBLK
  5
137EC
  8
0
  0
BLOCK
  8
0
  2
*U72
 70
     1
 10
0.0
 20
0.0
 30
0.0
  3
*U72
  1

  0
TEXT
  5
137EE
  8
0
 10
1.3006541594338421
 20
1.8847821192226759
 30
0.0
 40
0.125
  1
Base Board
  0
TEXT
  5
137EF
  8
0
 10
1.309351294495235
 20
1.6759371897092621
 30
0.0
 40
0.125
  1
TL-713
  0
TEXT
  5
137F0
  8
0
 10
1.3061964513847291
 20
1.4654722056255871
 30
0.0
 40
0.125
  1
9/16" x 3-1/4"
  0
TEXT
  5
137F1
  8
0
 10
1.3063669834447571
 20
1.255007221541913
 30
0.0
 40
0.125
  1
800.66.TAGUE
  0
ENDBLK
  5
137F3
  8
0
  0
BLOCK
  8
0
  2
*U73
 70
     1
 10
0.0
 20
0.0
 30
0.0
  3
*U73
  1

  0
TEXT
  5
137F5
  8
0
 10
1.596860576238422
 20
3.9529851600731249
 30
0.0
 40
0.125
  1
Base Board
  0
TEXT
  5
137F6
  8
0
 10
1.6055577112998141
 20
3.7441402305597111
 30
0.0
 40
0.125
  1
TL-602
  0
TEXT
  5
137F7
  8
0
 10
1.6023176021592951
 20
3.5336752464760361
 30
0.0
 40
0.125
  1
3/4" x 9-1/4"
  0
TEXT
  5
137F8
  8
0
 10
1.602573400249337
 20
3.3232102623923621
 30
0.0
 40
0.125
  1
800.66.TAGUE
  0
ENDBLK
  5
137FA
  8
0
  0
BLOCK
  8
0
  2
*U74
 70
     1
 10
0.0
 20
0.0
 30
0.0
  3
*U74
  1

  0
TEXT
  5
137FC
  8
0
 10
1.5242468874625761
 20
2.1988362265429942
 30
0.0
 40
0.125
  1
Base Board
  0
TEXT
  5
137FD
  8
0
 10
1.532944022523969
 20
1.989991297029579
 30
0.0
 40
0.125
  1
TL-603
  0
TEXT
  5
137FE
  8
0
 10
1.52970391338345
 20
1.779526312945904
 30
0.0
 40
0.125
  1
3/4" x 4-1/2"
  0
TEXT
  5
137FF
  8
0
 10
1.5299597114734911
 20
1.569061328862229
 30
0.0
 40
0.125
  1
800.66.TAGUE
  0
ENDBLK
  5
13801
  8
0
  0
BLOCK
  8
0
  2
*U75
 70
     1
 10
0.0
 20
0.0
 30
0.0
  3
*U75
  1

  0
TEXT
  5
13803
  8
0
 10
1.222563432627662
 20
2.8332029065544471
 30
0.0
 40
0.125
  1
Base Board
  0
TEXT
  5
13804
  8
0
 10
1.231260567689054
 20
2.624357977041031
 30
0.0
 40
0.125
  1
TL-2143
  0
TEXT
  5
13805
  8
0
 10
1.228020458548535
 20
2.413892992957356
 30
0.0
 40
0.125
  1
3/4" x 5-1/4"
  0
TEXT
  5
13806
  8
0
 10
1.2282762566385761
 20
2.203428008873682
 30
0.0
 40
0.125
  1
800.66.TAGUE
  0
ENDBLK
  5
13808
  8
0
  0
BLOCK
  8
0
  2
*U76
 70
     1
 10
0.0
 20
0.0
 30
0.0
  3
*U76
  1

  0
TEXT
  5
1380A
  8
0
 10
1.4052724715303191
 20
2.9709364495405439
 30
0.0
 40
0.125
  1
Base Board
  0
TEXT
  5
1380B
  8
0
 10
1.41396960659171
 20
2.7620915200271301
 30
0.0
 40
0.125
  1
TL-2001
  0
TEXT
  5
1380C
  8
0
 10
1.410729497451193
 20
2.5516265359434551
 30
0.0
 40
0.125
  1
3/4" x 7-1/4"
  0
TEXT
  5
1380D
  8
0
 10
1.4109852955412341
 20
2.341161551859781
 30
0.0
 40
0.125
  1
800.66.TAGUE
  0
ENDBLK
  5
1380F
  8
0
  0
BLOCK
  8
0
  2
*U77
 70
     1
 10
0.0
 20
0.0
 30
0.0
  3
*U77
  1

  0
TEXT
  5
13811
  8
0
 10
1.28063331752558
 20
2.708157252507247
 30
0.0
 40
0.125
  1
Base Board
  0
TEXT
  5
13812
  8
0
 10
1.2893304525869711
 20
2.4993123229938319
 30
0.0
 40
0.125
  1
TL-2022
  0
TEXT
  5
13813
  8
0
 10
1.286090343446453
 20
2.2888473389101591
 30
0.0
 40
0.125
  1
3/4" x 5-1/2"
  0
TEXT
  5
13814
  8
0
 10
1.2863461415364941
 20
2.078382354826485
 30
0.0
 40
0.125
  1
800.66.TAGUE
  0
ENDBLK
  5
13816
  8
0
  0
BLOCK
  8
0
  2
*U78
 70
     1
 10
0.0
 20
0.0
 30
0.0
  3
*U78
  1

  0
TEXT
  5
13818
  8
0
 10
1.326144608285839
 20
3.4366400904110601
 30
0.0
 40
0.125
  1
Base Board
  0
TEXT
  5
13819
  8
0
 10
1.334841743347231
 20
3.2277951608976441
 30
0.0
 40
0.125
  1
TL-2153
  0
TEXT
  5
1381A
  8
0
 10
1.333818550987067
 20
3.01733017681397
 30
0.0
 40
0.125
  1
27/32" x 7-1/4"
  0
TEXT
  5
1381B
  8
0
 10
1.331857432296754
 20
2.806865192730295
 30
0.0
 40
0.125
  1
800.66.TAGUE
  0
ENDBLK
  5
1381D
  8
0
  0
BLOCK
  8
0
  2
*U79
 70
     1
 10
0.0
 20
0.0
 30
0.0
  3
*U79
  1

  0
TEXT
  5
1381F
  8
0
 10
1.5034896156883899
 20
2.5863204410039762
 30
0.0
 40
0.125
  1
Base Board
  0
TEXT
  5
13820
  8
0
 10
1.512186750749781
 20
2.377475511490561
 30
0.0
 40
0.125
  1
TL-2165
  0
TEXT
  5
13821
  8
0
 10
1.5080087152791131
 20
2.167010527406886
 30
0.0
 40
0.125
  1
7/8" x 6"
  0
TEXT
  5
13822
  8
0
 10
1.5092024396993029
 20
1.956545543323212
 30
0.0
 40
0.125
  1
800.66.TAGUE
  0
ENDBLK
  5
13824
  8
0
  0
BLOCK
  8
0
  2
*U80
 70
     1
 10
0.0
 20
0.0
 30
0.0
  3
*U80
  1

  0
TEXT
  5
13826
  8
0
 10
1.5064754642446401
 20
2.3208047060226118
 30
0.0
 40
0.125
  1
Base Board
  0
TEXT
  5
13827
  8
0
 10
1.5151725993060321
 20
2.111959776509198
 30
0.0
 40
0.125
  1
TL-2189
  0
TEXT
  5
13828
  8
0
 10
1.511932490165514
 20
1.9014947924255221
 30
0.0
 40
0.125
  1
3/4" x 4-7/8"
  0
TEXT
  5
13829
  8
0
 10
1.5121882882555531
 20
1.691029808341848
 30
0.0
 40
0.125
  1
800.66.TAGUE
  0
ENDBLK
  5
1382B
  8
0
  0
BLOCK
  8
0
  2
*U81
 70
     1
 10
0.0
 20
0.0
 30
0.0
  3
*U81
  1

  0
TEXT
  5
1382D
  8
0
 10
1.5484003356425351
 20
1.277467791325875
 30
0.0
 40
0.125
  1
Base Board
  0
TEXT
  5
1382E
  8
0
 10
1.557097470703928
 20
1.06862286181246
 30
0.0
 40
0.125
  1
TL-550
  0
TEXT
  5
1382F
  8
0
 10
1.553857361563409
 20
0.8581578777287857
 30
0.0
 40
0.125
  1
3/4" x 2-3/16"
  0
TEXT
  5
13830
  8
0
 10
1.5541131596534501
 20
0.6476928936451118
 30
0.0
 40
0.125
  1
800.66.TAGUE
  0
ENDBLK
  5
13832
  8
0
  0
BLOCK
  8
0
  2
*U82
 70
     1
 10
0.0
 20
0.0
 30
0.0
  3
*U82
  1

  0
TEXT
  5
13834
  8
0
 10
1.288066291210707
 20
2.813958604730145
 30
0.0
 40
0.125
  1
Base Board
  0
TEXT
  5
13835
  8
0
 10
1.2967634262720991
 20
2.6051136752167312
 30
0.0
 40
0.125
  1
TL-551
  0
TEXT
  5
13836
  8
0
 10
1.2935233171315801
 20
2.3946486911330549
 30
0.0
 40
0.125
  1
3/4" x 5-1/2"
  0
TEXT
  5
13837
  8
0
 10
1.29377911522162
 20
2.1841837070493821
 30
0.0
 40
0.125
  1
800.66.TAGUE
  0
ENDBLK
  5
13839
  8
0
  0
BLOCK
  8
0
  2
*U83
 70
     1
 10
0.0
 20
0.0
 30
0.0
  3
*U83
  1

  0
TEXT
  5
1383B
  8
0
 10
1.815994842162107
 20
3.2870887232147639
 30
0.0
 40
0.125
  1
Base Board
  0
TEXT
  5
1383C
  8
0
 10
1.8246919772234991
 20
3.07824379370135
 30
0.0
 40
0.125
  1
TL-2231
  0
TEXT
  5
1383D
  8
0
 10
1.8205139417528311
 20
2.8677788096176751
 30
0.0
 40
0.125
  1
7/8" x 6-3/8"
  0
TEXT
  5
1383E
  8
0
 10
1.821707666173022
 20
2.6573138255340001
 30
0.0
 40
0.125
  1
800.66.TAGUE
  0
ENDBLK
  5
13840
  8
0
  0
BLOCK
  8
0
  2
*U84
 70
     1
 10
0.0
 20
0.0
 30
0.0
  3
*U84
  1

  0
TEXT
  5
13842
  8
0
 10
1.7840861461196289
 20
2.2765211976219462
 30
0.0
 40
0.125
  1
Base Board
  0
TEXT
  5
13843
  8
0
 10
1.79278328118102
 20
2.067676268108531
 30
0.0
 40
0.125
  1
TL-2266
  0
TEXT
  5
13844
  8
0
 10
1.7895431720405031
 20
1.857211284024856
 30
0.0
 40
0.125
  1
3/4" x 5-1/2"
  0
TEXT
  5
13845
  8
0
 10
1.789798970130543
 20
1.646746299941181
 30
0.0
 40
0.125
  1
800.66.TAGUE
  0
ENDBLK
  5
13847
  8
0
  0
BLOCK
  8
0
  2
*U85
 70
     1
 10
0.0
 20
0.0
 30
0.0
  3
*U85
  1

  0
TEXT
  5
13849
  8
0
 10
1.6156709723986571
 20
2.0615835911685281
 30
0.0
 40
0.125
  1
Base Board
  0
TEXT
  5
1384A
  8
0
 10
1.624368107460048
 20
1.852738661655112
 30
0.0
 40
0.125
  1
TL-2284
  0
TEXT
  5
1384B
  8
0
 10
1.6233278618938809
 20
1.679995369249472
 30
0.0
 40
0.0875
  1
3
  0
LINE
  5
1384C
  8
0
 10
1.650155044222487
 20
1.6083195653741871
 30
0.0
 11
1.7505309205839199
 21
1.7516711731247601
 31
0.0
  0
TEXT
  5
1384D
  8
0
 10
1.7133744739902881
 20
1.5633287025828071
 30
0.0
 40
0.0875
  1
4
  0
TEXT
  5
1384E
  8
0
 10
1.7812973934991561
 20
1.592495369249473
 30
0.0
 40
0.125
  1
" x 4"
  0
TEXT
  5
1384F
  8
0
 10
1.621383796409571
 20
1.4236970518324661
 30
0.0
 40
0.125
  1
800.66.TAGUE
  0
ENDBLK
  5
13851
  8
0
  0
BLOCK
  8
0
  2
*U86
 70
     1
 10
0.0
 20
0.0
 30
0.0
  3
*U86
  1

  0
TEXT
  5
13853
  8
0
 10
1.985809015314014
 20
3.242085968238142
 30
0.0
 40
0.125
  1
Base Board
  0
TEXT
  5
13854
  8
0
 10
1.994506150375404
 20
3.0332410387247282
 30
0.0
 40
0.125
  1
TL-2312
  0
TEXT
  5
13855
  8
0
 10
1.991266041234887
 20
2.8227760546410519
 30
0.0
 40
0.125
  1
3/4" x 5-1/2"
  0
TEXT
  5
13856
  8
0
 10
1.9915218393249281
 20
2.6123110705573791
 30
0.0
 40
0.125
  1
800.66.TAGUE
  0
ENDBLK
  5
13858
  8
0
  0
BLOCK
  8
0
  2
*U87
 70
     1
 10
0.0
 20
0.0
 30
0.0
  3
*U87
  1

  0
TEXT
  5
1385A
  8
0
 10
1.59046254363822
 20
1.1873431711255911
 30
0.0
 40
0.125
  1
Base Cap
  0
TEXT
  5
1385B
  8
0
 10
1.5991596786996121
 20
0.9784982416121772
 30
0.0
 40
0.125
  1
TL-19
  0
TEXT
  5
1385C
  8
0
 10
1.5959195695590931
 20
0.7680332575285026
 30
0.0
 40
0.125
  1
3/4" x 1-11/16"
  0
TEXT
  5
1385D
  8
0
 10
1.596175367649133
 20
0.5575682734448283
 30
0.0
 40
0.125
  1
800.66.TAGUE
  0
ENDBLK
  5
1385F
  8
0
  0
BLOCK
  8
0
  2
*U88
 70
     1
 10
0.0
 20
0.0
 30
0.0
  3
*U88
  1

  0
TEXT
  5
13861
  8
0
 10
1.42534307141265
 20
0.9125752017053104
 30
0.0
 40
0.125
  1
Base Cap
  0
TEXT
  5
13862
  8
0
 10
1.4340402064740421
 20
0.7037302721918956
 30
0.0
 40
0.125
  1
TL-163
  0
TEXT
  5
13863
  8
0
 10
1.419118651221654
 20
0.493265288108221
 30
0.0
 40
0.125
  1
11/16" x 1-3/8"
  0
TEXT
  5
13864
  8
0
 10
1.4310558954235639
 20
0.2828003040245466
 30
0.0
 40
0.125
  1
800.66.TAGUE
  0
ENDBLK
  5
13866
  8
0
  0
BLOCK
  8
0
  2
*U89
 70
     1
 10
0.0
 20
0.0
 30
0.0
  3
*U89
  1

  0
TEXT
  5
13868
  8
0
 10
1.7853447687182711
 20
1.1621738476285519
 30
0.0
 40
0.125
  1
Base Cap
  0
TEXT
  5
13869
  8
0
 10
1.7940419037796611
 20
0.953328918115138
 30
0.0
 40
0.125
  1
TL-215
  0
TEXT
  5
1386A
  8
0
 10
1.789863868308994
 20
0.7428639340314637
 30
0.0
 40
0.125
  1
7/8" x 1-15/16"
  0
TEXT
  5
1386B
  8
0
 10
1.791057592729185
 20
0.5323989499477893
 30
0.0
 40
0.125
  1
800.66.TAGUE
  0
ENDBLK
  5
1386D
  8
0
  0
BLOCK
  8
0
  2
*U90
 70
     1
 10
0.0
 20
0.0
 30
0.0
  3
*U90
  1

  0
TEXT
  5
1386F
  8
0
 10
1.5358763075020461
 20
8.1022165940801347
 30
0.0
 40
0.125
  1
Base Cap
  0
TEXT
  5
13870
  8
0
 10
1.5445734425634381
 20
7.8933716645667191
 30
0.0
 40
0.125
  1
TL-230
  0
TEXT
  5
13871
  8
0
 10
1.540395407092769
 20
7.6829066804830441
 30
0.0
 40
0.125
  1
7/8" x 1-15/16"
  0
TEXT
  5
13872
  8
0
 10
1.5415891315129591
 20
7.4724416963993692
 30
0.0
 40
0.125
  1
800.66.TAGUE
  0
ENDBLK
  5
13874
  8
0
  0
BLOCK
  8
0
  2
*U91
 70
     1
 10
0.0
 20
0.0
 30
0.0
  3
*U91
  1

  0
TEXT
  5
13876
  8
0
 10
1.6109911707451761
 20
1.1802564575659891
 30
0.0
 40
0.125
  1
Base Cap
  0
TEXT
  5
13877
  8
0
 10
1.6196883058065661
 20
0.9714115280525753
 30
0.0
 40
0.125
  1
TL-406
  0
TEXT
  5
13878
  8
0
 10
1.615510270335899
 20
0.7609465439689008
 30
0.0
 40
0.125
  1
7/8" x 1-11/16"
  0
TEXT
  5
13879
  8
0
 10
1.6167039947560891
 20
0.5504815598852266
 30
0.0
 40
0.125
  1
800.66.TAGUE
  0
ENDBLK
  5
1387B
  8
0
  0
BLOCK
  8
0
  2
*U92
 70
     1
 10
0.0
 20
0.0
 30
0.0
  3
*U92
  1

  0
TEXT
  5
1387D
  8
0
 10
1.322001327344235
 20
1.081186133431872
 30
0.0
 40
0.125
  1
Base Cap
  0
TEXT
  5
1387E
  8
0
 10
1.3306984624056251
 20
0.8723412039184573
 30
0.0
 40
0.125
  1
TL-314
  0
TEXT
  5
1387F
  8
0
 10
1.3274583532651081
 20
0.661876219834783
 30
0.0
 40
0.125
  1
3/4" x 1-3/8"
  0
TEXT
  5
13880
  8
0
 10
1.327714151355148
 20
0.4514112357511085
 30
0.0
 40
0.125
  1
800.66.TAGUE
  0
ENDBLK
  5
13882
  8
0
  0
BLOCK
  8
0
  2
*U93
 70
     1
 10
0.0
 20
0.0
 30
0.0
  3
*U93
  1

  0
TEXT
  5
13884
  8
0
 10
1.545356558052088
 20
0.8011638535049475
 30
0.0
 40
0.125
  1
Base Cap
  0
TEXT
  5
13885
  8
0
 10
1.554053693113479
 20
0.5923189239915323
 30
0.0
 40
0.125
  1
TL-2021
  0
TEXT
  5
13886
  8
0
 10
1.5498756576428101
 20
0.3818539399078579
 30
0.0
 40
0.125
  1
7/8" x 1"
  0
TEXT
  5
13887
  8
0
 10
1.551069382063001
 20
0.1713889558241834
 30
0.0
 40
0.125
  1
800.66.TAGUE
  0
ENDBLK
  5
13889
  8
0
  0
BLOCK
  8
0
  2
*U94
 70
     1
 10
0.0
 20
0.0
 30
0.0
  3
*U94
  1

  0
TEXT
  5
1388B
  8
0
 10
1.849024073205253
 20
1.5528393621607539
 30
0.0
 40
0.125
  1
Base Cap
  0
TEXT
  5
1388C
  8
0
 10
1.8577212082666441
 20
1.3439944326473401
 30
0.0
 40
0.125
  1
TL-2025
  0
TEXT
  5
1388D
  8
0
 10
1.842799653014257
 20
1.1335294485636651
 30
0.0
 40
0.125
  1
1-1/4" x 2"
  0
TEXT
  5
1388E
  8
0
 10
1.8547368972161671
 20
0.9230644644799912
 30
0.0
 40
0.125
  1
800.66.TAGUE
  0
ENDBLK
  5
13890
  8
0
  0
BLOCK
  8
0
  2
*U95
 70
     1
 10
0.0
 20
0.0
 30
0.0
  3
*U95
  1

  0
TEXT
  5
13892
  8
0
 10
1.3718096514217371
 20
1.063337005096415
 30
0.0
 40
0.125
  1
Base Cap
  0
TEXT
  5
13893
  8
0
 10
1.3805067864831291
 20
0.8544920755830013
 30
0.0
 40
0.125
  1
TL-2085
  0
TEXT
  5
13894
  8
0
 10
1.3772666773426101
 20
0.6440270914993268
 30
0.0
 40
0.125
  1
3/4" x 1-5/16"
  0
TEXT
  5
13895
  8
0
 10
1.377522475432652
 20
0.4335621074156525
 30
0.0
 40
0.125
  1
800.66.TAGUE
  0
ENDBLK
  5
13897
  8
0
  0
BLOCK
  8
0
  2
*U96
 70
     1
 10
0.0
 20
0.0
 30
0.0
  3
*U96
  1

  0
TEXT
  5
13899
  8
0
 10
1.4648857868470859
 20
0.8118267597790396
 30
0.0
 40
0.125
  1
Base Cap
  0
TEXT
  5
1389A
  8
0
 10
1.4735829219084791
 20
0.6029818302656245
 30
0.0
 40
0.125
  1
TL-2147
  0
TEXT
  5
1389B
  8
0
 10
1.4703428127679601
 20
0.39251684618195
 30
0.0
 40
0.125
  1
3/4" x 1-1/4"
  0
TEXT
  5
1389C
  8
0
 10
1.470598610858
 20
0.1820518620982756
 30
0.0
 40
0.125
  1
800.66.TAGUE
  0
ENDBLK
  5
1389E
  8
0
  0
BLOCK
  8
0
  2
*U97
 70
     1
 10
0.0
 20
0.0
 30
0.0
  3
*U97
  1

  0
TEXT
  5
138A0
  8
0
 10
1.771984131257607
 20
0.8092216071741107
 30
0.0
 40
0.125
  1
Base Cap
  0
TEXT
  5
138A1
  8
0
 10
1.780681266318997
 20
0.6003766776606958
 30
0.0
 40
0.125
  1
TL-2086
  0
TEXT
  5
138A2
  8
0
 10
1.7774411571784801
 20
0.3899116935770214
 30
0.0
 40
0.125
  1
3/4" x 1-1/4"
  0
TEXT
  5
138A3
  8
0
 10
1.77769695526852
 20
0.179446709493347
 30
0.0
 40
0.125
  1
800.66.TAGUE
  0
ENDBLK
  5
138A5
  8
0
  0
BLOCK
  8
0
  2
*U98
 70
     1
 10
0.0
 20
0.0
 30
0.0
  3
*U98
  1

  0
TEXT
  5
138A7
  8
0
 10
1.588599739224529
 20
0.7688960449700222
 30
0.0
 40
0.125
  1
Base Cap
  0
TEXT
  5
138A8
  8
0
 10
1.597296874285921
 20
0.5600511154566071
 30
0.0
 40
0.125
  1
TL-2140
  0
TEXT
  5
138A9
  8
0
 10
1.5941420311754171
 20
0.3495861313729326
 30
0.0
 40
0.125
  1
5/8" x 1-1/8"
  0
TEXT
  5
138AA
  8
0
 10
1.594312563235444
 20
0.1391211472892582
 30
0.0
 40
0.125
  1
800.66.TAGUE
  0
ENDBLK
  5
138AC
  8
0
  0
BLOCK
  8
0
  2
*U99
 70
     1
 10
0.0
 20
0.0
 30
0.0
  3
*U99
  1

  0
TEXT
  5
138AE
  8
0
 10
1.5998007125518059
 20
0.7455601950585038
 30
0.0
 40
0.125
  1
Base Cap
  0
TEXT
  5
138AF
  8
0
 10
1.608497847613199
 20
0.5367152655450888
 30
0.0
 40
0.125
  1
TL-2177
  0
TEXT
  5
138B0
  8
0
 10
1.5935762923608101
 20
0.3262502814614142
 30
0.0
 40
0.125
  1
11/16" x 13/16"
  0
TEXT
  5
138B1
  8
0
 10
1.6055135365627211
 20
0.1157852973777398
 30
0.0
 40
0.125
  1
800.66.TAGUE
  0
ENDBLK
  5
138B3
  8
0
  0
BLOCK
  8
0
  2
*U100
 70
     1
 10
0.0
 20
0.0
 30
0.0
  3
*U100
  1

  0
TEXT
  5
138B5
  8
0
 10
1.4091214971528341
 20
1.1006653052163671
 30
0.0
 40
0.125
  1
Base Cap
  0
TEXT
  5
138B6
  8
0
 10
1.4178186322142261
 20
0.8918203757029537
 30
0.0
 40
0.125
  1
TL-2223
  0
TEXT
  5
138B7
  8
0
 10
1.4167954398540621
 20
0.6813553916192793
 30
0.0
 40
0.125
  1
23/32" x 1-21/32"
  0
TEXT
  5
138B8
  8
0
 10
1.4148343211637491
 20
0.4708904075356049
 30
0.0
 40
0.125
  1
800.66.TAGUE
  0
ENDBLK
  5
138BA
  8
0
  0
BLOCK
  8
0
  2
*U101
 70
     1
 10
0.0
 20
0.0
 30
0.0
  3
*U101
  1

  0
TEXT
  5
138BC
  8
0
 10
-384.50886274454058
 20
840.77719205464484
 30
0.0
 40
0.125
  1
Base Cap
  0
TEXT
  5
138BD
  8
0
 10
-384.50016560947921
 20
840.56834712513125
 30
0.0
 40
0.125
  1
TL-2223
  0
TEXT
  5
138BE
  8
0
 10
-384.50118880183942
 20
840.35788214104764
 30
0.0
 40
0.125
  1
23/32" x 1-21/32"
  0
TEXT
  5
138BF
  8
0
 10
-384.50314992052972
 20
840.1474171569638
 30
0.0
 40
0.125
  1
800.66.TAGUE
  0
ENDBLK
  5
138C1
  8
0
  0
ENDSEC
  0
SECTION
  2
ENTITIES
  0
INSERT
  5
13610
  8
0
  2
*U101
 10
0.0
 20
0.0
 30
0.0
  0
ARC
  5
13611
  8
0
 10
-385.37056287452577
 20
839.91540776101715
 30
0.0
 40
0.1773485942611187
 50
287.86989143468298
 51
81.771699475245796
  0
POLYLINE
  5
138C2
  8
0
 66
     1
 10
0.0
 20
0.0
 30
0.0
 70
     8
  0
VERTEX
  5
138C3
  8
0
 10
-385.53800000000001
 20
840.76699999999994
 30
0.0
 70
    32
  0
VERTEX
  5
138C4
  8
0
 10
-385.54000000000002
 20
840.76600000000008
 30
0.0
 70
    32
  0
VERTEX
  5
138C5
  8
0
 10
-385.54300000000001
 20
840.76399999999978
 30
0.0
 70
    32
  0
VERTEX
  5
138C6
  8
0
 10
-385.54500000000002
 20
840.76300000000015
 30
0.0
 70
    32
  0
VERTEX
  5
138C7
  8
0
 10
-385.548
 20
840.76199999999994
 30
0.0
 70
    32
  0
VERTEX
  5
138C8
  8
0
 10
-385.55000000000001
 20
840.76100000000008
 30
0.0
 70
    32
  0
VERTEX
  5
138C9
  8
0
 10
-385.55300000000011
 20
840.7589999999999
 30
0.0
 70
    32
  0
VERTEX
  5
138CA
  8
0
 10
-385.55500000000001
 20
840.75800000000015
 30
0.0
 70
    32
  0
VERTEX
  5
138CB
  8
0
 10
-385.55800000000011
 20
840.75699999999995
 30
0.0
 70
    32
  0
VERTEX
  5
138CC
  8
0
 10
-385.56
 20
840.755
 30
0.0
 70
    32
  0
VERTEX
  5
138CD
  8
0
 10
-385.5630000000001
 20
840.75399999999991
 30
0.0
 70
    32
  0
VERTEX
  5
138CE
  8
0
 10
-385.565
 20
840.75199999999995
 30
0.0
 70
    32
  0
VERTEX
  5
138CF
  8
0
 10
-385.56699999999989
 20
840.75099999999998
 30
0.0
 70
    32
  0
VERTEX
  5
138D0
  8
0
 10
-385.56999999999999
 20
840.74899999999991
 30
0.0
 70
    32
  0
VERTEX
  5
138D1
  8
0
 10
-385.57199999999989
 20
840.74699999999984
 30
0.0
 70
    32
  0
VERTEX
  5
138D2
  8
0
 10
-385.57400000000001
 20
840.74599999999998
 30
0.0
 70
    32
  0
VERTEX
  5
138D3
  8
0
 10
-385.577
 20
840.74399999999991
 30
0.0
 70
    32
  0
VERTEX
  5
138D4
  8
0
 10
-385.57900000000001
 20
840.74199999999996
 30
0.0
 70
    32
  0
VERTEX
  5
138D5
  8
0
 10
-385.5809999999999
 20
840.74099999999999
 30
0.0
 70
    32
  0
VERTEX
  5
138D6
  8
0
 10
-385.58300000000003
 20
840.73899999999992
 30
0.0
 70
    32
  0
VERTEX
  5
138D7
  8
0
 10
-385.58499999999998
 20
840.73699999999997
 30
0.0
 70
    32
  0
VERTEX
  5
138D8
  8
0
 10
-385.58699999999999
 20
840.73500000000001
 30
0.0
 70
    32
  0
VERTEX
  5
138D9
  8
0
 10
-385.589
 20
840.73299999999995
 30
0.0
 70
    32
  0
VERTEX
  5
138DA
  8
0
 10
-385.59199999999998
 20
840.73199999999997
 30
0.0
 70
    32
  0
VERTEX
  5
138DB
  8
0
 10
-385.59399999999999
 20
840.73000000000013
 30
0.0
 70
    32
  0
VERTEX
  5
138DC
  8
0
 10
-385.59500000000003
 20
840.72799999999995
 30
0.0
 70
    32
  0
VERTEX
  5
138DD
  8
0
 10
-385.59699999999998
 20
840.726
 30
0.0
 70
    32
  0
VERTEX
  5
138DE
  8
0
 10
-385.59899999999999
 20
840.72399999999993
 30
0.0
 70
    32
  0
VERTEX
  5
138DF
  8
0
 10
-385.601
 20
840.72199999999998
 30
0.0
 70
    32
  0
VERTEX
  5
138E0
  8
0
 10
-385.60300000000001
 20
840.71999999999991
 30
0.0
 70
    32
  0
VERTEX
  5
138E1
  8
0
 10
-385.60500000000002
 20
840.71699999999998
 30
0.0
 70
    32
  0
VERTEX
  5
138E2
  8
0
 10
-385.60599999999999
 20
840.71499999999992
 30
0.0
 70
    32
  0
VERTEX
  5
138E3
  8
0
 10
-385.608
 20
840.71299999999997
 30
0.0
 70
    32
  0
VERTEX
  5
138E4
  8
0
 10
-385.61000000000001
 20
840.7109999999999
 30
0.0
 70
    32
  0
VERTEX
  5
138E5
  8
0
 10
-385.61099999999999
 20
840.70899999999995
 30
0.0
 70
    32
  0
VERTEX
  5
138E6
  8
0
 10
-385.61300000000011
 20
840.7059999999999
 30
0.0
 70
    32
  0
VERTEX
  5
138E7
  8
0
 10
-385.61399999999998
 20
840.70399999999995
 30
0.0
 70
    32
  0
VERTEX
  5
138E8
  8
0
 10
-385.61500000000001
 20
840.70199999999988
 30
0.0
 70
    32
  0
VERTEX
  5
138E9
  8
0
 10
-385.61700000000002
 20
840.70000000000005
 30
0.0
 70
    32
  0
VERTEX
  5
138EA
  8
0
 10
-385.61800000000011
 20
840.69699999999989
 30
0.0
 70
    32
  0
VERTEX
  5
138EB
  8
0
 10
-385.61900000000003
 20
840.69500000000005
 30
0.0
 70
    32
  0
VERTEX
  5
138EC
  8
0
 10
-385.62099999999998
 20
840.69199999999989
 30
0.0
 70
    32
  0
VERTEX
  5
138ED
  8
0
 10
-385.62200000000001
 20
840.69000000000005
 30
0.0
 70
    32
  0
VERTEX
  5
138EE
  8
0
 10
-385.62299999999999
 20
840.68799999999987
 30
0.0
 70
    32
  0
VERTEX
  5
138EF
  8
0
 10
-385.62400000000002
 20
840.68499999999995
 30
0.0
 70
    32
  0
VERTEX
  5
138F0
  8
0
 10
-385.625
 20
840.68299999999988
 30
0.0
 70
    32
  0
VERTEX
  5
138F1
  8
0
 10
-385.62599999999998
 20
840.67999999999995
 30
0.0
 70
    32
  0
VERTEX
  5
138F2
  8
0
 10
-385.6269999999999
 20
840.67699999999991
 30
0.0
 70
    32
  0
VERTEX
  5
138F3
  8
0
 10
-385.62799999999999
 20
840.67499999999984
 30
0.0
 70
    32
  0
VERTEX
  5
138F4
  8
0
 10
-385.62900000000002
 20
840.67199999999991
 30
0.0
 70
    32
  0
VERTEX
  5
138F5
  8
0
 10
-385.63
 20
840.66999999999985
 30
0.0
 70
    32
  0
VERTEX
  5
138F6
  8
0
 10
-385.63099999999997
 20
840.66700000000003
 30
0.0
 70
    32
  0
VERTEX
  5
138F7
  8
0
 10
-385.63099999999997
 20
840.66399999999987
 30
0.0
 70
    32
  0
VERTEX
  5
138F8
  8
0
 10
-385.63200000000001
 20
840.66200000000003
 30
0.0
 70
    32
  0
VERTEX
  5
138F9
  8
0
 10
-385.63299999999998
 20
840.65899999999988
 30
0.0
 70
    32
  0
VERTEX
  5
138FA
  8
0
 10
-385.63400000000001
 20
840.65599999999995
 30
0.0
 70
    32
  0
VERTEX
  5
138FB
  8
0
 10
-385.63400000000001
 20
840.65399999999988
 30
0.0
 70
    32
  0
VERTEX
  5
138FC
  8
0
 10
-385.63499999999999
 20
840.65099999999995
 30
0.0
 70
    32
  0
VERTEX
  5
138FD
  8
0
 10
-385.63499999999999
 20
840.64800000000002
 30
0.0
 70
    32
  0
VERTEX
  5
138FE
  8
0
 10
-385.63600000000002
 20
840.64499999999987
 30
0.0
 70
    32
  0
VERTEX
  5
138FF
  8
0
 10
-385.637
 20
840.64300000000003
 30
0.0
 70
    32
  0
VERTEX
  5
13900
  8
0
 10
-385.637
 20
840.63999999999987
 30
0.0
 70
    32
  0
VERTEX
  5
13901
  8
0
 10
-385.637
 20
840.63699999999994
 30
0.0
 70
    32
  0
VERTEX
  5
13902
  8
0
 10
-385.63800000000009
 20
840.63399999999979
 30
0.0
 70
    32
  0
VERTEX
  5
13903
  8
0
 10
-385.63800000000009
 20
840.63100000000009
 30
0.0
 70
    32
  0
VERTEX
  5
13904
  8
0
 10
-385.63900000000001
 20
840.62899999999979
 30
0.0
 70
    32
  0
VERTEX
  5
13905
  8
0
 10
-385.63900000000001
 20
840.62600000000009
 30
0.0
 70
    32
  0
VERTEX
  5
13906
  8
0
 10
-385.63900000000001
 20
840.62300000000005
 30
0.0
 70
    32
  0
VERTEX
  5
13907
  8
0
 10
-385.63999999999999
 20
840.62
 30
0.0
 70
    32
  0
VERTEX
  5
13908
  8
0
 10
-385.63999999999999
 20
840.61699999999985
 30
0.0
 70
    32
  0
VERTEX
  5
13909
  8
0
 10
-385.63999999999999
 20
840.61399999999981
 30
0.0
 70
    32
  0
VERTEX
  5
1390A
  8
0
 10
-385.63999999999999
 20
840.6110000000001
 30
0.0
 70
    32
  0
VERTEX
  5
1390B
  8
0
 10
-385.63999999999999
 20
840.60800000000006
 30
0.0
 70
    32
  0
VERTEX
  5
1390C
  8
0
 10
-385.64100000000002
 20
840.60600000000011
 30
0.0
 70
    32
  0
VERTEX
  5
1390D
  8
0
 10
-385.64100000000002
 20
840.60300000000007
 30
0.0
 70
    32
  0
VERTEX
  5
1390E
  8
0
 10
-385.64100000000002
 20
840.60000000000002
 30
0.0
 70
    32
  0
VERTEX
  5
1390F
  8
0
 10
-385.64100000000002
 20
840.59699999999987
 30
0.0
 70
    32
  0
VERTEX
  5
13910
  8
0
 10
-385.64100000000002
 20
840.59399999999994
 30
0.0
 70
    32
  0
VERTEX
  5
13911
  8
0
 10
-385.64100000000002
 20
840.59100000000001
 30
0.0
 70
    32
  0
VERTEX
  5
13912
  8
0
 10
-385.64100000000002
 20
840.58800000000008
 30
0.0
 70
    32
  0
VERTEX
  5
13913
  8
0
 10
-385.64100000000002
 20
840.58500000000004
 30
0.0
 70
    32
  0
VERTEX
  5
13914
  8
0
 10
-385.64100000000002
 20
840.58199999999999
 30
0.0
 70
    32
  0
VERTEX
  5
13915
  8
0
 10
-385.64100000000002
 20
840.57899999999995
 30
0.0
 70
    32
  0
VERTEX
  5
13916
  8
0
 10
-385.64100000000002
 20
840.57600000000002
 30
0.0
 70
    32
  0
VERTEX
  5
13917
  8
0
 10
-385.64100000000002
 20
840.57299999999998
 30
0.0
 70
    32
  0
VERTEX
  5
13918
  8
0
 10
-385.64100000000002
 20
840.57000000000005
 30
0.0
 70
    32
  0
VERTEX
  5
13919
  8
0
 10
-385.64100000000002
 20
840.56700000000001
 30
0.0
 70
    32
  0
VERTEX
  5
1391A
  8
0
 10
-385.64100000000002
 20
840.56500000000005
 30
0.0
 70
    32
  0
VERTEX
  5
1391B
  8
0
 10
-385.63999999999999
 20
840.56200000000001
 30
0.0
 70
    32
  0
VERTEX
  5
1391C
  8
0
 10
-385.63999999999999
 20
840.55899999999997
 30
0.0
 70
    32
  0
VERTEX
  5
1391D
  8
0
 10
-385.63999999999999
 20
840.55600000000015
 30
0.0
 70
    32
  0
VERTEX
  5
1391E
  8
0
 10
-385.63999999999999
 20
840.553
 30
0.0
 70
    32
  0
VERTEX
  5
1391F
  8
0
 10
-385.63999999999999
 20
840.54999999999995
 30
0.0
 70
    32
  0
VERTEX
  5
13920
  8
0
 10
-385.63999999999999
 20
840.54700000000014
 30
0.0
 70
    32
  0
VERTEX
  5
13921
  8
0
 10
-385.63900000000001
 20
840.54399999999998
 30
0.0
 70
    32
  0
VERTEX
  5
13922
  8
0
 10
-385.63900000000001
 20
840.54099999999994
 30
0.0
 70
    32
  0
VERTEX
  5
13923
  8
0
 10
-385.63900000000001
 20
840.53800000000001
 30
0.0
 70
    32
  0
VERTEX
  5
13924
  8
0
 10
-385.63900000000001
 20
840.53499999999997
 30
0.0
 70
    32
  0
VERTEX
  5
13925
  8
0
 10
-385.63800000000009
 20
840.53199999999993
 30
0.0
 70
    32
  0
VERTEX
  5
13926
  8
0
 10
-385.63800000000009
 20
840.52999999999997
 30
0.0
 70
    32
  0
VERTEX
  5
13927
  8
0
 10
-385.63800000000009
 20
840.52699999999993
 30
0.0
 70
    32
  0
VERTEX
  5
13928
  8
0
 10
-385.63800000000009
 20
840.52399999999989
 30
0.0
 70
    32
  0
VERTEX
  5
13929
  8
0
 10
-385.637
 20
840.52099999999996
 30
0.0
 70
    32
  0
VERTEX
  5
1392A
  8
0
 10
-385.637
 20
840.51799999999992
 30
0.0
 70
    32
  0
VERTEX
  5
1392B
  8
0
 10
-385.637
 20
840.51499999999999
 30
0.0
 70
    32
  0
VERTEX
  5
1392C
  8
0
 10
-385.63600000000002
 20
840.51199999999994
 30
0.0
 70
    32
  0
VERTEX
  5
1392D
  8
0
 10
-385.63600000000002
 20
840.50999999999999
 30
0.0
 70
    32
  0
VERTEX
  5
1392E
  8
0
 10
-385.63499999999999
 20
840.50699999999995
 30
0.0
 70
    32
  0
VERTEX
  5
1392F
  8
0
 10
-385.63499999999999
 20
840.50399999999991
 30
0.0
 70
    32
  0
VERTEX
  5
13930
  8
0
 10
-385.63400000000001
 20
840.50099999999998
 30
0.0
 70
    32
  0
VERTEX
  5
13931
  8
0
 10
-385.63400000000001
 20
840.49800000000005
 30
0.0
 70
    32
  0
VERTEX
  5
13932
  8
0
 10
-385.63400000000001
 20
840.49599999999998
 30
0.0
 70
    32
  0
VERTEX
  5
13933
  8
0
 10
-385.63299999999998
 20
840.49300000000005
 30
0.0
 70
    32
  0
VERTEX
  5
13934
  8
0
 10
-385.63299999999998
 20
840.4899999999999
 30
0.0
 70
    32
  0
VERTEX
  5
13935
  8
0
 10
-385.63200000000001
 20
840.48699999999985
 30
0.0
 70
    32
  0
VERTEX
  5
13936
  8
0
 10
-385.63099999999997
 20
840.48400000000004
 30
0.0
 70
    32
  0
VERTEX
  5
13937
  8
0
 10
-385.63099999999997
 20
840.48199999999986
 30
0.0
 70
    32
  0
VERTEX
  5
13938
  8
0
 10
-385.63
 20
840.47900000000004
 30
0.0
 70
    32
  0
VERTEX
  5
13939
  8
0
 10
-385.63
 20
840.47600000000011
 30
0.0
 70
    32
  0
VERTEX
  5
1393A
  8
0
 10
-385.62900000000002
 20
840.47299999999996
 30
0.0
 70
    32
  0
VERTEX
  5
1393B
  8
0
 10
-385.62799999999999
 20
840.47099999999989
 30
0.0
 70
    32
  0
VERTEX
  5
1393C
  8
0
 10
-385.62799999999999
 20
840.46799999999996
 30
0.0
 70
    32
  0
VERTEX
  5
1393D
  8
0
 10
-385.6269999999999
 20
840.46500000000003
 30
0.0
 70
    32
  0
VERTEX
  5
1393E
  8
0
 10
-385.62599999999998
 20
840.46299999999997
 30
0.0
 70
    32
  0
VERTEX
  5
1393F
  8
0
 10
-385.62599999999998
 20
840.46000000000004
 30
0.0
 70
    32
  0
VERTEX
  5
13940
  8
0
 10
-385.625
 20
840.45699999999988
 30
0.0
 70
    32
  0
VERTEX
  5
13941
  8
0
 10
-385.62400000000002
 20
840.45500000000004
 30
0.0
 70
    32
  0
VERTEX
  5
13942
  8
0
 10
-385.62299999999999
 20
840.45199999999988
 30
0.0
 70
    32
  0
VERTEX
  5
13943
  8
0
 10
-385.62200000000001
 20
840.44899999999996
 30
0.0
 70
    32
  0
VERTEX
  5
13944
  8
0
 10
-385.62099999999998
 20
840.44699999999989
 30
0.0
 70
    32
  0
VERTEX
  5
13945
  8
0
 10
-385.62099999999998
 20
840.44399999999985
 30
0.0
 70
    32
  0
VERTEX
  5
13946
  8
0
 10
-385.62
 20
840.44200000000001
 30
0.0
 70
    32
  0
VERTEX
  5
13947
  8
0
 10
-385.61900000000003
 20
840.43899999999985
 30
0.0
 70
    32
  0
VERTEX
  5
13948
  8
0
 10
-385.61800000000011
 20
840.43700000000001
 30
0.0
 70
    32
  0
VERTEX
  5
13949
  8
0
 10
-385.61700000000002
 20
840.43399999999986
 30
0.0
 70
    32
  0
VERTEX
  5
1394A
  8
0
 10
-385.61599999999999
 20
840.43200000000002
 30
0.0
 70
    32
  0
VERTEX
  5
1394B
  8
0
 10
-385.61500000000001
 20
840.42899999999986
 30
0.0
 70
    32
  0
VERTEX
  5
1394C
  8
0
 10
-385.61399999999998
 20
840.42700000000002
 30
0.0
 70
    32
  0
VERTEX
  5
1394D
  8
0
 10
-385.61300000000011
 20
840.42399999999986
 30
0.0
 70
    32
  0
VERTEX
  5
1394E
  8
0
 10
-385.61099999999999
 20
840.42200000000003
 30
0.0
 70
    32
  0
VERTEX
  5
1394F
  8
0
 10
-385.61000000000001
 20
840.41899999999987
 30
0.0
 70
    32
  0
VERTEX
  5
13950
  8
0
 10
-385.60899999999998
 20
840.4169999999998
 30
0.0
 70
    32
  0
VERTEX
  5
13951
  8
0
 10
-385.608
 20
840.41399999999987
 30
0.0
 70
    32
  0
VERTEX
  5
13952
  8
0
 10
-385.60700000000003
 20
840.41199999999981
 30
0.0
 70
    32
  0
VERTEX
  5
13953
  8
0
 10
-385.60500000000002
 20
840.40899999999999
 30
0.0
 70
    32
  0
VERTEX
  5
13954
  8
0
 10
-385.6040000000001
 20
840.40699999999993
 30
0.0
 70
    32
  0
VERTEX
  5
13955
  8
0
 10
-385.60300000000001
 20
840.40499999999986
 30
0.0
 70
    32
  0
VERTEX
  5
13956
  8
0
 10
-385.601
 20
840.40199999999993
 30
0.0
 70
    32
  0
VERTEX
  5
13957
  8
0
 10
-385.60000000000002
 20
840.39999999999986
 30
0.0
 70
    32
  0
VERTEX
  5
13958
  8
0
 10
-385.59899999999999
 20
840.39800000000002
 30
0.0
 70
    32
  0
VERTEX
  5
13959
  8
0
 10
-385.59699999999998
 20
840.39499999999998
 30
0.0
 70
    32
  0
VERTEX
  5
1395A
  8
0
 10
-385.596
 20
840.39300000000003
 30
0.0
 70
    32
  0
VERTEX
  5
1395B
  8
0
 10
-385.59399999999999
 20
840.39100000000008
 30
0.0
 70
    32
  0
VERTEX
  5
1395C
  8
0
 10
-385.59300000000002
 20
840.38899999999978
 30
0.0
 70
    32
  0
VERTEX
  5
1395D
  8
0
 10
-385.59100000000001
 20
840.38699999999994
 30
0.0
 70
    32
  0
VERTEX
  5
1395E
  8
0
 10
-385.58999999999997
 20
840.38399999999979
 30
0.0
 70
    32
  0
VERTEX
  5
1395F
  8
0
 10
-385.58800000000002
 20
840.38199999999995
 30
0.0
 70
    32
  0
VERTEX
  5
13960
  8
0
 10
-385.58600000000001
 20
840.38
 30
0.0
 70
    32
  0
VERTEX
  5
13961
  8
0
 10
-385.58499999999998
 20
840.37800000000016
 30
0.0
 70
    32
  0
VERTEX
  5
13962
  8
0
 10
-385.58300000000003
 20
840.37600000000009
 30
0.0
 70
    32
  0
VERTEX
  5
13963
  8
0
 10
-385.5809999999999
 20
840.37399999999991
 30
0.0
 70
    32
  0
VERTEX
  5
13964
  8
0
 10
-385.57999999999998
 20
840.37099999999998
 30
0.0
 70
    32
  0
VERTEX
  5
13965
  8
0
 10
-385.57799999999997
 20
840.36899999999991
 30
0.0
 70
    32
  0
VERTEX
  5
13966
  8
0
 10
-385.57600000000002
 20
840.36699999999985
 30
0.0
 70
    32
  0
VERTEX
  5
13967
  8
0
 10
-385.57400000000001
 20
840.36500000000001
 30
0.0
 70
    32
  0
VERTEX
  5
13968
  8
0
 10
-385.57199999999989
 20
840.36300000000006
 30
0.0
 70
    32
  0
VERTEX
  5
13969
  8
0
 10
-385.56999999999999
 20
840.36099999999999
 30
0.0
 70
    32
  0
VERTEX
  5
1396A
  8
0
 10
-385.56900000000002
 20
840.35899999999992
 30
0.0
 70
    32
  0
VERTEX
  5
1396B
  8
0
 10
-385.56699999999989
 20
840.35699999999997
 30
0.0
 70
    32
  0
VERTEX
  5
1396C
  8
0
 10
-385.565
 20
840.35500000000002
 30
0.0
 70
    32
  0
VERTEX
  5
1396D
  8
0
 10
-385.5630000000001
 20
840.35299999999995
 30
0.0
 70
    32
  0
VERTEX
  5
1396E
  8
0
 10
-385.56099999999998
 20
840.351
 30
0.0
 70
    32
  0
VERTEX
  5
1396F
  8
0
 10
-385.55900000000003
 20
840.34899999999993
 30
0.0
 70
    32
  0
VERTEX
  5
13970
  8
0
 10
-385.55700000000002
 20
840.34799999999996
 30
0.0
 70
    32
  0
VERTEX
  5
13971
  8
0
 10
-385.55500000000001
 20
840.346
 30
0.0
 70
    32
  0
VERTEX
  5
13972
  8
0
 10
-385.55300000000011
 20
840.34399999999994
 30
0.0
 70
    32
  0
VERTEX
  5
13973
  8
0
 10
-385.55099999999999
 20
840.34199999999998
 30
0.0
 70
    32
  0
VERTEX
  5
13974
  8
0
 10
-385.548
 20
840.34000000000015
 30
0.0
 70
    32
  0
VERTEX
  5
13975
  8
0
 10
-385.54599999999999
 20
840.33799999999997
 30
0.0
 70
    32
  0
VERTEX
  5
13976
  8
0
 10
-385.5440000000001
 20
840.33600000000013
 30
0.0
 70
    32
  0
VERTEX
  5
13977
  8
0
 10
-385.54199999999997
 20
840.33499999999992
 30
0.0
 70
    32
  0
VERTEX
  5
13978
  8
0
 10
-385.54000000000002
 20
840.33299999999997
 30
0.0
 70
    32
  0
VERTEX
  5
13979
  8
0
 10
-385.53800000000001
 20
840.33100000000013
 30
0.0
 70
    32
  0
VERTEX
  5
1397A
  8
0
 10
-385.53500000000008
 20
840.32899999999995
 30
0.0
 70
    32
  0
VERTEX
  5
1397B
  8
0
 10
-385.53300000000002
 20
840.32799999999997
 30
0.0
 70
    32
  0
VERTEX
  5
1397C
  8
0
 10
-385.53100000000001
 20
840.32599999999991
 30
0.0
 70
    32
  0
VERTEX
  5
1397D
  8
0
 10
-385.529
 20
840.32399999999996
 30
0.0
 70
    32
  0
VERTEX
  5
1397E
  8
0
 10
-385.52600000000001
 20
840.32200000000012
 30
0.0
 70
    32
  0
VERTEX
  5
1397F
  8
0
 10
-385.524
 20
840.32099999999991
 30
0.0
 70
    32
  0
VERTEX
  5
13980
  8
0
 10
-385.52199999999999
 20
840.31899999999996
 30
0.0
 70
    32
  0
VERTEX
  5
13981
  8
0
 10
-385.51999999999998
 20
840.31699999999989
 30
0.0
 70
    32
  0
VERTEX
  5
13982
  8
0
 10
-385.517
 20
840.31599999999992
 30
0.0
 70
    32
  0
VERTEX
  5
13983
  8
0
 10
-385.51499999999999
 20
840.31399999999996
 30
0.0
 70
    32
  0
VERTEX
  5
13984
  8
0
 10
-385.51299999999998
 20
840.31299999999999
 30
0.0
 70
    32
  0
VERTEX
  5
13985
  8
0
 10
-385.50999999999999
 20
840.31099999999992
 30
0.0
 70
    32
  0
VERTEX
  5
13986
  8
0
 10
-385.50799999999998
 20
840.30899999999997
 30
0.0
 70
    32
  0
VERTEX
  5
13987
  8
0
 10
-385.505
 20
840.30799999999988
 30
0.0
 70
    32
  0
VERTEX
  5
13988
  8
0
 10
-385.5030000000001
 20
840.30599999999993
 30
0.0
 70
    32
  0
VERTEX
  5
13989
  8
0
 10
-385.50099999999998
 20
840.30499999999995
 30
0.0
 70
    32
  0
VERTEX
  5
1398A
  8
0
 10
-385.4980000000001
 20
840.30299999999988
 30
0.0
 70
    32
  0
VERTEX
  5
1398B
  8
0
 10
-385.49599999999998
 20
840.30199999999991
 30
0.0
 70
    32
  0
VERTEX
  5
1398C
  8
0
 10
-385.49299999999999
 20
840.29999999999995
 30
0.0
 70
    32
  0
VERTEX
  5
1398D
  8
0
 10
-385.49099999999999
 20
840.29899999999986
 30
0.0
 70
    32
  0
VERTEX
  5
1398E
  8
0
 10
-385.48800000000011
 20
840.29699999999991
 30
0.0
 70
    32
  0
VERTEX
  5
1398F
  8
0
 10
-385.48599999999999
 20
840.29600000000005
 30
0.0
 70
    32
  0
VERTEX
  5
13990
  8
0
 10
-385.48399999999998
 20
840.29499999999996
 30
0.0
 70
    32
  0
VERTEX
  5
13991
  8
0
 10
-385.48099999999999
 20
840.29299999999989
 30
0.0
 70
    32
  0
VERTEX
  5
13992
  8
0
 10
-385.47899999999998
 20
840.29199999999992
 30
0.0
 70
    32
  0
VERTEX
  5
13993
  8
0
 10
-385.476
 20
840.28999999999985
 30
0.0
 70
    32
  0
VERTEX
  5
13994
  8
0
 10
-385.47399999999999
 20
840.28899999999987
 30
0.0
 70
    32
  0
VERTEX
  5
13995
  8
0
 10
-385.471
 20
840.2879999999999
 30
0.0
 70
    32
  0
VERTEX
  5
13996
  8
0
 10
-385.46899999999999
 20
840.28599999999994
 30
0.0
 70
    32
  0
VERTEX
  5
13997
  8
0
 10
-385.46600000000001
 20
840.28499999999985
 30
0.0
 70
    32
  0
VERTEX
  5
13998
  8
0
 10
-385.464
 20
840.28399999999988
 30
0.0
 70
    32
  0
VERTEX
  5
13999
  8
0
 10
-385.46100000000001
 20
840.28200000000004
 30
0.0
 70
    32
  0
VERTEX
  5
1399A
  8
0
 10
-385.459
 20
840.28099999999995
 30
0.0
 70
    32
  0
VERTEX
  5
1399B
  8
0
 10
-385.45600000000002
 20
840.27999999999986
 30
0.0
 70
    32
  0
VERTEX
  5
1399C
  8
0
 10
-385.45400000000001
 20
840.27899999999988
 30
0.0
 70
    32
  0
VERTEX
  5
1399D
  8
0
 10
-385.45100000000002
 20
840.27700000000004
 30
0.0
 70
    32
  0
VERTEX
  5
1399E
  8
0
 10
-385.44900000000001
 20
840.27599999999995
 30
0.0
 70
    32
  0
VERTEX
  5
1399F
  8
0
 10
-385.44600000000003
 20
840.27499999999986
 30
0.0
 70
    32
  0
VERTEX
  5
139A0
  8
0
 10
-385.4430000000001
 20
840.27399999999989
 30
0.0
 70
    32
  0
VERTEX
  5
139A1
  8
0
 10
-385.44099999999997
 20
840.27300000000002
 30
0.0
 70
    32
  0
VERTEX
  5
139A2
  8
0
 10
-385.43799999999999
 20
840.27099999999996
 30
0.0
 70
    32
  0
VERTEX
  5
139A3
  8
0
 10
-385.43599999999998
 20
840.26999999999987
 30
0.0
 70
    32
  0
VERTEX
  5
139A4
  8
0
 10
-385.43299999999999
 20
840.26899999999989
 30
0.0
 70
    32
  0
VERTEX
  5
139A5
  8
0
 10
-385.43099999999998
 20
840.26800000000003
 30
0.0
 70
    32
  0
VERTEX
  5
139A6
  8
0
 10
-385.42800000000011
 20
840.26699999999983
 30
0.0
 70
    32
  0
VERTEX
  5
139A7
  8
0
 10
-385.42500000000001
 20
840.26599999999996
 30
0.0
 70
    32
  0
VERTEX
  5
139A8
  8
0
 10
-385.423
 20
840.26499999999987
 30
0.0
 70
    32
  0
VERTEX
  5
139A9
  8
0
 10
-385.42000000000002
 20
840.2639999999999
 30
0.0
 70
    32
  0
VERTEX
  5
139AA
  8
0
 10
-385.41800000000001
 20
840.26300000000003
 30
0.0
 70
    32
  0
VERTEX
  5
139AB
  8
0
 10
-385.41500000000002
 20
840.26199999999983
 30
0.0
 70
    32
  0
VERTEX
  5
139AC
  8
0
 10
-385.41199999999998
 20
840.26100000000008
 30
0.0
 70
    32
  0
VERTEX
  5
139AD
  8
0
 10
-385.41000000000003
 20
840.25999999999988
 30
0.0
 70
    32
  0
VERTEX
  5
139AE
  8
0
 10
-385.40699999999998
 20
840.25999999999988
 30
0.0
 70
    32
  0
VERTEX
  5
139AF
  8
0
 10
-385.40499999999997
 20
840.25900000000001
 30
0.0
 70
    32
  0
VERTEX
  5
139B0
  8
0
 10
-385.40199999999999
 20
840.25800000000004
 30
0.0
 70
    32
  0
VERTEX
  5
139B1
  8
0
 10
-385.399
 20
840.25699999999983
 30
0.0
 70
    32
  0
VERTEX
  5
139B2
  8
0
 10
-385.39699999999999
 20
840.25600000000009
 30
0.0
 70
    32
  0
VERTEX
  5
139B3
  8
0
 10
-385.39400000000001
 20
840.25600000000009
 30
0.0
 70
    32
  0
VERTEX
  5
139B4
  8
0
 10
-385.39099999999991
 20
840.25499999999988
 30
0.0
 70
    32
  0
VERTEX
  5
139B5
  8
0
 10
-385.38900000000001
 20
840.25399999999979
 30
0.0
 70
    32
  0
VERTEX
  5
139B6
  8
0
 10
-385.38600000000002
 20
840.25399999999979
 30
0.0
 70
    32
  0
VERTEX
  5
139B7
  8
0
 10
-385.38299999999998
 20
840.25300000000004
 30
0.0
 70
    32
  0
VERTEX
  5
139B8
  8
0
 10
-385.38099999999997
 20
840.25199999999995
 30
0.0
 70
    32
  0
VERTEX
  5
139B9
  8
0
 10
-385.37799999999999
 20
840.25199999999995
 30
0.0
 70
    32
  0
VERTEX
  5
139BA
  8
0
 10
-385.375
 20
840.25100000000009
 30
0.0
 70
    32
  0
VERTEX
  5
139BB
  8
0
 10
-385.37200000000001
 20
840.25100000000009
 30
0.0
 70
    32
  0
VERTEX
  5
139BC
  8
0
 10
-385.37
 20
840.24999999999989
 30
0.0
 70
    32
  0
VERTEX
  5
139BD
  8
0
 10
-385.36700000000002
 20
840.24999999999989
 30
0.0
 70
    32
  0
VERTEX
  5
139BE
  8
0
 10
-385.36399999999998
 20
840.24999999999989
 30
0.0
 70
    32
  0
VERTEX
  5
139BF
  8
0
 10
-385.36200000000002
 20
840.2489999999998
 30
0.0
 70
    32
  0
VERTEX
  5
139C0
  8
0
 10
-385.35899999999998
 20
840.2489999999998
 30
0.0
 70
    32
  0
VERTEX
  5
139C1
  8
0
 10
-385.35599999999999
 20
840.24800000000005
 30
0.0
 70
    32
  0
VERTEX
  5
139C2
  8
0
 10
-385.35300000000001
 20
840.24800000000005
 30
0.0
 70
    32
  0
SEQEND
  5
139C3
  8
0
  0
ARC
  5
13613
  8
0
 10
-385.56440457433922
 20
840.96067852141323
 30
0.0
 40
0.0998312686553804
 50
285.40261121455347
 51
74.597388785449652
  0
ARC
  5
13614
  8
0
 10
-385.47812991027092
 20
841.33423169392904
 30
0.0
 40
0.2022903800541202
 50
180.41210293902941
 51
252.81761696448831
  0
LINE
  5
13615
  8
0
 10
-385.53788938387618
 20
841.05692418041178
 30
0.0
 11
-385.53788938387618
 21
841.1409696873759
 31
0.0
  0
LINE
  5
13616
  8
0
 10
-385.53788938387618
 20
840.76683163372638
 30
0.0
 11
-385.53788938387618
 21
840.8644328624149
 31
0.0
  0
LINE
  5
13617
  8
0
 10
-385.3451811332219
 20
840.09093066862386
 30
0.0
 11
-385.35332171561851
 21
840.24817708779403
 31
0.0
  0
LINE
  5
13618
  8
0
 10
-385.31614230230912
 20
839.67652672216491
 30
0.0
 11
-385.31614230230912
 21
839.74661521021585
 31
0.0
  0
LINE
  5
13619
  8
0
 10
-385.91798425318342
 20
839.67652672216491
 30
0.0
 11
-385.31614230230912
 21
839.67652672216491
 31
0.0
  0
LINE
  5
1361A
  8
0
 10
-385.91798425318342
 20
841.33277672216479
 30
0.0
 11
-385.91798425318342
 21
839.67652672216491
 31
0.0
  0
LINE
  5
1361B
  8
0
 10
-385.68041505782151
 20
841.33277672216479
 30
0.0
 11
-385.91798425318342
 21
841.33277672216479
 31
0.0
  0
VIEWPORT
  5
BADA
 67
     1
  8
0
 10
6.722307934649522
 20
4.016860864854312
 30
0.0
 40
20.222157481933301
 41
9.9694669938942848
 68
     1
 69
     1
1001
ACAD
1000
MVIEW
1002
{
1070
    16
1010
0.0
1020
0.0
1030
0.0
1010
0.0
1020
0.0
1030
1.0
1040
0.0
1040
9.9694669938942848
1040
6.722307934649522
1040
4.016860864854312
1040
50.0
1040
0.0
1040
0.0
1070
     0
1070
   100
1070
     1
1070
     1
1070
     0
1070
     0
1070
     0
1070
     0
1040
0.0
1040
0.0
1040
0.0
1040
0.5
1040
0.5
1040
0.5
1040
0.5
1070
     0
1002
{
1002
}
1002
}
  0
VIEWPORT
  5
BADD
 67
     1
  8
0
 10
5.249999629487192
 20
4.0166741807634683
 30
0.0
 40
10.44245679893058
 41
7.8813805131999892
 68
     2
 69
     2
1001
ACAD
1000
MVIEW
1002
{
1070
    16
1010
0.0
1020
0.0
1030
0.0
1010
0.0
1020
0.0
1030
1.0
1040
0.0
1040
7.8813805544894899
1040
-384.96568440715339
1040
840.55069503207721
1040
50.0
1040
0.0
1040
0.0
1070
     0
1070
   100
1070
     1
1070
     2
1070
     0
1070
     0
1070
     0
1070
     0
1040
0.0
1040
0.0
1040
0.0
1040
0.5
1040
0.5
1040
0.5
1040
0.5
1070
     0
1002
{
1002
}
1002
}
  0
ENDSEC
  0
EOF
