  0
SECTION
  2
HEADER
  9
$ACADVER
  1
AC1009
  9
$INSBASE
 10
0.0
 20
0.0
 30
0.0
  9
$EXTMIN
 10
-390.21280206415412
 20
834.65667183693085
 30
0.0
  9
$EXTMAX
 10
-382.84526111473491
 20
843.05086629103664
 30
0.0
  9
$LIMMIN
 10
0.0
 20
0.0
  9
$LIMMAX
 10
1500.0
 20
1500.0
  9
$ORTHOMODE
 70
     0
  9
$REGENMODE
 70
     1
  9
$FILLMODE
 70
     1
  9
$QTEXTMODE
 70
     0
  9
$MIRRTEXT
 70
     1
  9
$DRAGMODE
 70
     2
  9
$LTSCALE
 40
1.0
  9
$OSMODE
 70
    37
  9
$ATTMODE
 70
     1
  9
$TEXTSIZE
 40
1.5
  9
$TRACEWID
 40
0.05
  9
$TEXTSTYLE
  7
STANDARD
  9
$CLAYER
  8
0
  9
$CELTYPE
  6
BYLAYER
  9
$CECOLOR
 62
   256
  9
$DIMSCALE
 40
1.0
  9
$DIMASZ
 40
0.75
  9
$DIMEXO
 40
1.5
  9
$DIMDLI
 40
2.0
  9
$DIMRND
 40
0.0
  9
$DIMDLE
 40
0.0
  9
$DIMEXE
 40
1.0
  9
$DIMTP
 40
0.0
  9
$DIMTM
 40
0.0
  9
$DIMTXT
 40
1.5
  9
$DIMCEN
 40
2.0
  9
$DIMTSZ
 40
0.0
  9
$DIMTOL
 70
     0
  9
$DIMLIM
 70
     0
  9
$DIMTIH
 70
     0
  9
$DIMTOH
 70
     0
  9
$DIMSE1
 70
     0
  9
$DIMSE2
 70
     0
  9
$DIMTAD
 70
     1
  9
$DIMZIN
 70
     0
  9
$DIMBLK
  1
ARCHTICK
  9
$DIMASO
 70
     1
  9
$DIMSHO
 70
     1
  9
$DIMPOST
  1
"
  9
$DIMAPOST
  1

  9
$DIMALT
 70
     0
  9
$DIMALTD
 70
     2
  9
$DIMALTF
 40
25.399999999999999
  9
$DIMLFAC
 40
1.0
  9
$DIMTOFL
 70
     0
  9
$DIMTVP
 40
0.0
  9
$DIMTIX
 70
     1
  9
$DIMSOXD
 70
     0
  9
$DIMSAH
 70
     0
  9
$DIMBLK1
  1

  9
$DIMBLK2
  1

  9
$DIMSTYLE
  2
THREE_QUARTER_INCH_SCALE
  9
$DIMCLRD
 70
     0
  9
$DIMCLRE
 70
     0
  9
$DIMCLRT
 70
     0
  9
$DIMTFAC
 40
1.0
  9
$DIMGAP
 40
1.0
  9
$LUNITS
 70
     2
  9
$LUPREC
 70
     4
  9
$SKETCHINC
 40
0.1
  9
$FILLETRAD
 40
0.0
  9
$AUNITS
 70
     0
  9
$AUPREC
 70
     0
  9
$MENU
  1
.
  9
$ELEVATION
 40
0.0
  9
$PELEVATION
 40
0.0
  9
$THICKNESS
 40
0.0
  9
$LIMCHECK
 70
     0
  9
$BLIPMODE
 70
     0
  9
$CHAMFERA
 40
0.5
  9
$CHAMFERB
 40
0.5
  9
$SKPOLY
 70
     0
  9
$TDCREATE
 40
2452089.395738773
  9
$TDUPDATE
 40
2453612.4065366322
  9
$TDINDWG
 40
1.0879071527999999
  9
$TDUSRTIMER
 40
1.087906794
  9
$USRTIMER
 70
     1
  9
$ANGBASE
 50
0.0
  9
$ANGDIR
 70
     0
  9
$PDMODE
 70
     0
  9
$PDSIZE
 40
10.0
  9
$PLINEWID
 40
0.0
  9
$COORDS
 70
     1
  9
$SPLFRAME
 70
     0
  9
$SPLINETYPE
 70
     6
  9
$SPLINESEGS
 70
     8
  9
$ATTDIA
 70
     0
  9
$ATTREQ
 70
     1
  9
$HANDLING
 70
     1
  9
$HANDSEED
  5
15AE4
  9
$SURFTAB1
 70
     6
  9
$SURFTAB2
 70
     6
  9
$SURFTYPE
 70
     6
  9
$SURFU
 70
     6
  9
$SURFV
 70
     6
  9
$UCSNAME
  2

  9
$UCSORG
 10
0.0
 20
0.0
 30
0.0
  9
$UCSXDIR
 10
1.0
 20
0.0
 30
0.0
  9
$UCSYDIR
 10
0.0
 20
1.0
 30
0.0
  9
$PUCSNAME
  2

  9
$PUCSORG
 10
0.0
 20
0.0
 30
0.0
  9
$PUCSXDIR
 10
1.0
 20
0.0
 30
0.0
  9
$PUCSYDIR
 10
0.0
 20
1.0
 30
0.0
  9
$USERI1
 70
     0
  9
$USERI2
 70
     0
  9
$USERI3
 70
     0
  9
$USERI4
 70
     0
  9
$USERI5
 70
     0
  9
$USERR1
 40
0.0
  9
$USERR2
 40
0.0
  9
$USERR3
 40
0.0
  9
$USERR4
 40
0.0
  9
$USERR5
 40
0.0
  9
$WORLDVIEW
 70
     1
  9
$SHADEDGE
 70
     3
  9
$SHADEDIF
 70
    70
  9
$TILEMODE
 70
     0
  9
$MAXACTVP
 70
    64
  9
$PLIMCHECK
 70
     0
  9
$PEXTMIN
 10
0.0282895744820628
 20
0.0759353784799721
 30
-0.0015258207003583
  9
$PEXTMAX
 10
10.47170975585299
 20
7.9577863512286546
 30
0.0000000349246037
  9
$PLIMMIN
 10
-0.1682389550263349
 20
-0.2033427855578579
  9
$PLIMMAX
 10
10.754640548407011
 20
8.2370640492290015
  9
$UNITMODE
 70
     0
  9
$VISRETAIN
 70
     1
  9
$PLINEGEN
 70
     0
  9
$PSLTSCALE
 70
     1
  0
ENDSEC
  0
SECTION
  2
TABLES
  0
TABLE
  2
VPORT
 70
     1
  0
VPORT
  2
*ACTIVE
 70
     0
 10
0.0
 20
0.0
 11
1.0
 21
1.0
 12
-386.52380251144001
 22
838.09204166179234
 13
0.0
 23
0.0
 14
0.5
 24
0.5
 15
0.5
 25
0.5
 16
0.0
 26
0.0
 36
1.0
 17
0.0
 27
0.0
 37
0.0
 40
3.930952126162941
 41
2.0226628895184122
 42
50.0
 43
0.0
 44
0.0
 50
0.0
 51
0.0
 71
     0
 72
   100
 73
     1
 74
     2
 75
     0
 76
     0
 77
     0
 78
     0
  0
ENDTAB
  0
TABLE
  2
LTYPE
 70
     1
  0
LTYPE
  2
CONTINUOUS
 70
     0
  3
Solid line
 72
    65
 73
     0
 40
0.0
  0
ENDTAB
  0
TABLE
  2
LAYER
 70
    10
  0
LAYER
  2
0
 70
     0
 62
     7
  6
CONTINUOUS
  0
LAYER
  2
DEFPOINTS
 70
     0
 62
     7
  6
CONTINUOUS
  0
LAYER
  2
FRAME_200
 70
     0
 62
     8
  6
CONTINUOUS
  0
LAYER
  2
FRAME_070
 70
     0
 62
     5
  6
CONTINUOUS
  0
LAYER
  2
FRAME_050
 70
     0
 62
     6
  6
CONTINUOUS
  0
LAYER
  2
TITLE_BLOCK
 70
     0
 62
     7
  6
CONTINUOUS
  0
LAYER
  2
FRAME_025
 70
     0
 62
     7
  6
CONTINUOUS
  0
LAYER
  2
VIEWPORT
 70
     0
 62
     7
  6
CONTINUOUS
  0
LAYER
  2
PROF
 70
     0
 62
     7
  6
CONTINUOUS
  0
LAYER
  2
PROFILE
 70
     0
 62
     7
  6
CONTINUOUS
  0
ENDTAB
  0
TABLE
  2
STYLE
 70
     2
  0
STYLE
  2
STANDARD
 70
     0
 40
0.0
 41
1.0
 50
0.0
 71
     0
 42
1.5
  3
txt
  4

  0
STYLE
  2
ISO_PROPORTIONAL
 70
     0
 40
0.0
 41
1.0
 50
0.0
 71
     0
 42
2.5
  3
isocp.shx
  4

  0
ENDTAB
  0
TABLE
  2
VIEW
 70
     0
  0
ENDTAB
  0
TABLE
  2
UCS
 70
     0
  0
ENDTAB
  0
TABLE
  2
APPID
 70
     6
  0
APPID
  2
ACAD
 70
     0
  0
APPID
  2
DCO15
 70
     0
  0
APPID
  2
ACAD_EXEMPT_FROM_CAD_STANDARDS
 70
     0
  0
APPID
  2
ACAD_PSEXT
 70
     0
  0
APPID
  2
CONTENTBLOCKDESCRIPTION
 70
     0
  0
APPID
  2
CONTENTBLOCKICON
 70
     0
  0
ENDTAB
  0
TABLE
  2
DIMSTYLE
 70
    10
  0
DIMSTYLE
  2
FULL_SCALE
 70
     0
  3
"
  4

  5

  6

  7

 40
1.0
 41
0.046875
 42
0.09375
 43
0.125
 44
0.0625
 45
0.0
 46
0.0
 47
0.0
 48
0.0
140
0.125
141
0.125
142
0.0
143
25.399999999999999
144
1.0
145
0.0
146
1.0
147
0.0625
 71
     0
 72
     0
 73
     0
 74
     0
 75
     0
 76
     0
 77
     1
 78
     0
170
     0
171
     2
172
     0
173
     0
174
     1
175
     0
176
     0
177
     0
178
     0
  0
DIMSTYLE
  2
HALF_SCALE
 70
     0
  3
"
  4

  5

  6

  7

 40
1.0
 41
0.09375
 42
0.1875
 43
0.25
 44
0.125
 45
0.0
 46
0.0
 47
0.0
 48
0.0
140
0.25
141
0.25
142
0.0
143
25.399999999999999
144
1.0
145
0.0
146
1.0
147
0.125
 71
     0
 72
     0
 73
     0
 74
     0
 75
     0
 76
     0
 77
     1
 78
     0
170
     0
171
     2
172
     0
173
     0
174
     1
175
     0
176
     0
177
     0
178
     0
  0
DIMSTYLE
  2
INCH_SCALE
 70
     0
  3
"
  4

  5

  6

  7

 40
1.0
 41
0.5625
 42
1.125
 43
1.5
 44
0.75
 45
0.0
 46
0.0
 47
0.0
 48
0.0
140
1.125
141
1.5
142
0.0
143
25.399999999999999
144
1.0
145
0.0
146
1.0
147
0.75
 71
     0
 72
     0
 73
     0
 74
     0
 75
     0
 76
     0
 77
     1
 78
     0
170
     0
171
     2
172
     0
173
     0
174
     1
175
     0
176
     0
177
     0
178
     0
  0
DIMSTYLE
  2
THREE_QUARTER_INCH_SCALE
 70
     0
  3
"
  4

  5

  6

  7

 40
1.0
 41
0.75
 42
1.5
 43
2.0
 44
1.0
 45
0.0
 46
0.0
 47
0.0
 48
0.0
140
1.5
141
2.0
142
0.0
143
25.399999999999999
144
1.0
145
0.0
146
1.0
147
1.0
 71
     0
 72
     0
 73
     0
 74
     0
 75
     0
 76
     0
 77
     1
 78
     0
170
     0
171
     2
172
     0
173
     0
174
     1
175
     0
176
     0
177
     0
178
     0
  0
DIMSTYLE
  2
ZHALF_INCH_SCALE
 70
     0
  3
"
  4

  5

  6

  7

 40
1.0
 41
1.125
 42
2.25
 43
3.0
 44
1.5
 45
0.0
 46
0.0
 47
0.0
 48
0.0
140
2.25
141
3.0
142
0.0
143
25.399999999999999
144
1.0
145
0.0
146
1.0
147
1.5
 71
     0
 72
     0
 73
     0
 74
     0
 75
     0
 76
     0
 77
     1
 78
     0
170
     0
171
     2
172
     0
173
     0
174
     1
175
     0
176
     0
177
     0
178
     0
  0
DIMSTYLE
  2
FULL_SCALE0
 70
     0
  3
"
  4

  5
ARCHTICK
  6

  7

 40
1.0
 41
0.046875
 42
0.09375
 43
0.125
 44
0.0625
 45
0.0
 46
0.0
 47
0.0
 48
0.0
140
0.125
141
0.125
142
0.0
143
25.399999999999999
144
1.0
145
0.0
146
1.0
147
0.0625
 71
     0
 72
     0
 73
     0
 74
     0
 75
     0
 76
     0
 77
     1
 78
     0
170
     0
171
     2
172
     0
173
     0
174
     1
175
     0
176
     0
177
     0
178
     0
  0
DIMSTYLE
  2
HALF_SCALE0
 70
     0
  3
"
  4

  5
ARCHTICK
  6

  7

 40
1.0
 41
0.09375
 42
0.1875
 43
0.25
 44
0.125
 45
0.0
 46
0.0
 47
0.0
 48
0.0
140
0.25
141
0.25
142
0.0
143
25.399999999999999
144
1.0
145
0.0
146
1.0
147
0.125
 71
     0
 72
     0
 73
     0
 74
     0
 75
     0
 76
     0
 77
     1
 78
     0
170
     0
171
     2
172
     0
173
     0
174
     1
175
     0
176
     0
177
     0
178
     0
  0
DIMSTYLE
  2
INCH_SCALE0
 70
     0
  3
"
  4

  5
ARCHTICK
  6

  7

 40
1.0
 41
0.5625
 42
1.125
 43
1.5
 44
0.75
 45
0.0
 46
0.0
 47
0.0
 48
0.0
140
1.125
141
1.5
142
0.0
143
25.399999999999999
144
1.0
145
0.0
146
1.0
147
0.75
 71
     0
 72
     0
 73
     0
 74
     0
 75
     0
 76
     0
 77
     1
 78
     0
170
     0
171
     2
172
     0
173
     0
174
     1
175
     0
176
     0
177
     0
178
     0
  0
DIMSTYLE
  2
THREE_QUARTER_INCH_SCALE0
 70
     0
  3
"
  4

  5
ARCHTICK
  6

  7

 40
1.0
 41
0.75
 42
1.5
 43
2.0
 44
1.0
 45
0.0
 46
0.0
 47
0.0
 48
0.0
140
1.5
141
2.0
142
0.0
143
25.399999999999999
144
1.0
145
0.0
146
1.0
147
1.0
 71
     0
 72
     0
 73
     0
 74
     0
 75
     0
 76
     0
 77
     1
 78
     0
170
     0
171
     2
172
     0
173
     0
174
     1
175
     0
176
     0
177
     0
178
     0
  0
DIMSTYLE
  2
ZHALF_INCH_SCALE0
 70
     0
  3
"
  4

  5
ARCHTICK
  6

  7

 40
1.0
 41
1.125
 42
2.25
 43
3.0
 44
1.5
 45
0.0
 46
0.0
 47
0.0
 48
0.0
140
2.25
141
3.0
142
0.0
143
25.399999999999999
144
1.0
145
0.0
146
1.0
147
1.5
 71
     0
 72
     0
 73
     0
 74
     0
 75
     0
 76
     0
 77
     1
 78
     0
170
     0
171
     2
172
     0
173
     0
174
     1
175
     0
176
     0
177
     0
178
     0
  0
ENDTAB
  0
ENDSEC
  0
SECTION
  2
BLOCKS
  0
BLOCK
  8
0
  2
$MODEL_SPACE
 70
     0
 10
0.0
 20
0.0
 30
0.0
  3
$MODEL_SPACE
  1

  0
ENDBLK
  5
C9DC
  8
0
  0
BLOCK
 67
     1
  8
0
  2
$PAPER_SPACE
 70
     0
 10
0.0
 20
0.0
 30
0.0
  3
$PAPER_SPACE
  1

  0
ENDBLK
  5
C9D8
 67
     1
  8
0
  0
BLOCK
  8
0
  2
_ARCHTICK
 70
     0
 10
0.0
 20
0.0
 30
0.0
  3
_ARCHTICK
  1

  0
POLYLINE
  5
158
  8
0
  6
BYBLOCK
 62
     0
 66
     1
 10
0.0
 20
0.0
 30
0.0
 40
0.15
 41
0.15
  0
VERTEX
  5
156E0
  8
0
  6
BYBLOCK
 62
     0
 10
-0.5
 20
-0.5
 30
0.0
  0
VERTEX
  5
156E1
  8
0
  6
BYBLOCK
 62
     0
 10
0.5
 20
0.5
 30
0.0
  0
SEQEND
  5
156E2
  8
0
  6
BYBLOCK
 62
     0
  0
ENDBLK
  5
15A
  8
0
  0
BLOCK
  8
0
  2
_OPEN30
 70
     0
 10
0.0
 20
0.0
 30
0.0
  3
_OPEN30
  1

  0
LINE
  5
15C
  8
0
  6
BYBLOCK
 62
     0
 10
-1.0
 20
0.26794919
 30
0.0
 11
0.0
 21
0.0
 31
0.0
  0
LINE
  5
15D
  8
0
  6
BYBLOCK
 62
     0
 10
0.0
 20
0.0
 30
0.0
 11
-1.0
 21
-0.26794919
 31
0.0
  0
LINE
  5
15E
  8
0
  6
BYBLOCK
 62
     0
 10
0.0
 20
0.0
 30
0.0
 11
-1.0
 21
0.0
 31
0.0
  0
ENDBLK
  5
160
  8
0
  0
BLOCK
  8
0
  2
ISO_A2_TITLE_BLOCK
 70
     2
 10
0.0
 20
0.0
 30
0.0
  3
ISO_A2_TITLE_BLOCK
  1

  0
LINE
  5
BDD
  8
FRAME_050
 10
299.5
 20
12.5
 30
0.0
 11
297.0
 21
7.5
 31
0.0
  0
LINE
  5
BDE
  8
FRAME_050
 10
294.5
 20
12.5
 30
0.0
 11
299.5
 21
12.5
 31
0.0
  0
LINE
  5
BDF
  8
FRAME_050
 10
247.0
 20
5.0
 30
0.0
 11
347.0
 21
5.0
 31
0.0
  0
LINE
  5
BE0
  8
FRAME_070
 10
584.0
 20
410.0
 30
0.0
 11
10.0
 21
410.0
 31
0.0
  0
LINE
  5
BE1
  8
FRAME_070
 10
10.0
 20
10.0
 30
0.0
 11
584.0
 21
10.0
 31
0.0
  0
LINE
  5
BE2
  8
FRAME_050
 10
12.5
 20
207.5
 30
0.0
 11
7.5
 21
210.0
 31
0.0
  0
LINE
  5
BE3
  8
FRAME_050
 10
12.5
 20
212.5
 30
0.0
 11
12.5
 21
207.5
 31
0.0
  0
LINE
  5
BE4
  8
FRAME_070
 10
10.0
 20
410.0
 30
0.0
 11
10.0
 21
10.0
 31
0.0
  0
LINE
  5
BE5
  8
FRAME_200
 10
0.0
 20
0.0
 30
0.0
 11
0.0
 21
10.0
 31
0.0
  0
LINE
  5
BE6
  8
FRAME_200
 10
0.0
 20
0.0
 30
0.0
 11
10.0
 21
0.0
 31
0.0
  0
TEXT
  5
BE7
  8
FRAME_050
 10
5.9000000000000004
 20
35.0
 30
0.0
 40
4.0
  1
H
  7
ISO_PROPORTIONAL
 72
     4
 11
7.5
 21
37.0
 31
0.0
  0
LINE
  5
BE8
  8
FRAME_050
 10
10.0
 20
60.0
 30
0.0
 11
5.0
 21
60.0
 31
0.0
  0
LINE
  5
BE9
  8
FRAME_050
 10
81.75
 20
5.0
 30
0.0
 11
81.75
 21
10.0
 31
0.0
  0
TEXT
  5
BEA
  8
FRAME_050
 10
44.874999999999993
 20
5.5
 30
0.0
 40
4.0
  1
1
  7
ISO_PROPORTIONAL
 72
     4
 11
45.875
 21
7.5
 31
0.0
  0
TEXT
  5
BEB
  8
FRAME_050
 10
6.0035533905932743
 20
85.0
 30
0.0
 40
4.0
  1
G
  7
ISO_PROPORTIONAL
 72
     4
 11
7.5
 21
87.0
 31
0.0
  0
LINE
  5
BEC
  8
FRAME_050
 10
10.0
 20
110.0
 30
0.0
 11
5.0
 21
110.0
 31
0.0
  0
TEXT
  5
BED
  8
FRAME_050
 10
6.0999999999999988
 20
135.0
 30
0.0
 40
4.0
  1
F
  7
ISO_PROPORTIONAL
 72
     4
 11
7.5
 21
137.0
 31
0.0
  0
LINE
  5
BEE
  8
FRAME_050
 10
10.0
 20
160.0
 30
0.0
 11
5.0
 21
160.0
 31
0.0
  0
TEXT
  5
BEF
  8
FRAME_050
 10
6.0999999999999988
 20
185.0
 30
0.0
 40
4.0
  1
E
  7
ISO_PROPORTIONAL
 72
     4
 11
7.5
 21
187.0
 31
0.0
  0
LINE
  5
BF0
  8
FRAME_050
 10
153.5
 20
5.0
 30
0.0
 11
153.5
 21
10.0
 31
0.0
  0
TEXT
  5
BF1
  8
FRAME_050
 10
116.1556692913386
 20
5.3996062992125982
 30
0.0
 40
4.0
  1
2
  7
ISO_PROPORTIONAL
 72
     4
 11
117.625
 21
7.5
 31
0.0
  0
TEXT
  5
BF2
  8
FRAME_050
 10
187.89215728752529
 20
5.5828427124746138
 30
0.0
 40
4.0
  1
3
  7
ISO_PROPORTIONAL
 72
     4
 11
189.375
 21
7.5
 31
0.0
  0
LINE
  5
BF3
  8
FRAME_050
 10
225.25
 20
5.0
 30
0.0
 11
225.25
 21
10.0
 31
0.0
  0
LINE
  5
BF4
  8
FRAME_050
 10
297.0
 20
7.5
 30
0.0
 11
294.5
 21
12.5
 31
0.0
  0
LINE
  5
BF5
  8
FRAME_050
 10
287.0
 20
5.0
 30
0.0
 11
287.0
 21
10.0
 31
0.0
  0
LINE
  5
BF6
  8
FRAME_050
 10
277.0
 20
5.0
 30
0.0
 11
277.0
 21
10.0
 31
0.0
  0
LINE
  5
BF7
  8
FRAME_050
 10
267.0
 20
5.0
 30
0.0
 11
267.0
 21
10.0
 31
0.0
  0
LINE
  5
BF8
  8
FRAME_050
 10
257.0
 20
5.0
 30
0.0
 11
257.0
 21
10.0
 31
0.0
  0
LINE
  5
BF9
  8
FRAME_050
 10
247.0
 20
5.0
 30
0.0
 11
247.0
 21
10.0
 31
0.0
  0
LINE
  5
BFA
  8
FRAME_050
 10
297.0
 20
10.0
 30
0.0
 11
297.0
 21
5.0
 31
0.0
  0
LINE
  5
BFB
  8
FRAME_050
 10
297.0
 20
10.0
 30
0.0
 11
297.0
 21
15.0
 31
0.0
  0
LINE
  5
BFC
  8
FRAME_050
 10
5.0
 20
210.0
 30
0.0
 11
15.0
 21
210.0
 31
0.0
  0
LINE
  5
BFD
  8
FRAME_050
 10
7.5
 20
210.0
 30
0.0
 11
12.5
 21
212.5
 31
0.0
  0
TEXT
  5
BFE
  8
FRAME_050
 10
5.7860912703473977
 20
235.0
 30
0.0
 40
4.0
  1
D
  7
ISO_PROPORTIONAL
 72
     4
 11
7.5
 21
237.0
 31
0.0
  0
LINE
  5
BFF
  8
FRAME_050
 10
10.0
 20
260.0
 30
0.0
 11
5.0
 21
260.0
 31
0.0
  0
TEXT
  5
C00
  8
FRAME_050
 10
6.1931980515339466
 20
285.0
 30
0.0
 40
4.0
  1
C
  7
ISO_PROPORTIONAL
 72
     4
 11
7.5
 21
287.0
 31
0.0
  0
LINE
  5
C01
  8
FRAME_050
 10
10.0
 20
310.0
 30
0.0
 11
5.0
 21
310.0
 31
0.0
  0
TEXT
  5
C02
  8
FRAME_050
 10
5.8999999999999959
 20
335.0
 30
0.0
 40
4.0
  1
B
  7
ISO_PROPORTIONAL
 72
     4
 11
7.5
 21
337.0
 31
0.0
  0
LINE
  5
C03
  8
FRAME_050
 10
10.0
 20
360.0
 30
0.0
 11
5.0
 21
360.0
 31
0.0
  0
TEXT
  5
C04
  8
FRAME_050
 10
5.6999999999999993
 20
385.0
 30
0.0
 40
4.0
  1
A
  7
ISO_PROPORTIONAL
 72
     4
 11
7.5
 21
387.0
 31
0.0
  0
LINE
  5
C05
  8
FRAME_200
 10
10.0
 20
420.0
 30
0.0
 11
0.0
 21
420.0
 31
0.0
  0
LINE
  5
C06
  8
FRAME_200
 10
0.0
 20
420.0
 30
0.0
 11
0.0
 21
410.0
 31
0.0
  0
TEXT
  5
C07
  8
FRAME_050
 10
44.874999999999993
 20
410.5
 30
0.0
 40
4.0
  1
1
  7
ISO_PROPORTIONAL
 72
     4
 11
45.875
 21
412.5
 31
0.0
  0
LINE
  5
C08
  8
FRAME_050
 10
81.75
 20
410.0
 30
0.0
 11
81.75
 21
415.0
 31
0.0
  0
TEXT
  5
C09
  8
FRAME_050
 10
116.1556692913386
 20
410.39960629921262
 30
0.0
 40
4.0
  1
2
  7
ISO_PROPORTIONAL
 72
     4
 11
117.625
 21
412.5
 31
0.0
  0
LINE
  5
C0A
  8
FRAME_050
 10
153.5
 20
410.0
 30
0.0
 11
153.5
 21
415.0
 31
0.0
  0
TEXT
  5
C0B
  8
FRAME_050
 10
187.89215728752529
 20
410.58284271247459
 30
0.0
 40
4.0
  1
3
  7
ISO_PROPORTIONAL
 72
     4
 11
189.375
 21
412.5
 31
0.0
  0
LINE
  5
C0C
  8
FRAME_050
 10
297.0
 20
405.0
 30
0.0
 11
297.0
 21
415.0
 31
0.0
  0
LINE
  5
C0D
  8
FRAME_050
 10
225.25
 20
410.0
 30
0.0
 11
225.25
 21
415.0
 31
0.0
  0
TEXT
  5
C0E
  8
FRAME_050
 10
259.52499999999998
 20
410.5
 30
0.0
 40
4.0
  1
4
  7
ISO_PROPORTIONAL
 72
     4
 11
261.125
 21
412.5
 31
0.0
  0
LINE
  5
C0F
  8
FRAME_070
 10
584.0
 20
10.0
 30
0.0
 11
584.0
 21
410.0
 31
0.0
  0
ATTDEF
  5
C10
  8
FRAME_025
 10
473.0
 20
31.75
 30
0.0
 40
2.5
  1
XXX - 00/00/00
  7
ISO_PROPORTIONAL
 11
473.0
 21
33.0
 31
0.0
  3
Approved by - Date
  2
APPROVED_BY_DATE
 70
     8
 74
     2
  0
TEXT
  5
C11
  8
FRAME_025
 10
448.0
 20
41.749999999999993
 30
0.0
 40
2.5
  1
Title/Name, designation, material, dimension etc
  7
ISO_PROPORTIONAL
 11
448.0
 21
43.0
 31
0.0
 73
     2
  0
TEXT
  5
C12
  8
FRAME_025
 10
473.0
 20
35.75
 30
0.0
 40
2.5
  1
Approved by - date
  7
ISO_PROPORTIONAL
 11
473.0
 21
37.0
 31
0.0
 73
     2
  0
LINE
  5
C13
  8
FRAME_070
 10
414.0
 20
46.0
 30
0.0
 11
584.0
 21
46.0
 31
0.0
  0
LINE
  5
C14
  8
FRAME_070
 10
414.0
 20
40.0
 30
0.0
 11
584.0
 21
40.0
 31
0.0
  0
LINE
  5
C15
  8
FRAME_070
 10
414.0
 20
30.0
 30
0.0
 11
584.0
 21
30.0
 31
0.0
  0
LINE
  5
C16
  8
FRAME_050
 10
368.75
 20
5.0
 30
0.0
 11
368.75
 21
10.0
 31
0.0
  0
LINE
  5
C17
  8
FRAME_050
 10
337.0
 20
5.0
 30
0.0
 11
337.0
 21
10.0
 31
0.0
  0
LINE
  5
C18
  8
FRAME_050
 10
327.0
 20
5.0
 30
0.0
 11
327.0
 21
10.0
 31
0.0
  0
LINE
  5
C19
  8
FRAME_050
 10
317.0
 20
5.0
 30
0.0
 11
317.0
 21
10.0
 31
0.0
  0
LINE
  5
C1A
  8
FRAME_050
 10
307.0
 20
5.0
 30
0.0
 11
307.0
 21
10.0
 31
0.0
  0
LINE
  5
C1B
  8
FRAME_050
 10
347.0
 20
5.0
 30
0.0
 11
347.0
 21
10.0
 31
0.0
  0
LINE
  5
C1C
  8
FRAME_050
 10
440.5
 20
5.0
 30
0.0
 11
440.5
 21
10.0
 31
0.0
  0
TEXT
  5
C1D
  8
FRAME_050
 10
403.24547244094481
 20
5.4102362204724406
 30
0.0
 40
4.0
  1
6
  7
ISO_PROPORTIONAL
 72
     4
 11
404.62499999999989
 21
7.5
 31
0.0
  0
TEXT
  5
C1E
  8
FRAME_050
 10
474.97499999999991
 20
5.5
 30
0.0
 40
4.0
  1
7
  7
ISO_PROPORTIONAL
 72
     4
 11
476.37499999999989
 21
7.5
 31
0.0
  0
TEXT
  5
C1F
  8
FRAME_025
 10
431.0
 20
41.749999999999993
 30
0.0
 40
2.5
  1
Quantity
  7
ISO_PROPORTIONAL
 11
431.0
 21
43.0
 31
0.0
 73
     2
  0
TEXT
  5
C20
  8
FRAME_025
 10
416.0
 20
41.749999999999993
 30
0.0
 40
2.5
  1
Itemref
  7
ISO_PROPORTIONAL
 11
416.0
 21
43.0
 31
0.0
 73
     2
  0
LINE
  5
C21
  8
FRAME_070
 10
414.0
 20
40.0
 30
0.0
 11
414.0
 21
46.0
 31
0.0
  0
LINE
  5
C22
  8
FRAME_070
 10
429.0
 20
40.0
 30
0.0
 11
429.0
 21
46.0
 31
0.0
  0
LINE
  5
C23
  8
FRAME_070
 10
414.0
 20
10.0
 30
0.0
 11
414.0
 21
40.0
 31
0.0
  0
ATTDEF
  5
C24
  8
FRAME_025
 10
416.0
 20
31.75
 30
0.0
 40
2.5
  1
XXX
  7
ISO_PROPORTIONAL
 11
416.0
 21
33.0
 31
0.0
  3
Designed by
  2
DESIGNED_BY
 70
     8
 74
     2
  0
TEXT
  5
C25
  8
FRAME_025
 10
416.0
 20
35.75
 30
0.0
 40
2.5
  1
Designed by
  7
ISO_PROPORTIONAL
 11
416.0
 21
37.0
 31
0.0
 73
     2
  0
LINE
  5
C26
  8
FRAME_070
 10
446.0
 20
40.0
 30
0.0
 11
446.0
 21
46.0
 31
0.0
  0
ATTDEF
  5
C27
  8
FRAME_025
 10
448.0
 20
31.75
 30
0.0
 40
2.5
  1
XXX
  7
ISO_PROPORTIONAL
 11
448.0
 21
33.0
 31
0.0
  3
Checked by
  2
CHECKED_BY
 70
     8
 74
     2
  0
TEXT
  5
C28
  8
FRAME_025
 10
448.0
 20
35.75
 30
0.0
 40
2.5
  1
Checked by
  7
ISO_PROPORTIONAL
 11
448.0
 21
37.0
 31
0.0
 73
     2
  0
ATTDEF
  5
C29
  8
FRAME_050
 10
444.74999999999989
 20
17.5
 30
0.0
 40
5.0
  1
XXX
  7
ISO_PROPORTIONAL
 72
     4
 11
451.49999999999989
 21
20.0
 31
0.0
  3
Owner
  2
OWNER
 70
     8
  0
LINE
  5
C2A
  8
FRAME_070
 10
446.0
 20
30.0
 30
0.0
 11
446.0
 21
40.0
 31
0.0
  0
LINE
  5
C2B
  8
FRAME_070
 10
471.0
 20
30.0
 30
0.0
 11
471.0
 21
40.0
 31
0.0
  0
LINE
  5
C2C
  8
FRAME_070
 10
489.0
 20
20.0
 30
0.0
 11
584.0
 21
20.0
 31
0.0
  0
LINE
  5
C2D
  8
FRAME_050
 10
512.25
 20
5.0
 30
0.0
 11
512.25
 21
10.0
 31
0.0
  0
TEXT
  5
C2E
  8
FRAME_050
 10
546.72499999999991
 20
5.5
 30
0.0
 40
4.0
  1
8
  7
ISO_PROPORTIONAL
 72
     4
 11
548.125
 21
7.5
 31
0.0
  0
ATTDEF
  5
C2F
  8
FRAME_050
 10
517.64999999999986
 20
13.5
 30
0.0
 40
3.0
  1
X
  7
ISO_PROPORTIONAL
 72
     4
 11
519.0
 21
15.0
 31
0.0
  3
Drawing number
  2
DRAWING_NUMBER
 70
     8
  0
ATTDEF
  5
C30
  8
FRAME_050
 10
529.75
 20
22.5
 30
0.0
 40
5.0
  1
XXX
  7
ISO_PROPORTIONAL
 72
     4
 11
536.5
 21
25.0
 31
0.0
  3
Title / Name
  2
TITLE
 70
     8
  0
LINE
  5
C31
  8
FRAME_070
 10
489.0
 20
10.0
 30
0.0
 11
489.0
 21
30.0
 31
0.0
  0
ATTDEF
  5
C32
  8
FRAME_025
 10
511.0
 20
31.75
 30
0.0
 40
2.5
  1
XXX
  7
ISO_PROPORTIONAL
 11
511.0
 21
33.0
 31
0.0
  3
Filename
  2
FILENAME
 70
     8
 74
     2
  0
TEXT
  5
C33
  8
FRAME_025
 10
511.0
 20
35.75
 30
0.0
 40
2.5
  1
Filename
  7
ISO_PROPORTIONAL
 11
511.0
 21
37.0
 31
0.0
 73
     2
  0
LINE
  5
C34
  8
FRAME_070
 10
509.0
 20
30.0
 30
0.0
 11
509.0
 21
40.0
 31
0.0
  0
TEXT
  5
C35
  8
FRAME_025
 10
536.0
 20
41.749999999999993
 30
0.0
 40
2.5
  1
Article No./Reference
  7
ISO_PROPORTIONAL
 11
536.0
 21
43.0
 31
0.0
 73
     2
  0
LINE
  5
C36
  8
FRAME_070
 10
534.0
 20
40.0
 30
0.0
 11
534.0
 21
46.0
 31
0.0
  0
ATTDEF
  5
C37
  8
FRAME_025
 10
551.0
 20
11.75
 30
0.0
 40
2.5
  1
0
  7
ISO_PROPORTIONAL
 11
551.0
 21
13.0
 31
0.0
  3
Edition
  2
EDITION
 70
     8
 74
     2
  0
TEXT
  5
C38
  8
FRAME_025
 10
551.0
 20
15.75
 30
0.0
 40
2.5
  1
Edition
  7
ISO_PROPORTIONAL
 11
551.0
 21
17.0
 31
0.0
 73
     2
  0
LINE
  5
C39
  8
FRAME_070
 10
549.0
 20
10.0
 30
0.0
 11
549.0
 21
20.0
 31
0.0
  0
ATTDEF
  5
C3A
  8
FRAME_025
 10
536.0
 20
31.75
 30
0.0
 40
2.5
  1
00/00/00
  7
ISO_PROPORTIONAL
 11
536.0
 21
33.0
 31
0.0
  3
Date
  2
DATE
 70
     8
 74
     2
  0
TEXT
  5
C3B
  8
FRAME_025
 10
536.0
 20
35.75
 30
0.0
 40
2.5
  1
Date
  7
ISO_PROPORTIONAL
 11
536.0
 21
37.0
 31
0.0
 73
     2
  0
LINE
  5
C3C
  8
FRAME_070
 10
534.0
 20
30.0
 30
0.0
 11
534.0
 21
40.0
 31
0.0
  0
ATTDEF
  5
C3D
  8
FRAME_025
 10
566.0
 20
11.75
 30
0.0
 40
2.5
  1
1/1
  7
ISO_PROPORTIONAL
 11
566.0
 21
13.0
 31
0.0
  3
Sheet
  2
SHEET
 70
     8
 74
     2
  0
TEXT
  5
C3E
  8
FRAME_025
 10
566.0
 20
15.75
 30
0.0
 40
2.5
  1
Sheet
  7
ISO_PROPORTIONAL
 11
566.0
 21
17.0
 31
0.0
 73
     2
  0
LINE
  5
C3F
  8
FRAME_070
 10
564.0
 20
10.0
 30
0.0
 11
564.0
 21
20.0
 31
0.0
  0
ATTDEF
  5
C40
  8
FRAME_025
 10
566.0
 20
31.75
 30
0.0
 40
2.5
  1
1:1
  7
ISO_PROPORTIONAL
 11
566.0
 21
33.0
 31
0.0
  3
Scale
  2
SCALE
 70
     8
 74
     2
  0
TEXT
  5
C41
  8
FRAME_025
 10
566.0
 20
35.75
 30
0.0
 40
2.5
  1
Scale
  7
ISO_PROPORTIONAL
 11
566.0
 21
37.0
 31
0.0
 73
     2
  0
LINE
  5
C42
  8
FRAME_070
 10
564.0
 20
30.0
 30
0.0
 11
564.0
 21
40.0
 31
0.0
  0
LINE
  5
C43
  8
FRAME_200
 10
594.0
 20
0.0
 30
0.0
 11
594.0
 21
10.0
 31
0.0
  0
LINE
  5
C44
  8
FRAME_200
 10
594.0
 20
0.0
 30
0.0
 11
584.0
 21
0.0
 31
0.0
  0
TEXT
  5
C45
  8
FRAME_050
 10
584.89999999999998
 20
35.0
 30
0.0
 40
4.0
  1
H
  7
ISO_PROPORTIONAL
 72
     4
 11
586.5
 21
37.0
 31
0.0
  0
LINE
  5
C46
  8
FRAME_050
 10
589.0
 20
60.0
 30
0.0
 11
584.0
 21
60.0
 31
0.0
  0
TEXT
  5
C47
  8
FRAME_050
 10
585.0035533905932
 20
85.0
 30
0.0
 40
4.0
  1
G
  7
ISO_PROPORTIONAL
 72
     4
 11
586.5
 21
87.0
 31
0.0
  0
LINE
  5
C48
  8
FRAME_050
 10
589.0
 20
110.0
 30
0.0
 11
584.0
 21
110.0
 31
0.0
  0
TEXT
  5
C49
  8
FRAME_050
 10
585.09999999999991
 20
135.0
 30
0.0
 40
4.0
  1
F
  7
ISO_PROPORTIONAL
 72
     4
 11
586.5
 21
137.0
 31
0.0
  0
LINE
  5
C4A
  8
FRAME_050
 10
589.0
 20
160.0
 30
0.0
 11
584.0
 21
160.0
 31
0.0
  0
TEXT
  5
C4B
  8
FRAME_050
 10
585.09999999999991
 20
185.0
 30
0.0
 40
4.0
  1
E
  7
ISO_PROPORTIONAL
 72
     4
 11
586.5
 21
187.0
 31
0.0
  0
LINE
  5
C4C
  8
FRAME_070
 10
414.0
 20
404.0
 30
0.0
 11
584.0
 21
404.0
 31
0.0
  0
TEXT
  5
C4D
  8
FRAME_050
 10
331.39215728752538
 20
410.58284271247459
 30
0.0
 40
4.0
  1
5
  7
ISO_PROPORTIONAL
 72
     4
 11
332.875
 21
412.5
 31
0.0
  0
LINE
  5
C4E
  8
FRAME_050
 10
368.75
 20
410.0
 30
0.0
 11
368.75
 21
415.0
 31
0.0
  0
TEXT
  5
C4F
  8
FRAME_025
 10
428.0
 20
405.75
 30
0.0
 40
2.5
  1
Revision note
  7
ISO_PROPORTIONAL
 11
428.0
 21
407.0
 31
0.0
 73
     2
  0
TEXT
  5
C50
  8
FRAME_025
 10
416.0
 20
405.75
 30
0.0
 40
2.5
  1
RevNo
  7
ISO_PROPORTIONAL
 11
416.0
 21
407.0
 31
0.0
 73
     2
  0
LINE
  5
C51
  8
FRAME_070
 10
426.0
 20
404.0
 30
0.0
 11
426.0
 21
410.0
 31
0.0
  0
LINE
  5
C52
  8
FRAME_070
 10
414.0
 20
404.0
 30
0.0
 11
414.0
 21
410.0
 31
0.0
  0
TEXT
  5
C53
  8
FRAME_050
 10
403.24547244094481
 20
410.41023622047243
 30
0.0
 40
4.0
  1
6
  7
ISO_PROPORTIONAL
 72
     4
 11
404.62499999999989
 21
412.5
 31
0.0
  0
LINE
  5
C54
  8
FRAME_050
 10
440.5
 20
410.0
 30
0.0
 11
440.5
 21
415.0
 31
0.0
  0
TEXT
  5
C55
  8
FRAME_050
 10
474.97499999999991
 20
410.5
 30
0.0
 40
4.0
  1
7
  7
ISO_PROPORTIONAL
 72
     4
 11
476.37499999999989
 21
412.5
 31
0.0
  0
LINE
  5
C56
  8
FRAME_050
 10
579.0
 20
210.0
 30
0.0
 11
589.0
 21
210.0
 31
0.0
  0
TEXT
  5
C57
  8
FRAME_050
 10
584.78609127034736
 20
235.0
 30
0.0
 40
4.0
  1
D
  7
ISO_PROPORTIONAL
 72
     4
 11
586.5
 21
237.0
 31
0.0
  0
LINE
  5
C58
  8
FRAME_050
 10
589.0
 20
260.0
 30
0.0
 11
584.0
 21
260.0
 31
0.0
  0
TEXT
  5
C59
  8
FRAME_050
 10
585.19319805153395
 20
285.0
 30
0.0
 40
4.0
  1
C
  7
ISO_PROPORTIONAL
 72
     4
 11
586.5
 21
287.0
 31
0.0
  0
LINE
  5
C5A
  8
FRAME_050
 10
589.0
 20
310.0
 30
0.0
 11
584.0
 21
310.0
 31
0.0
  0
TEXT
  5
C5B
  8
FRAME_050
 10
584.89999999999998
 20
335.0
 30
0.0
 40
4.0
  1
B
  7
ISO_PROPORTIONAL
 72
     4
 11
586.5
 21
337.0
 31
0.0
  0
TEXT
  5
C5C
  8
FRAME_025
 10
571.08299391850551
 20
405.75
 30
0.0
 40
2.5
  1
Checked
  7
ISO_PROPORTIONAL
 11
571.08299391850551
 21
407.0
 31
0.0
 73
     2
  0
TEXT
  5
C5D
  8
FRAME_025
 10
555.36099797283521
 20
405.75
 30
0.0
 40
2.5
  1
Signature
  7
ISO_PROPORTIONAL
 11
555.36099797283521
 21
407.0
 31
0.0
 73
     2
  0
TEXT
  5
C5E
  8
FRAME_025
 10
537.0
 20
405.75
 30
0.0
 40
2.5
  1
Date
  7
ISO_PROPORTIONAL
 11
537.0
 21
407.0
 31
0.0
 73
     2
  0
LINE
  5
C5F
  8
FRAME_070
 10
570.0
 20
404.0
 30
0.0
 11
570.0
 21
410.0
 31
0.0
  0
LINE
  5
C60
  8
FRAME_070
 10
555.0
 20
404.0
 30
0.0
 11
555.0
 21
410.0
 31
0.0
  0
LINE
  5
C61
  8
FRAME_070
 10
535.0
 20
404.0
 30
0.0
 11
535.0
 21
410.0
 31
0.0
  0
LINE
  5
C62
  8
FRAME_050
 10
512.25
 20
410.0
 30
0.0
 11
512.25
 21
415.0
 31
0.0
  0
TEXT
  5
C63
  8
FRAME_050
 10
546.72499999999991
 20
410.5
 30
0.0
 40
4.0
  1
8
  7
ISO_PROPORTIONAL
 72
     4
 11
548.125
 21
412.5
 31
0.0
  0
LINE
  5
C64
  8
FRAME_050
 10
589.0
 20
360.0
 30
0.0
 11
584.0
 21
360.0
 31
0.0
  0
TEXT
  5
C65
  8
FRAME_050
 10
584.70000000000005
 20
385.0
 30
0.0
 40
4.0
  1
A
  7
ISO_PROPORTIONAL
 72
     4
 11
586.5
 21
387.0
 31
0.0
  0
LINE
  5
C66
  8
FRAME_200
 10
594.0
 20
420.0
 30
0.0
 11
584.0
 21
420.0
 31
0.0
  0
LINE
  5
C67
  8
FRAME_200
 10
594.0
 20
410.0
 30
0.0
 11
594.0
 21
420.0
 31
0.0
  0
ENDBLK
  5
C69
  8
0
  0
BLOCK
  8
0
  2
WOBB001END
 70
     0
 10
0.0
 20
0.0
 30
0.0
  3
WOBB001END
  1

  0
LINE
  5
4D66
  8
0
  6
CONTINUOUS
 10
0.0
 20
0.0
 30
0.0
 11
0.8749999999999998
 21
0.0
 31
0.0
  0
ARC
  5
4D67
  8
0
  6
CONTINUOUS
 10
0.0331648379439287
 20
-0.5087238935900234
 30
0.0
 40
0.8790130605592325
 50
284.06490243660443
 51
312.19222981924361
  0
ARC
  5
4D68
  8
0
  6
CONTINUOUS
 10
0.2841534338796767
 20
-1.510548310625538
 30
0.0
 40
0.1537731892806598
 50
104.0649024366044
 51
179.4721730735024
  0
LINE
  5
4D69
  8
0
  6
CONTINUOUS
 10
0.0
 20
0.0
 30
0.0
 11
-0.0000000000000003
 21
-1.7501564476661911
 31
0.0
  0
ARC
  5
4D6A
  8
0
  6
CONTINUOUS
 10
0.1404622019506122
 20
-1.630313718354619
 30
0.0
 40
0.1198427293115722
 50
275.0
 51
85.000000000000057
  0
LINE
  5
4D6B
  8
0
  6
CONTINUOUS
 10
-0.0000000000000003
 20
-1.7501564476661911
 30
0.0
 11
0.1456946485130855
 21
-1.7501564476661911
 31
0.0
  0
LINE
  5
4D6C
  8
0
  6
CONTINUOUS
 10
0.1377603739254348
 20
-1.7508506067459131
 30
0.0
 11
0.150907184036669
 21
-1.7497004098996509
 31
0.0
  0
LINE
  5
4D6D
  8
0
  6
CONTINUOUS
 10
0.1303867696719884
 20
-1.5091317231818231
 30
0.0
 11
0.1509071840366689
 21
-1.510927026809586
 31
0.0
  0
LINE
  5
4D6E
  8
0
  6
CONTINUOUS
 10
0.8749999999999998
 20
0.0
 30
0.0
 11
0.8749999999999996
 21
-0.8649327026588228
 31
0.0
  0
LINE
  5
4D6F
  8
0
  6
CONTINUOUS
 10
0.727014513830997
 20
-0.872688293355061
 30
0.0
 11
0.727014513830997
 21
-0.9264923397184784
 31
0.0
  0
ARC
  5
4D70
  8
0
  6
CONTINUOUS
 10
0.41187090827646
 20
-0.9264923397184784
 30
0.0
 40
0.3151436055545369
 50
312.19222981924361
 51
0.0
  0
LINE
  5
4D71
  8
0
  6
CONTINUOUS
 10
0.727014513830997
 20
-0.872688293355061
 30
0.0
 11
0.8749999999999996
 21
-0.8649327026588228
 31
0.0
  0
ENDBLK
  5
4D72
  8
0
  0
BLOCK
  8
0
  2
A$C0A61123B
 70
     0
 10
0.0
 20
0.0
 30
0.0
  3
A$C0A61123B
  1

  0
LINE
  5
C0AD
  8
PROF
  6
CONTINUOUS
 10
4.9012016798694162
 20
13.325025853350891
 30
0.0000000000000002
 11
4.9012016798694162
 21
12.88585218805485
 31
0.0000000000000003
  0
INSERT
  5
C0AE
  8
0
  2
*U7
 10
0.0
 20
0.0
 30
0.0
  0
LINE
  5
C0AF
  8
PROF
 10
4.519857503186925
 20
12.72227734589444
 30
0.0000000000000001
 11
4.519857503186925
 21
12.88585218805485
 31
0.0000000000000001
  0
LINE
  5
C0B0
  8
PROF
  6
CONTINUOUS
 10
3.6306271195888362
 20
13.325025853350891
 30
0.0000000000000002
 11
4.9012016798694162
 21
13.325025853350891
 31
0.0000000000000002
  0
LINE
  5
C0B1
  8
PROF
 10
1.9750295148747341
 20
10.37671325491794
 30
0.0000000000000002
 11
1.9750295148747341
 21
10.11391186758919
 31
0.0000000000000002
  0
LINE
  5
C0B2
  8
PROF
 10
1.6079673357556299
 20
10.11391186758919
 30
0.0000000000000001
 11
1.9750295148747341
 21
10.11391186758919
 31
0.0000000000000001
  0
LINE
  5
C0B3
  8
PROF
 10
1.9750295148747341
 20
10.11391186758919
 30
0.0000000000000001
 11
1.944958486898144
 21
10.11391186758919
 31
0.0000000000000001
  0
LINE
  5
C0B4
  8
PROF
 10
1.9750295148747341
 20
10.11391186758919
 30
0.0000000000000001
 11
1.944958486898144
 21
10.11391186758919
 31
0.0000000000000001
  0
LINE
  5
C0B5
  8
PROF
 10
0.3222605517169654
 20
7.5247473351056451
 30
-0.0000000000000002
 11
-0.0000008570117416
 21
7.5247473351056451
 31
0.0
  0
LINE
  5
C0B6
  8
PROF
 10
-0.0000008570117416
 20
7.5247473351056451
 30
0.0
 11
-0.0000008570117416
 21
9.1943336957369848
 31
0.0
  0
POLYLINE
  5
C0B7
  8
PROF
 66
     1
 10
0.0
 20
0.0
 30
0.0000000000000001
 70
     4
 75
     6
  0
VERTEX
  5
C0B8
  8
PROF
 10
1.6079673357556299
 20
10.11391186758919
 30
0.0000000000000001
 70
    16
  0
VERTEX
  5
C0B9
  8
PROF
 10
1.6079673357556299
 20
10.11391186758919
 30
0.0000000000000001
 70
     8
  0
VERTEX
  5
C0BA
  8
PROF
 10
1.6468132326485809
 20
10.02198069336111
 30
0.0000000000000001
 70
     8
  0
VERTEX
  5
C0BB
  8
PROF
 10
1.67335966680929
 20
9.9344134163010231
 30
0.0000000000000001
 70
     8
  0
VERTEX
  5
C0BC
  8
PROF
 10
1.6890086400463229
 20
9.8512576644480951
 30
0.0000000000000001
 70
     8
  0
VERTEX
  5
C0BD
  8
PROF
 10
1.6951621541682571
 20
9.7725610658417281
 30
0.0000000000000001
 70
     8
  0
VERTEX
  5
C0BE
  8
PROF
 10
1.693222210983605
 20
9.6983712485214237
 30
0.0000000000000001
 70
     8
  0
VERTEX
  5
C0BF
  8
PROF
 10
1.6845908123009961
 20
9.6287358405263603
 30
0.0000000000000001
 70
     8
  0
VERTEX
  5
C0C0
  8
PROF
 10
1.670669959928885
 20
9.5637024698960431
 30
0.0000000000000001
 70
     8
  0
VERTEX
  5
C0C1
  8
PROF
 10
1.6528616556759621
 20
9.5033187646697552
 30
0.0000000000000001
 70
     8
  0
VERTEX
  5
C0C2
  8
PROF
 10
1.632356299273054
 20
9.4475843259650691
 30
0.0000000000000001
 70
     8
  0
VERTEX
  5
C0C3
  8
PROF
 10
1.609497882140658
 20
9.3963066472123273
 30
0.0000000000000001
 70
     8
  0
VERTEX
  5
C0C4
  8
PROF
 10
1.584418793621637
 20
9.3492451949202842
 30
0.0000000000000001
 70
     8
  0
VERTEX
  5
C0C5
  8
PROF
 10
1.5572514230587431
 20
9.3061594355972357
 30
0.0000000000000001
 70
     8
  0
VERTEX
  5
C0C6
  8
PROF
 10
1.5281281597949601
 20
9.2668088357519274
 30
0.0000000000000001
 70
     8
  0
VERTEX
  5
C0C7
  8
PROF
 10
1.497181393172978
 20
9.2309528618929981
 30
0.0000000000000001
 70
     8
  0
VERTEX
  5
C0C8
  8
PROF
 10
1.4645435125357249
 20
9.1983509805288541
 30
0.0000000000000001
 70
     8
  0
VERTEX
  5
C0C9
  8
PROF
 10
1.4303469072260091
 20
9.1687626581682462
 30
0.0000000000000001
 70
     8
  0
VERTEX
  5
C0CA
  8
PROF
 10
1.394736033257401
 20
9.1419547918675335
 30
0.0000000000000001
 70
     8
  0
VERTEX
  5
C0CB
  8
PROF
 10
1.3579036133264131
 20
9.1177240008747713
 30
0.0000000000000001
 70
     8
  0
VERTEX
  5
C0CC
  8
PROF
 10
1.3200544368004321
 20
9.0958743349860924
 30
0.0000000000000001
 70
     8
  0
VERTEX
  5
C0CD
  8
PROF
 10
1.281393293046676
 20
9.0762098439975034
 30
0.0000000000000001
 70
     8
  0
VERTEX
  5
C0CE
  8
PROF
 10
1.2421249714324161
 20
9.0585345777049042
 30
0.0000000000000001
 70
     8
  0
VERTEX
  5
C0CF
  8
PROF
 10
1.202454261324986
 20
9.0426525859044187
 30
0.0000000000000001
 70
     8
  0
VERTEX
  5
C0D0
  8
PROF
 10
1.162585952091659
 20
9.0283679183919503
 30
0.0000000000000001
 70
     8
  0
VERTEX
  5
C0D1
  8
PROF
 10
1.1227248330997091
 20
9.0154846249635021
 30
0.0000000000000001
 70
     8
  0
VERTEX
  5
C0D2
  8
PROF
 10
1.0829726247361
 20
9.0034643862466055
 30
0.0000000000000001
 70
     8
  0
VERTEX
  5
C0D3
  8
PROF
 10
1.043018771466222
 20
8.9903994061946833
 30
0.0000000000000001
 70
     8
  0
VERTEX
  5
C0D4
  8
PROF
 10
1.002449648775211
 20
8.9740395195925622
 30
0.0000000000000001
 70
     8
  0
VERTEX
  5
C0D5
  8
PROF
 10
0.9608516321480919
 20
8.9521345612251935
 30
0.0000000000000001
 70
     8
  0
VERTEX
  5
C0D6
  8
PROF
 10
0.9178110970699435
 20
8.9224343658775052
 30
0.0000000000000001
 70
     8
  0
VERTEX
  5
C0D7
  8
PROF
 10
0.8729144190259033
 20
8.8826887683343312
 30
0.0000000000000001
 70
     8
  0
VERTEX
  5
C0D8
  8
PROF
 10
0.8257479735009949
 20
8.8306476033806121
 30
0.0000000000000001
 70
     8
  0
VERTEX
  5
C0D9
  8
PROF
 10
0.7758981359802988
 20
8.764060705801171
 30
0.0000000000000001
 70
     8
  0
VERTEX
  5
C0DA
  8
PROF
 10
1.7292019016096549
 20
9.8629858761255491
 30
0.0000000000000001
 70
    16
  0
VERTEX
  5
C0DB
  8
PROF
 10
1.679373123114088
 20
9.4532143012734213
 30
0.0000000000000001
 70
    16
  0
VERTEX
  5
C0DC
  8
PROF
 10
1.4455611507419801
 20
9.1391837193732481
 30
0.0000000000000001
 70
    16
  0
VERTEX
  5
C0DD
  8
PROF
 10
1.1204637172738201
 20
9.0026267702428413
 30
0.0000000000000001
 70
    16
  0
VERTEX
  5
C0DE
  8
PROF
 10
0.9127765582653638
 20
8.9630202230383702
 30
0.0000000000000001
 70
    16
  0
VERTEX
  5
C0DF
  8
PROF
 10
0.7758981359802988
 20
8.764060705801171
 30
0.0000000000000001
 70
    16
  0
SEQEND
  5
C0E0
  8
PROF
  0
ARC
  5
C0E1
  8
PROF
 10
0.733429816733235
 20
8.4849506952165257
 30
0.0000000000000001
 40
0.2823224329524727
 50
269.73652020831901
 51
81.348449993176914
  0
LINE
  5
C0E2
  8
PROF
  6
CONTINUOUS
 10
-0.0000008570117416
 20
9.1943336957369848
 30
-0.0000000000000001
 11
3.6306271195888362
 21
13.325025853350891
 31
0.0000000000000002
  0
POLYLINE
  5
C0E3
  8
PROF
 66
     1
 10
0.0
 20
0.0
 30
0.0000000000000001
 70
     4
 75
     6
  0
VERTEX
  5
C0E4
  8
PROF
 10
4.519857503186925
 20
12.72227734589444
 30
0.0000000000000001
 70
    16
  0
VERTEX
  5
C0E5
  8
PROF
 10
4.519857503186925
 20
12.72227734589444
 30
0.0000000000000001
 70
     8
  0
VERTEX
  5
C0E6
  8
PROF
 10
4.4467035366886289
 20
12.741128108778071
 30
0.0000000000000001
 70
     8
  0
VERTEX
  5
C0E7
  8
PROF
 10
4.3786645761268801
 20
12.754675269913941
 30
0.0000000000000001
 70
     8
  0
VERTEX
  5
C0E8
  8
PROF
 10
4.3154364111440469
 20
12.76334314092332
 30
0.0000000000000001
 70
     8
  0
VERTEX
  5
C0E9
  8
PROF
 10
4.256714831382566
 20
12.76755603342724
 30
0.0000000000000001
 70
     8
  0
VERTEX
  5
C0EA
  8
PROF
 10
4.2021956264849791
 20
12.76773825904672
 30
0.0000000000000001
 70
     8
  0
VERTEX
  5
C0EB
  8
PROF
 10
4.1515745860935436
 20
12.764314129403139
 30
0.0000000000000001
 70
     8
  0
VERTEX
  5
C0EC
  8
PROF
 10
4.1045474998508649
 20
12.75770795611743
 30
0.0000000000000001
 70
     8
  0
VERTEX
  5
C0ED
  8
PROF
 10
4.0608101573993149
 20
12.748344050810831
 30
0.0000000000000001
 70
     8
  0
VERTEX
  5
C0EE
  8
PROF
 10
4.0200583483813261
 20
12.736646725104491
 30
0.0000000000000001
 70
     8
  0
VERTEX
  5
C0EF
  8
PROF
 10
3.981987862439381
 20
12.72304029061945
 30
0.0000000000000001
 70
     8
  0
VERTEX
  5
C0F0
  8
PROF
 10
3.946294489215858
 20
12.707949058976959
 30
0.0000000000000001
 70
     8
  0
VERTEX
  5
C0F1
  8
PROF
 10
3.912674018353242
 20
12.691797341798059
 30
0.0000000000000001
 70
     8
  0
VERTEX
  5
C0F2
  8
PROF
 10
3.8808638350742499
 20
12.67494295718654
 30
0.0000000000000001
 70
     8
  0
VERTEX
  5
C0F3
  8
PROF
 10
3.850767706922738
 20
12.65747774917668
 30
0.0000000000000001
 70
     8
  0
VERTEX
  5
C0F4
  8
PROF
 10
3.8223309970228438
 20
12.639427068285499
 30
0.0000000000000001
 70
     8
  0
VERTEX
  5
C0F5
  8
PROF
 10
3.795499068498712
 20
12.62081626503004
 30
0.0000000000000001
 70
     8
  0
VERTEX
  5
C0F6
  8
PROF
 10
3.7702172844744819
 20
12.601670689926999
 30
0.0000000000000001
 70
     8
  0
VERTEX
  5
C0F7
  8
PROF
 10
3.7464310080743521
 20
12.58201569349364
 30
0.0000000000000001
 70
     8
  0
VERTEX
  5
C0F8
  8
PROF
 10
3.7240856024224609
 20
12.56187662624666
 30
0.0000000000000001
 70
     8
  0
VERTEX
  5
C0F9
  8
PROF
 10
3.7031264306428961
 20
12.541278838703191
 30
0.0000000000000001
 70
     8
  0
VERTEX
  5
C0FA
  8
PROF
 10
3.683498855859908
 20
12.520247681380051
 30
0.0000000000000001
 70
     8
  0
VERTEX
  5
C0FB
  8
PROF
 10
3.665148241197528
 20
12.49880850479428
 30
0.0000000000000001
 70
     8
  0
VERTEX
  5
C0FC
  8
PROF
 10
3.648019949779949
 20
12.47698665946279
 30
0.0000000000000001
 70
     8
  0
VERTEX
  5
C0FD
  8
PROF
 10
3.6320593447313159
 20
12.45480749590263
 30
0.0000000000000001
 70
     8
  0
VERTEX
  5
C0FE
  8
PROF
 10
3.617189584886658
 20
12.43223790353807
 30
0.0000000000000001
 70
     8
  0
VERTEX
  5
C0FF
  8
PROF
 10
3.6032450119242849
 20
12.40901092742285
 30
0.0000000000000001
 70
     8
  0
VERTEX
  5
C100
  8
PROF
 10
3.590037763233453
 20
12.38480115151844
 30
0.0000000000000001
 70
     8
  0
VERTEX
  5
C101
  8
PROF
 10
3.5773799762033032
 20
12.35928315978594
 30
0.0000000000000001
 70
     8
  0
VERTEX
  5
C102
  8
PROF
 10
3.5650837882230899
 20
12.33213153618658
 30
0.0000000000000001
 70
     8
  0
VERTEX
  5
C103
  8
PROF
 10
3.552961336681959
 20
12.303020864681571
 30
0.0000000000000001
 70
     8
  0
VERTEX
  5
C104
  8
PROF
 10
3.540824758969165
 20
12.271625729232371
 30
0.0000000000000001
 70
     8
  0
VERTEX
  5
C105
  8
PROF
 10
3.528486192473848
 20
12.23762071379997
 30
0.0000000000000001
 70
     8
  0
VERTEX
  5
C106
  8
PROF
 10
3.5157577745852659
 20
12.200680402345711
 30
0.0000000000000001
 70
     8
  0
VERTEX
  5
C107
  8
PROF
 10
3.502451642692618
 20
12.16047937883093
 30
0.0000000000000001
 70
     8
  0
VERTEX
  5
C108
  8
PROF
 10
3.4883799341851041
 20
12.116692227216619
 30
0.0000000000000001
 70
     8
  0
VERTEX
  5
C109
  8
PROF
 10
3.4733547864519201
 20
12.06899353146423
 30
0.0000000000000001
 70
     8
  0
VERTEX
  5
C10A
  8
PROF
 10
3.45723654619428
 20
12.0172095445447
 30
0.0000000000000001
 70
     8
  0
VERTEX
  5
C10B
  8
PROF
 10
3.440078397361388
 20
11.961773195467799
 30
0.0000000000000001
 70
     8
  0
VERTEX
  5
C10C
  8
PROF
 10
3.4219817332145781
 20
11.90326908225302
 30
0.0000000000000001
 70
     8
  0
VERTEX
  5
C10D
  8
PROF
 10
3.4030479470150099
 20
11.842281802919951
 30
0.0000000000000001
 70
     8
  0
VERTEX
  5
C10E
  8
PROF
 10
3.383378432024017
 20
11.779395955487979
 30
0.0000000000000001
 70
     8
  0
VERTEX
  5
C10F
  8
PROF
 10
3.36307458150287
 20
11.7151961379768
 30
0.0000000000000001
 70
     8
  0
VERTEX
  5
C110
  8
PROF
 10
3.342237788712735
 20
11.650266948405831
 30
0.0000000000000001
 70
     8
  0
VERTEX
  5
C111
  8
PROF
 10
3.3209694469149991
 20
11.58519298479461
 30
0.0000000000000001
 70
     8
  0
VERTEX
  5
C112
  8
PROF
 10
3.299370949370767
 20
11.52055884516254
 30
0.0000000000000001
 70
     8
  0
VERTEX
  5
C113
  8
PROF
 10
3.277543689341428
 20
11.456949127529461
 30
0.0000000000000001
 70
     8
  0
VERTEX
  5
C114
  8
PROF
 10
3.2555890600881399
 20
11.3949484299145
 30
0.0000000000000001
 70
     8
  0
VERTEX
  5
C115
  8
PROF
 10
3.2336084548721811
 20
11.335141350337491
 30
0.0000000000000001
 70
     8
  0
VERTEX
  5
C116
  8
PROF
 10
3.2116715641212181
 20
11.277995447977769
 30
0.0000000000000001
 70
     8
  0
VERTEX
  5
C117
  8
PROF
 10
3.1897212669278461
 20
11.22351012665467
 30
0.0000000000000001
 70
     8
  0
VERTEX
  5
C118
  8
PROF
 10
3.1676687395512881
 20
11.17156775134765
 30
0.0000000000000001
 70
     8
  0
VERTEX
  5
C119
  8
PROF
 10
3.1454251582505321
 20
11.12205068703588
 30
0.0000000000000001
 70
     8
  0
VERTEX
  5
C11A
  8
PROF
 10
3.122901699284625
 20
11.07484129869874
 30
0.0000000000000001
 70
     8
  0
VERTEX
  5
C11B
  8
PROF
 10
3.1000095389127278
 20
11.02982195131551
 30
0.0000000000000001
 70
     8
  0
VERTEX
  5
C11C
  8
PROF
 10
3.07665985339389
 20
10.986875009865679
 30
0.0000000000000001
 70
     8
  0
VERTEX
  5
C11D
  8
PROF
 10
3.0527638189871591
 20
10.9458828393283
 30
0.0000000000000001
 70
     8
  0
VERTEX
  5
C11E
  8
PROF
 10
3.0282326119516361
 20
10.90672780468298
 30
0.0000000000000001
 70
     8
  0
VERTEX
  5
C11F
  8
PROF
 10
3.0029774085463701
 20
10.869292270908771
 30
0.0000000000000001
 70
     8
  0
VERTEX
  5
C120
  8
PROF
 10
2.9769093850304089
 20
10.833458602985161
 30
0.0000000000000001
 70
     8
  0
VERTEX
  5
C121
  8
PROF
 10
2.9499397176628559
 20
10.799109165891419
 30
0.0000000000000001
 70
     8
  0
VERTEX
  5
C122
  8
PROF
 10
2.922000609840437
 20
10.76614363969508
 30
0.0000000000000001
 70
     8
  0
VERTEX
  5
C123
  8
PROF
 10
2.8931083735102998
 20
10.7345309648158
 30
0.0000000000000001
 70
     8
  0
VERTEX
  5
C124
  8
PROF
 10
2.8633003477572729
 20
10.70425739676193
 30
0.0000000000000001
 70
     8
  0
VERTEX
  5
C125
  8
PROF
 10
2.8326138716660689
 20
10.67530919104115
 30
0.0000000000000001
 70
     8
  0
VERTEX
  5
C126
  8
PROF
 10
2.801086284321626
 20
10.647672603161711
 30
0.0000000000000001
 70
     8
  0
VERTEX
  5
C127
  8
PROF
 10
2.7687549248087162
 20
10.62133388863162
 30
0.0000000000000001
 70
     8
  0
VERTEX
  5
C128
  8
PROF
 10
2.7356571322120531
 20
10.5962793029588
 30
0.0000000000000001
 70
     8
  0
VERTEX
  5
C129
  8
PROF
 10
2.7018302456165202
 20
10.572495101651381
 30
0.0000000000000001
 70
     8
  0
VERTEX
  5
C12A
  8
PROF
 10
2.6673116041068838
 20
10.54996754021726
 30
0.0000000000000001
 70
     8
  0
VERTEX
  5
C12B
  8
PROF
 10
2.6321385467680321
 20
10.528682874164581
 30
0.0000000000000001
 70
     8
  0
VERTEX
  5
C12C
  8
PROF
 10
2.5963484126846179
 20
10.508627359001251
 30
0.0000000000000001
 70
     8
  0
VERTEX
  5
C12D
  8
PROF
 10
2.5599785409415841
 20
10.489787250235279
 30
0.0000000000000001
 70
     8
  0
VERTEX
  5
C12E
  8
PROF
 10
2.522998630314361
 20
10.472162234281081
 30
0.0000000000000001
 70
     8
  0
VERTEX
  5
C12F
  8
PROF
 10
2.4851078183409072
 20
10.455805721177621
 30
0.0000000000000001
 70
     8
  0
VERTEX
  5
C130
  8
PROF
 10
2.4459376022498982
 20
10.44078455187036
 30
0.0000000000000001
 70
     8
  0
VERTEX
  5
C131
  8
PROF
 10
2.4051194792701249
 20
10.42716556730465
 30
0.0000000000000001
 70
     8
  0
VERTEX
  5
C132
  8
PROF
 10
2.3622849466301541
 20
10.415015608425851
 30
0.0000000000000001
 70
     8
  0
VERTEX
  5
C133
  8
PROF
 10
2.317065501558714
 20
10.40440151617929
 30
0.0000000000000001
 70
     8
  0
VERTEX
  5
C134
  8
PROF
 10
2.2690926412844301
 20
10.395390131510339
 30
0.0000000000000001
 70
     8
  0
VERTEX
  5
C135
  8
PROF
 10
2.2179978630360879
 20
10.388048295364451
 30
0.0000000000000001
 70
     8
  0
VERTEX
  5
C136
  8
PROF
 10
2.1634126640422551
 20
10.38244284868688
 30
0.0000000000000001
 70
     8
  0
VERTEX
  5
C137
  8
PROF
 10
2.1049685415316031
 20
10.37864063242295
 30
0.0000000000000001
 70
     8
  0
VERTEX
  5
C138
  8
PROF
 10
2.0422969927328709
 20
10.37670848751816
 30
0.0000000000000001
 70
     8
  0
VERTEX
  5
C139
  8
PROF
 10
1.9750295148747341
 20
10.37671325491794
 30
0.0000000000000001
 70
     8
  0
VERTEX
  5
C13A
  8
PROF
 10
4.2166060115107484
 20
12.80885334975255
 30
0.0000000000000001
 70
    16
  0
VERTEX
  5
C13B
  8
PROF
 10
3.8702254102732909
 20
12.707065515763929
 30
0.0000000000000001
 70
    16
  0
VERTEX
  5
C13C
  8
PROF
 10
3.605346156896871
 20
12.46277472098552
 30
0.0000000000000001
 70
    16
  0
VERTEX
  5
C13D
  8
PROF
 10
3.500746030527238
 20
12.170680575709749
 30
0.0000000000000001
 70
    16
  0
VERTEX
  5
C13E
  8
PROF
 10
3.231798439705698
 20
11.26846416496107
 30
0.0000000000000001
 70
    16
  0
VERTEX
  5
C13F
  8
PROF
 10
2.9737109398832882
 20
10.76631086647069
 30
0.0000000000000001
 70
    16
  0
VERTEX
  5
C140
  8
PROF
 10
2.5729961067384002
 20
10.460947364504699
 30
0.0000000000000001
 70
    16
  0
VERTEX
  5
C141
  8
PROF
 10
2.2537826214546031
 20
10.372731239449759
 30
0.0000000000000001
 70
    16
  0
VERTEX
  5
C142
  8
PROF
 10
1.9750295148747341
 20
10.37671325491794
 30
0.0000000000000001
 70
    16
  0
SEQEND
  5
C143
  8
PROF
  0
LINE
  5
C144
  8
PROF
 10
4.9012016798694162
 20
12.88585218805485
 30
0.0000000000000003
 11
4.519857503186925
 21
12.88585218805485
 31
0.0000000000000003
  0
LINE
  5
C145
  8
PROF
 10
0.7321315362267457
 20
8.2026312473991556
 30
0.0000000000000006
 11
0.7321315362267457
 21
8.0511853963434952
 31
0.0000000000000006
  0
ARC
  5
C146
  8
PROF
 10
0.7977322214551919
 20
7.577333933202679
 30
0.0000000000000006
 40
0.4783708383912013
 50
97.882010168942557
 51
186.31119505698641
  0
LINE
  5
C147
  8
FRAME_050
 10
7.8016377197432121
 20
17.99371054969447
 30
0.0
 11
7.8016377197432121
 21
0.0000000000002274
 31
0.0
  0
ENDBLK
  5
C149
  8
0
  0
BLOCK
  8
0
  2
*U7
 70
     1
 10
0.0
 20
0.0
 30
0.0
  3
*U7
  1

  0
TEXT
  5
C8C3
  8
0
 10
3.5177832928899071
 20
10.38601584255777
 30
0.0
 40
0.125
  1
Crown Moulding
  0
TEXT
  5
C8C4
  8
0
 10
3.5223876585106431
 20
10.17717091304435
 30
0.0
 40
0.125
  1
TL-AB509
  0
TEXT
  5
C8C5
  8
0
 10
3.5074661032582561
 20
9.9667059289606801
 30
0.0
 40
0.125
  1
1-5/16" x 7-9/16"
  0
TEXT
  5
C8C6
  8
0
 10
3.519403347460166
 20
9.7562409448770051
 30
0.0
 40
0.125
  1
800.66.TAGUE
  0
ENDBLK
  5
C8C8
  8
0
  0
BLOCK
  8
0
  2
*U8
 70
     1
 10
0.0
 20
0.0
 30
0.0
  3
*U8
  1

  0
TEXT
  5
C8CA
  8
0
 10
5.3066868277875692
 20
1.767659498411035
 30
0.0
 40
0.125
  1
Back Band
  0
TEXT
  5
C8CB
  8
0
 10
5.3153839628489603
 20
1.55881456889762
 30
0.0
 40
0.125
  1
TL-1
  0
TEXT
  5
C8CC
  8
0
 10
5.3004624075965721
 20
1.3483495848139451
 30
0.0
 40
0.125
  1
1-3/8" x 1-9/16"
  0
TEXT
  5
C8CD
  8
0
 10
5.3123996517984811
 20
1.1378846007302701
 30
0.0
 40
0.125
  1
800.66.TAGUE
  0
ENDBLK
  5
C8CF
  8
0
  0
BLOCK
  8
0
  2
*U9
 70
     1
 10
0.0
 20
0.0
 30
0.0
  3
*U9
  1

  0
TEXT
  5
C8D1
  8
0
 10
-385.7580743253551
 20
838.2627455404056
 30
0.0
 40
0.125
  1
Back Band
  0
TEXT
  5
C8D2
  8
0
 10
-385.74937719029373
 20
838.05390061089247
 30
0.0
 40
0.125
  1
TL-1
  0
TEXT
  5
C8D3
  8
0
 10
-385.76429874554611
 20
837.84343562680851
 30
0.0
 40
0.125
  1
1-3/8" x 1-9/16"
  0
TEXT
  5
C8D4
  8
0
 10
-385.75236150134418
 20
837.63297064272513
 30
0.0
 40
0.125
  1
800.66.TAGUE
  0
ENDBLK
  5
C8D6
  8
0
  0
BLOCK
  8
0
  2
*D21
 70
     1
 10
0.0
 20
0.0
 30
0.0
  3
*D21
  1

  0
LINE
  5
CDAB
  8
0
 62
     0
 10
-346.64573732984462
 20
509.42191863586828
 30
0.0
 11
-346.03266106471222
 21
509.42191863586828
 31
0.0
  0
LINE
  5
CDAC
  8
0
 62
     0
 10
-347.59461414974379
 20
507.61166709199199
 30
0.0
 11
-346.03266106471222
 21
507.61166709199199
 31
0.0
  0
LINE
  5
CDAD
  8
0
 62
     0
 10
-346.09516106471222
 20
509.42191863586828
 30
0.0
 11
-346.09516106471222
 21
507.61166709199199
 31
0.0
  0
INSERT
  5
CDAE
  8
0
 62
     0
  2
_ARCHTICK
 10
-346.09516106471222
 20
509.42191863586828
 30
0.0
 41
0.046875
 42
0.046875
 43
0.046875
 50
90.0
  0
INSERT
  5
CDAF
  8
0
 62
     0
  2
_ARCHTICK
 10
-346.09516106471222
 20
507.61166709199199
 30
0.0
 41
0.046875
 42
0.046875
 43
0.046875
 50
270.0
  0
INSERT
  5
CDB0
  8
0
  2
*U128
 10
0.0
 20
0.0
 30
0.0
  0
POINT
  5
CDB1
  8
DEFPOINTS
 62
     0
 10
-346.73948732984462
 20
509.42191863586828
 30
0.0
  0
POINT
  5
CDB2
  8
DEFPOINTS
 62
     0
 10
-347.68836414974379
 20
507.61166709199199
 30
0.0
  0
POINT
  5
CDB3
  8
DEFPOINTS
 62
     0
 10
-346.09516106471222
 20
507.61166709199199
 30
0.0
  0
ENDBLK
  5
CDB4
  8
0
  0
BLOCK
  8
0
  2
*D23
 70
     1
 10
0.0
 20
0.0
 30
0.0
  3
*D23
  1

  0
LINE
  5
CDEB
  8
0
 62
     0
 10
-387.02714157709249
 20
839.57969957928674
 30
0.0
 11
-386.41406531196009
 21
839.57969957928674
 31
0.0
  0
LINE
  5
CDEC
  8
0
 62
     0
 10
-387.97601839699172
 20
837.76944803541039
 30
0.0
 11
-386.41406531196009
 21
837.76944803541039
 31
0.0
  0
LINE
  5
CDED
  8
0
 62
     0
 10
-386.47656531196009
 20
839.57969957928674
 30
0.0
 11
-386.47656531196009
 21
837.76944803541039
 31
0.0
  0
INSERT
  5
CDEE
  8
0
 62
     0
  2
_ARCHTICK
 10
-386.47656531196009
 20
839.57969957928674
 30
0.0
 41
0.046875
 42
0.046875
 43
0.046875
 50
90.0
  0
INSERT
  5
CDEF
  8
0
 62
     0
  2
_ARCHTICK
 10
-386.47656531196009
 20
837.76944803541039
 30
0.0
 41
0.046875
 42
0.046875
 43
0.046875
 50
270.0
  0
INSERT
  5
CDF0
  8
0
  2
*U130
 10
0.0
 20
0.0
 30
0.0
  0
POINT
  5
CDF1
  8
DEFPOINTS
 62
     0
 10
-387.12089157709249
 20
839.57969957928674
 30
0.0
  0
POINT
  5
CDF2
  8
DEFPOINTS
 62
     0
 10
-388.06976839699172
 20
837.76944803541039
 30
0.0
  0
POINT
  5
CDF3
  8
DEFPOINTS
 62
     0
 10
-386.47656531196009
 20
837.76944803541039
 30
0.0
  0
ENDBLK
  5
CDEA
  8
0
  0
BLOCK
  8
0
  2
*D79
 70
     1
 10
0.0
 20
0.0
 30
0.0
  3
*D79
  1

  0
LINE
  5
11681
  8
0
 62
     0
 10
-365.81818307486373
 20
427.35429858331162
 30
0.0
 11
-366.93955544547038
 21
427.35429858331162
 31
0.0
  0
LINE
  5
11682
  8
0
 62
     0
 10
-365.81818307486373
 20
425.60429858331167
 30
0.0
 11
-366.93955544547038
 21
425.60429858331167
 31
0.0
  0
LINE
  5
11683
  8
0
 62
     0
 10
-366.87705544547038
 20
427.35429858331162
 30
0.0
 11
-366.87705544547038
 21
425.60429858331167
 31
0.0
  0
INSERT
  5
11684
  8
0
 62
     0
  2
_ARCHTICK
 10
-366.87705544547038
 20
427.35429858331162
 30
0.0
 41
0.046875
 42
0.046875
 43
0.046875
 50
90.0
  0
INSERT
  5
11685
  8
0
 62
     0
  2
_ARCHTICK
 10
-366.87705544547038
 20
425.60429858331167
 30
0.0
 41
0.046875
 42
0.046875
 43
0.046875
 50
270.0
  0
INSERT
  5
11686
  8
0
  2
*U179
 10
0.0
 20
0.0
 30
0.0
  0
POINT
  5
11687
  8
DEFPOINTS
 62
     0
 10
-365.72443307486373
 20
427.35429858331162
 30
0.0
  0
POINT
  5
11688
  8
DEFPOINTS
 62
     0
 10
-365.72443307486373
 20
425.60429858331167
 30
0.0
  0
POINT
  5
11689
  8
DEFPOINTS
 62
     0
 10
-366.87705544547038
 20
425.60429858331167
 30
0.0
  0
ENDBLK
  5
1168A
  8
0
  0
BLOCK
  8
0
  2
*D80
 70
     1
 10
0.0
 20
0.0
 30
0.0
  3
*D80
  1

  0
LINE
  5
1168D
  8
0
 62
     0
 10
-364.54417472031452
 20
426.21180552517308
 30
0.0
 11
-364.54417472031452
 21
424.99659347863422
 31
0.0
  0
LINE
  5
1168E
  8
0
 62
     0
 10
-363.66917472031452
 20
426.21180552517308
 30
0.0
 11
-363.66917472031452
 21
424.99659347863422
 31
0.0
  0
LINE
  5
1168F
  8
0
 62
     0
 10
-364.54417472031452
 20
425.05909347863428
 30
0.0
 11
-363.66917472031452
 21
425.05909347863428
 31
0.0
  0
INSERT
  5
11690
  8
0
 62
     0
  2
_ARCHTICK
 10
-364.54417472031452
 20
425.05909347863428
 30
0.0
 41
0.046875
 42
0.046875
 43
0.046875
 50
180.0
  0
INSERT
  5
11691
  8
0
 62
     0
  2
_ARCHTICK
 10
-363.66917472031452
 20
425.05909347863428
 30
0.0
 41
0.046875
 42
0.046875
 43
0.046875
  0
INSERT
  5
11692
  8
0
  2
*U180
 10
0.0
 20
0.0
 30
0.0
  0
POINT
  5
11693
  8
DEFPOINTS
 62
     0
 10
-364.54417472031452
 20
426.30555552517302
 30
0.0
  0
POINT
  5
11694
  8
DEFPOINTS
 62
     0
 10
-363.66917472031452
 20
426.30555552517302
 30
0.0
  0
POINT
  5
11695
  8
DEFPOINTS
 62
     0
 10
-363.66917472031452
 20
425.05909347863428
 30
0.0
  0
ENDBLK
  5
11696
  8
0
  0
BLOCK
  8
0
  2
*D81
 70
     1
 10
0.0
 20
0.0
 30
0.0
  3
*D81
  1

  0
LINE
  5
11699
  8
0
 62
     0
 10
-363.88792472031452
 20
427.24305552517302
 30
0.0
 11
-362.93745003010213
 21
427.24305552517302
 31
0.0
  0
LINE
  5
1169A
  8
0
 62
     0
 10
-364.0129247203148
 20
425.72929858331162
 30
0.0
 11
-362.93745003010213
 21
425.72929858331162
 31
0.0
  0
LINE
  5
1169B
  8
0
 62
     0
 10
-362.99995003010213
 20
427.24305552517302
 30
0.0
 11
-362.99995003010213
 21
425.72929858331162
 31
0.0
  0
INSERT
  5
1169C
  8
0
 62
     0
  2
_ARCHTICK
 10
-362.99995003010213
 20
427.24305552517302
 30
0.0
 41
0.046875
 42
0.046875
 43
0.046875
 50
90.0
  0
INSERT
  5
1169D
  8
0
 62
     0
  2
_ARCHTICK
 10
-362.99995003010213
 20
425.72929858331162
 30
0.0
 41
0.046875
 42
0.046875
 43
0.046875
 50
270.0
  0
INSERT
  5
1169E
  8
0
  2
*U181
 10
0.0
 20
0.0
 30
0.0
  0
POINT
  5
1169F
  8
DEFPOINTS
 62
     0
 10
-363.98167472031452
 20
427.24305552517302
 30
0.0
  0
POINT
  5
116A0
  8
DEFPOINTS
 62
     0
 10
-364.1066747203148
 20
425.72929858331162
 30
0.0
  0
POINT
  5
116A1
  8
DEFPOINTS
 62
     0
 10
-362.99995003010213
 20
425.72929858331162
 30
0.0
  0
ENDBLK
  5
116A2
  8
0
  0
BLOCK
  8
0
  2
*D83
 70
     1
 10
0.0
 20
0.0
 30
0.0
  3
*D83
  1

  0
LINE
  5
11701
  8
0
 62
     0
 10
-386.76054169220339
 20
839.74518098663441
 30
0.0
 11
-387.88191406281021
 21
839.74518098663441
 31
0.0
  0
LINE
  5
11702
  8
0
 62
     0
 10
-386.76054169220339
 20
837.99518098663441
 30
0.0
 11
-387.88191406281021
 21
837.99518098663441
 31
0.0
  0
LINE
  5
11703
  8
0
 62
     0
 10
-387.81941406281021
 20
839.74518098663441
 30
0.0
 11
-387.81941406281021
 21
837.99518098663441
 31
0.0
  0
INSERT
  5
11704
  8
0
 62
     0
  2
_ARCHTICK
 10
-387.81941406281021
 20
839.74518098663441
 30
0.0
 41
0.046875
 42
0.046875
 43
0.046875
 50
90.0
  0
INSERT
  5
11705
  8
0
 62
     0
  2
_ARCHTICK
 10
-387.81941406281021
 20
837.99518098663441
 30
0.0
 41
0.046875
 42
0.046875
 43
0.046875
 50
270.0
  0
INSERT
  5
11706
  8
0
  2
*U182
 10
0.0
 20
0.0
 30
0.0
  0
POINT
  5
11707
  8
DEFPOINTS
 62
     0
 10
-386.66679169220339
 20
839.74518098663441
 30
0.0
  0
POINT
  5
11708
  8
DEFPOINTS
 62
     0
 10
-386.66679169220339
 20
837.99518098663441
 30
0.0
  0
POINT
  5
11709
  8
DEFPOINTS
 62
     0
 10
-387.81941406281021
 20
837.99518098663441
 30
0.0
  0
ENDBLK
  5
116E8
  8
0
  0
BLOCK
  8
0
  2
*D84
 70
     1
 10
0.0
 20
0.0
 30
0.0
  3
*D84
  1

  0
LINE
  5
1170A
  8
0
 62
     0
 10
-385.48653333765429
 20
838.60268792849581
 30
0.0
 11
-385.48653333765429
 21
837.3874758819569
 31
0.0
  0
LINE
  5
1170B
  8
0
 62
     0
 10
-384.61153333765429
 20
838.60268792849581
 30
0.0
 11
-384.61153333765429
 21
837.3874758819569
 31
0.0
  0
LINE
  5
1170C
  8
0
 62
     0
 10
-385.48653333765429
 20
837.44997588195702
 30
0.0
 11
-384.61153333765429
 21
837.44997588195702
 31
0.0
  0
INSERT
  5
1170D
  8
0
 62
     0
  2
_ARCHTICK
 10
-385.48653333765429
 20
837.44997588195702
 30
0.0
 41
0.046875
 42
0.046875
 43
0.046875
 50
180.0
  0
INSERT
  5
1170E
  8
0
 62
     0
  2
_ARCHTICK
 10
-384.61153333765429
 20
837.44997588195702
 30
0.0
 41
0.046875
 42
0.046875
 43
0.046875
  0
INSERT
  5
1170F
  8
0
  2
*U183
 10
0.0
 20
0.0
 30
0.0
  0
POINT
  5
11710
  8
DEFPOINTS
 62
     0
 10
-385.48653333765429
 20
838.6964379284957
 30
0.0
  0
POINT
  5
11711
  8
DEFPOINTS
 62
     0
 10
-384.61153333765429
 20
838.6964379284957
 30
0.0
  0
POINT
  5
11712
  8
DEFPOINTS
 62
     0
 10
-384.61153333765429
 20
837.44997588195702
 30
0.0
  0
ENDBLK
  5
116F4
  8
0
  0
BLOCK
  8
0
  2
*D85
 70
     1
 10
0.0
 20
0.0
 30
0.0
  3
*D85
  1

  0
LINE
  5
11713
  8
0
 62
     0
 10
-384.83028333765429
 20
839.63393792849581
 30
0.0
 11
-383.87980864744191
 21
839.63393792849581
 31
0.0
  0
LINE
  5
11714
  8
0
 62
     0
 10
-384.95528333765452
 20
838.1201809866343
 30
0.0
 11
-383.87980864744191
 21
838.1201809866343
 31
0.0
  0
LINE
  5
11715
  8
0
 62
     0
 10
-383.94230864744191
 20
839.63393792849581
 30
0.0
 11
-383.94230864744191
 21
838.1201809866343
 31
0.0
  0
INSERT
  5
11716
  8
0
 62
     0
  2
_ARCHTICK
 10
-383.94230864744191
 20
839.63393792849581
 30
0.0
 41
0.046875
 42
0.046875
 43
0.046875
 50
90.0
  0
INSERT
  5
11717
  8
0
 62
     0
  2
_ARCHTICK
 10
-383.94230864744191
 20
838.1201809866343
 30
0.0
 41
0.046875
 42
0.046875
 43
0.046875
 50
270.0
  0
INSERT
  5
11718
  8
0
  2
*U184
 10
0.0
 20
0.0
 30
0.0
  0
POINT
  5
11719
  8
DEFPOINTS
 62
     0
 10
-384.92403333765429
 20
839.63393792849581
 30
0.0
  0
POINT
  5
1171A
  8
DEFPOINTS
 62
     0
 10
-385.04903333765452
 20
838.1201809866343
 30
0.0
  0
POINT
  5
1171B
  8
DEFPOINTS
 62
     0
 10
-383.94230864744191
 20
838.1201809866343
 30
0.0
  0
ENDBLK
  5
11700
  8
0
  0
BLOCK
  8
0
  2
*D87
 70
     1
 10
0.0
 20
0.0
 30
0.0
  3
*D87
  1

  0
LINE
  5
11B0C
  8
0
 62
     0
 10
-321.4967715029747
 20
426.11559169813472
 30
0.0
 11
-323.04650060770268
 21
426.11559169813472
 31
0.0
  0
LINE
  5
11B0D
  8
0
 62
     0
 10
-321.4967715029747
 20
424.36559169813472
 30
0.0
 11
-323.04650060770268
 21
424.36559169813472
 31
0.0
  0
LINE
  5
11B0E
  8
0
 62
     0
 10
-322.98400060770268
 20
426.11559169813472
 30
0.0
 11
-322.98400060770268
 21
424.36559169813472
 31
0.0
  0
INSERT
  5
11B0F
  8
0
 62
     0
  2
_ARCHTICK
 10
-322.98400060770268
 20
426.11559169813472
 30
0.0
 41
0.046875
 42
0.046875
 43
0.046875
 50
90.0
  0
INSERT
  5
11B10
  8
0
 62
     0
  2
_ARCHTICK
 10
-322.98400060770268
 20
424.36559169813472
 30
0.0
 41
0.046875
 42
0.046875
 43
0.046875
 50
270.0
  0
INSERT
  5
11B11
  8
0
  2
*U185
 10
0.0
 20
0.0
 30
0.0
  0
POINT
  5
11B12
  8
DEFPOINTS
 62
     0
 10
-321.4030215029747
 20
426.11559169813472
 30
0.0
  0
POINT
  5
11B13
  8
DEFPOINTS
 62
     0
 10
-321.4030215029747
 20
424.36559169813472
 30
0.0
  0
POINT
  5
11B14
  8
DEFPOINTS
 62
     0
 10
-322.98400060770268
 20
424.36559169813472
 30
0.0
  0
ENDBLK
  5
11B15
  8
0
  0
BLOCK
  8
0
  2
*D88
 70
     1
 10
0.0
 20
0.0
 30
0.0
  3
*D88
  1

  0
LINE
  5
11B18
  8
0
 62
     0
 10
-319.28256169396042
 20
425.92809169813472
 30
0.0
 11
-318.41048055355549
 21
425.92809169813472
 31
0.0
  0
LINE
  5
11B19
  8
0
 62
     0
 10
-319.28256169396042
 20
424.55309169813472
 30
0.0
 11
-318.41048055355549
 21
424.55309169813472
 31
0.0
  0
LINE
  5
11B1A
  8
0
 62
     0
 10
-318.47298055355549
 20
425.92809169813472
 30
0.0
 11
-318.47298055355549
 21
424.55309169813472
 31
0.0
  0
INSERT
  5
11B1B
  8
0
 62
     0
  2
_ARCHTICK
 10
-318.47298055355549
 20
425.92809169813472
 30
0.0
 41
0.046875
 42
0.046875
 43
0.046875
 50
90.0
  0
INSERT
  5
11B1C
  8
0
 62
     0
  2
_ARCHTICK
 10
-318.47298055355549
 20
424.55309169813472
 30
0.0
 41
0.046875
 42
0.046875
 43
0.046875
 50
270.0
  0
INSERT
  5
11B1D
  8
0
  2
*U186
 10
0.0
 20
0.0
 30
0.0
  0
POINT
  5
11B1E
  8
DEFPOINTS
 62
     0
 10
-319.37631169396042
 20
425.92809169813472
 30
0.0
  0
POINT
  5
11B1F
  8
DEFPOINTS
 62
     0
 10
-319.37631169396042
 20
424.55309169813472
 30
0.0
  0
POINT
  5
11B20
  8
DEFPOINTS
 62
     0
 10
-318.47298055355549
 20
424.55309169813472
 30
0.0
  0
ENDBLK
  5
11B21
  8
0
  0
BLOCK
  8
0
  2
*D90
 70
     1
 10
0.0
 20
0.0
 30
0.0
  3
*D90
  1

  0
LINE
  5
11B82
  8
0
 62
     0
 10
-385.93155206415412
 20
839.89288512488679
 30
0.0
 11
-387.48128116888211
 21
839.89288512488679
 31
0.0
  0
LINE
  5
11B83
  8
0
 62
     0
 10
-385.93155206415412
 20
838.14288512488679
 30
0.0
 11
-387.48128116888211
 21
838.14288512488679
 31
0.0
  0
LINE
  5
11B84
  8
0
 62
     0
 10
-387.41878116888211
 20
839.89288512488679
 30
0.0
 11
-387.41878116888211
 21
838.14288512488679
 31
0.0
  0
INSERT
  5
11B85
  8
0
 62
     0
  2
_ARCHTICK
 10
-387.41878116888211
 20
839.89288512488679
 30
0.0
 41
0.046875
 42
0.046875
 43
0.046875
 50
90.0
  0
INSERT
  5
11B86
  8
0
 62
     0
  2
_ARCHTICK
 10
-387.41878116888211
 20
838.14288512488679
 30
0.0
 41
0.046875
 42
0.046875
 43
0.046875
 50
270.0
  0
INSERT
  5
11B87
  8
0
  2
*U187
 10
0.0
 20
0.0
 30
0.0
  0
POINT
  5
11B88
  8
DEFPOINTS
 62
     0
 10
-385.83780206415412
 20
839.89288512488679
 30
0.0
  0
POINT
  5
11B89
  8
DEFPOINTS
 62
     0
 10
-385.83780206415412
 20
838.14288512488679
 30
0.0
  0
POINT
  5
11B8A
  8
DEFPOINTS
 62
     0
 10
-387.41878116888211
 20
838.14288512488679
 30
0.0
  0
ENDBLK
  5
11B75
  8
0
  0
BLOCK
  8
0
  2
*D91
 70
     1
 10
0.0
 20
0.0
 30
0.0
  3
*D91
  1

  0
LINE
  5
11B8B
  8
0
 62
     0
 10
-383.71734225513978
 20
839.70538512488679
 30
0.0
 11
-382.84526111473491
 21
839.70538512488679
 31
0.0
  0
LINE
  5
11B8C
  8
0
 62
     0
 10
-383.71734225513978
 20
838.33038512488679
 30
0.0
 11
-382.84526111473491
 21
838.33038512488679
 31
0.0
  0
LINE
  5
11B8D
  8
0
 62
     0
 10
-382.90776111473491
 20
839.70538512488679
 30
0.0
 11
-382.90776111473491
 21
838.33038512488679
 31
0.0
  0
INSERT
  5
11B8E
  8
0
 62
     0
  2
_ARCHTICK
 10
-382.90776111473491
 20
839.70538512488679
 30
0.0
 41
0.046875
 42
0.046875
 43
0.046875
 50
90.0
  0
INSERT
  5
11B8F
  8
0
 62
     0
  2
_ARCHTICK
 10
-382.90776111473491
 20
838.33038512488679
 30
0.0
 41
0.046875
 42
0.046875
 43
0.046875
 50
270.0
  0
INSERT
  5
11B90
  8
0
  2
*U188
 10
0.0
 20
0.0
 30
0.0
  0
POINT
  5
11B91
  8
DEFPOINTS
 62
     0
 10
-383.81109225513978
 20
839.70538512488679
 30
0.0
  0
POINT
  5
11B92
  8
DEFPOINTS
 62
     0
 10
-383.81109225513978
 20
838.33038512488679
 30
0.0
  0
POINT
  5
11B93
  8
DEFPOINTS
 62
     0
 10
-382.90776111473491
 20
838.33038512488679
 30
0.0
  0
ENDBLK
  5
11B81
  8
0
  0
BLOCK
  8
0
  2
*U117
 70
     1
 10
0.0
 20
0.0
 30
0.0
  3
*U117
  1

  0
TEXT
  5
156F0
  8
0
 10
2.0520856342580478
 20
1.4053520973297959
 30
0.0
 40
0.125
  1
Exterior Casing
  0
TEXT
  5
156F1
  8
0
 10
2.0520856342580478
 20
1.1970187639964629
 30
0.0
 40
0.125
  1
TL-180
  0
TEXT
  5
156F2
  8
0
 10
2.0520856342580478
 20
0.9886854306631298
 30
0.0
 40
0.125
  1
1-1/4" x 2"
  0
TEXT
  5
156F3
  8
0
 10
2.0520856342580478
 20
0.7803520973297964
 30
0.0
 40
0.125
  1
800.66.TAGUE
  0
ENDBLK
  5
156F5
  8
0
  0
BLOCK
  8
0
  2
*U118
 70
     1
 10
0.0
 20
0.0
 30
0.0
  3
*U118
  1

  0
TEXT
  5
156F7
  8
0
 10
1.875832532300876
 20
1.1538771312937111
 30
0.0
 40
0.125
  1
Exterior Casing
  0
TEXT
  5
156F8
  8
0
 10
1.875832532300876
 20
0.9455437979603782
 30
0.0
 40
0.125
  1
TL-544
  0
TEXT
  5
156F9
  8
0
 10
1.875832532300876
 20
0.7372104646270449
 30
0.0
 40
0.125
  1
1-1/8" x 1-9/16"
  0
TEXT
  5
156FA
  8
0
 10
1.875832532300876
 20
0.5288771312937115
 30
0.0
 40
0.125
  1
800.66.TAGUE
  0
ENDBLK
  5
156FC
  8
0
  0
BLOCK
  8
0
  2
*U119
 70
     1
 10
0.0
 20
0.0
 30
0.0
  3
*U119
  1

  0
TEXT
  5
156FE
  8
0
 10
2.2653468102219558
 20
1.612015904330746
 30
0.0
 40
0.125
  1
Exterior Casing
  0
TEXT
  5
156FF
  8
0
 10
2.2653468102219558
 20
1.403682570997413
 30
0.0
 40
0.125
  1
TL-2023
  0
TEXT
  5
15700
  8
0
 10
2.2653468102219558
 20
1.19534923766408
 30
0.0
 40
0.125
  1
1-13/16" x 3" 
  0
TEXT
  5
15701
  8
0
 10
2.2653468102219558
 20
0.9870159043307467
 30
0.0
 40
0.125
  1
800.66.TAGUE
  0
ENDBLK
  5
15703
  8
0
  0
BLOCK
  8
0
  2
*U120
 70
     1
 10
0.0
 20
0.0
 30
0.0
  3
*U120
  1

  0
TEXT
  5
15705
  8
0
 10
2.0898675486657221
 20
0.9145072342178082
 30
0.0
 40
0.125
  1
Exterior Casing
  0
TEXT
  5
15706
  8
0
 10
2.0898675486657221
 20
0.706173900884475
 30
0.0
 40
0.125
  1
TL-2087
  0
TEXT
  5
15707
  8
0
 10
2.0898675486657221
 20
0.4978405675511416
 30
0.0
 40
0.125
  1
7/8" x 1-7/16"
  0
TEXT
  5
15708
  8
0
 10
2.0898675486657221
 20
0.2895072342178082
 30
0.0
 40
0.125
  1
800.66.TAGUE
  0
ENDBLK
  5
1570A
  8
0
  0
BLOCK
  8
0
  2
*U121
 70
     1
 10
0.0
 20
0.0
 30
0.0
  3
*U121
  1

  0
TEXT
  5
1570C
  8
0
 10
2.1806631076311191
 20
0.8419101546792263
 30
0.0
 40
0.125
  1
Exterior Casing
  0
TEXT
  5
1570D
  8
0
 10
2.1806631076311191
 20
0.6335768213458931
 30
0.0
 40
0.125
  1
TL-2158
  0
TEXT
  5
1570E
  8
0
 10
2.1806631076311191
 20
0.4252434880125597
 30
0.0
 40
0.125
  1
1-1/16" x 1-5/16"
  0
TEXT
  5
1570F
  8
0
 10
2.1806631076311191
 20
0.2169101546792262
 30
0.0
 40
0.125
  1
800.66.TAGUE
  0
ENDBLK
  5
15711
  8
0
  0
BLOCK
  8
0
  2
*U122
 70
     1
 10
0.0
 20
0.0
 30
0.0
  3
*U122
  1

  0
TEXT
  5
15713
  8
0
 10
2.2408536425556909
 20
1.2992247915469759
 30
0.0
 40
0.125
  1
Exterior Casing
  0
TEXT
  5
15714
  8
0
 10
2.2408536425556909
 20
1.090891458213642
 30
0.0
 40
0.125
  1
TL-2174
  0
TEXT
  5
15715
  8
0
 10
2.2408536425556909
 20
0.8825581248803095
 30
0.0
 40
0.125
  1
1-3/8" x 1-7/16"
  0
TEXT
  5
15716
  8
0
 10
2.2408536425556909
 20
0.6742247915469762
 30
0.0
 40
0.125
  1
800.66.TAGUE
  0
ENDBLK
  5
15718
  8
0
  0
BLOCK
  8
0
  2
*U123
 70
     1
 10
0.0
 20
0.0
 30
0.0
  3
*U123
  1

  0
TEXT
  5
1571A
  8
0
 10
2.8048346441314029
 20
1.129982283289336
 30
0.0
 40
0.125
  1
Exterior Casing
  0
TEXT
  5
1571B
  8
0
 10
2.8048346441314029
 20
0.9216489499560037
 30
0.0
 40
0.125
  1
TL-2175
  0
TEXT
  5
1571C
  8
0
 10
2.8048346441314029
 20
0.7133156166226704
 30
0.0
 40
0.125
  1
1-9/32" x 1-29/32"
  0
TEXT
  5
1571D
  8
0
 10
2.8048346441314029
 20
0.504982283289337
 30
0.0
 40
0.125
  1
800.66.TAGUE
  0
ENDBLK
  5
1571F
  8
0
  0
BLOCK
  8
0
  2
*U124
 70
     1
 10
0.0
 20
0.0
 30
0.0
  3
*U124
  1

  0
TEXT
  5
15721
  8
0
 10
2.5484960182450891
 20
0.679430053902138
 30
0.0
 40
0.125
  1
Exterior Casing
  0
TEXT
  5
15722
  8
0
 10
2.5484960182450891
 20
0.4710967205688046
 30
0.0
 40
0.125
  1
TL-2176
  0
TEXT
  5
15723
  8
0
 10
2.5484960182450891
 20
0.2627633872354712
 30
0.0
 40
0.125
  1
19/32" x 1-5/8"
  0
TEXT
  5
15724
  8
0
 10
2.5484960182450891
 20
0.0544300539021379
 30
0.0
 40
0.125
  1
800.66.TAGUE
  0
ENDBLK
  5
15726
  8
0
  0
BLOCK
  8
0
  2
*U125
 70
     1
 10
0.0
 20
0.0
 30
0.0
  3
*U125
  1

  0
TEXT
  5
15728
  8
0
 10
2.105732231568993
 20
0.7255830389262883
 30
0.0
 40
0.125
  1
Exterior Casing
  0
TEXT
  5
15729
  8
0
 10
2.105732231568993
 20
0.5172497055929551
 30
0.0
 40
0.125
  1
TL-2108
  0
TEXT
  5
1572A
  8
0
 10
2.105732231568993
 20
0.3089163722596217
 30
0.0
 40
0.125
  1
15/16" x 1-1/16"
  0
TEXT
  5
1572B
  8
0
 10
2.105732231568993
 20
0.1005830389262883
 30
0.0
 40
0.125
  1
800.66.TAGUE
  0
ENDBLK
  5
1572D
  8
0
  0
BLOCK
  8
0
  2
*U126
 70
     1
 10
0.0
 20
0.0
 30
0.0
  3
*U126
  1

  0
TEXT
  5
1572F
  8
0
 10
0.0469294570366401
 20
0.67943073463357
 30
0.0
 40
0.125
  1
Exterior Casing
  0
TEXT
  5
15730
  8
0
 10
0.0469294570366401
 20
0.4710974013002366
 30
0.0
 40
0.125
  1
TL-2206
  0
TEXT
  5
15731
  8
0
 10
0.0469294570366401
 20
0.2627640679669033
 30
0.0
 40
0.125
  1
1-3/32" x 1-23/32"
  0
TEXT
  5
15732
  8
0
 10
0.0469294570366401
 20
0.05443073463357
 30
0.0
 40
0.125
  1
800.66.TAGUE
  0
ENDBLK
  5
15734
  8
0
  0
BLOCK
  8
0
  2
*U127
 70
     1
 10
0.0
 20
0.0
 30
0.0
  3
*U127
  1

  0
TEXT
  5
15736
  8
0
 10
0.0449853036485593
 20
0.6794309447934666
 30
0.0
 40
0.125
  1
Exterior Casing
  0
TEXT
  5
15737
  8
0
 10
0.0449853036485593
 20
0.4710976114601333
 30
0.0
 40
0.125
  1
TL-2207
  0
TEXT
  5
15738
  8
0
 10
0.0449853036485593
 20
0.2627642781267999
 30
0.0
 40
0.125
  1
1-1/8" x 2-15/16"
  0
TEXT
  5
15739
  8
0
 10
0.0449853036485593
 20
0.0544309447934666
 30
0.0
 40
0.125
  1
800.66.TAGUE
  0
ENDBLK
  5
1573B
  8
0
  0
BLOCK
  8
0
  2
*U128
 70
     1
 10
0.0
 20
0.0
 30
0.0
  3
*U128
  1

  0
TEXT
  5
1573D
  8
0
 62
     0
 10
-346.15979271546257
 20
508.16262619726342
 30
0.0
 40
0.125
  1
Cutter
 50
90.0
  0
ENDBLK
  5
1573F
  8
0
  0
BLOCK
  8
0
  2
*U129
 70
     1
 10
0.0
 20
0.0
 30
0.0
  3
*U129
  1

  0
TEXT
  5
15741
  8
0
 10
3.5112004937425918
 20
2.3236705000861089
 30
0.0
 40
0.125
  1
Exterior Casing
  0
TEXT
  5
15742
  8
0
 10
3.5112004937425918
 20
2.1153371667527749
 30
0.0
 40
0.125
  1
TL-2242
  0
TEXT
  5
15743
  8
0
 10
3.5112004937425918
 20
1.9070038334194419
 30
0.0
 40
0.125
  1
2" x 4-1/2"
  0
TEXT
  5
15744
  8
0
 10
3.5112004937425918
 20
1.6986705000861091
 30
0.0
 40
0.125
  1
800.66.TAGUE
  0
ENDBLK
  5
15746
  8
0
  0
BLOCK
  8
0
  2
*U130
 70
     1
 10
0.0
 20
0.0
 30
0.0
  3
*U130
  1

  0
TEXT
  5
15748
  8
0
 62
     0
 10
-386.5390653119602
 20
838.32040714068194
 30
0.0
 40
0.125
  1
Cutter
 50
90.0
  0
ENDBLK
  5
1574A
  8
0
  0
BLOCK
  8
0
  2
*U131
 70
     1
 10
0.0
 20
0.0
 30
0.0
  3
*U131
  1

  0
TEXT
  5
1574C
  8
0
 10
1.983241637717696
 20
1.2297917133489591
 30
0.0
 40
0.125
  1
Exterior Casing
  0
TEXT
  5
1574D
  8
0
 10
1.983241637717696
 20
1.0214583800156249
 30
0.0
 40
0.125
  1
TL-2254
  0
TEXT
  5
1574E
  8
0
 10
1.983241637717696
 20
0.8131250466822924
 30
0.0
 40
0.125
  1
1-1/4" x 1-3/4"
  0
TEXT
  5
1574F
  8
0
 10
1.983241637717696
 20
0.6047917133489591
 30
0.0
 40
0.125
  1
800.66.TAGUE
  0
ENDBLK
  5
15751
  8
0
  0
BLOCK
  8
0
  2
*U132
 70
     1
 10
0.0
 20
0.0
 30
0.0
  3
*U132
  1

  0
TEXT
  5
15753
  8
0
 10
2.2285402119240412
 20
3.7215677387475798
 30
0.0
 40
0.125
  1
Exterior Jamb
  0
TEXT
  5
15754
  8
0
 10
2.2285402119240412
 20
3.5132344054142468
 30
0.0
 40
0.125
  1
TL-2126
  0
TEXT
  5
15755
  8
0
 10
2.2285402119240412
 20
3.3049010720809142
 30
0.0
 40
0.125
  1
1-1/4" x 6-5/8"
  0
TEXT
  5
15756
  8
0
 10
2.2285402119240412
 20
3.0965677387475798
 30
0.0
 40
0.125
  1
800.66.TAGUE
  0
ENDBLK
  5
15758
  8
0
  0
BLOCK
  8
0
  2
*U133
 70
     1
 10
0.0
 20
0.0
 30
0.0
  3
*U133
  1

  0
TEXT
  5
1575A
  8
0
 10
2.025590122046196
 20
3.8877018206065941
 30
0.0
 40
0.125
  1
Exterior Jamb
  0
TEXT
  5
1575B
  8
0
 10
2.025590122046196
 20
3.6793684872732602
 30
0.0
 40
0.125
  1
TL-2127
  0
TEXT
  5
1575C
  8
0
 10
2.025590122046196
 20
3.4710351539399271
 30
0.0
 40
0.125
  1
1-1/4" x 6-5/8"
  0
TEXT
  5
1575D
  8
0
 10
2.025590122046196
 20
3.2627018206065941
 30
0.0
 40
0.125
  1
800.66.TAGUE
  0
ENDBLK
  5
1575F
  8
0
  0
BLOCK
  8
0
  2
*U134
 70
     1
 10
0.0
 20
0.0
 30
0.0
  3
*U134
  1

  0
TEXT
  5
15761
  8
0
 10
1.8279899277385421
 20
2.0085009357213721
 30
0.0
 40
0.125
  1
Fluting
  0
TEXT
  5
15762
  8
0
 10
1.8279899277385421
 20
1.800167602388038
 30
0.0
 40
0.125
  1
TL-123
  0
TEXT
  5
15763
  8
0
 10
1.8279899277385421
 20
1.5918342690547049
 30
0.0
 40
0.125
  1
3/4" x 3-1/2"
  0
TEXT
  5
15764
  8
0
 10
1.8279899277385421
 20
1.3835009357213719
 30
0.0
 40
0.125
  1
800.66.TAGUE
  0
ENDBLK
  5
15766
  8
0
  0
BLOCK
  8
0
  2
*U135
 70
     1
 10
0.0
 20
0.0
 30
0.0
  3
*U135
  1

  0
TEXT
  5
15768
  8
0
 10
1.9710461263608181
 20
3.9608870512416838
 30
0.0
 40
0.125
  1
Fluting
  0
TEXT
  5
15769
  8
0
 10
1.9710461263608181
 20
3.7525537179083499
 30
0.0
 40
0.125
  1
TL-343
  0
TEXT
  5
1576A
  8
0
 10
1.9710461263608181
 20
3.5442203845750169
 30
0.0
 40
0.125
  1
7/8" x 7-3/16"
  0
TEXT
  5
1576B
  8
0
 10
1.9710461263608181
 20
3.3358870512416838
 30
0.0
 40
0.125
  1
800.66.TAGUE
  0
ENDBLK
  5
1576D
  8
0
  0
BLOCK
  8
0
  2
*U136
 70
     1
 10
0.0
 20
0.0
 30
0.0
  3
*U136
  1

  0
TEXT
  5
1576F
  8
0
 10
1.4662897697170929
 20
3.8395028676267202
 30
0.0
 40
0.125
  1
Fluting
  0
TEXT
  5
15770
  8
0
 10
1.4662897697170929
 20
3.6311695342933858
 30
0.0
 40
0.125
  1
TL-2183
  0
TEXT
  5
15771
  8
0
 10
1.4662897697170929
 20
3.4228362009600528
 30
0.0
 40
0.125
  1
3/4" x 7-1/4"
  0
TEXT
  5
15772
  8
0
 10
1.4662897697170929
 20
3.2145028676267202
 30
0.0
 40
0.125
  1
800.66.TAGUE
  0
ENDBLK
  5
15774
  8
0
  0
BLOCK
  8
0
  2
*U137
 70
     1
 10
0.0
 20
0.0
 30
0.0
  3
*U137
  1

  0
TEXT
  5
15776
  8
0
 10
2.0951853732560148
 20
2.6676693683394879
 30
0.0
 40
0.125
  1
Fluting
  0
TEXT
  5
15777
  8
0
 10
2.0951853732560148
 20
2.4593360350061548
 30
0.0
 40
0.125
  1
TL-2276
  0
TEXT
  5
15778
  8
0
 10
2.0951853732560148
 20
2.2510027016728218
 30
0.0
 40
0.125
  1
11/16" x 3"
  0
TEXT
  5
15779
  8
0
 10
2.0951853732560148
 20
2.0426693683394879
 30
0.0
 40
0.125
  1
800.66.TAGUE
  0
ENDBLK
  5
1577B
  8
0
  0
BLOCK
  8
0
  2
*U138
 70
     1
 10
0.0
 20
0.0
 30
0.0
  3
*U138
  1

  0
TEXT
  5
1577D
  8
0
 10
2.4586482925877808
 20
1.0775582798773931
 30
0.0
 40
0.125
  1
Full Round
  0
TEXT
  5
1577E
  8
0
 10
2.4586482925877808
 20
0.8692249465440607
 30
0.0
 40
0.125
  1
TL-232
  0
TEXT
  5
1577F
  8
0
 10
2.4586482925877808
 20
0.6608916132107274
 30
0.0
 40
0.125
  1
1-7/16" x 1-7/16"
  0
TEXT
  5
15780
  8
0
 10
2.4586482925877808
 20
0.452558279877394
 30
0.0
 40
0.125
  1
800.66.TAGUE
  0
ENDBLK
  5
15782
  8
0
  0
BLOCK
  8
0
  2
*U139
 70
     1
 10
0.0
 20
0.0
 30
0.0
  3
*U139
  1

  0
TEXT
  5
15784
  8
0
 10
2.339763263951113
 20
0.912090443150646
 30
0.0
 40
0.125
  1
Full Round
  0
TEXT
  5
15785
  8
0
 10
2.339763263951113
 20
0.7037571098173128
 30
0.0
 40
0.125
  1
TL-233
  0
TEXT
  5
15786
  8
0
 10
2.339763263951113
 20
0.4954237764839795
 30
0.0
 40
0.125
  1
1-3/16" x 1-3/16"
  0
TEXT
  5
15787
  8
0
 10
2.339763263951113
 20
0.287090443150646
 30
0.0
 40
0.125
  1
800.66.TAGUE
  0
ENDBLK
  5
15789
  8
0
  0
BLOCK
  8
0
  2
*U140
 70
     1
 10
0.0
 20
0.0
 30
0.0
  3
*U140
  1

  0
TEXT
  5
1578B
  8
0
 10
2.2927598682417729
 20
0.8643692839127652
 30
0.0
 40
0.125
  1
Full Round
  0
TEXT
  5
1578C
  8
0
 10
2.2927598682417729
 20
0.6560359505794321
 30
0.0
 40
0.125
  1
TL-234
  0
TEXT
  5
1578D
  8
0
 10
2.2927598682417729
 20
0.4477026172460987
 30
0.0
 40
0.125
  1
1-1/16" x 1-1/16"
  0
TEXT
  5
1578E
  8
0
 10
2.2927598682417729
 20
0.2393692839127652
 30
0.0
 40
0.125
  1
800.66.TAGUE
  0
ENDBLK
  5
15790
  8
0
  0
BLOCK
  8
0
  2
*U141
 70
     1
 10
0.0
 20
0.0
 30
0.0
  3
*U141
  1

  0
TEXT
  5
15792
  8
0
 10
2.0765905058337921
 20
1.0252762384561711
 30
0.0
 40
0.125
  1
Glass Bead
  0
TEXT
  5
15793
  8
0
 10
2.0765905058337921
 20
0.8169429051228387
 30
0.0
 40
0.125
  1
TL-145
  0
TEXT
  5
15794
  8
0
 10
2.0765905058337921
 20
0.6086095717895054
 30
0.0
 40
0.125
  1
11/16" x 3/4"
  0
TEXT
  5
15795
  8
0
 10
2.0765905058337921
 20
0.400276238456172
 30
0.0
 40
0.125
  1
800.66.TAGUE
  0
ENDBLK
  5
15797
  8
0
  0
BLOCK
  8
0
  2
*U142
 70
     1
 10
0.0
 20
0.0
 30
0.0
  3
*U142
  1

  0
TEXT
  5
15799
  8
0
 10
1.468683703905185
 20
0.7455079879047162
 30
0.0
 40
0.125
  1
Glass Bead
  0
TEXT
  5
1579A
  8
0
 10
1.468683703905185
 20
0.537174654571383
 30
0.0
 40
0.125
  1
TL-147
  0
TEXT
  5
1579B
  8
0
 10
1.468683703905185
 20
0.3288413212380496
 30
0.0
 40
0.125
  1
1/2" x 9/16"
  0
TEXT
  5
1579C
  8
0
 10
1.468683703905185
 20
0.1205079879047162
 30
0.0
 40
0.125
  1
800.66.TAGUE
  0
ENDBLK
  5
1579E
  8
0
  0
BLOCK
  8
0
  2
*U143
 70
     1
 10
0.0
 20
0.0
 30
0.0
  3
*U143
  1

  0
TEXT
  5
157A0
  8
0
 10
1.584020839760341
 20
0.6794303041602916
 30
0.0
 40
0.125
  1
Glass Bead
  0
TEXT
  5
157A1
  8
0
 10
1.584020839760341
 20
0.4710969708269583
 30
0.0
 40
0.125
  1
TL-152
  0
TEXT
  5
157A2
  8
0
 10
1.584020839760341
 20
0.262763637493625
 30
0.0
 40
0.125
  1
3/8" x 11/16"
  0
TEXT
  5
157A3
  8
0
 10
1.584020839760341
 20
0.0544303041602916
 30
0.0
 40
0.125
  1
800.66.TAGUE
  0
ENDBLK
  5
157A5
  8
0
  0
BLOCK
  8
0
  2
*U144
 70
     1
 10
0.0
 20
0.0
 30
0.0
  3
*U144
  1

  0
TEXT
  5
157A7
  8
0
 10
1.3526095965341931
 20
0.7381811042487243
 30
0.0
 40
0.125
  1
Glass Bead
  0
TEXT
  5
157A8
  8
0
 10
1.3526095965341931
 20
0.5298477709153912
 30
0.0
 40
0.125
  1
TL-2142
  0
TEXT
  5
157A9
  8
0
 10
1.3526095965341931
 20
0.3215144375820577
 30
0.0
 40
0.125
  1
11/32" x 29/32"
  0
TEXT
  5
157AA
  8
0
 10
1.3526095965341931
 20
0.1131811042487243
 30
0.0
 40
0.125
  1
800.66.TAGUE
  0
ENDBLK
  5
157AC
  8
0
  0
BLOCK
  8
0
  2
*U145
 70
     1
 10
0.0
 20
0.0
 30
0.0
  3
*U145
  1

  0
TEXT
  5
157AE
  8
0
 10
1.3435544091540801
 20
0.6794309539541246
 30
0.0
 40
0.125
  1
Glass Bead
  0
TEXT
  5
157AF
  8
0
 10
1.3435544091540801
 20
0.4710976206207913
 30
0.0
 40
0.125
  1
TL-2149
  0
TEXT
  5
157B0
  8
0
 10
1.3435544091540801
 20
0.2627642872874579
 30
0.0
 40
0.125
  1
3/8" x 1/2"
  0
TEXT
  5
157B1
  8
0
 10
1.3435544091540801
 20
0.0544309539541246
 30
0.0
 40
0.125
  1
800.66.TAGUE
  0
ENDBLK
  5
157B3
  8
0
  0
BLOCK
  8
0
  2
*U146
 70
     1
 10
0.0
 20
0.0
 30
0.0
  3
*U146
  1

  0
TEXT
  5
157B5
  8
0
 10
1.488844305553698
 20
0.6807937379744545
 30
0.0
 40
0.125
  1
Glass Bead
  0
TEXT
  5
157B6
  8
0
 10
1.488844305553698
 20
0.4724604046411212
 30
0.0
 40
0.125
  1
TL-2155
  0
TEXT
  5
157B7
  8
0
 10
1.488844305553698
 20
0.2641270713077878
 30
0.0
 40
0.125
  1
1/2" x 13/16"
  0
TEXT
  5
157B8
  8
0
 10
1.488844305553698
 20
0.0557937379744544
 30
0.0
 40
0.125
  1
800.66.TAGUE
  0
ENDBLK
  5
157BA
  8
0
  0
BLOCK
  8
0
  2
*U147
 70
     1
 10
0.0
 20
0.0
 30
0.0
  3
*U147
  1

  0
TEXT
  5
157BC
  8
0
 10
1.52304343587059
 20
0.6794307504626432
 30
0.0
 40
0.125
  1
Glass Bead
  0
TEXT
  5
157BD
  8
0
 10
1.52304343587059
 20
0.4710974171293099
 30
0.0
 40
0.125
  1
TL-2218
  0
TEXT
  5
157BE
  8
0
 10
1.52304343587059
 20
0.2627640837959765
 30
0.0
 40
0.125
  1
1/4" x 5/8"
  0
TEXT
  5
157BF
  8
0
 10
1.52304343587059
 20
0.0544307504626431
 30
0.0
 40
0.125
  1
800.66.TAGUE
  0
ENDBLK
  5
157C1
  8
0
  0
BLOCK
  8
0
  2
*U148
 70
     1
 10
0.0
 20
0.0
 30
0.0
  3
*U148
  1

  0
TEXT
  5
157C3
  8
0
 10
2.8235364504146778
 20
0.7161662597191026
 30
0.0
 40
0.125
  1
Half Round
  0
TEXT
  5
157C4
  8
0
 10
2.8235364504146778
 20
0.5078329263857692
 30
0.0
 40
0.125
  1
TL-6
  0
TEXT
  5
157C5
  8
0
 10
2.8235364504146778
 20
0.2994995930524358
 30
0.0
 40
0.125
  1
7/8" x 1-3/4"
  0
TEXT
  5
157C6
  8
0
 10
2.8235364504146778
 20
0.0911662597191025
 30
0.0
 40
0.125
  1
800.66.TAGUE
  0
ENDBLK
  5
157C8
  8
0
  0
BLOCK
  8
0
  2
*U149
 70
     1
 10
0.0
 20
0.0
 30
0.0
  3
*U149
  1

  0
TEXT
  5
157CA
  8
0
 10
2.8316039409763221
 20
0.7222806133900122
 30
0.0
 40
0.125
  1
Half Round
  0
TEXT
  5
157CB
  8
0
 10
2.8316039409763221
 20
0.5139472800566788
 30
0.0
 40
0.125
  1
TL-7
  0
TEXT
  5
157CC
  8
0
 10
2.8316039409763221
 20
0.3056139467233454
 30
0.0
 40
0.125
  1
1" x 2"
  0
TEXT
  5
157CD
  8
0
 10
2.8316039409763221
 20
0.0972806133900122
 30
0.0
 40
0.125
  1
800.66.TAGUE
  0
ENDBLK
  5
157CF
  8
0
  0
BLOCK
  8
0
  2
*U150
 70
     1
 10
0.0
 20
0.0
 30
0.0
  3
*U150
  1

  0
TEXT
  5
157D1
  8
0
 10
4.3092556456276148
 20
0.8292621657587915
 30
0.0
 40
0.125
  1
Half Round
  0
TEXT
  5
157D2
  8
0
 10
4.3092556456276148
 20
0.6209288324254582
 30
0.0
 40
0.125
  1
TL-8
  0
TEXT
  5
157D3
  8
0
 10
4.3092556456276148
 20
0.4125954990921248
 30
0.0
 40
0.125
  1
1-1/2" x 3"
  0
TEXT
  5
157D4
  8
0
 10
4.3092556456276148
 20
0.2042621657587915
 30
0.0
 40
0.125
  1
800.66.TAGUE
  0
ENDBLK
  5
157D6
  8
0
  0
BLOCK
  8
0
  2
*U151
 70
     1
 10
0.0
 20
0.0
 30
0.0
  3
*U151
  1

  0
TEXT
  5
157D8
  8
0
 10
2.524104426630799
 20
0.6794299200373644
 30
0.0
 40
0.125
  1
Half Round
  0
TEXT
  5
157D9
  8
0
 10
2.524104426630799
 20
0.471096586704031
 30
0.0
 40
0.125
  1
TL-116
  0
TEXT
  5
157DA
  8
0
 10
2.524104426630799
 20
0.2627632533706976
 30
0.0
 40
0.125
  1
3/4" x 1-1/2"
  0
TEXT
  5
157DB
  8
0
 10
2.524104426630799
 20
0.0544299200373644
 30
0.0
 40
0.125
  1
800.66.TAGUE
  0
ENDBLK
  5
157DD
  8
0
  0
BLOCK
  8
0
  2
*U152
 70
     1
 10
0.0
 20
0.0
 30
0.0
  3
*U152
  1

  0
TEXT
  5
157DF
  8
0
 10
2.4691699319003528
 20
0.6794301275302815
 30
0.0
 40
0.125
  1
Half Round
  0
TEXT
  5
157E0
  8
0
 10
2.4691699319003528
 20
0.4710967941969481
 30
0.0
 40
0.125
  1
TL-119
  0
TEXT
  5
157E1
  8
0
 10
2.4691699319003528
 20
0.2627634608636147
 30
0.0
 40
0.125
  1
5/8" x 1-1/4"
  0
TEXT
  5
157E2
  8
0
 10
2.4691699319003528
 20
0.0544301275302814
 30
0.0
 40
0.125
  1
800.66.TAGUE
  0
ENDBLK
  5
157E4
  8
0
  0
BLOCK
  8
0
  2
*U153
 70
     1
 10
0.0
 20
0.0
 30
0.0
  3
*U153
  1

  0
TEXT
  5
157E6
  8
0
 10
1.96218194837894
 20
0.679429735423696
 30
0.0
 40
0.125
  1
Half Round
  0
TEXT
  5
157E7
  8
0
 10
1.96218194837894
 20
0.4710964020903626
 30
0.0
 40
0.125
  1
TL-120
  0
TEXT
  5
157E8
  8
0
 10
1.96218194837894
 20
0.2627630687570293
 30
0.0
 40
0.125
  1
1/2" x 1"
  0
TEXT
  5
157E9
  8
0
 10
1.96218194837894
 20
0.054429735423696
 30
0.0
 40
0.125
  1
800.66.TAGUE
  0
ENDBLK
  5
157EB
  8
0
  0
BLOCK
  8
0
  2
*U154
 70
     1
 10
0.0
 20
0.0
 30
0.0
  3
*U154
  1

  0
TEXT
  5
157ED
  8
0
 10
1.51989036816559
 20
0.679429754589819
 30
0.0
 40
0.125
  1
Half Round
  0
TEXT
  5
157EE
  8
0
 10
1.51989036816559
 20
0.4710964212564856
 30
0.0
 40
0.125
  1
TL-122
  0
TEXT
  5
157EF
  8
0
 10
1.51989036816559
 20
0.2627630879231522
 30
0.0
 40
0.125
  1
11/32" x 11/16"
  0
TEXT
  5
157F0
  8
0
 10
1.51989036816559
 20
0.0544297545898189
 30
0.0
 40
0.125
  1
800.66.TAGUE
  0
ENDBLK
  5
157F2
  8
0
  0
BLOCK
  8
0
  2
*U155
 70
     1
 10
0.0
 20
0.0
 30
0.0
  3
*U155
  1

  0
TEXT
  5
157F4
  8
0
 10
1.332760358760481
 20
0.6794306489528026
 30
0.0
 40
0.125
  1
Half Round
  0
TEXT
  5
157F5
  8
0
 10
1.332760358760481
 20
0.4710973156194692
 30
0.0
 40
0.125
  1
TL-124
  0
TEXT
  5
157F6
  8
0
 10
1.332760358760481
 20
0.2627639822861358
 30
0.0
 40
0.125
  1
1/4" x 1/2"
  0
TEXT
  5
157F7
  8
0
 10
1.332760358760481
 20
0.0544306489528026
 30
0.0
 40
0.125
  1
800.66.TAGUE
  0
ENDBLK
  5
157F9
  8
0
  0
BLOCK
  8
0
  2
*U156
 70
     1
 10
0.0
 20
0.0
 30
0.0
  3
*U156
  1

  0
TEXT
  5
157FB
  8
0
 10
2.6263646070054838
 20
2.827461056571678
 30
0.0
 40
0.125
  1
Hand Rail
  0
TEXT
  5
157FC
  8
0
 10
2.6263646070054838
 20
2.6191277232383441
 30
0.0
 40
0.125
  1
TL-14
  0
TEXT
  5
157FD
  8
0
 10
2.6263646070054838
 20
2.410794389905011
 30
0.0
 40
0.125
  1
1-5/8" x 5-1/4"
  0
TEXT
  5
157FE
  8
0
 10
2.6263646070054838
 20
2.202461056571678
 30
0.0
 40
0.125
  1
800.66.TAGUE
  0
ENDBLK
  5
15800
  8
0
  0
BLOCK
  8
0
  2
*U157
 70
     1
 10
0.0
 20
0.0
 30
0.0
  3
*U157
  1

  0
TEXT
  5
15802
  8
0
 10
2.2830209502855041
 20
2.755934710444194
 30
0.0
 40
0.125
  1
Hand Rail
  0
TEXT
  5
15803
  8
0
 10
2.2830209502855041
 20
2.5476013771108601
 30
0.0
 40
0.125
  1
TL-15
  0
TEXT
  5
15804
  8
0
 10
2.2830209502855041
 20
2.3392680437775271
 30
0.0
 40
0.125
  1
1-3/8" x 5-1/2"
  0
TEXT
  5
15805
  8
0
 10
2.2830209502855041
 20
2.130934710444194
 30
0.0
 40
0.125
  1
800.66.TAGUE
  0
ENDBLK
  5
15807
  8
0
  0
BLOCK
  8
0
  2
*U158
 70
     1
 10
0.0
 20
0.0
 30
0.0
  3
*U158
  1

  0
TEXT
  5
15809
  8
0
 10
3.5100871080940119
 20
1.046126857764647
 30
0.0
 40
0.125
  1
Hand Rail
  0
TEXT
  5
1580A
  8
0
 10
3.5100871080940119
 20
0.8377935244313146
 30
0.0
 40
0.125
  1
TL-96
  0
TEXT
  5
1580B
  8
0
 10
3.5100871080940119
 20
0.6294601910979814
 30
0.0
 40
0.125
  1
1-1/4" x 2-1/4"
  0
TEXT
  5
1580C
  8
0
 10
3.5100871080940119
 20
0.4211268577646479
 30
0.0
 40
0.125
  1
800.66.TAGUE
  0
ENDBLK
  5
1580E
  8
0
  0
BLOCK
  8
0
  2
*U159
 70
     1
 10
0.0
 20
0.0
 30
0.0
  3
*U159
  1

  0
TEXT
  5
15810
  8
0
 10
2.3417636350062589
 20
4.2171919217870482
 30
0.0
 40
0.125
  1
Hand Rail
  0
TEXT
  5
15811
  8
0
 10
2.3417636350062589
 20
4.0088585884537151
 30
0.0
 40
0.125
  1
TL-117
  0
TEXT
  5
15812
  8
0
 10
2.3417636350062589
 20
3.8005252551203812
 30
0.0
 40
0.125
  1
1-1/4" x 8-1/8"
  0
TEXT
  5
15813
  8
0
 10
2.3417636350062589
 20
3.5921919217870482
 30
0.0
 40
0.125
  1
800.66.TAGUE
  0
ENDBLK
  5
15815
  8
0
  0
BLOCK
  8
0
  2
*U160
 70
     1
 10
0.0
 20
0.0
 30
0.0
  3
*U160
  1

  0
TEXT
  5
15817
  8
0
 10
2.7125232555794119
 20
1.098442957172892
 30
0.0
 40
0.125
  1
Hand Rail
  0
TEXT
  5
15818
  8
0
 10
2.7125232555794119
 20
0.8901096238395592
 30
0.0
 40
0.125
  1
TL-231
  0
TEXT
  5
15819
  8
0
 10
2.7125232555794119
 20
0.6817762905062259
 30
0.0
 40
0.125
  1
1-1/2" x 1-11/16"
  0
TEXT
  5
1581A
  8
0
 10
2.7125232555794119
 20
0.4734429571728925
 30
0.0
 40
0.125
  1
800.66.TAGUE
  0
ENDBLK
  5
1581C
  8
0
  0
BLOCK
  8
0
  2
*U161
 70
     1
 10
0.0
 20
0.0
 30
0.0
  3
*U161
  1

  0
TEXT
  5
1581E
  8
0
 10
2.960252587020249
 20
0.6772989443436474
 30
0.0
 40
0.125
  1
Lattice
  0
TEXT
  5
1581F
  8
0
 10
2.960252587020249
 20
0.468965611010314
 30
0.0
 40
0.125
  1
TL-266
  0
TEXT
  5
15820
  8
0
 10
2.960252587020249
 20
0.2606322776769806
 30
0.0
 40
0.125
  1
1/4" x 1-5/8"
  0
TEXT
  5
15821
  8
0
 10
2.960252587020249
 20
0.0522989443436472
 30
0.0
 40
0.125
  1
800.66.TAGUE
  0
ENDBLK
  5
15823
  8
0
  0
BLOCK
  8
0
  2
*U162
 70
     1
 10
0.0
 20
0.0
 30
0.0
  3
*U162
  1

  0
TEXT
  5
15825
  8
0
 10
2.5177643903332401
 20
0.6772985360157691
 30
0.0
 40
0.125
  1
Lattice
  0
TEXT
  5
15826
  8
0
 10
2.5177643903332401
 20
0.4689652026824358
 30
0.0
 40
0.125
  1
TL-267
  0
TEXT
  5
15827
  8
0
 10
2.5177643903332401
 20
0.2606318693491024
 30
0.0
 40
0.125
  1
1/4" x 1-3/8"
  0
TEXT
  5
15828
  8
0
 10
2.5177643903332401
 20
0.0522985360157691
 30
0.0
 40
0.125
  1
800.66.TAGUE
  0
ENDBLK
  5
1582A
  8
0
  0
BLOCK
  8
0
  2
*U163
 70
     1
 10
0.0
 20
0.0
 30
0.0
  3
*U163
  1

  0
TEXT
  5
1582C
  8
0
 10
2.3872073702682419
 20
0.6772987437404936
 30
0.0
 40
0.125
  1
Lattice
  0
TEXT
  5
1582D
  8
0
 10
2.3872073702682419
 20
0.4689654104071603
 30
0.0
 40
0.125
  1
TL-268
  0
TEXT
  5
1582E
  8
0
 10
2.3872073702682419
 20
0.260632077073827
 30
0.0
 40
0.125
  1
1/4" x 1-1/8"
  0
TEXT
  5
1582F
  8
0
 10
2.3872073702682419
 20
0.0522987437404936
 30
0.0
 40
0.125
  1
800.66.TAGUE
  0
ENDBLK
  5
15831
  8
0
  0
BLOCK
  8
0
  2
*U164
 70
     1
 10
0.0
 20
0.0
 30
0.0
  3
*U164
  1

  0
TEXT
  5
15833
  8
0
 10
1.7198452767448771
 20
0.6772982915522335
 30
0.0
 40
0.125
  1
Lattice
  0
TEXT
  5
15834
  8
0
 10
1.7198452767448771
 20
0.4689649582189002
 30
0.0
 40
0.125
  1
TL-269
  0
TEXT
  5
15835
  8
0
 10
1.7198452767448771
 20
0.2606316248855668
 30
0.0
 40
0.125
  1
1/4" x 3/4"
  0
TEXT
  5
15836
  8
0
 10
1.7198452767448771
 20
0.0522982915522334
 30
0.0
 40
0.125
  1
800.66.TAGUE
  0
ENDBLK
  5
15838
  8
0
  0
BLOCK
  8
0
  2
*U165
 70
     1
 10
0.0
 20
0.0
 30
0.0
  3
*U165
  1

  0
TEXT
  5
1583A
  8
0
 10
2.0085733028087129
 20
0.6772989387914095
 30
0.0
 40
0.125
  1
Lattice
  0
TEXT
  5
1583B
  8
0
 10
2.0085733028087129
 20
0.4689656054580762
 30
0.0
 40
0.125
  1
TL-270
  0
TEXT
  5
1583C
  8
0
 10
2.0085733028087129
 20
0.2606322721247428
 30
0.0
 40
0.125
  1
1/4" x 7/8"
  0
TEXT
  5
1583D
  8
0
 10
2.0085733028087129
 20
0.0522989387914095
 30
0.0
 40
0.125
  1
800.66.TAGUE
  0
ENDBLK
  5
1583F
  8
0
  0
BLOCK
  8
0
  2
*U166
 70
     1
 10
0.0
 20
0.0
 30
0.0
  3
*U166
  1

  0
TEXT
  5
15841
  8
0
 10
2.940701223973178
 20
0.6772980715210224
 30
0.0
 40
0.125
  1
Lattice
  0
TEXT
  5
15842
  8
0
 10
2.940701223973178
 20
0.4689647381876891
 30
0.0
 40
0.125
  1
TL-962
  0
TEXT
  5
15843
  8
0
 10
2.940701223973178
 20
0.2606314048543558
 30
0.0
 40
0.125
  1
1/4" x 2"
  0
TEXT
  5
15844
  8
0
 10
2.940701223973178
 20
0.0522980715210224
 30
0.0
 40
0.125
  1
800.66.TAGUE
  0
ENDBLK
  5
15846
  8
0
  0
BLOCK
  8
0
  2
*U167
 70
     1
 10
0.0
 20
0.0
 30
0.0
  3
*U167
  1

  0
TEXT
  5
15848
  8
0
 10
1.983768624240724
 20
1.1498699559202801
 30
0.0
 40
0.125
  1
Lip Moulding
  0
TEXT
  5
15849
  8
0
 10
1.983768624240724
 20
0.9415366225869473
 30
0.0
 40
0.125
  1
TL-18
  0
TEXT
  5
1584A
  8
0
 10
1.983768624240724
 20
0.7332032892536139
 30
0.0
 40
0.125
  1
3/4" x 1-15/16"
  0
TEXT
  5
1584B
  8
0
 10
1.983768624240724
 20
0.5248699559202806
 30
0.0
 40
0.125
  1
800.66.TAGUE
  0
ENDBLK
  5
1584D
  8
0
  0
BLOCK
  8
0
  2
*U168
 70
     1
 10
0.0
 20
0.0
 30
0.0
  3
*U168
  1

  0
TEXT
  5
1584F
  8
0
 10
2.2853728967398861
 20
1.2855052394233999
 30
0.0
 40
0.125
  1
Lip Moulding
  0
TEXT
  5
15850
  8
0
 10
2.2853728967398861
 20
1.0771719060900671
 30
0.0
 40
0.125
  1
TL-530
  0
TEXT
  5
15851
  8
0
 10
2.2853728967398861
 20
0.8688385727567342
 30
0.0
 40
0.125
  1
5/8" x 1-5/8"
  0
TEXT
  5
15852
  8
0
 10
2.2853728967398861
 20
0.6605052394234008
 30
0.0
 40
0.125
  1
800.66.TAGUE
  0
ENDBLK
  5
15854
  8
0
  0
BLOCK
  8
0
  2
*U169
 70
     1
 10
0.0
 20
0.0
 30
0.0
  3
*U169
  1

  0
TEXT
  5
15856
  8
0
 10
2.269200201813987
 20
1.1997502285778401
 30
0.0
 40
0.125
  1
Lip Moulding
  0
TEXT
  5
15857
  8
0
 10
2.269200201813987
 20
0.9914168952445077
 30
0.0
 40
0.125
  1
TL-532
  0
TEXT
  5
15858
  8
0
 10
2.269200201813987
 20
0.7830835619111745
 30
0.0
 40
0.125
  1
3/4" x 1-3/4"
  0
TEXT
  5
15859
  8
0
 10
2.269200201813987
 20
0.574750228577841
 30
0.0
 40
0.125
  1
800.66.TAGUE
  0
ENDBLK
  5
1585B
  8
0
  0
BLOCK
  8
0
  2
*U170
 70
     1
 10
0.0
 20
0.0
 30
0.0
  3
*U170
  1

  0
TEXT
  5
1585D
  8
0
 10
1.8892783014391621
 20
1.241449235052527
 30
0.0
 40
0.125
  1
Lip Moulding
  0
TEXT
  5
1585E
  8
0
 10
1.8892783014391621
 20
1.033115901719194
 30
0.0
 40
0.125
  1
TL-2169
  0
TEXT
  5
1585F
  8
0
 10
1.8892783014391621
 20
0.8247825683858613
 30
0.0
 40
0.125
  1
11/16" x 1-7/8"
  0
TEXT
  5
15860
  8
0
 10
1.8892783014391621
 20
0.6164492350525279
 30
0.0
 40
0.125
  1
800.66.TAGUE
  0
ENDBLK
  5
15862
  8
0
  0
BLOCK
  8
0
  2
*U171
 70
     1
 10
0.0
 20
0.0
 30
0.0
  3
*U171
  1

  0
TEXT
  5
15864
  8
0
 10
1.620143794977025
 20
1.0038028284741349
 30
0.0
 40
0.125
  1
Lip Moulding
  0
TEXT
  5
15865
  8
0
 10
1.620143794977025
 20
0.7954694951408026
 30
0.0
 40
0.125
  1
TL-2179
  0
TEXT
  5
15866
  8
0
 10
1.620143794977025
 20
0.5871361618074693
 30
0.0
 40
0.125
  1
3/4" x 1-1/4"
  0
TEXT
  5
15867
  8
0
 10
1.620143794977025
 20
0.3788028284741358
 30
0.0
 40
0.125
  1
800.66.TAGUE
  0
ENDBLK
  5
15869
  8
0
  0
BLOCK
  8
0
  2
*U172
 70
     1
 10
0.0
 20
0.0
 30
0.0
  3
*U172
  1

  0
TEXT
  5
1586B
  8
0
 10
1.9163743563030939
 20
1.019442403193352
 30
0.0
 40
0.125
  1
Lip Moulding
  0
TEXT
  5
1586C
  8
0
 10
1.9163743563030939
 20
0.811109069860019
 30
0.0
 40
0.125
  1
TL-2181
  0
TEXT
  5
1586D
  8
0
 10
1.9163743563030939
 20
0.6027757365266857
 30
0.0
 40
0.125
  1
3/4" x 1-11/16"
  0
TEXT
  5
1586E
  8
0
 10
1.9163743563030939
 20
0.3944424031933522
 30
0.0
 40
0.125
  1
800.66.TAGUE
  0
ENDBLK
  5
15870
  8
0
  0
BLOCK
  8
0
  2
*U173
 70
     1
 10
0.0
 20
0.0
 30
0.0
  3
*U173
  1

  0
TEXT
  5
15872
  8
0
 10
2.0010341316657332
 20
0.9876257387668374
 30
0.0
 40
0.125
  1
Lip Moulding
  0
TEXT
  5
15873
  8
0
 10
2.0010341316657332
 20
0.7792924054335043
 30
0.0
 40
0.125
  1
TL-2211
  0
TEXT
  5
15874
  8
0
 10
2.0010341316657332
 20
0.5709590721001709
 30
0.0
 40
0.125
  1
1" x 1-15/32"
  0
TEXT
  5
15875
  8
0
 10
2.0010341316657332
 20
0.3626257387668375
 30
0.0
 40
0.125
  1
800.66.TAGUE
  0
ENDBLK
  5
15877
  8
0
  0
BLOCK
  8
0
  2
*U174
 70
     1
 10
0.0
 20
0.0
 30
0.0
  3
*U174
  1

  0
TEXT
  5
15879
  8
0
 10
1.9547841412725111
 20
1.2443911534714971
 30
0.0
 40
0.125
  1
Lip Mldg
  0
TEXT
  5
1587A
  8
0
 10
1.9547841412725111
 20
1.0360578201381629
 30
0.0
 40
0.125
  1
TL-2302
  0
TEXT
  5
1587B
  8
0
 10
1.9547841412725111
 20
0.8277244868048304
 30
0.0
 40
0.125
  1
13/16" x 1-3/4"
  0
TEXT
  5
1587C
  8
0
 10
1.9547841412725111
 20
0.6193911534714971
 30
0.0
 40
0.125
  1
800.66.TAGUE
  0
ENDBLK
  5
1587E
  8
0
  0
BLOCK
  8
0
  2
*U175
 70
     1
 10
0.0
 20
0.0
 30
0.0
  3
*U175
  1

  0
TEXT
  5
15880
  8
0
 10
1.971391504344296
 20
2.3593485866246051
 30
0.0
 40
0.125
  1
Mantle Moulding
  0
TEXT
  5
15881
  8
0
 10
1.971391504344296
 20
2.1510152532912721
 30
0.0
 40
0.125
  1
TL-9
  0
TEXT
  5
15882
  8
0
 10
1.971391504344296
 20
1.942681919957939
 30
0.0
 40
0.125
  1
1-5/8" x 5-1/8"
  0
TEXT
  5
15883
  8
0
 10
1.971391504344296
 20
1.7343485866246049
 30
0.0
 40
0.125
  1
800.66.TAGUE
  0
ENDBLK
  5
15885
  8
0
  0
BLOCK
  8
0
  2
*U176
 70
     1
 10
0.0
 20
0.0
 30
0.0
  3
*U176
  1

  0
TEXT
  5
15887
  8
0
 10
1.824484143033146
 20
2.7467482000251939
 30
0.0
 40
0.125
  1
Mantle Moulding
  0
TEXT
  5
15888
  8
0
 10
1.824484143033146
 20
2.5384148666918609
 30
0.0
 40
0.125
  1
TL-10
  0
TEXT
  5
15889
  8
0
 10
1.824484143033146
 20
2.3300815333585279
 30
0.0
 40
0.125
  1
1-3/8" x 5"
  0
TEXT
  5
1588A
  8
0
 10
1.824484143033146
 20
2.1217482000251939
 30
0.0
 40
0.125
  1
800.66.TAGUE
  0
ENDBLK
  5
1588C
  8
0
  0
BLOCK
  8
0
  2
*U177
 70
     1
 10
0.0
 20
0.0
 30
0.0
  3
*U177
  1

  0
TEXT
  5
1588E
  8
0
 10
1.778440342841463
 20
0.6794305349126262
 30
0.0
 40
0.125
  1
Mantle Shelf
  0
TEXT
  5
1588F
  8
0
 10
1.778440342841463
 20
0.4710972015792928
 30
0.0
 40
0.125
  1
TL-2184
  0
TEXT
  5
15890
  8
0
 10
1.778440342841463
 20
0.2627638682459594
 30
0.0
 40
0.125
  1
1-1/4" x 5-1/2"
  0
TEXT
  5
15891
  8
0
 10
1.778440342841463
 20
0.0544305349126262
 30
0.0
 40
0.125
  1
800.66.TAGUE
  0
ENDBLK
  5
15893
  8
0
  0
BLOCK
  8
0
  2
*U178
 70
     1
 10
0.0
 20
0.0
 30
0.0
  3
*U178
  1

  0
TEXT
  5
15895
  8
0
 10
2.009611089016857
 20
0.679430549910876
 30
0.0
 40
0.125
  1
Mantle Shelf
  0
TEXT
  5
15896
  8
0
 10
2.009611089016857
 20
0.4710972165775426
 30
0.0
 40
0.125
  1
TL-2185
  0
TEXT
  5
15897
  8
0
 10
2.009611089016857
 20
0.2627638832442092
 30
0.0
 40
0.125
  1
1-1/2" x 5-1/2"
  0
TEXT
  5
15898
  8
0
 10
2.009611089016857
 20
0.0544305499108759
 30
0.0
 40
0.125
  1
800.66.TAGUE
  0
ENDBLK
  5
1589A
  8
0
  0
BLOCK
  8
0
  2
*U179
 70
     1
 10
0.0
 20
0.0
 30
0.0
  3
*U179
  1

  0
TEXT
  5
1589C
  8
0
 62
     0
 10
-367.02425303528412
 20
426.35429858331162
 30
0.0
 40
0.125
  1
1
 50
90.0
  0
TEXT
  5
1589D
  8
0
 62
     0
 10
-367.10758636861738
 20
426.43763191664488
 30
0.0
 40
0.125
  1
3
 50
90.0
  0
LINE
  5
1589E
  8
0
 62
     0
 10
-367.08675303528412
 20
426.43763191664488
 30
0.0
 11
-367.08675303528412
 21
426.52096524997819
 31
0.0
  0
TEXT
  5
1589F
  8
0
 62
     0
 10
-366.9409197019508
 20
426.43763191664488
 30
0.0
 40
0.125
  1
4
 50
90.0
  0
TEXT
  5
158A0
  8
0
 62
     0
 10
-367.02425303528412
 20
426.56263191664482
 30
0.0
 40
0.125
  1
"
 50
90.0
  0
ENDBLK
  5
158A2
  8
0
  0
BLOCK
  8
0
  2
*U180
 70
     1
 10
0.0
 20
0.0
 30
0.0
  3
*U180
  1

  0
TEXT
  5
158A4
  8
0
 62
     0
 10
-364.19000805364777
 20
425.28877174148101
 30
0.0
 40
0.125
  1
7
  0
LINE
  5
158A5
  8
0
 62
     0
 10
-364.19000805364777
 20
425.2679384081477
 30
0.0
 11
-364.10667472031452
 21
425.2679384081477
 31
0.0
  0
TEXT
  5
158A6
  8
0
 62
     0
 10
-364.19000805364777
 20
425.12210507481433
 30
0.0
 40
0.125
  1
8
  0
TEXT
  5
158A7
  8
0
 62
     0
 10
-364.06500805364777
 20
425.2054384081477
 30
0.0
 40
0.125
  1
"
  0
ENDBLK
  5
158A9
  8
0
  0
BLOCK
  8
0
  2
*U181
 70
     1
 10
0.0
 20
0.0
 30
0.0
  3
*U181
  1

  0
TEXT
  5
158AB
  8
0
 62
     0
 10
-363.14629495961572
 20
426.36117705424232
 30
0.0
 40
0.125
  1
1
 50
90.0
  0
TEXT
  5
158AC
  8
0
 62
     0
 10
-363.22962829294897
 20
426.46534372090889
 30
0.0
 40
0.125
  1
1
 50
90.0
  0
LINE
  5
158AD
  8
0
 62
     0
 10
-363.20879495961572
 20
426.44451038757558
 30
0.0
 11
-363.20879495961572
 21
426.52784372090889
 31
0.0
  0
TEXT
  5
158AE
  8
0
 62
     0
 10
-363.06296162628229
 20
426.44451038757558
 30
0.0
 40
0.125
  1
2
 50
90.0
  0
TEXT
  5
158AF
  8
0
 62
     0
 10
-363.14629495961572
 20
426.56951038757558
 30
0.0
 40
0.125
  1
"
 50
90.0
  0
ENDBLK
  5
158B1
  8
0
  0
BLOCK
  8
0
  2
*U182
 70
     1
 10
0.0
 20
0.0
 30
0.0
  3
*U182
  1

  0
TEXT
  5
158B3
  8
0
 62
     0
 10
-387.96524739614358
 20
838.7451809866343
 30
0.0
 40
0.125
  1
1
 50
90.0
  0
TEXT
  5
158B4
  8
0
 62
     0
 10
-388.0485807294769
 20
838.82851431996767
 30
0.0
 40
0.125
  1
3
 50
90.0
  0
LINE
  5
158B5
  8
0
 62
     0
 10
-388.02774739614358
 20
838.82851431996767
 30
0.0
 11
-388.02774739614358
 21
838.91184765330104
 31
0.0
  0
TEXT
  5
158B6
  8
0
 62
     0
 10
-387.88191406281032
 20
838.82851431996767
 30
0.0
 40
0.125
  1
4
 50
90.0
  0
TEXT
  5
158B7
  8
0
 62
     0
 10
-387.96524739614358
 20
838.95351431996755
 30
0.0
 40
0.125
  1
"
 50
90.0
  0
ENDBLK
  5
158B9
  8
0
  0
BLOCK
  8
0
  2
*U183
 70
     1
 10
0.0
 20
0.0
 30
0.0
  3
*U183
  1

  0
TEXT
  5
158BB
  8
0
 62
     0
 10
-385.13236667098761
 20
837.67914254862364
 30
0.0
 40
0.125
  1
7
  0
LINE
  5
158BC
  8
0
 62
     0
 10
-385.13236667098761
 20
837.65830921529016
 30
0.0
 11
-385.04903333765429
 21
837.65830921529016
 31
0.0
  0
TEXT
  5
158BD
  8
0
 62
     0
 10
-385.13236667098761
 20
837.51247588195702
 30
0.0
 40
0.125
  1
8
  0
TEXT
  5
158BE
  8
0
 62
     0
 10
-385.00736667098761
 20
837.59580921529039
 30
0.0
 40
0.125
  1
"
  0
ENDBLK
  5
158C0
  8
0
  0
BLOCK
  8
0
  2
*U184
 70
     1
 10
0.0
 20
0.0
 30
0.0
  3
*U184
  1

  0
TEXT
  5
158C2
  8
0
 62
     0
 10
-384.08814198077528
 20
838.75205945756488
 30
0.0
 40
0.125
  1
1
 50
90.0
  0
TEXT
  5
158C3
  8
0
 62
     0
 10
-384.1714753141087
 20
838.85622612423163
 30
0.0
 40
0.125
  1
1
 50
90.0
  0
LINE
  5
158C4
  8
0
 62
     0
 10
-384.15064198077539
 20
838.83539279089825
 30
0.0
 11
-384.15064198077539
 21
838.91872612423185
 31
0.0
  0
TEXT
  5
158C5
  8
0
 62
     0
 10
-384.00480864744202
 20
838.83539279089825
 30
0.0
 40
0.125
  1
2
 50
90.0
  0
TEXT
  5
158C6
  8
0
 62
     0
 10
-384.08814198077528
 20
838.96039279089837
 30
0.0
 40
0.125
  1
"
 50
90.0
  0
ENDBLK
  5
158C8
  8
0
  0
BLOCK
  8
0
  2
*U185
 70
     1
 10
0.0
 20
0.0
 30
0.0
  3
*U185
  1

  0
TEXT
  5
158CA
  8
0
 62
     0
 10
-323.13119819751643
 20
425.11559169813461
 30
0.0
 40
0.125
  1
1
 50
90.0
  0
TEXT
  5
158CB
  8
0
 62
     0
 10
-323.2145315308498
 20
425.19892503146798
 30
0.0
 40
0.125
  1
3
 50
90.0
  0
LINE
  5
158CC
  8
0
 62
     0
 10
-323.19369819751643
 20
425.19892503146798
 30
0.0
 11
-323.19369819751643
 21
425.28225836480118
 31
0.0
  0
TEXT
  5
158CD
  8
0
 62
     0
 10
-323.04786486418311
 20
425.19892503146798
 30
0.0
 40
0.125
  1
4
 50
90.0
  0
TEXT
  5
158CE
  8
0
 62
     0
 10
-323.13119819751643
 20
425.32392503146792
 30
0.0
 40
0.125
  1
"
 50
90.0
  0
ENDBLK
  5
158D0
  8
0
  0
BLOCK
  8
0
  2
*U186
 70
     1
 10
0.0
 20
0.0
 30
0.0
  3
*U186
  1

  0
TEXT
  5
158D2
  8
0
 62
     0
 10
-318.6214997668344
 20
425.11559169813461
 30
0.0
 40
0.125
  1
1
 50
90.0
  0
TEXT
  5
158D3
  8
0
 62
     0
 10
-318.70483310016772
 20
425.19892503146798
 30
0.0
 40
0.125
  1
3
 50
90.0
  0
LINE
  5
158D4
  8
0
 62
     0
 10
-318.6839997668344
 20
425.19892503146798
 30
0.0
 11
-318.6839997668344
 21
425.28225836480118
 31
0.0
  0
TEXT
  5
158D5
  8
0
 62
     0
 10
-318.53816643350109
 20
425.19892503146798
 30
0.0
 40
0.125
  1
8
 50
90.0
  0
TEXT
  5
158D6
  8
0
 62
     0
 10
-318.6214997668344
 20
425.32392503146792
 30
0.0
 40
0.125
  1
"
 50
90.0
  0
ENDBLK
  5
158D8
  8
0
  0
BLOCK
  8
0
  2
*U187
 70
     1
 10
0.0
 20
0.0
 30
0.0
  3
*U187
  1

  0
TEXT
  5
158DA
  8
0
 62
     0
 10
-387.56461450221548
 20
838.89288512488679
 30
0.0
 40
0.125
  1
1
 50
90.0
  0
TEXT
  5
158DB
  8
0
 62
     0
 10
-387.64794783554891
 20
838.97621845822005
 30
0.0
 40
0.125
  1
3
 50
90.0
  0
LINE
  5
158DC
  8
0
 62
     0
 10
-387.62711450221559
 20
838.97621845822005
 30
0.0
 11
-387.62711450221559
 21
839.05955179155353
 31
0.0
  0
TEXT
  5
158DD
  8
0
 62
     0
 10
-387.48128116888222
 20
838.97621845822005
 30
0.0
 40
0.125
  1
4
 50
90.0
  0
TEXT
  5
158DE
  8
0
 62
     0
 10
-387.56461450221548
 20
839.10121845822005
 30
0.0
 40
0.125
  1
"
 50
90.0
  0
ENDBLK
  5
158E0
  8
0
  0
BLOCK
  8
0
  2
*U188
 70
     1
 10
0.0
 20
0.0
 30
0.0
  3
*U188
  1

  0
TEXT
  5
158E2
  8
0
 62
     0
 10
-383.05359444806828
 20
838.89288512488679
 30
0.0
 40
0.125
  1
1
 50
90.0
  0
TEXT
  5
158E3
  8
0
 62
     0
 10
-383.13692778140171
 20
838.97621845822005
 30
0.0
 40
0.125
  1
3
 50
90.0
  0
LINE
  5
158E4
  8
0
 62
     0
 10
-383.1160944480684
 20
838.97621845822005
 30
0.0
 11
-383.1160944480684
 21
839.05955179155353
 31
0.0
  0
TEXT
  5
158E5
  8
0
 62
     0
 10
-382.97026111473502
 20
838.97621845822005
 30
0.0
 40
0.125
  1
8
 50
90.0
  0
TEXT
  5
158E6
  8
0
 62
     0
 10
-383.05359444806828
 20
839.10121845822005
 30
0.0
 40
0.125
  1
"
 50
90.0
  0
ENDBLK
  5
158E8
  8
0
  0
BLOCK
  8
0
  2
*U189
 70
     1
 10
0.0
 20
0.0
 30
0.0
  3
*U189
  1

  0
TEXT
  5
158EA
  8
0
 10
1.872123119890716
 20
0.7588046473348414
 30
0.0
 40
0.125
  1
Nosing & Cove
  0
TEXT
  5
158EB
  8
0
 10
1.872123119890716
 20
0.5504713140015081
 30
0.0
 40
0.125
  1
TL-20
  0
TEXT
  5
158EC
  8
0
 10
1.872123119890716
 20
0.3421379806681747
 30
0.0
 40
0.125
  1
3/4" x 1-5/16"
  0
TEXT
  5
158ED
  8
0
 10
1.872123119890716
 20
0.1338046473348413
 30
0.0
 40
0.125
  1
800.66.TAGUE
  0
ENDBLK
  5
158EF
  8
0
  0
BLOCK
  8
0
  2
*U190
 70
     1
 10
0.0
 20
0.0
 30
0.0
  3
*U190
  1

  0
TEXT
  5
158F1
  8
0
 10
1.914126813415123
 20
0.8585704022782466
 30
0.0
 40
0.125
  1
Nosing & Cove
  0
TEXT
  5
158F2
  8
0
 10
1.914126813415123
 20
0.6502370689449134
 30
0.0
 40
0.125
  1
TL-21
  0
TEXT
  5
158F3
  8
0
 10
1.914126813415123
 20
0.44190373561158
 30
0.0
 40
0.125
  1
1-1/8" x 1-3/4"
  0
TEXT
  5
158F4
  8
0
 10
1.914126813415123
 20
0.2335704022782465
 30
0.0
 40
0.125
  1
800.66.TAGUE
  0
ENDBLK
  5
158F6
  8
0
  0
BLOCK
  8
0
  2
*U191
 70
     1
 10
0.0
 20
0.0
 30
0.0
  3
*U191
  1

  0
TEXT
  5
158F8
  8
0
 10
2.1633643582791811
 20
1.2559710060997979
 30
0.0
 40
0.125
  1
Nosing & Cove
  0
TEXT
  5
158F9
  8
0
 10
2.1633643582791811
 20
1.0476376727664649
 30
0.0
 40
0.125
  1
TL-22
  0
TEXT
  5
158FA
  8
0
 10
2.1633643582791811
 20
0.839304339433132
 30
0.0
 40
0.125
  1
1-5/16" x 2-1/4"
  0
TEXT
  5
158FB
  8
0
 10
2.1633643582791811
 20
0.6309710060997987
 30
0.0
 40
0.125
  1
800.66.TAGUE
  0
ENDBLK
  5
158FD
  8
0
  0
BLOCK
  8
0
  2
*U192
 70
     1
 10
0.0
 20
0.0
 30
0.0
  3
*U192
  1

  0
TEXT
  5
158FF
  8
0
 10
1.1386258441601731
 20
1.192489029325315
 30
0.0
 40
0.125
  1
Nosing & Cove
  0
TEXT
  5
15900
  8
0
 10
1.1386258441601731
 20
0.9841556959919824
 30
0.0
 40
0.125
  1
TL-2256
  0
TEXT
  5
15901
  8
0
 10
1.1386258441601731
 20
0.7758223626586491
 30
0.0
 40
0.125
  1
5/8" x 1-1/2"
  0
TEXT
  5
15902
  8
0
 10
1.1386258441601731
 20
0.5674890293253158
 30
0.0
 40
0.125
  1
800.66.TAGUE
  0
ENDBLK
  5
15904
  8
0
  0
BLOCK
  8
0
  2
*U193
 70
     1
 10
0.0
 20
0.0
 30
0.0
  3
*U193
  1

  0
TEXT
  5
15906
  8
0
 10
0.8465252202594228
 20
0.679429976342135
 30
0.0
 40
0.125
  1
Nosing & Cove
  0
TEXT
  5
15907
  8
0
 10
0.8465252202594228
 20
0.4710966430088017
 30
0.0
 40
0.125
  1
TL-2257
  0
TEXT
  5
15908
  8
0
 10
0.8465252202594228
 20
0.2627633096754684
 30
0.0
 40
0.125
  1
5/16" x 1/2"
  0
TEXT
  5
15909
  8
0
 10
0.8465252202594228
 20
0.054429976342135
 30
0.0
 40
0.125
  1
800.66.TAGUE
  0
ENDBLK
  5
1590B
  8
0
  0
BLOCK
  8
0
  2
*U194
 70
     1
 10
0.0
 20
0.0
 30
0.0
  3
*U194
  1

  0
TEXT
  5
1590D
  8
0
 10
2.3806405474079488
 20
1.3133539302667709
 30
0.0
 40
0.125
  1
Ogee
  0
TEXT
  5
1590E
  8
0
 10
2.3806405474079488
 20
1.1050205969334379
 30
0.0
 40
0.125
  1
TL-16
  0
TEXT
  5
1590F
  8
0
 10
2.3806405474079488
 20
0.8966872636001046
 30
0.0
 40
0.125
  1
1-3/8" x 2"
  0
TEXT
  5
15910
  8
0
 10
2.3806405474079488
 20
0.6883539302667714
 30
0.0
 40
0.125
  1
800.66.TAGUE
  0
ENDBLK
  5
15912
  8
0
  0
BLOCK
  8
0
  2
*U195
 70
     1
 10
0.0
 20
0.0
 30
0.0
  3
*U195
  1

  0
TEXT
  5
15925
  8
0
 10
2.7261344289668719
 20
1.6601320963039821
 30
0.0
 40
0.125
  1
Ogee
  0
TEXT
  5
15926
  8
0
 10
2.7261344289668719
 20
1.451798762970649
 30
0.0
 40
0.125
  1
TL-17
  0
TEXT
  5
15927
  8
0
 10
2.7261344289668719
 20
1.2434654296373151
 30
0.0
 40
0.125
  1
2-5/16" x 1-7/8"
  0
TEXT
  5
15928
  8
0
 10
2.7261344289668719
 20
1.0351320963039821
 30
0.0
 40
0.125
  1
800.66.TAGUE
  0
ENDBLK
  5
1592A
  8
0
  0
BLOCK
  8
0
  2
*U196
 70
     1
 10
0.0
 20
0.0
 30
0.0
  3
*U196
  1

  0
TEXT
  5
1592C
  8
0
 10
1.8303727118446309
 20
0.9120296408366357
 30
0.0
 40
0.125
  1
Ogee
  0
TEXT
  5
1592D
  8
0
 10
1.8303727118446309
 20
0.7036963075033026
 30
0.0
 40
0.125
  1
TL-166
  0
TEXT
  5
1592E
  8
0
 10
1.8303727118446309
 20
0.4953629741699692
 30
0.0
 40
0.125
  1
11/16" x 1-1/4"
  0
TEXT
  5
1592F
  8
0
 10
1.8303727118446309
 20
0.2870296408366357
 30
0.0
 40
0.125
  1
800.66.TAGUE
  0
ENDBLK
  5
15931
  8
0
  0
BLOCK
  8
0
  2
*U197
 70
     1
 10
0.0
 20
0.0
 30
0.0
  3
*U197
  1

  0
TEXT
  5
15933
  8
0
 10
1.573032674973148
 20
0.835411988577448
 30
0.0
 40
0.125
  1
Ogee
  0
TEXT
  5
15934
  8
0
 10
1.573032674973148
 20
0.6270786552441149
 30
0.0
 40
0.125
  1
TL-167
  0
TEXT
  5
15935
  8
0
 10
1.573032674973148
 20
0.4187453219107815
 30
0.0
 40
0.125
  1
11/16" x 7/8"
  0
TEXT
  5
15936
  8
0
 10
1.573032674973148
 20
0.210411988577448
 30
0.0
 40
0.125
  1
800.66.TAGUE
  0
ENDBLK
  5
15938
  8
0
  0
BLOCK
  8
0
  2
*U198
 70
     1
 10
0.0
 20
0.0
 30
0.0
  3
*U198
  1

  0
TEXT
  5
1593A
  8
0
 10
1.814825501310565
 20
1.0878383681827011
 30
0.0
 40
0.125
  1
Ogee Moulding
  0
TEXT
  5
1593B
  8
0
 10
1.814825501310565
 20
0.8795050348493685
 30
0.0
 40
0.125
  1
TL-2240
  0
TEXT
  5
1593C
  8
0
 10
1.814825501310565
 20
0.6711717015160352
 30
0.0
 40
0.125
  1
25/32" x 13/16"
  0
TEXT
  5
1593D
  8
0
 10
1.814825501310565
 20
0.4628383681827018
 30
0.0
 40
0.125
  1
800.66.TAGUE
  0
ENDBLK
  5
1593F
  8
0
  0
BLOCK
  8
0
  2
*U199
 70
     1
 10
0.0
 20
0.0
 30
0.0
  3
*U199
  1

  0
TEXT
  5
15941
  8
0
 10
2.966704883543116
 20
1.2733224952305591
 30
0.0
 40
0.125
  1
Ogee Moulding
  0
TEXT
  5
15942
  8
0
 10
2.966704883543116
 20
1.0649891618972249
 30
0.0
 40
0.125
  1
TL-2255
  0
TEXT
  5
15943
  8
0
 10
2.966704883543116
 20
0.8566558285638924
 30
0.0
 40
0.125
  1
1-1/2" x 2-1/8"
  0
TEXT
  5
15944
  8
0
 10
2.966704883543116
 20
0.6483224952305591
 30
0.0
 40
0.125
  1
800.66.TAGUE
  0
ENDBLK
  5
15946
  8
0
  0
BLOCK
  8
0
  2
*U200
 70
     1
 10
0.0
 20
0.0
 30
0.0
  3
*U200
  1

  0
TEXT
  5
15948
  8
0
 10
1.767740232165522
 20
0.6795164786933583
 30
0.0
 40
0.125
  1
Ogee
  0
TEXT
  5
15949
  8
0
 10
1.767740232165522
 20
0.471183145360025
 30
0.0
 40
0.125
  1
TL-2280
  0
TEXT
  5
1594A
  8
0
 10
1.767740232165522
 20
0.2628498120266917
 30
0.0
 40
0.125
  1
1/2"  x 5/8"
  0
TEXT
  5
1594B
  8
0
 10
1.767740232165522
 20
0.0545164786933583
 30
0.0
 40
0.125
  1
800.66.TAGUE
  0
ENDBLK
  5
1594D
  8
0
  0
BLOCK
  8
0
  2
*U201
 70
     1
 10
0.0
 20
0.0
 30
0.0
  3
*U201
  1

  0
TEXT
  5
1594F
  8
0
 10
2.5765420776576198
 20
0.9513347006069352
 30
0.0
 40
0.125
  1
Ogee
  0
TEXT
  5
15950
  8
0
 10
2.5765420776576198
 20
0.7430013672736021
 30
0.0
 40
0.125
  1
TL-2326
  0
TEXT
  5
15951
  8
0
 10
2.5765420776576198
 20
0.5346680339402687
 30
0.0
 40
0.125
  1
1-3/4" x 1-13/32"
  0
TEXT
  5
15952
  8
0
 10
2.5765420776576198
 20
0.3263347006069353
 30
0.0
 40
0.125
  1
800.66.TAGUE
  0
ENDBLK
  5
15954
  8
0
  0
BLOCK
  8
0
  2
*U202
 70
     1
 10
0.0
 20
0.0
 30
0.0
  3
*U202
  1

  0
TEXT
  5
15956
  8
0
 10
1.8232672208571321
 20
1.0097170300313101
 30
0.0
 40
0.125
  1
Panel Moulding
  0
TEXT
  5
15957
  8
0
 10
1.8232672208571321
 20
0.8013836966979775
 30
0.0
 40
0.125
  1
TL-54
  0
TEXT
  5
15958
  8
0
 10
1.8232672208571321
 20
0.5930503633646445
 30
0.0
 40
0.125
  1
5/8" x 1-3/8"
  0
TEXT
  5
15959
  8
0
 10
1.8232672208571321
 20
0.384717030031311
 30
0.0
 40
0.125
  1
800.66.TAGUE
  0
ENDBLK
  5
1595B
  8
0
  0
BLOCK
  8
0
  2
*U203
 70
     1
 10
0.0
 20
0.0
 30
0.0
  3
*U203
  1

  0
TEXT
  5
1595D
  8
0
 10
1.6082414945508381
 20
0.8848429445537249
 30
0.0
 40
0.125
  1
Panel Moulding
  0
TEXT
  5
1595E
  8
0
 10
1.6082414945508381
 20
0.6765096112203916
 30
0.0
 40
0.125
  1
TL-56
  0
TEXT
  5
1595F
  8
0
 10
1.6082414945508381
 20
0.4681762778870584
 30
0.0
 40
0.125
  1
3/4" x 1-1/2"
  0
TEXT
  5
15960
  8
0
 10
1.6082414945508381
 20
0.2598429445537249
 30
0.0
 40
0.125
  1
800.66.TAGUE
  0
ENDBLK
  5
15962
  8
0
  0
BLOCK
  8
0
  2
*U204
 70
     1
 10
0.0
 20
0.0
 30
0.0
  3
*U204
  1

  0
TEXT
  5
15964
  8
0
 10
1.430001145945198
 20
1.055442987142782
 30
0.0
 40
0.125
  1
Panel Moulding
  0
TEXT
  5
15965
  8
0
 10
1.430001145945198
 20
0.8471096538094494
 30
0.0
 40
0.125
  1
TL-57
  0
TEXT
  5
15966
  8
0
 10
1.430001145945198
 20
0.6387763204761163
 30
0.0
 40
0.125
  1
9/16" x 1-15/16"
  0
TEXT
  5
15967
  8
0
 10
1.430001145945198
 20
0.4304429871427829
 30
0.0
 40
0.125
  1
800.66.TAGUE
  0
ENDBLK
  5
15969
  8
0
  0
BLOCK
  8
0
  2
*U205
 70
     1
 10
0.0
 20
0.0
 30
0.0
  3
*U205
  1

  0
TEXT
  5
1596B
  8
0
 10
1.681303805809534
 20
1.2026941795735411
 30
0.0
 40
0.125
  1
Panel Moulding
  0
TEXT
  5
1596C
  8
0
 10
1.681303805809534
 20
0.9943608462402076
 30
0.0
 40
0.125
  1
TL-62
  0
TEXT
  5
1596D
  8
0
 10
1.681303805809534
 20
0.7860275129068745
 30
0.0
 40
0.125
  1
1" x 1-3/4"
  0
TEXT
  5
1596E
  8
0
 10
1.681303805809534
 20
0.5776941795735411
 30
0.0
 40
0.125
  1
800.66.TAGUE
  0
ENDBLK
  5
15970
  8
0
  0
BLOCK
  8
0
  2
*U206
 70
     1
 10
0.0
 20
0.0
 30
0.0
  3
*U206
  1

  0
TEXT
  5
15972
  8
0
 10
2.133056331073703
 20
1.437235578786044
 30
0.0
 40
0.125
  1
Panel Moulding
  0
TEXT
  5
15973
  8
0
 10
2.133056331073703
 20
1.2289022454527101
 30
0.0
 40
0.125
  1
TL-64
  0
TEXT
  5
15974
  8
0
 10
2.133056331073703
 20
1.0205689121193771
 30
0.0
 40
0.125
  1
1-1/4" x 1-15/16"
  0
TEXT
  5
15975
  8
0
 10
2.133056331073703
 20
0.8122355787860442
 30
0.0
 40
0.125
  1
800.66.TAGUE
  0
ENDBLK
  5
15977
  8
0
  0
BLOCK
  8
0
  2
*U207
 70
     1
 10
0.0
 20
0.0
 30
0.0
  3
*U207
  1

  0
TEXT
  5
15979
  8
0
 10
1.6378445869512459
 20
1.1242484052883119
 30
0.0
 40
0.125
  1
Panel Moulding
  0
TEXT
  5
1597A
  8
0
 10
1.6378445869512459
 20
0.9159150719549795
 30
0.0
 40
0.125
  1
TL-314
  0
TEXT
  5
1597B
  8
0
 10
1.6378445869512459
 20
0.7075817386216463
 30
0.0
 40
0.125
  1
3/4" x 1-3/8"
  0
TEXT
  5
1597C
  8
0
 10
1.6378445869512459
 20
0.4992484052883129
 30
0.0
 40
0.125
  1
800.66.TAGUE
  0
ENDBLK
  5
1597E
  8
0
  0
BLOCK
  8
0
  2
*U208
 70
     1
 10
0.0
 20
0.0
 30
0.0
  3
*U208
  1

  0
TEXT
  5
15980
  8
0
 10
1.793042575215281
 20
1.3157146661659449
 30
0.0
 40
0.125
  1
Panel Moulding
  0
TEXT
  5
15981
  8
0
 10
1.793042575215281
 20
1.107381332832611
 30
0.0
 40
0.125
  1
TL-2032
  0
TEXT
  5
15982
  8
0
 10
1.793042575215281
 20
0.8990479994992785
 30
0.0
 40
0.125
  1
3/4" x 2"
  0
TEXT
  5
15983
  8
0
 10
1.793042575215281
 20
0.6907146661659454
 30
0.0
 40
0.125
  1
800.66.TAGUE
  0
ENDBLK
  5
15985
  8
0
  0
BLOCK
  8
0
  2
*U209
 70
     1
 10
0.0
 20
0.0
 30
0.0
  3
*U209
  1

  0
TEXT
  5
15987
  8
0
 10
1.8141185831191251
 20
0.8182814091084082
 30
0.0
 40
0.125
  1
Panel Moulding
  0
TEXT
  5
15988
  8
0
 10
1.8141185831191251
 20
0.6099480757750749
 30
0.0
 40
0.125
  1
TL-2016
  0
TEXT
  5
15989
  8
0
 10
1.8141185831191251
 20
0.4016147424417417
 30
0.0
 40
0.125
  1
15/16" x 1-11/16"
  0
TEXT
  5
1598A
  8
0
 10
1.8141185831191251
 20
0.1932814091084083
 30
0.0
 40
0.125
  1
800.66.TAGUE
  0
ENDBLK
  5
1598C
  8
0
  0
BLOCK
  8
0
  2
*U210
 70
     1
 10
0.0
 20
0.0
 30
0.0
  3
*U210
  1

  0
TEXT
  5
1598E
  8
0
 10
1.6323248967152031
 20
0.9094451817165918
 30
0.0
 40
0.125
  1
Panel Moulding
  0
TEXT
  5
1598F
  8
0
 10
1.6323248967152031
 20
0.7011118483832585
 30
0.0
 40
0.125
  1
TL-2136
  0
TEXT
  5
15990
  8
0
 10
1.6323248967152031
 20
0.4927785150499253
 30
0.0
 40
0.125
  1
21/32" x 1"
  0
TEXT
  5
15991
  8
0
 10
1.6323248967152031
 20
0.2844451817165918
 30
0.0
 40
0.125
  1
800.66.TAGUE
  0
ENDBLK
  5
15993
  8
0
  0
BLOCK
  8
0
  2
*U211
 70
     1
 10
0.0
 20
0.0
 30
0.0
  3
*U211
  1

  0
TEXT
  5
15995
  8
0
 10
1.417623633629318
 20
0.9199699342109398
 30
0.0
 40
0.125
  1
Panel Moulding
  0
TEXT
  5
15996
  8
0
 10
1.417623633629318
 20
0.7116366008776064
 30
0.0
 40
0.125
  1
TL-2198
  0
TEXT
  5
15997
  8
0
 10
1.417623633629318
 20
0.5033032675442732
 30
0.0
 40
0.125
  1
3/8" x 15/16"
  0
TEXT
  5
15998
  8
0
 10
1.417623633629318
 20
0.2949699342109397
 30
0.0
 40
0.125
  1
800.66.TAGUE
  0
ENDBLK
  5
1599A
  8
0
  0
BLOCK
  8
0
  2
*U212
 70
     1
 10
0.0
 20
0.0
 30
0.0
  3
*U212
  1

  0
TEXT
  5
1599C
  8
0
 10
-386.65668233053719
 20
838.83571473915686
 30
0.0
 40
0.125
  1
Panel Moulding
  0
TEXT
  5
1599D
  8
0
 10
-386.65668233053719
 20
838.62738140582326
 30
0.0
 40
0.125
  1
TL-2198
  0
TEXT
  5
1599E
  8
0
 10
-386.65668233053719
 20
838.41904807249011
 30
0.0
 40
0.125
  1
3/8" x 15/16"
  0
TEXT
  5
1599F
  8
0
 10
-386.65668233053719
 20
838.21071473915663
 30
0.0
 40
0.125
  1
800.66.TAGUE
  0
ENDBLK
  5
159A1
  8
0
  0
ENDSEC
  0
SECTION
  2
ENTITIES
  0
INSERT
  5
156D8
  8
0
  2
*U212
 10
0.0
 20
0.0
 30
0.0
  0
LINE
  5
156D9
  8
0
 10
-388.07430563752462
 20
838.85324549591405
 30
0.0
 11
-387.9654540599563
 21
838.85324549591405
 31
0.0
  0
ARC
  5
156DA
  8
0
 10
-387.95607419019518
 20
838.74253936793343
 30
0.0
 40
0.1111027845249908
 50
275.49534936862921
 51
94.842969835734067
  0
LINE
  5
156DB
  8
0
 10
-388.07430563752462
 20
837.91574549591394
 30
0.0
 11
-387.82059046655002
 21
837.91574549591394
 31
0.0
  0
LINE
  5
156DC
  8
0
 10
-387.82059046655002
 20
837.91574549591394
 30
0.0
 11
-387.82059046655002
 21
838.04450086829524
 31
0.0
  0
LINE
  5
156DD
  8
0
 10
-387.82059046655002
 20
838.04450086829524
 30
0.0
 11
-387.75212763572802
 21
838.04450086829524
 31
0.0
  0
LINE
  5
156DE
  8
0
 10
-388.07430563752462
 20
838.85324549591405
 30
0.0
 11
-388.07430563752462
 21
837.91574549591394
 31
0.0
  0
POLYLINE
  8
0
  5
159A2
  66
     1
 10
0.000000
 20
0.000000
 30
0.000000
  70
     8
  0
VERTEX
  8
0
  5
159A3
 10
-387.945
 20
838.632
 30
0.000000
  70
    32
  0
VERTEX
  8
0
  5
159A4
 10
-387.944
 20
838.630
 30
0.000000
  70
    32
  0
VERTEX
  8
0
  5
159A5
 10
-387.943
 20
838.629
 30
0.000000
  70
    32
  0
VERTEX
  8
0
  5
159A6
 10
-387.941
 20
838.627
 30
0.000000
  70
    32
  0
VERTEX
  8
0
  5
159A7
 10
-387.940
 20
838.625
 30
0.000000
  70
    32
  0
VERTEX
  8
0
  5
159A8
 10
-387.939
 20
838.624
 30
0.000000
  70
    32
  0
VERTEX
  8
0
  5
159A9
 10
-387.938
 20
838.622
 30
0.000000
  70
    32
  0
VERTEX
  8
0
  5
159AA
 10
-387.936
 20
838.620
 30
0.000000
  70
    32
  0
VERTEX
  8
0
  5
159AB
 10
-387.935
 20
838.618
 30
0.000000
  70
    32
  0
VERTEX
  8
0
  5
159AC
 10
-387.934
 20
838.617
 30
0.000000
  70
    32
  0
VERTEX
  8
0
  5
159AD
 10
-387.933
 20
838.615
 30
0.000000
  70
    32
  0
VERTEX
  8
0
  5
159AE
 10
-387.932
 20
838.613
 30
0.000000
  70
    32
  0
VERTEX
  8
0
  5
159AF
 10
-387.930
 20
838.612
 30
0.000000
  70
    32
  0
VERTEX
  8
0
  5
159B0
 10
-387.929
 20
838.610
 30
0.000000
  70
    32
  0
VERTEX
  8
0
  5
159B1
 10
-387.928
 20
838.608
 30
0.000000
  70
    32
  0
VERTEX
  8
0
  5
159B2
 10
-387.927
 20
838.606
 30
0.000000
  70
    32
  0
VERTEX
  8
0
  5
159B3
 10
-387.925
 20
838.605
 30
0.000000
  70
    32
  0
VERTEX
  8
0
  5
159B4
 10
-387.924
 20
838.603
 30
0.000000
  70
    32
  0
VERTEX
  8
0
  5
159B5
 10
-387.923
 20
838.601
 30
0.000000
  70
    32
  0
VERTEX
  8
0
  5
159B6
 10
-387.922
 20
838.600
 30
0.000000
  70
    32
  0
VERTEX
  8
0
  5
159B7
 10
-387.921
 20
838.598
 30
0.000000
  70
    32
  0
VERTEX
  8
0
  5
159B8
 10
-387.919
 20
838.596
 30
0.000000
  70
    32
  0
VERTEX
  8
0
  5
159B9
 10
-387.918
 20
838.594
 30
0.000000
  70
    32
  0
VERTEX
  8
0
  5
159BA
 10
-387.917
 20
838.593
 30
0.000000
  70
    32
  0
VERTEX
  8
0
  5
159BB
 10
-387.916
 20
838.591
 30
0.000000
  70
    32
  0
VERTEX
  8
0
  5
159BC
 10
-387.915
 20
838.589
 30
0.000000
  70
    32
  0
VERTEX
  8
0
  5
159BD
 10
-387.913
 20
838.587
 30
0.000000
  70
    32
  0
VERTEX
  8
0
  5
159BE
 10
-387.912
 20
838.586
 30
0.000000
  70
    32
  0
VERTEX
  8
0
  5
159BF
 10
-387.911
 20
838.584
 30
0.000000
  70
    32
  0
VERTEX
  8
0
  5
159C0
 10
-387.910
 20
838.582
 30
0.000000
  70
    32
  0
VERTEX
  8
0
  5
159C1
 10
-387.909
 20
838.580
 30
0.000000
  70
    32
  0
VERTEX
  8
0
  5
159C2
 10
-387.908
 20
838.579
 30
0.000000
  70
    32
  0
VERTEX
  8
0
  5
159C3
 10
-387.906
 20
838.577
 30
0.000000
  70
    32
  0
VERTEX
  8
0
  5
159C4
 10
-387.905
 20
838.575
 30
0.000000
  70
    32
  0
VERTEX
  8
0
  5
159C5
 10
-387.904
 20
838.573
 30
0.000000
  70
    32
  0
VERTEX
  8
0
  5
159C6
 10
-387.903
 20
838.572
 30
0.000000
  70
    32
  0
VERTEX
  8
0
  5
159C7
 10
-387.902
 20
838.570
 30
0.000000
  70
    32
  0
VERTEX
  8
0
  5
159C8
 10
-387.901
 20
838.568
 30
0.000000
  70
    32
  0
VERTEX
  8
0
  5
159C9
 10
-387.899
 20
838.566
 30
0.000000
  70
    32
  0
VERTEX
  8
0
  5
159CA
 10
-387.898
 20
838.564
 30
0.000000
  70
    32
  0
VERTEX
  8
0
  5
159CB
 10
-387.897
 20
838.563
 30
0.000000
  70
    32
  0
VERTEX
  8
0
  5
159CC
 10
-387.896
 20
838.561
 30
0.000000
  70
    32
  0
VERTEX
  8
0
  5
159CD
 10
-387.895
 20
838.559
 30
0.000000
  70
    32
  0
VERTEX
  8
0
  5
159CE
 10
-387.894
 20
838.557
 30
0.000000
  70
    32
  0
VERTEX
  8
0
  5
159CF
 10
-387.893
 20
838.556
 30
0.000000
  70
    32
  0
VERTEX
  8
0
  5
159D0
 10
-387.891
 20
838.554
 30
0.000000
  70
    32
  0
VERTEX
  8
0
  5
159D1
 10
-387.890
 20
838.552
 30
0.000000
  70
    32
  0
VERTEX
  8
0
  5
159D2
 10
-387.889
 20
838.550
 30
0.000000
  70
    32
  0
VERTEX
  8
0
  5
159D3
 10
-387.888
 20
838.549
 30
0.000000
  70
    32
  0
VERTEX
  8
0
  5
159D4
 10
-387.887
 20
838.547
 30
0.000000
  70
    32
  0
VERTEX
  8
0
  5
159D5
 10
-387.886
 20
838.545
 30
0.000000
  70
    32
  0
VERTEX
  8
0
  5
159D6
 10
-387.885
 20
838.543
 30
0.000000
  70
    32
  0
VERTEX
  8
0
  5
159D7
 10
-387.884
 20
838.541
 30
0.000000
  70
    32
  0
VERTEX
  8
0
  5
159D8
 10
-387.882
 20
838.540
 30
0.000000
  70
    32
  0
VERTEX
  8
0
  5
159D9
 10
-387.881
 20
838.538
 30
0.000000
  70
    32
  0
VERTEX
  8
0
  5
159DA
 10
-387.880
 20
838.536
 30
0.000000
  70
    32
  0
VERTEX
  8
0
  5
159DB
 10
-387.879
 20
838.534
 30
0.000000
  70
    32
  0
VERTEX
  8
0
  5
159DC
 10
-387.878
 20
838.532
 30
0.000000
  70
    32
  0
VERTEX
  8
0
  5
159DD
 10
-387.877
 20
838.531
 30
0.000000
  70
    32
  0
VERTEX
  8
0
  5
159DE
 10
-387.876
 20
838.529
 30
0.000000
  70
    32
  0
VERTEX
  8
0
  5
159DF
 10
-387.875
 20
838.527
 30
0.000000
  70
    32
  0
VERTEX
  8
0
  5
159E0
 10
-387.874
 20
838.525
 30
0.000000
  70
    32
  0
VERTEX
  8
0
  5
159E1
 10
-387.872
 20
838.523
 30
0.000000
  70
    32
  0
VERTEX
  8
0
  5
159E2
 10
-387.871
 20
838.522
 30
0.000000
  70
    32
  0
VERTEX
  8
0
  5
159E3
 10
-387.870
 20
838.520
 30
0.000000
  70
    32
  0
VERTEX
  8
0
  5
159E4
 10
-387.869
 20
838.518
 30
0.000000
  70
    32
  0
VERTEX
  8
0
  5
159E5
 10
-387.868
 20
838.516
 30
0.000000
  70
    32
  0
VERTEX
  8
0
  5
159E6
 10
-387.867
 20
838.514
 30
0.000000
  70
    32
  0
VERTEX
  8
0
  5
159E7
 10
-387.866
 20
838.513
 30
0.000000
  70
    32
  0
VERTEX
  8
0
  5
159E8
 10
-387.865
 20
838.511
 30
0.000000
  70
    32
  0
VERTEX
  8
0
  5
159E9
 10
-387.864
 20
838.509
 30
0.000000
  70
    32
  0
VERTEX
  8
0
  5
159EA
 10
-387.863
 20
838.507
 30
0.000000
  70
    32
  0
VERTEX
  8
0
  5
159EB
 10
-387.862
 20
838.505
 30
0.000000
  70
    32
  0
VERTEX
  8
0
  5
159EC
 10
-387.861
 20
838.504
 30
0.000000
  70
    32
  0
VERTEX
  8
0
  5
159ED
 10
-387.859
 20
838.502
 30
0.000000
  70
    32
  0
VERTEX
  8
0
  5
159EE
 10
-387.858
 20
838.500
 30
0.000000
  70
    32
  0
VERTEX
  8
0
  5
159EF
 10
-387.857
 20
838.498
 30
0.000000
  70
    32
  0
VERTEX
  8
0
  5
159F0
 10
-387.856
 20
838.496
 30
0.000000
  70
    32
  0
VERTEX
  8
0
  5
159F1
 10
-387.855
 20
838.494
 30
0.000000
  70
    32
  0
VERTEX
  8
0
  5
159F2
 10
-387.854
 20
838.493
 30
0.000000
  70
    32
  0
VERTEX
  8
0
  5
159F3
 10
-387.853
 20
838.491
 30
0.000000
  70
    32
  0
VERTEX
  8
0
  5
159F4
 10
-387.852
 20
838.489
 30
0.000000
  70
    32
  0
VERTEX
  8
0
  5
159F5
 10
-387.851
 20
838.487
 30
0.000000
  70
    32
  0
VERTEX
  8
0
  5
159F6
 10
-387.850
 20
838.485
 30
0.000000
  70
    32
  0
VERTEX
  8
0
  5
159F7
 10
-387.849
 20
838.484
 30
0.000000
  70
    32
  0
VERTEX
  8
0
  5
159F8
 10
-387.848
 20
838.482
 30
0.000000
  70
    32
  0
VERTEX
  8
0
  5
159F9
 10
-387.847
 20
838.480
 30
0.000000
  70
    32
  0
VERTEX
  8
0
  5
159FA
 10
-387.846
 20
838.478
 30
0.000000
  70
    32
  0
VERTEX
  8
0
  5
159FB
 10
-387.845
 20
838.476
 30
0.000000
  70
    32
  0
VERTEX
  8
0
  5
159FC
 10
-387.844
 20
838.474
 30
0.000000
  70
    32
  0
VERTEX
  8
0
  5
159FD
 10
-387.842
 20
838.473
 30
0.000000
  70
    32
  0
VERTEX
  8
0
  5
159FE
 10
-387.841
 20
838.471
 30
0.000000
  70
    32
  0
VERTEX
  8
0
  5
159FF
 10
-387.840
 20
838.469
 30
0.000000
  70
    32
  0
VERTEX
  8
0
  5
15A00
 10
-387.839
 20
838.467
 30
0.000000
  70
    32
  0
VERTEX
  8
0
  5
15A01
 10
-387.838
 20
838.465
 30
0.000000
  70
    32
  0
VERTEX
  8
0
  5
15A02
 10
-387.837
 20
838.463
 30
0.000000
  70
    32
  0
VERTEX
  8
0
  5
15A03
 10
-387.836
 20
838.462
 30
0.000000
  70
    32
  0
VERTEX
  8
0
  5
15A04
 10
-387.835
 20
838.460
 30
0.000000
  70
    32
  0
VERTEX
  8
0
  5
15A05
 10
-387.834
 20
838.458
 30
0.000000
  70
    32
  0
VERTEX
  8
0
  5
15A06
 10
-387.833
 20
838.456
 30
0.000000
  70
    32
  0
VERTEX
  8
0
  5
15A07
 10
-387.832
 20
838.454
 30
0.000000
  70
    32
  0
VERTEX
  8
0
  5
15A08
 10
-387.831
 20
838.453
 30
0.000000
  70
    32
  0
VERTEX
  8
0
  5
15A09
 10
-387.830
 20
838.451
 30
0.000000
  70
    32
  0
VERTEX
  8
0
  5
15A0A
 10
-387.829
 20
838.449
 30
0.000000
  70
    32
  0
VERTEX
  8
0
  5
15A0B
 10
-387.828
 20
838.447
 30
0.000000
  70
    32
  0
VERTEX
  8
0
  5
15A0C
 10
-387.827
 20
838.445
 30
0.000000
  70
    32
  0
VERTEX
  8
0
  5
15A0D
 10
-387.826
 20
838.443
 30
0.000000
  70
    32
  0
VERTEX
  8
0
  5
15A0E
 10
-387.825
 20
838.441
 30
0.000000
  70
    32
  0
VERTEX
  8
0
  5
15A0F
 10
-387.824
 20
838.440
 30
0.000000
  70
    32
  0
VERTEX
  8
0
  5
15A10
 10
-387.823
 20
838.438
 30
0.000000
  70
    32
  0
VERTEX
  8
0
  5
15A11
 10
-387.822
 20
838.436
 30
0.000000
  70
    32
  0
VERTEX
  8
0
  5
15A12
 10
-387.821
 20
838.434
 30
0.000000
  70
    32
  0
VERTEX
  8
0
  5
15A13
 10
-387.820
 20
838.432
 30
0.000000
  70
    32
  0
VERTEX
  8
0
  5
15A14
 10
-387.819
 20
838.430
 30
0.000000
  70
    32
  0
VERTEX
  8
0
  5
15A15
 10
-387.818
 20
838.429
 30
0.000000
  70
    32
  0
VERTEX
  8
0
  5
15A16
 10
-387.817
 20
838.427
 30
0.000000
  70
    32
  0
VERTEX
  8
0
  5
15A17
 10
-387.815
 20
838.425
 30
0.000000
  70
    32
  0
VERTEX
  8
0
  5
15A18
 10
-387.814
 20
838.423
 30
0.000000
  70
    32
  0
VERTEX
  8
0
  5
15A19
 10
-387.813
 20
838.421
 30
0.000000
  70
    32
  0
VERTEX
  8
0
  5
15A1A
 10
-387.812
 20
838.419
 30
0.000000
  70
    32
  0
VERTEX
  8
0
  5
15A1B
 10
-387.811
 20
838.418
 30
0.000000
  70
    32
  0
VERTEX
  8
0
  5
15A1C
 10
-387.810
 20
838.416
 30
0.000000
  70
    32
  0
VERTEX
  8
0
  5
15A1D
 10
-387.809
 20
838.414
 30
0.000000
  70
    32
  0
VERTEX
  8
0
  5
15A1E
 10
-387.808
 20
838.412
 30
0.000000
  70
    32
  0
VERTEX
  8
0
  5
15A1F
 10
-387.807
 20
838.410
 30
0.000000
  70
    32
  0
VERTEX
  8
0
  5
15A20
 10
-387.806
 20
838.408
 30
0.000000
  70
    32
  0
VERTEX
  8
0
  5
15A21
 10
-387.805
 20
838.407
 30
0.000000
  70
    32
  0
VERTEX
  8
0
  5
15A22
 10
-387.804
 20
838.405
 30
0.000000
  70
    32
  0
VERTEX
  8
0
  5
15A23
 10
-387.803
 20
838.403
 30
0.000000
  70
    32
  0
VERTEX
  8
0
  5
15A24
 10
-387.802
 20
838.401
 30
0.000000
  70
    32
  0
VERTEX
  8
0
  5
15A25
 10
-387.801
 20
838.399
 30
0.000000
  70
    32
  0
VERTEX
  8
0
  5
15A26
 10
-387.800
 20
838.397
 30
0.000000
  70
    32
  0
VERTEX
  8
0
  5
15A27
 10
-387.799
 20
838.395
 30
0.000000
  70
    32
  0
VERTEX
  8
0
  5
15A28
 10
-387.798
 20
838.394
 30
0.000000
  70
    32
  0
VERTEX
  8
0
  5
15A29
 10
-387.797
 20
838.392
 30
0.000000
  70
    32
  0
VERTEX
  8
0
  5
15A2A
 10
-387.796
 20
838.390
 30
0.000000
  70
    32
  0
VERTEX
  8
0
  5
15A2B
 10
-387.795
 20
838.388
 30
0.000000
  70
    32
  0
VERTEX
  8
0
  5
15A2C
 10
-387.794
 20
838.386
 30
0.000000
  70
    32
  0
VERTEX
  8
0
  5
15A2D
 10
-387.793
 20
838.384
 30
0.000000
  70
    32
  0
VERTEX
  8
0
  5
15A2E
 10
-387.792
 20
838.382
 30
0.000000
  70
    32
  0
VERTEX
  8
0
  5
15A2F
 10
-387.791
 20
838.381
 30
0.000000
  70
    32
  0
VERTEX
  8
0
  5
15A30
 10
-387.790
 20
838.379
 30
0.000000
  70
    32
  0
VERTEX
  8
0
  5
15A31
 10
-387.789
 20
838.377
 30
0.000000
  70
    32
  0
VERTEX
  8
0
  5
15A32
 10
-387.788
 20
838.375
 30
0.000000
  70
    32
  0
VERTEX
  8
0
  5
15A33
 10
-387.787
 20
838.373
 30
0.000000
  70
    32
  0
VERTEX
  8
0
  5
15A34
 10
-387.786
 20
838.371
 30
0.000000
  70
    32
  0
VERTEX
  8
0
  5
15A35
 10
-387.785
 20
838.369
 30
0.000000
  70
    32
  0
VERTEX
  8
0
  5
15A36
 10
-387.784
 20
838.368
 30
0.000000
  70
    32
  0
VERTEX
  8
0
  5
15A37
 10
-387.783
 20
838.366
 30
0.000000
  70
    32
  0
VERTEX
  8
0
  5
15A38
 10
-387.782
 20
838.364
 30
0.000000
  70
    32
  0
VERTEX
  8
0
  5
15A39
 10
-387.781
 20
838.362
 30
0.000000
  70
    32
  0
VERTEX
  8
0
  5
15A3A
 10
-387.780
 20
838.360
 30
0.000000
  70
    32
  0
VERTEX
  8
0
  5
15A3B
 10
-387.779
 20
838.358
 30
0.000000
  70
    32
  0
VERTEX
  8
0
  5
15A3C
 10
-387.778
 20
838.356
 30
0.000000
  70
    32
  0
VERTEX
  8
0
  5
15A3D
 10
-387.777
 20
838.355
 30
0.000000
  70
    32
  0
VERTEX
  8
0
  5
15A3E
 10
-387.776
 20
838.353
 30
0.000000
  70
    32
  0
VERTEX
  8
0
  5
15A3F
 10
-387.775
 20
838.351
 30
0.000000
  70
    32
  0
VERTEX
  8
0
  5
15A40
 10
-387.774
 20
838.349
 30
0.000000
  70
    32
  0
VERTEX
  8
0
  5
15A41
 10
-387.773
 20
838.347
 30
0.000000
  70
    32
  0
VERTEX
  8
0
  5
15A42
 10
-387.772
 20
838.345
 30
0.000000
  70
    32
  0
VERTEX
  8
0
  5
15A43
 10
-387.771
 20
838.343
 30
0.000000
  70
    32
  0
VERTEX
  8
0
  5
15A44
 10
-387.770
 20
838.342
 30
0.000000
  70
    32
  0
VERTEX
  8
0
  5
15A45
 10
-387.769
 20
838.340
 30
0.000000
  70
    32
  0
VERTEX
  8
0
  5
15A46
 10
-387.768
 20
838.338
 30
0.000000
  70
    32
  0
VERTEX
  8
0
  5
15A47
 10
-387.767
 20
838.336
 30
0.000000
  70
    32
  0
VERTEX
  8
0
  5
15A48
 10
-387.767
 20
838.334
 30
0.000000
  70
    32
  0
VERTEX
  8
0
  5
15A49
 10
-387.766
 20
838.332
 30
0.000000
  70
    32
  0
VERTEX
  8
0
  5
15A4A
 10
-387.765
 20
838.330
 30
0.000000
  70
    32
  0
VERTEX
  8
0
  5
15A4B
 10
-387.764
 20
838.328
 30
0.000000
  70
    32
  0
VERTEX
  8
0
  5
15A4C
 10
-387.763
 20
838.327
 30
0.000000
  70
    32
  0
VERTEX
  8
0
  5
15A4D
 10
-387.762
 20
838.325
 30
0.000000
  70
    32
  0
VERTEX
  8
0
  5
15A4E
 10
-387.761
 20
838.323
 30
0.000000
  70
    32
  0
VERTEX
  8
0
  5
15A4F
 10
-387.760
 20
838.321
 30
0.000000
  70
    32
  0
VERTEX
  8
0
  5
15A50
 10
-387.759
 20
838.319
 30
0.000000
  70
    32
  0
VERTEX
  8
0
  5
15A51
 10
-387.758
 20
838.317
 30
0.000000
  70
    32
  0
VERTEX
  8
0
  5
15A52
 10
-387.757
 20
838.315
 30
0.000000
  70
    32
  0
VERTEX
  8
0
  5
15A53
 10
-387.756
 20
838.313
 30
0.000000
  70
    32
  0
VERTEX
  8
0
  5
15A54
 10
-387.755
 20
838.312
 30
0.000000
  70
    32
  0
VERTEX
  8
0
  5
15A55
 10
-387.754
 20
838.310
 30
0.000000
  70
    32
  0
VERTEX
  8
0
  5
15A56
 10
-387.753
 20
838.308
 30
0.000000
  70
    32
  0
VERTEX
  8
0
  5
15A57
 10
-387.752
 20
838.306
 30
0.000000
  70
    32
  0
VERTEX
  8
0
  5
15A58
 10
-387.751
 20
838.304
 30
0.000000
  70
    32
  0
VERTEX
  8
0
  5
15A59
 10
-387.750
 20
838.302
 30
0.000000
  70
    32
  0
VERTEX
  8
0
  5
15A5A
 10
-387.749
 20
838.300
 30
0.000000
  70
    32
  0
VERTEX
  8
0
  5
15A5B
 10
-387.748
 20
838.298
 30
0.000000
  70
    32
  0
VERTEX
  8
0
  5
15A5C
 10
-387.747
 20
838.296
 30
0.000000
  70
    32
  0
VERTEX
  8
0
  5
15A5D
 10
-387.746
 20
838.295
 30
0.000000
  70
    32
  0
VERTEX
  8
0
  5
15A5E
 10
-387.745
 20
838.293
 30
0.000000
  70
    32
  0
VERTEX
  8
0
  5
15A5F
 10
-387.745
 20
838.291
 30
0.000000
  70
    32
  0
VERTEX
  8
0
  5
15A60
 10
-387.744
 20
838.289
 30
0.000000
  70
    32
  0
VERTEX
  8
0
  5
15A61
 10
-387.743
 20
838.287
 30
0.000000
  70
    32
  0
VERTEX
  8
0
  5
15A62
 10
-387.742
 20
838.285
 30
0.000000
  70
    32
  0
VERTEX
  8
0
  5
15A63
 10
-387.741
 20
838.283
 30
0.000000
  70
    32
  0
VERTEX
  8
0
  5
15A64
 10
-387.740
 20
838.281
 30
0.000000
  70
    32
  0
VERTEX
  8
0
  5
15A65
 10
-387.739
 20
838.279
 30
0.000000
  70
    32
  0
VERTEX
  8
0
  5
15A66
 10
-387.738
 20
838.278
 30
0.000000
  70
    32
  0
VERTEX
  8
0
  5
15A67
 10
-387.737
 20
838.276
 30
0.000000
  70
    32
  0
VERTEX
  8
0
  5
15A68
 10
-387.736
 20
838.274
 30
0.000000
  70
    32
  0
VERTEX
  8
0
  5
15A69
 10
-387.735
 20
838.272
 30
0.000000
  70
    32
  0
VERTEX
  8
0
  5
15A6A
 10
-387.734
 20
838.270
 30
0.000000
  70
    32
  0
VERTEX
  8
0
  5
15A6B
 10
-387.733
 20
838.268
 30
0.000000
  70
    32
  0
VERTEX
  8
0
  5
15A6C
 10
-387.733
 20
838.266
 30
0.000000
  70
    32
  0
VERTEX
  8
0
  5
15A6D
 10
-387.732
 20
838.264
 30
0.000000
  70
    32
  0
VERTEX
  8
0
  5
15A6E
 10
-387.731
 20
838.262
 30
0.000000
  70
    32
  0
VERTEX
  8
0
  5
15A6F
 10
-387.730
 20
838.260
 30
0.000000
  70
    32
  0
VERTEX
  8
0
  5
15A70
 10
-387.729
 20
838.258
 30
0.000000
  70
    32
  0
VERTEX
  8
0
  5
15A71
 10
-387.728
 20
838.257
 30
0.000000
  70
    32
  0
VERTEX
  8
0
  5
15A72
 10
-387.727
 20
838.255
 30
0.000000
  70
    32
  0
VERTEX
  8
0
  5
15A73
 10
-387.726
 20
838.253
 30
0.000000
  70
    32
  0
VERTEX
  8
0
  5
15A74
 10
-387.726
 20
838.251
 30
0.000000
  70
    32
  0
VERTEX
  8
0
  5
15A75
 10
-387.725
 20
838.249
 30
0.000000
  70
    32
  0
VERTEX
  8
0
  5
15A76
 10
-387.724
 20
838.247
 30
0.000000
  70
    32
  0
VERTEX
  8
0
  5
15A77
 10
-387.723
 20
838.245
 30
0.000000
  70
    32
  0
VERTEX
  8
0
  5
15A78
 10
-387.722
 20
838.243
 30
0.000000
  70
    32
  0
VERTEX
  8
0
  5
15A79
 10
-387.721
 20
838.241
 30
0.000000
  70
    32
  0
VERTEX
  8
0
  5
15A7A
 10
-387.721
 20
838.239
 30
0.000000
  70
    32
  0
VERTEX
  8
0
  5
15A7B
 10
-387.720
 20
838.237
 30
0.000000
  70
    32
  0
VERTEX
  8
0
  5
15A7C
 10
-387.719
 20
838.235
 30
0.000000
  70
    32
  0
VERTEX
  8
0
  5
15A7D
 10
-387.718
 20
838.233
 30
0.000000
  70
    32
  0
VERTEX
  8
0
  5
15A7E
 10
-387.718
 20
838.231
 30
0.000000
  70
    32
  0
VERTEX
  8
0
  5
15A7F
 10
-387.717
 20
838.229
 30
0.000000
  70
    32
  0
VERTEX
  8
0
  5
15A80
 10
-387.716
 20
838.227
 30
0.000000
  70
    32
  0
VERTEX
  8
0
  5
15A81
 10
-387.715
 20
838.225
 30
0.000000
  70
    32
  0
VERTEX
  8
0
  5
15A82
 10
-387.715
 20
838.223
 30
0.000000
  70
    32
  0
VERTEX
  8
0
  5
15A83
 10
-387.714
 20
838.221
 30
0.000000
  70
    32
  0
VERTEX
  8
0
  5
15A84
 10
-387.713
 20
838.219
 30
0.000000
  70
    32
  0
VERTEX
  8
0
  5
15A85
 10
-387.712
 20
838.217
 30
0.000000
  70
    32
  0
VERTEX
  8
0
  5
15A86
 10
-387.712
 20
838.215
 30
0.000000
  70
    32
  0
VERTEX
  8
0
  5
15A87
 10
-387.711
 20
838.213
 30
0.000000
  70
    32
  0
VERTEX
  8
0
  5
15A88
 10
-387.710
 20
838.211
 30
0.000000
  70
    32
  0
VERTEX
  8
0
  5
15A89
 10
-387.710
 20
838.209
 30
0.000000
  70
    32
  0
VERTEX
  8
0
  5
15A8A
 10
-387.709
 20
838.207
 30
0.000000
  70
    32
  0
VERTEX
  8
0
  5
15A8B
 10
-387.708
 20
838.205
 30
0.000000
  70
    32
  0
VERTEX
  8
0
  5
15A8C
 10
-387.708
 20
838.203
 30
0.000000
  70
    32
  0
VERTEX
  8
0
  5
15A8D
 10
-387.707
 20
838.201
 30
0.000000
  70
    32
  0
VERTEX
  8
0
  5
15A8E
 10
-387.707
 20
838.199
 30
0.000000
  70
    32
  0
VERTEX
  8
0
  5
15A8F
 10
-387.706
 20
838.197
 30
0.000000
  70
    32
  0
VERTEX
  8
0
  5
15A90
 10
-387.705
 20
838.195
 30
0.000000
  70
    32
  0
VERTEX
  8
0
  5
15A91
 10
-387.705
 20
838.193
 30
0.000000
  70
    32
  0
VERTEX
  8
0
  5
15A92
 10
-387.704
 20
838.191
 30
0.000000
  70
    32
  0
VERTEX
  8
0
  5
15A93
 10
-387.704
 20
838.189
 30
0.000000
  70
    32
  0
VERTEX
  8
0
  5
15A94
 10
-387.703
 20
838.187
 30
0.000000
  70
    32
  0
VERTEX
  8
0
  5
15A95
 10
-387.703
 20
838.185
 30
0.000000
  70
    32
  0
VERTEX
  8
0
  5
15A96
 10
-387.702
 20
838.183
 30
0.000000
  70
    32
  0
VERTEX
  8
0
  5
15A97
 10
-387.702
 20
838.181
 30
0.000000
  70
    32
  0
VERTEX
  8
0
  5
15A98
 10
-387.701
 20
838.179
 30
0.000000
  70
    32
  0
VERTEX
  8
0
  5
15A99
 10
-387.701
 20
838.177
 30
0.000000
  70
    32
  0
VERTEX
  8
0
  5
15A9A
 10
-387.700
 20
838.175
 30
0.000000
  70
    32
  0
VERTEX
  8
0
  5
15A9B
 10
-387.700
 20
838.172
 30
0.000000
  70
    32
  0
VERTEX
  8
0
  5
15A9C
 10
-387.700
 20
838.170
 30
0.000000
  70
    32
  0
VERTEX
  8
0
  5
15A9D
 10
-387.699
 20
838.168
 30
0.000000
  70
    32
  0
VERTEX
  8
0
  5
15A9E
 10
-387.699
 20
838.166
 30
0.000000
  70
    32
  0
VERTEX
  8
0
  5
15A9F
 10
-387.698
 20
838.164
 30
0.000000
  70
    32
  0
VERTEX
  8
0
  5
15AA0
 10
-387.698
 20
838.162
 30
0.000000
  70
    32
  0
VERTEX
  8
0
  5
15AA1
 10
-387.698
 20
838.160
 30
0.000000
  70
    32
  0
VERTEX
  8
0
  5
15AA2
 10
-387.698
 20
838.158
 30
0.000000
  70
    32
  0
VERTEX
  8
0
  5
15AA3
 10
-387.697
 20
838.156
 30
0.000000
  70
    32
  0
VERTEX
  8
0
  5
15AA4
 10
-387.697
 20
838.153
 30
0.000000
  70
    32
  0
VERTEX
  8
0
  5
15AA5
 10
-387.697
 20
838.151
 30
0.000000
  70
    32
  0
VERTEX
  8
0
  5
15AA6
 10
-387.697
 20
838.149
 30
0.000000
  70
    32
  0
VERTEX
  8
0
  5
15AA7
 10
-387.697
 20
838.147
 30
0.000000
  70
    32
  0
VERTEX
  8
0
  5
15AA8
 10
-387.696
 20
838.145
 30
0.000000
  70
    32
  0
VERTEX
  8
0
  5
15AA9
 10
-387.696
 20
838.143
 30
0.000000
  70
    32
  0
VERTEX
  8
0
  5
15AAA
 10
-387.696
 20
838.141
 30
0.000000
  70
    32
  0
VERTEX
  8
0
  5
15AAB
 10
-387.696
 20
838.139
 30
0.000000
  70
    32
  0
VERTEX
  8
0
  5
15AAC
 10
-387.696
 20
838.136
 30
0.000000
  70
    32
  0
VERTEX
  8
0
  5
15AAD
 10
-387.696
 20
838.134
 30
0.000000
  70
    32
  0
VERTEX
  8
0
  5
15AAE
 10
-387.696
 20
838.132
 30
0.000000
  70
    32
  0
VERTEX
  8
0
  5
15AAF
 10
-387.696
 20
838.130
 30
0.000000
  70
    32
  0
VERTEX
  8
0
  5
15AB0
 10
-387.696
 20
838.128
 30
0.000000
  70
    32
  0
VERTEX
  8
0
  5
15AB1
 10
-387.697
 20
838.126
 30
0.000000
  70
    32
  0
VERTEX
  8
0
  5
15AB2
 10
-387.697
 20
838.124
 30
0.000000
  70
    32
  0
VERTEX
  8
0
  5
15AB3
 10
-387.697
 20
838.122
 30
0.000000
  70
    32
  0
VERTEX
  8
0
  5
15AB4
 10
-387.697
 20
838.120
 30
0.000000
  70
    32
  0
VERTEX
  8
0
  5
15AB5
 10
-387.697
 20
838.117
 30
0.000000
  70
    32
  0
VERTEX
  8
0
  5
15AB6
 10
-387.698
 20
838.115
 30
0.000000
  70
    32
  0
VERTEX
  8
0
  5
15AB7
 10
-387.698
 20
838.113
 30
0.000000
  70
    32
  0
VERTEX
  8
0
  5
15AB8
 10
-387.698
 20
838.111
 30
0.000000
  70
    32
  0
VERTEX
  8
0
  5
15AB9
 10
-387.699
 20
838.109
 30
0.000000
  70
    32
  0
VERTEX
  8
0
  5
15ABA
 10
-387.699
 20
838.107
 30
0.000000
  70
    32
  0
VERTEX
  8
0
  5
15ABB
 10
-387.700
 20
838.105
 30
0.000000
  70
    32
  0
VERTEX
  8
0
  5
15ABC
 10
-387.700
 20
838.103
 30
0.000000
  70
    32
  0
VERTEX
  8
0
  5
15ABD
 10
-387.701
 20
838.101
 30
0.000000
  70
    32
  0
VERTEX
  8
0
  5
15ABE
 10
-387.701
 20
838.099
 30
0.000000
  70
    32
  0
VERTEX
  8
0
  5
15ABF
 10
-387.702
 20
838.097
 30
0.000000
  70
    32
  0
VERTEX
  8
0
  5
15AC0
 10
-387.703
 20
838.095
 30
0.000000
  70
    32
  0
VERTEX
  8
0
  5
15AC1
 10
-387.703
 20
838.093
 30
0.000000
  70
    32
  0
VERTEX
  8
0
  5
15AC2
 10
-387.704
 20
838.091
 30
0.000000
  70
    32
  0
VERTEX
  8
0
  5
15AC3
 10
-387.705
 20
838.089
 30
0.000000
  70
    32
  0
VERTEX
  8
0
  5
15AC4
 10
-387.706
 20
838.087
 30
0.000000
  70
    32
  0
VERTEX
  8
0
  5
15AC5
 10
-387.707
 20
838.085
 30
0.000000
  70
    32
  0
VERTEX
  8
0
  5
15AC6
 10
-387.708
 20
838.083
 30
0.000000
  70
    32
  0
VERTEX
  8
0
  5
15AC7
 10
-387.709
 20
838.081
 30
0.000000
  70
    32
  0
VERTEX
  8
0
  5
15AC8
 10
-387.710
 20
838.079
 30
0.000000
  70
    32
  0
VERTEX
  8
0
  5
15AC9
 10
-387.711
 20
838.078
 30
0.000000
  70
    32
  0
VERTEX
  8
0
  5
15ACA
 10
-387.712
 20
838.076
 30
0.000000
  70
    32
  0
VERTEX
  8
0
  5
15ACB
 10
-387.714
 20
838.074
 30
0.000000
  70
    32
  0
VERTEX
  8
0
  5
15ACC
 10
-387.715
 20
838.073
 30
0.000000
  70
    32
  0
VERTEX
  8
0
  5
15ACD
 10
-387.716
 20
838.071
 30
0.000000
  70
    32
  0
VERTEX
  8
0
  5
15ACE
 10
-387.718
 20
838.070
 30
0.000000
  70
    32
  0
VERTEX
  8
0
  5
15ACF
 10
-387.719
 20
838.068
 30
0.000000
  70
    32
  0
VERTEX
  8
0
  5
15AD0
 10
-387.721
 20
838.067
 30
0.000000
  70
    32
  0
VERTEX
  8
0
  5
15AD1
 10
-387.723
 20
838.065
 30
0.000000
  70
    32
  0
VERTEX
  8
0
  5
15AD2
 10
-387.724
 20
838.064
 30
0.000000
  70
    32
  0
VERTEX
  8
0
  5
15AD3
 10
-387.726
 20
838.063
 30
0.000000
  70
    32
  0
VERTEX
  8
0
  5
15AD4
 10
-387.727
 20
838.061
 30
0.000000
  70
    32
  0
VERTEX
  8
0
  5
15AD5
 10
-387.729
 20
838.060
 30
0.000000
  70
    32
  0
VERTEX
  8
0
  5
15AD6
 10
-387.731
 20
838.059
 30
0.000000
  70
    32
  0
VERTEX
  8
0
  5
15AD7
 10
-387.733
 20
838.058
 30
0.000000
  70
    32
  0
VERTEX
  8
0
  5
15AD8
 10
-387.734
 20
838.056
 30
0.000000
  70
    32
  0
VERTEX
  8
0
  5
15AD9
 10
-387.736
 20
838.055
 30
0.000000
  70
    32
  0
VERTEX
  8
0
  5
15ADA
 10
-387.738
 20
838.054
 30
0.000000
  70
    32
  0
VERTEX
  8
0
  5
15ADB
 10
-387.740
 20
838.053
 30
0.000000
  70
    32
  0
VERTEX
  8
0
  5
15ADC
 10
-387.742
 20
838.052
 30
0.000000
  70
    32
  0
VERTEX
  8
0
  5
15ADD
 10
-387.743
 20
838.050
 30
0.000000
  70
    32
  0
VERTEX
  8
0
  5
15ADE
 10
-387.745
 20
838.049
 30
0.000000
  70
    32
  0
VERTEX
  8
0
  5
15ADF
 10
-387.747
 20
838.048
 30
0.000000
  70
    32
  0
VERTEX
  8
0
  5
15AE0
 10
-387.749
 20
838.047
 30
0.000000
  70
    32
  0
VERTEX
  8
0
  5
15AE1
 10
-387.750
 20
838.046
 30
0.000000
  70
    32
  0
VERTEX
  8
0
  5
15AE2
 10
-387.752
 20
838.045
 30
0.000000
  70
    32
  0
SEQEND
  8
0
  5
15AE3
  0
VIEWPORT
  5
BADA
 67
     1
  8
0
 10
5.249999665167528
 20
4.016860864854312
 30
0.0
 40
16.259362384438411
 41
8.0158201110956853
 68
     2
 69
     1
1001
ACAD
1000
MVIEW
1002
{
1070
    16
1010
0.0
1020
0.0
1030
0.0
1010
0.0
1020
0.0
1030
1.0
1040
0.0
1040
8.0158201110956853
1040
5.249999665167528
1040
4.016860864854312
1040
50.0
1040
0.0
1040
0.0
1070
     0
1070
   100
1070
     1
1070
     1
1070
     0
1070
     0
1070
     0
1070
     0
1040
0.0
1040
0.0
1040
0.0
1040
0.5
1040
0.5
1040
0.5
1040
0.5
1070
     0
1002
{
1002
}
1002
}
  0
VIEWPORT
  5
BADD
 67
     1
  8
0
 10
5.249999629487192
 20
4.0166741807634683
 30
0.0
 40
10.44245679893058
 41
7.8813805131999892
 68
     1
 69
     2
1001
ACAD
1000
MVIEW
1002
{
1070
    16
1010
0.0
1020
0.0
1030
0.0
1010
0.0
1020
0.0
1030
1.0
1040
0.0
1040
7.8813805131999892
1040
-386.98228224175318
1040
838.55170720428066
1040
50.0
1040
0.0
1040
0.0
1070
     0
1070
   100
1070
     1
1070
     2
1070
     0
1070
     0
1070
     0
1070
     0
1040
0.0
1040
0.0
1040
0.0
1040
0.5
1040
0.5
1040
0.5
1040
0.5
1070
     0
1002
{
1002
}
1002
}
  0
ENDSEC
  0
EOF
