  0
SECTION
  2
HEADER
  9
$ACADVER
  1
AC1009
  9
$INSBASE
 10
0.0
 20
0.0
 30
0.0
  9
$EXTMIN
 10
-391.51728314063951
 20
835.37626998032738
 30
0.0
  9
$EXTMAX
 10
-383.46367029701781
 20
842.16543565424013
 30
0.0
  9
$LIMMIN
 10
0.0
 20
0.0
  9
$LIMMAX
 10
1500.0
 20
1500.0
  9
$ORTHOMODE
 70
     0
  9
$REGENMODE
 70
     1
  9
$FILLMODE
 70
     1
  9
$QTEXTMODE
 70
     0
  9
$MIRRTEXT
 70
     1
  9
$DRAGMODE
 70
     2
  9
$LTSCALE
 40
1.0
  9
$OSMODE
 70
    37
  9
$ATTMODE
 70
     1
  9
$TEXTSIZE
 40
1.5
  9
$TRACEWID
 40
0.05
  9
$TEXTSTYLE
  7
STANDARD
  9
$CLAYER
  8
0
  9
$CELTYPE
  6
BYLAYER
  9
$CECOLOR
 62
   256
  9
$DIMSCALE
 40
1.0
  9
$DIMASZ
 40
0.75
  9
$DIMEXO
 40
1.5
  9
$DIMDLI
 40
2.0
  9
$DIMRND
 40
0.0
  9
$DIMDLE
 40
0.0
  9
$DIMEXE
 40
1.0
  9
$DIMTP
 40
0.0
  9
$DIMTM
 40
0.0
  9
$DIMTXT
 40
1.5
  9
$DIMCEN
 40
2.0
  9
$DIMTSZ
 40
0.0
  9
$DIMTOL
 70
     0
  9
$DIMLIM
 70
     0
  9
$DIMTIH
 70
     0
  9
$DIMTOH
 70
     0
  9
$DIMSE1
 70
     0
  9
$DIMSE2
 70
     0
  9
$DIMTAD
 70
     1
  9
$DIMZIN
 70
     0
  9
$DIMBLK
  1
ARCHTICK
  9
$DIMASO
 70
     1
  9
$DIMSHO
 70
     1
  9
$DIMPOST
  1
"
  9
$DIMAPOST
  1

  9
$DIMALT
 70
     0
  9
$DIMALTD
 70
     2
  9
$DIMALTF
 40
25.399999999999999
  9
$DIMLFAC
 40
1.0
  9
$DIMTOFL
 70
     0
  9
$DIMTVP
 40
0.0
  9
$DIMTIX
 70
     1
  9
$DIMSOXD
 70
     0
  9
$DIMSAH
 70
     0
  9
$DIMBLK1
  1

  9
$DIMBLK2
  1

  9
$DIMSTYLE
  2
THREE_QUARTER_INCH_SCALE
  9
$DIMCLRD
 70
     0
  9
$DIMCLRE
 70
     0
  9
$DIMCLRT
 70
     0
  9
$DIMTFAC
 40
1.0
  9
$DIMGAP
 40
1.0
  9
$LUNITS
 70
     2
  9
$LUPREC
 70
     4
  9
$SKETCHINC
 40
0.1
  9
$FILLETRAD
 40
0.0
  9
$AUNITS
 70
     0
  9
$AUPREC
 70
     0
  9
$MENU
  1
.
  9
$ELEVATION
 40
0.0
  9
$PELEVATION
 40
0.0
  9
$THICKNESS
 40
0.0
  9
$LIMCHECK
 70
     0
  9
$BLIPMODE
 70
     0
  9
$CHAMFERA
 40
0.5
  9
$CHAMFERB
 40
0.5
  9
$SKPOLY
 70
     0
  9
$TDCREATE
 40
2452089.395738773
  9
$TDUPDATE
 40
2453613.330965891
  9
$TDINDWG
 40
1.0048512383999999
  9
$TDUSRTIMER
 40
1.0048510648
  9
$USRTIMER
 70
     1
  9
$ANGBASE
 50
0.0
  9
$ANGDIR
 70
     0
  9
$PDMODE
 70
     0
  9
$PDSIZE
 40
10.0
  9
$PLINEWID
 40
0.0
  9
$COORDS
 70
     1
  9
$SPLFRAME
 70
     0
  9
$SPLINETYPE
 70
     6
  9
$SPLINESEGS
 70
     8
  9
$ATTDIA
 70
     0
  9
$ATTREQ
 70
     1
  9
$HANDLING
 70
     1
  9
$HANDSEED
  5
E2CC
  9
$SURFTAB1
 70
     6
  9
$SURFTAB2
 70
     6
  9
$SURFTYPE
 70
     6
  9
$SURFU
 70
     6
  9
$SURFV
 70
     6
  9
$UCSNAME
  2

  9
$UCSORG
 10
0.0
 20
0.0
 30
0.0
  9
$UCSXDIR
 10
1.0
 20
0.0
 30
0.0
  9
$UCSYDIR
 10
0.0
 20
1.0
 30
0.0
  9
$PUCSNAME
  2

  9
$PUCSORG
 10
0.0
 20
0.0
 30
0.0
  9
$PUCSXDIR
 10
1.0
 20
0.0
 30
0.0
  9
$PUCSYDIR
 10
0.0
 20
1.0
 30
0.0
  9
$USERI1
 70
     0
  9
$USERI2
 70
     0
  9
$USERI3
 70
     0
  9
$USERI4
 70
     0
  9
$USERI5
 70
     0
  9
$USERR1
 40
0.0
  9
$USERR2
 40
0.0
  9
$USERR3
 40
0.0
  9
$USERR4
 40
0.0
  9
$USERR5
 40
0.0
  9
$WORLDVIEW
 70
     1
  9
$SHADEDGE
 70
     3
  9
$SHADEDIF
 70
    70
  9
$TILEMODE
 70
     0
  9
$MAXACTVP
 70
    64
  9
$PLIMCHECK
 70
     0
  9
$PEXTMIN
 10
0.0280982296770773
 20
0.0758747945053777
 30
-0.0000000349181948
  9
$PEXTMAX
 10
10.47163505903136
 20
7.9578465084694647
 30
0.0000000814935746
  9
$PLIMMIN
 10
-0.1682389550263349
 20
-0.2033427855578579
  9
$PLIMMAX
 10
10.754640548407011
 20
8.2370640492290015
  9
$UNITMODE
 70
     0
  9
$VISRETAIN
 70
     1
  9
$PLINEGEN
 70
     0
  9
$PSLTSCALE
 70
     1
  0
ENDSEC
  0
SECTION
  2
TABLES
  0
TABLE
  2
VPORT
 70
     1
  0
VPORT
  2
*ACTIVE
 70
     0
 10
0.0
 20
0.0
 11
1.0
 21
1.0
 12
-386.52380251144001
 22
838.09204166179234
 13
0.0
 23
0.0
 14
0.5
 24
0.5
 15
0.5
 25
0.5
 16
0.0
 26
0.0
 36
1.0
 17
0.0
 27
0.0
 37
0.0
 40
3.930952126162941
 41
2.0226628895184122
 42
50.0
 43
0.0
 44
0.0
 50
0.0
 51
0.0
 71
     0
 72
   100
 73
     1
 74
     2
 75
     0
 76
     0
 77
     0
 78
     0
  0
ENDTAB
  0
TABLE
  2
LTYPE
 70
     1
  0
LTYPE
  2
CONTINUOUS
 70
     0
  3
Solid line
 72
    65
 73
     0
 40
0.0
  0
ENDTAB
  0
TABLE
  2
LAYER
 70
    11
  0
LAYER
  2
0
 70
     0
 62
     7
  6
CONTINUOUS
  0
LAYER
  2
DEFPOINTS
 70
     0
 62
     7
  6
CONTINUOUS
  0
LAYER
  2
FRAME_200
 70
     0
 62
     8
  6
CONTINUOUS
  0
LAYER
  2
FRAME_070
 70
     0
 62
     5
  6
CONTINUOUS
  0
LAYER
  2
FRAME_050
 70
     0
 62
     6
  6
CONTINUOUS
  0
LAYER
  2
TITLE_BLOCK
 70
     0
 62
     7
  6
CONTINUOUS
  0
LAYER
  2
FRAME_025
 70
     0
 62
     7
  6
CONTINUOUS
  0
LAYER
  2
VIEWPORT
 70
     0
 62
     7
  6
CONTINUOUS
  0
LAYER
  2
PROF
 70
     0
 62
     7
  6
CONTINUOUS
  0
LAYER
  2
PROFILE
 70
     0
 62
     7
  6
CONTINUOUS
  0
LAYER
  2
FRAME_0500
 70
     0
 62
     6
  6
CONTINUOUS
  0
ENDTAB
  0
TABLE
  2
STYLE
 70
     2
  0
STYLE
  2
STANDARD
 70
     0
 40
0.0
 41
1.0
 50
0.0
 71
     0
 42
1.5
  3
txt
  4

  0
STYLE
  2
ISO_PROPORTIONAL
 70
     0
 40
0.0
 41
1.0
 50
0.0
 71
     0
 42
2.5
  3
isocp.shx
  4

  0
ENDTAB
  0
TABLE
  2
VIEW
 70
     0
  0
ENDTAB
  0
TABLE
  2
UCS
 70
     0
  0
ENDTAB
  0
TABLE
  2
APPID
 70
     6
  0
APPID
  2
ACAD
 70
     0
  0
APPID
  2
DCO15
 70
     0
  0
APPID
  2
ACAD_EXEMPT_FROM_CAD_STANDARDS
 70
     0
  0
APPID
  2
ACAD_PSEXT
 70
     0
  0
APPID
  2
CONTENTBLOCKDESCRIPTION
 70
     0
  0
APPID
  2
CONTENTBLOCKICON
 70
     0
  0
ENDTAB
  0
TABLE
  2
DIMSTYLE
 70
    10
  0
DIMSTYLE
  2
FULL_SCALE
 70
     0
  3
"
  4

  5

  6

  7

 40
1.0
 41
0.046875
 42
0.09375
 43
0.125
 44
0.0625
 45
0.0
 46
0.0
 47
0.0
 48
0.0
140
0.125
141
0.125
142
0.0
143
25.399999999999999
144
1.0
145
0.0
146
1.0
147
0.0625
 71
     0
 72
     0
 73
     0
 74
     0
 75
     0
 76
     0
 77
     1
 78
     0
170
     0
171
     2
172
     0
173
     0
174
     1
175
     0
176
     0
177
     0
178
     0
  0
DIMSTYLE
  2
HALF_SCALE
 70
     0
  3
"
  4

  5

  6

  7

 40
1.0
 41
0.09375
 42
0.1875
 43
0.25
 44
0.125
 45
0.0
 46
0.0
 47
0.0
 48
0.0
140
0.25
141
0.25
142
0.0
143
25.399999999999999
144
1.0
145
0.0
146
1.0
147
0.125
 71
     0
 72
     0
 73
     0
 74
     0
 75
     0
 76
     0
 77
     1
 78
     0
170
     0
171
     2
172
     0
173
     0
174
     1
175
     0
176
     0
177
     0
178
     0
  0
DIMSTYLE
  2
INCH_SCALE
 70
     0
  3
"
  4

  5

  6

  7

 40
1.0
 41
0.5625
 42
1.125
 43
1.5
 44
0.75
 45
0.0
 46
0.0
 47
0.0
 48
0.0
140
1.125
141
1.5
142
0.0
143
25.399999999999999
144
1.0
145
0.0
146
1.0
147
0.75
 71
     0
 72
     0
 73
     0
 74
     0
 75
     0
 76
     0
 77
     1
 78
     0
170
     0
171
     2
172
     0
173
     0
174
     1
175
     0
176
     0
177
     0
178
     0
  0
DIMSTYLE
  2
THREE_QUARTER_INCH_SCALE
 70
     0
  3
"
  4

  5

  6

  7

 40
1.0
 41
0.75
 42
1.5
 43
2.0
 44
1.0
 45
0.0
 46
0.0
 47
0.0
 48
0.0
140
1.5
141
2.0
142
0.0
143
25.399999999999999
144
1.0
145
0.0
146
1.0
147
1.0
 71
     0
 72
     0
 73
     0
 74
     0
 75
     0
 76
     0
 77
     1
 78
     0
170
     0
171
     2
172
     0
173
     0
174
     1
175
     0
176
     0
177
     0
178
     0
  0
DIMSTYLE
  2
ZHALF_INCH_SCALE
 70
     0
  3
"
  4

  5

  6

  7

 40
1.0
 41
1.125
 42
2.25
 43
3.0
 44
1.5
 45
0.0
 46
0.0
 47
0.0
 48
0.0
140
2.25
141
3.0
142
0.0
143
25.399999999999999
144
1.0
145
0.0
146
1.0
147
1.5
 71
     0
 72
     0
 73
     0
 74
     0
 75
     0
 76
     0
 77
     1
 78
     0
170
     0
171
     2
172
     0
173
     0
174
     1
175
     0
176
     0
177
     0
178
     0
  0
DIMSTYLE
  2
FULL_SCALE0
 70
     0
  3
"
  4

  5
ARCHTICK
  6

  7

 40
1.0
 41
0.046875
 42
0.09375
 43
0.125
 44
0.0625
 45
0.0
 46
0.0
 47
0.0
 48
0.0
140
0.125
141
0.125
142
0.0
143
25.399999999999999
144
1.0
145
0.0
146
1.0
147
0.0625
 71
     0
 72
     0
 73
     0
 74
     0
 75
     0
 76
     0
 77
     1
 78
     0
170
     0
171
     2
172
     0
173
     0
174
     1
175
     0
176
     0
177
     0
178
     0
  0
DIMSTYLE
  2
HALF_SCALE0
 70
     0
  3
"
  4

  5
ARCHTICK
  6

  7

 40
1.0
 41
0.09375
 42
0.1875
 43
0.25
 44
0.125
 45
0.0
 46
0.0
 47
0.0
 48
0.0
140
0.25
141
0.25
142
0.0
143
25.399999999999999
144
1.0
145
0.0
146
1.0
147
0.125
 71
     0
 72
     0
 73
     0
 74
     0
 75
     0
 76
     0
 77
     1
 78
     0
170
     0
171
     2
172
     0
173
     0
174
     1
175
     0
176
     0
177
     0
178
     0
  0
DIMSTYLE
  2
INCH_SCALE0
 70
     0
  3
"
  4

  5
ARCHTICK
  6

  7

 40
1.0
 41
0.5625
 42
1.125
 43
1.5
 44
0.75
 45
0.0
 46
0.0
 47
0.0
 48
0.0
140
1.125
141
1.5
142
0.0
143
25.399999999999999
144
1.0
145
0.0
146
1.0
147
0.75
 71
     0
 72
     0
 73
     0
 74
     0
 75
     0
 76
     0
 77
     1
 78
     0
170
     0
171
     2
172
     0
173
     0
174
     1
175
     0
176
     0
177
     0
178
     0
  0
DIMSTYLE
  2
THREE_QUARTER_INCH_SCALE0
 70
     0
  3
"
  4

  5
ARCHTICK
  6

  7

 40
1.0
 41
0.75
 42
1.5
 43
2.0
 44
1.0
 45
0.0
 46
0.0
 47
0.0
 48
0.0
140
1.5
141
2.0
142
0.0
143
25.399999999999999
144
1.0
145
0.0
146
1.0
147
1.0
 71
     0
 72
     0
 73
     0
 74
     0
 75
     0
 76
     0
 77
     1
 78
     0
170
     0
171
     2
172
     0
173
     0
174
     1
175
     0
176
     0
177
     0
178
     0
  0
DIMSTYLE
  2
ZHALF_INCH_SCALE0
 70
     0
  3
"
  4

  5
ARCHTICK
  6

  7

 40
1.0
 41
1.125
 42
2.25
 43
3.0
 44
1.5
 45
0.0
 46
0.0
 47
0.0
 48
0.0
140
2.25
141
3.0
142
0.0
143
25.399999999999999
144
1.0
145
0.0
146
1.0
147
1.5
 71
     0
 72
     0
 73
     0
 74
     0
 75
     0
 76
     0
 77
     1
 78
     0
170
     0
171
     2
172
     0
173
     0
174
     1
175
     0
176
     0
177
     0
178
     0
  0
ENDTAB
  0
ENDSEC
  0
SECTION
  2
BLOCKS
  0
BLOCK
  8
0
  2
$MODEL_SPACE
 70
     0
 10
0.0
 20
0.0
 30
0.0
  3
$MODEL_SPACE
  1

  0
ENDBLK
  5
C9DC
  8
0
  0
BLOCK
 67
     1
  8
0
  2
$PAPER_SPACE
 70
     0
 10
0.0
 20
0.0
 30
0.0
  3
$PAPER_SPACE
  1

  0
ENDBLK
  5
C9D8
 67
     1
  8
0
  0
BLOCK
  8
0
  2
_ARCHTICK
 70
     0
 10
0.0
 20
0.0
 30
0.0
  3
_ARCHTICK
  1

  0
POLYLINE
  5
158
  8
0
  6
BYBLOCK
 62
     0
 66
     1
 10
0.0
 20
0.0
 30
0.0
 40
0.15
 41
0.15
  0
VERTEX
  5
DE81
  8
0
  6
BYBLOCK
 62
     0
 10
-0.5
 20
-0.5
 30
0.0
  0
VERTEX
  5
DE82
  8
0
  6
BYBLOCK
 62
     0
 10
0.5
 20
0.5
 30
0.0
  0
SEQEND
  5
DE83
  8
0
  6
BYBLOCK
 62
     0
  0
ENDBLK
  5
15A
  8
0
  0
BLOCK
  8
0
  2
_OPEN30
 70
     0
 10
0.0
 20
0.0
 30
0.0
  3
_OPEN30
  1

  0
LINE
  5
15C
  8
0
  6
BYBLOCK
 62
     0
 10
-1.0
 20
0.26794919
 30
0.0
 11
0.0
 21
0.0
 31
0.0
  0
LINE
  5
15D
  8
0
  6
BYBLOCK
 62
     0
 10
0.0
 20
0.0
 30
0.0
 11
-1.0
 21
-0.26794919
 31
0.0
  0
LINE
  5
15E
  8
0
  6
BYBLOCK
 62
     0
 10
0.0
 20
0.0
 30
0.0
 11
-1.0
 21
0.0
 31
0.0
  0
ENDBLK
  5
160
  8
0
  0
BLOCK
  8
0
  2
ISO_A2_TITLE_BLOCK
 70
     2
 10
0.0
 20
0.0
 30
0.0
  3
ISO_A2_TITLE_BLOCK
  1

  0
LINE
  5
BDD
  8
FRAME_050
 10
299.5
 20
12.5
 30
0.0
 11
297.0
 21
7.5
 31
0.0
  0
LINE
  5
BDE
  8
FRAME_050
 10
294.5
 20
12.5
 30
0.0
 11
299.5
 21
12.5
 31
0.0
  0
LINE
  5
BDF
  8
FRAME_050
 10
247.0
 20
5.0
 30
0.0
 11
347.0
 21
5.0
 31
0.0
  0
LINE
  5
BE0
  8
FRAME_070
 10
584.0
 20
410.0
 30
0.0
 11
10.0
 21
410.0
 31
0.0
  0
LINE
  5
BE1
  8
FRAME_070
 10
10.0
 20
10.0
 30
0.0
 11
584.0
 21
10.0
 31
0.0
  0
LINE
  5
BE2
  8
FRAME_050
 10
12.5
 20
207.5
 30
0.0
 11
7.5
 21
210.0
 31
0.0
  0
LINE
  5
BE3
  8
FRAME_050
 10
12.5
 20
212.5
 30
0.0
 11
12.5
 21
207.5
 31
0.0
  0
LINE
  5
BE4
  8
FRAME_070
 10
10.0
 20
410.0
 30
0.0
 11
10.0
 21
10.0
 31
0.0
  0
LINE
  5
BE5
  8
FRAME_200
 10
0.0
 20
0.0
 30
0.0
 11
0.0
 21
10.0
 31
0.0
  0
LINE
  5
BE6
  8
FRAME_200
 10
0.0
 20
0.0
 30
0.0
 11
10.0
 21
0.0
 31
0.0
  0
TEXT
  5
BE7
  8
FRAME_050
 10
5.9000000000000004
 20
35.0
 30
0.0
 40
4.0
  1
H
  7
ISO_PROPORTIONAL
 72
     4
 11
7.5
 21
37.0
 31
0.0
  0
LINE
  5
BE8
  8
FRAME_050
 10
10.0
 20
60.0
 30
0.0
 11
5.0
 21
60.0
 31
0.0
  0
LINE
  5
BE9
  8
FRAME_050
 10
81.75
 20
5.0
 30
0.0
 11
81.75
 21
10.0
 31
0.0
  0
TEXT
  5
BEA
  8
FRAME_050
 10
44.874999999999993
 20
5.5
 30
0.0
 40
4.0
  1
1
  7
ISO_PROPORTIONAL
 72
     4
 11
45.875
 21
7.5
 31
0.0
  0
TEXT
  5
BEB
  8
FRAME_050
 10
6.0035533905932743
 20
85.0
 30
0.0
 40
4.0
  1
G
  7
ISO_PROPORTIONAL
 72
     4
 11
7.5
 21
87.0
 31
0.0
  0
LINE
  5
BEC
  8
FRAME_050
 10
10.0
 20
110.0
 30
0.0
 11
5.0
 21
110.0
 31
0.0
  0
TEXT
  5
BED
  8
FRAME_050
 10
6.0999999999999988
 20
135.0
 30
0.0
 40
4.0
  1
F
  7
ISO_PROPORTIONAL
 72
     4
 11
7.5
 21
137.0
 31
0.0
  0
LINE
  5
BEE
  8
FRAME_050
 10
10.0
 20
160.0
 30
0.0
 11
5.0
 21
160.0
 31
0.0
  0
TEXT
  5
BEF
  8
FRAME_050
 10
6.0999999999999988
 20
185.0
 30
0.0
 40
4.0
  1
E
  7
ISO_PROPORTIONAL
 72
     4
 11
7.5
 21
187.0
 31
0.0
  0
LINE
  5
BF0
  8
FRAME_050
 10
153.5
 20
5.0
 30
0.0
 11
153.5
 21
10.0
 31
0.0
  0
TEXT
  5
BF1
  8
FRAME_050
 10
116.1556692913386
 20
5.3996062992125982
 30
0.0
 40
4.0
  1
2
  7
ISO_PROPORTIONAL
 72
     4
 11
117.625
 21
7.5
 31
0.0
  0
TEXT
  5
BF2
  8
FRAME_050
 10
187.89215728752529
 20
5.5828427124746138
 30
0.0
 40
4.0
  1
3
  7
ISO_PROPORTIONAL
 72
     4
 11
189.375
 21
7.5
 31
0.0
  0
LINE
  5
BF3
  8
FRAME_050
 10
225.25
 20
5.0
 30
0.0
 11
225.25
 21
10.0
 31
0.0
  0
LINE
  5
BF4
  8
FRAME_050
 10
297.0
 20
7.5
 30
0.0
 11
294.5
 21
12.5
 31
0.0
  0
LINE
  5
BF5
  8
FRAME_050
 10
287.0
 20
5.0
 30
0.0
 11
287.0
 21
10.0
 31
0.0
  0
LINE
  5
BF6
  8
FRAME_050
 10
277.0
 20
5.0
 30
0.0
 11
277.0
 21
10.0
 31
0.0
  0
LINE
  5
BF7
  8
FRAME_050
 10
267.0
 20
5.0
 30
0.0
 11
267.0
 21
10.0
 31
0.0
  0
LINE
  5
BF8
  8
FRAME_050
 10
257.0
 20
5.0
 30
0.0
 11
257.0
 21
10.0
 31
0.0
  0
LINE
  5
BF9
  8
FRAME_050
 10
247.0
 20
5.0
 30
0.0
 11
247.0
 21
10.0
 31
0.0
  0
LINE
  5
BFA
  8
FRAME_050
 10
297.0
 20
10.0
 30
0.0
 11
297.0
 21
5.0
 31
0.0
  0
LINE
  5
BFB
  8
FRAME_050
 10
297.0
 20
10.0
 30
0.0
 11
297.0
 21
15.0
 31
0.0
  0
LINE
  5
BFC
  8
FRAME_050
 10
5.0
 20
210.0
 30
0.0
 11
15.0
 21
210.0
 31
0.0
  0
LINE
  5
BFD
  8
FRAME_050
 10
7.5
 20
210.0
 30
0.0
 11
12.5
 21
212.5
 31
0.0
  0
TEXT
  5
BFE
  8
FRAME_050
 10
5.7860912703473977
 20
235.0
 30
0.0
 40
4.0
  1
D
  7
ISO_PROPORTIONAL
 72
     4
 11
7.5
 21
237.0
 31
0.0
  0
LINE
  5
BFF
  8
FRAME_050
 10
10.0
 20
260.0
 30
0.0
 11
5.0
 21
260.0
 31
0.0
  0
TEXT
  5
C00
  8
FRAME_050
 10
6.1931980515339466
 20
285.0
 30
0.0
 40
4.0
  1
C
  7
ISO_PROPORTIONAL
 72
     4
 11
7.5
 21
287.0
 31
0.0
  0
LINE
  5
C01
  8
FRAME_050
 10
10.0
 20
310.0
 30
0.0
 11
5.0
 21
310.0
 31
0.0
  0
TEXT
  5
C02
  8
FRAME_050
 10
5.8999999999999959
 20
335.0
 30
0.0
 40
4.0
  1
B
  7
ISO_PROPORTIONAL
 72
     4
 11
7.5
 21
337.0
 31
0.0
  0
LINE
  5
C03
  8
FRAME_050
 10
10.0
 20
360.0
 30
0.0
 11
5.0
 21
360.0
 31
0.0
  0
TEXT
  5
C04
  8
FRAME_050
 10
5.6999999999999993
 20
385.0
 30
0.0
 40
4.0
  1
A
  7
ISO_PROPORTIONAL
 72
     4
 11
7.5
 21
387.0
 31
0.0
  0
LINE
  5
C05
  8
FRAME_200
 10
10.0
 20
420.0
 30
0.0
 11
0.0
 21
420.0
 31
0.0
  0
LINE
  5
C06
  8
FRAME_200
 10
0.0
 20
420.0
 30
0.0
 11
0.0
 21
410.0
 31
0.0
  0
TEXT
  5
C07
  8
FRAME_050
 10
44.874999999999993
 20
410.5
 30
0.0
 40
4.0
  1
1
  7
ISO_PROPORTIONAL
 72
     4
 11
45.875
 21
412.5
 31
0.0
  0
LINE
  5
C08
  8
FRAME_050
 10
81.75
 20
410.0
 30
0.0
 11
81.75
 21
415.0
 31
0.0
  0
TEXT
  5
C09
  8
FRAME_050
 10
116.1556692913386
 20
410.39960629921262
 30
0.0
 40
4.0
  1
2
  7
ISO_PROPORTIONAL
 72
     4
 11
117.625
 21
412.5
 31
0.0
  0
LINE
  5
C0A
  8
FRAME_050
 10
153.5
 20
410.0
 30
0.0
 11
153.5
 21
415.0
 31
0.0
  0
TEXT
  5
C0B
  8
FRAME_050
 10
187.89215728752529
 20
410.58284271247459
 30
0.0
 40
4.0
  1
3
  7
ISO_PROPORTIONAL
 72
     4
 11
189.375
 21
412.5
 31
0.0
  0
LINE
  5
C0C
  8
FRAME_050
 10
297.0
 20
405.0
 30
0.0
 11
297.0
 21
415.0
 31
0.0
  0
LINE
  5
C0D
  8
FRAME_050
 10
225.25
 20
410.0
 30
0.0
 11
225.25
 21
415.0
 31
0.0
  0
TEXT
  5
C0E
  8
FRAME_050
 10
259.52499999999998
 20
410.5
 30
0.0
 40
4.0
  1
4
  7
ISO_PROPORTIONAL
 72
     4
 11
261.125
 21
412.5
 31
0.0
  0
LINE
  5
C0F
  8
FRAME_070
 10
584.0
 20
10.0
 30
0.0
 11
584.0
 21
410.0
 31
0.0
  0
ATTDEF
  5
C10
  8
FRAME_025
 10
473.0
 20
31.75
 30
0.0
 40
2.5
  1
XXX - 00/00/00
  7
ISO_PROPORTIONAL
 11
473.0
 21
33.0
 31
0.0
  3
Approved by - Date
  2
APPROVED_BY_DATE
 70
     8
 74
     2
  0
TEXT
  5
C11
  8
FRAME_025
 10
448.0
 20
41.749999999999993
 30
0.0
 40
2.5
  1
Title/Name, designation, material, dimension etc
  7
ISO_PROPORTIONAL
 11
448.0
 21
43.0
 31
0.0
 73
     2
  0
TEXT
  5
C12
  8
FRAME_025
 10
473.0
 20
35.75
 30
0.0
 40
2.5
  1
Approved by - date
  7
ISO_PROPORTIONAL
 11
473.0
 21
37.0
 31
0.0
 73
     2
  0
LINE
  5
C13
  8
FRAME_070
 10
414.0
 20
46.0
 30
0.0
 11
584.0
 21
46.0
 31
0.0
  0
LINE
  5
C14
  8
FRAME_070
 10
414.0
 20
40.0
 30
0.0
 11
584.0
 21
40.0
 31
0.0
  0
LINE
  5
C15
  8
FRAME_070
 10
414.0
 20
30.0
 30
0.0
 11
584.0
 21
30.0
 31
0.0
  0
LINE
  5
C16
  8
FRAME_050
 10
368.75
 20
5.0
 30
0.0
 11
368.75
 21
10.0
 31
0.0
  0
LINE
  5
C17
  8
FRAME_050
 10
337.0
 20
5.0
 30
0.0
 11
337.0
 21
10.0
 31
0.0
  0
LINE
  5
C18
  8
FRAME_050
 10
327.0
 20
5.0
 30
0.0
 11
327.0
 21
10.0
 31
0.0
  0
LINE
  5
C19
  8
FRAME_050
 10
317.0
 20
5.0
 30
0.0
 11
317.0
 21
10.0
 31
0.0
  0
LINE
  5
C1A
  8
FRAME_050
 10
307.0
 20
5.0
 30
0.0
 11
307.0
 21
10.0
 31
0.0
  0
LINE
  5
C1B
  8
FRAME_050
 10
347.0
 20
5.0
 30
0.0
 11
347.0
 21
10.0
 31
0.0
  0
LINE
  5
C1C
  8
FRAME_050
 10
440.5
 20
5.0
 30
0.0
 11
440.5
 21
10.0
 31
0.0
  0
TEXT
  5
C1D
  8
FRAME_050
 10
403.24547244094481
 20
5.4102362204724406
 30
0.0
 40
4.0
  1
6
  7
ISO_PROPORTIONAL
 72
     4
 11
404.62499999999989
 21
7.5
 31
0.0
  0
TEXT
  5
C1E
  8
FRAME_050
 10
474.97499999999991
 20
5.5
 30
0.0
 40
4.0
  1
7
  7
ISO_PROPORTIONAL
 72
     4
 11
476.37499999999989
 21
7.5
 31
0.0
  0
TEXT
  5
C1F
  8
FRAME_025
 10
431.0
 20
41.749999999999993
 30
0.0
 40
2.5
  1
Quantity
  7
ISO_PROPORTIONAL
 11
431.0
 21
43.0
 31
0.0
 73
     2
  0
TEXT
  5
C20
  8
FRAME_025
 10
416.0
 20
41.749999999999993
 30
0.0
 40
2.5
  1
Itemref
  7
ISO_PROPORTIONAL
 11
416.0
 21
43.0
 31
0.0
 73
     2
  0
LINE
  5
C21
  8
FRAME_070
 10
414.0
 20
40.0
 30
0.0
 11
414.0
 21
46.0
 31
0.0
  0
LINE
  5
C22
  8
FRAME_070
 10
429.0
 20
40.0
 30
0.0
 11
429.0
 21
46.0
 31
0.0
  0
LINE
  5
C23
  8
FRAME_070
 10
414.0
 20
10.0
 30
0.0
 11
414.0
 21
40.0
 31
0.0
  0
ATTDEF
  5
C24
  8
FRAME_025
 10
416.0
 20
31.75
 30
0.0
 40
2.5
  1
XXX
  7
ISO_PROPORTIONAL
 11
416.0
 21
33.0
 31
0.0
  3
Designed by
  2
DESIGNED_BY
 70
     8
 74
     2
  0
TEXT
  5
C25
  8
FRAME_025
 10
416.0
 20
35.75
 30
0.0
 40
2.5
  1
Designed by
  7
ISO_PROPORTIONAL
 11
416.0
 21
37.0
 31
0.0
 73
     2
  0
LINE
  5
C26
  8
FRAME_070
 10
446.0
 20
40.0
 30
0.0
 11
446.0
 21
46.0
 31
0.0
  0
ATTDEF
  5
C27
  8
FRAME_025
 10
448.0
 20
31.75
 30
0.0
 40
2.5
  1
XXX
  7
ISO_PROPORTIONAL
 11
448.0
 21
33.0
 31
0.0
  3
Checked by
  2
CHECKED_BY
 70
     8
 74
     2
  0
TEXT
  5
C28
  8
FRAME_025
 10
448.0
 20
35.75
 30
0.0
 40
2.5
  1
Checked by
  7
ISO_PROPORTIONAL
 11
448.0
 21
37.0
 31
0.0
 73
     2
  0
ATTDEF
  5
C29
  8
FRAME_050
 10
444.74999999999989
 20
17.5
 30
0.0
 40
5.0
  1
XXX
  7
ISO_PROPORTIONAL
 72
     4
 11
451.49999999999989
 21
20.0
 31
0.0
  3
Owner
  2
OWNER
 70
     8
  0
LINE
  5
C2A
  8
FRAME_070
 10
446.0
 20
30.0
 30
0.0
 11
446.0
 21
40.0
 31
0.0
  0
LINE
  5
C2B
  8
FRAME_070
 10
471.0
 20
30.0
 30
0.0
 11
471.0
 21
40.0
 31
0.0
  0
LINE
  5
C2C
  8
FRAME_070
 10
489.0
 20
20.0
 30
0.0
 11
584.0
 21
20.0
 31
0.0
  0
LINE
  5
C2D
  8
FRAME_050
 10
512.25
 20
5.0
 30
0.0
 11
512.25
 21
10.0
 31
0.0
  0
TEXT
  5
C2E
  8
FRAME_050
 10
546.72499999999991
 20
5.5
 30
0.0
 40
4.0
  1
8
  7
ISO_PROPORTIONAL
 72
     4
 11
548.125
 21
7.5
 31
0.0
  0
ATTDEF
  5
C2F
  8
FRAME_050
 10
517.64999999999986
 20
13.5
 30
0.0
 40
3.0
  1
X
  7
ISO_PROPORTIONAL
 72
     4
 11
519.0
 21
15.0
 31
0.0
  3
Drawing number
  2
DRAWING_NUMBER
 70
     8
  0
ATTDEF
  5
C30
  8
FRAME_050
 10
529.75
 20
22.5
 30
0.0
 40
5.0
  1
XXX
  7
ISO_PROPORTIONAL
 72
     4
 11
536.5
 21
25.0
 31
0.0
  3
Title / Name
  2
TITLE
 70
     8
  0
LINE
  5
C31
  8
FRAME_070
 10
489.0
 20
10.0
 30
0.0
 11
489.0
 21
30.0
 31
0.0
  0
ATTDEF
  5
C32
  8
FRAME_025
 10
511.0
 20
31.75
 30
0.0
 40
2.5
  1
XXX
  7
ISO_PROPORTIONAL
 11
511.0
 21
33.0
 31
0.0
  3
Filename
  2
FILENAME
 70
     8
 74
     2
  0
TEXT
  5
C33
  8
FRAME_025
 10
511.0
 20
35.75
 30
0.0
 40
2.5
  1
Filename
  7
ISO_PROPORTIONAL
 11
511.0
 21
37.0
 31
0.0
 73
     2
  0
LINE
  5
C34
  8
FRAME_070
 10
509.0
 20
30.0
 30
0.0
 11
509.0
 21
40.0
 31
0.0
  0
TEXT
  5
C35
  8
FRAME_025
 10
536.0
 20
41.749999999999993
 30
0.0
 40
2.5
  1
Article No./Reference
  7
ISO_PROPORTIONAL
 11
536.0
 21
43.0
 31
0.0
 73
     2
  0
LINE
  5
C36
  8
FRAME_070
 10
534.0
 20
40.0
 30
0.0
 11
534.0
 21
46.0
 31
0.0
  0
ATTDEF
  5
C37
  8
FRAME_025
 10
551.0
 20
11.75
 30
0.0
 40
2.5
  1
0
  7
ISO_PROPORTIONAL
 11
551.0
 21
13.0
 31
0.0
  3
Edition
  2
EDITION
 70
     8
 74
     2
  0
TEXT
  5
C38
  8
FRAME_025
 10
551.0
 20
15.75
 30
0.0
 40
2.5
  1
Edition
  7
ISO_PROPORTIONAL
 11
551.0
 21
17.0
 31
0.0
 73
     2
  0
LINE
  5
C39
  8
FRAME_070
 10
549.0
 20
10.0
 30
0.0
 11
549.0
 21
20.0
 31
0.0
  0
ATTDEF
  5
C3A
  8
FRAME_025
 10
536.0
 20
31.75
 30
0.0
 40
2.5
  1
00/00/00
  7
ISO_PROPORTIONAL
 11
536.0
 21
33.0
 31
0.0
  3
Date
  2
DATE
 70
     8
 74
     2
  0
TEXT
  5
C3B
  8
FRAME_025
 10
536.0
 20
35.75
 30
0.0
 40
2.5
  1
Date
  7
ISO_PROPORTIONAL
 11
536.0
 21
37.0
 31
0.0
 73
     2
  0
LINE
  5
C3C
  8
FRAME_070
 10
534.0
 20
30.0
 30
0.0
 11
534.0
 21
40.0
 31
0.0
  0
ATTDEF
  5
C3D
  8
FRAME_025
 10
566.0
 20
11.75
 30
0.0
 40
2.5
  1
1/1
  7
ISO_PROPORTIONAL
 11
566.0
 21
13.0
 31
0.0
  3
Sheet
  2
SHEET
 70
     8
 74
     2
  0
TEXT
  5
C3E
  8
FRAME_025
 10
566.0
 20
15.75
 30
0.0
 40
2.5
  1
Sheet
  7
ISO_PROPORTIONAL
 11
566.0
 21
17.0
 31
0.0
 73
     2
  0
LINE
  5
C3F
  8
FRAME_070
 10
564.0
 20
10.0
 30
0.0
 11
564.0
 21
20.0
 31
0.0
  0
ATTDEF
  5
C40
  8
FRAME_025
 10
566.0
 20
31.75
 30
0.0
 40
2.5
  1
1:1
  7
ISO_PROPORTIONAL
 11
566.0
 21
33.0
 31
0.0
  3
Scale
  2
SCALE
 70
     8
 74
     2
  0
TEXT
  5
C41
  8
FRAME_025
 10
566.0
 20
35.75
 30
0.0
 40
2.5
  1
Scale
  7
ISO_PROPORTIONAL
 11
566.0
 21
37.0
 31
0.0
 73
     2
  0
LINE
  5
C42
  8
FRAME_070
 10
564.0
 20
30.0
 30
0.0
 11
564.0
 21
40.0
 31
0.0
  0
LINE
  5
C43
  8
FRAME_200
 10
594.0
 20
0.0
 30
0.0
 11
594.0
 21
10.0
 31
0.0
  0
LINE
  5
C44
  8
FRAME_200
 10
594.0
 20
0.0
 30
0.0
 11
584.0
 21
0.0
 31
0.0
  0
TEXT
  5
C45
  8
FRAME_050
 10
584.89999999999998
 20
35.0
 30
0.0
 40
4.0
  1
H
  7
ISO_PROPORTIONAL
 72
     4
 11
586.5
 21
37.0
 31
0.0
  0
LINE
  5
C46
  8
FRAME_050
 10
589.0
 20
60.0
 30
0.0
 11
584.0
 21
60.0
 31
0.0
  0
TEXT
  5
C47
  8
FRAME_050
 10
585.0035533905932
 20
85.0
 30
0.0
 40
4.0
  1
G
  7
ISO_PROPORTIONAL
 72
     4
 11
586.5
 21
87.0
 31
0.0
  0
LINE
  5
C48
  8
FRAME_050
 10
589.0
 20
110.0
 30
0.0
 11
584.0
 21
110.0
 31
0.0
  0
TEXT
  5
C49
  8
FRAME_050
 10
585.09999999999991
 20
135.0
 30
0.0
 40
4.0
  1
F
  7
ISO_PROPORTIONAL
 72
     4
 11
586.5
 21
137.0
 31
0.0
  0
LINE
  5
C4A
  8
FRAME_050
 10
589.0
 20
160.0
 30
0.0
 11
584.0
 21
160.0
 31
0.0
  0
TEXT
  5
C4B
  8
FRAME_050
 10
585.09999999999991
 20
185.0
 30
0.0
 40
4.0
  1
E
  7
ISO_PROPORTIONAL
 72
     4
 11
586.5
 21
187.0
 31
0.0
  0
LINE
  5
C4C
  8
FRAME_070
 10
414.0
 20
404.0
 30
0.0
 11
584.0
 21
404.0
 31
0.0
  0
TEXT
  5
C4D
  8
FRAME_050
 10
331.39215728752538
 20
410.58284271247459
 30
0.0
 40
4.0
  1
5
  7
ISO_PROPORTIONAL
 72
     4
 11
332.875
 21
412.5
 31
0.0
  0
LINE
  5
C4E
  8
FRAME_050
 10
368.75
 20
410.0
 30
0.0
 11
368.75
 21
415.0
 31
0.0
  0
TEXT
  5
C4F
  8
FRAME_025
 10
428.0
 20
405.75
 30
0.0
 40
2.5
  1
Revision note
  7
ISO_PROPORTIONAL
 11
428.0
 21
407.0
 31
0.0
 73
     2
  0
TEXT
  5
C50
  8
FRAME_025
 10
416.0
 20
405.75
 30
0.0
 40
2.5
  1
RevNo
  7
ISO_PROPORTIONAL
 11
416.0
 21
407.0
 31
0.0
 73
     2
  0
LINE
  5
C51
  8
FRAME_070
 10
426.0
 20
404.0
 30
0.0
 11
426.0
 21
410.0
 31
0.0
  0
LINE
  5
C52
  8
FRAME_070
 10
414.0
 20
404.0
 30
0.0
 11
414.0
 21
410.0
 31
0.0
  0
TEXT
  5
C53
  8
FRAME_050
 10
403.24547244094481
 20
410.41023622047243
 30
0.0
 40
4.0
  1
6
  7
ISO_PROPORTIONAL
 72
     4
 11
404.62499999999989
 21
412.5
 31
0.0
  0
LINE
  5
C54
  8
FRAME_050
 10
440.5
 20
410.0
 30
0.0
 11
440.5
 21
415.0
 31
0.0
  0
TEXT
  5
C55
  8
FRAME_050
 10
474.97499999999991
 20
410.5
 30
0.0
 40
4.0
  1
7
  7
ISO_PROPORTIONAL
 72
     4
 11
476.37499999999989
 21
412.5
 31
0.0
  0
LINE
  5
C56
  8
FRAME_050
 10
579.0
 20
210.0
 30
0.0
 11
589.0
 21
210.0
 31
0.0
  0
TEXT
  5
C57
  8
FRAME_050
 10
584.78609127034736
 20
235.0
 30
0.0
 40
4.0
  1
D
  7
ISO_PROPORTIONAL
 72
     4
 11
586.5
 21
237.0
 31
0.0
  0
LINE
  5
C58
  8
FRAME_050
 10
589.0
 20
260.0
 30
0.0
 11
584.0
 21
260.0
 31
0.0
  0
TEXT
  5
C59
  8
FRAME_050
 10
585.19319805153395
 20
285.0
 30
0.0
 40
4.0
  1
C
  7
ISO_PROPORTIONAL
 72
     4
 11
586.5
 21
287.0
 31
0.0
  0
LINE
  5
C5A
  8
FRAME_050
 10
589.0
 20
310.0
 30
0.0
 11
584.0
 21
310.0
 31
0.0
  0
TEXT
  5
C5B
  8
FRAME_050
 10
584.89999999999998
 20
335.0
 30
0.0
 40
4.0
  1
B
  7
ISO_PROPORTIONAL
 72
     4
 11
586.5
 21
337.0
 31
0.0
  0
TEXT
  5
C5C
  8
FRAME_025
 10
571.08299391850551
 20
405.75
 30
0.0
 40
2.5
  1
Checked
  7
ISO_PROPORTIONAL
 11
571.08299391850551
 21
407.0
 31
0.0
 73
     2
  0
TEXT
  5
C5D
  8
FRAME_025
 10
555.36099797283521
 20
405.75
 30
0.0
 40
2.5
  1
Signature
  7
ISO_PROPORTIONAL
 11
555.36099797283521
 21
407.0
 31
0.0
 73
     2
  0
TEXT
  5
C5E
  8
FRAME_025
 10
537.0
 20
405.75
 30
0.0
 40
2.5
  1
Date
  7
ISO_PROPORTIONAL
 11
537.0
 21
407.0
 31
0.0
 73
     2
  0
LINE
  5
C5F
  8
FRAME_070
 10
570.0
 20
404.0
 30
0.0
 11
570.0
 21
410.0
 31
0.0
  0
LINE
  5
C60
  8
FRAME_070
 10
555.0
 20
404.0
 30
0.0
 11
555.0
 21
410.0
 31
0.0
  0
LINE
  5
C61
  8
FRAME_070
 10
535.0
 20
404.0
 30
0.0
 11
535.0
 21
410.0
 31
0.0
  0
LINE
  5
C62
  8
FRAME_050
 10
512.25
 20
410.0
 30
0.0
 11
512.25
 21
415.0
 31
0.0
  0
TEXT
  5
C63
  8
FRAME_050
 10
546.72499999999991
 20
410.5
 30
0.0
 40
4.0
  1
8
  7
ISO_PROPORTIONAL
 72
     4
 11
548.125
 21
412.5
 31
0.0
  0
LINE
  5
C64
  8
FRAME_050
 10
589.0
 20
360.0
 30
0.0
 11
584.0
 21
360.0
 31
0.0
  0
TEXT
  5
C65
  8
FRAME_050
 10
584.70000000000005
 20
385.0
 30
0.0
 40
4.0
  1
A
  7
ISO_PROPORTIONAL
 72
     4
 11
586.5
 21
387.0
 31
0.0
  0
LINE
  5
C66
  8
FRAME_200
 10
594.0
 20
420.0
 30
0.0
 11
584.0
 21
420.0
 31
0.0
  0
LINE
  5
C67
  8
FRAME_200
 10
594.0
 20
410.0
 30
0.0
 11
594.0
 21
420.0
 31
0.0
  0
ENDBLK
  5
C69
  8
0
  0
BLOCK
  8
0
  2
WOBB001END
 70
     0
 10
0.0
 20
0.0
 30
0.0
  3
WOBB001END
  1

  0
LINE
  5
4D66
  8
0
  6
CONTINUOUS
 10
0.0
 20
0.0
 30
0.0
 11
0.8749999999999998
 21
0.0
 31
0.0
  0
ARC
  5
4D67
  8
0
  6
CONTINUOUS
 10
0.0331648379439287
 20
-0.5087238935900234
 30
0.0
 40
0.8790130605592325
 50
284.06490243660443
 51
312.19222981924361
  0
ARC
  5
4D68
  8
0
  6
CONTINUOUS
 10
0.2841534338796767
 20
-1.510548310625538
 30
0.0
 40
0.1537731892806598
 50
104.0649024366044
 51
179.4721730735024
  0
LINE
  5
4D69
  8
0
  6
CONTINUOUS
 10
0.0
 20
0.0
 30
0.0
 11
-0.0000000000000003
 21
-1.7501564476661911
 31
0.0
  0
ARC
  5
4D6A
  8
0
  6
CONTINUOUS
 10
0.1404622019506122
 20
-1.630313718354619
 30
0.0
 40
0.1198427293115722
 50
275.0
 51
85.000000000000057
  0
LINE
  5
4D6B
  8
0
  6
CONTINUOUS
 10
-0.0000000000000003
 20
-1.7501564476661911
 30
0.0
 11
0.1456946485130855
 21
-1.7501564476661911
 31
0.0
  0
LINE
  5
4D6C
  8
0
  6
CONTINUOUS
 10
0.1377603739254348
 20
-1.7508506067459131
 30
0.0
 11
0.150907184036669
 21
-1.7497004098996509
 31
0.0
  0
LINE
  5
4D6D
  8
0
  6
CONTINUOUS
 10
0.1303867696719884
 20
-1.5091317231818231
 30
0.0
 11
0.1509071840366689
 21
-1.510927026809586
 31
0.0
  0
LINE
  5
4D6E
  8
0
  6
CONTINUOUS
 10
0.8749999999999998
 20
0.0
 30
0.0
 11
0.8749999999999996
 21
-0.8649327026588228
 31
0.0
  0
LINE
  5
4D6F
  8
0
  6
CONTINUOUS
 10
0.727014513830997
 20
-0.872688293355061
 30
0.0
 11
0.727014513830997
 21
-0.9264923397184784
 31
0.0
  0
ARC
  5
4D70
  8
0
  6
CONTINUOUS
 10
0.41187090827646
 20
-0.9264923397184784
 30
0.0
 40
0.3151436055545369
 50
312.19222981924361
 51
0.0
  0
LINE
  5
4D71
  8
0
  6
CONTINUOUS
 10
0.727014513830997
 20
-0.872688293355061
 30
0.0
 11
0.8749999999999996
 21
-0.8649327026588228
 31
0.0
  0
ENDBLK
  5
4D72
  8
0
  0
BLOCK
  8
0
  2
A$C0A61123B
 70
     0
 10
0.0
 20
0.0
 30
0.0
  3
A$C0A61123B
  1

  0
LINE
  5
C0AD
  8
PROF
  6
CONTINUOUS
 10
4.9012016798694162
 20
13.325025853350891
 30
0.0000000000000002
 11
4.9012016798694162
 21
12.88585218805485
 31
0.0000000000000003
  0
INSERT
  5
C0AE
  8
0
  2
*U7
 10
0.0
 20
0.0
 30
0.0
  0
LINE
  5
C0AF
  8
PROF
 10
4.519857503186925
 20
12.72227734589444
 30
0.0000000000000001
 11
4.519857503186925
 21
12.88585218805485
 31
0.0000000000000001
  0
LINE
  5
C0B0
  8
PROF
  6
CONTINUOUS
 10
3.6306271195888362
 20
13.325025853350891
 30
0.0000000000000002
 11
4.9012016798694162
 21
13.325025853350891
 31
0.0000000000000002
  0
LINE
  5
C0B1
  8
PROF
 10
1.9750295148747341
 20
10.37671325491794
 30
0.0000000000000002
 11
1.9750295148747341
 21
10.11391186758919
 31
0.0000000000000002
  0
LINE
  5
C0B2
  8
PROF
 10
1.6079673357556299
 20
10.11391186758919
 30
0.0000000000000001
 11
1.9750295148747341
 21
10.11391186758919
 31
0.0000000000000001
  0
LINE
  5
C0B3
  8
PROF
 10
1.9750295148747341
 20
10.11391186758919
 30
0.0000000000000001
 11
1.944958486898144
 21
10.11391186758919
 31
0.0000000000000001
  0
LINE
  5
C0B4
  8
PROF
 10
1.9750295148747341
 20
10.11391186758919
 30
0.0000000000000001
 11
1.944958486898144
 21
10.11391186758919
 31
0.0000000000000001
  0
LINE
  5
C0B5
  8
PROF
 10
0.3222605517169654
 20
7.5247473351056451
 30
-0.0000000000000002
 11
-0.0000008570117416
 21
7.5247473351056451
 31
0.0
  0
LINE
  5
C0B6
  8
PROF
 10
-0.0000008570117416
 20
7.5247473351056451
 30
0.0
 11
-0.0000008570117416
 21
9.1943336957369848
 31
0.0
  0
POLYLINE
  5
C0B7
  8
PROF
 66
     1
 10
0.0
 20
0.0
 30
0.0000000000000001
 70
     4
 75
     6
  0
VERTEX
  5
C0B8
  8
PROF
 10
1.6079673357556299
 20
10.11391186758919
 30
0.0000000000000001
 70
    16
  0
VERTEX
  5
C0B9
  8
PROF
 10
1.6079673357556299
 20
10.11391186758919
 30
0.0000000000000001
 70
     8
  0
VERTEX
  5
C0BA
  8
PROF
 10
1.6468132326485809
 20
10.02198069336111
 30
0.0000000000000001
 70
     8
  0
VERTEX
  5
C0BB
  8
PROF
 10
1.67335966680929
 20
9.9344134163010231
 30
0.0000000000000001
 70
     8
  0
VERTEX
  5
C0BC
  8
PROF
 10
1.6890086400463229
 20
9.8512576644480951
 30
0.0000000000000001
 70
     8
  0
VERTEX
  5
C0BD
  8
PROF
 10
1.6951621541682571
 20
9.7725610658417281
 30
0.0000000000000001
 70
     8
  0
VERTEX
  5
C0BE
  8
PROF
 10
1.693222210983605
 20
9.6983712485214237
 30
0.0000000000000001
 70
     8
  0
VERTEX
  5
C0BF
  8
PROF
 10
1.6845908123009961
 20
9.6287358405263603
 30
0.0000000000000001
 70
     8
  0
VERTEX
  5
C0C0
  8
PROF
 10
1.670669959928885
 20
9.5637024698960431
 30
0.0000000000000001
 70
     8
  0
VERTEX
  5
C0C1
  8
PROF
 10
1.6528616556759621
 20
9.5033187646697552
 30
0.0000000000000001
 70
     8
  0
VERTEX
  5
C0C2
  8
PROF
 10
1.632356299273054
 20
9.4475843259650691
 30
0.0000000000000001
 70
     8
  0
VERTEX
  5
C0C3
  8
PROF
 10
1.609497882140658
 20
9.3963066472123273
 30
0.0000000000000001
 70
     8
  0
VERTEX
  5
C0C4
  8
PROF
 10
1.584418793621637
 20
9.3492451949202842
 30
0.0000000000000001
 70
     8
  0
VERTEX
  5
C0C5
  8
PROF
 10
1.5572514230587431
 20
9.3061594355972357
 30
0.0000000000000001
 70
     8
  0
VERTEX
  5
C0C6
  8
PROF
 10
1.5281281597949601
 20
9.2668088357519274
 30
0.0000000000000001
 70
     8
  0
VERTEX
  5
C0C7
  8
PROF
 10
1.497181393172978
 20
9.2309528618929981
 30
0.0000000000000001
 70
     8
  0
VERTEX
  5
C0C8
  8
PROF
 10
1.4645435125357249
 20
9.1983509805288541
 30
0.0000000000000001
 70
     8
  0
VERTEX
  5
C0C9
  8
PROF
 10
1.4303469072260091
 20
9.1687626581682462
 30
0.0000000000000001
 70
     8
  0
VERTEX
  5
C0CA
  8
PROF
 10
1.394736033257401
 20
9.1419547918675335
 30
0.0000000000000001
 70
     8
  0
VERTEX
  5
C0CB
  8
PROF
 10
1.3579036133264131
 20
9.1177240008747713
 30
0.0000000000000001
 70
     8
  0
VERTEX
  5
C0CC
  8
PROF
 10
1.3200544368004321
 20
9.0958743349860924
 30
0.0000000000000001
 70
     8
  0
VERTEX
  5
C0CD
  8
PROF
 10
1.281393293046676
 20
9.0762098439975034
 30
0.0000000000000001
 70
     8
  0
VERTEX
  5
C0CE
  8
PROF
 10
1.2421249714324161
 20
9.0585345777049042
 30
0.0000000000000001
 70
     8
  0
VERTEX
  5
C0CF
  8
PROF
 10
1.202454261324986
 20
9.0426525859044187
 30
0.0000000000000001
 70
     8
  0
VERTEX
  5
C0D0
  8
PROF
 10
1.162585952091659
 20
9.0283679183919503
 30
0.0000000000000001
 70
     8
  0
VERTEX
  5
C0D1
  8
PROF
 10
1.1227248330997091
 20
9.0154846249635021
 30
0.0000000000000001
 70
     8
  0
VERTEX
  5
C0D2
  8
PROF
 10
1.0829726247361
 20
9.0034643862466055
 30
0.0000000000000001
 70
     8
  0
VERTEX
  5
C0D3
  8
PROF
 10
1.043018771466222
 20
8.9903994061946833
 30
0.0000000000000001
 70
     8
  0
VERTEX
  5
C0D4
  8
PROF
 10
1.002449648775211
 20
8.9740395195925622
 30
0.0000000000000001
 70
     8
  0
VERTEX
  5
C0D5
  8
PROF
 10
0.9608516321480919
 20
8.9521345612251935
 30
0.0000000000000001
 70
     8
  0
VERTEX
  5
C0D6
  8
PROF
 10
0.9178110970699435
 20
8.9224343658775052
 30
0.0000000000000001
 70
     8
  0
VERTEX
  5
C0D7
  8
PROF
 10
0.8729144190259033
 20
8.8826887683343312
 30
0.0000000000000001
 70
     8
  0
VERTEX
  5
C0D8
  8
PROF
 10
0.8257479735009949
 20
8.8306476033806121
 30
0.0000000000000001
 70
     8
  0
VERTEX
  5
C0D9
  8
PROF
 10
0.7758981359802988
 20
8.764060705801171
 30
0.0000000000000001
 70
     8
  0
VERTEX
  5
C0DA
  8
PROF
 10
1.7292019016096549
 20
9.8629858761255491
 30
0.0000000000000001
 70
    16
  0
VERTEX
  5
C0DB
  8
PROF
 10
1.679373123114088
 20
9.4532143012734213
 30
0.0000000000000001
 70
    16
  0
VERTEX
  5
C0DC
  8
PROF
 10
1.4455611507419801
 20
9.1391837193732481
 30
0.0000000000000001
 70
    16
  0
VERTEX
  5
C0DD
  8
PROF
 10
1.1204637172738201
 20
9.0026267702428413
 30
0.0000000000000001
 70
    16
  0
VERTEX
  5
C0DE
  8
PROF
 10
0.9127765582653638
 20
8.9630202230383702
 30
0.0000000000000001
 70
    16
  0
VERTEX
  5
C0DF
  8
PROF
 10
0.7758981359802988
 20
8.764060705801171
 30
0.0000000000000001
 70
    16
  0
SEQEND
  5
C0E0
  8
PROF
  0
ARC
  5
C0E1
  8
PROF
 10
0.733429816733235
 20
8.4849506952165257
 30
0.0000000000000001
 40
0.2823224329524727
 50
269.73652020831901
 51
81.348449993176914
  0
LINE
  5
C0E2
  8
PROF
  6
CONTINUOUS
 10
-0.0000008570117416
 20
9.1943336957369848
 30
-0.0000000000000001
 11
3.6306271195888362
 21
13.325025853350891
 31
0.0000000000000002
  0
POLYLINE
  5
C0E3
  8
PROF
 66
     1
 10
0.0
 20
0.0
 30
0.0000000000000001
 70
     4
 75
     6
  0
VERTEX
  5
C0E4
  8
PROF
 10
4.519857503186925
 20
12.72227734589444
 30
0.0000000000000001
 70
    16
  0
VERTEX
  5
C0E5
  8
PROF
 10
4.519857503186925
 20
12.72227734589444
 30
0.0000000000000001
 70
     8
  0
VERTEX
  5
C0E6
  8
PROF
 10
4.4467035366886289
 20
12.741128108778071
 30
0.0000000000000001
 70
     8
  0
VERTEX
  5
C0E7
  8
PROF
 10
4.3786645761268801
 20
12.754675269913941
 30
0.0000000000000001
 70
     8
  0
VERTEX
  5
C0E8
  8
PROF
 10
4.3154364111440469
 20
12.76334314092332
 30
0.0000000000000001
 70
     8
  0
VERTEX
  5
C0E9
  8
PROF
 10
4.256714831382566
 20
12.76755603342724
 30
0.0000000000000001
 70
     8
  0
VERTEX
  5
C0EA
  8
PROF
 10
4.2021956264849791
 20
12.76773825904672
 30
0.0000000000000001
 70
     8
  0
VERTEX
  5
C0EB
  8
PROF
 10
4.1515745860935436
 20
12.764314129403139
 30
0.0000000000000001
 70
     8
  0
VERTEX
  5
C0EC
  8
PROF
 10
4.1045474998508649
 20
12.75770795611743
 30
0.0000000000000001
 70
     8
  0
VERTEX
  5
C0ED
  8
PROF
 10
4.0608101573993149
 20
12.748344050810831
 30
0.0000000000000001
 70
     8
  0
VERTEX
  5
C0EE
  8
PROF
 10
4.0200583483813261
 20
12.736646725104491
 30
0.0000000000000001
 70
     8
  0
VERTEX
  5
C0EF
  8
PROF
 10
3.981987862439381
 20
12.72304029061945
 30
0.0000000000000001
 70
     8
  0
VERTEX
  5
C0F0
  8
PROF
 10
3.946294489215858
 20
12.707949058976959
 30
0.0000000000000001
 70
     8
  0
VERTEX
  5
C0F1
  8
PROF
 10
3.912674018353242
 20
12.691797341798059
 30
0.0000000000000001
 70
     8
  0
VERTEX
  5
C0F2
  8
PROF
 10
3.8808638350742499
 20
12.67494295718654
 30
0.0000000000000001
 70
     8
  0
VERTEX
  5
C0F3
  8
PROF
 10
3.850767706922738
 20
12.65747774917668
 30
0.0000000000000001
 70
     8
  0
VERTEX
  5
C0F4
  8
PROF
 10
3.8223309970228438
 20
12.639427068285499
 30
0.0000000000000001
 70
     8
  0
VERTEX
  5
C0F5
  8
PROF
 10
3.795499068498712
 20
12.62081626503004
 30
0.0000000000000001
 70
     8
  0
VERTEX
  5
C0F6
  8
PROF
 10
3.7702172844744819
 20
12.601670689926999
 30
0.0000000000000001
 70
     8
  0
VERTEX
  5
C0F7
  8
PROF
 10
3.7464310080743521
 20
12.58201569349364
 30
0.0000000000000001
 70
     8
  0
VERTEX
  5
C0F8
  8
PROF
 10
3.7240856024224609
 20
12.56187662624666
 30
0.0000000000000001
 70
     8
  0
VERTEX
  5
C0F9
  8
PROF
 10
3.7031264306428961
 20
12.541278838703191
 30
0.0000000000000001
 70
     8
  0
VERTEX
  5
C0FA
  8
PROF
 10
3.683498855859908
 20
12.520247681380051
 30
0.0000000000000001
 70
     8
  0
VERTEX
  5
C0FB
  8
PROF
 10
3.665148241197528
 20
12.49880850479428
 30
0.0000000000000001
 70
     8
  0
VERTEX
  5
C0FC
  8
PROF
 10
3.648019949779949
 20
12.47698665946279
 30
0.0000000000000001
 70
     8
  0
VERTEX
  5
C0FD
  8
PROF
 10
3.6320593447313159
 20
12.45480749590263
 30
0.0000000000000001
 70
     8
  0
VERTEX
  5
C0FE
  8
PROF
 10
3.617189584886658
 20
12.43223790353807
 30
0.0000000000000001
 70
     8
  0
VERTEX
  5
C0FF
  8
PROF
 10
3.6032450119242849
 20
12.40901092742285
 30
0.0000000000000001
 70
     8
  0
VERTEX
  5
C100
  8
PROF
 10
3.590037763233453
 20
12.38480115151844
 30
0.0000000000000001
 70
     8
  0
VERTEX
  5
C101
  8
PROF
 10
3.5773799762033032
 20
12.35928315978594
 30
0.0000000000000001
 70
     8
  0
VERTEX
  5
C102
  8
PROF
 10
3.5650837882230899
 20
12.33213153618658
 30
0.0000000000000001
 70
     8
  0
VERTEX
  5
C103
  8
PROF
 10
3.552961336681959
 20
12.303020864681571
 30
0.0000000000000001
 70
     8
  0
VERTEX
  5
C104
  8
PROF
 10
3.540824758969165
 20
12.271625729232371
 30
0.0000000000000001
 70
     8
  0
VERTEX
  5
C105
  8
PROF
 10
3.528486192473848
 20
12.23762071379997
 30
0.0000000000000001
 70
     8
  0
VERTEX
  5
C106
  8
PROF
 10
3.5157577745852659
 20
12.200680402345711
 30
0.0000000000000001
 70
     8
  0
VERTEX
  5
C107
  8
PROF
 10
3.502451642692618
 20
12.16047937883093
 30
0.0000000000000001
 70
     8
  0
VERTEX
  5
C108
  8
PROF
 10
3.4883799341851041
 20
12.116692227216619
 30
0.0000000000000001
 70
     8
  0
VERTEX
  5
C109
  8
PROF
 10
3.4733547864519201
 20
12.06899353146423
 30
0.0000000000000001
 70
     8
  0
VERTEX
  5
C10A
  8
PROF
 10
3.45723654619428
 20
12.0172095445447
 30
0.0000000000000001
 70
     8
  0
VERTEX
  5
C10B
  8
PROF
 10
3.440078397361388
 20
11.961773195467799
 30
0.0000000000000001
 70
     8
  0
VERTEX
  5
C10C
  8
PROF
 10
3.4219817332145781
 20
11.90326908225302
 30
0.0000000000000001
 70
     8
  0
VERTEX
  5
C10D
  8
PROF
 10
3.4030479470150099
 20
11.842281802919951
 30
0.0000000000000001
 70
     8
  0
VERTEX
  5
C10E
  8
PROF
 10
3.383378432024017
 20
11.779395955487979
 30
0.0000000000000001
 70
     8
  0
VERTEX
  5
C10F
  8
PROF
 10
3.36307458150287
 20
11.7151961379768
 30
0.0000000000000001
 70
     8
  0
VERTEX
  5
C110
  8
PROF
 10
3.342237788712735
 20
11.650266948405831
 30
0.0000000000000001
 70
     8
  0
VERTEX
  5
C111
  8
PROF
 10
3.3209694469149991
 20
11.58519298479461
 30
0.0000000000000001
 70
     8
  0
VERTEX
  5
C112
  8
PROF
 10
3.299370949370767
 20
11.52055884516254
 30
0.0000000000000001
 70
     8
  0
VERTEX
  5
C113
  8
PROF
 10
3.277543689341428
 20
11.456949127529461
 30
0.0000000000000001
 70
     8
  0
VERTEX
  5
C114
  8
PROF
 10
3.2555890600881399
 20
11.3949484299145
 30
0.0000000000000001
 70
     8
  0
VERTEX
  5
C115
  8
PROF
 10
3.2336084548721811
 20
11.335141350337491
 30
0.0000000000000001
 70
     8
  0
VERTEX
  5
C116
  8
PROF
 10
3.2116715641212181
 20
11.277995447977769
 30
0.0000000000000001
 70
     8
  0
VERTEX
  5
C117
  8
PROF
 10
3.1897212669278461
 20
11.22351012665467
 30
0.0000000000000001
 70
     8
  0
VERTEX
  5
C118
  8
PROF
 10
3.1676687395512881
 20
11.17156775134765
 30
0.0000000000000001
 70
     8
  0
VERTEX
  5
C119
  8
PROF
 10
3.1454251582505321
 20
11.12205068703588
 30
0.0000000000000001
 70
     8
  0
VERTEX
  5
C11A
  8
PROF
 10
3.122901699284625
 20
11.07484129869874
 30
0.0000000000000001
 70
     8
  0
VERTEX
  5
C11B
  8
PROF
 10
3.1000095389127278
 20
11.02982195131551
 30
0.0000000000000001
 70
     8
  0
VERTEX
  5
C11C
  8
PROF
 10
3.07665985339389
 20
10.986875009865679
 30
0.0000000000000001
 70
     8
  0
VERTEX
  5
C11D
  8
PROF
 10
3.0527638189871591
 20
10.9458828393283
 30
0.0000000000000001
 70
     8
  0
VERTEX
  5
C11E
  8
PROF
 10
3.0282326119516361
 20
10.90672780468298
 30
0.0000000000000001
 70
     8
  0
VERTEX
  5
C11F
  8
PROF
 10
3.0029774085463701
 20
10.869292270908771
 30
0.0000000000000001
 70
     8
  0
VERTEX
  5
C120
  8
PROF
 10
2.9769093850304089
 20
10.833458602985161
 30
0.0000000000000001
 70
     8
  0
VERTEX
  5
C121
  8
PROF
 10
2.9499397176628559
 20
10.799109165891419
 30
0.0000000000000001
 70
     8
  0
VERTEX
  5
C122
  8
PROF
 10
2.922000609840437
 20
10.76614363969508
 30
0.0000000000000001
 70
     8
  0
VERTEX
  5
C123
  8
PROF
 10
2.8931083735102998
 20
10.7345309648158
 30
0.0000000000000001
 70
     8
  0
VERTEX
  5
C124
  8
PROF
 10
2.8633003477572729
 20
10.70425739676193
 30
0.0000000000000001
 70
     8
  0
VERTEX
  5
C125
  8
PROF
 10
2.8326138716660689
 20
10.67530919104115
 30
0.0000000000000001
 70
     8
  0
VERTEX
  5
C126
  8
PROF
 10
2.801086284321626
 20
10.647672603161711
 30
0.0000000000000001
 70
     8
  0
VERTEX
  5
C127
  8
PROF
 10
2.7687549248087162
 20
10.62133388863162
 30
0.0000000000000001
 70
     8
  0
VERTEX
  5
C128
  8
PROF
 10
2.7356571322120531
 20
10.5962793029588
 30
0.0000000000000001
 70
     8
  0
VERTEX
  5
C129
  8
PROF
 10
2.7018302456165202
 20
10.572495101651381
 30
0.0000000000000001
 70
     8
  0
VERTEX
  5
C12A
  8
PROF
 10
2.6673116041068838
 20
10.54996754021726
 30
0.0000000000000001
 70
     8
  0
VERTEX
  5
C12B
  8
PROF
 10
2.6321385467680321
 20
10.528682874164581
 30
0.0000000000000001
 70
     8
  0
VERTEX
  5
C12C
  8
PROF
 10
2.5963484126846179
 20
10.508627359001251
 30
0.0000000000000001
 70
     8
  0
VERTEX
  5
C12D
  8
PROF
 10
2.5599785409415841
 20
10.489787250235279
 30
0.0000000000000001
 70
     8
  0
VERTEX
  5
C12E
  8
PROF
 10
2.522998630314361
 20
10.472162234281081
 30
0.0000000000000001
 70
     8
  0
VERTEX
  5
C12F
  8
PROF
 10
2.4851078183409072
 20
10.455805721177621
 30
0.0000000000000001
 70
     8
  0
VERTEX
  5
C130
  8
PROF
 10
2.4459376022498982
 20
10.44078455187036
 30
0.0000000000000001
 70
     8
  0
VERTEX
  5
C131
  8
PROF
 10
2.4051194792701249
 20
10.42716556730465
 30
0.0000000000000001
 70
     8
  0
VERTEX
  5
C132
  8
PROF
 10
2.3622849466301541
 20
10.415015608425851
 30
0.0000000000000001
 70
     8
  0
VERTEX
  5
C133
  8
PROF
 10
2.317065501558714
 20
10.40440151617929
 30
0.0000000000000001
 70
     8
  0
VERTEX
  5
C134
  8
PROF
 10
2.2690926412844301
 20
10.395390131510339
 30
0.0000000000000001
 70
     8
  0
VERTEX
  5
C135
  8
PROF
 10
2.2179978630360879
 20
10.388048295364451
 30
0.0000000000000001
 70
     8
  0
VERTEX
  5
C136
  8
PROF
 10
2.1634126640422551
 20
10.38244284868688
 30
0.0000000000000001
 70
     8
  0
VERTEX
  5
C137
  8
PROF
 10
2.1049685415316031
 20
10.37864063242295
 30
0.0000000000000001
 70
     8
  0
VERTEX
  5
C138
  8
PROF
 10
2.0422969927328709
 20
10.37670848751816
 30
0.0000000000000001
 70
     8
  0
VERTEX
  5
C139
  8
PROF
 10
1.9750295148747341
 20
10.37671325491794
 30
0.0000000000000001
 70
     8
  0
VERTEX
  5
C13A
  8
PROF
 10
4.2166060115107484
 20
12.80885334975255
 30
0.0000000000000001
 70
    16
  0
VERTEX
  5
C13B
  8
PROF
 10
3.8702254102732909
 20
12.707065515763929
 30
0.0000000000000001
 70
    16
  0
VERTEX
  5
C13C
  8
PROF
 10
3.605346156896871
 20
12.46277472098552
 30
0.0000000000000001
 70
    16
  0
VERTEX
  5
C13D
  8
PROF
 10
3.500746030527238
 20
12.170680575709749
 30
0.0000000000000001
 70
    16
  0
VERTEX
  5
C13E
  8
PROF
 10
3.231798439705698
 20
11.26846416496107
 30
0.0000000000000001
 70
    16
  0
VERTEX
  5
C13F
  8
PROF
 10
2.9737109398832882
 20
10.76631086647069
 30
0.0000000000000001
 70
    16
  0
VERTEX
  5
C140
  8
PROF
 10
2.5729961067384002
 20
10.460947364504699
 30
0.0000000000000001
 70
    16
  0
VERTEX
  5
C141
  8
PROF
 10
2.2537826214546031
 20
10.372731239449759
 30
0.0000000000000001
 70
    16
  0
VERTEX
  5
C142
  8
PROF
 10
1.9750295148747341
 20
10.37671325491794
 30
0.0000000000000001
 70
    16
  0
SEQEND
  5
C143
  8
PROF
  0
LINE
  5
C144
  8
PROF
 10
4.9012016798694162
 20
12.88585218805485
 30
0.0000000000000003
 11
4.519857503186925
 21
12.88585218805485
 31
0.0000000000000003
  0
LINE
  5
C145
  8
PROF
 10
0.7321315362267457
 20
8.2026312473991556
 30
0.0000000000000006
 11
0.7321315362267457
 21
8.0511853963434952
 31
0.0000000000000006
  0
ARC
  5
C146
  8
PROF
 10
0.7977322214551919
 20
7.577333933202679
 30
0.0000000000000006
 40
0.4783708383912013
 50
97.882010168942557
 51
186.31119505698641
  0
LINE
  5
C147
  8
FRAME_050
 10
7.8016377197432121
 20
17.99371054969447
 30
0.0
 11
7.8016377197432121
 21
0.0000000000002274
 31
0.0
  0
ENDBLK
  5
C149
  8
0
  0
BLOCK
  8
0
  2
*U7
 70
     1
 10
0.0
 20
0.0
 30
0.0
  3
*U7
  1

  0
TEXT
  5
C8C3
  8
0
 10
3.5177832928899071
 20
10.38601584255777
 30
0.0
 40
0.125
  1
Crown Moulding
  0
TEXT
  5
C8C4
  8
0
 10
3.5223876585106431
 20
10.17717091304435
 30
0.0
 40
0.125
  1
TL-AB509
  0
TEXT
  5
C8C5
  8
0
 10
3.5074661032582561
 20
9.9667059289606801
 30
0.0
 40
0.125
  1
1-5/16" x 7-9/16"
  0
TEXT
  5
C8C6
  8
0
 10
3.519403347460166
 20
9.7562409448770051
 30
0.0
 40
0.125
  1
800.66.TAGUE
  0
ENDBLK
  5
C8C8
  8
0
  0
BLOCK
  8
0
  2
*U8
 70
     1
 10
0.0
 20
0.0
 30
0.0
  3
*U8
  1

  0
TEXT
  5
C8CA
  8
0
 10
5.3066868277875692
 20
1.767659498411035
 30
0.0
 40
0.125
  1
Back Band
  0
TEXT
  5
C8CB
  8
0
 10
5.3153839628489603
 20
1.55881456889762
 30
0.0
 40
0.125
  1
TL-1
  0
TEXT
  5
C8CC
  8
0
 10
5.3004624075965721
 20
1.3483495848139451
 30
0.0
 40
0.125
  1
1-3/8" x 1-9/16"
  0
TEXT
  5
C8CD
  8
0
 10
5.3123996517984811
 20
1.1378846007302701
 30
0.0
 40
0.125
  1
800.66.TAGUE
  0
ENDBLK
  5
C8CF
  8
0
  0
BLOCK
  8
0
  2
*U9
 70
     1
 10
0.0
 20
0.0
 30
0.0
  3
*U9
  1

  0
TEXT
  5
C8D1
  8
0
 10
-385.7580743253551
 20
838.2627455404056
 30
0.0
 40
0.125
  1
Back Band
  0
TEXT
  5
C8D2
  8
0
 10
-385.74937719029373
 20
838.05390061089247
 30
0.0
 40
0.125
  1
TL-1
  0
TEXT
  5
C8D3
  8
0
 10
-385.76429874554611
 20
837.84343562680851
 30
0.0
 40
0.125
  1
1-3/8" x 1-9/16"
  0
TEXT
  5
C8D4
  8
0
 10
-385.75236150134418
 20
837.63297064272513
 30
0.0
 40
0.125
  1
800.66.TAGUE
  0
ENDBLK
  5
C8D6
  8
0
  0
BLOCK
  8
0
  2
A$C34D373A9
 70
     0
 10
0.0
 20
0.0
 30
0.0
  3
A$C34D373A9
  1

  0
INSERT
  5
D39C
  8
0
  2
*U65
 10
0.0
 20
0.0
 30
0.0
  0
LINE
  5
D39D
  8
0
 10
1.4999991446591701
 20
7.1602295468413777
 30
0.0
 11
1.4999991446591701
 21
6.7227295468413777
 31
0.0
  0
LINE
  5
D39E
  8
0
 10
-0.0000008553408293
 20
6.8789795468413777
 30
0.0
 11
-0.0000008553408293
 21
7.7539795468413777
 31
0.0
  0
LINE
  5
D39F
  8
0
 10
1.4999991446591701
 20
6.7227295468413777
 30
0.0
 11
3.5885796249544342
 21
6.7227295468413777
 31
0.0
  0
LINE
  5
D3A0
  8
0
 10
-0.0000008553408293
 20
6.8789795468413777
 30
0.0
 11
1.4999991446591701
 21
7.1602295468413777
 31
0.0
  0
LINE
  5
D3A1
  8
0
 10
-0.0000008553408293
 20
7.7539795468413777
 30
0.0
 11
3.8746939987630631
 21
7.7539795468413777
 31
0.0
  0
POLYLINE
  8
0
  5
E028
  66
     1
 10
0.000000
 20
0.000000
 30
0.000000
  70
     8
  0
VERTEX
  8
0
  5
E029
 10
3.87469
 20
7.75398
 30
0.000000
  70
    32
  0
VERTEX
  8
0
  5
E02A
 10
3.87928
 20
7.75298
 30
0.000000
  70
    32
  0
VERTEX
  8
0
  5
E02B
 10
3.88385
 20
7.75188
 30
0.000000
  70
    32
  0
VERTEX
  8
0
  5
E02C
 10
3.88839
 20
7.75068
 30
0.000000
  70
    32
  0
VERTEX
  8
0
  5
E02D
 10
3.89289
 20
7.74938
 30
0.000000
  70
    32
  0
VERTEX
  8
0
  5
E02E
 10
3.89738
 20
7.74799
 30
0.000000
  70
    32
  0
VERTEX
  8
0
  5
E02F
 10
3.90183
 20
7.74650
 30
0.000000
  70
    32
  0
VERTEX
  8
0
  5
E030
 10
3.90626
 20
7.74492
 30
0.000000
  70
    32
  0
VERTEX
  8
0
  5
E031
 10
3.91065
 20
7.74325
 30
0.000000
  70
    32
  0
VERTEX
  8
0
  5
E032
 10
3.91502
 20
7.74148
 30
0.000000
  70
    32
  0
VERTEX
  8
0
  5
E033
 10
3.91935
 20
7.73963
 30
0.000000
  70
    32
  0
VERTEX
  8
0
  5
E034
 10
3.92366
 20
7.73770
 30
0.000000
  70
    32
  0
VERTEX
  8
0
  5
E035
 10
3.92793
 20
7.73568
 30
0.000000
  70
    32
  0
VERTEX
  8
0
  5
E036
 10
3.93217
 20
7.73358
 30
0.000000
  70
    32
  0
VERTEX
  8
0
  5
E037
 10
3.93638
 20
7.73140
 30
0.000000
  70
    32
  0
VERTEX
  8
0
  5
E038
 10
3.94055
 20
7.72913
 30
0.000000
  70
    32
  0
VERTEX
  8
0
  5
E039
 10
3.94470
 20
7.72680
 30
0.000000
  70
    32
  0
VERTEX
  8
0
  5
E03A
 10
3.94880
 20
7.72438
 30
0.000000
  70
    32
  0
VERTEX
  8
0
  5
E03B
 10
3.95288
 20
7.72190
 30
0.000000
  70
    32
  0
VERTEX
  8
0
  5
E03C
 10
3.95692
 20
7.71934
 30
0.000000
  70
    32
  0
VERTEX
  8
0
  5
E03D
 10
3.96092
 20
7.71671
 30
0.000000
  70
    32
  0
VERTEX
  8
0
  5
E03E
 10
3.96489
 20
7.71402
 30
0.000000
  70
    32
  0
VERTEX
  8
0
  5
E03F
 10
3.96882
 20
7.71125
 30
0.000000
  70
    32
  0
VERTEX
  8
0
  5
E040
 10
3.97271
 20
7.70843
 30
0.000000
  70
    32
  0
VERTEX
  8
0
  5
E041
 10
3.97657
 20
7.70554
 30
0.000000
  70
    32
  0
VERTEX
  8
0
  5
E042
 10
3.98038
 20
7.70259
 30
0.000000
  70
    32
  0
VERTEX
  8
0
  5
E043
 10
3.98416
 20
7.69958
 30
0.000000
  70
    32
  0
VERTEX
  8
0
  5
E044
 10
3.98790
 20
7.69651
 30
0.000000
  70
    32
  0
VERTEX
  8
0
  5
E045
 10
3.99161
 20
7.69339
 30
0.000000
  70
    32
  0
VERTEX
  8
0
  5
E046
 10
3.99527
 20
7.69021
 30
0.000000
  70
    32
  0
VERTEX
  8
0
  5
E047
 10
3.99889
 20
7.68698
 30
0.000000
  70
    32
  0
VERTEX
  8
0
  5
E048
 10
4.00247
 20
7.68370
 30
0.000000
  70
    32
  0
VERTEX
  8
0
  5
E049
 10
4.00600
 20
7.68038
 30
0.000000
  70
    32
  0
VERTEX
  8
0
  5
E04A
 10
4.00950
 20
7.67700
 30
0.000000
  70
    32
  0
VERTEX
  8
0
  5
E04B
 10
4.01295
 20
7.67358
 30
0.000000
  70
    32
  0
VERTEX
  8
0
  5
E04C
 10
4.01636
 20
7.67012
 30
0.000000
  70
    32
  0
VERTEX
  8
0
  5
E04D
 10
4.01973
 20
7.66661
 30
0.000000
  70
    32
  0
VERTEX
  8
0
  5
E04E
 10
4.02305
 20
7.66307
 30
0.000000
  70
    32
  0
VERTEX
  8
0
  5
E04F
 10
4.02633
 20
7.65949
 30
0.000000
  70
    32
  0
VERTEX
  8
0
  5
E050
 10
4.02956
 20
7.65587
 30
0.000000
  70
    32
  0
VERTEX
  8
0
  5
E051
 10
4.03274
 20
7.65222
 30
0.000000
  70
    32
  0
VERTEX
  8
0
  5
E052
 10
4.03588
 20
7.64853
 30
0.000000
  70
    32
  0
VERTEX
  8
0
  5
E053
 10
4.03898
 20
7.64481
 30
0.000000
  70
    32
  0
VERTEX
  8
0
  5
E054
 10
4.04202
 20
7.64106
 30
0.000000
  70
    32
  0
VERTEX
  8
0
  5
E055
 10
4.04502
 20
7.63728
 30
0.000000
  70
    32
  0
VERTEX
  8
0
  5
E056
 10
4.04797
 20
7.63347
 30
0.000000
  70
    32
  0
VERTEX
  8
0
  5
E057
 10
4.05087
 20
7.62963
 30
0.000000
  70
    32
  0
VERTEX
  8
0
  5
E058
 10
4.05373
 20
7.62575
 30
0.000000
  70
    32
  0
VERTEX
  8
0
  5
E059
 10
4.05653
 20
7.62185
 30
0.000000
  70
    32
  0
VERTEX
  8
0
  5
E05A
 10
4.05928
 20
7.61792
 30
0.000000
  70
    32
  0
VERTEX
  8
0
  5
E05B
 10
4.06199
 20
7.61396
 30
0.000000
  70
    32
  0
VERTEX
  8
0
  5
E05C
 10
4.06464
 20
7.60997
 30
0.000000
  70
    32
  0
VERTEX
  8
0
  5
E05D
 10
4.06724
 20
7.60595
 30
0.000000
  70
    32
  0
VERTEX
  8
0
  5
E05E
 10
4.06979
 20
7.60190
 30
0.000000
  70
    32
  0
VERTEX
  8
0
  5
E05F
 10
4.07228
 20
7.59783
 30
0.000000
  70
    32
  0
VERTEX
  8
0
  5
E060
 10
4.07473
 20
7.59373
 30
0.000000
  70
    32
  0
VERTEX
  8
0
  5
E061
 10
4.07712
 20
7.58960
 30
0.000000
  70
    32
  0
VERTEX
  8
0
  5
E062
 10
4.07946
 20
7.58545
 30
0.000000
  70
    32
  0
VERTEX
  8
0
  5
E063
 10
4.08174
 20
7.58128
 30
0.000000
  70
    32
  0
VERTEX
  8
0
  5
E064
 10
4.08397
 20
7.57707
 30
0.000000
  70
    32
  0
VERTEX
  8
0
  5
E065
 10
4.08614
 20
7.57285
 30
0.000000
  70
    32
  0
VERTEX
  8
0
  5
E066
 10
4.08826
 20
7.56859
 30
0.000000
  70
    32
  0
VERTEX
  8
0
  5
E067
 10
4.09032
 20
7.56432
 30
0.000000
  70
    32
  0
VERTEX
  8
0
  5
E068
 10
4.09233
 20
7.56002
 30
0.000000
  70
    32
  0
VERTEX
  8
0
  5
E069
 10
4.09428
 20
7.55570
 30
0.000000
  70
    32
  0
VERTEX
  8
0
  5
E06A
 10
4.09617
 20
7.55135
 30
0.000000
  70
    32
  0
VERTEX
  8
0
  5
E06B
 10
4.09800
 20
7.54699
 30
0.000000
  70
    32
  0
VERTEX
  8
0
  5
E06C
 10
4.09978
 20
7.54260
 30
0.000000
  70
    32
  0
VERTEX
  8
0
  5
E06D
 10
4.10149
 20
7.53819
 30
0.000000
  70
    32
  0
VERTEX
  8
0
  5
E06E
 10
4.10315
 20
7.53376
 30
0.000000
  70
    32
  0
VERTEX
  8
0
  5
E06F
 10
4.10475
 20
7.52931
 30
0.000000
  70
    32
  0
VERTEX
  8
0
  5
E070
 10
4.10628
 20
7.52484
 30
0.000000
  70
    32
  0
VERTEX
  8
0
  5
E071
 10
4.10776
 20
7.52035
 30
0.000000
  70
    32
  0
VERTEX
  8
0
  5
E072
 10
4.10918
 20
7.51584
 30
0.000000
  70
    32
  0
VERTEX
  8
0
  5
E073
 10
4.11053
 20
7.51131
 30
0.000000
  70
    32
  0
VERTEX
  8
0
  5
E074
 10
4.11182
 20
7.50676
 30
0.000000
  70
    32
  0
VERTEX
  8
0
  5
E075
 10
4.11305
 20
7.50220
 30
0.000000
  70
    32
  0
VERTEX
  8
0
  5
E076
 10
4.11422
 20
7.49761
 30
0.000000
  70
    32
  0
VERTEX
  8
0
  5
E077
 10
4.11532
 20
7.49301
 30
0.000000
  70
    32
  0
VERTEX
  8
0
  5
E078
 10
4.11636
 20
7.48840
 30
0.000000
  70
    32
  0
VERTEX
  8
0
  5
E079
 10
4.11734
 20
7.48377
 30
0.000000
  70
    32
  0
VERTEX
  8
0
  5
E07A
 10
4.11825
 20
7.47912
 30
0.000000
  70
    32
  0
VERTEX
  8
0
  5
E07B
 10
4.11909
 20
7.47445
 30
0.000000
  70
    32
  0
VERTEX
  8
0
  5
E07C
 10
4.11987
 20
7.46977
 30
0.000000
  70
    32
  0
VERTEX
  8
0
  5
E07D
 10
4.12059
 20
7.46508
 30
0.000000
  70
    32
  0
VERTEX
  8
0
  5
E07E
 10
4.12123
 20
7.46037
 30
0.000000
  70
    32
  0
VERTEX
  8
0
  5
E07F
 10
4.12181
 20
7.45565
 30
0.000000
  70
    32
  0
VERTEX
  8
0
  5
E080
 10
4.12233
 20
7.45092
 30
0.000000
  70
    32
  0
VERTEX
  8
0
  5
E081
 10
4.12278
 20
7.44618
 30
0.000000
  70
    32
  0
VERTEX
  8
0
  5
E082
 10
4.12316
 20
7.44142
 30
0.000000
  70
    32
  0
VERTEX
  8
0
  5
E083
 10
4.12348
 20
7.43666
 30
0.000000
  70
    32
  0
VERTEX
  8
0
  5
E084
 10
4.12374
 20
7.43189
 30
0.000000
  70
    32
  0
VERTEX
  8
0
  5
E085
 10
4.12393
 20
7.42711
 30
0.000000
  70
    32
  0
VERTEX
  8
0
  5
E086
 10
4.12406
 20
7.42232
 30
0.000000
  70
    32
  0
VERTEX
  8
0
  5
E087
 10
4.12412
 20
7.41753
 30
0.000000
  70
    32
  0
VERTEX
  8
0
  5
E088
 10
4.12412
 20
7.41273
 30
0.000000
  70
    32
  0
VERTEX
  8
0
  5
E089
 10
4.12406
 20
7.40793
 30
0.000000
  70
    32
  0
VERTEX
  8
0
  5
E08A
 10
4.12394
 20
7.40313
 30
0.000000
  70
    32
  0
VERTEX
  8
0
  5
E08B
 10
4.12375
 20
7.39832
 30
0.000000
  70
    32
  0
VERTEX
  8
0
  5
E08C
 10
4.12350
 20
7.39352
 30
0.000000
  70
    32
  0
VERTEX
  8
0
  5
E08D
 10
4.12319
 20
7.38871
 30
0.000000
  70
    32
  0
VERTEX
  8
0
  5
E08E
 10
4.12282
 20
7.38390
 30
0.000000
  70
    32
  0
VERTEX
  8
0
  5
E08F
 10
4.12238
 20
7.37910
 30
0.000000
  70
    32
  0
VERTEX
  8
0
  5
E090
 10
4.12189
 20
7.37430
 30
0.000000
  70
    32
  0
VERTEX
  8
0
  5
E091
 10
4.12134
 20
7.36950
 30
0.000000
  70
    32
  0
VERTEX
  8
0
  5
E092
 10
4.12072
 20
7.36470
 30
0.000000
  70
    32
  0
VERTEX
  8
0
  5
E093
 10
4.12005
 20
7.35991
 30
0.000000
  70
    32
  0
VERTEX
  8
0
  5
E094
 10
4.11932
 20
7.35513
 30
0.000000
  70
    32
  0
VERTEX
  8
0
  5
E095
 10
4.11853
 20
7.35035
 30
0.000000
  70
    32
  0
VERTEX
  8
0
  5
E096
 10
4.11767
 20
7.34559
 30
0.000000
  70
    32
  0
VERTEX
  8
0
  5
E097
 10
4.11677
 20
7.34083
 30
0.000000
  70
    32
  0
VERTEX
  8
0
  5
E098
 10
4.11580
 20
7.33608
 30
0.000000
  70
    32
  0
VERTEX
  8
0
  5
E099
 10
4.11477
 20
7.33134
 30
0.000000
  70
    32
  0
VERTEX
  8
0
  5
E09A
 10
4.11369
 20
7.32661
 30
0.000000
  70
    32
  0
VERTEX
  8
0
  5
E09B
 10
4.11255
 20
7.32189
 30
0.000000
  70
    32
  0
VERTEX
  8
0
  5
E09C
 10
4.11136
 20
7.31719
 30
0.000000
  70
    32
  0
VERTEX
  8
0
  5
E09D
 10
4.11010
 20
7.31251
 30
0.000000
  70
    32
  0
VERTEX
  8
0
  5
E09E
 10
4.10879
 20
7.30783
 30
0.000000
  70
    32
  0
VERTEX
  8
0
  5
E09F
 10
4.10743
 20
7.30318
 30
0.000000
  70
    32
  0
VERTEX
  8
0
  5
E0A0
 10
4.10601
 20
7.29854
 30
0.000000
  70
    32
  0
VERTEX
  8
0
  5
E0A1
 10
4.10453
 20
7.29392
 30
0.000000
  70
    32
  0
VERTEX
  8
0
  5
E0A2
 10
4.10300
 20
7.28932
 30
0.000000
  70
    32
  0
VERTEX
  8
0
  5
E0A3
 10
4.10142
 20
7.28474
 30
0.000000
  70
    32
  0
VERTEX
  8
0
  5
E0A4
 10
4.09978
 20
7.28017
 30
0.000000
  70
    32
  0
VERTEX
  8
0
  5
E0A5
 10
4.09808
 20
7.27563
 30
0.000000
  70
    32
  0
VERTEX
  8
0
  5
E0A6
 10
4.09634
 20
7.27112
 30
0.000000
  70
    32
  0
VERTEX
  8
0
  5
E0A7
 10
4.09454
 20
7.26662
 30
0.000000
  70
    32
  0
VERTEX
  8
0
  5
E0A8
 10
4.09268
 20
7.26216
 30
0.000000
  70
    32
  0
VERTEX
  8
0
  5
E0A9
 10
4.09078
 20
7.25771
 30
0.000000
  70
    32
  0
VERTEX
  8
0
  5
E0AA
 10
4.08882
 20
7.25329
 30
0.000000
  70
    32
  0
VERTEX
  8
0
  5
E0AB
 10
4.08681
 20
7.24890
 30
0.000000
  70
    32
  0
VERTEX
  8
0
  5
E0AC
 10
4.08474
 20
7.24454
 30
0.000000
  70
    32
  0
VERTEX
  8
0
  5
E0AD
 10
4.08263
 20
7.24021
 30
0.000000
  70
    32
  0
VERTEX
  8
0
  5
E0AE
 10
4.08047
 20
7.23591
 30
0.000000
  70
    32
  0
VERTEX
  8
0
  5
E0AF
 10
4.07825
 20
7.23163
 30
0.000000
  70
    32
  0
VERTEX
  8
0
  5
E0B0
 10
4.07598
 20
7.22739
 30
0.000000
  70
    32
  0
VERTEX
  8
0
  5
E0B1
 10
4.07367
 20
7.22318
 30
0.000000
  70
    32
  0
VERTEX
  8
0
  5
E0B2
 10
4.07130
 20
7.21901
 30
0.000000
  70
    32
  0
VERTEX
  8
0
  5
E0B3
 10
4.06889
 20
7.21487
 30
0.000000
  70
    32
  0
VERTEX
  8
0
  5
E0B4
 10
4.06642
 20
7.21076
 30
0.000000
  70
    32
  0
VERTEX
  8
0
  5
E0B5
 10
4.06391
 20
7.20670
 30
0.000000
  70
    32
  0
VERTEX
  8
0
  5
E0B6
 10
4.06135
 20
7.20266
 30
0.000000
  70
    32
  0
VERTEX
  8
0
  5
E0B7
 10
4.05874
 20
7.19867
 30
0.000000
  70
    32
  0
VERTEX
  8
0
  5
E0B8
 10
4.05608
 20
7.19472
 30
0.000000
  70
    32
  0
VERTEX
  8
0
  5
E0B9
 10
4.05337
 20
7.19080
 30
0.000000
  70
    32
  0
VERTEX
  8
0
  5
E0BA
 10
4.05062
 20
7.18693
 30
0.000000
  70
    32
  0
VERTEX
  8
0
  5
E0BB
 10
4.04782
 20
7.18310
 30
0.000000
  70
    32
  0
VERTEX
  8
0
  5
E0BC
 10
4.04497
 20
7.17931
 30
0.000000
  70
    32
  0
VERTEX
  8
0
  5
E0BD
 10
4.04208
 20
7.17556
 30
0.000000
  70
    32
  0
VERTEX
  8
0
  5
E0BE
 10
4.03914
 20
7.17185
 30
0.000000
  70
    32
  0
VERTEX
  8
0
  5
E0BF
 10
4.03616
 20
7.16818
 30
0.000000
  70
    32
  0
VERTEX
  8
0
  5
E0C0
 10
4.03314
 20
7.16455
 30
0.000000
  70
    32
  0
VERTEX
  8
0
  5
E0C1
 10
4.03008
 20
7.16096
 30
0.000000
  70
    32
  0
VERTEX
  8
0
  5
E0C2
 10
4.02697
 20
7.15741
 30
0.000000
  70
    32
  0
VERTEX
  8
0
  5
E0C3
 10
4.02382
 20
7.15390
 30
0.000000
  70
    32
  0
VERTEX
  8
0
  5
E0C4
 10
4.02063
 20
7.15043
 30
0.000000
  70
    32
  0
VERTEX
  8
0
  5
E0C5
 10
4.01741
 20
7.14699
 30
0.000000
  70
    32
  0
VERTEX
  8
0
  5
E0C6
 10
4.01414
 20
7.14359
 30
0.000000
  70
    32
  0
VERTEX
  8
0
  5
E0C7
 10
4.01084
 20
7.14022
 30
0.000000
  70
    32
  0
VERTEX
  8
0
  5
E0C8
 10
4.00750
 20
7.13690
 30
0.000000
  70
    32
  0
VERTEX
  8
0
  5
E0C9
 10
4.00413
 20
7.13360
 30
0.000000
  70
    32
  0
VERTEX
  8
0
  5
E0CA
 10
4.00072
 20
7.13035
 30
0.000000
  70
    32
  0
VERTEX
  8
0
  5
E0CB
 10
3.99728
 20
7.12712
 30
0.000000
  70
    32
  0
VERTEX
  8
0
  5
E0CC
 10
3.99380
 20
7.12394
 30
0.000000
  70
    32
  0
VERTEX
  8
0
  5
E0CD
 10
3.99029
 20
7.12078
 30
0.000000
  70
    32
  0
VERTEX
  8
0
  5
E0CE
 10
3.98675
 20
7.11766
 30
0.000000
  70
    32
  0
VERTEX
  8
0
  5
E0CF
 10
3.98318
 20
7.11457
 30
0.000000
  70
    32
  0
VERTEX
  8
0
  5
E0D0
 10
3.97957
 20
7.11152
 30
0.000000
  70
    32
  0
VERTEX
  8
0
  5
E0D1
 10
3.97594
 20
7.10849
 30
0.000000
  70
    32
  0
VERTEX
  8
0
  5
E0D2
 10
3.97228
 20
7.10550
 30
0.000000
  70
    32
  0
VERTEX
  8
0
  5
E0D3
 10
3.96859
 20
7.10254
 30
0.000000
  70
    32
  0
VERTEX
  8
0
  5
E0D4
 10
3.96488
 20
7.09961
 30
0.000000
  70
    32
  0
VERTEX
  8
0
  5
E0D5
 10
3.96114
 20
7.09670
 30
0.000000
  70
    32
  0
VERTEX
  8
0
  5
E0D6
 10
3.95737
 20
7.09383
 30
0.000000
  70
    32
  0
VERTEX
  8
0
  5
E0D7
 10
3.95358
 20
7.09099
 30
0.000000
  70
    32
  0
VERTEX
  8
0
  5
E0D8
 10
3.94976
 20
7.08818
 30
0.000000
  70
    32
  0
VERTEX
  8
0
  5
E0D9
 10
3.94592
 20
7.08539
 30
0.000000
  70
    32
  0
VERTEX
  8
0
  5
E0DA
 10
3.94206
 20
7.08263
 30
0.000000
  70
    32
  0
VERTEX
  8
0
  5
E0DB
 10
3.93818
 20
7.07990
 30
0.000000
  70
    32
  0
VERTEX
  8
0
  5
E0DC
 10
3.93428
 20
7.07720
 30
0.000000
  70
    32
  0
VERTEX
  8
0
  5
E0DD
 10
3.93036
 20
7.07452
 30
0.000000
  70
    32
  0
VERTEX
  8
0
  5
E0DE
 10
3.92641
 20
7.07187
 30
0.000000
  70
    32
  0
VERTEX
  8
0
  5
E0DF
 10
3.92245
 20
7.06924
 30
0.000000
  70
    32
  0
VERTEX
  8
0
  5
E0E0
 10
3.91848
 20
7.06664
 30
0.000000
  70
    32
  0
VERTEX
  8
0
  5
E0E1
 10
3.91448
 20
7.06406
 30
0.000000
  70
    32
  0
VERTEX
  8
0
  5
E0E2
 10
3.91047
 20
7.06151
 30
0.000000
  70
    32
  0
VERTEX
  8
0
  5
E0E3
 10
3.90645
 20
7.05898
 30
0.000000
  70
    32
  0
VERTEX
  8
0
  5
E0E4
 10
3.90241
 20
7.05647
 30
0.000000
  70
    32
  0
VERTEX
  8
0
  5
E0E5
 10
3.89836
 20
7.05399
 30
0.000000
  70
    32
  0
VERTEX
  8
0
  5
E0E6
 10
3.89430
 20
7.05153
 30
0.000000
  70
    32
  0
VERTEX
  8
0
  5
E0E7
 10
3.89022
 20
7.04909
 30
0.000000
  70
    32
  0
VERTEX
  8
0
  5
E0E8
 10
3.88613
 20
7.04667
 30
0.000000
  70
    32
  0
VERTEX
  8
0
  5
E0E9
 10
3.88203
 20
7.04427
 30
0.000000
  70
    32
  0
VERTEX
  8
0
  5
E0EA
 10
3.87793
 20
7.04190
 30
0.000000
  70
    32
  0
VERTEX
  8
0
  5
E0EB
 10
3.87381
 20
7.03954
 30
0.000000
  70
    32
  0
VERTEX
  8
0
  5
E0EC
 10
3.86969
 20
7.03719
 30
0.000000
  70
    32
  0
VERTEX
  8
0
  5
E0ED
 10
3.86557
 20
7.03486
 30
0.000000
  70
    32
  0
VERTEX
  8
0
  5
E0EE
 10
3.86143
 20
7.03254
 30
0.000000
  70
    32
  0
VERTEX
  8
0
  5
E0EF
 10
3.85730
 20
7.03023
 30
0.000000
  70
    32
  0
VERTEX
  8
0
  5
E0F0
 10
3.85316
 20
7.02793
 30
0.000000
  70
    32
  0
VERTEX
  8
0
  5
E0F1
 10
3.84903
 20
7.02563
 30
0.000000
  70
    32
  0
VERTEX
  8
0
  5
E0F2
 10
3.84489
 20
7.02334
 30
0.000000
  70
    32
  0
VERTEX
  8
0
  5
E0F3
 10
3.84075
 20
7.02105
 30
0.000000
  70
    32
  0
VERTEX
  8
0
  5
E0F4
 10
3.83662
 20
7.01876
 30
0.000000
  70
    32
  0
VERTEX
  8
0
  5
E0F5
 10
3.83249
 20
7.01647
 30
0.000000
  70
    32
  0
VERTEX
  8
0
  5
E0F6
 10
3.82837
 20
7.01418
 30
0.000000
  70
    32
  0
VERTEX
  8
0
  5
E0F7
 10
3.82425
 20
7.01188
 30
0.000000
  70
    32
  0
VERTEX
  8
0
  5
E0F8
 10
3.82014
 20
7.00957
 30
0.000000
  70
    32
  0
VERTEX
  8
0
  5
E0F9
 10
3.81604
 20
7.00726
 30
0.000000
  70
    32
  0
VERTEX
  8
0
  5
E0FA
 10
3.81194
 20
7.00493
 30
0.000000
  70
    32
  0
VERTEX
  8
0
  5
E0FB
 10
3.80786
 20
7.00260
 30
0.000000
  70
    32
  0
VERTEX
  8
0
  5
E0FC
 10
3.80379
 20
7.00024
 30
0.000000
  70
    32
  0
VERTEX
  8
0
  5
E0FD
 10
3.79973
 20
6.99788
 30
0.000000
  70
    32
  0
VERTEX
  8
0
  5
E0FE
 10
3.79569
 20
6.99549
 30
0.000000
  70
    32
  0
VERTEX
  8
0
  5
E0FF
 10
3.79166
 20
6.99308
 30
0.000000
  70
    32
  0
VERTEX
  8
0
  5
E100
 10
3.78765
 20
6.99065
 30
0.000000
  70
    32
  0
VERTEX
  8
0
  5
E101
 10
3.78366
 20
6.98820
 30
0.000000
  70
    32
  0
VERTEX
  8
0
  5
E102
 10
3.77968
 20
6.98572
 30
0.000000
  70
    32
  0
VERTEX
  8
0
  5
E103
 10
3.77573
 20
6.98321
 30
0.000000
  70
    32
  0
VERTEX
  8
0
  5
E104
 10
3.77180
 20
6.98068
 30
0.000000
  70
    32
  0
VERTEX
  8
0
  5
E105
 10
3.76789
 20
6.97811
 30
0.000000
  70
    32
  0
VERTEX
  8
0
  5
E106
 10
3.76400
 20
6.97551
 30
0.000000
  70
    32
  0
VERTEX
  8
0
  5
E107
 10
3.76014
 20
6.97287
 30
0.000000
  70
    32
  0
VERTEX
  8
0
  5
E108
 10
3.75630
 20
6.97020
 30
0.000000
  70
    32
  0
VERTEX
  8
0
  5
E109
 10
3.75249
 20
6.96749
 30
0.000000
  70
    32
  0
VERTEX
  8
0
  5
E10A
 10
3.74871
 20
6.96473
 30
0.000000
  70
    32
  0
VERTEX
  8
0
  5
E10B
 10
3.74496
 20
6.96194
 30
0.000000
  70
    32
  0
VERTEX
  8
0
  5
E10C
 10
3.74124
 20
6.95910
 30
0.000000
  70
    32
  0
VERTEX
  8
0
  5
E10D
 10
3.73756
 20
6.95621
 30
0.000000
  70
    32
  0
VERTEX
  8
0
  5
E10E
 10
3.73390
 20
6.95327
 30
0.000000
  70
    32
  0
VERTEX
  8
0
  5
E10F
 10
3.73028
 20
6.95029
 30
0.000000
  70
    32
  0
VERTEX
  8
0
  5
E110
 10
3.72669
 20
6.94725
 30
0.000000
  70
    32
  0
VERTEX
  8
0
  5
E111
 10
3.72314
 20
6.94417
 30
0.000000
  70
    32
  0
VERTEX
  8
0
  5
E112
 10
3.71962
 20
6.94104
 30
0.000000
  70
    32
  0
VERTEX
  8
0
  5
E113
 10
3.71614
 20
6.93786
 30
0.000000
  70
    32
  0
VERTEX
  8
0
  5
E114
 10
3.71269
 20
6.93463
 30
0.000000
  70
    32
  0
VERTEX
  8
0
  5
E115
 10
3.70928
 20
6.93136
 30
0.000000
  70
    32
  0
VERTEX
  8
0
  5
E116
 10
3.70591
 20
6.92804
 30
0.000000
  70
    32
  0
VERTEX
  8
0
  5
E117
 10
3.70257
 20
6.92468
 30
0.000000
  70
    32
  0
VERTEX
  8
0
  5
E118
 10
3.69927
 20
6.92128
 30
0.000000
  70
    32
  0
VERTEX
  8
0
  5
E119
 10
3.69601
 20
6.91783
 30
0.000000
  70
    32
  0
VERTEX
  8
0
  5
E11A
 10
3.69278
 20
6.91434
 30
0.000000
  70
    32
  0
VERTEX
  8
0
  5
E11B
 10
3.68959
 20
6.91081
 30
0.000000
  70
    32
  0
VERTEX
  8
0
  5
E11C
 10
3.68644
 20
6.90724
 30
0.000000
  70
    32
  0
VERTEX
  8
0
  5
E11D
 10
3.68332
 20
6.90363
 30
0.000000
  70
    32
  0
VERTEX
  8
0
  5
E11E
 10
3.68024
 20
6.89998
 30
0.000000
  70
    32
  0
VERTEX
  8
0
  5
E11F
 10
3.67720
 20
6.89629
 30
0.000000
  70
    32
  0
VERTEX
  8
0
  5
E120
 10
3.67420
 20
6.89257
 30
0.000000
  70
    32
  0
VERTEX
  8
0
  5
E121
 10
3.67124
 20
6.88881
 30
0.000000
  70
    32
  0
VERTEX
  8
0
  5
E122
 10
3.66832
 20
6.88502
 30
0.000000
  70
    32
  0
VERTEX
  8
0
  5
E123
 10
3.66544
 20
6.88119
 30
0.000000
  70
    32
  0
VERTEX
  8
0
  5
E124
 10
3.66259
 20
6.87733
 30
0.000000
  70
    32
  0
VERTEX
  8
0
  5
E125
 10
3.65979
 20
6.87343
 30
0.000000
  70
    32
  0
VERTEX
  8
0
  5
E126
 10
3.65702
 20
6.86950
 30
0.000000
  70
    32
  0
VERTEX
  8
0
  5
E127
 10
3.65430
 20
6.86555
 30
0.000000
  70
    32
  0
VERTEX
  8
0
  5
E128
 10
3.65162
 20
6.86156
 30
0.000000
  70
    32
  0
VERTEX
  8
0
  5
E129
 10
3.64897
 20
6.85754
 30
0.000000
  70
    32
  0
VERTEX
  8
0
  5
E12A
 10
3.64637
 20
6.85349
 30
0.000000
  70
    32
  0
VERTEX
  8
0
  5
E12B
 10
3.64381
 20
6.84942
 30
0.000000
  70
    32
  0
VERTEX
  8
0
  5
E12C
 10
3.64129
 20
6.84531
 30
0.000000
  70
    32
  0
VERTEX
  8
0
  5
E12D
 10
3.63881
 20
6.84119
 30
0.000000
  70
    32
  0
VERTEX
  8
0
  5
E12E
 10
3.63638
 20
6.83703
 30
0.000000
  70
    32
  0
VERTEX
  8
0
  5
E12F
 10
3.63399
 20
6.83285
 30
0.000000
  70
    32
  0
VERTEX
  8
0
  5
E130
 10
3.63163
 20
6.82865
 30
0.000000
  70
    32
  0
VERTEX
  8
0
  5
E131
 10
3.62933
 20
6.82442
 30
0.000000
  70
    32
  0
VERTEX
  8
0
  5
E132
 10
3.62706
 20
6.82018
 30
0.000000
  70
    32
  0
VERTEX
  8
0
  5
E133
 10
3.62484
 20
6.81591
 30
0.000000
  70
    32
  0
VERTEX
  8
0
  5
E134
 10
3.62266
 20
6.81162
 30
0.000000
  70
    32
  0
VERTEX
  8
0
  5
E135
 10
3.62052
 20
6.80731
 30
0.000000
  70
    32
  0
VERTEX
  8
0
  5
E136
 10
3.61843
 20
6.80298
 30
0.000000
  70
    32
  0
VERTEX
  8
0
  5
E137
 10
3.61639
 20
6.79863
 30
0.000000
  70
    32
  0
VERTEX
  8
0
  5
E138
 10
3.61438
 20
6.79427
 30
0.000000
  70
    32
  0
VERTEX
  8
0
  5
E139
 10
3.61243
 20
6.78989
 30
0.000000
  70
    32
  0
VERTEX
  8
0
  5
E13A
 10
3.61051
 20
6.78549
 30
0.000000
  70
    32
  0
VERTEX
  8
0
  5
E13B
 10
3.60864
 20
6.78108
 30
0.000000
  70
    32
  0
VERTEX
  8
0
  5
E13C
 10
3.60682
 20
6.77665
 30
0.000000
  70
    32
  0
VERTEX
  8
0
  5
E13D
 10
3.60504
 20
6.77221
 30
0.000000
  70
    32
  0
VERTEX
  8
0
  5
E13E
 10
3.60331
 20
6.76776
 30
0.000000
  70
    32
  0
VERTEX
  8
0
  5
E13F
 10
3.60163
 20
6.76330
 30
0.000000
  70
    32
  0
VERTEX
  8
0
  5
E140
 10
3.59999
 20
6.75882
 30
0.000000
  70
    32
  0
VERTEX
  8
0
  5
E141
 10
3.59840
 20
6.75434
 30
0.000000
  70
    32
  0
VERTEX
  8
0
  5
E142
 10
3.59685
 20
6.74984
 30
0.000000
  70
    32
  0
VERTEX
  8
0
  5
E143
 10
3.59535
 20
6.74534
 30
0.000000
  70
    32
  0
VERTEX
  8
0
  5
E144
 10
3.59390
 20
6.74083
 30
0.000000
  70
    32
  0
VERTEX
  8
0
  5
E145
 10
3.59250
 20
6.73631
 30
0.000000
  70
    32
  0
VERTEX
  8
0
  5
E146
 10
3.59115
 20
6.73179
 30
0.000000
  70
    32
  0
VERTEX
  8
0
  5
E147
 10
3.58984
 20
6.72726
 30
0.000000
  70
    32
  0
VERTEX
  8
0
  5
E148
 10
3.58858
 20
6.72273
 30
0.000000
  70
    32
  0
SEQEND
  8
0
  5
E149
  0
LINE
  5
D3A3
  8
FRAME_0500
 10
7.0314568728199438
 20
12.260003544241041
 30
0.0
 11
7.0314568728199438
 21
0.000000749505034
 31
0.0
  0
ENDBLK
  5
D3A5
  8
0
  0
BLOCK
  8
0
  2
*U40
 70
     1
 10
0.0
 20
0.0
 30
0.0
  3
*U40
  1

  0
TEXT
  5
DE91
  8
0
 10
1.801309719190612
 20
0.7422271098238867
 30
0.0
 40
0.125
  1
Solid Crown
  0
TEXT
  5
DE92
  8
0
 10
1.801309719190612
 20
0.5338937764905534
 30
0.0
 40
0.125
  1
TL-2182
  0
TEXT
  5
DE93
  8
0
 10
1.801309719190612
 20
0.32556044315722
 30
0.0
 40
0.125
  1
1-1/32" x 1-5/16"
  0
TEXT
  5
DE94
  8
0
 10
1.801309719190612
 20
0.1172271098238866
 30
0.0
 40
0.125
  1
800.66.TAGUE
  0
ENDBLK
  5
DE96
  8
0
  0
BLOCK
  8
0
  2
*U41
 70
     1
 10
0.0
 20
0.0
 30
0.0
  3
*U41
  1

  0
TEXT
  5
DE98
  8
0
 10
1.625113436446326
 20
0.9370028111704301
 30
0.0
 40
0.125
  1
Solid Crown
  0
TEXT
  5
DE99
  8
0
 10
1.625113436446326
 20
0.7286694778370969
 30
0.0
 40
0.125
  1
TL-2157
  0
TEXT
  5
DE9A
  8
0
 10
1.625113436446326
 20
0.5203361445037635
 30
0.0
 40
0.125
  1
1-9/32" x 2"
  0
TEXT
  5
DE9B
  8
0
 10
1.625113436446326
 20
0.31200281117043
 30
0.0
 40
0.125
  1
800.66.TAGUE
  0
ENDBLK
  5
DE9D
  8
0
  0
BLOCK
  8
0
  2
*U42
 70
     1
 10
0.0
 20
0.0
 30
0.0
  3
*U42
  1

  0
TEXT
  5
DE9F
  8
0
 10
1.920486779030625
 20
0.9014428381942138
 30
0.0
 40
0.125
  1
Solid Crown
  0
TEXT
  5
DEA0
  8
0
 10
1.920486779030625
 20
0.6931095048608807
 30
0.0
 40
0.125
  1
TL-2188
  0
TEXT
  5
DEA1
  8
0
 10
1.920486779030625
 20
0.4847761715275473
 30
0.0
 40
0.125
  1
1-5/8" x 2"
  0
TEXT
  5
DEA2
  8
0
 10
1.920486779030625
 20
0.2764428381942139
 30
0.0
 40
0.125
  1
800.66.TAGUE
  0
ENDBLK
  5
DEA4
  8
0
  0
BLOCK
  8
0
  2
*U43
 70
     1
 10
0.0
 20
0.0
 30
0.0
  3
*U43
  1

  0
TEXT
  5
DEA6
  8
0
 10
1.746815334566576
 20
0.7356822575717957
 30
0.0
 40
0.125
  1
Solid Crown
  0
TEXT
  5
DEA7
  8
0
 10
1.746815334566576
 20
0.5273489242384624
 30
0.0
 40
0.125
  1
TL-2235
  0
TEXT
  5
DEA8
  8
0
 10
1.746815334566576
 20
0.319015590905129
 30
0.0
 40
0.125
  1
11/16" x 15/16"
  0
TEXT
  5
DEA9
  8
0
 10
1.746815334566576
 20
0.1106822575717956
 30
0.0
 40
0.125
  1
800.66.TAGUE
  0
ENDBLK
  5
DEAB
  8
0
  0
BLOCK
  8
0
  2
*U44
 70
     1
 10
0.0
 20
0.0
 30
0.0
  3
*U44
  1

  0
TEXT
  5
DEAD
  8
0
 10
2.0509945988744671
 20
1.365453408895575
 30
0.0
 40
0.125
  1
Solid Crown
  0
TEXT
  5
DEAE
  8
0
 10
2.0509945988744671
 20
1.1571200755622419
 30
0.0
 40
0.125
  1
TL-339
  0
TEXT
  5
DEAF
  8
0
 10
2.0509945988744671
 20
0.948786742228909
 30
0.0
 40
0.125
  1
1-5/8" x 2-5/8"
  0
TEXT
  5
DEB0
  8
0
 10
2.0509945988744671
 20
0.7404534088955757
 30
0.0
 40
0.125
  1
800.66.TAGUE
  0
ENDBLK
  5
DEB2
  8
0
  0
BLOCK
  8
0
  2
*U45
 70
     1
 10
0.0
 20
0.0
 30
0.0
  3
*U45
  1

  0
TEXT
  5
DEB4
  8
0
 10
2.0562685683860868
 20
1.1925432374321749
 30
0.0
 40
0.125
  1
Solid Crown
  0
TEXT
  5
DEB5
  8
0
 10
2.0562685683860868
 20
0.9842099040988426
 30
0.0
 40
0.125
  1
TL-2249
  0
TEXT
  5
DEB6
  8
0
 10
2.0562685683860868
 20
0.7758765707655093
 30
0.0
 40
0.125
  1
1-1/8" x 1-7/8"
  0
TEXT
  5
DEB7
  8
0
 10
2.0562685683860868
 20
0.5675432374321759
 30
0.0
 40
0.125
  1
800.66.TAGUE
  0
ENDBLK
  5
DEB9
  8
0
  0
BLOCK
  8
0
  2
*U46
 70
     1
 10
0.0
 20
0.0
 30
0.0
  3
*U46
  1

  0
TEXT
  5
DEBB
  8
0
 10
1.34401033534931
 20
0.6780822238238784
 30
0.0
 40
0.125
  1
Solid Crown
  0
TEXT
  5
DEBC
  8
0
 10
1.34401033534931
 20
0.4697488904905451
 30
0.0
 40
0.125
  1
TL-2258
  0
TEXT
  5
DEBD
  8
0
 10
1.34401033534931
 20
0.2614155571572118
 30
0.0
 40
0.125
  1
5/8" x 3/4"
  0
TEXT
  5
DEBE
  8
0
 10
1.34401033534931
 20
0.0530822238238784
 30
0.0
 40
0.125
  1
800.66.TAGUE
  0
ENDBLK
  5
DEC0
  8
0
  0
BLOCK
  8
0
  2
*U47
 70
     1
 10
0.0
 20
0.0
 30
0.0
  3
*U47
  1

  0
TEXT
  5
DEC2
  8
0
 10
2.0597898518844882
 20
1.5819740602258321
 30
0.0
 40
0.125
  1
Solid Crown 
  0
TEXT
  5
DEC3
  8
0
 10
2.0597898518844882
 20
1.3736407268924979
 30
0.0
 40
0.125
  1
TL-2279
  0
TEXT
  5
DEC4
  8
0
 10
2.0597898518844882
 20
1.1653073935591649
 30
0.0
 40
0.125
  1
1-3/4"  x 2-3/4"
  0
TEXT
  5
DEC5
  8
0
 10
2.0597898518844882
 20
0.956974060225832
 30
0.0
 40
0.125
  1
800.66.TAGUE
  0
ENDBLK
  5
DEC7
  8
0
  0
BLOCK
  8
0
  2
*U48
 70
     1
 10
0.0
 20
0.0
 30
0.0
  3
*U48
  1

  0
TEXT
  5
DEC9
  8
0
 10
0.5926592555372281
 20
0.6780822487964429
 30
0.0
 40
0.125
  1
Solid Crown
  0
TEXT
  5
DECA
  8
0
 10
0.5926592555372281
 20
0.4697489154631096
 30
0.0
 40
0.125
  1
TL-2321
  0
TEXT
  5
DECB
  8
0
 10
0.5926592555372281
 20
0.2614155821297762
 30
0.0
 40
0.125
  1
1-7/8" x 2-1/4"
  0
TEXT
  5
DECC
  8
0
 10
0.5926592555372281
 20
0.0530822487964429
 30
0.0
 40
0.125
  1
800.66.TAGUE
  0
ENDBLK
  5
DECE
  8
0
  0
BLOCK
  8
0
  2
*U49
 70
     1
 10
0.0
 20
0.0
 30
0.0
  3
*U49
  1

  0
TEXT
  5
DED0
  8
0
 10
0.054571907909974
 20
0.6780827931436875
 30
0.0
 40
0.125
  1
Solid Crown
  0
TEXT
  5
DED1
  8
0
 10
0.054571907909974
 20
0.4697494598103542
 30
0.0
 40
0.125
  1
TL-2322
  0
TEXT
  5
DED2
  8
0
 10
0.054571907909974
 20
0.2614161264770209
 30
0.0
 40
0.125
  1
1-1/4" x 2"
  0
TEXT
  5
DED3
  8
0
 10
0.054571907909974
 20
0.0530827931436875
 30
0.0
 40
0.125
  1
800.66.TAGUE
  0
ENDBLK
  5
DED5
  8
0
  0
BLOCK
  8
0
  2
*U50
 70
     1
 10
0.0
 20
0.0
 30
0.0
  3
*U50
  1

  0
TEXT
  5
DED7
  8
0
 10
2.812997521113572
 20
1.5103095468846841
 30
0.0
 40
0.125
  1
Solid Crown
  0
TEXT
  5
DED8
  8
0
 10
2.812997521113572
 20
1.3019762135513511
 30
0.0
 40
0.125
  1
TL-2325
  0
TEXT
  5
DED9
  8
0
 10
2.812997521113572
 20
1.093642880218018
 30
0.0
 40
0.125
  1
1-3/4" x 2-7/8"
  0
TEXT
  5
DEDA
  8
0
 10
2.812997521113572
 20
0.8853095468846846
 30
0.0
 40
0.125
  1
800.66.TAGUE
  0
ENDBLK
  5
DEDC
  8
0
  0
BLOCK
  8
0
  2
*U51
 70
     1
 10
0.0
 20
0.0
 30
0.0
  3
*U51
  1

  0
INSERT
  5
DEDE
  8
0
  6
CONTINUOUS
  2
_OPEN30
 10
4.25007583112773
 20
4.0458778811966161
 30
0.0
 41
0.046875
 42
0.046875
 43
0.046875
 50
206.86004097467
  0
POLYLINE
  5
DEDF
  8
0
  6
CONTINUOUS
 66
     1
 10
0.0
 20
0.0
 30
0.0
  0
VERTEX
  5
DEE0
  8
0
  6
CONTINUOUS
 10
4.2918936208850731
 20
4.0670565989295362
 30
0.0
  0
VERTEX
  5
DEE1
  8
0
  6
CONTINUOUS
 10
4.7925223938993318
 20
4.3206012155668807
 30
0.0
  0
VERTEX
  5
DEE2
  8
0
  6
CONTINUOUS
 10
4.8767298800405001
 20
4.3228722330817666
 30
0.0
  0
SEQEND
  5
DEE3
  8
0
  6
CONTINUOUS
  0
ENDBLK
  5
DEE5
  8
0
  0
BLOCK
  8
0
  2
*U52
 70
     1
 10
0.0
 20
0.0
 30
0.0
  3
*U52
  1

  0
TEXT
  5
DEE7
  8
0
 10
4.9392298800405001
 20
4.2603722330817666
 30
0.0
 40
0.125
  1
TL-1169
  0
ENDBLK
  5
DEE9
  8
0
  0
BLOCK
  8
0
  2
*U53
 70
     1
 10
0.0
 20
0.0
 30
0.0
  3
*U53
  1

  0
INSERT
  5
DEEB
  8
0
  6
CONTINUOUS
  2
_OPEN30
 10
3.015727299021818
 20
3.1861523687388451
 30
0.0
 41
0.046875
 42
0.046875
 43
0.046875
 50
136.65142556006271
  0
POLYLINE
  5
DEEC
  8
0
  6
CONTINUOUS
 66
     1
 10
0.0
 20
0.0
 30
0.0
  0
VERTEX
  5
DEED
  8
0
  6
CONTINUOUS
 10
3.0498143804479341
 20
3.1539757234064099
 30
0.0
  0
VERTEX
  5
DEEE
  8
0
  6
CONTINUOUS
 10
3.5070580539338598
 20
2.722358615202352
 30
0.0
  0
VERTEX
  5
DEEF
  8
0
  6
CONTINUOUS
 10
3.6019889170380561
 20
2.722358615202352
 30
0.0
  0
SEQEND
  5
DEF0
  8
0
  6
CONTINUOUS
  0
ENDBLK
  5
DEF2
  8
0
  0
BLOCK
  8
0
  2
*U54
 70
     1
 10
0.0
 20
0.0
 30
0.0
  3
*U54
  1

  0
TEXT
  5
DEF4
  8
0
 10
3.6644889170380561
 20
2.659858615202352
 30
0.0
 40
0.125
  1
TL-100
  0
ENDBLK
  5
DEF6
  8
0
  0
BLOCK
  8
0
  2
*U55
 70
     1
 10
0.0
 20
0.0
 30
0.0
  3
*U55
  1

  0
INSERT
  5
DEF8
  8
0
  6
CONTINUOUS
  2
_OPEN30
 10
2.6870017865641098
 20
1.8450005331302739
 30
0.0
 41
0.046875
 42
0.046875
 43
0.046875
 50
136.3900499074297
  0
POLYLINE
  5
DEF9
  8
0
  6
CONTINUOUS
 66
     1
 10
0.0
 20
0.0
 30
0.0
  0
VERTEX
  5
DEFA
  8
0
  6
CONTINUOUS
 10
2.720941728277904
 20
1.812668722456199
 30
0.0
  0
VERTEX
  5
DEFB
  8
0
  6
CONTINUOUS
 10
3.1314267320642548
 20
1.4216331827111901
 30
0.0
  0
VERTEX
  5
DEFC
  8
0
  6
CONTINUOUS
 10
3.2316706730279061
 20
1.4132916418840571
 30
0.0
  0
SEQEND
  5
DEFD
  8
0
  6
CONTINUOUS
  0
ENDBLK
  5
DEFF
  8
0
  0
BLOCK
  8
0
  2
*U56
 70
     1
 10
0.0
 20
0.0
 30
0.0
  3
*U56
  1

  0
TEXT
  5
DF01
  8
0
 10
3.2941706730279061
 20
1.3507916418840571
 30
0.0
 40
0.125
  1
TL-412
  0
ENDBLK
  5
DF03
  8
0
  0
BLOCK
  8
0
  2
*U57
 70
     1
 10
0.0
 20
0.0
 30
0.0
  3
*U57
  1

  0
TEXT
  5
DF05
  8
0
 10
0.1283225761480367
 20
1.8963519740894119
 30
0.0
 40
0.125
  1
Stool Assembly
  0
TEXT
  5
DF06
  8
0
 10
0.1283225761480367
 20
1.6880186407560791
 30
0.0
 40
0.125
  1
TL-640
  0
TEXT
  5
DF07
  8
0
 10
0.1283225761480367
 20
1.4796853074227461
 30
0.0
 40
0.125
  1
4-1/4" x 4-9/16"
  0
TEXT
  5
DF08
  8
0
 10
0.1283225761480367
 20
1.2713519740894119
 30
0.0
 40
0.125
  1
800.66.TAGUE
  0
ENDBLK
  5
DF0A
  8
0
  0
BLOCK
  8
0
  2
*U58
 70
     1
 10
0.0
 20
0.0
 30
0.0
  3
*U58
  1

  0
TEXT
  5
DF0C
  8
0
 10
0.3052749355636024
 20
1.3133121278941919
 30
0.0
 40
0.125
  1
Stool Assembly
  0
TEXT
  5
DF0D
  8
0
 10
0.3052749355636024
 20
1.1049787945608589
 30
0.0
 40
0.125
  1
TL-642
  0
TEXT
  5
DF0E
  8
0
 10
0.3052749355636024
 20
0.8966454612275262
 30
0.0
 40
0.125
  1
3-9/16" x 4-1/4"
  0
TEXT
  5
DF0F
  8
0
 10
0.3052749355636024
 20
0.6883121278941929
 30
0.0
 40
0.125
  1
800.66.TAGUE
  0
ENDBLK
  5
DF11
  8
0
  0
BLOCK
  8
0
  2
*U59
 70
     1
 10
0.0
 20
0.0
 30
0.0
  3
*U59
  1

  0
INSERT
  5
DF13
  8
0
  6
CONTINUOUS
  2
_OPEN30
 10
4.2500004173678567
 20
3.125000325262504
 30
0.0
 41
0.046875
 42
0.046875
 43
0.046875
 50
220.9039207528615
  0
POLYLINE
  5
DF14
  8
0
  6
CONTINUOUS
 66
     1
 10
0.0
 20
0.0
 30
0.0
  0
VERTEX
  5
DF15
  8
0
  6
CONTINUOUS
 10
4.285428948467243
 20
3.1556937253533999
 30
0.0
  0
VERTEX
  5
DF16
  8
0
  6
CONTINUOUS
 10
4.8218309318424408
 20
3.620403951106169
 30
0.0
  0
VERTEX
  5
DF17
  8
0
  6
CONTINUOUS
 10
4.8826737540601917
 20
3.620403951106169
 30
0.0
  0
SEQEND
  5
DF18
  8
0
  6
CONTINUOUS
  0
ENDBLK
  5
DF1A
  8
0
  0
BLOCK
  8
0
  2
*U60
 70
     1
 10
0.0
 20
0.0
 30
0.0
  3
*U60
  1

  0
TEXT
  5
DF1C
  8
0
 10
4.9451737540601917
 20
3.557903951106169
 30
0.0
 40
0.125
  1
1-1/16" x 1-3/4" w/
  0
TEXT
  5
DF1D
  8
0
 10
4.9451737540601917
 20
3.349570617772835
 30
0.0
 40
0.125
  1
1/4" Bead
  0
ENDBLK
  5
DF1F
  8
0
  0
BLOCK
  8
0
  2
*U61
 70
     1
 10
0.0
 20
0.0
 30
0.0
  3
*U61
  1

  0
INSERT
  5
DF21
  8
0
  6
CONTINUOUS
  2
_OPEN30
 10
3.2579528869749188
 20
1.406250325262504
 30
0.0
 41
0.046875
 42
0.046875
 43
0.046875
 50
156.86838037646939
  0
POLYLINE
  5
DF22
  8
0
  6
CONTINUOUS
 66
     1
 10
0.0
 20
0.0
 30
0.0
  0
VERTEX
  5
DF23
  8
0
  6
CONTINUOUS
 10
3.3010593638282271
 20
1.387835731096593
 30
0.0
  0
VERTEX
  5
DF24
  8
0
  6
CONTINUOUS
 10
4.0288058775305444
 20
1.0769507392405151
 30
0.0
  0
VERTEX
  5
DF25
  8
0
  6
CONTINUOUS
 10
4.1146926397061634
 20
1.0769507392405151
 30
0.0
  0
SEQEND
  5
DF26
  8
0
  6
CONTINUOUS
  0
ENDBLK
  5
DF28
  8
0
  0
BLOCK
  8
0
  2
*U62
 70
     1
 10
0.0
 20
0.0
 30
0.0
  3
*U62
  1

  0
TEXT
  5
DF2A
  8
0
 10
4.1771926397061634
 20
1.0144507392405151
 30
0.0
 40
0.125
  1
3/4" x 2-1/2" w/
  0
TEXT
  5
DF2B
  8
0
 10
4.1771926397061634
 20
0.8061174059071825
 30
0.0
 40
0.125
  1
1/4" Bead
  0
ENDBLK
  5
DF2D
  8
0
  0
BLOCK
  8
0
  2
*U63
 70
     1
 10
0.0
 20
0.0
 30
0.0
  3
*U63
  1

  0
TEXT
  5
DF2F
  8
0
 10
2.2482544924862391
 20
2.450263826582272
 30
0.0
 40
0.125
  1
Stool
  0
TEXT
  5
DF30
  8
0
 10
2.2482544924862391
 20
2.241930493248939
 30
0.0
 40
0.125
  1
TL-1159
  0
TEXT
  5
DF31
  8
0
 10
2.2482544924862391
 20
2.0335971599156051
 30
0.0
 40
0.125
  1
1-1/16" x 5-1/2"
  0
TEXT
  5
DF32
  8
0
 10
2.2482544924862391
 20
1.825263826582272
 30
0.0
 40
0.125
  1
800.66.TAGUE
  0
ENDBLK
  5
DF34
  8
0
  0
BLOCK
  8
0
  2
*U64
 70
     1
 10
0.0
 20
0.0
 30
0.0
  3
*U64
  1

  0
TEXT
  5
DF36
  8
0
 10
0.8191625160812918
 20
2.6766317664879571
 30
0.0
 40
0.125
  1
Stool
  0
TEXT
  5
DF37
  8
0
 10
0.8191625160812918
 20
2.468298433154624
 30
0.0
 40
0.125
  1
TL-1163
  0
TEXT
  5
DF38
  8
0
 10
0.8191625160812918
 20
2.259965099821291
 30
0.0
 40
0.125
  1
1-1/16" x 3-1/4"
  0
TEXT
  5
DF39
  8
0
 10
0.8191625160812918
 20
2.0516317664879571
 30
0.0
 40
0.125
  1
800.66.TAGUE
  0
ENDBLK
  5
DF3B
  8
0
  0
BLOCK
  8
0
  2
*U65
 70
     1
 10
0.0
 20
0.0
 30
0.0
  3
*U65
  1

  0
TEXT
  5
DF3D
  8
0
 10
1.349062628679462
 20
9.5573777296123126
 30
0.0
 40
0.125
  1
Stool
  0
TEXT
  5
DF3E
  8
0
 10
1.349062628679462
 20
9.3490443962789787
 30
0.0
 40
0.125
  1
TL-1165
  0
TEXT
  5
DF3F
  8
0
 10
1.349062628679462
 20
9.1407110629456465
 30
0.0
 40
0.125
  1
1-1/16" x 4-3/16"
  0
TEXT
  5
DF40
  8
0
 10
1.349062628679462
 20
8.9323777296123126
 30
0.0
 40
0.125
  1
800.66.TAGUE
  0
ENDBLK
  5
DF42
  8
0
  0
BLOCK
  8
0
  2
*U66
 70
     1
 10
0.0
 20
0.0
 30
0.0
  3
*U66
  1

  0
TEXT
  5
DF44
  8
0
 10
1.349062628679462
 20
2.8346475372353548
 30
0.0
 40
0.125
  1
Stool
  0
TEXT
  5
DF45
  8
0
 10
1.349062628679462
 20
2.6263142039020209
 30
0.0
 40
0.125
  1
TL-1165
  0
TEXT
  5
DF46
  8
0
 10
1.349062628679462
 20
2.4179808705686878
 30
0.0
 40
0.125
  1
1-1/16" x 4-3/16"
  0
TEXT
  5
DF47
  8
0
 10
1.349062628679462
 20
2.2096475372353548
 30
0.0
 40
0.125
  1
800.66.TAGUE
  0
ENDBLK
  5
DF49
  8
0
  0
BLOCK
  8
0
  2
*U67
 70
     1
 10
0.0
 20
0.0
 30
0.0
  3
*U67
  1

  0
TEXT
  5
DF4B
  8
0
 10
2.1131596426620258
 20
2.6458930357011918
 30
0.0
 40
0.125
  1
Stool
  0
TEXT
  5
DF4C
  8
0
 10
2.1131596426620258
 20
2.4375597023678579
 30
0.0
 40
0.125
  1
TL-1166
  0
TEXT
  5
DF4D
  8
0
 10
2.1131596426620258
 20
2.2292263690345249
 30
0.0
 40
0.125
  1
1-1/16" x 5-1/2"
  0
TEXT
  5
DF4E
  8
0
 10
2.1131596426620258
 20
2.0208930357011918
 30
0.0
 40
0.125
  1
800.66.TAGUE
  0
ENDBLK
  5
DF50
  8
0
  0
BLOCK
  8
0
  2
*U68
 70
     1
 10
0.0
 20
0.0
 30
0.0
  3
*U68
  1

  0
TEXT
  5
DF52
  8
0
 10
2.2456546718724431
 20
2.642895428088309
 30
0.0
 40
0.125
  1
Stool
  0
TEXT
  5
DF53
  8
0
 10
2.2456546718724431
 20
2.4345620947549751
 30
0.0
 40
0.125
  1
TL-1167
  0
TEXT
  5
DF54
  8
0
 10
2.2456546718724431
 20
2.2262287614216421
 30
0.0
 40
0.125
  1
1-1/16" x 5-1/2"
  0
TEXT
  5
DF55
  8
0
 10
2.2456546718724431
 20
2.017895428088309
 30
0.0
 40
0.125
  1
800.66.TAGUE
  0
ENDBLK
  5
DF57
  8
0
  0
BLOCK
  8
0
  2
*U69
 70
     1
 10
0.0
 20
0.0
 30
0.0
  3
*U69
  1

  0
TEXT
  5
DF59
  8
0
 10
2.0133018041836972
 20
2.5882703042445878
 30
0.0
 40
0.125
  1
Stool
  0
TEXT
  5
DF5A
  8
0
 10
2.0133018041836972
 20
2.3799369709112539
 30
0.0
 40
0.125
  1
TL-1168
  0
TEXT
  5
DF5B
  8
0
 10
2.0133018041836972
 20
2.1716036375779209
 30
0.0
 40
0.125
  1
1-1/16" x 5-1/2"
  0
TEXT
  5
DF5C
  8
0
 10
2.0133018041836972
 20
1.963270304244588
 30
0.0
 40
0.125
  1
800.66.TAGUE
  0
ENDBLK
  5
DF5E
  8
0
  0
BLOCK
  8
0
  2
*U70
 70
     1
 10
0.0
 20
0.0
 30
0.0
  3
*U70
  1

  0
TEXT
  5
DF60
  8
0
 10
2.055829634173278
 20
2.4805333809745198
 30
0.0
 40
0.125
  1
Stool
  0
TEXT
  5
DF61
  8
0
 10
2.055829634173278
 20
2.2722000476411872
 30
0.0
 40
0.125
  1
TL-1169
  0
TEXT
  5
DF62
  8
0
 10
2.055829634173278
 20
2.0638667143078542
 30
0.0
 40
0.125
  1
1-1/16" x 5-1/2"
  0
TEXT
  5
DF63
  8
0
 10
2.055829634173278
 20
1.85553338097452
 30
0.0
 40
0.125
  1
800.66.TAGUE
  0
ENDBLK
  5
DF65
  8
0
  0
BLOCK
  8
0
  2
*U71
 70
     1
 10
0.0
 20
0.0
 30
0.0
  3
*U71
  1

  0
TEXT
  5
DF67
  8
0
 10
2.2535945867782621
 20
1.42055978726475
 30
0.0
 40
0.125
  1
T-Astragal
  0
TEXT
  5
DF68
  8
0
 10
2.2535945867782621
 20
1.212226453931416
 30
0.0
 40
0.125
  1
TL-1300
  0
TEXT
  5
DF69
  8
0
 10
2.2535945867782621
 20
1.003893120598083
 30
0.0
 40
0.125
  1
1-1/4" x 2-1/4"
  0
TEXT
  5
DF6A
  8
0
 10
2.2535945867782621
 20
0.7955597872647502
 30
0.0
 40
0.125
  1
800.66.TAGUE
  0
ENDBLK
  5
DF6C
  8
0
  0
BLOCK
  8
0
  2
*U72
 70
     1
 10
0.0
 20
0.0
 30
0.0
  3
*U72
  1

  0
TEXT
  5
DF6E
  8
0
 10
1.93660943774762
 20
1.3948922377437321
 30
0.0
 40
0.125
  1
T-Astragal
  0
TEXT
  5
DF6F
  8
0
 10
1.93660943774762
 20
1.186558904410399
 30
0.0
 40
0.125
  1
TL-1305
  0
TEXT
  5
DF70
  8
0
 10
1.93660943774762
 20
0.9782255710770661
 30
0.0
 40
0.125
  1
1-1/4" x 2"
  0
TEXT
  5
DF71
  8
0
 10
1.93660943774762
 20
0.7698922377437328
 30
0.0
 40
0.125
  1
800.66.TAGUE
  0
ENDBLK
  5
DF73
  8
0
  0
BLOCK
  8
0
  2
*U73
 70
     1
 10
0.0
 20
0.0
 30
0.0
  3
*U73
  1

  0
TEXT
  5
DF75
  8
0
 10
4.8392669093670966
 20
1.7952652163690741
 30
0.0
 40
0.125
  1
T-Astragal
  0
TEXT
  5
DF76
  8
0
 10
4.8392669093670966
 20
1.58693188303574
 30
0.0
 40
0.125
  1
TL-2089
  0
TEXT
  5
DF77
  8
0
 10
4.8392669093670966
 20
1.3785985497024069
 30
0.0
 40
0.125
  1
1-5/8" x 2-15/16"
  0
TEXT
  5
DF78
  8
0
 10
4.8392669093670966
 20
1.1702652163690741
 30
0.0
 40
0.125
  1
800.66.TAGUE
  0
ENDBLK
  5
DF7A
  8
0
  0
BLOCK
  8
0
  2
*U74
 70
     1
 10
0.0
 20
0.0
 30
0.0
  3
*U74
  1

  0
INSERT
  5
DF7C
  8
0
  6
CONTINUOUS
  2
_OPEN30
 10
2.609022505026473
 20
2.0302358065314081
 30
0.0
 41
0.046875
 42
0.046875
 43
0.046875
 50
309.7026190376086
  0
POLYLINE
  5
DF7D
  8
0
  6
CONTINUOUS
 66
     1
 10
0.0
 20
0.0
 30
0.0
  0
VERTEX
  5
DF7E
  8
0
  6
CONTINUOUS
 10
2.5790786150230298
 20
2.066300041951858
 30
0.0
  0
VERTEX
  5
DF7F
  8
0
  6
CONTINUOUS
 10
2.212258879372996
 20
2.5080954567035572
 30
0.0
  0
VERTEX
  5
DF80
  8
0
  6
CONTINUOUS
 10
2.114728241768034
 20
2.5080954567035572
 30
0.0
  0
SEQEND
  5
DF81
  8
0
  6
CONTINUOUS
  0
ENDBLK
  5
DF83
  8
0
  0
BLOCK
  8
0
  2
*U75
 70
     1
 10
0.0
 20
0.0
 30
0.0
  3
*U75
  1

  0
TEXT
  5
DF85
  8
0
 10
-0.7811050915652995
 20
2.4872621233702241
 30
0.0
 40
0.125
  1
Beige Q-Lon Weatherstrip
  0
ENDBLK
  5
DF87
  8
0
  0
BLOCK
  8
0
  2
*U76
 70
     1
 10
0.0
 20
0.0
 30
0.0
  3
*U76
  1

  0
TEXT
  5
DF89
  8
0
 10
3.3201568568554189
 20
0.9248893359822716
 30
0.0
 40
0.125
  1
Wainscot Cap Assembly
  0
TEXT
  5
DF8A
  8
0
 10
3.3201568568554189
 20
0.7165560026489385
 30
0.0
 40
0.125
  1
TL-641
  0
TEXT
  5
DF8B
  8
0
 10
3.3201568568554189
 20
0.5082226693156051
 30
0.0
 40
0.125
  1
1-3/4" x 1-3/4"
  0
TEXT
  5
DF8C
  8
0
 10
3.3201568568554189
 20
0.2998893359822716
 30
0.0
 40
0.125
  1
800.66.TAGUE
  0
ENDBLK
  5
DF8E
  8
0
  0
BLOCK
  8
0
  2
*U77
 70
     1
 10
0.0
 20
0.0
 30
0.0
  3
*U77
  1

  0
INSERT
  5
DF90
  8
0
  6
CONTINUOUS
  2
_OPEN30
 10
1.2463031763783761
 20
0.4857663996054101
 30
0.0
 41
0.046875
 42
0.046875
 43
0.046875
 50
138.5394374069943
  0
POLYLINE
  5
DF91
  8
0
  6
CONTINUOUS
 66
     1
 10
0.0
 20
0.0
 30
0.0
  0
VERTEX
  5
DF92
  8
0
  6
CONTINUOUS
 10
1.28143184667823
 20
0.4547302569977322
 30
0.0
  0
VERTEX
  5
DF93
  8
0
  6
CONTINUOUS
 10
1.6881825691150989
 20
0.0953664291166945
 30
0.0
  0
VERTEX
  5
DF94
  8
0
  6
CONTINUOUS
 10
1.7751008865690201
 20
0.1040451542178573
 30
0.0
  0
SEQEND
  5
DF95
  8
0
  6
CONTINUOUS
  0
ENDBLK
  5
DF97
  8
0
  0
BLOCK
  8
0
  2
*U78
 70
     1
 10
0.0
 20
0.0
 30
0.0
  3
*U78
  1

  0
TEXT
  5
DF99
  8
0
 10
1.8376008865690201
 20
0.0415451542178573
 30
0.0
 40
0.125
  1
TL-145
  0
ENDBLK
  5
DF9B
  8
0
  0
BLOCK
  8
0
  2
*U79
 70
     1
 10
0.0
 20
0.0
 30
0.0
  3
*U79
  1

  0
INSERT
  5
DF9D
  8
0
  6
CONTINUOUS
  2
_OPEN30
 10
1.7420465172478421
 20
1.4512962814681309
 30
0.0
 41
0.046875
 42
0.046875
 43
0.046875
 50
220.9039207528615
  0
POLYLINE
  5
DF9E
  8
0
  6
CONTINUOUS
 66
     1
 10
0.0
 20
0.0
 30
0.0
  0
VERTEX
  5
DF9F
  8
0
  6
CONTINUOUS
 10
1.777475048347229
 20
1.481989681559027
 30
0.0
  0
VERTEX
  5
DFA0
  8
0
  6
CONTINUOUS
 10
2.3138770317224271
 20
1.9466999073117961
 30
0.0
  0
VERTEX
  5
DFA1
  8
0
  6
CONTINUOUS
 10
2.374719853940177
 20
1.9466999073117961
 30
0.0
  0
SEQEND
  5
DFA2
  8
0
  6
CONTINUOUS
  0
ENDBLK
  5
DFA4
  8
0
  0
BLOCK
  8
0
  2
*U80
 70
     1
 10
0.0
 20
0.0
 30
0.0
  3
*U80
  1

  0
TEXT
  5
DFA6
  8
0
 10
2.437219853940177
 20
1.8841999073117961
 30
0.0
 40
0.125
  1
1-1/16" x 1-3/4" w/
  0
TEXT
  5
DFA7
  8
0
 10
2.437219853940177
 20
1.6758665739784619
 30
0.0
 40
0.125
  1
1/4" Bead
  0
ENDBLK
  5
DFA9
  8
0
  0
BLOCK
  8
0
  2
*U81
 70
     1
 10
0.0
 20
0.0
 30
0.0
  3
*U81
  1

  0
TEXT
  5
DFAB
  8
0
 10
2.133917541145478
 20
1.2502033969354041
 30
0.0
 40
0.125
  1
3/4" x 1-1/2"
  0
TEXT
  5
DFAC
  8
0
 10
2.133917541145478
 20
1.041870063602071
 30
0.0
 40
0.125
  1
w/ 1/4" Bead
  0
ENDBLK
  5
DFAE
  8
0
  0
BLOCK
  8
0
  2
*U82
 70
     1
 10
0.0
 20
0.0
 30
0.0
  3
*U82
  1

  0
INSERT
  5
DFB0
  8
0
  2
_OPEN30
 10
1.500499089344373
 20
1.7527654715287611
 30
0.0
 41
0.046875
 42
0.046875
 43
0.046875
 50
140.1402731310821
  0
POLYLINE
  5
DFB1
  8
0
 66
     1
 10
0.0
 20
0.0
 30
0.0
  0
VERTEX
  5
DFB2
  8
0
 10
1.5364810816755761
 20
1.7227228043223151
 30
0.0
  0
VERTEX
  5
DFB3
  8
0
 10
2.0275598221502369
 20
1.3127033969354041
 30
0.0
  0
VERTEX
  5
DFB4
  8
0
 10
2.071417541145478
 20
1.3127033969354041
 30
0.0
  0
SEQEND
  5
DFB5
  8
0
  0
ENDBLK
  5
DFB7
  8
0
  0
BLOCK
  8
0
  2
*U83
 70
     1
 10
0.0
 20
0.0
 30
0.0
  3
*U83
  1

  0
TEXT
  5
DFB9
  8
0
 10
1.7389030780287831
 20
0.2469771306898849
 30
0.0
 40
0.125
  1
TL-AB027
  0
TEXT
  5
DFBA
  8
0
 10
1.7389030780287831
 20
0.0386437973565516
 30
0.0
 40
0.125
  1
   
  0
ENDBLK
  5
DFBC
  8
0
  0
BLOCK
  8
0
  2
*U84
 70
     1
 10
0.0
 20
0.0
 30
0.0
  3
*U84
  1

  0
INSERT
  5
DFBE
  8
0
  2
_OPEN30
 10
1.044939929512736
 20
0.9313599776325247
 30
0.0
 41
0.046875
 42
0.046875
 43
0.046875
 50
133.2825755670213
  0
POLYLINE
  5
DFBF
  8
0
 66
     1
 10
0.0
 20
0.0
 30
0.0
  0
VERTEX
  5
DFC0
  8
0
 10
1.0770772886782951
 20
0.8972358546274739
 30
0.0
  0
VERTEX
  5
DFC1
  8
0
 10
1.6306157110745969
 20
0.3094771306898849
 30
0.0
  0
VERTEX
  5
DFC2
  8
0
 10
1.6764030780287831
 20
0.3094771306898849
 30
0.0
  0
SEQEND
  5
DFC3
  8
0
  0
ENDBLK
  5
DFC5
  8
0
  0
BLOCK
  8
0
  2
*U85
 70
     1
 10
0.0
 20
0.0
 30
0.0
  3
*U85
  1

  0
TEXT
  5
DFC7
  8
0
 10
3.883321989091427
 20
0.7335451023873532
 30
0.0
 40
0.125
  1
Wainscot Cap Assembly
  0
TEXT
  5
DFC8
  8
0
 10
3.883321989091427
 20
0.52521176905402
 30
0.0
 40
0.125
  1
TL-
  0
TEXT
  5
DFC9
  8
0
 10
3.883321989091427
 20
0.3168784357206865
 30
0.0
 40
0.125
  1
1-1/2" x 1-3/4"
  0
TEXT
  5
DFCA
  8
0
 10
3.883321989091427
 20
0.1085451023873531
 30
0.0
 40
0.125
  1
800.66.TAGUE
  0
ENDBLK
  5
DFCC
  8
0
  0
BLOCK
  8
0
  2
*U86
 70
     1
 10
0.0
 20
0.0
 30
0.0
  3
*U86
  1

  0
TEXT
  5
DFCE
  8
0
 10
2.2761781755017401
 20
0.6780823703752789
 30
0.0
 40
0.125
  1
Wainscot Cap
  0
TEXT
  5
DFCF
  8
0
 10
2.2761781755017401
 20
0.4697490370419455
 30
0.0
 40
0.125
  1
TL-289
  0
TEXT
  5
DFD0
  8
0
 10
2.2761781755017401
 20
0.2614157037086121
 30
0.0
 40
0.125
  1
1-1/16" x 1-11/16"
  0
TEXT
  5
DFD1
  8
0
 10
2.2761781755017401
 20
0.0530823703752788
 30
0.0
 40
0.125
  1
800.66.TAGUE
  0
ENDBLK
  5
DFD3
  8
0
  0
BLOCK
  8
0
  2
*U87
 70
     1
 10
0.0
 20
0.0
 30
0.0
  3
*U87
  1

  0
TEXT
  5
DFD5
  8
0
 10
2.6708331154061389
 20
3.219511212982666
 30
0.0
 40
0.125
  1
Wainscot Cap
  0
TEXT
  5
DFD6
  8
0
 10
2.6708331154061389
 20
3.0111778796493329
 30
0.0
 40
0.125
  1
TL-2083
  0
TEXT
  5
DFD7
  8
0
 10
2.6708331154061389
 20
2.8028445463159999
 30
0.0
 40
0.125
  1
2-5/8" x 4-3/4"
  0
TEXT
  5
DFD8
  8
0
 10
2.6708331154061389
 20
2.594511212982666
 30
0.0
 40
0.125
  1
800.66.TAGUE
  0
ENDBLK
  5
DFDA
  8
0
  0
BLOCK
  8
0
  2
*U88
 70
     1
 10
0.0
 20
0.0
 30
0.0
  3
*U88
  1

  0
TEXT
  5
DFE0
  8
0
 10
4.2993760137185291
 20
3.330140194350661
 30
0.0
 40
0.125
  1
Wainscot Cap
  0
TEXT
  5
DFE1
  8
0
 10
4.2993760137185291
 20
3.121806861017328
 30
0.0
 40
0.125
  1
TL-As Noted
  0
TEXT
  5
DFE2
  8
0
 10
4.2993760137185291
 20
2.913473527683994
 30
0.0
 40
0.125
  1
2-3/16" x 6-3/4"
  0
TEXT
  5
DFE3
  8
0
 10
4.2993760137185291
 20
2.705140194350661
 30
0.0
 40
0.125
  1
800.66.TAGUE
  0
ENDBLK
  5
DFE5
  8
0
  0
BLOCK
  8
0
  2
*U89
 70
     1
 10
0.0
 20
0.0
 30
0.0
  3
*U89
  1

  0
TEXT
  5
DFE7
  8
0
 10
2.3085828176867831
 20
3.1784082361857879
 30
0.0
 40
0.125
  1
Filler Piece
  0
ENDBLK
  5
DFE9
  8
0
  0
BLOCK
  8
0
  2
*U90
 70
     1
 10
0.0
 20
0.0
 30
0.0
  3
*U90
  1

  0
INSERT
  5
DFEB
  8
0
  2
_OPEN30
 10
0.3471508952655995
 20
2.4255893924655818
 30
0.0
 41
0.046875
 42
0.046875
 43
0.046875
 50
204.3207922762185
  0
POLYLINE
  5
DFEC
  8
0
 66
     1
 10
0.0
 20
0.0
 30
0.0
  0
VERTEX
  5
DFED
  8
0
 10
0.3898659209218647
 20
2.4448946303088359
 30
0.0
  0
VERTEX
  5
DFEE
  8
0
 10
2.1511361976126859
 20
3.2409082361857879
 30
0.0
  0
VERTEX
  5
DFEF
  8
0
 10
2.2460828176867831
 20
3.2409082361857879
 30
0.0
  0
SEQEND
  5
DFF0
  8
0
  0
ENDBLK
  5
DFF2
  8
0
  0
BLOCK
  8
0
  2
*U91
 70
     1
 10
0.0
 20
0.0
 30
0.0
  3
*U91
  1

  0
TEXT
  5
DFF4
  8
0
 10
2.3528350737013279
 20
2.1100929014831129
 30
0.0
 40
0.125
  1
TL-2134  7/8" x 4-1/8"
  0
ENDBLK
  5
DFF6
  8
0
  0
BLOCK
  8
0
  2
*U92
 70
     1
 10
0.0
 20
0.0
 30
0.0
  3
*U92
  1

  0
INSERT
  5
DFF8
  8
0
  2
_OPEN30
 10
1.5619554872444601
 20
1.8622505399803511
 30
0.0
 41
0.046875
 42
0.046875
 43
0.046875
 50
206.5627893847132
  0
POLYLINE
  5
DFF9
  8
0
 66
     1
 10
0.0
 20
0.0
 30
0.0
  0
VERTEX
  5
DFFA
  8
0
 10
1.6038825893249311
 20
1.8832120221830451
 30
0.0
  0
VERTEX
  5
DFFB
  8
0
 10
2.182701470033237
 20
2.1725929014831129
 30
0.0
  0
VERTEX
  5
DFFC
  8
0
 10
2.2903350737013279
 20
2.1725929014831129
 30
0.0
  0
SEQEND
  5
DFFD
  8
0
  0
ENDBLK
  5
DFFF
  8
0
  0
BLOCK
  8
0
  2
*U93
 70
     1
 10
0.0
 20
0.0
 30
0.0
  3
*U93
  1

  0
TEXT
  5
E001
  8
0
 10
2.2595573346518441
 20
4.9049436195801093
 30
0.0
 40
0.125
  1
TL-2133  1-13/16" x 2-3/16"
  0
ENDBLK
  5
E003
  8
0
  0
BLOCK
  8
0
  2
*U94
 70
     1
 10
0.0
 20
0.0
 30
0.0
  3
*U94
  1

  0
INSERT
  5
E005
  8
0
  2
_OPEN30
 10
1.4686777481949771
 20
4.6571012580773461
 30
0.0
 41
0.046875
 42
0.046875
 43
0.046875
 50
206.5627893847132
  0
POLYLINE
  5
E006
  8
0
 66
     1
 10
0.0
 20
0.0
 30
0.0
  0
VERTEX
  5
E007
  8
0
 10
1.510604850275447
 20
4.6780627402800397
 30
0.0
  0
VERTEX
  5
E008
  8
0
 10
2.0894237309837531
 20
4.9674436195801093
 30
0.0
  0
VERTEX
  5
E009
  8
0
 10
2.1970573346518441
 20
4.9674436195801093
 30
0.0
  0
SEQEND
  5
E00A
  8
0
  0
ENDBLK
  5
E00C
  8
0
  0
BLOCK
  8
0
  2
*U95
 70
     1
 10
0.0
 20
0.0
 30
0.0
  3
*U95
  1

  0
TEXT
  5
E00E
  8
0
 10
1.3310546361284421
 20
6.448424812346758
 30
0.0
 40
0.125
  1
TL-2132   3/4" x 1"
  0
ENDBLK
  5
E010
  8
0
  0
BLOCK
  8
0
  2
*U96
 70
     1
 10
0.0
 20
0.0
 30
0.0
  3
*U96
  1

  0
INSERT
  5
E012
  8
0
  2
_OPEN30
 10
0.540175049671575
 20
6.2005824508439948
 30
0.0
 41
0.046875
 42
0.046875
 43
0.046875
 50
206.5627893847132
  0
POLYLINE
  5
E013
  8
0
 66
     1
 10
0.0
 20
0.0
 30
0.0
  0
VERTEX
  5
E014
  8
0
 10
0.5821021517520451
 20
6.2215439330466893
 30
0.0
  0
VERTEX
  5
E015
  8
0
 10
1.1609210324603501
 20
6.510924812346758
 30
0.0
  0
VERTEX
  5
E016
  8
0
 10
1.2685546361284421
 20
6.510924812346758
 30
0.0
  0
SEQEND
  5
E017
  8
0
  0
ENDBLK
  5
E019
  8
0
  0
BLOCK
  8
0
  2
*U97
 70
     1
 10
0.0
 20
0.0
 30
0.0
  3
*U97
  1

  0
TEXT
  5
E01B
  8
0
 10
2.5899206558918868
 20
0.6780820183220442
 30
0.0
 40
0.125
  1
Wainscot Cap
  0
TEXT
  5
E01C
  8
0
 10
2.5899206558918868
 20
0.4697486849887109
 30
0.0
 40
0.125
  1
TL-2191
  0
TEXT
  5
E01D
  8
0
 10
2.5899206558918868
 20
0.2614153516553776
 30
0.0
 40
0.125
  1
3/4" x 1-3/4"
  0
TEXT
  5
E01E
  8
0
 10
2.5899206558918868
 20
0.0530820183220442
 30
0.0
 40
0.125
  1
800.66.TAGUE
  0
ENDBLK
  5
E020
  8
0
  0
BLOCK
  8
0
  2
*U98
 70
     1
 10
0.0
 20
0.0
 30
0.0
  3
*U98
  1

  0
TEXT
  5
E022
  8
0
 10
-387.31758398563579
 20
838.89346968510449
 30
0.0
 40
0.125
  1
Wainscot Cap
  0
TEXT
  5
E023
  8
0
 10
-387.31758398563579
 20
838.68513635177112
 30
0.0
 40
0.125
  1
TL-2191
  0
TEXT
  5
E024
  8
0
 10
-387.31758398563579
 20
838.47680301843775
 30
0.0
 40
0.125
  1
3/4" x 1-3/4"
  0
TEXT
  5
E025
  8
0
 10
-387.31758398563579
 20
838.26846968510449
 30
0.0
 40
0.125
  1
800.66.TAGUE
  0
ENDBLK
  5
E027
  8
0
  0
ENDSEC
  0
SECTION
  2
ENTITIES
  0
LINE
  5
DE79
  8
0
 10
-388.65750399845808
 20
838.40196104172514
 30
0.0
 11
-389.15750399845808
 21
838.40196104172514
 31
0.0
  0
LINE
  5
DE7A
  8
0
 10
-388.65750399845808
 20
838.40196104172514
 30
0.0
 11
-389.15750399845808
 21
838.40196104172514
 31
0.0
  0
LINE
  5
DE7B
  8
0
 10
-389.90750399845803
 20
839.13283465807626
 30
0.0
 11
-388.40025912586492
 21
839.13283465807626
 31
0.0
  0
LINE
  5
DE7C
  8
0
 10
-389.90750399845808
 20
838.40196104172514
 30
0.0
 11
-389.90750399845803
 21
839.13283465807626
 31
0.0
  0
LINE
  5
DE7D
  8
0
 10
-389.15750399845808
 20
838.40196104172514
 30
0.0
 11
-389.90750399845808
 21
838.40196104172514
 31
0.0
  0
LINE
  5
DE7E
  8
0
 10
-388.40750399845808
 20
838.40196104172514
 30
0.0
 11
-388.65750399845808
 21
838.40196104172514
 31
0.0
  0
POLYLINE
  8
0
  5
E14A
  66
     1
 10
0.000000
 20
0.000000
 30
0.000000
  70
     8
  0
VERTEX
  8
0
  5
E14B
 10
-388.400
 20
839.133
 30
0.000000
  70
    32
  0
VERTEX
  8
0
  5
E14C
 10
-388.398
 20
839.131
 30
0.000000
  70
    32
  0
VERTEX
  8
0
  5
E14D
 10
-388.397
 20
839.129
 30
0.000000
  70
    32
  0
VERTEX
  8
0
  5
E14E
 10
-388.395
 20
839.127
 30
0.000000
  70
    32
  0
VERTEX
  8
0
  5
E14F
 10
-388.393
 20
839.125
 30
0.000000
  70
    32
  0
VERTEX
  8
0
  5
E150
 10
-388.391
 20
839.123
 30
0.000000
  70
    32
  0
VERTEX
  8
0
  5
E151
 10
-388.389
 20
839.121
 30
0.000000
  70
    32
  0
VERTEX
  8
0
  5
E152
 10
-388.388
 20
839.120
 30
0.000000
  70
    32
  0
VERTEX
  8
0
  5
E153
 10
-388.386
 20
839.118
 30
0.000000
  70
    32
  0
VERTEX
  8
0
  5
E154
 10
-388.384
 20
839.116
 30
0.000000
  70
    32
  0
VERTEX
  8
0
  5
E155
 10
-388.382
 20
839.114
 30
0.000000
  70
    32
  0
VERTEX
  8
0
  5
E156
 10
-388.380
 20
839.113
 30
0.000000
  70
    32
  0
VERTEX
  8
0
  5
E157
 10
-388.378
 20
839.111
 30
0.000000
  70
    32
  0
VERTEX
  8
0
  5
E158
 10
-388.376
 20
839.109
 30
0.000000
  70
    32
  0
VERTEX
  8
0
  5
E159
 10
-388.374
 20
839.108
 30
0.000000
  70
    32
  0
VERTEX
  8
0
  5
E15A
 10
-388.371
 20
839.106
 30
0.000000
  70
    32
  0
VERTEX
  8
0
  5
E15B
 10
-388.369
 20
839.105
 30
0.000000
  70
    32
  0
VERTEX
  8
0
  5
E15C
 10
-388.367
 20
839.103
 30
0.000000
  70
    32
  0
VERTEX
  8
0
  5
E15D
 10
-388.365
 20
839.102
 30
0.000000
  70
    32
  0
VERTEX
  8
0
  5
E15E
 10
-388.362
 20
839.101
 30
0.000000
  70
    32
  0
VERTEX
  8
0
  5
E15F
 10
-388.360
 20
839.100
 30
0.000000
  70
    32
  0
VERTEX
  8
0
  5
E160
 10
-388.358
 20
839.099
 30
0.000000
  70
    32
  0
VERTEX
  8
0
  5
E161
 10
-388.355
 20
839.097
 30
0.000000
  70
    32
  0
VERTEX
  8
0
  5
E162
 10
-388.353
 20
839.096
 30
0.000000
  70
    32
  0
VERTEX
  8
0
  5
E163
 10
-388.350
 20
839.096
 30
0.000000
  70
    32
  0
VERTEX
  8
0
  5
E164
 10
-388.348
 20
839.095
 30
0.000000
  70
    32
  0
VERTEX
  8
0
  5
E165
 10
-388.346
 20
839.094
 30
0.000000
  70
    32
  0
VERTEX
  8
0
  5
E166
 10
-388.343
 20
839.093
 30
0.000000
  70
    32
  0
VERTEX
  8
0
  5
E167
 10
-388.341
 20
839.093
 30
0.000000
  70
    32
  0
VERTEX
  8
0
  5
E168
 10
-388.338
 20
839.092
 30
0.000000
  70
    32
  0
VERTEX
  8
0
  5
E169
 10
-388.335
 20
839.091
 30
0.000000
  70
    32
  0
VERTEX
  8
0
  5
E16A
 10
-388.333
 20
839.091
 30
0.000000
  70
    32
  0
VERTEX
  8
0
  5
E16B
 10
-388.330
 20
839.091
 30
0.000000
  70
    32
  0
VERTEX
  8
0
  5
E16C
 10
-388.328
 20
839.090
 30
0.000000
  70
    32
  0
VERTEX
  8
0
  5
E16D
 10
-388.325
 20
839.090
 30
0.000000
  70
    32
  0
VERTEX
  8
0
  5
E16E
 10
-388.323
 20
839.090
 30
0.000000
  70
    32
  0
VERTEX
  8
0
  5
E16F
 10
-388.320
 20
839.089
 30
0.000000
  70
    32
  0
VERTEX
  8
0
  5
E170
 10
-388.317
 20
839.089
 30
0.000000
  70
    32
  0
VERTEX
  8
0
  5
E171
 10
-388.315
 20
839.089
 30
0.000000
  70
    32
  0
VERTEX
  8
0
  5
E172
 10
-388.312
 20
839.089
 30
0.000000
  70
    32
  0
VERTEX
  8
0
  5
E173
 10
-388.309
 20
839.089
 30
0.000000
  70
    32
  0
VERTEX
  8
0
  5
E174
 10
-388.307
 20
839.089
 30
0.000000
  70
    32
  0
VERTEX
  8
0
  5
E175
 10
-388.304
 20
839.089
 30
0.000000
  70
    32
  0
VERTEX
  8
0
  5
E176
 10
-388.301
 20
839.088
 30
0.000000
  70
    32
  0
VERTEX
  8
0
  5
E177
 10
-388.299
 20
839.088
 30
0.000000
  70
    32
  0
VERTEX
  8
0
  5
E178
 10
-388.296
 20
839.088
 30
0.000000
  70
    32
  0
VERTEX
  8
0
  5
E179
 10
-388.293
 20
839.088
 30
0.000000
  70
    32
  0
VERTEX
  8
0
  5
E17A
 10
-388.291
 20
839.088
 30
0.000000
  70
    32
  0
VERTEX
  8
0
  5
E17B
 10
-388.288
 20
839.088
 30
0.000000
  70
    32
  0
VERTEX
  8
0
  5
E17C
 10
-388.285
 20
839.088
 30
0.000000
  70
    32
  0
VERTEX
  8
0
  5
E17D
 10
-388.283
 20
839.088
 30
0.000000
  70
    32
  0
VERTEX
  8
0
  5
E17E
 10
-388.280
 20
839.088
 30
0.000000
  70
    32
  0
VERTEX
  8
0
  5
E17F
 10
-388.277
 20
839.087
 30
0.000000
  70
    32
  0
VERTEX
  8
0
  5
E180
 10
-388.275
 20
839.087
 30
0.000000
  70
    32
  0
VERTEX
  8
0
  5
E181
 10
-388.272
 20
839.087
 30
0.000000
  70
    32
  0
VERTEX
  8
0
  5
E182
 10
-388.269
 20
839.087
 30
0.000000
  70
    32
  0
VERTEX
  8
0
  5
E183
 10
-388.267
 20
839.087
 30
0.000000
  70
    32
  0
VERTEX
  8
0
  5
E184
 10
-388.264
 20
839.086
 30
0.000000
  70
    32
  0
VERTEX
  8
0
  5
E185
 10
-388.261
 20
839.086
 30
0.000000
  70
    32
  0
VERTEX
  8
0
  5
E186
 10
-388.259
 20
839.086
 30
0.000000
  70
    32
  0
VERTEX
  8
0
  5
E187
 10
-388.256
 20
839.086
 30
0.000000
  70
    32
  0
VERTEX
  8
0
  5
E188
 10
-388.254
 20
839.085
 30
0.000000
  70
    32
  0
VERTEX
  8
0
  5
E189
 10
-388.251
 20
839.085
 30
0.000000
  70
    32
  0
VERTEX
  8
0
  5
E18A
 10
-388.248
 20
839.085
 30
0.000000
  70
    32
  0
VERTEX
  8
0
  5
E18B
 10
-388.246
 20
839.084
 30
0.000000
  70
    32
  0
VERTEX
  8
0
  5
E18C
 10
-388.243
 20
839.084
 30
0.000000
  70
    32
  0
VERTEX
  8
0
  5
E18D
 10
-388.241
 20
839.083
 30
0.000000
  70
    32
  0
VERTEX
  8
0
  5
E18E
 10
-388.238
 20
839.083
 30
0.000000
  70
    32
  0
VERTEX
  8
0
  5
E18F
 10
-388.236
 20
839.082
 30
0.000000
  70
    32
  0
VERTEX
  8
0
  5
E190
 10
-388.233
 20
839.082
 30
0.000000
  70
    32
  0
VERTEX
  8
0
  5
E191
 10
-388.230
 20
839.081
 30
0.000000
  70
    32
  0
VERTEX
  8
0
  5
E192
 10
-388.228
 20
839.081
 30
0.000000
  70
    32
  0
VERTEX
  8
0
  5
E193
 10
-388.225
 20
839.080
 30
0.000000
  70
    32
  0
VERTEX
  8
0
  5
E194
 10
-388.223
 20
839.079
 30
0.000000
  70
    32
  0
VERTEX
  8
0
  5
E195
 10
-388.220
 20
839.079
 30
0.000000
  70
    32
  0
VERTEX
  8
0
  5
E196
 10
-388.218
 20
839.078
 30
0.000000
  70
    32
  0
VERTEX
  8
0
  5
E197
 10
-388.216
 20
839.077
 30
0.000000
  70
    32
  0
VERTEX
  8
0
  5
E198
 10
-388.213
 20
839.076
 30
0.000000
  70
    32
  0
VERTEX
  8
0
  5
E199
 10
-388.211
 20
839.075
 30
0.000000
  70
    32
  0
VERTEX
  8
0
  5
E19A
 10
-388.208
 20
839.074
 30
0.000000
  70
    32
  0
VERTEX
  8
0
  5
E19B
 10
-388.206
 20
839.073
 30
0.000000
  70
    32
  0
VERTEX
  8
0
  5
E19C
 10
-388.204
 20
839.072
 30
0.000000
  70
    32
  0
VERTEX
  8
0
  5
E19D
 10
-388.201
 20
839.071
 30
0.000000
  70
    32
  0
VERTEX
  8
0
  5
E19E
 10
-388.199
 20
839.070
 30
0.000000
  70
    32
  0
VERTEX
  8
0
  5
E19F
 10
-388.197
 20
839.069
 30
0.000000
  70
    32
  0
VERTEX
  8
0
  5
E1A0
 10
-388.194
 20
839.067
 30
0.000000
  70
    32
  0
VERTEX
  8
0
  5
E1A1
 10
-388.192
 20
839.066
 30
0.000000
  70
    32
  0
VERTEX
  8
0
  5
E1A2
 10
-388.190
 20
839.065
 30
0.000000
  70
    32
  0
VERTEX
  8
0
  5
E1A3
 10
-388.188
 20
839.063
 30
0.000000
  70
    32
  0
VERTEX
  8
0
  5
E1A4
 10
-388.186
 20
839.062
 30
0.000000
  70
    32
  0
VERTEX
  8
0
  5
E1A5
 10
-388.183
 20
839.060
 30
0.000000
  70
    32
  0
VERTEX
  8
0
  5
E1A6
 10
-388.181
 20
839.059
 30
0.000000
  70
    32
  0
VERTEX
  8
0
  5
E1A7
 10
-388.179
 20
839.057
 30
0.000000
  70
    32
  0
VERTEX
  8
0
  5
E1A8
 10
-388.177
 20
839.056
 30
0.000000
  70
    32
  0
VERTEX
  8
0
  5
E1A9
 10
-388.175
 20
839.054
 30
0.000000
  70
    32
  0
VERTEX
  8
0
  5
E1AA
 10
-388.173
 20
839.052
 30
0.000000
  70
    32
  0
VERTEX
  8
0
  5
E1AB
 10
-388.171
 20
839.050
 30
0.000000
  70
    32
  0
VERTEX
  8
0
  5
E1AC
 10
-388.169
 20
839.049
 30
0.000000
  70
    32
  0
VERTEX
  8
0
  5
E1AD
 10
-388.167
 20
839.047
 30
0.000000
  70
    32
  0
VERTEX
  8
0
  5
E1AE
 10
-388.165
 20
839.045
 30
0.000000
  70
    32
  0
VERTEX
  8
0
  5
E1AF
 10
-388.163
 20
839.043
 30
0.000000
  70
    32
  0
VERTEX
  8
0
  5
E1B0
 10
-388.161
 20
839.041
 30
0.000000
  70
    32
  0
VERTEX
  8
0
  5
E1B1
 10
-388.159
 20
839.039
 30
0.000000
  70
    32
  0
VERTEX
  8
0
  5
E1B2
 10
-388.158
 20
839.037
 30
0.000000
  70
    32
  0
VERTEX
  8
0
  5
E1B3
 10
-388.156
 20
839.035
 30
0.000000
  70
    32
  0
VERTEX
  8
0
  5
E1B4
 10
-388.154
 20
839.033
 30
0.000000
  70
    32
  0
VERTEX
  8
0
  5
E1B5
 10
-388.152
 20
839.031
 30
0.000000
  70
    32
  0
VERTEX
  8
0
  5
E1B6
 10
-388.151
 20
839.029
 30
0.000000
  70
    32
  0
VERTEX
  8
0
  5
E1B7
 10
-388.149
 20
839.027
 30
0.000000
  70
    32
  0
VERTEX
  8
0
  5
E1B8
 10
-388.147
 20
839.025
 30
0.000000
  70
    32
  0
VERTEX
  8
0
  5
E1B9
 10
-388.146
 20
839.023
 30
0.000000
  70
    32
  0
VERTEX
  8
0
  5
E1BA
 10
-388.144
 20
839.020
 30
0.000000
  70
    32
  0
VERTEX
  8
0
  5
E1BB
 10
-388.143
 20
839.018
 30
0.000000
  70
    32
  0
VERTEX
  8
0
  5
E1BC
 10
-388.141
 20
839.016
 30
0.000000
  70
    32
  0
VERTEX
  8
0
  5
E1BD
 10
-388.140
 20
839.014
 30
0.000000
  70
    32
  0
VERTEX
  8
0
  5
E1BE
 10
-388.138
 20
839.011
 30
0.000000
  70
    32
  0
VERTEX
  8
0
  5
E1BF
 10
-388.137
 20
839.009
 30
0.000000
  70
    32
  0
VERTEX
  8
0
  5
E1C0
 10
-388.136
 20
839.006
 30
0.000000
  70
    32
  0
VERTEX
  8
0
  5
E1C1
 10
-388.134
 20
839.004
 30
0.000000
  70
    32
  0
VERTEX
  8
0
  5
E1C2
 10
-388.133
 20
839.002
 30
0.000000
  70
    32
  0
VERTEX
  8
0
  5
E1C3
 10
-388.132
 20
838.999
 30
0.000000
  70
    32
  0
VERTEX
  8
0
  5
E1C4
 10
-388.130
 20
838.997
 30
0.000000
  70
    32
  0
VERTEX
  8
0
  5
E1C5
 10
-388.129
 20
838.994
 30
0.000000
  70
    32
  0
VERTEX
  8
0
  5
E1C6
 10
-388.128
 20
838.992
 30
0.000000
  70
    32
  0
VERTEX
  8
0
  5
E1C7
 10
-388.127
 20
838.989
 30
0.000000
  70
    32
  0
VERTEX
  8
0
  5
E1C8
 10
-388.126
 20
838.987
 30
0.000000
  70
    32
  0
VERTEX
  8
0
  5
E1C9
 10
-388.125
 20
838.984
 30
0.000000
  70
    32
  0
VERTEX
  8
0
  5
E1CA
 10
-388.124
 20
838.982
 30
0.000000
  70
    32
  0
VERTEX
  8
0
  5
E1CB
 10
-388.123
 20
838.979
 30
0.000000
  70
    32
  0
VERTEX
  8
0
  5
E1CC
 10
-388.122
 20
838.976
 30
0.000000
  70
    32
  0
VERTEX
  8
0
  5
E1CD
 10
-388.121
 20
838.974
 30
0.000000
  70
    32
  0
VERTEX
  8
0
  5
E1CE
 10
-388.120
 20
838.971
 30
0.000000
  70
    32
  0
VERTEX
  8
0
  5
E1CF
 10
-388.120
 20
838.969
 30
0.000000
  70
    32
  0
VERTEX
  8
0
  5
E1D0
 10
-388.119
 20
838.966
 30
0.000000
  70
    32
  0
VERTEX
  8
0
  5
E1D1
 10
-388.118
 20
838.963
 30
0.000000
  70
    32
  0
VERTEX
  8
0
  5
E1D2
 10
-388.118
 20
838.961
 30
0.000000
  70
    32
  0
VERTEX
  8
0
  5
E1D3
 10
-388.117
 20
838.958
 30
0.000000
  70
    32
  0
VERTEX
  8
0
  5
E1D4
 10
-388.116
 20
838.955
 30
0.000000
  70
    32
  0
VERTEX
  8
0
  5
E1D5
 10
-388.116
 20
838.953
 30
0.000000
  70
    32
  0
VERTEX
  8
0
  5
E1D6
 10
-388.115
 20
838.950
 30
0.000000
  70
    32
  0
VERTEX
  8
0
  5
E1D7
 10
-388.115
 20
838.947
 30
0.000000
  70
    32
  0
VERTEX
  8
0
  5
E1D8
 10
-388.114
 20
838.945
 30
0.000000
  70
    32
  0
VERTEX
  8
0
  5
E1D9
 10
-388.114
 20
838.942
 30
0.000000
  70
    32
  0
VERTEX
  8
0
  5
E1DA
 10
-388.114
 20
838.939
 30
0.000000
  70
    32
  0
VERTEX
  8
0
  5
E1DB
 10
-388.113
 20
838.936
 30
0.000000
  70
    32
  0
VERTEX
  8
0
  5
E1DC
 10
-388.113
 20
838.934
 30
0.000000
  70
    32
  0
VERTEX
  8
0
  5
E1DD
 10
-388.113
 20
838.931
 30
0.000000
  70
    32
  0
VERTEX
  8
0
  5
E1DE
 10
-388.113
 20
838.928
 30
0.000000
  70
    32
  0
VERTEX
  8
0
  5
E1DF
 10
-388.112
 20
838.926
 30
0.000000
  70
    32
  0
VERTEX
  8
0
  5
E1E0
 10
-388.112
 20
838.923
 30
0.000000
  70
    32
  0
VERTEX
  8
0
  5
E1E1
 10
-388.112
 20
838.920
 30
0.000000
  70
    32
  0
VERTEX
  8
0
  5
E1E2
 10
-388.112
 20
838.917
 30
0.000000
  70
    32
  0
VERTEX
  8
0
  5
E1E3
 10
-388.112
 20
838.915
 30
0.000000
  70
    32
  0
VERTEX
  8
0
  5
E1E4
 10
-388.112
 20
838.912
 30
0.000000
  70
    32
  0
VERTEX
  8
0
  5
E1E5
 10
-388.112
 20
838.909
 30
0.000000
  70
    32
  0
VERTEX
  8
0
  5
E1E6
 10
-388.112
 20
838.907
 30
0.000000
  70
    32
  0
VERTEX
  8
0
  5
E1E7
 10
-388.113
 20
838.904
 30
0.000000
  70
    32
  0
VERTEX
  8
0
  5
E1E8
 10
-388.113
 20
838.901
 30
0.000000
  70
    32
  0
VERTEX
  8
0
  5
E1E9
 10
-388.113
 20
838.899
 30
0.000000
  70
    32
  0
VERTEX
  8
0
  5
E1EA
 10
-388.113
 20
838.896
 30
0.000000
  70
    32
  0
VERTEX
  8
0
  5
E1EB
 10
-388.114
 20
838.894
 30
0.000000
  70
    32
  0
VERTEX
  8
0
  5
E1EC
 10
-388.114
 20
838.891
 30
0.000000
  70
    32
  0
VERTEX
  8
0
  5
E1ED
 10
-388.114
 20
838.888
 30
0.000000
  70
    32
  0
VERTEX
  8
0
  5
E1EE
 10
-388.115
 20
838.886
 30
0.000000
  70
    32
  0
VERTEX
  8
0
  5
E1EF
 10
-388.115
 20
838.883
 30
0.000000
  70
    32
  0
VERTEX
  8
0
  5
E1F0
 10
-388.116
 20
838.881
 30
0.000000
  70
    32
  0
VERTEX
  8
0
  5
E1F1
 10
-388.117
 20
838.878
 30
0.000000
  70
    32
  0
VERTEX
  8
0
  5
E1F2
 10
-388.117
 20
838.876
 30
0.000000
  70
    32
  0
VERTEX
  8
0
  5
E1F3
 10
-388.118
 20
838.873
 30
0.000000
  70
    32
  0
VERTEX
  8
0
  5
E1F4
 10
-388.119
 20
838.871
 30
0.000000
  70
    32
  0
VERTEX
  8
0
  5
E1F5
 10
-388.119
 20
838.868
 30
0.000000
  70
    32
  0
VERTEX
  8
0
  5
E1F6
 10
-388.120
 20
838.866
 30
0.000000
  70
    32
  0
VERTEX
  8
0
  5
E1F7
 10
-388.121
 20
838.863
 30
0.000000
  70
    32
  0
VERTEX
  8
0
  5
E1F8
 10
-388.122
 20
838.861
 30
0.000000
  70
    32
  0
VERTEX
  8
0
  5
E1F9
 10
-388.123
 20
838.858
 30
0.000000
  70
    32
  0
VERTEX
  8
0
  5
E1FA
 10
-388.124
 20
838.856
 30
0.000000
  70
    32
  0
VERTEX
  8
0
  5
E1FB
 10
-388.125
 20
838.854
 30
0.000000
  70
    32
  0
VERTEX
  8
0
  5
E1FC
 10
-388.126
 20
838.851
 30
0.000000
  70
    32
  0
VERTEX
  8
0
  5
E1FD
 10
-388.127
 20
838.849
 30
0.000000
  70
    32
  0
VERTEX
  8
0
  5
E1FE
 10
-388.128
 20
838.847
 30
0.000000
  70
    32
  0
VERTEX
  8
0
  5
E1FF
 10
-388.129
 20
838.845
 30
0.000000
  70
    32
  0
VERTEX
  8
0
  5
E200
 10
-388.130
 20
838.842
 30
0.000000
  70
    32
  0
VERTEX
  8
0
  5
E201
 10
-388.131
 20
838.840
 30
0.000000
  70
    32
  0
VERTEX
  8
0
  5
E202
 10
-388.133
 20
838.838
 30
0.000000
  70
    32
  0
VERTEX
  8
0
  5
E203
 10
-388.134
 20
838.836
 30
0.000000
  70
    32
  0
VERTEX
  8
0
  5
E204
 10
-388.135
 20
838.834
 30
0.000000
  70
    32
  0
VERTEX
  8
0
  5
E205
 10
-388.137
 20
838.832
 30
0.000000
  70
    32
  0
VERTEX
  8
0
  5
E206
 10
-388.138
 20
838.829
 30
0.000000
  70
    32
  0
VERTEX
  8
0
  5
E207
 10
-388.140
 20
838.827
 30
0.000000
  70
    32
  0
VERTEX
  8
0
  5
E208
 10
-388.141
 20
838.825
 30
0.000000
  70
    32
  0
VERTEX
  8
0
  5
E209
 10
-388.142
 20
838.823
 30
0.000000
  70
    32
  0
VERTEX
  8
0
  5
E20A
 10
-388.144
 20
838.821
 30
0.000000
  70
    32
  0
VERTEX
  8
0
  5
E20B
 10
-388.146
 20
838.819
 30
0.000000
  70
    32
  0
VERTEX
  8
0
  5
E20C
 10
-388.147
 20
838.817
 30
0.000000
  70
    32
  0
VERTEX
  8
0
  5
E20D
 10
-388.149
 20
838.815
 30
0.000000
  70
    32
  0
VERTEX
  8
0
  5
E20E
 10
-388.150
 20
838.813
 30
0.000000
  70
    32
  0
VERTEX
  8
0
  5
E20F
 10
-388.152
 20
838.811
 30
0.000000
  70
    32
  0
VERTEX
  8
0
  5
E210
 10
-388.154
 20
838.809
 30
0.000000
  70
    32
  0
VERTEX
  8
0
  5
E211
 10
-388.155
 20
838.807
 30
0.000000
  70
    32
  0
VERTEX
  8
0
  5
E212
 10
-388.157
 20
838.805
 30
0.000000
  70
    32
  0
VERTEX
  8
0
  5
E213
 10
-388.159
 20
838.803
 30
0.000000
  70
    32
  0
VERTEX
  8
0
  5
E214
 10
-388.161
 20
838.801
 30
0.000000
  70
    32
  0
VERTEX
  8
0
  5
E215
 10
-388.162
 20
838.800
 30
0.000000
  70
    32
  0
VERTEX
  8
0
  5
E216
 10
-388.164
 20
838.798
 30
0.000000
  70
    32
  0
VERTEX
  8
0
  5
E217
 10
-388.166
 20
838.796
 30
0.000000
  70
    32
  0
VERTEX
  8
0
  5
E218
 10
-388.168
 20
838.794
 30
0.000000
  70
    32
  0
VERTEX
  8
0
  5
E219
 10
-388.170
 20
838.792
 30
0.000000
  70
    32
  0
VERTEX
  8
0
  5
E21A
 10
-388.172
 20
838.790
 30
0.000000
  70
    32
  0
VERTEX
  8
0
  5
E21B
 10
-388.174
 20
838.788
 30
0.000000
  70
    32
  0
VERTEX
  8
0
  5
E21C
 10
-388.176
 20
838.787
 30
0.000000
  70
    32
  0
VERTEX
  8
0
  5
E21D
 10
-388.177
 20
838.785
 30
0.000000
  70
    32
  0
VERTEX
  8
0
  5
E21E
 10
-388.179
 20
838.783
 30
0.000000
  70
    32
  0
VERTEX
  8
0
  5
E21F
 10
-388.181
 20
838.781
 30
0.000000
  70
    32
  0
VERTEX
  8
0
  5
E220
 10
-388.183
 20
838.779
 30
0.000000
  70
    32
  0
VERTEX
  8
0
  5
E221
 10
-388.185
 20
838.777
 30
0.000000
  70
    32
  0
VERTEX
  8
0
  5
E222
 10
-388.187
 20
838.776
 30
0.000000
  70
    32
  0
VERTEX
  8
0
  5
E223
 10
-388.189
 20
838.774
 30
0.000000
  70
    32
  0
VERTEX
  8
0
  5
E224
 10
-388.191
 20
838.772
 30
0.000000
  70
    32
  0
VERTEX
  8
0
  5
E225
 10
-388.193
 20
838.770
 30
0.000000
  70
    32
  0
VERTEX
  8
0
  5
E226
 10
-388.195
 20
838.768
 30
0.000000
  70
    32
  0
VERTEX
  8
0
  5
E227
 10
-388.197
 20
838.767
 30
0.000000
  70
    32
  0
VERTEX
  8
0
  5
E228
 10
-388.199
 20
838.765
 30
0.000000
  70
    32
  0
VERTEX
  8
0
  5
E229
 10
-388.201
 20
838.763
 30
0.000000
  70
    32
  0
VERTEX
  8
0
  5
E22A
 10
-388.203
 20
838.761
 30
0.000000
  70
    32
  0
VERTEX
  8
0
  5
E22B
 10
-388.206
 20
838.760
 30
0.000000
  70
    32
  0
VERTEX
  8
0
  5
E22C
 10
-388.208
 20
838.758
 30
0.000000
  70
    32
  0
VERTEX
  8
0
  5
E22D
 10
-388.210
 20
838.756
 30
0.000000
  70
    32
  0
VERTEX
  8
0
  5
E22E
 10
-388.212
 20
838.754
 30
0.000000
  70
    32
  0
VERTEX
  8
0
  5
E22F
 10
-388.214
 20
838.752
 30
0.000000
  70
    32
  0
VERTEX
  8
0
  5
E230
 10
-388.216
 20
838.751
 30
0.000000
  70
    32
  0
VERTEX
  8
0
  5
E231
 10
-388.218
 20
838.749
 30
0.000000
  70
    32
  0
VERTEX
  8
0
  5
E232
 10
-388.220
 20
838.747
 30
0.000000
  70
    32
  0
VERTEX
  8
0
  5
E233
 10
-388.222
 20
838.745
 30
0.000000
  70
    32
  0
VERTEX
  8
0
  5
E234
 10
-388.224
 20
838.744
 30
0.000000
  70
    32
  0
VERTEX
  8
0
  5
E235
 10
-388.226
 20
838.742
 30
0.000000
  70
    32
  0
VERTEX
  8
0
  5
E236
 10
-388.228
 20
838.740
 30
0.000000
  70
    32
  0
VERTEX
  8
0
  5
E237
 10
-388.230
 20
838.738
 30
0.000000
  70
    32
  0
VERTEX
  8
0
  5
E238
 10
-388.232
 20
838.736
 30
0.000000
  70
    32
  0
VERTEX
  8
0
  5
E239
 10
-388.234
 20
838.735
 30
0.000000
  70
    32
  0
VERTEX
  8
0
  5
E23A
 10
-388.236
 20
838.733
 30
0.000000
  70
    32
  0
VERTEX
  8
0
  5
E23B
 10
-388.238
 20
838.731
 30
0.000000
  70
    32
  0
VERTEX
  8
0
  5
E23C
 10
-388.240
 20
838.729
 30
0.000000
  70
    32
  0
VERTEX
  8
0
  5
E23D
 10
-388.242
 20
838.727
 30
0.000000
  70
    32
  0
VERTEX
  8
0
  5
E23E
 10
-388.244
 20
838.725
 30
0.000000
  70
    32
  0
VERTEX
  8
0
  5
E23F
 10
-388.246
 20
838.724
 30
0.000000
  70
    32
  0
VERTEX
  8
0
  5
E240
 10
-388.248
 20
838.722
 30
0.000000
  70
    32
  0
VERTEX
  8
0
  5
E241
 10
-388.250
 20
838.720
 30
0.000000
  70
    32
  0
VERTEX
  8
0
  5
E242
 10
-388.252
 20
838.718
 30
0.000000
  70
    32
  0
VERTEX
  8
0
  5
E243
 10
-388.254
 20
838.716
 30
0.000000
  70
    32
  0
VERTEX
  8
0
  5
E244
 10
-388.255
 20
838.714
 30
0.000000
  70
    32
  0
VERTEX
  8
0
  5
E245
 10
-388.257
 20
838.712
 30
0.000000
  70
    32
  0
VERTEX
  8
0
  5
E246
 10
-388.259
 20
838.710
 30
0.000000
  70
    32
  0
VERTEX
  8
0
  5
E247
 10
-388.261
 20
838.708
 30
0.000000
  70
    32
  0
VERTEX
  8
0
  5
E248
 10
-388.263
 20
838.706
 30
0.000000
  70
    32
  0
VERTEX
  8
0
  5
E249
 10
-388.265
 20
838.704
 30
0.000000
  70
    32
  0
VERTEX
  8
0
  5
E24A
 10
-388.266
 20
838.703
 30
0.000000
  70
    32
  0
VERTEX
  8
0
  5
E24B
 10
-388.268
 20
838.701
 30
0.000000
  70
    32
  0
VERTEX
  8
0
  5
E24C
 10
-388.270
 20
838.699
 30
0.000000
  70
    32
  0
VERTEX
  8
0
  5
E24D
 10
-388.271
 20
838.697
 30
0.000000
  70
    32
  0
VERTEX
  8
0
  5
E24E
 10
-388.273
 20
838.695
 30
0.000000
  70
    32
  0
VERTEX
  8
0
  5
E24F
 10
-388.275
 20
838.693
 30
0.000000
  70
    32
  0
VERTEX
  8
0
  5
E250
 10
-388.277
 20
838.691
 30
0.000000
  70
    32
  0
VERTEX
  8
0
  5
E251
 10
-388.278
 20
838.688
 30
0.000000
  70
    32
  0
VERTEX
  8
0
  5
E252
 10
-388.280
 20
838.686
 30
0.000000
  70
    32
  0
VERTEX
  8
0
  5
E253
 10
-388.282
 20
838.684
 30
0.000000
  70
    32
  0
VERTEX
  8
0
  5
E254
 10
-388.283
 20
838.682
 30
0.000000
  70
    32
  0
VERTEX
  8
0
  5
E255
 10
-388.285
 20
838.680
 30
0.000000
  70
    32
  0
VERTEX
  8
0
  5
E256
 10
-388.286
 20
838.678
 30
0.000000
  70
    32
  0
VERTEX
  8
0
  5
E257
 10
-388.288
 20
838.676
 30
0.000000
  70
    32
  0
VERTEX
  8
0
  5
E258
 10
-388.289
 20
838.674
 30
0.000000
  70
    32
  0
VERTEX
  8
0
  5
E259
 10
-388.291
 20
838.672
 30
0.000000
  70
    32
  0
VERTEX
  8
0
  5
E25A
 10
-388.293
 20
838.670
 30
0.000000
  70
    32
  0
VERTEX
  8
0
  5
E25B
 10
-388.294
 20
838.668
 30
0.000000
  70
    32
  0
VERTEX
  8
0
  5
E25C
 10
-388.296
 20
838.666
 30
0.000000
  70
    32
  0
VERTEX
  8
0
  5
E25D
 10
-388.297
 20
838.663
 30
0.000000
  70
    32
  0
VERTEX
  8
0
  5
E25E
 10
-388.299
 20
838.661
 30
0.000000
  70
    32
  0
VERTEX
  8
0
  5
E25F
 10
-388.300
 20
838.659
 30
0.000000
  70
    32
  0
VERTEX
  8
0
  5
E260
 10
-388.302
 20
838.657
 30
0.000000
  70
    32
  0
VERTEX
  8
0
  5
E261
 10
-388.303
 20
838.655
 30
0.000000
  70
    32
  0
VERTEX
  8
0
  5
E262
 10
-388.304
 20
838.653
 30
0.000000
  70
    32
  0
VERTEX
  8
0
  5
E263
 10
-388.306
 20
838.650
 30
0.000000
  70
    32
  0
VERTEX
  8
0
  5
E264
 10
-388.307
 20
838.648
 30
0.000000
  70
    32
  0
VERTEX
  8
0
  5
E265
 10
-388.309
 20
838.646
 30
0.000000
  70
    32
  0
VERTEX
  8
0
  5
E266
 10
-388.310
 20
838.644
 30
0.000000
  70
    32
  0
VERTEX
  8
0
  5
E267
 10
-388.312
 20
838.642
 30
0.000000
  70
    32
  0
VERTEX
  8
0
  5
E268
 10
-388.313
 20
838.639
 30
0.000000
  70
    32
  0
VERTEX
  8
0
  5
E269
 10
-388.314
 20
838.637
 30
0.000000
  70
    32
  0
VERTEX
  8
0
  5
E26A
 10
-388.316
 20
838.635
 30
0.000000
  70
    32
  0
VERTEX
  8
0
  5
E26B
 10
-388.317
 20
838.633
 30
0.000000
  70
    32
  0
VERTEX
  8
0
  5
E26C
 10
-388.318
 20
838.631
 30
0.000000
  70
    32
  0
VERTEX
  8
0
  5
E26D
 10
-388.320
 20
838.628
 30
0.000000
  70
    32
  0
VERTEX
  8
0
  5
E26E
 10
-388.321
 20
838.626
 30
0.000000
  70
    32
  0
VERTEX
  8
0
  5
E26F
 10
-388.322
 20
838.624
 30
0.000000
  70
    32
  0
VERTEX
  8
0
  5
E270
 10
-388.324
 20
838.621
 30
0.000000
  70
    32
  0
VERTEX
  8
0
  5
E271
 10
-388.325
 20
838.619
 30
0.000000
  70
    32
  0
VERTEX
  8
0
  5
E272
 10
-388.326
 20
838.617
 30
0.000000
  70
    32
  0
VERTEX
  8
0
  5
E273
 10
-388.328
 20
838.615
 30
0.000000
  70
    32
  0
VERTEX
  8
0
  5
E274
 10
-388.329
 20
838.612
 30
0.000000
  70
    32
  0
VERTEX
  8
0
  5
E275
 10
-388.330
 20
838.610
 30
0.000000
  70
    32
  0
VERTEX
  8
0
  5
E276
 10
-388.331
 20
838.608
 30
0.000000
  70
    32
  0
VERTEX
  8
0
  5
E277
 10
-388.333
 20
838.606
 30
0.000000
  70
    32
  0
VERTEX
  8
0
  5
E278
 10
-388.334
 20
838.603
 30
0.000000
  70
    32
  0
VERTEX
  8
0
  5
E279
 10
-388.335
 20
838.601
 30
0.000000
  70
    32
  0
VERTEX
  8
0
  5
E27A
 10
-388.336
 20
838.599
 30
0.000000
  70
    32
  0
VERTEX
  8
0
  5
E27B
 10
-388.338
 20
838.596
 30
0.000000
  70
    32
  0
VERTEX
  8
0
  5
E27C
 10
-388.339
 20
838.594
 30
0.000000
  70
    32
  0
VERTEX
  8
0
  5
E27D
 10
-388.340
 20
838.592
 30
0.000000
  70
    32
  0
VERTEX
  8
0
  5
E27E
 10
-388.341
 20
838.589
 30
0.000000
  70
    32
  0
VERTEX
  8
0
  5
E27F
 10
-388.343
 20
838.587
 30
0.000000
  70
    32
  0
VERTEX
  8
0
  5
E280
 10
-388.344
 20
838.585
 30
0.000000
  70
    32
  0
VERTEX
  8
0
  5
E281
 10
-388.345
 20
838.582
 30
0.000000
  70
    32
  0
VERTEX
  8
0
  5
E282
 10
-388.346
 20
838.580
 30
0.000000
  70
    32
  0
VERTEX
  8
0
  5
E283
 10
-388.347
 20
838.578
 30
0.000000
  70
    32
  0
VERTEX
  8
0
  5
E284
 10
-388.349
 20
838.575
 30
0.000000
  70
    32
  0
VERTEX
  8
0
  5
E285
 10
-388.350
 20
838.573
 30
0.000000
  70
    32
  0
VERTEX
  8
0
  5
E286
 10
-388.351
 20
838.571
 30
0.000000
  70
    32
  0
VERTEX
  8
0
  5
E287
 10
-388.352
 20
838.568
 30
0.000000
  70
    32
  0
VERTEX
  8
0
  5
E288
 10
-388.353
 20
838.566
 30
0.000000
  70
    32
  0
VERTEX
  8
0
  5
E289
 10
-388.355
 20
838.563
 30
0.000000
  70
    32
  0
VERTEX
  8
0
  5
E28A
 10
-388.356
 20
838.561
 30
0.000000
  70
    32
  0
VERTEX
  8
0
  5
E28B
 10
-388.357
 20
838.559
 30
0.000000
  70
    32
  0
VERTEX
  8
0
  5
E28C
 10
-388.358
 20
838.556
 30
0.000000
  70
    32
  0
VERTEX
  8
0
  5
E28D
 10
-388.359
 20
838.554
 30
0.000000
  70
    32
  0
VERTEX
  8
0
  5
E28E
 10
-388.360
 20
838.552
 30
0.000000
  70
    32
  0
VERTEX
  8
0
  5
E28F
 10
-388.361
 20
838.549
 30
0.000000
  70
    32
  0
VERTEX
  8
0
  5
E290
 10
-388.363
 20
838.547
 30
0.000000
  70
    32
  0
VERTEX
  8
0
  5
E291
 10
-388.364
 20
838.544
 30
0.000000
  70
    32
  0
VERTEX
  8
0
  5
E292
 10
-388.365
 20
838.542
 30
0.000000
  70
    32
  0
VERTEX
  8
0
  5
E293
 10
-388.366
 20
838.540
 30
0.000000
  70
    32
  0
VERTEX
  8
0
  5
E294
 10
-388.367
 20
838.537
 30
0.000000
  70
    32
  0
VERTEX
  8
0
  5
E295
 10
-388.368
 20
838.535
 30
0.000000
  70
    32
  0
VERTEX
  8
0
  5
E296
 10
-388.369
 20
838.532
 30
0.000000
  70
    32
  0
VERTEX
  8
0
  5
E297
 10
-388.370
 20
838.530
 30
0.000000
  70
    32
  0
VERTEX
  8
0
  5
E298
 10
-388.371
 20
838.527
 30
0.000000
  70
    32
  0
VERTEX
  8
0
  5
E299
 10
-388.372
 20
838.525
 30
0.000000
  70
    32
  0
VERTEX
  8
0
  5
E29A
 10
-388.373
 20
838.523
 30
0.000000
  70
    32
  0
VERTEX
  8
0
  5
E29B
 10
-388.374
 20
838.520
 30
0.000000
  70
    32
  0
VERTEX
  8
0
  5
E29C
 10
-388.375
 20
838.518
 30
0.000000
  70
    32
  0
VERTEX
  8
0
  5
E29D
 10
-388.376
 20
838.515
 30
0.000000
  70
    32
  0
VERTEX
  8
0
  5
E29E
 10
-388.377
 20
838.513
 30
0.000000
  70
    32
  0
VERTEX
  8
0
  5
E29F
 10
-388.378
 20
838.510
 30
0.000000
  70
    32
  0
VERTEX
  8
0
  5
E2A0
 10
-388.379
 20
838.508
 30
0.000000
  70
    32
  0
VERTEX
  8
0
  5
E2A1
 10
-388.380
 20
838.506
 30
0.000000
  70
    32
  0
VERTEX
  8
0
  5
E2A2
 10
-388.381
 20
838.503
 30
0.000000
  70
    32
  0
VERTEX
  8
0
  5
E2A3
 10
-388.382
 20
838.501
 30
0.000000
  70
    32
  0
VERTEX
  8
0
  5
E2A4
 10
-388.383
 20
838.498
 30
0.000000
  70
    32
  0
VERTEX
  8
0
  5
E2A5
 10
-388.384
 20
838.496
 30
0.000000
  70
    32
  0
VERTEX
  8
0
  5
E2A6
 10
-388.385
 20
838.493
 30
0.000000
  70
    32
  0
VERTEX
  8
0
  5
E2A7
 10
-388.386
 20
838.491
 30
0.000000
  70
    32
  0
VERTEX
  8
0
  5
E2A8
 10
-388.386
 20
838.488
 30
0.000000
  70
    32
  0
VERTEX
  8
0
  5
E2A9
 10
-388.387
 20
838.486
 30
0.000000
  70
    32
  0
VERTEX
  8
0
  5
E2AA
 10
-388.388
 20
838.483
 30
0.000000
  70
    32
  0
VERTEX
  8
0
  5
E2AB
 10
-388.389
 20
838.481
 30
0.000000
  70
    32
  0
VERTEX
  8
0
  5
E2AC
 10
-388.390
 20
838.478
 30
0.000000
  70
    32
  0
VERTEX
  8
0
  5
E2AD
 10
-388.391
 20
838.476
 30
0.000000
  70
    32
  0
VERTEX
  8
0
  5
E2AE
 10
-388.391
 20
838.473
 30
0.000000
  70
    32
  0
VERTEX
  8
0
  5
E2AF
 10
-388.392
 20
838.471
 30
0.000000
  70
    32
  0
VERTEX
  8
0
  5
E2B0
 10
-388.393
 20
838.468
 30
0.000000
  70
    32
  0
VERTEX
  8
0
  5
E2B1
 10
-388.394
 20
838.466
 30
0.000000
  70
    32
  0
VERTEX
  8
0
  5
E2B2
 10
-388.394
 20
838.463
 30
0.000000
  70
    32
  0
VERTEX
  8
0
  5
E2B3
 10
-388.395
 20
838.461
 30
0.000000
  70
    32
  0
VERTEX
  8
0
  5
E2B4
 10
-388.396
 20
838.458
 30
0.000000
  70
    32
  0
VERTEX
  8
0
  5
E2B5
 10
-388.397
 20
838.456
 30
0.000000
  70
    32
  0
VERTEX
  8
0
  5
E2B6
 10
-388.397
 20
838.453
 30
0.000000
  70
    32
  0
VERTEX
  8
0
  5
E2B7
 10
-388.398
 20
838.451
 30
0.000000
  70
    32
  0
VERTEX
  8
0
  5
E2B8
 10
-388.399
 20
838.448
 30
0.000000
  70
    32
  0
VERTEX
  8
0
  5
E2B9
 10
-388.399
 20
838.446
 30
0.000000
  70
    32
  0
VERTEX
  8
0
  5
E2BA
 10
-388.400
 20
838.443
 30
0.000000
  70
    32
  0
VERTEX
  8
0
  5
E2BB
 10
-388.400
 20
838.440
 30
0.000000
  70
    32
  0
VERTEX
  8
0
  5
E2BC
 10
-388.401
 20
838.438
 30
0.000000
  70
    32
  0
VERTEX
  8
0
  5
E2BD
 10
-388.402
 20
838.435
 30
0.000000
  70
    32
  0
VERTEX
  8
0
  5
E2BE
 10
-388.402
 20
838.433
 30
0.000000
  70
    32
  0
VERTEX
  8
0
  5
E2BF
 10
-388.403
 20
838.430
 30
0.000000
  70
    32
  0
VERTEX
  8
0
  5
E2C0
 10
-388.403
 20
838.428
 30
0.000000
  70
    32
  0
VERTEX
  8
0
  5
E2C1
 10
-388.404
 20
838.425
 30
0.000000
  70
    32
  0
VERTEX
  8
0
  5
E2C2
 10
-388.404
 20
838.423
 30
0.000000
  70
    32
  0
VERTEX
  8
0
  5
E2C3
 10
-388.405
 20
838.420
 30
0.000000
  70
    32
  0
VERTEX
  8
0
  5
E2C4
 10
-388.405
 20
838.417
 30
0.000000
  70
    32
  0
VERTEX
  8
0
  5
E2C5
 10
-388.406
 20
838.415
 30
0.000000
  70
    32
  0
VERTEX
  8
0
  5
E2C6
 10
-388.406
 20
838.412
 30
0.000000
  70
    32
  0
VERTEX
  8
0
  5
E2C7
 10
-388.406
 20
838.410
 30
0.000000
  70
    32
  0
VERTEX
  8
0
  5
E2C8
 10
-388.407
 20
838.407
 30
0.000000
  70
    32
  0
VERTEX
  8
0
  5
E2C9
 10
-388.407
 20
838.405
 30
0.000000
  70
    32
  0
VERTEX
  8
0
  5
E2CA
 10
-388.408
 20
838.402
 30
0.000000
  70
    32
  0
SEQEND
  8
0
  5
E2CB
  0
INSERT
  5
DE80
  8
0
  2
*U98
 10
0.0
 20
0.0
 30
0.0
  0
VIEWPORT
  5
BADA
 67
     1
  8
0
 10
5.2498666443542197
 20
4.0168606514874199
 30
0.0
 40
16.259611459837419
 41
8.0159429045697088
 68
     1
 69
     1
1001
ACAD
1000
MVIEW
1002
{
1070
    16
1010
0.0
1020
0.0
1030
0.0
1010
0.0
1020
0.0
1030
1.0
1040
0.0
1040
8.0159429045697088
1040
5.2498666443542197
1040
4.0168606514874199
1040
50.0
1040
0.0
1040
0.0
1070
     0
1070
   100
1070
     1
1070
     1
1070
     0
1070
     0
1070
     0
1070
     0
1040
0.0
1040
0.0
1040
0.0
1040
0.5
1040
0.5
1040
0.5
1040
0.5
1070
     0
1002
{
1002
}
1002
}
  0
VIEWPORT
  5
BADD
 67
     1
  8
0
 10
5.249999629487192
 20
4.0166741807634683
 30
0.0
 40
10.44245679893058
 41
7.8813805131999892
 68
     2
 69
     2
1001
ACAD
1000
MVIEW
1002
{
1070
    16
1010
0.0
1020
0.0
1030
0.0
1010
0.0
1020
0.0
1030
1.0
1040
0.0
1040
7.8813805131999892
1040
-387.7689582771269
1040
838.57879471859985
1040
50.0
1040
0.0
1040
0.0
1070
     0
1070
   100
1070
     1
1070
     2
1070
     0
1070
     0
1070
     0
1070
     0
1040
0.0
1040
0.0
1040
0.0
1040
0.5
1040
0.5
1040
0.5
1040
0.5
1070
     0
1002
{
1002
}
1002
}
  0
ENDSEC
  0
EOF
