  0
SECTION
  2
HEADER
  9
$ACADVER
  1
AC1009
  9
$INSBASE
 10
0.0
 20
0.0
 30
0.0
  9
$EXTMIN
 10
-386.01102770566717
 20
839.28825684782919
 30
0.0
  9
$EXTMAX
 10
-383.31466590329438
 20
844.16358815987928
 30
0.0
  9
$LIMMIN
 10
0.0
 20
0.0
  9
$LIMMAX
 10
1500.0
 20
1500.0
  9
$ORTHOMODE
 70
     0
  9
$REGENMODE
 70
     1
  9
$FILLMODE
 70
     1
  9
$QTEXTMODE
 70
     0
  9
$MIRRTEXT
 70
     1
  9
$DRAGMODE
 70
     2
  9
$LTSCALE
 40
1.0
  9
$OSMODE
 70
    63
  9
$ATTMODE
 70
     1
  9
$TEXTSIZE
 40
1.5
  9
$TRACEWID
 40
0.05
  9
$TEXTSTYLE
  7
STANDARD
  9
$CLAYER
  8
0
  9
$CELTYPE
  6
BYLAYER
  9
$CECOLOR
 62
   256
  9
$DIMSCALE
 40
1.0
  9
$DIMASZ
 40
0.75
  9
$DIMEXO
 40
1.5
  9
$DIMDLI
 40
2.0
  9
$DIMRND
 40
0.0
  9
$DIMDLE
 40
0.0
  9
$DIMEXE
 40
1.0
  9
$DIMTP
 40
0.0
  9
$DIMTM
 40
0.0
  9
$DIMTXT
 40
1.5
  9
$DIMCEN
 40
2.0
  9
$DIMTSZ
 40
0.0
  9
$DIMTOL
 70
     0
  9
$DIMLIM
 70
     0
  9
$DIMTIH
 70
     0
  9
$DIMTOH
 70
     0
  9
$DIMSE1
 70
     0
  9
$DIMSE2
 70
     0
  9
$DIMTAD
 70
     1
  9
$DIMZIN
 70
     0
  9
$DIMBLK
  1
ARCHTICK
  9
$DIMASO
 70
     1
  9
$DIMSHO
 70
     1
  9
$DIMPOST
  1
"
  9
$DIMAPOST
  1

  9
$DIMALT
 70
     0
  9
$DIMALTD
 70
     2
  9
$DIMALTF
 40
25.399999999999999
  9
$DIMLFAC
 40
1.0
  9
$DIMTOFL
 70
     0
  9
$DIMTVP
 40
0.0
  9
$DIMTIX
 70
     1
  9
$DIMSOXD
 70
     0
  9
$DIMSAH
 70
     0
  9
$DIMBLK1
  1

  9
$DIMBLK2
  1

  9
$DIMSTYLE
  2
THREE_QUARTER_INCH_SCALE
  9
$DIMCLRD
 70
     0
  9
$DIMCLRE
 70
     0
  9
$DIMCLRT
 70
     0
  9
$DIMTFAC
 40
1.0
  9
$DIMGAP
 40
1.0
  9
$LUNITS
 70
     2
  9
$LUPREC
 70
     4
  9
$SKETCHINC
 40
0.1
  9
$FILLETRAD
 40
0.0
  9
$AUNITS
 70
     0
  9
$AUPREC
 70
     0
  9
$MENU
  1
.
  9
$ELEVATION
 40
0.0
  9
$PELEVATION
 40
0.0
  9
$THICKNESS
 40
0.0
  9
$LIMCHECK
 70
     0
  9
$BLIPMODE
 70
     0
  9
$CHAMFERA
 40
0.5
  9
$CHAMFERB
 40
0.5
  9
$SKPOLY
 70
     0
  9
$TDCREATE
 40
2452089.395738773
  9
$TDUPDATE
 40
2453621.5174885192
  9
$TDINDWG
 40
1.0667571527999999
  9
$TDUSRTIMER
 40
1.0667571527999999
  9
$USRTIMER
 70
     1
  9
$ANGBASE
 50
0.0
  9
$ANGDIR
 70
     0
  9
$PDMODE
 70
     0
  9
$PDSIZE
 40
10.0
  9
$PLINEWID
 40
0.0
  9
$COORDS
 70
     0
  9
$SPLFRAME
 70
     0
  9
$SPLINETYPE
 70
     6
  9
$SPLINESEGS
 70
     8
  9
$ATTDIA
 70
     0
  9
$ATTREQ
 70
     1
  9
$HANDLING
 70
     1
  9
$HANDSEED
  5
FF9D
  9
$SURFTAB1
 70
     6
  9
$SURFTAB2
 70
     6
  9
$SURFTYPE
 70
     6
  9
$SURFU
 70
     6
  9
$SURFV
 70
     6
  9
$UCSNAME
  2

  9
$UCSORG
 10
0.0
 20
0.0
 30
0.0
  9
$UCSXDIR
 10
1.0
 20
0.0
 30
0.0
  9
$UCSYDIR
 10
0.0
 20
1.0
 30
0.0
  9
$PUCSNAME
  2

  9
$PUCSORG
 10
0.0
 20
0.0
 30
0.0
  9
$PUCSXDIR
 10
1.0
 20
0.0
 30
0.0
  9
$PUCSYDIR
 10
0.0
 20
1.0
 30
0.0
  9
$USERI1
 70
     0
  9
$USERI2
 70
     0
  9
$USERI3
 70
     0
  9
$USERI4
 70
     0
  9
$USERI5
 70
     0
  9
$USERR1
 40
0.0
  9
$USERR2
 40
0.0
  9
$USERR3
 40
0.0
  9
$USERR4
 40
0.0
  9
$USERR5
 40
0.0
  9
$WORLDVIEW
 70
     1
  9
$SHADEDGE
 70
     3
  9
$SHADEDIF
 70
    70
  9
$TILEMODE
 70
     0
  9
$MAXACTVP
 70
    64
  9
$PLIMCHECK
 70
     0
  9
$PEXTMIN
 10
0.0287712300219028
 20
0.0759839241634737
 30
0.0
  9
$PEXTMAX
 10
10.47122802895248
 20
7.957364437363462
 30
0.0
  9
$PLIMMIN
 10
-0.2500002402958907
 20
-0.2499999962453767
  9
$PLIMMAX
 10
10.74999951940821
 20
8.2499997634587316
  9
$UNITMODE
 70
     0
  9
$VISRETAIN
 70
     1
  9
$PLINEGEN
 70
     0
  9
$PSLTSCALE
 70
     1
  0
ENDSEC
  0
SECTION
  2
TABLES
  0
TABLE
  2
VPORT
 70
     1
  0
VPORT
  2
*ACTIVE
 70
     0
 10
0.0
 20
0.0
 11
1.0
 21
1.0
 12
-383.76179210246272
 22
841.63445400324417
 13
0.0
 23
0.0
 14
0.5
 24
0.5
 15
0.5
 25
0.5
 16
0.0
 26
0.0
 36
1.0
 17
0.0
 27
0.0
 37
0.0
 40
5.8678915797101583
 41
2.0226628895184131
 42
50.0
 43
0.0
 44
0.0
 50
0.0
 51
0.0
 71
     0
 72
   100
 73
     1
 74
     2
 75
     0
 76
     0
 77
     0
 78
     0
  0
ENDTAB
  0
TABLE
  2
LTYPE
 70
     1
  0
LTYPE
  2
CONTINUOUS
 70
     0
  3
Solid line
 72
    65
 73
     0
 40
0.0
  0
ENDTAB
  0
TABLE
  2
LAYER
 70
    10
  0
LAYER
  2
0
 70
     0
 62
     7
  6
CONTINUOUS
  0
LAYER
  2
DEFPOINTS
 70
     0
 62
     7
  6
CONTINUOUS
  0
LAYER
  2
FRAME_200
 70
     0
 62
     8
  6
CONTINUOUS
  0
LAYER
  2
FRAME_070
 70
     0
 62
     5
  6
CONTINUOUS
  0
LAYER
  2
FRAME_050
 70
     0
 62
     6
  6
CONTINUOUS
  0
LAYER
  2
TITLE_BLOCK
 70
     0
 62
     7
  6
CONTINUOUS
  0
LAYER
  2
FRAME_025
 70
     0
 62
     7
  6
CONTINUOUS
  0
LAYER
  2
VIEWPORT
 70
     0
 62
     7
  6
CONTINUOUS
  0
LAYER
  2
PROF
 70
     0
 62
     7
  6
CONTINUOUS
  0
LAYER
  2
PROFILE
 70
     0
 62
     7
  6
CONTINUOUS
  0
ENDTAB
  0
TABLE
  2
STYLE
 70
     2
  0
STYLE
  2
STANDARD
 70
     0
 40
0.0
 41
1.0
 50
0.0
 71
     0
 42
1.5
  3
txt
  4

  0
STYLE
  2
ISO_PROPORTIONAL
 70
     0
 40
0.0
 41
1.0
 50
0.0
 71
     0
 42
2.5
  3
isocp.shx
  4

  0
ENDTAB
  0
TABLE
  2
VIEW
 70
     1
  0
ENDTAB
  0
TABLE
  2
UCS
 70
     0
  0
ENDTAB
  0
TABLE
  2
APPID
 70
     6
  0
APPID
  2
ACAD
 70
     0
  0
APPID
  2
DCO15
 70
     0
  0
APPID
  2
ACAD_EXEMPT_FROM_CAD_STANDARDS
 70
     0
  0
APPID
  2
ACAD_PSEXT
 70
     0
  0
APPID
  2
CONTENTBLOCKDESCRIPTION
 70
     0
  0
APPID
  2
CONTENTBLOCKICON
 70
     0
  0
ENDTAB
  0
TABLE
  2
DIMSTYLE
 70
     5
  0
DIMSTYLE
  2
FULL_SCALE
 70
     0
  3
"
  4

  5
ARCHTICK
  6

  7

 40
1.0
 41
0.046875
 42
0.09375
 43
0.125
 44
0.0625
 45
0.0
 46
0.0
 47
0.0
 48
0.0
140
0.125
141
0.125
142
0.0
143
25.399999999999999
144
1.0
145
0.0
146
1.0
147
0.0625
 71
     0
 72
     0
 73
     0
 74
     0
 75
     0
 76
     0
 77
     1
 78
     0
170
     0
171
     2
172
     0
173
     0
174
     1
175
     0
176
     0
177
     0
178
     0
  0
DIMSTYLE
  2
HALF_SCALE
 70
     0
  3
"
  4

  5
ARCHTICK
  6

  7

 40
1.0
 41
0.09375
 42
0.1875
 43
0.25
 44
0.125
 45
0.0
 46
0.0
 47
0.0
 48
0.0
140
0.25
141
0.25
142
0.0
143
25.399999999999999
144
1.0
145
0.0
146
1.0
147
0.125
 71
     0
 72
     0
 73
     0
 74
     0
 75
     0
 76
     0
 77
     1
 78
     0
170
     0
171
     2
172
     0
173
     0
174
     1
175
     0
176
     0
177
     0
178
     0
  0
DIMSTYLE
  2
INCH_SCALE
 70
     0
  3
"
  4

  5
ARCHTICK
  6

  7

 40
1.0
 41
0.5625
 42
1.125
 43
1.5
 44
0.75
 45
0.0
 46
0.0
 47
0.0
 48
0.0
140
1.125
141
1.5
142
0.0
143
25.399999999999999
144
1.0
145
0.0
146
1.0
147
0.75
 71
     0
 72
     0
 73
     0
 74
     0
 75
     0
 76
     0
 77
     1
 78
     0
170
     0
171
     2
172
     0
173
     0
174
     1
175
     0
176
     0
177
     0
178
     0
  0
DIMSTYLE
  2
THREE_QUARTER_INCH_SCALE
 70
     0
  3
"
  4

  5
ARCHTICK
  6

  7

 40
1.0
 41
0.75
 42
1.5
 43
2.0
 44
1.0
 45
0.0
 46
0.0
 47
0.0
 48
0.0
140
1.5
141
2.0
142
0.0
143
25.399999999999999
144
1.0
145
0.0
146
1.0
147
1.0
 71
     0
 72
     0
 73
     0
 74
     0
 75
     0
 76
     0
 77
     1
 78
     0
170
     0
171
     2
172
     0
173
     0
174
     1
175
     0
176
     0
177
     0
178
     0
  0
DIMSTYLE
  2
ZHALF_INCH_SCALE
 70
     0
  3
"
  4

  5
ARCHTICK
  6

  7

 40
1.0
 41
1.125
 42
2.25
 43
3.0
 44
1.5
 45
0.0
 46
0.0
 47
0.0
 48
0.0
140
2.25
141
3.0
142
0.0
143
25.399999999999999
144
1.0
145
0.0
146
1.0
147
1.5
 71
     0
 72
     0
 73
     0
 74
     0
 75
     0
 76
     0
 77
     1
 78
     0
170
     0
171
     2
172
     0
173
     0
174
     1
175
     0
176
     0
177
     0
178
     0
  0
ENDTAB
  0
ENDSEC
  0
SECTION
  2
BLOCKS
  0
BLOCK
  8
0
  2
$MODEL_SPACE
 70
     0
 10
0.0
 20
0.0
 30
0.0
  3
$MODEL_SPACE
  1

  0
ENDBLK
  5
21
  8
0
  0
BLOCK
 67
     1
  8
0
  2
$PAPER_SPACE
 70
     0
 10
0.0
 20
0.0
 30
0.0
  3
$PAPER_SPACE
  1

  0
ENDBLK
  5
BAD5
 67
     1
  8
0
  0
BLOCK
  8
0
  2
_ARCHTICK
 70
     0
 10
0.0
 20
0.0
 30
0.0
  3
_ARCHTICK
  1

  0
POLYLINE
  5
158
  8
0
  6
BYBLOCK
 62
     0
 66
     1
 10
0.0
 20
0.0
 30
0.0
 40
0.15
 41
0.15
  0
VERTEX
  5
FF82
  8
0
  6
BYBLOCK
 62
     0
 10
-0.5
 20
-0.5
 30
0.0
  0
VERTEX
  5
FF83
  8
0
  6
BYBLOCK
 62
     0
 10
0.5
 20
0.5
 30
0.0
  0
SEQEND
  5
FF84
  8
0
  6
BYBLOCK
 62
     0
  0
ENDBLK
  5
15A
  8
0
  0
BLOCK
  8
0
  2
_OPEN30
 70
     0
 10
0.0
 20
0.0
 30
0.0
  3
_OPEN30
  1

  0
LINE
  5
15C
  8
0
  6
BYBLOCK
 62
     0
 10
-1.0
 20
0.26794919
 30
0.0
 11
0.0
 21
0.0
 31
0.0
  0
LINE
  5
15D
  8
0
  6
BYBLOCK
 62
     0
 10
0.0
 20
0.0
 30
0.0
 11
-1.0
 21
-0.26794919
 31
0.0
  0
LINE
  5
15E
  8
0
  6
BYBLOCK
 62
     0
 10
0.0
 20
0.0
 30
0.0
 11
-1.0
 21
0.0
 31
0.0
  0
ENDBLK
  5
160
  8
0
  0
BLOCK
  8
0
  2
ISO_A2_TITLE_BLOCK
 70
     2
 10
0.0
 20
0.0
 30
0.0
  3
ISO_A2_TITLE_BLOCK
  1

  0
LINE
  5
BDD
  8
FRAME_050
 10
299.5
 20
12.5
 30
0.0
 11
297.0
 21
7.5
 31
0.0
  0
LINE
  5
BDE
  8
FRAME_050
 10
294.5
 20
12.5
 30
0.0
 11
299.5
 21
12.5
 31
0.0
  0
LINE
  5
BDF
  8
FRAME_050
 10
247.0
 20
5.0
 30
0.0
 11
347.0
 21
5.0
 31
0.0
  0
LINE
  5
BE0
  8
FRAME_070
 10
584.0
 20
410.0
 30
0.0
 11
10.0
 21
410.0
 31
0.0
  0
LINE
  5
BE1
  8
FRAME_070
 10
10.0
 20
10.0
 30
0.0
 11
584.0
 21
10.0
 31
0.0
  0
LINE
  5
BE2
  8
FRAME_050
 10
12.5
 20
207.5
 30
0.0
 11
7.5
 21
210.0
 31
0.0
  0
LINE
  5
BE3
  8
FRAME_050
 10
12.5
 20
212.5
 30
0.0
 11
12.5
 21
207.5
 31
0.0
  0
LINE
  5
BE4
  8
FRAME_070
 10
10.0
 20
410.0
 30
0.0
 11
10.0
 21
10.0
 31
0.0
  0
LINE
  5
BE5
  8
FRAME_200
 10
0.0
 20
0.0
 30
0.0
 11
0.0
 21
10.0
 31
0.0
  0
LINE
  5
BE6
  8
FRAME_200
 10
0.0
 20
0.0
 30
0.0
 11
10.0
 21
0.0
 31
0.0
  0
TEXT
  5
BE7
  8
FRAME_050
 10
5.9000000000000004
 20
35.0
 30
0.0
 40
4.0
  1
H
  7
ISO_PROPORTIONAL
 72
     4
 11
7.5
 21
37.0
 31
0.0
  0
LINE
  5
BE8
  8
FRAME_050
 10
10.0
 20
60.0
 30
0.0
 11
5.0
 21
60.0
 31
0.0
  0
LINE
  5
BE9
  8
FRAME_050
 10
81.75
 20
5.0
 30
0.0
 11
81.75
 21
10.0
 31
0.0
  0
TEXT
  5
BEA
  8
FRAME_050
 10
44.874999999999993
 20
5.5
 30
0.0
 40
4.0
  1
1
  7
ISO_PROPORTIONAL
 72
     4
 11
45.875
 21
7.5
 31
0.0
  0
TEXT
  5
BEB
  8
FRAME_050
 10
6.0035533905932743
 20
85.0
 30
0.0
 40
4.0
  1
G
  7
ISO_PROPORTIONAL
 72
     4
 11
7.5
 21
87.0
 31
0.0
  0
LINE
  5
BEC
  8
FRAME_050
 10
10.0
 20
110.0
 30
0.0
 11
5.0
 21
110.0
 31
0.0
  0
TEXT
  5
BED
  8
FRAME_050
 10
6.0999999999999988
 20
135.0
 30
0.0
 40
4.0
  1
F
  7
ISO_PROPORTIONAL
 72
     4
 11
7.5
 21
137.0
 31
0.0
  0
LINE
  5
BEE
  8
FRAME_050
 10
10.0
 20
160.0
 30
0.0
 11
5.0
 21
160.0
 31
0.0
  0
TEXT
  5
BEF
  8
FRAME_050
 10
6.0999999999999988
 20
185.0
 30
0.0
 40
4.0
  1
E
  7
ISO_PROPORTIONAL
 72
     4
 11
7.5
 21
187.0
 31
0.0
  0
LINE
  5
BF0
  8
FRAME_050
 10
153.5
 20
5.0
 30
0.0
 11
153.5
 21
10.0
 31
0.0
  0
TEXT
  5
BF1
  8
FRAME_050
 10
116.1556692913386
 20
5.3996062992125982
 30
0.0
 40
4.0
  1
2
  7
ISO_PROPORTIONAL
 72
     4
 11
117.625
 21
7.5
 31
0.0
  0
TEXT
  5
BF2
  8
FRAME_050
 10
187.89215728752529
 20
5.5828427124746138
 30
0.0
 40
4.0
  1
3
  7
ISO_PROPORTIONAL
 72
     4
 11
189.375
 21
7.5
 31
0.0
  0
LINE
  5
BF3
  8
FRAME_050
 10
225.25
 20
5.0
 30
0.0
 11
225.25
 21
10.0
 31
0.0
  0
LINE
  5
BF4
  8
FRAME_050
 10
297.0
 20
7.5
 30
0.0
 11
294.5
 21
12.5
 31
0.0
  0
LINE
  5
BF5
  8
FRAME_050
 10
287.0
 20
5.0
 30
0.0
 11
287.0
 21
10.0
 31
0.0
  0
LINE
  5
BF6
  8
FRAME_050
 10
277.0
 20
5.0
 30
0.0
 11
277.0
 21
10.0
 31
0.0
  0
LINE
  5
BF7
  8
FRAME_050
 10
267.0
 20
5.0
 30
0.0
 11
267.0
 21
10.0
 31
0.0
  0
LINE
  5
BF8
  8
FRAME_050
 10
257.0
 20
5.0
 30
0.0
 11
257.0
 21
10.0
 31
0.0
  0
LINE
  5
BF9
  8
FRAME_050
 10
247.0
 20
5.0
 30
0.0
 11
247.0
 21
10.0
 31
0.0
  0
LINE
  5
BFA
  8
FRAME_050
 10
297.0
 20
10.0
 30
0.0
 11
297.0
 21
5.0
 31
0.0
  0
LINE
  5
BFB
  8
FRAME_050
 10
297.0
 20
10.0
 30
0.0
 11
297.0
 21
15.0
 31
0.0
  0
LINE
  5
BFC
  8
FRAME_050
 10
5.0
 20
210.0
 30
0.0
 11
15.0
 21
210.0
 31
0.0
  0
LINE
  5
BFD
  8
FRAME_050
 10
7.5
 20
210.0
 30
0.0
 11
12.5
 21
212.5
 31
0.0
  0
TEXT
  5
BFE
  8
FRAME_050
 10
5.7860912703473977
 20
235.0
 30
0.0
 40
4.0
  1
D
  7
ISO_PROPORTIONAL
 72
     4
 11
7.5
 21
237.0
 31
0.0
  0
LINE
  5
BFF
  8
FRAME_050
 10
10.0
 20
260.0
 30
0.0
 11
5.0
 21
260.0
 31
0.0
  0
TEXT
  5
C00
  8
FRAME_050
 10
6.1931980515339466
 20
285.0
 30
0.0
 40
4.0
  1
C
  7
ISO_PROPORTIONAL
 72
     4
 11
7.5
 21
287.0
 31
0.0
  0
LINE
  5
C01
  8
FRAME_050
 10
10.0
 20
310.0
 30
0.0
 11
5.0
 21
310.0
 31
0.0
  0
TEXT
  5
C02
  8
FRAME_050
 10
5.8999999999999959
 20
335.0
 30
0.0
 40
4.0
  1
B
  7
ISO_PROPORTIONAL
 72
     4
 11
7.5
 21
337.0
 31
0.0
  0
LINE
  5
C03
  8
FRAME_050
 10
10.0
 20
360.0
 30
0.0
 11
5.0
 21
360.0
 31
0.0
  0
TEXT
  5
C04
  8
FRAME_050
 10
5.6999999999999993
 20
385.0
 30
0.0
 40
4.0
  1
A
  7
ISO_PROPORTIONAL
 72
     4
 11
7.5
 21
387.0
 31
0.0
  0
LINE
  5
C05
  8
FRAME_200
 10
10.0
 20
420.0
 30
0.0
 11
0.0
 21
420.0
 31
0.0
  0
LINE
  5
C06
  8
FRAME_200
 10
0.0
 20
420.0
 30
0.0
 11
0.0
 21
410.0
 31
0.0
  0
TEXT
  5
C07
  8
FRAME_050
 10
44.874999999999993
 20
410.5
 30
0.0
 40
4.0
  1
1
  7
ISO_PROPORTIONAL
 72
     4
 11
45.875
 21
412.5
 31
0.0
  0
LINE
  5
C08
  8
FRAME_050
 10
81.75
 20
410.0
 30
0.0
 11
81.75
 21
415.0
 31
0.0
  0
TEXT
  5
C09
  8
FRAME_050
 10
116.1556692913386
 20
410.39960629921262
 30
0.0
 40
4.0
  1
2
  7
ISO_PROPORTIONAL
 72
     4
 11
117.625
 21
412.5
 31
0.0
  0
LINE
  5
C0A
  8
FRAME_050
 10
153.5
 20
410.0
 30
0.0
 11
153.5
 21
415.0
 31
0.0
  0
TEXT
  5
C0B
  8
FRAME_050
 10
187.89215728752529
 20
410.58284271247459
 30
0.0
 40
4.0
  1
3
  7
ISO_PROPORTIONAL
 72
     4
 11
189.375
 21
412.5
 31
0.0
  0
LINE
  5
C0C
  8
FRAME_050
 10
297.0
 20
405.0
 30
0.0
 11
297.0
 21
415.0
 31
0.0
  0
LINE
  5
C0D
  8
FRAME_050
 10
225.25
 20
410.0
 30
0.0
 11
225.25
 21
415.0
 31
0.0
  0
TEXT
  5
C0E
  8
FRAME_050
 10
259.52499999999998
 20
410.5
 30
0.0
 40
4.0
  1
4
  7
ISO_PROPORTIONAL
 72
     4
 11
261.125
 21
412.5
 31
0.0
  0
LINE
  5
C0F
  8
FRAME_070
 10
584.0
 20
10.0
 30
0.0
 11
584.0
 21
410.0
 31
0.0
  0
ATTDEF
  5
C10
  8
FRAME_025
 10
473.0
 20
31.75
 30
0.0
 40
2.5
  1
XXX - 00/00/00
  7
ISO_PROPORTIONAL
 11
473.0
 21
33.0
 31
0.0
  3
Approved by - Date
  2
APPROVED_BY_DATE
 70
     8
 74
     2
  0
TEXT
  5
C11
  8
FRAME_025
 10
448.0
 20
41.749999999999993
 30
0.0
 40
2.5
  1
Title/Name, designation, material, dimension etc
  7
ISO_PROPORTIONAL
 11
448.0
 21
43.0
 31
0.0
 73
     2
  0
TEXT
  5
C12
  8
FRAME_025
 10
473.0
 20
35.75
 30
0.0
 40
2.5
  1
Approved by - date
  7
ISO_PROPORTIONAL
 11
473.0
 21
37.0
 31
0.0
 73
     2
  0
LINE
  5
C13
  8
FRAME_070
 10
414.0
 20
46.0
 30
0.0
 11
584.0
 21
46.0
 31
0.0
  0
LINE
  5
C14
  8
FRAME_070
 10
414.0
 20
40.0
 30
0.0
 11
584.0
 21
40.0
 31
0.0
  0
LINE
  5
C15
  8
FRAME_070
 10
414.0
 20
30.0
 30
0.0
 11
584.0
 21
30.0
 31
0.0
  0
LINE
  5
C16
  8
FRAME_050
 10
368.75
 20
5.0
 30
0.0
 11
368.75
 21
10.0
 31
0.0
  0
LINE
  5
C17
  8
FRAME_050
 10
337.0
 20
5.0
 30
0.0
 11
337.0
 21
10.0
 31
0.0
  0
LINE
  5
C18
  8
FRAME_050
 10
327.0
 20
5.0
 30
0.0
 11
327.0
 21
10.0
 31
0.0
  0
LINE
  5
C19
  8
FRAME_050
 10
317.0
 20
5.0
 30
0.0
 11
317.0
 21
10.0
 31
0.0
  0
LINE
  5
C1A
  8
FRAME_050
 10
307.0
 20
5.0
 30
0.0
 11
307.0
 21
10.0
 31
0.0
  0
LINE
  5
C1B
  8
FRAME_050
 10
347.0
 20
5.0
 30
0.0
 11
347.0
 21
10.0
 31
0.0
  0
LINE
  5
C1C
  8
FRAME_050
 10
440.5
 20
5.0
 30
0.0
 11
440.5
 21
10.0
 31
0.0
  0
TEXT
  5
C1D
  8
FRAME_050
 10
403.24547244094481
 20
5.4102362204724406
 30
0.0
 40
4.0
  1
6
  7
ISO_PROPORTIONAL
 72
     4
 11
404.62499999999989
 21
7.5
 31
0.0
  0
TEXT
  5
C1E
  8
FRAME_050
 10
474.97500000000002
 20
5.5
 30
0.0
 40
4.0
  1
7
  7
ISO_PROPORTIONAL
 72
     4
 11
476.37499999999989
 21
7.5
 31
0.0
  0
TEXT
  5
C1F
  8
FRAME_025
 10
431.0
 20
41.749999999999993
 30
0.0
 40
2.5
  1
Quantity
  7
ISO_PROPORTIONAL
 11
431.0
 21
43.0
 31
0.0
 73
     2
  0
TEXT
  5
C20
  8
FRAME_025
 10
416.0
 20
41.749999999999993
 30
0.0
 40
2.5
  1
Itemref
  7
ISO_PROPORTIONAL
 11
416.0
 21
43.0
 31
0.0
 73
     2
  0
LINE
  5
C21
  8
FRAME_070
 10
414.0
 20
40.0
 30
0.0
 11
414.0
 21
46.0
 31
0.0
  0
LINE
  5
C22
  8
FRAME_070
 10
429.0
 20
40.0
 30
0.0
 11
429.0
 21
46.0
 31
0.0
  0
LINE
  5
C23
  8
FRAME_070
 10
414.0
 20
10.0
 30
0.0
 11
414.0
 21
40.0
 31
0.0
  0
ATTDEF
  5
C24
  8
FRAME_025
 10
416.0
 20
31.75
 30
0.0
 40
2.5
  1
XXX
  7
ISO_PROPORTIONAL
 11
416.0
 21
33.0
 31
0.0
  3
Designed by
  2
DESIGNED_BY
 70
     8
 74
     2
  0
TEXT
  5
C25
  8
FRAME_025
 10
416.0
 20
35.75
 30
0.0
 40
2.5
  1
Designed by
  7
ISO_PROPORTIONAL
 11
416.0
 21
37.0
 31
0.0
 73
     2
  0
LINE
  5
C26
  8
FRAME_070
 10
446.0
 20
40.0
 30
0.0
 11
446.0
 21
46.0
 31
0.0
  0
ATTDEF
  5
C27
  8
FRAME_025
 10
448.0
 20
31.75
 30
0.0
 40
2.5
  1
XXX
  7
ISO_PROPORTIONAL
 11
448.0
 21
33.0
 31
0.0
  3
Checked by
  2
CHECKED_BY
 70
     8
 74
     2
  0
TEXT
  5
C28
  8
FRAME_025
 10
448.0
 20
35.75
 30
0.0
 40
2.5
  1
Checked by
  7
ISO_PROPORTIONAL
 11
448.0
 21
37.0
 31
0.0
 73
     2
  0
ATTDEF
  5
C29
  8
FRAME_050
 10
444.74999999999989
 20
17.5
 30
0.0
 40
5.0
  1
XXX
  7
ISO_PROPORTIONAL
 72
     4
 11
451.49999999999989
 21
20.0
 31
0.0
  3
Owner
  2
OWNER
 70
     8
  0
LINE
  5
C2A
  8
FRAME_070
 10
446.0
 20
30.0
 30
0.0
 11
446.0
 21
40.0
 31
0.0
  0
LINE
  5
C2B
  8
FRAME_070
 10
471.0
 20
30.0
 30
0.0
 11
471.0
 21
40.0
 31
0.0
  0
LINE
  5
C2C
  8
FRAME_070
 10
489.0
 20
20.0
 30
0.0
 11
584.0
 21
20.0
 31
0.0
  0
LINE
  5
C2D
  8
FRAME_050
 10
512.25
 20
5.0
 30
0.0
 11
512.25
 21
10.0
 31
0.0
  0
TEXT
  5
C2E
  8
FRAME_050
 10
546.72499999999991
 20
5.5
 30
0.0
 40
4.0
  1
8
  7
ISO_PROPORTIONAL
 72
     4
 11
548.125
 21
7.5
 31
0.0
  0
ATTDEF
  5
C2F
  8
FRAME_050
 10
517.64999999999986
 20
13.5
 30
0.0
 40
3.0
  1
X
  7
ISO_PROPORTIONAL
 72
     4
 11
519.0
 21
15.0
 31
0.0
  3
Drawing number
  2
DRAWING_NUMBER
 70
     8
  0
ATTDEF
  5
C30
  8
FRAME_050
 10
529.75
 20
22.5
 30
0.0
 40
5.0
  1
XXX
  7
ISO_PROPORTIONAL
 72
     4
 11
536.5
 21
25.0
 31
0.0
  3
Title / Name
  2
TITLE
 70
     8
  0
LINE
  5
C31
  8
FRAME_070
 10
489.0
 20
10.0
 30
0.0
 11
489.0
 21
30.0
 31
0.0
  0
ATTDEF
  5
C32
  8
FRAME_025
 10
511.0
 20
31.75
 30
0.0
 40
2.5
  1
XXX
  7
ISO_PROPORTIONAL
 11
511.0
 21
33.0
 31
0.0
  3
Filename
  2
FILENAME
 70
     8
 74
     2
  0
TEXT
  5
C33
  8
FRAME_025
 10
511.0
 20
35.75
 30
0.0
 40
2.5
  1
Filename
  7
ISO_PROPORTIONAL
 11
511.0
 21
37.0
 31
0.0
 73
     2
  0
LINE
  5
C34
  8
FRAME_070
 10
509.0
 20
30.0
 30
0.0
 11
509.0
 21
40.0
 31
0.0
  0
TEXT
  5
C35
  8
FRAME_025
 10
536.0
 20
41.749999999999993
 30
0.0
 40
2.5
  1
Article No./Reference
  7
ISO_PROPORTIONAL
 11
536.0
 21
43.0
 31
0.0
 73
     2
  0
LINE
  5
C36
  8
FRAME_070
 10
534.0
 20
40.0
 30
0.0
 11
534.0
 21
46.0
 31
0.0
  0
ATTDEF
  5
C37
  8
FRAME_025
 10
551.0
 20
11.75
 30
0.0
 40
2.5
  1
0
  7
ISO_PROPORTIONAL
 11
551.0
 21
13.0
 31
0.0
  3
Edition
  2
EDITION
 70
     8
 74
     2
  0
TEXT
  5
C38
  8
FRAME_025
 10
551.0
 20
15.75
 30
0.0
 40
2.5
  1
Edition
  7
ISO_PROPORTIONAL
 11
551.0
 21
17.0
 31
0.0
 73
     2
  0
LINE
  5
C39
  8
FRAME_070
 10
549.0
 20
10.0
 30
0.0
 11
549.0
 21
20.0
 31
0.0
  0
ATTDEF
  5
C3A
  8
FRAME_025
 10
536.0
 20
31.75
 30
0.0
 40
2.5
  1
00/00/00
  7
ISO_PROPORTIONAL
 11
536.0
 21
33.0
 31
0.0
  3
Date
  2
DATE
 70
     8
 74
     2
  0
TEXT
  5
C3B
  8
FRAME_025
 10
536.0
 20
35.75
 30
0.0
 40
2.5
  1
Date
  7
ISO_PROPORTIONAL
 11
536.0
 21
37.0
 31
0.0
 73
     2
  0
LINE
  5
C3C
  8
FRAME_070
 10
534.0
 20
30.0
 30
0.0
 11
534.0
 21
40.0
 31
0.0
  0
ATTDEF
  5
C3D
  8
FRAME_025
 10
566.0
 20
11.75
 30
0.0
 40
2.5
  1
1/1
  7
ISO_PROPORTIONAL
 11
566.0
 21
13.0
 31
0.0
  3
Sheet
  2
SHEET
 70
     8
 74
     2
  0
TEXT
  5
C3E
  8
FRAME_025
 10
566.0
 20
15.75
 30
0.0
 40
2.5
  1
Sheet
  7
ISO_PROPORTIONAL
 11
566.0
 21
17.0
 31
0.0
 73
     2
  0
LINE
  5
C3F
  8
FRAME_070
 10
564.0
 20
10.0
 30
0.0
 11
564.0
 21
20.0
 31
0.0
  0
ATTDEF
  5
C40
  8
FRAME_025
 10
566.0
 20
31.75
 30
0.0
 40
2.5
  1
1:1
  7
ISO_PROPORTIONAL
 11
566.0
 21
33.0
 31
0.0
  3
Scale
  2
SCALE
 70
     8
 74
     2
  0
TEXT
  5
C41
  8
FRAME_025
 10
566.0
 20
35.75
 30
0.0
 40
2.5
  1
Scale
  7
ISO_PROPORTIONAL
 11
566.0
 21
37.0
 31
0.0
 73
     2
  0
LINE
  5
C42
  8
FRAME_070
 10
564.0
 20
30.0
 30
0.0
 11
564.0
 21
40.0
 31
0.0
  0
LINE
  5
C43
  8
FRAME_200
 10
594.0
 20
0.0
 30
0.0
 11
594.0
 21
10.0
 31
0.0
  0
LINE
  5
C44
  8
FRAME_200
 10
594.0
 20
0.0
 30
0.0
 11
584.0
 21
0.0
 31
0.0
  0
TEXT
  5
C45
  8
FRAME_050
 10
584.89999999999998
 20
35.0
 30
0.0
 40
4.0
  1
H
  7
ISO_PROPORTIONAL
 72
     4
 11
586.5
 21
37.0
 31
0.0
  0
LINE
  5
C46
  8
FRAME_050
 10
589.0
 20
60.0
 30
0.0
 11
584.0
 21
60.0
 31
0.0
  0
TEXT
  5
C47
  8
FRAME_050
 10
585.0035533905932
 20
85.0
 30
0.0
 40
4.0
  1
G
  7
ISO_PROPORTIONAL
 72
     4
 11
586.5
 21
87.0
 31
0.0
  0
LINE
  5
C48
  8
FRAME_050
 10
589.0
 20
110.0
 30
0.0
 11
584.0
 21
110.0
 31
0.0
  0
TEXT
  5
C49
  8
FRAME_050
 10
585.09999999999991
 20
135.0
 30
0.0
 40
4.0
  1
F
  7
ISO_PROPORTIONAL
 72
     4
 11
586.5
 21
137.0
 31
0.0
  0
LINE
  5
C4A
  8
FRAME_050
 10
589.0
 20
160.0
 30
0.0
 11
584.0
 21
160.0
 31
0.0
  0
TEXT
  5
C4B
  8
FRAME_050
 10
585.09999999999991
 20
185.0
 30
0.0
 40
4.0
  1
E
  7
ISO_PROPORTIONAL
 72
     4
 11
586.5
 21
187.0
 31
0.0
  0
LINE
  5
C4C
  8
FRAME_070
 10
414.0
 20
404.0
 30
0.0
 11
584.0
 21
404.0
 31
0.0
  0
TEXT
  5
C4D
  8
FRAME_050
 10
331.39215728752538
 20
410.58284271247459
 30
0.0
 40
4.0
  1
5
  7
ISO_PROPORTIONAL
 72
     4
 11
332.875
 21
412.5
 31
0.0
  0
LINE
  5
C4E
  8
FRAME_050
 10
368.75
 20
410.0
 30
0.0
 11
368.75
 21
415.0
 31
0.0
  0
TEXT
  5
C4F
  8
FRAME_025
 10
428.0
 20
405.75
 30
0.0
 40
2.5
  1
Revision note
  7
ISO_PROPORTIONAL
 11
428.0
 21
407.0
 31
0.0
 73
     2
  0
TEXT
  5
C50
  8
FRAME_025
 10
416.0
 20
405.75
 30
0.0
 40
2.5
  1
RevNo
  7
ISO_PROPORTIONAL
 11
416.0
 21
407.0
 31
0.0
 73
     2
  0
LINE
  5
C51
  8
FRAME_070
 10
426.0
 20
404.0
 30
0.0
 11
426.0
 21
410.0
 31
0.0
  0
LINE
  5
C52
  8
FRAME_070
 10
414.0
 20
404.0
 30
0.0
 11
414.0
 21
410.0
 31
0.0
  0
TEXT
  5
C53
  8
FRAME_050
 10
403.24547244094481
 20
410.41023622047243
 30
0.0
 40
4.0
  1
6
  7
ISO_PROPORTIONAL
 72
     4
 11
404.62499999999989
 21
412.5
 31
0.0
  0
LINE
  5
C54
  8
FRAME_050
 10
440.5
 20
410.0
 30
0.0
 11
440.5
 21
415.0
 31
0.0
  0
TEXT
  5
C55
  8
FRAME_050
 10
474.97500000000002
 20
410.5
 30
0.0
 40
4.0
  1
7
  7
ISO_PROPORTIONAL
 72
     4
 11
476.37499999999989
 21
412.5
 31
0.0
  0
LINE
  5
C56
  8
FRAME_050
 10
579.0
 20
210.0
 30
0.0
 11
589.0
 21
210.0
 31
0.0
  0
TEXT
  5
C57
  8
FRAME_050
 10
584.78609127034736
 20
235.0
 30
0.0
 40
4.0
  1
D
  7
ISO_PROPORTIONAL
 72
     4
 11
586.5
 21
237.0
 31
0.0
  0
LINE
  5
C58
  8
FRAME_050
 10
589.0
 20
260.0
 30
0.0
 11
584.0
 21
260.0
 31
0.0
  0
TEXT
  5
C59
  8
FRAME_050
 10
585.19319805153395
 20
285.0
 30
0.0
 40
4.0
  1
C
  7
ISO_PROPORTIONAL
 72
     4
 11
586.5
 21
287.0
 31
0.0
  0
LINE
  5
C5A
  8
FRAME_050
 10
589.0
 20
310.0
 30
0.0
 11
584.0
 21
310.0
 31
0.0
  0
TEXT
  5
C5B
  8
FRAME_050
 10
584.89999999999998
 20
335.0
 30
0.0
 40
4.0
  1
B
  7
ISO_PROPORTIONAL
 72
     4
 11
586.5
 21
337.0
 31
0.0
  0
TEXT
  5
C5C
  8
FRAME_025
 10
571.08299391850551
 20
405.75
 30
0.0
 40
2.5
  1
Checked
  7
ISO_PROPORTIONAL
 11
571.08299391850551
 21
407.0
 31
0.0
 73
     2
  0
TEXT
  5
C5D
  8
FRAME_025
 10
555.36099797283532
 20
405.75
 30
0.0
 40
2.5
  1
Signature
  7
ISO_PROPORTIONAL
 11
555.36099797283532
 21
407.0
 31
0.0
 73
     2
  0
TEXT
  5
C5E
  8
FRAME_025
 10
537.0
 20
405.75
 30
0.0
 40
2.5
  1
Date
  7
ISO_PROPORTIONAL
 11
537.0
 21
407.0
 31
0.0
 73
     2
  0
LINE
  5
C5F
  8
FRAME_070
 10
570.0
 20
404.0
 30
0.0
 11
570.0
 21
410.0
 31
0.0
  0
LINE
  5
C60
  8
FRAME_070
 10
555.0
 20
404.0
 30
0.0
 11
555.0
 21
410.0
 31
0.0
  0
LINE
  5
C61
  8
FRAME_070
 10
535.0
 20
404.0
 30
0.0
 11
535.0
 21
410.0
 31
0.0
  0
LINE
  5
C62
  8
FRAME_050
 10
512.25
 20
410.0
 30
0.0
 11
512.25
 21
415.0
 31
0.0
  0
TEXT
  5
C63
  8
FRAME_050
 10
546.72499999999991
 20
410.5
 30
0.0
 40
4.0
  1
8
  7
ISO_PROPORTIONAL
 72
     4
 11
548.125
 21
412.5
 31
0.0
  0
LINE
  5
C64
  8
FRAME_050
 10
589.0
 20
360.0
 30
0.0
 11
584.0
 21
360.0
 31
0.0
  0
TEXT
  5
C65
  8
FRAME_050
 10
584.70000000000005
 20
385.0
 30
0.0
 40
4.0
  1
A
  7
ISO_PROPORTIONAL
 72
     4
 11
586.5
 21
387.0
 31
0.0
  0
LINE
  5
C66
  8
FRAME_200
 10
594.0
 20
420.0
 30
0.0
 11
584.0
 21
420.0
 31
0.0
  0
LINE
  5
C67
  8
FRAME_200
 10
594.0
 20
410.0
 30
0.0
 11
594.0
 21
420.0
 31
0.0
  0
ENDBLK
  5
C69
  8
0
  0
BLOCK
  8
0
  2
WOBB001END
 70
     0
 10
0.0
 20
0.0
 30
0.0
  3
WOBB001END
  1

  0
LINE
  5
4D66
  8
0
  6
CONTINUOUS
 10
0.0
 20
0.0
 30
0.0
 11
0.8749999999999998
 21
0.0
 31
0.0
  0
ARC
  5
4D67
  8
0
  6
CONTINUOUS
 10
0.0331648379439287
 20
-0.5087238935900232
 30
0.0
 40
0.8790130605592325
 50
284.06490243660443
 51
312.19222981924361
  0
ARC
  5
4D68
  8
0
  6
CONTINUOUS
 10
0.2841534338796767
 20
-1.510548310625538
 30
0.0
 40
0.1537731892806598
 50
104.0649024366044
 51
179.4721730735024
  0
LINE
  5
4D69
  8
0
  6
CONTINUOUS
 10
0.0
 20
0.0
 30
0.0
 11
-0.0000000000000003
 21
-1.7501564476661919
 31
0.0
  0
ARC
  5
4D6A
  8
0
  6
CONTINUOUS
 10
0.1404622019506122
 20
-1.6303137183546199
 30
0.0
 40
0.1198427293115722
 50
275.0
 51
85.000000000000057
  0
LINE
  5
4D6B
  8
0
  6
CONTINUOUS
 10
-0.0000000000000003
 20
-1.7501564476661919
 30
0.0
 11
0.1456946485130855
 21
-1.7501564476661919
 31
0.0
  0
LINE
  5
4D6C
  8
0
  6
CONTINUOUS
 10
0.1377603739254348
 20
-1.7508506067459131
 30
0.0
 11
0.150907184036669
 21
-1.749700409899652
 31
0.0
  0
LINE
  5
4D6D
  8
0
  6
CONTINUOUS
 10
0.1303867696719884
 20
-1.5091317231818231
 30
0.0
 11
0.1509071840366689
 21
-1.5109270268095869
 31
0.0
  0
LINE
  5
4D6E
  8
0
  6
CONTINUOUS
 10
0.8749999999999998
 20
0.0
 30
0.0
 11
0.8749999999999996
 21
-0.8649327026588228
 31
0.0
  0
LINE
  5
4D6F
  8
0
  6
CONTINUOUS
 10
0.727014513830997
 20
-0.8726882933550612
 30
0.0
 11
0.727014513830997
 21
-0.9264923397184784
 31
0.0
  0
ARC
  5
4D70
  8
0
  6
CONTINUOUS
 10
0.41187090827646
 20
-0.9264923397184784
 30
0.0
 40
0.315143605554537
 50
312.19222981924361
 51
0.0
  0
LINE
  5
4D71
  8
0
  6
CONTINUOUS
 10
0.727014513830997
 20
-0.8726882933550612
 30
0.0
 11
0.8749999999999996
 21
-0.8649327026588228
 31
0.0
  0
ENDBLK
  5
4D72
  8
0
  0
BLOCK
  8
0
  2
A$C0A61123B
 70
     0
 10
0.0
 20
0.0
 30
0.0
  3
A$C0A61123B
  1

  0
LINE
  5
C0AD
  8
PROF
  6
CONTINUOUS
 10
4.9012016798694162
 20
13.325025853350891
 30
0.0000000000000002
 11
4.9012016798694162
 21
12.88585218805485
 31
0.0000000000000003
  0
INSERT
  5
C0AE
  8
0
  2
*U5
 10
0.0
 20
0.0
 30
0.0
  0
LINE
  5
C0AF
  8
PROF
 10
4.5198575031869259
 20
12.72227734589444
 30
0.0000000000000001
 11
4.5198575031869259
 21
12.88585218805485
 31
0.0000000000000001
  0
LINE
  5
C0B0
  8
PROF
  6
CONTINUOUS
 10
3.6306271195888371
 20
13.325025853350891
 30
0.0000000000000002
 11
4.9012016798694162
 21
13.325025853350891
 31
0.0000000000000002
  0
LINE
  5
C0B1
  8
PROF
 10
1.9750295148747341
 20
10.37671325491794
 30
0.0000000000000002
 11
1.9750295148747341
 21
10.11391186758919
 31
0.0000000000000002
  0
LINE
  5
C0B2
  8
PROF
 10
1.607967335755631
 20
10.11391186758919
 30
0.0000000000000001
 11
1.9750295148747341
 21
10.11391186758919
 31
0.0000000000000001
  0
LINE
  5
C0B3
  8
PROF
 10
1.9750295148747341
 20
10.11391186758919
 30
0.0000000000000001
 11
1.944958486898144
 21
10.11391186758919
 31
0.0000000000000001
  0
LINE
  5
C0B4
  8
PROF
 10
1.9750295148747341
 20
10.11391186758919
 30
0.0000000000000001
 11
1.944958486898144
 21
10.11391186758919
 31
0.0000000000000001
  0
LINE
  5
C0B5
  8
PROF
 10
0.3222605517169654
 20
7.5247473351056442
 30
-0.0000000000000002
 11
-0.0000008570117416
 21
7.5247473351056442
 31
0.0
  0
LINE
  5
C0B6
  8
PROF
 10
-0.0000008570117416
 20
7.5247473351056442
 30
0.0
 11
-0.0000008570117416
 21
9.1943336957369866
 31
0.0
  0
POLYLINE
  5
C0B7
  8
PROF
 66
     1
 10
0.0
 20
0.0
 30
0.0000000000000001
 70
     4
 75
     6
  0
VERTEX
  5
C0B8
  8
PROF
 10
1.607967335755631
 20
10.11391186758919
 30
0.0000000000000001
 70
    16
  0
VERTEX
  5
C0B9
  8
PROF
 10
1.607967335755631
 20
10.11391186758919
 30
0.0000000000000001
 70
     8
  0
VERTEX
  5
C0BA
  8
PROF
 10
1.646813232648582
 20
10.02198069336111
 30
0.0000000000000001
 70
     8
  0
VERTEX
  5
C0BB
  8
PROF
 10
1.67335966680929
 20
9.9344134163010267
 30
0.0000000000000001
 70
     8
  0
VERTEX
  5
C0BC
  8
PROF
 10
1.689008640046324
 20
9.8512576644480987
 30
0.0000000000000001
 70
     8
  0
VERTEX
  5
C0BD
  8
PROF
 10
1.695162154168258
 20
9.7725610658417281
 30
0.0000000000000001
 70
     8
  0
VERTEX
  5
C0BE
  8
PROF
 10
1.6932222109836059
 20
9.6983712485214255
 30
0.0000000000000001
 70
     8
  0
VERTEX
  5
C0BF
  8
PROF
 10
1.6845908123009961
 20
9.6287358405263603
 30
0.0000000000000001
 70
     8
  0
VERTEX
  5
C0C0
  8
PROF
 10
1.6706699599288859
 20
9.5637024698960431
 30
0.0000000000000001
 70
     8
  0
VERTEX
  5
C0C1
  8
PROF
 10
1.6528616556759621
 20
9.503318764669757
 30
0.0000000000000001
 70
     8
  0
VERTEX
  5
C0C2
  8
PROF
 10
1.6323562992730549
 20
9.4475843259650674
 30
0.0000000000000001
 70
     8
  0
VERTEX
  5
C0C3
  8
PROF
 10
1.609497882140658
 20
9.3963066472123273
 30
0.0000000000000001
 70
     8
  0
VERTEX
  5
C0C4
  8
PROF
 10
1.584418793621637
 20
9.3492451949202842
 30
0.0000000000000001
 70
     8
  0
VERTEX
  5
C0C5
  8
PROF
 10
1.557251423058744
 20
9.3061594355972375
 30
0.0000000000000001
 70
     8
  0
VERTEX
  5
C0C6
  8
PROF
 10
1.5281281597949601
 20
9.2668088357519292
 30
0.0000000000000001
 70
     8
  0
VERTEX
  5
C0C7
  8
PROF
 10
1.4971813931729789
 20
9.2309528618930017
 30
0.0000000000000001
 70
     8
  0
VERTEX
  5
C0C8
  8
PROF
 10
1.464543512535726
 20
9.1983509805288577
 30
0.0000000000000001
 70
     8
  0
VERTEX
  5
C0C9
  8
PROF
 10
1.4303469072260091
 20
9.1687626581682462
 30
0.0000000000000001
 70
     8
  0
VERTEX
  5
C0CA
  8
PROF
 10
1.3947360332574019
 20
9.1419547918675335
 30
0.0000000000000001
 70
     8
  0
VERTEX
  5
C0CB
  8
PROF
 10
1.3579036133264131
 20
9.1177240008747731
 30
0.0000000000000001
 70
     8
  0
VERTEX
  5
C0CC
  8
PROF
 10
1.3200544368004321
 20
9.0958743349860924
 30
0.0000000000000001
 70
     8
  0
VERTEX
  5
C0CD
  8
PROF
 10
1.281393293046676
 20
9.0762098439975034
 30
0.0000000000000001
 70
     8
  0
VERTEX
  5
C0CE
  8
PROF
 10
1.242124971432417
 20
9.0585345777049042
 30
0.0000000000000001
 70
     8
  0
VERTEX
  5
C0CF
  8
PROF
 10
1.2024542613249869
 20
9.0426525859044204
 30
0.0000000000000001
 70
     8
  0
VERTEX
  5
C0D0
  8
PROF
 10
1.1625859520916599
 20
9.0283679183919503
 30
0.0000000000000001
 70
     8
  0
VERTEX
  5
C0D1
  8
PROF
 10
1.1227248330997091
 20
9.0154846249635057
 30
0.0000000000000001
 70
     8
  0
VERTEX
  5
C0D2
  8
PROF
 10
1.0829726247361
 20
9.0034643862466055
 30
0.0000000000000001
 70
     8
  0
VERTEX
  5
C0D3
  8
PROF
 10
1.043018771466222
 20
8.9903994061946833
 30
0.0000000000000001
 70
     8
  0
VERTEX
  5
C0D4
  8
PROF
 10
1.002449648775211
 20
8.9740395195925657
 30
0.0000000000000001
 70
     8
  0
VERTEX
  5
C0D5
  8
PROF
 10
0.9608516321480919
 20
8.9521345612251935
 30
0.0000000000000001
 70
     8
  0
VERTEX
  5
C0D6
  8
PROF
 10
0.9178110970699435
 20
8.9224343658775052
 30
0.0000000000000001
 70
     8
  0
VERTEX
  5
C0D7
  8
PROF
 10
0.8729144190259034
 20
8.8826887683343312
 30
0.0000000000000001
 70
     8
  0
VERTEX
  5
C0D8
  8
PROF
 10
0.8257479735009951
 20
8.8306476033806121
 30
0.0000000000000001
 70
     8
  0
VERTEX
  5
C0D9
  8
PROF
 10
0.7758981359802988
 20
8.764060705801171
 30
0.0000000000000001
 70
     8
  0
VERTEX
  5
C0DA
  8
PROF
 10
1.729201901609656
 20
9.8629858761255491
 30
0.0000000000000001
 70
    16
  0
VERTEX
  5
C0DB
  8
PROF
 10
1.6793731231140889
 20
9.4532143012734196
 30
0.0000000000000001
 70
    16
  0
VERTEX
  5
C0DC
  8
PROF
 10
1.4455611507419801
 20
9.1391837193732481
 30
0.0000000000000001
 70
    16
  0
VERTEX
  5
C0DD
  8
PROF
 10
1.120463717273821
 20
9.0026267702428413
 30
0.0000000000000001
 70
    16
  0
VERTEX
  5
C0DE
  8
PROF
 10
0.9127765582653638
 20
8.9630202230383702
 30
0.0000000000000001
 70
    16
  0
VERTEX
  5
C0DF
  8
PROF
 10
0.7758981359802988
 20
8.764060705801171
 30
0.0000000000000001
 70
    16
  0
SEQEND
  5
C0E0
  8
PROF
  0
ARC
  5
C0E1
  8
PROF
 10
0.733429816733235
 20
8.4849506952165257
 30
0.0000000000000001
 40
0.2823224329524727
 50
269.73652020831901
 51
81.348449993176914
  0
LINE
  5
C0E2
  8
PROF
  6
CONTINUOUS
 10
-0.0000008570117416
 20
9.1943336957369866
 30
-0.0000000000000001
 11
3.6306271195888371
 21
13.325025853350891
 31
0.0000000000000002
  0
POLYLINE
  5
C0E3
  8
PROF
 66
     1
 10
0.0
 20
0.0
 30
0.0000000000000001
 70
     4
 75
     6
  0
VERTEX
  5
C0E4
  8
PROF
 10
4.5198575031869259
 20
12.72227734589444
 30
0.0000000000000001
 70
    16
  0
VERTEX
  5
C0E5
  8
PROF
 10
4.5198575031869259
 20
12.72227734589444
 30
0.0000000000000001
 70
     8
  0
VERTEX
  5
C0E6
  8
PROF
 10
4.4467035366886298
 20
12.741128108778071
 30
0.0000000000000001
 70
     8
  0
VERTEX
  5
C0E7
  8
PROF
 10
4.3786645761268801
 20
12.754675269913941
 30
0.0000000000000001
 70
     8
  0
VERTEX
  5
C0E8
  8
PROF
 10
4.3154364111440477
 20
12.76334314092332
 30
0.0000000000000001
 70
     8
  0
VERTEX
  5
C0E9
  8
PROF
 10
4.256714831382566
 20
12.76755603342724
 30
0.0000000000000001
 70
     8
  0
VERTEX
  5
C0EA
  8
PROF
 10
4.2021956264849791
 20
12.76773825904672
 30
0.0000000000000001
 70
     8
  0
VERTEX
  5
C0EB
  8
PROF
 10
4.1515745860935453
 20
12.764314129403139
 30
0.0000000000000001
 70
     8
  0
VERTEX
  5
C0EC
  8
PROF
 10
4.1045474998508658
 20
12.75770795611743
 30
0.0000000000000001
 70
     8
  0
VERTEX
  5
C0ED
  8
PROF
 10
4.0608101573993158
 20
12.748344050810831
 30
0.0000000000000001
 70
     8
  0
VERTEX
  5
C0EE
  8
PROF
 10
4.0200583483813261
 20
12.736646725104491
 30
0.0000000000000001
 70
     8
  0
VERTEX
  5
C0EF
  8
PROF
 10
3.9819878624393819
 20
12.72304029061945
 30
0.0000000000000001
 70
     8
  0
VERTEX
  5
C0F0
  8
PROF
 10
3.946294489215858
 20
12.707949058976959
 30
0.0000000000000001
 70
     8
  0
VERTEX
  5
C0F1
  8
PROF
 10
3.9126740183532429
 20
12.691797341798059
 30
0.0000000000000001
 70
     8
  0
VERTEX
  5
C0F2
  8
PROF
 10
3.8808638350742508
 20
12.67494295718654
 30
0.0000000000000001
 70
     8
  0
VERTEX
  5
C0F3
  8
PROF
 10
3.850767706922738
 20
12.65747774917668
 30
0.0000000000000001
 70
     8
  0
VERTEX
  5
C0F4
  8
PROF
 10
3.8223309970228452
 20
12.639427068285499
 30
0.0000000000000001
 70
     8
  0
VERTEX
  5
C0F5
  8
PROF
 10
3.7954990684987129
 20
12.62081626503004
 30
0.0000000000000001
 70
     8
  0
VERTEX
  5
C0F6
  8
PROF
 10
3.7702172844744828
 20
12.601670689926999
 30
0.0000000000000001
 70
     8
  0
VERTEX
  5
C0F7
  8
PROF
 10
3.746431008074353
 20
12.58201569349364
 30
0.0000000000000001
 70
     8
  0
VERTEX
  5
C0F8
  8
PROF
 10
3.7240856024224618
 20
12.56187662624666
 30
0.0000000000000001
 70
     8
  0
VERTEX
  5
C0F9
  8
PROF
 10
3.7031264306428961
 20
12.541278838703191
 30
0.0000000000000001
 70
     8
  0
VERTEX
  5
C0FA
  8
PROF
 10
3.6834988558599089
 20
12.520247681380051
 30
0.0000000000000001
 70
     8
  0
VERTEX
  5
C0FB
  8
PROF
 10
3.665148241197528
 20
12.49880850479428
 30
0.0000000000000001
 70
     8
  0
VERTEX
  5
C0FC
  8
PROF
 10
3.6480199497799499
 20
12.47698665946279
 30
0.0000000000000001
 70
     8
  0
VERTEX
  5
C0FD
  8
PROF
 10
3.6320593447313172
 20
12.45480749590263
 30
0.0000000000000001
 70
     8
  0
VERTEX
  5
C0FE
  8
PROF
 10
3.6171895848866589
 20
12.43223790353807
 30
0.0000000000000001
 70
     8
  0
VERTEX
  5
C0FF
  8
PROF
 10
3.6032450119242858
 20
12.40901092742285
 30
0.0000000000000001
 70
     8
  0
VERTEX
  5
C100
  8
PROF
 10
3.590037763233453
 20
12.38480115151844
 30
0.0000000000000001
 70
     8
  0
VERTEX
  5
C101
  8
PROF
 10
3.5773799762033032
 20
12.35928315978594
 30
0.0000000000000001
 70
     8
  0
VERTEX
  5
C102
  8
PROF
 10
3.5650837882230908
 20
12.33213153618658
 30
0.0000000000000001
 70
     8
  0
VERTEX
  5
C103
  8
PROF
 10
3.5529613366819599
 20
12.303020864681571
 30
0.0000000000000001
 70
     8
  0
VERTEX
  5
C104
  8
PROF
 10
3.540824758969165
 20
12.271625729232371
 30
0.0000000000000001
 70
     8
  0
VERTEX
  5
C105
  8
PROF
 10
3.5284861924738489
 20
12.23762071379997
 30
0.0000000000000001
 70
     8
  0
VERTEX
  5
C106
  8
PROF
 10
3.5157577745852668
 20
12.200680402345711
 30
0.0000000000000001
 70
     8
  0
VERTEX
  5
C107
  8
PROF
 10
3.5024516426926189
 20
12.16047937883093
 30
0.0000000000000001
 70
     8
  0
VERTEX
  5
C108
  8
PROF
 10
3.4883799341851041
 20
12.116692227216619
 30
0.0000000000000001
 70
     8
  0
VERTEX
  5
C109
  8
PROF
 10
3.4733547864519201
 20
12.06899353146423
 30
0.0000000000000001
 70
     8
  0
VERTEX
  5
C10A
  8
PROF
 10
3.45723654619428
 20
12.0172095445447
 30
0.0000000000000001
 70
     8
  0
VERTEX
  5
C10B
  8
PROF
 10
3.4400783973613889
 20
11.961773195467799
 30
0.0000000000000001
 70
     8
  0
VERTEX
  5
C10C
  8
PROF
 10
3.421981733214579
 20
11.90326908225302
 30
0.0000000000000001
 70
     8
  0
VERTEX
  5
C10D
  8
PROF
 10
3.4030479470150108
 20
11.842281802919951
 30
0.0000000000000001
 70
     8
  0
VERTEX
  5
C10E
  8
PROF
 10
3.383378432024017
 20
11.779395955487979
 30
0.0000000000000001
 70
     8
  0
VERTEX
  5
C10F
  8
PROF
 10
3.3630745815028709
 20
11.715196137976809
 30
0.0000000000000001
 70
     8
  0
VERTEX
  5
C110
  8
PROF
 10
3.3422377887127359
 20
11.650266948405831
 30
0.0000000000000001
 70
     8
  0
VERTEX
  5
C111
  8
PROF
 10
3.320969446915
 20
11.58519298479461
 30
0.0000000000000001
 70
     8
  0
VERTEX
  5
C112
  8
PROF
 10
3.2993709493707679
 20
11.520558845162549
 30
0.0000000000000001
 70
     8
  0
VERTEX
  5
C113
  8
PROF
 10
3.277543689341428
 20
11.456949127529469
 30
0.0000000000000001
 70
     8
  0
VERTEX
  5
C114
  8
PROF
 10
3.2555890600881412
 20
11.3949484299145
 30
0.0000000000000001
 70
     8
  0
VERTEX
  5
C115
  8
PROF
 10
3.233608454872182
 20
11.335141350337491
 30
0.0000000000000001
 70
     8
  0
VERTEX
  5
C116
  8
PROF
 10
3.2116715641212181
 20
11.27799544797778
 30
0.0000000000000001
 70
     8
  0
VERTEX
  5
C117
  8
PROF
 10
3.189721266927847
 20
11.22351012665467
 30
0.0000000000000001
 70
     8
  0
VERTEX
  5
C118
  8
PROF
 10
3.1676687395512881
 20
11.17156775134765
 30
0.0000000000000001
 70
     8
  0
VERTEX
  5
C119
  8
PROF
 10
3.1454251582505321
 20
11.12205068703588
 30
0.0000000000000001
 70
     8
  0
VERTEX
  5
C11A
  8
PROF
 10
3.122901699284625
 20
11.07484129869874
 30
0.0000000000000001
 70
     8
  0
VERTEX
  5
C11B
  8
PROF
 10
3.1000095389127291
 20
11.02982195131551
 30
0.0000000000000001
 70
     8
  0
VERTEX
  5
C11C
  8
PROF
 10
3.0766598533938909
 20
10.986875009865679
 30
0.0000000000000001
 70
     8
  0
VERTEX
  5
C11D
  8
PROF
 10
3.0527638189871591
 20
10.9458828393283
 30
0.0000000000000001
 70
     8
  0
VERTEX
  5
C11E
  8
PROF
 10
3.0282326119516361
 20
10.90672780468298
 30
0.0000000000000001
 70
     8
  0
VERTEX
  5
C11F
  8
PROF
 10
3.002977408546371
 20
10.869292270908771
 30
0.0000000000000001
 70
     8
  0
VERTEX
  5
C120
  8
PROF
 10
2.9769093850304098
 20
10.833458602985161
 30
0.0000000000000001
 70
     8
  0
VERTEX
  5
C121
  8
PROF
 10
2.9499397176628568
 20
10.799109165891419
 30
0.0000000000000001
 70
     8
  0
VERTEX
  5
C122
  8
PROF
 10
2.9220006098404379
 20
10.76614363969508
 30
0.0000000000000001
 70
     8
  0
VERTEX
  5
C123
  8
PROF
 10
2.8931083735103011
 20
10.7345309648158
 30
0.0000000000000001
 70
     8
  0
VERTEX
  5
C124
  8
PROF
 10
2.8633003477572738
 20
10.70425739676193
 30
0.0000000000000001
 70
     8
  0
VERTEX
  5
C125
  8
PROF
 10
2.8326138716660689
 20
10.67530919104115
 30
0.0000000000000001
 70
     8
  0
VERTEX
  5
C126
  8
PROF
 10
2.8010862843216269
 20
10.647672603161711
 30
0.0000000000000001
 70
     8
  0
VERTEX
  5
C127
  8
PROF
 10
2.7687549248087171
 20
10.62133388863162
 30
0.0000000000000001
 70
     8
  0
VERTEX
  5
C128
  8
PROF
 10
2.735657132212054
 20
10.5962793029588
 30
0.0000000000000001
 70
     8
  0
VERTEX
  5
C129
  8
PROF
 10
2.7018302456165202
 20
10.572495101651381
 30
0.0000000000000001
 70
     8
  0
VERTEX
  5
C12A
  8
PROF
 10
2.6673116041068852
 20
10.54996754021726
 30
0.0000000000000001
 70
     8
  0
VERTEX
  5
C12B
  8
PROF
 10
2.6321385467680321
 20
10.528682874164581
 30
0.0000000000000001
 70
     8
  0
VERTEX
  5
C12C
  8
PROF
 10
2.5963484126846188
 20
10.508627359001251
 30
0.0000000000000001
 70
     8
  0
VERTEX
  5
C12D
  8
PROF
 10
2.5599785409415849
 20
10.489787250235279
 30
0.0000000000000001
 70
     8
  0
VERTEX
  5
C12E
  8
PROF
 10
2.522998630314361
 20
10.472162234281081
 30
0.0000000000000001
 70
     8
  0
VERTEX
  5
C12F
  8
PROF
 10
2.4851078183409072
 20
10.455805721177621
 30
0.0000000000000001
 70
     8
  0
VERTEX
  5
C130
  8
PROF
 10
2.4459376022498982
 20
10.44078455187036
 30
0.0000000000000001
 70
     8
  0
VERTEX
  5
C131
  8
PROF
 10
2.4051194792701258
 20
10.42716556730465
 30
0.0000000000000001
 70
     8
  0
VERTEX
  5
C132
  8
PROF
 10
2.3622849466301541
 20
10.415015608425851
 30
0.0000000000000001
 70
     8
  0
VERTEX
  5
C133
  8
PROF
 10
2.3170655015587149
 20
10.40440151617929
 30
0.0000000000000001
 70
     8
  0
VERTEX
  5
C134
  8
PROF
 10
2.2690926412844301
 20
10.395390131510339
 30
0.0000000000000001
 70
     8
  0
VERTEX
  5
C135
  8
PROF
 10
2.2179978630360888
 20
10.388048295364451
 30
0.0000000000000001
 70
     8
  0
VERTEX
  5
C136
  8
PROF
 10
2.1634126640422551
 20
10.38244284868688
 30
0.0000000000000001
 70
     8
  0
VERTEX
  5
C137
  8
PROF
 10
2.104968541531604
 20
10.37864063242295
 30
0.0000000000000001
 70
     8
  0
VERTEX
  5
C138
  8
PROF
 10
2.0422969927328718
 20
10.37670848751816
 30
0.0000000000000001
 70
     8
  0
VERTEX
  5
C139
  8
PROF
 10
1.9750295148747341
 20
10.37671325491794
 30
0.0000000000000001
 70
     8
  0
VERTEX
  5
C13A
  8
PROF
 10
4.2166060115107484
 20
12.80885334975255
 30
0.0000000000000001
 70
    16
  0
VERTEX
  5
C13B
  8
PROF
 10
3.8702254102732918
 20
12.707065515763929
 30
0.0000000000000001
 70
    16
  0
VERTEX
  5
C13C
  8
PROF
 10
3.605346156896871
 20
12.46277472098552
 30
0.0000000000000001
 70
    16
  0
VERTEX
  5
C13D
  8
PROF
 10
3.500746030527238
 20
12.170680575709749
 30
0.0000000000000001
 70
    16
  0
VERTEX
  5
C13E
  8
PROF
 10
3.231798439705698
 20
11.26846416496107
 30
0.0000000000000001
 70
    16
  0
VERTEX
  5
C13F
  8
PROF
 10
2.9737109398832891
 20
10.76631086647069
 30
0.0000000000000001
 70
    16
  0
VERTEX
  5
C140
  8
PROF
 10
2.5729961067384011
 20
10.460947364504699
 30
0.0000000000000001
 70
    16
  0
VERTEX
  5
C141
  8
PROF
 10
2.253782621454604
 20
10.372731239449759
 30
0.0000000000000001
 70
    16
  0
VERTEX
  5
C142
  8
PROF
 10
1.9750295148747341
 20
10.37671325491794
 30
0.0000000000000001
 70
    16
  0
SEQEND
  5
C143
  8
PROF
  0
LINE
  5
C144
  8
PROF
 10
4.9012016798694162
 20
12.88585218805485
 30
0.0000000000000003
 11
4.5198575031869259
 21
12.88585218805485
 31
0.0000000000000003
  0
LINE
  5
C145
  8
PROF
 10
0.7321315362267457
 20
8.2026312473991538
 30
0.0000000000000006
 11
0.7321315362267457
 21
8.0511853963434987
 31
0.0000000000000006
  0
ARC
  5
C146
  8
PROF
 10
0.7977322214551919
 20
7.5773339332026799
 30
0.0000000000000006
 40
0.4783708383912012
 50
97.882010168942529
 51
186.31119505698649
  0
LINE
  5
C147
  8
FRAME_050
 10
7.8016377197432121
 20
17.99371054969447
 30
0.0
 11
7.8016377197432121
 21
0.0000000000002274
 31
0.0
  0
ENDBLK
  5
C149
  8
0
  0
BLOCK
  8
0
  2
*U5
 70
     1
 10
0.0
 20
0.0
 30
0.0
  3
*U5
  1

  0
TEXT
  5
FF90
  8
0
 10
3.5177832928899071
 20
10.38601584255777
 30
0.0
 40
0.125
  1
Crown Moulding
  0
TEXT
  5
FF91
  8
0
 10
3.5223876585106431
 20
10.17717091304435
 30
0.0
 40
0.125
  1
TL-AB509
  0
TEXT
  5
FF92
  8
0
 10
3.5074661032582561
 20
9.9667059289606801
 30
0.0
 40
0.125
  1
1-5/16" x 7-9/16"
  0
TEXT
  5
FF93
  8
0
 10
3.519403347460166
 20
9.7562409448770051
 30
0.0
 40
0.125
  1
800.66.TAGUE
  0
ENDBLK
  5
FF95
  8
0
  0
BLOCK
  8
0
  2
*U6
 70
     1
 10
0.0
 20
0.0
 30
0.0
  3
*U6
  1

  0
TEXT
  5
FF97
  8
0
 10
-384.50455335213479
 20
841.60906081355597
 30
0.0
 40
0.125
  1
Base Board
  0
TEXT
  5
FF98
  8
0
 10
-384.49585621707342
 20
841.40021588404272
 30
0.0
 40
0.125
  1
TL-2189
  0
TEXT
  5
FF99
  8
0
 10
-384.49909632621387
 20
841.18975089995877
 30
0.0
 40
0.125
  1
3/4" x 4-7/8"
  0
TEXT
  5
FF9A
  8
0
 10
-384.49884052812388
 20
840.97928591587515
 30
0.0
 40
0.125
  1
800.66.TAGUE
  0
ENDBLK
  5
FF9C
  8
0
  0
ENDSEC
  0
SECTION
  2
ENTITIES
  0
INSERT
  5
FC32
  8
0
  2
*U6
 10
0.0
 20
0.0
 30
0.0
  0
LINE
  5
FC33
  8
0
 10
-385.24672598142809
 20
843.41107472562089
 30
0.0
 11
-385.369304381316
 21
843.41107472562089
 31
0.0
  0
LINE
  5
FC34
  8
0
 10
-385.80536688322991
 20
844.16325684782919
 30
0.0
 11
-386.01102770566717
 21
844.16325684782919
 31
0.0
  0
POLYLINE
  5
FC35
  8
0
 66
     1
 10
0.0
 20
0.0
 30
0.0
 70
     8
  0
VERTEX
  5
FC36
  8
0
 10
-385.36953686198359
 20
843.41058815987924
 30
0.0
 70
    32
  0
VERTEX
  5
FC37
  8
0
 10
-385.37053686198362
 20
843.41458815987926
 30
0.0
 70
    32
  0
VERTEX
  5
FC38
  8
0
 10
-385.37053686198362
 20
843.4175881598793
 30
0.0
 70
    32
  0
VERTEX
  5
FC39
  8
0
 10
-385.3715368619836
 20
843.42058815987934
 30
0.0
 70
    32
  0
VERTEX
  5
FC3A
  8
0
 10
-385.37253686198358
 20
843.42358815987927
 30
0.0
 70
    32
  0
VERTEX
  5
FC3B
  8
0
 10
-385.37353686198361
 20
843.42658815987932
 30
0.0
 70
    32
  0
VERTEX
  5
FC3C
  8
0
 10
-385.37353686198361
 20
843.42958815987936
 30
0.0
 70
    32
  0
VERTEX
  5
FC3D
  8
0
 10
-385.37453686198359
 20
843.43258815987929
 30
0.0
 70
    32
  0
VERTEX
  5
FC3E
  8
0
 10
-385.37553686198362
 20
843.43558815987922
 30
0.0
 70
    32
  0
VERTEX
  5
FC3F
  8
0
 10
-385.37553686198362
 20
843.43858815987937
 30
0.0
 70
    32
  0
VERTEX
  5
FC40
  8
0
 10
-385.3765368619836
 20
843.44258815987928
 30
0.0
 70
    32
  0
VERTEX
  5
FC41
  8
0
 10
-385.37753686198357
 20
843.44558815987921
 30
0.0
 70
    32
  0
VERTEX
  5
FC42
  8
0
 10
-385.37753686198357
 20
843.44858815987936
 30
0.0
 70
    32
  0
VERTEX
  5
FC43
  8
0
 10
-385.3785368619836
 20
843.45158815987929
 30
0.0
 70
    32
  0
VERTEX
  5
FC44
  8
0
 10
-385.37953686198358
 20
843.45458815987922
 30
0.0
 70
    32
  0
VERTEX
  5
FC45
  8
0
 10
-385.37953686198358
 20
843.45758815987938
 30
0.0
 70
    32
  0
VERTEX
  5
FC46
  8
0
 10
-385.38053686198361
 20
843.46158815987928
 30
0.0
 70
    32
  0
VERTEX
  5
FC47
  8
0
 10
-385.38153686198359
 20
843.4645881598791
 30
0.0
 70
    32
  0
VERTEX
  5
FC48
  8
0
 10
-385.38153686198359
 20
843.46758815987937
 30
0.0
 70
    32
  0
VERTEX
  5
FC49
  8
0
 10
-385.38253686198368
 20
843.4705881598793
 30
0.0
 70
    32
  0
VERTEX
  5
FC4A
  8
0
 10
-385.38253686198368
 20
843.47358815987923
 30
0.0
 70
    32
  0
VERTEX
  5
FC4B
  8
0
 10
-385.3835368619836
 20
843.47658815987938
 30
0.0
 70
    32
  0
VERTEX
  5
FC4C
  8
0
 10
-385.38453686198358
 20
843.48058815987918
 30
0.0
 70
    32
  0
VERTEX
  5
FC4D
  8
0
 10
-385.38453686198358
 20
843.4835881598791
 30
0.0
 70
    32
  0
VERTEX
  5
FC4E
  8
0
 10
-385.38553686198361
 20
843.48658815987937
 30
0.0
 70
    32
  0
VERTEX
  5
FC4F
  8
0
 10
-385.38653686198359
 20
843.4895881598793
 30
0.0
 70
    32
  0
VERTEX
  5
FC50
  8
0
 10
-385.38753686198362
 20
843.49258815987912
 30
0.0
 70
    32
  0
VERTEX
  5
FC51
  8
0
 10
-385.38753686198362
 20
843.49558815987939
 30
0.0
 70
    32
  0
VERTEX
  5
FC52
  8
0
 10
-385.3885368619836
 20
843.49858815987932
 30
0.0
 70
    32
  0
VERTEX
  5
FC53
  8
0
 10
-385.38953686198357
 20
843.50258815987911
 30
0.0
 70
    32
  0
VERTEX
  5
FC54
  8
0
 10
-385.38953686198357
 20
843.50558815987938
 30
0.0
 70
    32
  0
VERTEX
  5
FC55
  8
0
 10
-385.39053686198361
 20
843.50858815987931
 30
0.0
 70
    32
  0
VERTEX
  5
FC56
  8
0
 10
-385.39153686198358
 20
843.51158815987912
 30
0.0
 70
    32
  0
VERTEX
  5
FC57
  8
0
 10
-385.39253686198361
 20
843.51458815987939
 30
0.0
 70
    32
  0
VERTEX
  5
FC58
  8
0
 10
-385.39353686198359
 20
843.51758815987932
 30
0.0
 70
    32
  0
VERTEX
  5
FC59
  8
0
 10
-385.39353686198359
 20
843.52058815987925
 30
0.0
 70
    32
  0
VERTEX
  5
FC5A
  8
0
 10
-385.39453686198362
 20
843.52358815987941
 30
0.0
 70
    32
  0
VERTEX
  5
FC5B
  8
0
 10
-385.3955368619836
 20
843.52658815987934
 30
0.0
 70
    32
  0
VERTEX
  5
FC5C
  8
0
 10
-385.39653686198358
 20
843.52958815987915
 30
0.0
 70
    32
  0
VERTEX
  5
FC5D
  8
0
 10
-385.39753686198361
 20
843.53258815987942
 30
0.0
 70
    32
  0
VERTEX
  5
FC5E
  8
0
 10
-385.39853686198359
 20
843.53558815987935
 30
0.0
 70
    32
  0
VERTEX
  5
FC5F
  8
0
 10
-385.39953686198362
 20
843.53858815987917
 30
0.0
 70
    32
  0
VERTEX
  5
FC60
  8
0
 10
-385.4005368619836
 20
843.54158815987944
 30
0.0
 70
    32
  0
VERTEX
  5
FC61
  8
0
 10
-385.40153686198357
 20
843.54458815987925
 30
0.0
 70
    32
  0
VERTEX
  5
FC62
  8
0
 10
-385.40253686198361
 20
843.54758815987918
 30
0.0
 70
    32
  0
VERTEX
  5
FC63
  8
0
 10
-385.40353686198358
 20
843.55058815987934
 30
0.0
 70
    32
  0
VERTEX
  5
FC64
  8
0
 10
-385.40453686198362
 20
843.55358815987927
 30
0.0
 70
    32
  0
VERTEX
  5
FC65
  8
0
 10
-385.40553686198359
 20
843.5565881598792
 30
0.0
 70
    32
  0
VERTEX
  5
FC66
  8
0
 10
-385.4075368619836
 20
843.55958815987935
 30
0.0
 70
    32
  0
VERTEX
  5
FC67
  8
0
 10
-385.40853686198358
 20
843.56258815987928
 30
0.0
 70
    32
  0
VERTEX
  5
FC68
  8
0
 10
-385.40953686198361
 20
843.56558815987921
 30
0.0
 70
    32
  0
VERTEX
  5
FC69
  8
0
 10
-385.41053686198359
 20
843.56758815987928
 30
0.0
 70
    32
  0
VERTEX
  5
FC6A
  8
0
 10
-385.4125368619836
 20
843.57058815987921
 30
0.0
 70
    32
  0
VERTEX
  5
FC6B
  8
0
 10
-385.41353686198357
 20
843.57358815987925
 30
0.0
 70
    32
  0
VERTEX
  5
FC6C
  8
0
 10
-385.41553686198358
 20
843.57658815987929
 30
0.0
 70
    32
  0
VERTEX
  5
FC6D
  8
0
 10
-385.41653686198362
 20
843.57958815987922
 30
0.0
 70
    32
  0
VERTEX
  5
FC6E
  8
0
 10
-385.41853686198363
 20
843.58158815987929
 30
0.0
 70
    32
  0
VERTEX
  5
FC6F
  8
0
 10
-385.4195368619836
 20
843.58458815987922
 30
0.0
 70
    32
  0
VERTEX
  5
FC70
  8
0
 10
-385.4215368619835
 20
843.58758815987926
 30
0.0
 70
    32
  0
VERTEX
  5
FC71
  8
0
 10
-385.42253686198359
 20
843.58958815987921
 30
0.0
 70
    32
  0
VERTEX
  5
FC72
  8
0
 10
-385.4245368619836
 20
843.59258815987926
 30
0.0
 70
    32
  0
VERTEX
  5
FC73
  8
0
 10
-385.42653686198361
 20
843.59458815987944
 30
0.0
 70
    32
  0
VERTEX
  5
FC74
  8
0
 10
-385.42753686198358
 20
843.59758815987925
 30
0.0
 70
    32
  0
VERTEX
  5
FC75
  8
0
 10
-385.42953686198359
 20
843.60058815987907
 30
0.0
 70
    32
  0
VERTEX
  5
FC76
  8
0
 10
-385.4315368619836
 20
843.60258815987925
 30
0.0
 70
    32
  0
VERTEX
  5
FC77
  8
0
 10
-385.43353686198361
 20
843.60558815987929
 30
0.0
 70
    32
  0
VERTEX
  5
FC78
  8
0
 10
-385.43553686198362
 20
843.60758815987924
 30
0.0
 70
    32
  0
VERTEX
  5
FC79
  8
0
 10
-385.43753686198357
 20
843.61058815987928
 30
0.0
 70
    32
  0
VERTEX
  5
FC7A
  8
0
 10
-385.43953686198358
 20
843.61258815987935
 30
0.0
 70
    32
  0
VERTEX
  5
FC7B
  8
0
 10
-385.44153686198359
 20
843.6145881598793
 30
0.0
 70
    32
  0
VERTEX
  5
FC7C
  8
0
 10
-385.4435368619836
 20
843.61758815987923
 30
0.0
 70
    32
  0
VERTEX
  5
FC7D
  8
0
 10
-385.44553686198361
 20
843.6195881598793
 30
0.0
 70
    32
  0
VERTEX
  5
FC7E
  8
0
 10
-385.44753686198362
 20
843.62258815987946
 30
0.0
 70
    32
  0
VERTEX
  5
FC7F
  8
0
 10
-385.44953686198357
 20
843.62458815987929
 30
0.0
 70
    32
  0
VERTEX
  5
FC80
  8
0
 10
-385.45153686198358
 20
843.62658815987925
 30
0.0
 70
    32
  0
VERTEX
  5
FC81
  8
0
 10
-385.45453686198363
 20
843.62858815987931
 30
0.0
 70
    32
  0
VERTEX
  5
FC82
  8
0
 10
-385.45653686198358
 20
843.63158815987936
 30
0.0
 70
    32
  0
VERTEX
  5
FC83
  8
0
 10
-385.45853686198359
 20
843.63358815987931
 30
0.0
 70
    32
  0
VERTEX
  5
FC84
  8
0
 10
-385.4605368619836
 20
843.63558815987915
 30
0.0
 70
    32
  0
VERTEX
  5
FC85
  8
0
 10
-385.46353686198358
 20
843.6385881598793
 30
0.0
 70
    32
  0
VERTEX
  5
FC86
  8
0
 10
-385.46553686198359
 20
843.64058815987937
 30
0.0
 70
    32
  0
VERTEX
  5
FC87
  8
0
 10
-385.4675368619836
 20
843.64258815987932
 30
0.0
 70
    32
  0
VERTEX
  5
FC88
  8
0
 10
-385.47053686198359
 20
843.64458815987928
 30
0.0
 70
    32
  0
VERTEX
  5
FC89
  8
0
 10
-385.4725368619836
 20
843.64658815987946
 30
0.0
 70
    32
  0
VERTEX
  5
FC8A
  8
0
 10
-385.47553686198358
 20
843.64858815987952
 30
0.0
 70
    32
  0
VERTEX
  5
FC8B
  8
0
 10
-385.47753686198359
 20
843.65058815987936
 30
0.0
 70
    32
  0
VERTEX
  5
FC8C
  8
0
 10
-385.4795368619836
 20
843.65358815987929
 30
0.0
 70
    32
  0
VERTEX
  5
FC8D
  8
0
 10
-385.48253686198359
 20
843.65558815987924
 30
0.0
 70
    32
  0
VERTEX
  5
FC8E
  8
0
 10
-385.4845368619836
 20
843.65758815987954
 30
0.0
 70
    32
  0
VERTEX
  5
FC8F
  8
0
 10
-385.48753686198359
 20
843.65958815987938
 30
0.0
 70
    32
  0
VERTEX
  5
FC90
  8
0
 10
-385.48953686198359
 20
843.66158815987933
 30
0.0
 70
    32
  0
VERTEX
  5
FC91
  8
0
 10
-385.49253686198358
 20
843.66358815987917
 30
0.0
 70
    32
  0
VERTEX
  5
FC92
  8
0
 10
-385.49553686198362
 20
843.66558815987923
 30
0.0
 70
    32
  0
VERTEX
  5
FC93
  8
0
 10
-385.49753686198358
 20
843.66758815987953
 30
0.0
 70
    32
  0
VERTEX
  5
FC94
  8
0
 10
-385.50053686198362
 20
843.66958815987937
 30
0.0
 70
    32
  0
VERTEX
  5
FC95
  8
0
 10
-385.50253686198357
 20
843.67158815987932
 30
0.0
 70
    32
  0
VERTEX
  5
FC96
  8
0
 10
-385.50553686198361
 20
843.67358815987916
 30
0.0
 70
    32
  0
VERTEX
  5
FC97
  8
0
 10
-385.5085368619836
 20
843.67558815987911
 30
0.0
 70
    32
  0
VERTEX
  5
FC98
  8
0
 10
-385.51053686198361
 20
843.67758815987941
 30
0.0
 70
    32
  0
VERTEX
  5
FC99
  8
0
 10
-385.5135368619836
 20
843.67958815987936
 30
0.0
 70
    32
  0
VERTEX
  5
FC9A
  8
0
 10
-385.51653686198358
 20
843.68058815987933
 30
0.0
 70
    32
  0
VERTEX
  5
FC9B
  8
0
 10
-385.51853686198359
 20
843.68258815987917
 30
0.0
 70
    32
  0
VERTEX
  5
FC9C
  8
0
 10
-385.52153686198358
 20
843.68458815987924
 30
0.0
 70
    32
  0
VERTEX
  5
FC9D
  8
0
 10
-385.52453686198362
 20
843.68658815987942
 30
0.0
 70
    32
  0
VERTEX
  5
FC9E
  8
0
 10
-385.52653686198357
 20
843.68858815987937
 30
0.0
 70
    32
  0
VERTEX
  5
FC9F
  8
0
 10
-385.52953686198362
 20
843.69058815987933
 30
0.0
 70
    32
  0
VERTEX
  5
FCA0
  8
0
 10
-385.5325368619836
 20
843.69258815987916
 30
0.0
 70
    32
  0
VERTEX
  5
FCA1
  8
0
 10
-385.53453686198361
 20
843.69358815987925
 30
0.0
 70
    32
  0
VERTEX
  5
FCA2
  8
0
 10
-385.5375368619836
 20
843.69558815987909
 30
0.0
 70
    32
  0
VERTEX
  5
FCA3
  8
0
 10
-385.54053686198358
 20
843.69758815987939
 30
0.0
 70
    32
  0
VERTEX
  5
FCA4
  8
0
 10
-385.54253686198359
 20
843.69958815987934
 30
0.0
 70
    32
  0
VERTEX
  5
FCA5
  8
0
 10
-385.54553686198358
 20
843.70158815987918
 30
0.0
 70
    32
  0
VERTEX
  5
FCA6
  8
0
 10
-385.54853686198362
 20
843.70258815987916
 30
0.0
 70
    32
  0
VERTEX
  5
FCA7
  8
0
 10
-385.55153686198361
 20
843.70458815987911
 30
0.0
 70
    32
  0
VERTEX
  5
FCA8
  8
0
 10
-385.55353686198362
 20
843.7065881598794
 30
0.0
 70
    32
  0
VERTEX
  5
FCA9
  8
0
 10
-385.5565368619836
 20
843.70858815987935
 30
0.0
 70
    32
  0
VERTEX
  5
FCAA
  8
0
 10
-385.55953686198359
 20
843.70958815987933
 30
0.0
 70
    32
  0
VERTEX
  5
FCAB
  8
0
 10
-385.5615368619836
 20
843.71158815987917
 30
0.0
 70
    32
  0
VERTEX
  5
FCAC
  8
0
 10
-385.56453686198358
 20
843.71358815987912
 30
0.0
 70
    32
  0
VERTEX
  5
FCAD
  8
0
 10
-385.56753686198363
 20
843.7145881598791
 30
0.0
 70
    32
  0
VERTEX
  5
FCAE
  8
0
 10
-385.57053686198361
 20
843.71658815987939
 30
0.0
 70
    32
  0
VERTEX
  5
FCAF
  8
0
 10
-385.57253686198362
 20
843.71858815987935
 30
0.0
 70
    32
  0
VERTEX
  5
FCB0
  8
0
 10
-385.57553686198361
 20
843.72058815987918
 30
0.0
 70
    32
  0
VERTEX
  5
FCB1
  8
0
 10
-385.57853686198359
 20
843.72158815987916
 30
0.0
 70
    32
  0
VERTEX
  5
FCB2
  8
0
 10
-385.5805368619836
 20
843.72358815987911
 30
0.0
 70
    32
  0
VERTEX
  5
FCB3
  8
0
 10
-385.58353686198359
 20
843.72558815987918
 30
0.0
 70
    32
  0
VERTEX
  5
FCB4
  8
0
 10
-385.58653686198357
 20
843.72658815987927
 30
0.0
 70
    32
  0
VERTEX
  5
FCB5
  8
0
 10
-385.58853686198358
 20
843.72858815987934
 30
0.0
 70
    32
  0
VERTEX
  5
FCB6
  8
0
 10
-385.59153686198363
 20
843.73058815987918
 30
0.0
 70
    32
  0
VERTEX
  5
FCB7
  8
0
 10
-385.59453686198361
 20
843.73258815987913
 30
0.0
 70
    32
  0
VERTEX
  5
FCB8
  8
0
 10
-385.59653686198362
 20
843.73358815987933
 30
0.0
 70
    32
  0
VERTEX
  5
FCB9
  8
0
 10
-385.59953686198361
 20
843.7355881598794
 30
0.0
 70
    32
  0
VERTEX
  5
FCBA
  8
0
 10
-385.60253686198359
 20
843.73758815987935
 30
0.0
 70
    32
  0
VERTEX
  5
FCBB
  8
0
 10
-385.6045368619836
 20
843.73958815987919
 30
0.0
 70
    32
  0
VERTEX
  5
FCBC
  8
0
 10
-385.60753686198359
 20
843.74058815987917
 30
0.0
 70
    32
  0
VERTEX
  5
FCBD
  8
0
 10
-385.61053686198358
 20
843.74258815987935
 30
0.0
 70
    32
  0
VERTEX
  5
FCBE
  8
0
 10
-385.61253686198359
 20
843.74458815987941
 30
0.0
 70
    32
  0
VERTEX
  5
FCBF
  8
0
 10
-385.61553686198363
 20
843.74658815987925
 30
0.0
 70
    32
  0
VERTEX
  5
FCC0
  8
0
 10
-385.61753686198358
 20
843.74758815987934
 30
0.0
 70
    32
  0
VERTEX
  5
FCC1
  8
0
 10
-385.62053686198362
 20
843.74958815987918
 30
0.0
 70
    32
  0
VERTEX
  5
FCC2
  8
0
 10
-385.62353686198361
 20
843.75158815987925
 30
0.0
 70
    32
  0
VERTEX
  5
FCC3
  8
0
 10
-385.62553686198362
 20
843.75358815987943
 30
0.0
 70
    32
  0
VERTEX
  5
FCC4
  8
0
 10
-385.6285368619836
 20
843.75558815987927
 30
0.0
 70
    32
  0
VERTEX
  5
FCC5
  8
0
 10
-385.63053686198361
 20
843.75658815987936
 30
0.0
 70
    32
  0
VERTEX
  5
FCC6
  8
0
 10
-385.6335368619836
 20
843.7585881598792
 30
0.0
 70
    32
  0
VERTEX
  5
FCC7
  8
0
 10
-385.63553686198361
 20
843.76058815987926
 30
0.0
 70
    32
  0
VERTEX
  5
FCC8
  8
0
 10
-385.6385368619836
 20
843.76258815987944
 30
0.0
 70
    32
  0
VERTEX
  5
FCC9
  8
0
 10
-385.64053686198361
 20
843.76458815987928
 30
0.0
 70
    32
  0
VERTEX
  5
FCCA
  8
0
 10
-385.64353686198359
 20
843.76658815987935
 30
0.0
 70
    32
  0
VERTEX
  5
FCCB
  8
0
 10
-385.6455368619836
 20
843.76858815987919
 30
0.0
 70
    32
  0
VERTEX
  5
FCCC
  8
0
 10
-385.64853686198359
 20
843.77058815987925
 30
0.0
 70
    32
  0
VERTEX
  5
FCCD
  8
0
 10
-385.6505368619836
 20
843.77258815987943
 30
0.0
 70
    32
  0
VERTEX
  5
FCCE
  8
0
 10
-385.65353686198358
 20
843.77458815987927
 30
0.0
 70
    32
  0
VERTEX
  5
FCCF
  8
0
 10
-385.65553686198359
 20
843.77658815987922
 30
0.0
 70
    32
  0
VERTEX
  5
FCD0
  8
0
 10
-385.65853686198358
 20
843.77858815987929
 30
0.0
 70
    32
  0
VERTEX
  5
FCD1
  8
0
 10
-385.66053686198359
 20
843.78058815987924
 30
0.0
 70
    32
  0
VERTEX
  5
FCD2
  8
0
 10
-385.6625368619836
 20
843.78258815987942
 30
0.0
 70
    32
  0
VERTEX
  5
FCD3
  8
0
 10
-385.66553686198358
 20
843.78458815987926
 30
0.0
 70
    32
  0
VERTEX
  5
FCD4
  8
0
 10
-385.66753686198359
 20
843.78658815987922
 30
0.0
 70
    32
  0
VERTEX
  5
FCD5
  8
0
 10
-385.6695368619836
 20
843.78858815987928
 30
0.0
 70
    32
  0
VERTEX
  5
FCD6
  8
0
 10
-385.67253686198359
 20
843.79058815987923
 30
0.0
 70
    32
  0
VERTEX
  5
FCD7
  8
0
 10
-385.6745368619836
 20
843.79358815987928
 30
0.0
 70
    32
  0
VERTEX
  5
FCD8
  8
0
 10
-385.67653686198361
 20
843.79558815987923
 30
0.0
 70
    32
  0
VERTEX
  5
FCD9
  8
0
 10
-385.67853686198362
 20
843.7975881598793
 30
0.0
 70
    32
  0
VERTEX
  5
FCDA
  8
0
 10
-385.6815368619836
 20
843.79958815987925
 30
0.0
 70
    32
  0
VERTEX
  5
FCDB
  8
0
 10
-385.68353686198361
 20
843.80258815987929
 30
0.0
 70
    32
  0
VERTEX
  5
FCDC
  8
0
 10
-385.68553686198362
 20
843.80458815987924
 30
0.0
 70
    32
  0
VERTEX
  5
FCDD
  8
0
 10
-385.68753686198357
 20
843.80658815987931
 30
0.0
 70
    32
  0
VERTEX
  5
FCDE
  8
0
 10
-385.68953686198358
 20
843.80858815987926
 30
0.0
 70
    32
  0
VERTEX
  5
FCDF
  8
0
 10
-385.69253686198363
 20
843.81158815987931
 30
0.0
 70
    32
  0
VERTEX
  5
FCE0
  8
0
 10
-385.69453686198358
 20
843.81358815987926
 30
0.0
 70
    32
  0
VERTEX
  5
FCE1
  8
0
 10
-385.69653686198359
 20
843.8165881598793
 30
0.0
 70
    32
  0
VERTEX
  5
FCE2
  8
0
 10
-385.6985368619836
 20
843.81858815987925
 30
0.0
 70
    32
  0
VERTEX
  5
FCE3
  8
0
 10
-385.70053686198361
 20
843.8215881598793
 30
0.0
 70
    32
  0
VERTEX
  5
FCE4
  8
0
 10
-385.70253686198362
 20
843.82358815987936
 30
0.0
 70
    32
  0
VERTEX
  5
FCE5
  8
0
 10
-385.70453686198363
 20
843.82658815987929
 30
0.0
 70
    32
  0
VERTEX
  5
FCE6
  8
0
 10
-385.70653686198358
 20
843.82858815987925
 30
0.0
 70
    32
  0
VERTEX
  5
FCE7
  8
0
 10
-385.70853686198359
 20
843.83158815987929
 30
0.0
 70
    32
  0
VERTEX
  5
FCE8
  8
0
 10
-385.7105368619836
 20
843.83358815987935
 30
0.0
 70
    32
  0
VERTEX
  5
FCE9
  8
0
 10
-385.71253686198361
 20
843.83658815987928
 30
0.0
 70
    32
  0
VERTEX
  5
FCEA
  8
0
 10
-385.71453686198362
 20
843.83858815987924
 30
0.0
 70
    32
  0
VERTEX
  5
FCEB
  8
0
 10
-385.71553686198359
 20
843.84158815987939
 30
0.0
 70
    32
  0
VERTEX
  5
FCEC
  8
0
 10
-385.7175368619836
 20
843.84458815987932
 30
0.0
 70
    32
  0
VERTEX
  5
FCED
  8
0
 10
-385.71953686198361
 20
843.84658815987916
 30
0.0
 70
    32
  0
VERTEX
  5
FCEE
  8
0
 10
-385.72153686198362
 20
843.84958815987909
 30
0.0
 70
    32
  0
VERTEX
  5
FCEF
  8
0
 10
-385.72353686198358
 20
843.85258815987936
 30
0.0
 70
    32
  0
VERTEX
  5
FCF0
  8
0
 10
-385.72453686198361
 20
843.85458815987931
 30
0.0
 70
    32
  0
VERTEX
  5
FCF1
  8
0
 10
-385.7265368619835
 20
843.85758815987924
 30
0.0
 70
    32
  0
VERTEX
  5
FCF2
  8
0
 10
-385.72853686198363
 20
843.8605881598794
 30
0.0
 70
    32
  0
VERTEX
  5
FCF3
  8
0
 10
-385.7295368619836
 20
843.86258815987935
 30
0.0
 70
    32
  0
VERTEX
  5
FCF4
  8
0
 10
-385.73153686198361
 20
843.86558815987917
 30
0.0
 70
    32
  0
VERTEX
  5
FCF5
  8
0
 10
-385.73353686198362
 20
843.8685881598791
 30
0.0
 70
    32
  0
VERTEX
  5
FCF6
  8
0
 10
-385.7345368619836
 20
843.87158815987937
 30
0.0
 70
    32
  0
VERTEX
  5
FCF7
  8
0
 10
-385.73653686198361
 20
843.87458815987929
 30
0.0
 70
    32
  0
VERTEX
  5
FCF8
  8
0
 10
-385.73753686198359
 20
843.87658815987925
 30
0.0
 70
    32
  0
VERTEX
  5
FCF9
  8
0
 10
-385.73953686198359
 20
843.8795881598794
 30
0.0
 70
    32
  0
VERTEX
  5
FCFA
  8
0
 10
-385.74053686198363
 20
843.88258815987933
 30
0.0
 70
    32
  0
VERTEX
  5
FCFB
  8
0
 10
-385.74253686198358
 20
843.88558815987915
 30
0.0
 70
    32
  0
VERTEX
  5
FCFC
  8
0
 10
-385.74353686198361
 20
843.88858815987942
 30
0.0
 70
    32
  0
VERTEX
  5
FCFD
  8
0
 10
-385.74553686198362
 20
843.89158815987935
 30
0.0
 70
    32
  0
VERTEX
  5
FCFE
  8
0
 10
-385.7465368619836
 20
843.89458815987916
 30
0.0
 70
    32
  0
VERTEX
  5
FCFF
  8
0
 10
-385.74753686198358
 20
843.89758815987943
 30
0.0
 70
    32
  0
VERTEX
  5
FD00
  8
0
 10
-385.74953686198359
 20
843.89958815987939
 30
0.0
 70
    32
  0
VERTEX
  5
FD01
  8
0
 10
-385.75053686198362
 20
843.90258815987931
 30
0.0
 70
    32
  0
VERTEX
  5
FD02
  8
0
 10
-385.7515368619836
 20
843.90558815987913
 30
0.0
 70
    32
  0
VERTEX
  5
FD03
  8
0
 10
-385.75253686198357
 20
843.9085881598794
 30
0.0
 70
    32
  0
VERTEX
  5
FD04
  8
0
 10
-385.75453686198358
 20
843.91158815987933
 30
0.0
 70
    32
  0
VERTEX
  5
FD05
  8
0
 10
-385.75553686198361
 20
843.91458815987914
 30
0.0
 70
    32
  0
VERTEX
  5
FD06
  8
0
 10
-385.75653686198359
 20
843.91758815987941
 30
0.0
 70
    32
  0
VERTEX
  5
FD07
  8
0
 10
-385.75753686198362
 20
843.92058815987934
 30
0.0
 70
    32
  0
VERTEX
  5
FD08
  8
0
 10
-385.7585368619836
 20
843.92358815987916
 30
0.0
 70
    32
  0
VERTEX
  5
FD09
  8
0
 10
-385.75953686198358
 20
843.92658815987943
 30
0.0
 70
    32
  0
VERTEX
  5
FD0A
  8
0
 10
-385.76053686198361
 20
843.92958815987924
 30
0.0
 70
    32
  0
VERTEX
  5
FD0B
  8
0
 10
-385.76153686198359
 20
843.93258815987917
 30
0.0
 70
    32
  0
VERTEX
  5
FD0C
  8
0
 10
-385.76253686198362
 20
843.93558815987933
 30
0.0
 70
    32
  0
VERTEX
  5
FD0D
  8
0
 10
-385.7635368619836
 20
843.93858815987926
 30
0.0
 70
    32
  0
VERTEX
  5
FD0E
  8
0
 10
-385.76453686198357
 20
843.94158815987919
 30
0.0
 70
    32
  0
VERTEX
  5
FD0F
  8
0
 10
-385.76553686198361
 20
843.94458815987934
 30
0.0
 70
    32
  0
VERTEX
  5
FD10
  8
0
 10
-385.76653686198358
 20
843.94758815987927
 30
0.0
 70
    32
  0
VERTEX
  5
FD11
  8
0
 10
-385.76753686198361
 20
843.9505881598792
 30
0.0
 70
    32
  0
VERTEX
  5
FD12
  8
0
 10
-385.76753686198361
 20
843.95358815987925
 30
0.0
 70
    32
  0
VERTEX
  5
FD13
  8
0
 10
-385.76853686198359
 20
843.95658815987929
 30
0.0
 70
    32
  0
VERTEX
  5
FD14
  8
0
 10
-385.76953686198362
 20
843.96058815987919
 30
0.0
 70
    32
  0
VERTEX
  5
FD15
  8
0
 10
-385.7705368619836
 20
843.96358815987935
 30
0.0
 70
    32
  0
VERTEX
  5
FD16
  8
0
 10
-385.77153686198358
 20
843.96658815987928
 30
0.0
 70
    32
  0
VERTEX
  5
FD17
  8
0
 10
-385.77253686198361
 20
843.96958815987921
 30
0.0
 70
    32
  0
VERTEX
  5
FD18
  8
0
 10
-385.77353686198359
 20
843.97258815987925
 30
0.0
 70
    32
  0
VERTEX
  5
FD19
  8
0
 10
-385.77453686198362
 20
843.97558815987918
 30
0.0
 70
    32
  0
VERTEX
  5
FD1A
  8
0
 10
-385.77453686198362
 20
843.97858815987922
 30
0.0
 70
    32
  0
VERTEX
  5
FD1B
  8
0
 10
-385.7755368619836
 20
843.98158815987927
 30
0.0
 70
    32
  0
VERTEX
  5
FD1C
  8
0
 10
-385.77653686198357
 20
843.98458815987919
 30
0.0
 70
    32
  0
VERTEX
  5
FD1D
  8
0
 10
-385.77753686198361
 20
843.98758815987924
 30
0.0
 70
    32
  0
VERTEX
  5
FD1E
  8
0
 10
-385.77853686198358
 20
843.99058815987928
 30
0.0
 70
    32
  0
VERTEX
  5
FD1F
  8
0
 10
-385.77953686198362
 20
843.99358815987921
 30
0.0
 70
    32
  0
VERTEX
  5
FD20
  8
0
 10
-385.77953686198362
 20
843.99658815987925
 30
0.0
 70
    32
  0
VERTEX
  5
FD21
  8
0
 10
-385.78053686198359
 20
843.99958815987929
 30
0.0
 70
    32
  0
VERTEX
  5
FD22
  8
0
 10
-385.78153686198362
 20
844.00358815987931
 30
0.0
 70
    32
  0
VERTEX
  5
FD23
  8
0
 10
-385.7825368619836
 20
844.00658815987936
 30
0.0
 70
    32
  0
VERTEX
  5
FD24
  8
0
 10
-385.78353686198358
 20
844.00958815987929
 30
0.0
 70
    32
  0
VERTEX
  5
FD25
  8
0
 10
-385.78353686198358
 20
844.01258815987944
 30
0.0
 70
    32
  0
VERTEX
  5
FD26
  8
0
 10
-385.78453686198361
 20
844.01558815987937
 30
0.0
 70
    32
  0
VERTEX
  5
FD27
  8
0
 10
-385.78553686198359
 20
844.0185881598793
 30
0.0
 70
    32
  0
VERTEX
  5
FD28
  8
0
 10
-385.78653686198362
 20
844.02158815987946
 30
0.0
 70
    32
  0
VERTEX
  5
FD29
  8
0
 10
-385.78653686198362
 20
844.02458815987939
 30
0.0
 70
    32
  0
VERTEX
  5
FD2A
  8
0
 10
-385.7875368619836
 20
844.02758815987931
 30
0.0
 70
    32
  0
VERTEX
  5
FD2B
  8
0
 10
-385.78853686198357
 20
844.03058815987924
 30
0.0
 70
    32
  0
VERTEX
  5
FD2C
  8
0
 10
-385.78953686198361
 20
844.03458815987938
 30
0.0
 70
    32
  0
VERTEX
  5
FD2D
  8
0
 10
-385.78953686198361
 20
844.03758815987931
 30
0.0
 70
    32
  0
VERTEX
  5
FD2E
  8
0
 10
-385.79053686198358
 20
844.04058815987923
 30
0.0
 70
    32
  0
VERTEX
  5
FD2F
  8
0
 10
-385.79153686198362
 20
844.04358815987939
 30
0.0
 70
    32
  0
VERTEX
  5
FD30
  8
0
 10
-385.79153686198362
 20
844.04658815987932
 30
0.0
 70
    32
  0
VERTEX
  5
FD31
  8
0
 10
-385.79253686198359
 20
844.04958815987925
 30
0.0
 70
    32
  0
VERTEX
  5
FD32
  8
0
 10
-385.79353686198363
 20
844.05258815987941
 30
0.0
 70
    32
  0
VERTEX
  5
FD33
  8
0
 10
-385.79353686198363
 20
844.05558815987933
 30
0.0
 70
    32
  0
VERTEX
  5
FD34
  8
0
 10
-385.7945368619836
 20
844.05958815987924
 30
0.0
 70
    32
  0
VERTEX
  5
FD35
  8
0
 10
-385.7945368619836
 20
844.0625881598794
 30
0.0
 70
    32
  0
VERTEX
  5
FD36
  8
0
 10
-385.79553686198358
 20
844.06558815987933
 30
0.0
 70
    32
  0
VERTEX
  5
FD37
  8
0
 10
-385.79553686198358
 20
844.06858815987925
 30
0.0
 70
    32
  0
VERTEX
  5
FD38
  8
0
 10
-385.79653686198361
 20
844.07158815987941
 30
0.0
 70
    32
  0
VERTEX
  5
FD39
  8
0
 10
-385.79753686198359
 20
844.07458815987934
 30
0.0
 70
    32
  0
VERTEX
  5
FD3A
  8
0
 10
-385.79753686198359
 20
844.07758815987916
 30
0.0
 70
    32
  0
VERTEX
  5
FD3B
  8
0
 10
-385.79853686198362
 20
844.0815881598794
 30
0.0
 70
    32
  0
VERTEX
  5
FD3C
  8
0
 10
-385.79853686198362
 20
844.08458815987933
 30
0.0
 70
    32
  0
VERTEX
  5
FD3D
  8
0
 10
-385.7995368619836
 20
844.08758815987915
 30
0.0
 70
    32
  0
VERTEX
  5
FD3E
  8
0
 10
-385.7995368619836
 20
844.09058815987908
 30
0.0
 70
    32
  0
VERTEX
  5
FD3F
  8
0
 10
-385.7995368619836
 20
844.09358815987935
 30
0.0
 70
    32
  0
VERTEX
  5
FD40
  8
0
 10
-385.80053686198357
 20
844.09658815987916
 30
0.0
 70
    32
  0
VERTEX
  5
FD41
  8
0
 10
-385.80053686198357
 20
844.09958815987909
 30
0.0
 70
    32
  0
VERTEX
  5
FD42
  8
0
 10
-385.80153686198361
 20
844.10358815987934
 30
0.0
 70
    32
  0
VERTEX
  5
FD43
  8
0
 10
-385.80153686198361
 20
844.10658815987915
 30
0.0
 70
    32
  0
VERTEX
  5
FD44
  8
0
 10
-385.80153686198361
 20
844.10958815987919
 30
0.0
 70
    32
  0
VERTEX
  5
FD45
  8
0
 10
-385.80253686198358
 20
844.11258815987935
 30
0.0
 70
    32
  0
VERTEX
  5
FD46
  8
0
 10
-385.80253686198358
 20
844.11558815987917
 30
0.0
 70
    32
  0
VERTEX
  5
FD47
  8
0
 10
-385.80253686198358
 20
844.11858815987932
 30
0.0
 70
    32
  0
VERTEX
  5
FD48
  8
0
 10
-385.80353686198362
 20
844.12258815987934
 30
0.0
 70
    32
  0
VERTEX
  5
FD49
  8
0
 10
-385.80353686198362
 20
844.12558815987916
 30
0.0
 70
    32
  0
VERTEX
  5
FD4A
  8
0
 10
-385.80353686198362
 20
844.12858815987943
 30
0.0
 70
    32
  0
VERTEX
  5
FD4B
  8
0
 10
-385.80453686198359
 20
844.13158815987936
 30
0.0
 70
    32
  0
VERTEX
  5
FD4C
  8
0
 10
-385.80453686198359
 20
844.13458815987917
 30
0.0
 70
    32
  0
VERTEX
  5
FD4D
  8
0
 10
-385.80453686198359
 20
844.13758815987944
 30
0.0
 70
    32
  0
VERTEX
  5
FD4E
  8
0
 10
-385.80453686198359
 20
844.14058815987926
 30
0.0
 70
    32
  0
VERTEX
  5
FD4F
  8
0
 10
-385.80453686198359
 20
844.14458815987916
 30
0.0
 70
    32
  0
VERTEX
  5
FD50
  8
0
 10
-385.80453686198359
 20
844.14758815987943
 30
0.0
 70
    32
  0
VERTEX
  5
FD51
  8
0
 10
-385.80553686198363
 20
844.15058815987925
 30
0.0
 70
    32
  0
VERTEX
  5
FD52
  8
0
 10
-385.80553686198363
 20
844.15358815987918
 30
0.0
 70
    32
  0
VERTEX
  5
FD53
  8
0
 10
-385.80553686198363
 20
844.15658815987945
 30
0.0
 70
    32
  0
VERTEX
  5
FD54
  8
0
 10
-385.80553686198363
 20
844.15958815987926
 30
0.0
 70
    32
  0
VERTEX
  5
FD55
  8
0
 10
-385.80553686198363
 20
844.16358815987928
 30
0.0
 70
    32
  0
SEQEND
  5
FD56
  8
0
  0
LINE
  5
FD57
  8
0
 10
-386.01102770566717
 20
839.28825684782919
 30
0.0
 11
-385.24672598142809
 21
839.28825684782919
 31
0.0
  0
LINE
  5
FD58
  8
0
 10
-385.24672598142809
 20
839.28825684782919
 30
0.0
 11
-385.24672598142809
 21
843.41107472562089
 31
0.0
  0
LINE
  5
FD59
  8
0
 10
-386.01102770566717
 20
844.16325684782919
 30
0.0
 11
-386.01102770566717
 21
839.28825684782919
 31
0.0
  0
VIEWPORT
  5
BADA
 67
     1
  8
0
 10
5.2499996651675369
 20
5.3822858121827988
 30
0.0
 40
16.212536403349191
 41
10.746291561859019
 68
     2
 69
     1
1001
ACAD
1000
MVIEW
1002
{
1070
    16
1010
0.0
1020
0.0
1030
0.0
1010
0.0
1020
0.0
1030
1.0
1040
0.0
1040
10.746291561859019
1040
5.2499996651675369
1040
5.3822858121827988
1040
50.0
1040
0.0
1040
0.0
1070
     0
1070
   100
1070
     1
1070
     1
1070
     0
1070
     0
1070
     0
1070
     0
1040
0.0
1040
0.0
1040
0.0
1040
0.5
1040
0.5
1040
0.5
1040
0.5
1070
     0
1002
{
1002
}
1002
}
  0
VIEWPORT
  5
BADD
 67
     1
  8
0
 10
5.2499996294871929
 20
4.0166741807634683
 30
0.0
 40
10.44245679893058
 41
7.8813805131999892
 68
     1
 69
     2
1001
ACAD
1000
MVIEW
1002
{
1070
    16
1010
0.0
1020
0.0
1030
0.0
1010
0.0
1020
0.0
1030
1.0
1040
0.0
1040
7.8813805131999892
1040
-385.38796061166317
1040
841.73261652009705
1040
50.0
1040
0.0
1040
0.0
1070
     0
1070
   100
1070
     1
1070
     2
1070
     0
1070
     0
1070
     0
1070
     0
1040
0.0
1040
0.0
1040
0.0
1040
0.5
1040
0.5
1040
0.5
1040
0.5
1070
     0
1002
{
1002
}
1002
}
  0
ENDSEC
  0
EOF
