  0
SECTION
  2
HEADER
  9
$ACADVER
  1
AC1009
  9
$INSBASE
 10
0.0
 20
0.0
 30
0.0
  9
$EXTMIN
 10
-388.64313409634332
 20
837.26866034725003
 30
0.0
  9
$EXTMAX
 10
-384.014298745546
 20
839.49713569384198
 30
0.0
  9
$LIMMIN
 10
0.0
 20
0.0
  9
$LIMMAX
 10
1500.0
 20
1500.0
  9
$ORTHOMODE
 70
     0
  9
$REGENMODE
 70
     1
  9
$FILLMODE
 70
     1
  9
$QTEXTMODE
 70
     0
  9
$MIRRTEXT
 70
     1
  9
$DRAGMODE
 70
     2
  9
$LTSCALE
 40
1.0
  9
$OSMODE
 70
    37
  9
$ATTMODE
 70
     1
  9
$TEXTSIZE
 40
1.5
  9
$TRACEWID
 40
0.05
  9
$TEXTSTYLE
  7
STANDARD
  9
$CLAYER
  8
0
  9
$CELTYPE
  6
BYLAYER
  9
$CECOLOR
 62
   256
  9
$DIMSCALE
 40
1.0
  9
$DIMASZ
 40
0.75
  9
$DIMEXO
 40
1.5
  9
$DIMDLI
 40
2.0
  9
$DIMRND
 40
0.0
  9
$DIMDLE
 40
0.0
  9
$DIMEXE
 40
1.0
  9
$DIMTP
 40
0.0
  9
$DIMTM
 40
0.0
  9
$DIMTXT
 40
1.5
  9
$DIMCEN
 40
2.0
  9
$DIMTSZ
 40
0.0
  9
$DIMTOL
 70
     0
  9
$DIMLIM
 70
     0
  9
$DIMTIH
 70
     0
  9
$DIMTOH
 70
     0
  9
$DIMSE1
 70
     0
  9
$DIMSE2
 70
     0
  9
$DIMTAD
 70
     1
  9
$DIMZIN
 70
     0
  9
$DIMBLK
  1
ARCHTICK
  9
$DIMASO
 70
     1
  9
$DIMSHO
 70
     1
  9
$DIMPOST
  1
"
  9
$DIMAPOST
  1

  9
$DIMALT
 70
     0
  9
$DIMALTD
 70
     2
  9
$DIMALTF
 40
25.399999999999999
  9
$DIMLFAC
 40
1.0
  9
$DIMTOFL
 70
     0
  9
$DIMTVP
 40
0.0
  9
$DIMTIX
 70
     1
  9
$DIMSOXD
 70
     0
  9
$DIMSAH
 70
     0
  9
$DIMBLK1
  1

  9
$DIMBLK2
  1

  9
$DIMSTYLE
  2
THREE_QUARTER_INCH_SCALE
  9
$DIMCLRD
 70
     0
  9
$DIMCLRE
 70
     0
  9
$DIMCLRT
 70
     0
  9
$DIMTFAC
 40
1.0
  9
$DIMGAP
 40
1.0
  9
$LUNITS
 70
     2
  9
$LUPREC
 70
     4
  9
$SKETCHINC
 40
0.1
  9
$FILLETRAD
 40
0.0
  9
$AUNITS
 70
     0
  9
$AUPREC
 70
     0
  9
$MENU
  1
.
  9
$ELEVATION
 40
0.0
  9
$PELEVATION
 40
0.0
  9
$THICKNESS
 40
0.0
  9
$LIMCHECK
 70
     0
  9
$BLIPMODE
 70
     0
  9
$CHAMFERA
 40
0.5
  9
$CHAMFERB
 40
0.5
  9
$SKPOLY
 70
     0
  9
$TDCREATE
 40
2452089.395738773
  9
$TDUPDATE
 40
2453613.3129768861
  9
$TDINDWG
 40
0.986860787
  9
$TDUSRTIMER
 40
0.9868606134
  9
$USRTIMER
 70
     1
  9
$ANGBASE
 50
0.0
  9
$ANGDIR
 70
     0
  9
$PDMODE
 70
     0
  9
$PDSIZE
 40
10.0
  9
$PLINEWID
 40
0.0
  9
$COORDS
 70
     1
  9
$SPLFRAME
 70
     0
  9
$SPLINETYPE
 70
     6
  9
$SPLINESEGS
 70
     8
  9
$ATTDIA
 70
     0
  9
$ATTREQ
 70
     1
  9
$HANDLING
 70
     1
  9
$HANDSEED
  5
CD44
  9
$SURFTAB1
 70
     6
  9
$SURFTAB2
 70
     6
  9
$SURFTYPE
 70
     6
  9
$SURFU
 70
     6
  9
$SURFV
 70
     6
  9
$UCSNAME
  2

  9
$UCSORG
 10
0.0
 20
0.0
 30
0.0
  9
$UCSXDIR
 10
1.0
 20
0.0
 30
0.0
  9
$UCSYDIR
 10
0.0
 20
1.0
 30
0.0
  9
$PUCSNAME
  2

  9
$PUCSORG
 10
0.0
 20
0.0
 30
0.0
  9
$PUCSXDIR
 10
1.0
 20
0.0
 30
0.0
  9
$PUCSYDIR
 10
0.0
 20
1.0
 30
0.0
  9
$USERI1
 70
     0
  9
$USERI2
 70
     0
  9
$USERI3
 70
     0
  9
$USERI4
 70
     0
  9
$USERI5
 70
     0
  9
$USERR1
 40
0.0
  9
$USERR2
 40
0.0
  9
$USERR3
 40
0.0
  9
$USERR4
 40
0.0
  9
$USERR5
 40
0.0
  9
$WORLDVIEW
 70
     1
  9
$SHADEDGE
 70
     3
  9
$SHADEDIF
 70
    70
  9
$TILEMODE
 70
     0
  9
$MAXACTVP
 70
    64
  9
$PLIMCHECK
 70
     0
  9
$PEXTMIN
 10
0.0282895744820628
 20
0.0759353784799721
 30
-0.0015258207003583
  9
$PEXTMAX
 10
10.47170975585299
 20
7.9577863512286546
 30
0.0000000349246037
  9
$PLIMMIN
 10
-0.1682389550263349
 20
-0.2033427855578579
  9
$PLIMMAX
 10
10.754640548407011
 20
8.2370640492290015
  9
$UNITMODE
 70
     0
  9
$VISRETAIN
 70
     1
  9
$PLINEGEN
 70
     0
  9
$PSLTSCALE
 70
     1
  0
ENDSEC
  0
SECTION
  2
TABLES
  0
TABLE
  2
VPORT
 70
     1
  0
VPORT
  2
*ACTIVE
 70
     0
 10
0.0
 20
0.0
 11
1.0
 21
1.0
 12
-386.52380251144001
 22
838.09204166179234
 13
0.0
 23
0.0
 14
0.5
 24
0.5
 15
0.5
 25
0.5
 16
0.0
 26
0.0
 36
1.0
 17
0.0
 27
0.0
 37
0.0
 40
3.930952126162941
 41
2.0226628895184122
 42
50.0
 43
0.0
 44
0.0
 50
0.0
 51
0.0
 71
     0
 72
   100
 73
     1
 74
     2
 75
     0
 76
     0
 77
     0
 78
     0
  0
ENDTAB
  0
TABLE
  2
LTYPE
 70
     1
  0
LTYPE
  2
CONTINUOUS
 70
     0
  3
Solid line
 72
    65
 73
     0
 40
0.0
  0
ENDTAB
  0
TABLE
  2
LAYER
 70
    10
  0
LAYER
  2
0
 70
     0
 62
     7
  6
CONTINUOUS
  0
LAYER
  2
DEFPOINTS
 70
     0
 62
     7
  6
CONTINUOUS
  0
LAYER
  2
FRAME_200
 70
     0
 62
     8
  6
CONTINUOUS
  0
LAYER
  2
FRAME_070
 70
     0
 62
     5
  6
CONTINUOUS
  0
LAYER
  2
FRAME_050
 70
     0
 62
     6
  6
CONTINUOUS
  0
LAYER
  2
TITLE_BLOCK
 70
     0
 62
     7
  6
CONTINUOUS
  0
LAYER
  2
FRAME_025
 70
     0
 62
     7
  6
CONTINUOUS
  0
LAYER
  2
VIEWPORT
 70
     0
 62
     7
  6
CONTINUOUS
  0
LAYER
  2
PROF
 70
     0
 62
     7
  6
CONTINUOUS
  0
LAYER
  2
PROFILE
 70
     0
 62
     7
  6
CONTINUOUS
  0
ENDTAB
  0
TABLE
  2
STYLE
 70
     2
  0
STYLE
  2
STANDARD
 70
     0
 40
0.0
 41
1.0
 50
0.0
 71
     0
 42
1.5
  3
txt
  4

  0
STYLE
  2
ISO_PROPORTIONAL
 70
     0
 40
0.0
 41
1.0
 50
0.0
 71
     0
 42
2.5
  3
isocp.shx
  4

  0
ENDTAB
  0
TABLE
  2
VIEW
 70
     0
  0
ENDTAB
  0
TABLE
  2
UCS
 70
     0
  0
ENDTAB
  0
TABLE
  2
APPID
 70
     6
  0
APPID
  2
ACAD
 70
     0
  0
APPID
  2
DCO15
 70
     0
  0
APPID
  2
ACAD_EXEMPT_FROM_CAD_STANDARDS
 70
     0
  0
APPID
  2
ACAD_PSEXT
 70
     0
  0
APPID
  2
CONTENTBLOCKDESCRIPTION
 70
     0
  0
APPID
  2
CONTENTBLOCKICON
 70
     0
  0
ENDTAB
  0
TABLE
  2
DIMSTYLE
 70
    10
  0
DIMSTYLE
  2
FULL_SCALE
 70
     0
  3
"
  4

  5

  6

  7

 40
1.0
 41
0.046875
 42
0.09375
 43
0.125
 44
0.0625
 45
0.0
 46
0.0
 47
0.0
 48
0.0
140
0.125
141
0.125
142
0.0
143
25.399999999999999
144
1.0
145
0.0
146
1.0
147
0.0625
 71
     0
 72
     0
 73
     0
 74
     0
 75
     0
 76
     0
 77
     1
 78
     0
170
     0
171
     2
172
     0
173
     0
174
     1
175
     0
176
     0
177
     0
178
     0
  0
DIMSTYLE
  2
HALF_SCALE
 70
     0
  3
"
  4

  5

  6

  7

 40
1.0
 41
0.09375
 42
0.1875
 43
0.25
 44
0.125
 45
0.0
 46
0.0
 47
0.0
 48
0.0
140
0.25
141
0.25
142
0.0
143
25.399999999999999
144
1.0
145
0.0
146
1.0
147
0.125
 71
     0
 72
     0
 73
     0
 74
     0
 75
     0
 76
     0
 77
     1
 78
     0
170
     0
171
     2
172
     0
173
     0
174
     1
175
     0
176
     0
177
     0
178
     0
  0
DIMSTYLE
  2
INCH_SCALE
 70
     0
  3
"
  4

  5

  6

  7

 40
1.0
 41
0.5625
 42
1.125
 43
1.5
 44
0.75
 45
0.0
 46
0.0
 47
0.0
 48
0.0
140
1.125
141
1.5
142
0.0
143
25.399999999999999
144
1.0
145
0.0
146
1.0
147
0.75
 71
     0
 72
     0
 73
     0
 74
     0
 75
     0
 76
     0
 77
     1
 78
     0
170
     0
171
     2
172
     0
173
     0
174
     1
175
     0
176
     0
177
     0
178
     0
  0
DIMSTYLE
  2
THREE_QUARTER_INCH_SCALE
 70
     0
  3
"
  4

  5

  6

  7

 40
1.0
 41
0.75
 42
1.5
 43
2.0
 44
1.0
 45
0.0
 46
0.0
 47
0.0
 48
0.0
140
1.5
141
2.0
142
0.0
143
25.399999999999999
144
1.0
145
0.0
146
1.0
147
1.0
 71
     0
 72
     0
 73
     0
 74
     0
 75
     0
 76
     0
 77
     1
 78
     0
170
     0
171
     2
172
     0
173
     0
174
     1
175
     0
176
     0
177
     0
178
     0
  0
DIMSTYLE
  2
ZHALF_INCH_SCALE
 70
     0
  3
"
  4

  5

  6

  7

 40
1.0
 41
1.125
 42
2.25
 43
3.0
 44
1.5
 45
0.0
 46
0.0
 47
0.0
 48
0.0
140
2.25
141
3.0
142
0.0
143
25.399999999999999
144
1.0
145
0.0
146
1.0
147
1.5
 71
     0
 72
     0
 73
     0
 74
     0
 75
     0
 76
     0
 77
     1
 78
     0
170
     0
171
     2
172
     0
173
     0
174
     1
175
     0
176
     0
177
     0
178
     0
  0
DIMSTYLE
  2
FULL_SCALE0
 70
     0
  3
"
  4

  5
ARCHTICK
  6

  7

 40
1.0
 41
0.046875
 42
0.09375
 43
0.125
 44
0.0625
 45
0.0
 46
0.0
 47
0.0
 48
0.0
140
0.125
141
0.125
142
0.0
143
25.399999999999999
144
1.0
145
0.0
146
1.0
147
0.0625
 71
     0
 72
     0
 73
     0
 74
     0
 75
     0
 76
     0
 77
     1
 78
     0
170
     0
171
     2
172
     0
173
     0
174
     1
175
     0
176
     0
177
     0
178
     0
  0
DIMSTYLE
  2
HALF_SCALE0
 70
     0
  3
"
  4

  5
ARCHTICK
  6

  7

 40
1.0
 41
0.09375
 42
0.1875
 43
0.25
 44
0.125
 45
0.0
 46
0.0
 47
0.0
 48
0.0
140
0.25
141
0.25
142
0.0
143
25.399999999999999
144
1.0
145
0.0
146
1.0
147
0.125
 71
     0
 72
     0
 73
     0
 74
     0
 75
     0
 76
     0
 77
     1
 78
     0
170
     0
171
     2
172
     0
173
     0
174
     1
175
     0
176
     0
177
     0
178
     0
  0
DIMSTYLE
  2
INCH_SCALE0
 70
     0
  3
"
  4

  5
ARCHTICK
  6

  7

 40
1.0
 41
0.5625
 42
1.125
 43
1.5
 44
0.75
 45
0.0
 46
0.0
 47
0.0
 48
0.0
140
1.125
141
1.5
142
0.0
143
25.399999999999999
144
1.0
145
0.0
146
1.0
147
0.75
 71
     0
 72
     0
 73
     0
 74
     0
 75
     0
 76
     0
 77
     1
 78
     0
170
     0
171
     2
172
     0
173
     0
174
     1
175
     0
176
     0
177
     0
178
     0
  0
DIMSTYLE
  2
THREE_QUARTER_INCH_SCALE0
 70
     0
  3
"
  4

  5
ARCHTICK
  6

  7

 40
1.0
 41
0.75
 42
1.5
 43
2.0
 44
1.0
 45
0.0
 46
0.0
 47
0.0
 48
0.0
140
1.5
141
2.0
142
0.0
143
25.399999999999999
144
1.0
145
0.0
146
1.0
147
1.0
 71
     0
 72
     0
 73
     0
 74
     0
 75
     0
 76
     0
 77
     1
 78
     0
170
     0
171
     2
172
     0
173
     0
174
     1
175
     0
176
     0
177
     0
178
     0
  0
DIMSTYLE
  2
ZHALF_INCH_SCALE0
 70
     0
  3
"
  4

  5
ARCHTICK
  6

  7

 40
1.0
 41
1.125
 42
2.25
 43
3.0
 44
1.5
 45
0.0
 46
0.0
 47
0.0
 48
0.0
140
2.25
141
3.0
142
0.0
143
25.399999999999999
144
1.0
145
0.0
146
1.0
147
1.5
 71
     0
 72
     0
 73
     0
 74
     0
 75
     0
 76
     0
 77
     1
 78
     0
170
     0
171
     2
172
     0
173
     0
174
     1
175
     0
176
     0
177
     0
178
     0
  0
ENDTAB
  0
ENDSEC
  0
SECTION
  2
BLOCKS
  0
BLOCK
  8
0
  2
$MODEL_SPACE
 70
     0
 10
0.0
 20
0.0
 30
0.0
  3
$MODEL_SPACE
  1

  0
ENDBLK
  5
C9DC
  8
0
  0
BLOCK
 67
     1
  8
0
  2
$PAPER_SPACE
 70
     0
 10
0.0
 20
0.0
 30
0.0
  3
$PAPER_SPACE
  1

  0
ENDBLK
  5
C9D8
 67
     1
  8
0
  0
BLOCK
  8
0
  2
_ARCHTICK
 70
     0
 10
0.0
 20
0.0
 30
0.0
  3
_ARCHTICK
  1

  0
POLYLINE
  5
158
  8
0
  6
BYBLOCK
 62
     0
 66
     1
 10
0.0
 20
0.0
 30
0.0
 40
0.15
 41
0.15
  0
VERTEX
  5
CD19
  8
0
  6
BYBLOCK
 62
     0
 10
-0.5
 20
-0.5
 30
0.0
  0
VERTEX
  5
CD1A
  8
0
  6
BYBLOCK
 62
     0
 10
0.5
 20
0.5
 30
0.0
  0
SEQEND
  5
CD1B
  8
0
  6
BYBLOCK
 62
     0
  0
ENDBLK
  5
15A
  8
0
  0
BLOCK
  8
0
  2
_OPEN30
 70
     0
 10
0.0
 20
0.0
 30
0.0
  3
_OPEN30
  1

  0
LINE
  5
15C
  8
0
  6
BYBLOCK
 62
     0
 10
-1.0
 20
0.26794919
 30
0.0
 11
0.0
 21
0.0
 31
0.0
  0
LINE
  5
15D
  8
0
  6
BYBLOCK
 62
     0
 10
0.0
 20
0.0
 30
0.0
 11
-1.0
 21
-0.26794919
 31
0.0
  0
LINE
  5
15E
  8
0
  6
BYBLOCK
 62
     0
 10
0.0
 20
0.0
 30
0.0
 11
-1.0
 21
0.0
 31
0.0
  0
ENDBLK
  5
160
  8
0
  0
BLOCK
  8
0
  2
ISO_A2_TITLE_BLOCK
 70
     2
 10
0.0
 20
0.0
 30
0.0
  3
ISO_A2_TITLE_BLOCK
  1

  0
LINE
  5
BDD
  8
FRAME_050
 10
299.5
 20
12.5
 30
0.0
 11
297.0
 21
7.5
 31
0.0
  0
LINE
  5
BDE
  8
FRAME_050
 10
294.5
 20
12.5
 30
0.0
 11
299.5
 21
12.5
 31
0.0
  0
LINE
  5
BDF
  8
FRAME_050
 10
247.0
 20
5.0
 30
0.0
 11
347.0
 21
5.0
 31
0.0
  0
LINE
  5
BE0
  8
FRAME_070
 10
584.0
 20
410.0
 30
0.0
 11
10.0
 21
410.0
 31
0.0
  0
LINE
  5
BE1
  8
FRAME_070
 10
10.0
 20
10.0
 30
0.0
 11
584.0
 21
10.0
 31
0.0
  0
LINE
  5
BE2
  8
FRAME_050
 10
12.5
 20
207.5
 30
0.0
 11
7.5
 21
210.0
 31
0.0
  0
LINE
  5
BE3
  8
FRAME_050
 10
12.5
 20
212.5
 30
0.0
 11
12.5
 21
207.5
 31
0.0
  0
LINE
  5
BE4
  8
FRAME_070
 10
10.0
 20
410.0
 30
0.0
 11
10.0
 21
10.0
 31
0.0
  0
LINE
  5
BE5
  8
FRAME_200
 10
0.0
 20
0.0
 30
0.0
 11
0.0
 21
10.0
 31
0.0
  0
LINE
  5
BE6
  8
FRAME_200
 10
0.0
 20
0.0
 30
0.0
 11
10.0
 21
0.0
 31
0.0
  0
TEXT
  5
BE7
  8
FRAME_050
 10
5.9000000000000004
 20
35.0
 30
0.0
 40
4.0
  1
H
  7
ISO_PROPORTIONAL
 72
     4
 11
7.5
 21
37.0
 31
0.0
  0
LINE
  5
BE8
  8
FRAME_050
 10
10.0
 20
60.0
 30
0.0
 11
5.0
 21
60.0
 31
0.0
  0
LINE
  5
BE9
  8
FRAME_050
 10
81.75
 20
5.0
 30
0.0
 11
81.75
 21
10.0
 31
0.0
  0
TEXT
  5
BEA
  8
FRAME_050
 10
44.874999999999993
 20
5.5
 30
0.0
 40
4.0
  1
1
  7
ISO_PROPORTIONAL
 72
     4
 11
45.875
 21
7.5
 31
0.0
  0
TEXT
  5
BEB
  8
FRAME_050
 10
6.0035533905932743
 20
85.0
 30
0.0
 40
4.0
  1
G
  7
ISO_PROPORTIONAL
 72
     4
 11
7.5
 21
87.0
 31
0.0
  0
LINE
  5
BEC
  8
FRAME_050
 10
10.0
 20
110.0
 30
0.0
 11
5.0
 21
110.0
 31
0.0
  0
TEXT
  5
BED
  8
FRAME_050
 10
6.0999999999999988
 20
135.0
 30
0.0
 40
4.0
  1
F
  7
ISO_PROPORTIONAL
 72
     4
 11
7.5
 21
137.0
 31
0.0
  0
LINE
  5
BEE
  8
FRAME_050
 10
10.0
 20
160.0
 30
0.0
 11
5.0
 21
160.0
 31
0.0
  0
TEXT
  5
BEF
  8
FRAME_050
 10
6.0999999999999988
 20
185.0
 30
0.0
 40
4.0
  1
E
  7
ISO_PROPORTIONAL
 72
     4
 11
7.5
 21
187.0
 31
0.0
  0
LINE
  5
BF0
  8
FRAME_050
 10
153.5
 20
5.0
 30
0.0
 11
153.5
 21
10.0
 31
0.0
  0
TEXT
  5
BF1
  8
FRAME_050
 10
116.1556692913386
 20
5.3996062992125982
 30
0.0
 40
4.0
  1
2
  7
ISO_PROPORTIONAL
 72
     4
 11
117.625
 21
7.5
 31
0.0
  0
TEXT
  5
BF2
  8
FRAME_050
 10
187.89215728752529
 20
5.5828427124746138
 30
0.0
 40
4.0
  1
3
  7
ISO_PROPORTIONAL
 72
     4
 11
189.375
 21
7.5
 31
0.0
  0
LINE
  5
BF3
  8
FRAME_050
 10
225.25
 20
5.0
 30
0.0
 11
225.25
 21
10.0
 31
0.0
  0
LINE
  5
BF4
  8
FRAME_050
 10
297.0
 20
7.5
 30
0.0
 11
294.5
 21
12.5
 31
0.0
  0
LINE
  5
BF5
  8
FRAME_050
 10
287.0
 20
5.0
 30
0.0
 11
287.0
 21
10.0
 31
0.0
  0
LINE
  5
BF6
  8
FRAME_050
 10
277.0
 20
5.0
 30
0.0
 11
277.0
 21
10.0
 31
0.0
  0
LINE
  5
BF7
  8
FRAME_050
 10
267.0
 20
5.0
 30
0.0
 11
267.0
 21
10.0
 31
0.0
  0
LINE
  5
BF8
  8
FRAME_050
 10
257.0
 20
5.0
 30
0.0
 11
257.0
 21
10.0
 31
0.0
  0
LINE
  5
BF9
  8
FRAME_050
 10
247.0
 20
5.0
 30
0.0
 11
247.0
 21
10.0
 31
0.0
  0
LINE
  5
BFA
  8
FRAME_050
 10
297.0
 20
10.0
 30
0.0
 11
297.0
 21
5.0
 31
0.0
  0
LINE
  5
BFB
  8
FRAME_050
 10
297.0
 20
10.0
 30
0.0
 11
297.0
 21
15.0
 31
0.0
  0
LINE
  5
BFC
  8
FRAME_050
 10
5.0
 20
210.0
 30
0.0
 11
15.0
 21
210.0
 31
0.0
  0
LINE
  5
BFD
  8
FRAME_050
 10
7.5
 20
210.0
 30
0.0
 11
12.5
 21
212.5
 31
0.0
  0
TEXT
  5
BFE
  8
FRAME_050
 10
5.7860912703473977
 20
235.0
 30
0.0
 40
4.0
  1
D
  7
ISO_PROPORTIONAL
 72
     4
 11
7.5
 21
237.0
 31
0.0
  0
LINE
  5
BFF
  8
FRAME_050
 10
10.0
 20
260.0
 30
0.0
 11
5.0
 21
260.0
 31
0.0
  0
TEXT
  5
C00
  8
FRAME_050
 10
6.1931980515339466
 20
285.0
 30
0.0
 40
4.0
  1
C
  7
ISO_PROPORTIONAL
 72
     4
 11
7.5
 21
287.0
 31
0.0
  0
LINE
  5
C01
  8
FRAME_050
 10
10.0
 20
310.0
 30
0.0
 11
5.0
 21
310.0
 31
0.0
  0
TEXT
  5
C02
  8
FRAME_050
 10
5.8999999999999959
 20
335.0
 30
0.0
 40
4.0
  1
B
  7
ISO_PROPORTIONAL
 72
     4
 11
7.5
 21
337.0
 31
0.0
  0
LINE
  5
C03
  8
FRAME_050
 10
10.0
 20
360.0
 30
0.0
 11
5.0
 21
360.0
 31
0.0
  0
TEXT
  5
C04
  8
FRAME_050
 10
5.6999999999999993
 20
385.0
 30
0.0
 40
4.0
  1
A
  7
ISO_PROPORTIONAL
 72
     4
 11
7.5
 21
387.0
 31
0.0
  0
LINE
  5
C05
  8
FRAME_200
 10
10.0
 20
420.0
 30
0.0
 11
0.0
 21
420.0
 31
0.0
  0
LINE
  5
C06
  8
FRAME_200
 10
0.0
 20
420.0
 30
0.0
 11
0.0
 21
410.0
 31
0.0
  0
TEXT
  5
C07
  8
FRAME_050
 10
44.874999999999993
 20
410.5
 30
0.0
 40
4.0
  1
1
  7
ISO_PROPORTIONAL
 72
     4
 11
45.875
 21
412.5
 31
0.0
  0
LINE
  5
C08
  8
FRAME_050
 10
81.75
 20
410.0
 30
0.0
 11
81.75
 21
415.0
 31
0.0
  0
TEXT
  5
C09
  8
FRAME_050
 10
116.1556692913386
 20
410.39960629921262
 30
0.0
 40
4.0
  1
2
  7
ISO_PROPORTIONAL
 72
     4
 11
117.625
 21
412.5
 31
0.0
  0
LINE
  5
C0A
  8
FRAME_050
 10
153.5
 20
410.0
 30
0.0
 11
153.5
 21
415.0
 31
0.0
  0
TEXT
  5
C0B
  8
FRAME_050
 10
187.89215728752529
 20
410.58284271247459
 30
0.0
 40
4.0
  1
3
  7
ISO_PROPORTIONAL
 72
     4
 11
189.375
 21
412.5
 31
0.0
  0
LINE
  5
C0C
  8
FRAME_050
 10
297.0
 20
405.0
 30
0.0
 11
297.0
 21
415.0
 31
0.0
  0
LINE
  5
C0D
  8
FRAME_050
 10
225.25
 20
410.0
 30
0.0
 11
225.25
 21
415.0
 31
0.0
  0
TEXT
  5
C0E
  8
FRAME_050
 10
259.52499999999998
 20
410.5
 30
0.0
 40
4.0
  1
4
  7
ISO_PROPORTIONAL
 72
     4
 11
261.125
 21
412.5
 31
0.0
  0
LINE
  5
C0F
  8
FRAME_070
 10
584.0
 20
10.0
 30
0.0
 11
584.0
 21
410.0
 31
0.0
  0
ATTDEF
  5
C10
  8
FRAME_025
 10
473.0
 20
31.75
 30
0.0
 40
2.5
  1
XXX - 00/00/00
  7
ISO_PROPORTIONAL
 11
473.0
 21
33.0
 31
0.0
  3
Approved by - Date
  2
APPROVED_BY_DATE
 70
     8
 74
     2
  0
TEXT
  5
C11
  8
FRAME_025
 10
448.0
 20
41.749999999999993
 30
0.0
 40
2.5
  1
Title/Name, designation, material, dimension etc
  7
ISO_PROPORTIONAL
 11
448.0
 21
43.0
 31
0.0
 73
     2
  0
TEXT
  5
C12
  8
FRAME_025
 10
473.0
 20
35.75
 30
0.0
 40
2.5
  1
Approved by - date
  7
ISO_PROPORTIONAL
 11
473.0
 21
37.0
 31
0.0
 73
     2
  0
LINE
  5
C13
  8
FRAME_070
 10
414.0
 20
46.0
 30
0.0
 11
584.0
 21
46.0
 31
0.0
  0
LINE
  5
C14
  8
FRAME_070
 10
414.0
 20
40.0
 30
0.0
 11
584.0
 21
40.0
 31
0.0
  0
LINE
  5
C15
  8
FRAME_070
 10
414.0
 20
30.0
 30
0.0
 11
584.0
 21
30.0
 31
0.0
  0
LINE
  5
C16
  8
FRAME_050
 10
368.75
 20
5.0
 30
0.0
 11
368.75
 21
10.0
 31
0.0
  0
LINE
  5
C17
  8
FRAME_050
 10
337.0
 20
5.0
 30
0.0
 11
337.0
 21
10.0
 31
0.0
  0
LINE
  5
C18
  8
FRAME_050
 10
327.0
 20
5.0
 30
0.0
 11
327.0
 21
10.0
 31
0.0
  0
LINE
  5
C19
  8
FRAME_050
 10
317.0
 20
5.0
 30
0.0
 11
317.0
 21
10.0
 31
0.0
  0
LINE
  5
C1A
  8
FRAME_050
 10
307.0
 20
5.0
 30
0.0
 11
307.0
 21
10.0
 31
0.0
  0
LINE
  5
C1B
  8
FRAME_050
 10
347.0
 20
5.0
 30
0.0
 11
347.0
 21
10.0
 31
0.0
  0
LINE
  5
C1C
  8
FRAME_050
 10
440.5
 20
5.0
 30
0.0
 11
440.5
 21
10.0
 31
0.0
  0
TEXT
  5
C1D
  8
FRAME_050
 10
403.24547244094481
 20
5.4102362204724406
 30
0.0
 40
4.0
  1
6
  7
ISO_PROPORTIONAL
 72
     4
 11
404.62499999999989
 21
7.5
 31
0.0
  0
TEXT
  5
C1E
  8
FRAME_050
 10
474.97499999999991
 20
5.5
 30
0.0
 40
4.0
  1
7
  7
ISO_PROPORTIONAL
 72
     4
 11
476.37499999999989
 21
7.5
 31
0.0
  0
TEXT
  5
C1F
  8
FRAME_025
 10
431.0
 20
41.749999999999993
 30
0.0
 40
2.5
  1
Quantity
  7
ISO_PROPORTIONAL
 11
431.0
 21
43.0
 31
0.0
 73
     2
  0
TEXT
  5
C20
  8
FRAME_025
 10
416.0
 20
41.749999999999993
 30
0.0
 40
2.5
  1
Itemref
  7
ISO_PROPORTIONAL
 11
416.0
 21
43.0
 31
0.0
 73
     2
  0
LINE
  5
C21
  8
FRAME_070
 10
414.0
 20
40.0
 30
0.0
 11
414.0
 21
46.0
 31
0.0
  0
LINE
  5
C22
  8
FRAME_070
 10
429.0
 20
40.0
 30
0.0
 11
429.0
 21
46.0
 31
0.0
  0
LINE
  5
C23
  8
FRAME_070
 10
414.0
 20
10.0
 30
0.0
 11
414.0
 21
40.0
 31
0.0
  0
ATTDEF
  5
C24
  8
FRAME_025
 10
416.0
 20
31.75
 30
0.0
 40
2.5
  1
XXX
  7
ISO_PROPORTIONAL
 11
416.0
 21
33.0
 31
0.0
  3
Designed by
  2
DESIGNED_BY
 70
     8
 74
     2
  0
TEXT
  5
C25
  8
FRAME_025
 10
416.0
 20
35.75
 30
0.0
 40
2.5
  1
Designed by
  7
ISO_PROPORTIONAL
 11
416.0
 21
37.0
 31
0.0
 73
     2
  0
LINE
  5
C26
  8
FRAME_070
 10
446.0
 20
40.0
 30
0.0
 11
446.0
 21
46.0
 31
0.0
  0
ATTDEF
  5
C27
  8
FRAME_025
 10
448.0
 20
31.75
 30
0.0
 40
2.5
  1
XXX
  7
ISO_PROPORTIONAL
 11
448.0
 21
33.0
 31
0.0
  3
Checked by
  2
CHECKED_BY
 70
     8
 74
     2
  0
TEXT
  5
C28
  8
FRAME_025
 10
448.0
 20
35.75
 30
0.0
 40
2.5
  1
Checked by
  7
ISO_PROPORTIONAL
 11
448.0
 21
37.0
 31
0.0
 73
     2
  0
ATTDEF
  5
C29
  8
FRAME_050
 10
444.74999999999989
 20
17.5
 30
0.0
 40
5.0
  1
XXX
  7
ISO_PROPORTIONAL
 72
     4
 11
451.49999999999989
 21
20.0
 31
0.0
  3
Owner
  2
OWNER
 70
     8
  0
LINE
  5
C2A
  8
FRAME_070
 10
446.0
 20
30.0
 30
0.0
 11
446.0
 21
40.0
 31
0.0
  0
LINE
  5
C2B
  8
FRAME_070
 10
471.0
 20
30.0
 30
0.0
 11
471.0
 21
40.0
 31
0.0
  0
LINE
  5
C2C
  8
FRAME_070
 10
489.0
 20
20.0
 30
0.0
 11
584.0
 21
20.0
 31
0.0
  0
LINE
  5
C2D
  8
FRAME_050
 10
512.25
 20
5.0
 30
0.0
 11
512.25
 21
10.0
 31
0.0
  0
TEXT
  5
C2E
  8
FRAME_050
 10
546.72499999999991
 20
5.5
 30
0.0
 40
4.0
  1
8
  7
ISO_PROPORTIONAL
 72
     4
 11
548.125
 21
7.5
 31
0.0
  0
ATTDEF
  5
C2F
  8
FRAME_050
 10
517.64999999999986
 20
13.5
 30
0.0
 40
3.0
  1
X
  7
ISO_PROPORTIONAL
 72
     4
 11
519.0
 21
15.0
 31
0.0
  3
Drawing number
  2
DRAWING_NUMBER
 70
     8
  0
ATTDEF
  5
C30
  8
FRAME_050
 10
529.75
 20
22.5
 30
0.0
 40
5.0
  1
XXX
  7
ISO_PROPORTIONAL
 72
     4
 11
536.5
 21
25.0
 31
0.0
  3
Title / Name
  2
TITLE
 70
     8
  0
LINE
  5
C31
  8
FRAME_070
 10
489.0
 20
10.0
 30
0.0
 11
489.0
 21
30.0
 31
0.0
  0
ATTDEF
  5
C32
  8
FRAME_025
 10
511.0
 20
31.75
 30
0.0
 40
2.5
  1
XXX
  7
ISO_PROPORTIONAL
 11
511.0
 21
33.0
 31
0.0
  3
Filename
  2
FILENAME
 70
     8
 74
     2
  0
TEXT
  5
C33
  8
FRAME_025
 10
511.0
 20
35.75
 30
0.0
 40
2.5
  1
Filename
  7
ISO_PROPORTIONAL
 11
511.0
 21
37.0
 31
0.0
 73
     2
  0
LINE
  5
C34
  8
FRAME_070
 10
509.0
 20
30.0
 30
0.0
 11
509.0
 21
40.0
 31
0.0
  0
TEXT
  5
C35
  8
FRAME_025
 10
536.0
 20
41.749999999999993
 30
0.0
 40
2.5
  1
Article No./Reference
  7
ISO_PROPORTIONAL
 11
536.0
 21
43.0
 31
0.0
 73
     2
  0
LINE
  5
C36
  8
FRAME_070
 10
534.0
 20
40.0
 30
0.0
 11
534.0
 21
46.0
 31
0.0
  0
ATTDEF
  5
C37
  8
FRAME_025
 10
551.0
 20
11.75
 30
0.0
 40
2.5
  1
0
  7
ISO_PROPORTIONAL
 11
551.0
 21
13.0
 31
0.0
  3
Edition
  2
EDITION
 70
     8
 74
     2
  0
TEXT
  5
C38
  8
FRAME_025
 10
551.0
 20
15.75
 30
0.0
 40
2.5
  1
Edition
  7
ISO_PROPORTIONAL
 11
551.0
 21
17.0
 31
0.0
 73
     2
  0
LINE
  5
C39
  8
FRAME_070
 10
549.0
 20
10.0
 30
0.0
 11
549.0
 21
20.0
 31
0.0
  0
ATTDEF
  5
C3A
  8
FRAME_025
 10
536.0
 20
31.75
 30
0.0
 40
2.5
  1
00/00/00
  7
ISO_PROPORTIONAL
 11
536.0
 21
33.0
 31
0.0
  3
Date
  2
DATE
 70
     8
 74
     2
  0
TEXT
  5
C3B
  8
FRAME_025
 10
536.0
 20
35.75
 30
0.0
 40
2.5
  1
Date
  7
ISO_PROPORTIONAL
 11
536.0
 21
37.0
 31
0.0
 73
     2
  0
LINE
  5
C3C
  8
FRAME_070
 10
534.0
 20
30.0
 30
0.0
 11
534.0
 21
40.0
 31
0.0
  0
ATTDEF
  5
C3D
  8
FRAME_025
 10
566.0
 20
11.75
 30
0.0
 40
2.5
  1
1/1
  7
ISO_PROPORTIONAL
 11
566.0
 21
13.0
 31
0.0
  3
Sheet
  2
SHEET
 70
     8
 74
     2
  0
TEXT
  5
C3E
  8
FRAME_025
 10
566.0
 20
15.75
 30
0.0
 40
2.5
  1
Sheet
  7
ISO_PROPORTIONAL
 11
566.0
 21
17.0
 31
0.0
 73
     2
  0
LINE
  5
C3F
  8
FRAME_070
 10
564.0
 20
10.0
 30
0.0
 11
564.0
 21
20.0
 31
0.0
  0
ATTDEF
  5
C40
  8
FRAME_025
 10
566.0
 20
31.75
 30
0.0
 40
2.5
  1
1:1
  7
ISO_PROPORTIONAL
 11
566.0
 21
33.0
 31
0.0
  3
Scale
  2
SCALE
 70
     8
 74
     2
  0
TEXT
  5
C41
  8
FRAME_025
 10
566.0
 20
35.75
 30
0.0
 40
2.5
  1
Scale
  7
ISO_PROPORTIONAL
 11
566.0
 21
37.0
 31
0.0
 73
     2
  0
LINE
  5
C42
  8
FRAME_070
 10
564.0
 20
30.0
 30
0.0
 11
564.0
 21
40.0
 31
0.0
  0
LINE
  5
C43
  8
FRAME_200
 10
594.0
 20
0.0
 30
0.0
 11
594.0
 21
10.0
 31
0.0
  0
LINE
  5
C44
  8
FRAME_200
 10
594.0
 20
0.0
 30
0.0
 11
584.0
 21
0.0
 31
0.0
  0
TEXT
  5
C45
  8
FRAME_050
 10
584.89999999999998
 20
35.0
 30
0.0
 40
4.0
  1
H
  7
ISO_PROPORTIONAL
 72
     4
 11
586.5
 21
37.0
 31
0.0
  0
LINE
  5
C46
  8
FRAME_050
 10
589.0
 20
60.0
 30
0.0
 11
584.0
 21
60.0
 31
0.0
  0
TEXT
  5
C47
  8
FRAME_050
 10
585.0035533905932
 20
85.0
 30
0.0
 40
4.0
  1
G
  7
ISO_PROPORTIONAL
 72
     4
 11
586.5
 21
87.0
 31
0.0
  0
LINE
  5
C48
  8
FRAME_050
 10
589.0
 20
110.0
 30
0.0
 11
584.0
 21
110.0
 31
0.0
  0
TEXT
  5
C49
  8
FRAME_050
 10
585.09999999999991
 20
135.0
 30
0.0
 40
4.0
  1
F
  7
ISO_PROPORTIONAL
 72
     4
 11
586.5
 21
137.0
 31
0.0
  0
LINE
  5
C4A
  8
FRAME_050
 10
589.0
 20
160.0
 30
0.0
 11
584.0
 21
160.0
 31
0.0
  0
TEXT
  5
C4B
  8
FRAME_050
 10
585.09999999999991
 20
185.0
 30
0.0
 40
4.0
  1
E
  7
ISO_PROPORTIONAL
 72
     4
 11
586.5
 21
187.0
 31
0.0
  0
LINE
  5
C4C
  8
FRAME_070
 10
414.0
 20
404.0
 30
0.0
 11
584.0
 21
404.0
 31
0.0
  0
TEXT
  5
C4D
  8
FRAME_050
 10
331.39215728752538
 20
410.58284271247459
 30
0.0
 40
4.0
  1
5
  7
ISO_PROPORTIONAL
 72
     4
 11
332.875
 21
412.5
 31
0.0
  0
LINE
  5
C4E
  8
FRAME_050
 10
368.75
 20
410.0
 30
0.0
 11
368.75
 21
415.0
 31
0.0
  0
TEXT
  5
C4F
  8
FRAME_025
 10
428.0
 20
405.75
 30
0.0
 40
2.5
  1
Revision note
  7
ISO_PROPORTIONAL
 11
428.0
 21
407.0
 31
0.0
 73
     2
  0
TEXT
  5
C50
  8
FRAME_025
 10
416.0
 20
405.75
 30
0.0
 40
2.5
  1
RevNo
  7
ISO_PROPORTIONAL
 11
416.0
 21
407.0
 31
0.0
 73
     2
  0
LINE
  5
C51
  8
FRAME_070
 10
426.0
 20
404.0
 30
0.0
 11
426.0
 21
410.0
 31
0.0
  0
LINE
  5
C52
  8
FRAME_070
 10
414.0
 20
404.0
 30
0.0
 11
414.0
 21
410.0
 31
0.0
  0
TEXT
  5
C53
  8
FRAME_050
 10
403.24547244094481
 20
410.41023622047243
 30
0.0
 40
4.0
  1
6
  7
ISO_PROPORTIONAL
 72
     4
 11
404.62499999999989
 21
412.5
 31
0.0
  0
LINE
  5
C54
  8
FRAME_050
 10
440.5
 20
410.0
 30
0.0
 11
440.5
 21
415.0
 31
0.0
  0
TEXT
  5
C55
  8
FRAME_050
 10
474.97499999999991
 20
410.5
 30
0.0
 40
4.0
  1
7
  7
ISO_PROPORTIONAL
 72
     4
 11
476.37499999999989
 21
412.5
 31
0.0
  0
LINE
  5
C56
  8
FRAME_050
 10
579.0
 20
210.0
 30
0.0
 11
589.0
 21
210.0
 31
0.0
  0
TEXT
  5
C57
  8
FRAME_050
 10
584.78609127034736
 20
235.0
 30
0.0
 40
4.0
  1
D
  7
ISO_PROPORTIONAL
 72
     4
 11
586.5
 21
237.0
 31
0.0
  0
LINE
  5
C58
  8
FRAME_050
 10
589.0
 20
260.0
 30
0.0
 11
584.0
 21
260.0
 31
0.0
  0
TEXT
  5
C59
  8
FRAME_050
 10
585.19319805153395
 20
285.0
 30
0.0
 40
4.0
  1
C
  7
ISO_PROPORTIONAL
 72
     4
 11
586.5
 21
287.0
 31
0.0
  0
LINE
  5
C5A
  8
FRAME_050
 10
589.0
 20
310.0
 30
0.0
 11
584.0
 21
310.0
 31
0.0
  0
TEXT
  5
C5B
  8
FRAME_050
 10
584.89999999999998
 20
335.0
 30
0.0
 40
4.0
  1
B
  7
ISO_PROPORTIONAL
 72
     4
 11
586.5
 21
337.0
 31
0.0
  0
TEXT
  5
C5C
  8
FRAME_025
 10
571.08299391850551
 20
405.75
 30
0.0
 40
2.5
  1
Checked
  7
ISO_PROPORTIONAL
 11
571.08299391850551
 21
407.0
 31
0.0
 73
     2
  0
TEXT
  5
C5D
  8
FRAME_025
 10
555.36099797283521
 20
405.75
 30
0.0
 40
2.5
  1
Signature
  7
ISO_PROPORTIONAL
 11
555.36099797283521
 21
407.0
 31
0.0
 73
     2
  0
TEXT
  5
C5E
  8
FRAME_025
 10
537.0
 20
405.75
 30
0.0
 40
2.5
  1
Date
  7
ISO_PROPORTIONAL
 11
537.0
 21
407.0
 31
0.0
 73
     2
  0
LINE
  5
C5F
  8
FRAME_070
 10
570.0
 20
404.0
 30
0.0
 11
570.0
 21
410.0
 31
0.0
  0
LINE
  5
C60
  8
FRAME_070
 10
555.0
 20
404.0
 30
0.0
 11
555.0
 21
410.0
 31
0.0
  0
LINE
  5
C61
  8
FRAME_070
 10
535.0
 20
404.0
 30
0.0
 11
535.0
 21
410.0
 31
0.0
  0
LINE
  5
C62
  8
FRAME_050
 10
512.25
 20
410.0
 30
0.0
 11
512.25
 21
415.0
 31
0.0
  0
TEXT
  5
C63
  8
FRAME_050
 10
546.72499999999991
 20
410.5
 30
0.0
 40
4.0
  1
8
  7
ISO_PROPORTIONAL
 72
     4
 11
548.125
 21
412.5
 31
0.0
  0
LINE
  5
C64
  8
FRAME_050
 10
589.0
 20
360.0
 30
0.0
 11
584.0
 21
360.0
 31
0.0
  0
TEXT
  5
C65
  8
FRAME_050
 10
584.70000000000005
 20
385.0
 30
0.0
 40
4.0
  1
A
  7
ISO_PROPORTIONAL
 72
     4
 11
586.5
 21
387.0
 31
0.0
  0
LINE
  5
C66
  8
FRAME_200
 10
594.0
 20
420.0
 30
0.0
 11
584.0
 21
420.0
 31
0.0
  0
LINE
  5
C67
  8
FRAME_200
 10
594.0
 20
410.0
 30
0.0
 11
594.0
 21
420.0
 31
0.0
  0
ENDBLK
  5
C69
  8
0
  0
BLOCK
  8
0
  2
WOBB001END
 70
     0
 10
0.0
 20
0.0
 30
0.0
  3
WOBB001END
  1

  0
LINE
  5
4D66
  8
0
  6
CONTINUOUS
 10
0.0
 20
0.0
 30
0.0
 11
0.8749999999999998
 21
0.0
 31
0.0
  0
ARC
  5
4D67
  8
0
  6
CONTINUOUS
 10
0.0331648379439287
 20
-0.5087238935900234
 30
0.0
 40
0.8790130605592325
 50
284.06490243660443
 51
312.19222981924361
  0
ARC
  5
4D68
  8
0
  6
CONTINUOUS
 10
0.2841534338796767
 20
-1.510548310625538
 30
0.0
 40
0.1537731892806598
 50
104.0649024366044
 51
179.4721730735024
  0
LINE
  5
4D69
  8
0
  6
CONTINUOUS
 10
0.0
 20
0.0
 30
0.0
 11
-0.0000000000000003
 21
-1.7501564476661911
 31
0.0
  0
ARC
  5
4D6A
  8
0
  6
CONTINUOUS
 10
0.1404622019506122
 20
-1.630313718354619
 30
0.0
 40
0.1198427293115722
 50
275.0
 51
85.000000000000057
  0
LINE
  5
4D6B
  8
0
  6
CONTINUOUS
 10
-0.0000000000000003
 20
-1.7501564476661911
 30
0.0
 11
0.1456946485130855
 21
-1.7501564476661911
 31
0.0
  0
LINE
  5
4D6C
  8
0
  6
CONTINUOUS
 10
0.1377603739254348
 20
-1.7508506067459131
 30
0.0
 11
0.150907184036669
 21
-1.7497004098996509
 31
0.0
  0
LINE
  5
4D6D
  8
0
  6
CONTINUOUS
 10
0.1303867696719884
 20
-1.5091317231818231
 30
0.0
 11
0.1509071840366689
 21
-1.510927026809586
 31
0.0
  0
LINE
  5
4D6E
  8
0
  6
CONTINUOUS
 10
0.8749999999999998
 20
0.0
 30
0.0
 11
0.8749999999999996
 21
-0.8649327026588228
 31
0.0
  0
LINE
  5
4D6F
  8
0
  6
CONTINUOUS
 10
0.727014513830997
 20
-0.872688293355061
 30
0.0
 11
0.727014513830997
 21
-0.9264923397184784
 31
0.0
  0
ARC
  5
4D70
  8
0
  6
CONTINUOUS
 10
0.41187090827646
 20
-0.9264923397184784
 30
0.0
 40
0.3151436055545369
 50
312.19222981924361
 51
0.0
  0
LINE
  5
4D71
  8
0
  6
CONTINUOUS
 10
0.727014513830997
 20
-0.872688293355061
 30
0.0
 11
0.8749999999999996
 21
-0.8649327026588228
 31
0.0
  0
ENDBLK
  5
4D72
  8
0
  0
BLOCK
  8
0
  2
A$C0A61123B
 70
     0
 10
0.0
 20
0.0
 30
0.0
  3
A$C0A61123B
  1

  0
LINE
  5
C0AD
  8
PROF
  6
CONTINUOUS
 10
4.9012016798694162
 20
13.325025853350891
 30
0.0000000000000002
 11
4.9012016798694162
 21
12.88585218805485
 31
0.0000000000000003
  0
INSERT
  5
C0AE
  8
0
  2
*U7
 10
0.0
 20
0.0
 30
0.0
  0
LINE
  5
C0AF
  8
PROF
 10
4.519857503186925
 20
12.72227734589444
 30
0.0000000000000001
 11
4.519857503186925
 21
12.88585218805485
 31
0.0000000000000001
  0
LINE
  5
C0B0
  8
PROF
  6
CONTINUOUS
 10
3.6306271195888362
 20
13.325025853350891
 30
0.0000000000000002
 11
4.9012016798694162
 21
13.325025853350891
 31
0.0000000000000002
  0
LINE
  5
C0B1
  8
PROF
 10
1.9750295148747341
 20
10.37671325491794
 30
0.0000000000000002
 11
1.9750295148747341
 21
10.11391186758919
 31
0.0000000000000002
  0
LINE
  5
C0B2
  8
PROF
 10
1.6079673357556299
 20
10.11391186758919
 30
0.0000000000000001
 11
1.9750295148747341
 21
10.11391186758919
 31
0.0000000000000001
  0
LINE
  5
C0B3
  8
PROF
 10
1.9750295148747341
 20
10.11391186758919
 30
0.0000000000000001
 11
1.944958486898144
 21
10.11391186758919
 31
0.0000000000000001
  0
LINE
  5
C0B4
  8
PROF
 10
1.9750295148747341
 20
10.11391186758919
 30
0.0000000000000001
 11
1.944958486898144
 21
10.11391186758919
 31
0.0000000000000001
  0
LINE
  5
C0B5
  8
PROF
 10
0.3222605517169654
 20
7.5247473351056451
 30
-0.0000000000000002
 11
-0.0000008570117416
 21
7.5247473351056451
 31
0.0
  0
LINE
  5
C0B6
  8
PROF
 10
-0.0000008570117416
 20
7.5247473351056451
 30
0.0
 11
-0.0000008570117416
 21
9.1943336957369848
 31
0.0
  0
POLYLINE
  5
C0B7
  8
PROF
 66
     1
 10
0.0
 20
0.0
 30
0.0000000000000001
 70
     4
 75
     6
  0
VERTEX
  5
C0B8
  8
PROF
 10
1.6079673357556299
 20
10.11391186758919
 30
0.0000000000000001
 70
    16
  0
VERTEX
  5
C0B9
  8
PROF
 10
1.6079673357556299
 20
10.11391186758919
 30
0.0000000000000001
 70
     8
  0
VERTEX
  5
C0BA
  8
PROF
 10
1.6468132326485809
 20
10.02198069336111
 30
0.0000000000000001
 70
     8
  0
VERTEX
  5
C0BB
  8
PROF
 10
1.67335966680929
 20
9.9344134163010231
 30
0.0000000000000001
 70
     8
  0
VERTEX
  5
C0BC
  8
PROF
 10
1.6890086400463229
 20
9.8512576644480951
 30
0.0000000000000001
 70
     8
  0
VERTEX
  5
C0BD
  8
PROF
 10
1.6951621541682571
 20
9.7725610658417281
 30
0.0000000000000001
 70
     8
  0
VERTEX
  5
C0BE
  8
PROF
 10
1.693222210983605
 20
9.6983712485214237
 30
0.0000000000000001
 70
     8
  0
VERTEX
  5
C0BF
  8
PROF
 10
1.6845908123009961
 20
9.6287358405263603
 30
0.0000000000000001
 70
     8
  0
VERTEX
  5
C0C0
  8
PROF
 10
1.670669959928885
 20
9.5637024698960431
 30
0.0000000000000001
 70
     8
  0
VERTEX
  5
C0C1
  8
PROF
 10
1.6528616556759621
 20
9.5033187646697552
 30
0.0000000000000001
 70
     8
  0
VERTEX
  5
C0C2
  8
PROF
 10
1.632356299273054
 20
9.4475843259650691
 30
0.0000000000000001
 70
     8
  0
VERTEX
  5
C0C3
  8
PROF
 10
1.609497882140658
 20
9.3963066472123273
 30
0.0000000000000001
 70
     8
  0
VERTEX
  5
C0C4
  8
PROF
 10
1.584418793621637
 20
9.3492451949202842
 30
0.0000000000000001
 70
     8
  0
VERTEX
  5
C0C5
  8
PROF
 10
1.5572514230587431
 20
9.3061594355972357
 30
0.0000000000000001
 70
     8
  0
VERTEX
  5
C0C6
  8
PROF
 10
1.5281281597949601
 20
9.2668088357519274
 30
0.0000000000000001
 70
     8
  0
VERTEX
  5
C0C7
  8
PROF
 10
1.497181393172978
 20
9.2309528618929981
 30
0.0000000000000001
 70
     8
  0
VERTEX
  5
C0C8
  8
PROF
 10
1.4645435125357249
 20
9.1983509805288541
 30
0.0000000000000001
 70
     8
  0
VERTEX
  5
C0C9
  8
PROF
 10
1.4303469072260091
 20
9.1687626581682462
 30
0.0000000000000001
 70
     8
  0
VERTEX
  5
C0CA
  8
PROF
 10
1.394736033257401
 20
9.1419547918675335
 30
0.0000000000000001
 70
     8
  0
VERTEX
  5
C0CB
  8
PROF
 10
1.3579036133264131
 20
9.1177240008747713
 30
0.0000000000000001
 70
     8
  0
VERTEX
  5
C0CC
  8
PROF
 10
1.3200544368004321
 20
9.0958743349860924
 30
0.0000000000000001
 70
     8
  0
VERTEX
  5
C0CD
  8
PROF
 10
1.281393293046676
 20
9.0762098439975034
 30
0.0000000000000001
 70
     8
  0
VERTEX
  5
C0CE
  8
PROF
 10
1.2421249714324161
 20
9.0585345777049042
 30
0.0000000000000001
 70
     8
  0
VERTEX
  5
C0CF
  8
PROF
 10
1.202454261324986
 20
9.0426525859044187
 30
0.0000000000000001
 70
     8
  0
VERTEX
  5
C0D0
  8
PROF
 10
1.162585952091659
 20
9.0283679183919503
 30
0.0000000000000001
 70
     8
  0
VERTEX
  5
C0D1
  8
PROF
 10
1.1227248330997091
 20
9.0154846249635021
 30
0.0000000000000001
 70
     8
  0
VERTEX
  5
C0D2
  8
PROF
 10
1.0829726247361
 20
9.0034643862466055
 30
0.0000000000000001
 70
     8
  0
VERTEX
  5
C0D3
  8
PROF
 10
1.043018771466222
 20
8.9903994061946833
 30
0.0000000000000001
 70
     8
  0
VERTEX
  5
C0D4
  8
PROF
 10
1.002449648775211
 20
8.9740395195925622
 30
0.0000000000000001
 70
     8
  0
VERTEX
  5
C0D5
  8
PROF
 10
0.9608516321480919
 20
8.9521345612251935
 30
0.0000000000000001
 70
     8
  0
VERTEX
  5
C0D6
  8
PROF
 10
0.9178110970699435
 20
8.9224343658775052
 30
0.0000000000000001
 70
     8
  0
VERTEX
  5
C0D7
  8
PROF
 10
0.8729144190259033
 20
8.8826887683343312
 30
0.0000000000000001
 70
     8
  0
VERTEX
  5
C0D8
  8
PROF
 10
0.8257479735009949
 20
8.8306476033806121
 30
0.0000000000000001
 70
     8
  0
VERTEX
  5
C0D9
  8
PROF
 10
0.7758981359802988
 20
8.764060705801171
 30
0.0000000000000001
 70
     8
  0
VERTEX
  5
C0DA
  8
PROF
 10
1.7292019016096549
 20
9.8629858761255491
 30
0.0000000000000001
 70
    16
  0
VERTEX
  5
C0DB
  8
PROF
 10
1.679373123114088
 20
9.4532143012734213
 30
0.0000000000000001
 70
    16
  0
VERTEX
  5
C0DC
  8
PROF
 10
1.4455611507419801
 20
9.1391837193732481
 30
0.0000000000000001
 70
    16
  0
VERTEX
  5
C0DD
  8
PROF
 10
1.1204637172738201
 20
9.0026267702428413
 30
0.0000000000000001
 70
    16
  0
VERTEX
  5
C0DE
  8
PROF
 10
0.9127765582653638
 20
8.9630202230383702
 30
0.0000000000000001
 70
    16
  0
VERTEX
  5
C0DF
  8
PROF
 10
0.7758981359802988
 20
8.764060705801171
 30
0.0000000000000001
 70
    16
  0
SEQEND
  5
C0E0
  8
PROF
  0
ARC
  5
C0E1
  8
PROF
 10
0.733429816733235
 20
8.4849506952165257
 30
0.0000000000000001
 40
0.2823224329524727
 50
269.73652020831901
 51
81.348449993176914
  0
LINE
  5
C0E2
  8
PROF
  6
CONTINUOUS
 10
-0.0000008570117416
 20
9.1943336957369848
 30
-0.0000000000000001
 11
3.6306271195888362
 21
13.325025853350891
 31
0.0000000000000002
  0
POLYLINE
  5
C0E3
  8
PROF
 66
     1
 10
0.0
 20
0.0
 30
0.0000000000000001
 70
     4
 75
     6
  0
VERTEX
  5
C0E4
  8
PROF
 10
4.519857503186925
 20
12.72227734589444
 30
0.0000000000000001
 70
    16
  0
VERTEX
  5
C0E5
  8
PROF
 10
4.519857503186925
 20
12.72227734589444
 30
0.0000000000000001
 70
     8
  0
VERTEX
  5
C0E6
  8
PROF
 10
4.4467035366886289
 20
12.741128108778071
 30
0.0000000000000001
 70
     8
  0
VERTEX
  5
C0E7
  8
PROF
 10
4.3786645761268801
 20
12.754675269913941
 30
0.0000000000000001
 70
     8
  0
VERTEX
  5
C0E8
  8
PROF
 10
4.3154364111440469
 20
12.76334314092332
 30
0.0000000000000001
 70
     8
  0
VERTEX
  5
C0E9
  8
PROF
 10
4.256714831382566
 20
12.76755603342724
 30
0.0000000000000001
 70
     8
  0
VERTEX
  5
C0EA
  8
PROF
 10
4.2021956264849791
 20
12.76773825904672
 30
0.0000000000000001
 70
     8
  0
VERTEX
  5
C0EB
  8
PROF
 10
4.1515745860935436
 20
12.764314129403139
 30
0.0000000000000001
 70
     8
  0
VERTEX
  5
C0EC
  8
PROF
 10
4.1045474998508649
 20
12.75770795611743
 30
0.0000000000000001
 70
     8
  0
VERTEX
  5
C0ED
  8
PROF
 10
4.0608101573993149
 20
12.748344050810831
 30
0.0000000000000001
 70
     8
  0
VERTEX
  5
C0EE
  8
PROF
 10
4.0200583483813261
 20
12.736646725104491
 30
0.0000000000000001
 70
     8
  0
VERTEX
  5
C0EF
  8
PROF
 10
3.981987862439381
 20
12.72304029061945
 30
0.0000000000000001
 70
     8
  0
VERTEX
  5
C0F0
  8
PROF
 10
3.946294489215858
 20
12.707949058976959
 30
0.0000000000000001
 70
     8
  0
VERTEX
  5
C0F1
  8
PROF
 10
3.912674018353242
 20
12.691797341798059
 30
0.0000000000000001
 70
     8
  0
VERTEX
  5
C0F2
  8
PROF
 10
3.8808638350742499
 20
12.67494295718654
 30
0.0000000000000001
 70
     8
  0
VERTEX
  5
C0F3
  8
PROF
 10
3.850767706922738
 20
12.65747774917668
 30
0.0000000000000001
 70
     8
  0
VERTEX
  5
C0F4
  8
PROF
 10
3.8223309970228438
 20
12.639427068285499
 30
0.0000000000000001
 70
     8
  0
VERTEX
  5
C0F5
  8
PROF
 10
3.795499068498712
 20
12.62081626503004
 30
0.0000000000000001
 70
     8
  0
VERTEX
  5
C0F6
  8
PROF
 10
3.7702172844744819
 20
12.601670689926999
 30
0.0000000000000001
 70
     8
  0
VERTEX
  5
C0F7
  8
PROF
 10
3.7464310080743521
 20
12.58201569349364
 30
0.0000000000000001
 70
     8
  0
VERTEX
  5
C0F8
  8
PROF
 10
3.7240856024224609
 20
12.56187662624666
 30
0.0000000000000001
 70
     8
  0
VERTEX
  5
C0F9
  8
PROF
 10
3.7031264306428961
 20
12.541278838703191
 30
0.0000000000000001
 70
     8
  0
VERTEX
  5
C0FA
  8
PROF
 10
3.683498855859908
 20
12.520247681380051
 30
0.0000000000000001
 70
     8
  0
VERTEX
  5
C0FB
  8
PROF
 10
3.665148241197528
 20
12.49880850479428
 30
0.0000000000000001
 70
     8
  0
VERTEX
  5
C0FC
  8
PROF
 10
3.648019949779949
 20
12.47698665946279
 30
0.0000000000000001
 70
     8
  0
VERTEX
  5
C0FD
  8
PROF
 10
3.6320593447313159
 20
12.45480749590263
 30
0.0000000000000001
 70
     8
  0
VERTEX
  5
C0FE
  8
PROF
 10
3.617189584886658
 20
12.43223790353807
 30
0.0000000000000001
 70
     8
  0
VERTEX
  5
C0FF
  8
PROF
 10
3.6032450119242849
 20
12.40901092742285
 30
0.0000000000000001
 70
     8
  0
VERTEX
  5
C100
  8
PROF
 10
3.590037763233453
 20
12.38480115151844
 30
0.0000000000000001
 70
     8
  0
VERTEX
  5
C101
  8
PROF
 10
3.5773799762033032
 20
12.35928315978594
 30
0.0000000000000001
 70
     8
  0
VERTEX
  5
C102
  8
PROF
 10
3.5650837882230899
 20
12.33213153618658
 30
0.0000000000000001
 70
     8
  0
VERTEX
  5
C103
  8
PROF
 10
3.552961336681959
 20
12.303020864681571
 30
0.0000000000000001
 70
     8
  0
VERTEX
  5
C104
  8
PROF
 10
3.540824758969165
 20
12.271625729232371
 30
0.0000000000000001
 70
     8
  0
VERTEX
  5
C105
  8
PROF
 10
3.528486192473848
 20
12.23762071379997
 30
0.0000000000000001
 70
     8
  0
VERTEX
  5
C106
  8
PROF
 10
3.5157577745852659
 20
12.200680402345711
 30
0.0000000000000001
 70
     8
  0
VERTEX
  5
C107
  8
PROF
 10
3.502451642692618
 20
12.16047937883093
 30
0.0000000000000001
 70
     8
  0
VERTEX
  5
C108
  8
PROF
 10
3.4883799341851041
 20
12.116692227216619
 30
0.0000000000000001
 70
     8
  0
VERTEX
  5
C109
  8
PROF
 10
3.4733547864519201
 20
12.06899353146423
 30
0.0000000000000001
 70
     8
  0
VERTEX
  5
C10A
  8
PROF
 10
3.45723654619428
 20
12.0172095445447
 30
0.0000000000000001
 70
     8
  0
VERTEX
  5
C10B
  8
PROF
 10
3.440078397361388
 20
11.961773195467799
 30
0.0000000000000001
 70
     8
  0
VERTEX
  5
C10C
  8
PROF
 10
3.4219817332145781
 20
11.90326908225302
 30
0.0000000000000001
 70
     8
  0
VERTEX
  5
C10D
  8
PROF
 10
3.4030479470150099
 20
11.842281802919951
 30
0.0000000000000001
 70
     8
  0
VERTEX
  5
C10E
  8
PROF
 10
3.383378432024017
 20
11.779395955487979
 30
0.0000000000000001
 70
     8
  0
VERTEX
  5
C10F
  8
PROF
 10
3.36307458150287
 20
11.7151961379768
 30
0.0000000000000001
 70
     8
  0
VERTEX
  5
C110
  8
PROF
 10
3.342237788712735
 20
11.650266948405831
 30
0.0000000000000001
 70
     8
  0
VERTEX
  5
C111
  8
PROF
 10
3.3209694469149991
 20
11.58519298479461
 30
0.0000000000000001
 70
     8
  0
VERTEX
  5
C112
  8
PROF
 10
3.299370949370767
 20
11.52055884516254
 30
0.0000000000000001
 70
     8
  0
VERTEX
  5
C113
  8
PROF
 10
3.277543689341428
 20
11.456949127529461
 30
0.0000000000000001
 70
     8
  0
VERTEX
  5
C114
  8
PROF
 10
3.2555890600881399
 20
11.3949484299145
 30
0.0000000000000001
 70
     8
  0
VERTEX
  5
C115
  8
PROF
 10
3.2336084548721811
 20
11.335141350337491
 30
0.0000000000000001
 70
     8
  0
VERTEX
  5
C116
  8
PROF
 10
3.2116715641212181
 20
11.277995447977769
 30
0.0000000000000001
 70
     8
  0
VERTEX
  5
C117
  8
PROF
 10
3.1897212669278461
 20
11.22351012665467
 30
0.0000000000000001
 70
     8
  0
VERTEX
  5
C118
  8
PROF
 10
3.1676687395512881
 20
11.17156775134765
 30
0.0000000000000001
 70
     8
  0
VERTEX
  5
C119
  8
PROF
 10
3.1454251582505321
 20
11.12205068703588
 30
0.0000000000000001
 70
     8
  0
VERTEX
  5
C11A
  8
PROF
 10
3.122901699284625
 20
11.07484129869874
 30
0.0000000000000001
 70
     8
  0
VERTEX
  5
C11B
  8
PROF
 10
3.1000095389127278
 20
11.02982195131551
 30
0.0000000000000001
 70
     8
  0
VERTEX
  5
C11C
  8
PROF
 10
3.07665985339389
 20
10.986875009865679
 30
0.0000000000000001
 70
     8
  0
VERTEX
  5
C11D
  8
PROF
 10
3.0527638189871591
 20
10.9458828393283
 30
0.0000000000000001
 70
     8
  0
VERTEX
  5
C11E
  8
PROF
 10
3.0282326119516361
 20
10.90672780468298
 30
0.0000000000000001
 70
     8
  0
VERTEX
  5
C11F
  8
PROF
 10
3.0029774085463701
 20
10.869292270908771
 30
0.0000000000000001
 70
     8
  0
VERTEX
  5
C120
  8
PROF
 10
2.9769093850304089
 20
10.833458602985161
 30
0.0000000000000001
 70
     8
  0
VERTEX
  5
C121
  8
PROF
 10
2.9499397176628559
 20
10.799109165891419
 30
0.0000000000000001
 70
     8
  0
VERTEX
  5
C122
  8
PROF
 10
2.922000609840437
 20
10.76614363969508
 30
0.0000000000000001
 70
     8
  0
VERTEX
  5
C123
  8
PROF
 10
2.8931083735102998
 20
10.7345309648158
 30
0.0000000000000001
 70
     8
  0
VERTEX
  5
C124
  8
PROF
 10
2.8633003477572729
 20
10.70425739676193
 30
0.0000000000000001
 70
     8
  0
VERTEX
  5
C125
  8
PROF
 10
2.8326138716660689
 20
10.67530919104115
 30
0.0000000000000001
 70
     8
  0
VERTEX
  5
C126
  8
PROF
 10
2.801086284321626
 20
10.647672603161711
 30
0.0000000000000001
 70
     8
  0
VERTEX
  5
C127
  8
PROF
 10
2.7687549248087162
 20
10.62133388863162
 30
0.0000000000000001
 70
     8
  0
VERTEX
  5
C128
  8
PROF
 10
2.7356571322120531
 20
10.5962793029588
 30
0.0000000000000001
 70
     8
  0
VERTEX
  5
C129
  8
PROF
 10
2.7018302456165202
 20
10.572495101651381
 30
0.0000000000000001
 70
     8
  0
VERTEX
  5
C12A
  8
PROF
 10
2.6673116041068838
 20
10.54996754021726
 30
0.0000000000000001
 70
     8
  0
VERTEX
  5
C12B
  8
PROF
 10
2.6321385467680321
 20
10.528682874164581
 30
0.0000000000000001
 70
     8
  0
VERTEX
  5
C12C
  8
PROF
 10
2.5963484126846179
 20
10.508627359001251
 30
0.0000000000000001
 70
     8
  0
VERTEX
  5
C12D
  8
PROF
 10
2.5599785409415841
 20
10.489787250235279
 30
0.0000000000000001
 70
     8
  0
VERTEX
  5
C12E
  8
PROF
 10
2.522998630314361
 20
10.472162234281081
 30
0.0000000000000001
 70
     8
  0
VERTEX
  5
C12F
  8
PROF
 10
2.4851078183409072
 20
10.455805721177621
 30
0.0000000000000001
 70
     8
  0
VERTEX
  5
C130
  8
PROF
 10
2.4459376022498982
 20
10.44078455187036
 30
0.0000000000000001
 70
     8
  0
VERTEX
  5
C131
  8
PROF
 10
2.4051194792701249
 20
10.42716556730465
 30
0.0000000000000001
 70
     8
  0
VERTEX
  5
C132
  8
PROF
 10
2.3622849466301541
 20
10.415015608425851
 30
0.0000000000000001
 70
     8
  0
VERTEX
  5
C133
  8
PROF
 10
2.317065501558714
 20
10.40440151617929
 30
0.0000000000000001
 70
     8
  0
VERTEX
  5
C134
  8
PROF
 10
2.2690926412844301
 20
10.395390131510339
 30
0.0000000000000001
 70
     8
  0
VERTEX
  5
C135
  8
PROF
 10
2.2179978630360879
 20
10.388048295364451
 30
0.0000000000000001
 70
     8
  0
VERTEX
  5
C136
  8
PROF
 10
2.1634126640422551
 20
10.38244284868688
 30
0.0000000000000001
 70
     8
  0
VERTEX
  5
C137
  8
PROF
 10
2.1049685415316031
 20
10.37864063242295
 30
0.0000000000000001
 70
     8
  0
VERTEX
  5
C138
  8
PROF
 10
2.0422969927328709
 20
10.37670848751816
 30
0.0000000000000001
 70
     8
  0
VERTEX
  5
C139
  8
PROF
 10
1.9750295148747341
 20
10.37671325491794
 30
0.0000000000000001
 70
     8
  0
VERTEX
  5
C13A
  8
PROF
 10
4.2166060115107484
 20
12.80885334975255
 30
0.0000000000000001
 70
    16
  0
VERTEX
  5
C13B
  8
PROF
 10
3.8702254102732909
 20
12.707065515763929
 30
0.0000000000000001
 70
    16
  0
VERTEX
  5
C13C
  8
PROF
 10
3.605346156896871
 20
12.46277472098552
 30
0.0000000000000001
 70
    16
  0
VERTEX
  5
C13D
  8
PROF
 10
3.500746030527238
 20
12.170680575709749
 30
0.0000000000000001
 70
    16
  0
VERTEX
  5
C13E
  8
PROF
 10
3.231798439705698
 20
11.26846416496107
 30
0.0000000000000001
 70
    16
  0
VERTEX
  5
C13F
  8
PROF
 10
2.9737109398832882
 20
10.76631086647069
 30
0.0000000000000001
 70
    16
  0
VERTEX
  5
C140
  8
PROF
 10
2.5729961067384002
 20
10.460947364504699
 30
0.0000000000000001
 70
    16
  0
VERTEX
  5
C141
  8
PROF
 10
2.2537826214546031
 20
10.372731239449759
 30
0.0000000000000001
 70
    16
  0
VERTEX
  5
C142
  8
PROF
 10
1.9750295148747341
 20
10.37671325491794
 30
0.0000000000000001
 70
    16
  0
SEQEND
  5
C143
  8
PROF
  0
LINE
  5
C144
  8
PROF
 10
4.9012016798694162
 20
12.88585218805485
 30
0.0000000000000003
 11
4.519857503186925
 21
12.88585218805485
 31
0.0000000000000003
  0
LINE
  5
C145
  8
PROF
 10
0.7321315362267457
 20
8.2026312473991556
 30
0.0000000000000006
 11
0.7321315362267457
 21
8.0511853963434952
 31
0.0000000000000006
  0
ARC
  5
C146
  8
PROF
 10
0.7977322214551919
 20
7.577333933202679
 30
0.0000000000000006
 40
0.4783708383912013
 50
97.882010168942557
 51
186.31119505698641
  0
LINE
  5
C147
  8
FRAME_050
 10
7.8016377197432121
 20
17.99371054969447
 30
0.0
 11
7.8016377197432121
 21
0.0000000000002274
 31
0.0
  0
ENDBLK
  5
C149
  8
0
  0
BLOCK
  8
0
  2
*U7
 70
     1
 10
0.0
 20
0.0
 30
0.0
  3
*U7
  1

  0
TEXT
  5
C8C3
  8
0
 10
3.5177832928899071
 20
10.38601584255777
 30
0.0
 40
0.125
  1
Crown Moulding
  0
TEXT
  5
C8C4
  8
0
 10
3.5223876585106431
 20
10.17717091304435
 30
0.0
 40
0.125
  1
TL-AB509
  0
TEXT
  5
C8C5
  8
0
 10
3.5074661032582561
 20
9.9667059289606801
 30
0.0
 40
0.125
  1
1-5/16" x 7-9/16"
  0
TEXT
  5
C8C6
  8
0
 10
3.519403347460166
 20
9.7562409448770051
 30
0.0
 40
0.125
  1
800.66.TAGUE
  0
ENDBLK
  5
C8C8
  8
0
  0
BLOCK
  8
0
  2
*U8
 70
     1
 10
0.0
 20
0.0
 30
0.0
  3
*U8
  1

  0
TEXT
  5
C8CA
  8
0
 10
5.3066868277875692
 20
1.767659498411035
 30
0.0
 40
0.125
  1
Back Band
  0
TEXT
  5
C8CB
  8
0
 10
5.3153839628489603
 20
1.55881456889762
 30
0.0
 40
0.125
  1
TL-1
  0
TEXT
  5
C8CC
  8
0
 10
5.3004624075965721
 20
1.3483495848139451
 30
0.0
 40
0.125
  1
1-3/8" x 1-9/16"
  0
TEXT
  5
C8CD
  8
0
 10
5.3123996517984811
 20
1.1378846007302701
 30
0.0
 40
0.125
  1
800.66.TAGUE
  0
ENDBLK
  5
C8CF
  8
0
  0
BLOCK
  8
0
  2
*U9
 70
     1
 10
0.0
 20
0.0
 30
0.0
  3
*U9
  1

  0
TEXT
  5
C8D1
  8
0
 10
-385.7580743253551
 20
838.2627455404056
 30
0.0
 40
0.125
  1
Back Band
  0
TEXT
  5
C8D2
  8
0
 10
-385.74937719029373
 20
838.05390061089247
 30
0.0
 40
0.125
  1
TL-1
  0
TEXT
  5
C8D3
  8
0
 10
-385.76429874554611
 20
837.84343562680851
 30
0.0
 40
0.125
  1
1-3/8" x 1-9/16"
  0
TEXT
  5
C8D4
  8
0
 10
-385.75236150134418
 20
837.63297064272513
 30
0.0
 40
0.125
  1
800.66.TAGUE
  0
ENDBLK
  5
C8D6
  8
0
  0
BLOCK
  8
0
  2
*U13
 70
     1
 10
0.0
 20
0.0
 30
0.0
  3
*U13
  1

  0
TEXT
  5
CD29
  8
0
 10
1.801309719190612
 20
0.7422271098238867
 30
0.0
 40
0.125
  1
Solid Crown
  0
TEXT
  5
CD2A
  8
0
 10
1.801309719190612
 20
0.5338937764905534
 30
0.0
 40
0.125
  1
TL-2182
  0
TEXT
  5
CD2B
  8
0
 10
1.801309719190612
 20
0.32556044315722
 30
0.0
 40
0.125
  1
1-1/32" x 1-5/16"
  0
TEXT
  5
CD2C
  8
0
 10
1.801309719190612
 20
0.1172271098238866
 30
0.0
 40
0.125
  1
800.66.TAGUE
  0
ENDBLK
  5
CD2E
  8
0
  0
BLOCK
  8
0
  2
*U14
 70
     1
 10
0.0
 20
0.0
 30
0.0
  3
*U14
  1

  0
TEXT
  5
CD30
  8
0
 10
1.625113436446326
 20
0.9370028111704301
 30
0.0
 40
0.125
  1
Solid Crown
  0
TEXT
  5
CD31
  8
0
 10
1.625113436446326
 20
0.7286694778370969
 30
0.0
 40
0.125
  1
TL-2157
  0
TEXT
  5
CD32
  8
0
 10
1.625113436446326
 20
0.5203361445037635
 30
0.0
 40
0.125
  1
1-9/32" x 2"
  0
TEXT
  5
CD33
  8
0
 10
1.625113436446326
 20
0.31200281117043
 30
0.0
 40
0.125
  1
800.66.TAGUE
  0
ENDBLK
  5
CD35
  8
0
  0
BLOCK
  8
0
  2
*U15
 70
     1
 10
0.0
 20
0.0
 30
0.0
  3
*U15
  1

  0
TEXT
  5
CD37
  8
0
 10
1.920486779030625
 20
0.9014428381942138
 30
0.0
 40
0.125
  1
Solid Crown
  0
TEXT
  5
CD38
  8
0
 10
1.920486779030625
 20
0.6931095048608807
 30
0.0
 40
0.125
  1
TL-2188
  0
TEXT
  5
CD39
  8
0
 10
1.920486779030625
 20
0.4847761715275473
 30
0.0
 40
0.125
  1
1-5/8" x 2"
  0
TEXT
  5
CD3A
  8
0
 10
1.920486779030625
 20
0.2764428381942139
 30
0.0
 40
0.125
  1
800.66.TAGUE
  0
ENDBLK
  5
CD3C
  8
0
  0
BLOCK
  8
0
  2
*U16
 70
     1
 10
0.0
 20
0.0
 30
0.0
  3
*U16
  1

  0
TEXT
  5
CD3E
  8
0
 10
-386.72264605782698
 20
838.37451959535986
 30
0.0
 40
0.125
  1
Solid Crown
  0
TEXT
  5
CD3F
  8
0
 10
-386.72264605782698
 20
838.1661862620266
 30
0.0
 40
0.125
  1
TL-2188
  0
TEXT
  5
CD40
  8
0
 10
-386.72264605782698
 20
837.95785292869323
 30
0.0
 40
0.125
  1
1-5/8" x 2"
  0
TEXT
  5
CD41
  8
0
 10
-386.72264605782698
 20
837.74951959535986
 30
0.0
 40
0.125
  1
800.66.TAGUE
  0
ENDBLK
  5
CD43
  8
0
  0
ENDSEC
  0
SECTION
  2
ENTITIES
  0
INSERT
  5
CBD1
  8
0
  2
*U16
 10
0.0
 20
0.0
 30
0.0
  0
LINE
  5
CBD2
  8
0
 10
-387.21149793877402
 20
838.91418451146535
 30
0.0
 11
-387.01813409634332
 21
838.91418451146535
 31
0.0
  0
LINE
  5
CBD3
  8
0
 10
-387.01813409634332
 20
838.91418451146535
 30
0.0
 11
-387.01813409634332
 21
839.49713569384198
 31
0.0
  0
LINE
  5
CBD4
  8
0
 10
-387.01813409634332
 20
839.49713569384198
 30
0.0
 11
-388.64313409634332
 21
839.49713569384198
 31
0.0
  0
LINE
  5
CBD5
  8
0
 10
-388.64313409634332
 20
839.49713569384198
 30
0.0
 11
-388.64313409634332
 21
837.47307666803545
 31
0.0
  0
LINE
  5
CBD6
  8
0
 10
-388.64313409634332
 20
837.47307666803545
 30
0.0
 11
-388.25626087874451
 21
837.47307666803545
 31
0.0
  0
POLYLINE
  5
CBD7
  8
0
 66
     1
 10
0.0
 20
0.0
 30
0.0
 70
     8
  0
VERTEX
  5
CBD8
  8
0
 10
-387.21144244946998
 20
838.91423737026571
 30
0.0
 70
    32
  0
VERTEX
  5
CBD9
  8
0
 10
-387.21144244946998
 20
838.90823737026562
 30
0.0
 70
    32
  0
VERTEX
  5
CBDA
  8
0
 10
-387.21244244947002
 20
838.90223737026565
 30
0.0
 70
    32
  0
VERTEX
  5
CBDB
  8
0
 10
-387.21244244947002
 20
838.89623737026568
 30
0.0
 70
    32
  0
VERTEX
  5
CBDC
  8
0
 10
-387.21344244946999
 20
838.89023737026582
 30
0.0
 70
    32
  0
VERTEX
  5
CBDD
  8
0
 10
-387.21344244946999
 20
838.88423737026562
 30
0.0
 70
    32
  0
VERTEX
  5
CBDE
  8
0
 10
-387.21444244947003
 20
838.87823737026565
 30
0.0
 70
    32
  0
VERTEX
  5
CBDF
  8
0
 10
-387.21444244947003
 20
838.87223737026568
 30
0.0
 70
    32
  0
VERTEX
  5
CBE0
  8
0
 10
-387.21544244946989
 20
838.86623737026559
 30
0.0
 70
    32
  0
VERTEX
  5
CBE1
  8
0
 10
-387.21644244946998
 20
838.86023737026562
 30
0.0
 70
    32
  0
VERTEX
  5
CBE2
  8
0
 10
-387.21744244947001
 20
838.85423737026565
 30
0.0
 70
    32
  0
VERTEX
  5
CBE3
  8
0
 10
-387.21844244946999
 20
838.84823737026557
 30
0.0
 70
    32
  0
VERTEX
  5
CBE4
  8
0
 10
-387.21944244947002
 20
838.84223737026559
 30
0.0
 70
    32
  0
VERTEX
  5
CBE5
  8
0
 10
-387.22044244946989
 20
838.83623737026574
 30
0.0
 70
    32
  0
VERTEX
  5
CBE6
  8
0
 10
-387.22144244946998
 20
838.83023737026554
 30
0.0
 70
    32
  0
VERTEX
  5
CBE7
  8
0
 10
-387.2224424494699
 20
838.82423737026579
 30
0.0
 70
    32
  0
VERTEX
  5
CBE8
  8
0
 10
-387.22344244946999
 20
838.81823737026559
 30
0.0
 70
    32
  0
VERTEX
  5
CBE9
  8
0
 10
-387.22444244947002
 20
838.81223737026551
 30
0.0
 70
    32
  0
VERTEX
  5
CBEA
  8
0
 10
-387.22544244946988
 20
838.80623737026565
 30
0.0
 70
    32
  0
VERTEX
  5
CBEB
  8
0
 10
-387.22744244946989
 20
838.80023737026556
 30
0.0
 70
    32
  0
VERTEX
  5
CBEC
  8
0
 10
-387.22844244946998
 20
838.79423737026582
 30
0.0
 70
    32
  0
VERTEX
  5
CBED
  8
0
 10
-387.2294424494699
 20
838.78823737026573
 30
0.0
 70
    32
  0
VERTEX
  5
CBEE
  8
0
 10
-387.23144244947002
 20
838.78223737026565
 30
0.0
 70
    32
  0
VERTEX
  5
CBEF
  8
0
 10
-387.23244244947
 20
838.77623737026579
 30
0.0
 70
    32
  0
VERTEX
  5
CBF0
  8
0
 10
-387.2344424494699
 20
838.7702373702657
 30
0.0
 70
    32
  0
VERTEX
  5
CBF1
  8
0
 10
-387.23544244946999
 20
838.76423737026573
 30
0.0
 70
    32
  0
VERTEX
  5
CBF2
  8
0
 10
-387.23744244947
 20
838.75923737026574
 30
0.0
 70
    32
  0
VERTEX
  5
CBF3
  8
0
 10
-387.23944244947
 20
838.75323737026565
 30
0.0
 70
    32
  0
VERTEX
  5
CBF4
  8
0
 10
-387.24044244946998
 20
838.74723737026579
 30
0.0
 70
    32
  0
VERTEX
  5
CBF5
  8
0
 10
-387.24244244946999
 20
838.74123737026571
 30
0.0
 70
    32
  0
VERTEX
  5
CBF6
  8
0
 10
-387.24444244947
 20
838.73523737026562
 30
0.0
 70
    32
  0
VERTEX
  5
CBF7
  8
0
 10
-387.24544244946998
 20
838.72923737026576
 30
0.0
 70
    32
  0
VERTEX
  5
CBF8
  8
0
 10
-387.24744244946999
 20
838.72323737026568
 30
0.0
 70
    32
  0
VERTEX
  5
CBF9
  8
0
 10
-387.24944244947
 20
838.71723737026559
 30
0.0
 70
    32
  0
VERTEX
  5
CBFA
  8
0
 10
-387.25144244947001
 20
838.71123737026585
 30
0.0
 70
    32
  0
VERTEX
  5
CBFB
  8
0
 10
-387.25344244947001
 20
838.70523737026565
 30
0.0
 70
    32
  0
VERTEX
  5
CBFC
  8
0
 10
-387.25444244946999
 20
838.69923737026568
 30
0.0
 70
    32
  0
VERTEX
  5
CBFD
  8
0
 10
-387.25644244947
 20
838.69423737026568
 30
0.0
 70
    32
  0
VERTEX
  5
CBFE
  8
0
 10
-387.25844244947001
 20
838.6882373702656
 30
0.0
 70
    32
  0
VERTEX
  5
CBFF
  8
0
 10
-387.26044244947002
 20
838.68223737026563
 30
0.0
 70
    32
  0
VERTEX
  5
CC00
  8
0
 10
-387.26244244946997
 20
838.67623737026565
 30
0.0
 70
    32
  0
VERTEX
  5
CC01
  8
0
 10
-387.26444244946998
 20
838.67023737026568
 30
0.0
 70
    32
  0
VERTEX
  5
CC02
  8
0
 10
-387.26644244946999
 20
838.6642373702656
 30
0.0
 70
    32
  0
VERTEX
  5
CC03
  8
0
 10
-387.26844244947
 20
838.65823737026574
 30
0.0
 70
    32
  0
VERTEX
  5
CC04
  8
0
 10
-387.2704424494699
 20
838.65223737026565
 30
0.0
 70
    32
  0
VERTEX
  5
CC05
  8
0
 10
-387.27244244947002
 20
838.64623737026557
 30
0.0
 70
    32
  0
VERTEX
  5
CC06
  8
0
 10
-387.27344244947
 20
838.64023737026582
 30
0.0
 70
    32
  0
VERTEX
  5
CC07
  8
0
 10
-387.27544244946989
 20
838.63423737026574
 30
0.0
 70
    32
  0
VERTEX
  5
CC08
  8
0
 10
-387.27744244947002
 20
838.62823737026554
 30
0.0
 70
    32
  0
VERTEX
  5
CC09
  8
0
 10
-387.27944244947003
 20
838.62323737026566
 30
0.0
 70
    32
  0
VERTEX
  5
CC0A
  8
0
 10
-387.28144244946998
 20
838.61723737026557
 30
0.0
 70
    32
  0
VERTEX
  5
CC0B
  8
0
 10
-387.28444244946991
 20
838.61123737026583
 30
0.0
 70
    32
  0
VERTEX
  5
CC0C
  8
0
 10
-387.28644244946997
 20
838.60523737026574
 30
0.0
 70
    32
  0
VERTEX
  5
CC0D
  8
0
 10
-387.28844244946998
 20
838.59923737026566
 30
0.0
 70
    32
  0
VERTEX
  5
CC0E
  8
0
 10
-387.29044244946988
 20
838.5932373702658
 30
0.0
 70
    32
  0
VERTEX
  5
CC0F
  8
0
 10
-387.29244244947
 20
838.58723737026571
 30
0.0
 70
    32
  0
VERTEX
  5
CC10
  8
0
 10
-387.29444244947001
 20
838.58123737026551
 30
0.0
 70
    32
  0
VERTEX
  5
CC11
  8
0
 10
-387.29644244947002
 20
838.57623737026574
 30
0.0
 70
    32
  0
VERTEX
  5
CC12
  8
0
 10
-387.29944244947001
 20
838.57023737026554
 30
0.0
 70
    32
  0
VERTEX
  5
CC13
  8
0
 10
-387.30144244947002
 20
838.5642373702658
 30
0.0
 70
    32
  0
VERTEX
  5
CC14
  8
0
 10
-387.30344244947003
 20
838.55823737026572
 30
0.0
 70
    32
  0
VERTEX
  5
CC15
  8
0
 10
-387.30644244947001
 20
838.55323737026549
 30
0.0
 70
    32
  0
VERTEX
  5
CC16
  8
0
 10
-387.30844244947002
 20
838.54723737026575
 30
0.0
 70
    32
  0
VERTEX
  5
CC17
  8
0
 10
-387.31144244947001
 20
838.54223737026564
 30
0.0
 70
    32
  0
VERTEX
  5
CC18
  8
0
 10
-387.31344244947002
 20
838.53623737026578
 30
0.0
 70
    32
  0
VERTEX
  5
CC19
  8
0
 10
-387.31644244947
 20
838.5302373702657
 30
0.0
 70
    32
  0
VERTEX
  5
CC1A
  8
0
 10
-387.31944244946999
 20
838.5252373702657
 30
0.0
 70
    32
  0
VERTEX
  5
CC1B
  8
0
 10
-387.32144244947
 20
838.5202373702657
 30
0.0
 70
    32
  0
VERTEX
  5
CC1C
  8
0
 10
-387.32444244946998
 20
838.51423737026585
 30
0.0
 70
    32
  0
VERTEX
  5
CC1D
  8
0
 10
-387.32744244947003
 20
838.50923737026585
 30
0.0
 70
    32
  0
VERTEX
  5
CC1E
  8
0
 10
-387.3304424494699
 20
838.50323737026565
 30
0.0
 70
    32
  0
VERTEX
  5
CC1F
  8
0
 10
-387.33344244947
 20
838.49823737026566
 30
0.0
 70
    32
  0
VERTEX
  5
CC20
  8
0
 10
-387.33644244946998
 20
838.49323737026566
 30
0.0
 70
    32
  0
VERTEX
  5
CC21
  8
0
 10
-387.33944244947003
 20
838.48823737026567
 30
0.0
 70
    32
  0
VERTEX
  5
CC22
  8
0
 10
-387.34244244947001
 20
838.48323737026567
 30
0.0
 70
    32
  0
VERTEX
  5
CC23
  8
0
 10
-387.34644244946998
 20
838.47823737026567
 30
0.0
 70
    32
  0
VERTEX
  5
CC24
  8
0
 10
-387.34944244947002
 20
838.47323737026568
 30
0.0
 70
    32
  0
VERTEX
  5
CC25
  8
0
 10
-387.35244244947
 20
838.46823737026568
 30
0.0
 70
    32
  0
VERTEX
  5
CC26
  8
0
 10
-387.35644244947002
 20
838.46323737026557
 30
0.0
 70
    32
  0
VERTEX
  5
CC27
  8
0
 10
-387.3594424494699
 20
838.45823737026558
 30
0.0
 70
    32
  0
VERTEX
  5
CC28
  8
0
 10
-387.36344244947003
 20
838.45423737026556
 30
0.0
 70
    32
  0
VERTEX
  5
CC29
  8
0
 10
-387.36744244946999
 20
838.44923737026568
 30
0.0
 70
    32
  0
VERTEX
  5
CC2A
  8
0
 10
-387.37144244947001
 20
838.44423737026557
 30
0.0
 70
    32
  0
VERTEX
  5
CC2B
  8
0
 10
-387.37544244946997
 20
838.44023737026566
 30
0.0
 70
    32
  0
VERTEX
  5
CC2C
  8
0
 10
-387.37944244946999
 20
838.43523737026555
 30
0.0
 70
    32
  0
VERTEX
  5
CC2D
  8
0
 10
-387.38344244947001
 20
838.43123737026565
 30
0.0
 70
    32
  0
VERTEX
  5
CC2E
  8
0
 10
-387.38744244946997
 20
838.42723737026552
 30
0.0
 70
    32
  0
VERTEX
  5
CC2F
  8
0
 10
-387.39244244947002
 20
838.42323737026572
 30
0.0
 70
    32
  0
VERTEX
  5
CC30
  8
0
 10
-387.39644244946999
 20
838.41923737026582
 30
0.0
 70
    32
  0
VERTEX
  5
CC31
  8
0
 10
-387.40044244947001
 20
838.41523737026557
 30
0.0
 70
    32
  0
VERTEX
  5
CC32
  8
0
 10
-387.40544244946989
 20
838.41123737026578
 30
0.0
 70
    32
  0
VERTEX
  5
CC33
  8
0
 10
-387.41044244946988
 20
838.40723737026565
 30
0.0
 70
    32
  0
VERTEX
  5
CC34
  8
0
 10
-387.41444244947002
 20
838.40323737026574
 30
0.0
 70
    32
  0
VERTEX
  5
CC35
  8
0
 10
-387.4194424494699
 20
838.39923737026595
 30
0.0
 70
    32
  0
VERTEX
  5
CC36
  8
0
 10
-387.42444244946989
 20
838.3952373702657
 30
0.0
 70
    32
  0
VERTEX
  5
CC37
  8
0
 10
-387.42944244947
 20
838.39223737026578
 30
0.0
 70
    32
  0
VERTEX
  5
CC38
  8
0
 10
-387.43444244947
 20
838.38823737026564
 30
0.0
 70
    32
  0
VERTEX
  5
CC39
  8
0
 10
-387.43944244946999
 20
838.38523737026571
 30
0.0
 70
    32
  0
VERTEX
  5
CC3A
  8
0
 10
-387.44444244946999
 20
838.38123737026581
 30
0.0
 70
    32
  0
VERTEX
  5
CC3B
  8
0
 10
-387.44944244946998
 20
838.37823737026565
 30
0.0
 70
    32
  0
VERTEX
  5
CC3C
  8
0
 10
-387.45444244946998
 20
838.37423737026575
 30
0.0
 70
    32
  0
VERTEX
  5
CC3D
  8
0
 10
-387.46044244947001
 20
838.37123737026593
 30
0.0
 70
    32
  0
VERTEX
  5
CC3E
  8
0
 10
-387.46544244946989
 20
838.36823737026555
 30
0.0
 70
    32
  0
VERTEX
  5
CC3F
  8
0
 10
-387.47044244946989
 20
838.36523737026573
 30
0.0
 70
    32
  0
VERTEX
  5
CC40
  8
0
 10
-387.47644244947003
 20
838.3622373702658
 30
0.0
 70
    32
  0
VERTEX
  5
CC41
  8
0
 10
-387.48144244946991
 20
838.35923737026565
 30
0.0
 70
    32
  0
VERTEX
  5
CC42
  8
0
 10
-387.48744244947
 20
838.35623737026572
 30
0.0
 70
    32
  0
VERTEX
  5
CC43
  8
0
 10
-387.49244244946999
 20
838.35323737026579
 30
0.0
 70
    32
  0
VERTEX
  5
CC44
  8
0
 10
-387.49844244947002
 20
838.35023737026563
 30
0.0
 70
    32
  0
VERTEX
  5
CC45
  8
0
 10
-387.50344244947001
 20
838.3472373702657
 30
0.0
 70
    32
  0
VERTEX
  5
CC46
  8
0
 10
-387.50944244946999
 20
838.34523737026575
 30
0.0
 70
    32
  0
VERTEX
  5
CC47
  8
0
 10
-387.51544244947002
 20
838.34223737026548
 30
0.0
 70
    32
  0
VERTEX
  5
CC48
  8
0
 10
-387.5204424494699
 20
838.33923737026555
 30
0.0
 70
    32
  0
VERTEX
  5
CC49
  8
0
 10
-387.52644244946998
 20
838.33723737026571
 30
0.0
 70
    32
  0
VERTEX
  5
CC4A
  8
0
 10
-387.53244244947001
 20
838.33423737026567
 30
0.0
 70
    32
  0
VERTEX
  5
CC4B
  8
0
 10
-387.53844244946998
 20
838.3322373702656
 30
0.0
 70
    32
  0
VERTEX
  5
CC4C
  8
0
 10
-387.54344244946998
 20
838.32923737026567
 30
0.0
 70
    32
  0
VERTEX
  5
CC4D
  8
0
 10
-387.54944244947001
 20
838.32723737026572
 30
0.0
 70
    32
  0
VERTEX
  5
CC4E
  8
0
 10
-387.55544244946998
 20
838.32523737026565
 30
0.0
 70
    32
  0
VERTEX
  5
CC4F
  8
0
 10
-387.56144244947001
 20
838.32323737026547
 30
0.0
 70
    32
  0
VERTEX
  5
CC50
  8
0
 10
-387.56744244946998
 20
838.32023737026566
 30
0.0
 70
    32
  0
VERTEX
  5
CC51
  8
0
 10
-387.57344244947001
 20
838.31823737026571
 30
0.0
 70
    32
  0
VERTEX
  5
CC52
  8
0
 10
-387.57944244946998
 20
838.31623737026564
 30
0.0
 70
    32
  0
VERTEX
  5
CC53
  8
0
 10
-387.58444244946998
 20
838.31423737026569
 30
0.0
 70
    32
  0
VERTEX
  5
CC54
  8
0
 10
-387.59044244947
 20
838.31223737026562
 30
0.0
 70
    32
  0
VERTEX
  5
CC55
  8
0
 10
-387.59644244946998
 20
838.31023737026567
 30
0.0
 70
    32
  0
VERTEX
  5
CC56
  8
0
 10
-387.60244244946989
 20
838.30823737026583
 30
0.0
 70
    32
  0
VERTEX
  5
CC57
  8
0
 10
-387.60844244946998
 20
838.30623737026565
 30
0.0
 70
    32
  0
VERTEX
  5
CC58
  8
0
 10
-387.61444244946989
 20
838.30523737026567
 30
0.0
 70
    32
  0
VERTEX
  5
CC59
  8
0
 10
-387.62044244946998
 20
838.30323737026561
 30
0.0
 70
    32
  0
VERTEX
  5
CC5A
  8
0
 10
-387.62644244947001
 20
838.30123737026565
 30
0.0
 70
    32
  0
VERTEX
  5
CC5B
  8
0
 10
-387.63244244946998
 20
838.2992373702657
 30
0.0
 70
    32
  0
VERTEX
  5
CC5C
  8
0
 10
-387.63844244947001
 20
838.29823737026561
 30
0.0
 70
    32
  0
VERTEX
  5
CC5D
  8
0
 10
-387.64444244946998
 20
838.29623737026566
 30
0.0
 70
    32
  0
VERTEX
  5
CC5E
  8
0
 10
-387.65044244946989
 20
838.29423737026582
 30
0.0
 70
    32
  0
VERTEX
  5
CC5F
  8
0
 10
-387.65544244946989
 20
838.29323737026562
 30
0.0
 70
    32
  0
VERTEX
  5
CC60
  8
0
 10
-387.66144244946997
 20
838.29123737026566
 30
0.0
 70
    32
  0
VERTEX
  5
CC61
  8
0
 10
-387.66744244946989
 20
838.2892373702656
 30
0.0
 70
    32
  0
VERTEX
  5
CC62
  8
0
 10
-387.67344244946997
 20
838.28823737026562
 30
0.0
 70
    32
  0
VERTEX
  5
CC63
  8
0
 10
-387.67944244947
 20
838.28623737026567
 30
0.0
 70
    32
  0
VERTEX
  5
CC64
  8
0
 10
-387.68544244946997
 20
838.28523737026569
 30
0.0
 70
    32
  0
VERTEX
  5
CC65
  8
0
 10
-387.69144244947
 20
838.28323737026562
 30
0.0
 70
    32
  0
VERTEX
  5
CC66
  8
0
 10
-387.69744244946997
 20
838.28223737026565
 30
0.0
 70
    32
  0
VERTEX
  5
CC67
  8
0
 10
-387.70344244947
 20
838.28023737026558
 30
0.0
 70
    32
  0
VERTEX
  5
CC68
  8
0
 10
-387.70944244946998
 20
838.27823737026563
 30
0.0
 70
    32
  0
VERTEX
  5
CC69
  8
0
 10
-387.71544244946989
 20
838.27723737026565
 30
0.0
 70
    32
  0
VERTEX
  5
CC6A
  8
0
 10
-387.72144244946998
 20
838.27523737026581
 30
0.0
 70
    32
  0
VERTEX
  5
CC6B
  8
0
 10
-387.72744244947
 20
838.27423737026584
 30
0.0
 70
    32
  0
VERTEX
  5
CC6C
  8
0
 10
-387.73244244947
 20
838.27223737026566
 30
0.0
 70
    32
  0
VERTEX
  5
CC6D
  8
0
 10
-387.73844244947003
 20
838.27123737026557
 30
0.0
 70
    32
  0
VERTEX
  5
CC6E
  8
0
 10
-387.74444244947
 20
838.26923737026561
 30
0.0
 70
    32
  0
VERTEX
  5
CC6F
  8
0
 10
-387.75044244946997
 20
838.26723737026566
 30
0.0
 70
    32
  0
VERTEX
  5
CC70
  8
0
 10
-387.75644244947
 20
838.26623737026569
 30
0.0
 70
    32
  0
VERTEX
  5
CC71
  8
0
 10
-387.76244244946997
 20
838.26423737026585
 30
0.0
 70
    32
  0
VERTEX
  5
CC72
  8
0
 10
-387.76744244947002
 20
838.26223737026555
 30
0.0
 70
    32
  0
VERTEX
  5
CC73
  8
0
 10
-387.77344244947
 20
838.26123737026558
 30
0.0
 70
    32
  0
VERTEX
  5
CC74
  8
0
 10
-387.77944244947003
 20
838.25923737026574
 30
0.0
 70
    32
  0
VERTEX
  5
CC75
  8
0
 10
-387.78544244946988
 20
838.25723737026567
 30
0.0
 70
    32
  0
VERTEX
  5
CC76
  8
0
 10
-387.79144244947003
 20
838.25523737026583
 30
0.0
 70
    32
  0
VERTEX
  5
CC77
  8
0
 10
-387.79644244947002
 20
838.25423737026586
 30
0.0
 70
    32
  0
VERTEX
  5
CC78
  8
0
 10
-387.80244244946999
 20
838.25223737026556
 30
0.0
 70
    32
  0
VERTEX
  5
CC79
  8
0
 10
-387.80844244947002
 20
838.25023737026561
 30
0.0
 70
    32
  0
VERTEX
  5
CC7A
  8
0
 10
-387.81344244947002
 20
838.24823737026566
 30
0.0
 70
    32
  0
VERTEX
  5
CC7B
  8
0
 10
-387.81944244946999
 20
838.24623737026582
 30
0.0
 70
    32
  0
VERTEX
  5
CC7C
  8
0
 10
-387.8254424494699
 20
838.24423737026552
 30
0.0
 70
    32
  0
VERTEX
  5
CC7D
  8
0
 10
-387.83044244947001
 20
838.24223737026557
 30
0.0
 70
    32
  0
VERTEX
  5
CC7E
  8
0
 10
-387.83644244946998
 20
838.24023737026573
 30
0.0
 70
    32
  0
VERTEX
  5
CC7F
  8
0
 10
-387.84244244947001
 20
838.2372373702658
 30
0.0
 70
    32
  0
VERTEX
  5
CC80
  8
0
 10
-387.8474424494699
 20
838.23523737026551
 30
0.0
 70
    32
  0
VERTEX
  5
CC81
  8
0
 10
-387.85344244946998
 20
838.23323737026556
 30
0.0
 70
    32
  0
VERTEX
  5
CC82
  8
0
 10
-387.85844244946998
 20
838.23123737026572
 30
0.0
 70
    32
  0
VERTEX
  5
CC83
  8
0
 10
-387.86444244946989
 20
838.22823737026579
 30
0.0
 70
    32
  0
VERTEX
  5
CC84
  8
0
 10
-387.86944244947
 20
838.22623737026549
 30
0.0
 70
    32
  0
VERTEX
  5
CC85
  8
0
 10
-387.87544244946997
 20
838.22323737026557
 30
0.0
 70
    32
  0
VERTEX
  5
CC86
  8
0
 10
-387.88044244947002
 20
838.22123737026573
 30
0.0
 70
    32
  0
VERTEX
  5
CC87
  8
0
 10
-387.88644244947
 20
838.2182373702658
 30
0.0
 70
    32
  0
VERTEX
  5
CC88
  8
0
 10
-387.89144244946999
 20
838.21523737026553
 30
0.0
 70
    32
  0
VERTEX
  5
CC89
  8
0
 10
-387.89644244946999
 20
838.21223737026571
 30
0.0
 70
    32
  0
VERTEX
  5
CC8A
  8
0
 10
-387.90244244947002
 20
838.21023737026565
 30
0.0
 70
    32
  0
VERTEX
  5
CC8B
  8
0
 10
-387.9074424494699
 20
838.20723737026549
 30
0.0
 70
    32
  0
VERTEX
  5
CC8C
  8
0
 10
-387.91244244946989
 20
838.20423737026556
 30
0.0
 70
    32
  0
VERTEX
  5
CC8D
  8
0
 10
-387.91744244947
 20
838.20123737026574
 30
0.0
 70
    32
  0
VERTEX
  5
CC8E
  8
0
 10
-387.92344244946997
 20
838.19823737026547
 30
0.0
 70
    32
  0
VERTEX
  5
CC8F
  8
0
 10
-387.92844244947003
 20
838.19423737026557
 30
0.0
 70
    32
  0
VERTEX
  5
CC90
  8
0
 10
-387.93344244947002
 20
838.19123737026575
 30
0.0
 70
    32
  0
VERTEX
  5
CC91
  8
0
 10
-387.93844244947002
 20
838.18823737026548
 30
0.0
 70
    32
  0
VERTEX
  5
CC92
  8
0
 10
-387.94344244947001
 20
838.18523737026555
 30
0.0
 70
    32
  0
VERTEX
  5
CC93
  8
0
 10
-387.94844244947001
 20
838.18123737026576
 30
0.0
 70
    32
  0
VERTEX
  5
CC94
  8
0
 10
-387.95344244947
 20
838.17823737026549
 30
0.0
 70
    32
  0
VERTEX
  5
CC95
  8
0
 10
-387.95844244947
 20
838.1742373702657
 30
0.0
 70
    32
  0
VERTEX
  5
CC96
  8
0
 10
-387.96344244946999
 20
838.17123737026577
 30
0.0
 70
    32
  0
VERTEX
  5
CC97
  8
0
 10
-387.96844244946999
 20
838.16723737026564
 30
0.0
 70
    32
  0
VERTEX
  5
CC98
  8
0
 10
-387.97344244946999
 20
838.16323737026573
 30
0.0
 70
    32
  0
VERTEX
  5
CC99
  8
0
 10
-387.97844244946998
 20
838.16023737026592
 30
0.0
 70
    32
  0
VERTEX
  5
CC9A
  8
0
 10
-387.98344244946998
 20
838.15623737026556
 30
0.0
 70
    32
  0
VERTEX
  5
CC9B
  8
0
 10
-387.98844244947003
 20
838.15223737026577
 30
0.0
 70
    32
  0
VERTEX
  5
CC9C
  8
0
 10
-387.99344244947002
 20
838.14823737026563
 30
0.0
 70
    32
  0
VERTEX
  5
CC9D
  8
0
 10
-387.99744244946999
 20
838.14423737026573
 30
0.0
 70
    32
  0
VERTEX
  5
CC9E
  8
0
 10
-388.00244244946998
 20
838.14123737026569
 30
0.0
 70
    32
  0
VERTEX
  5
CC9F
  8
0
 10
-388.00744244946998
 20
838.13723737026567
 30
0.0
 70
    32
  0
VERTEX
  5
CCA0
  8
0
 10
-388.01244244946997
 20
838.13323737026576
 30
0.0
 70
    32
  0
VERTEX
  5
CCA1
  8
0
 10
-388.01644244946999
 20
838.12823737026565
 30
0.0
 70
    32
  0
VERTEX
  5
CCA2
  8
0
 10
-388.02144244946999
 20
838.12423737026575
 30
0.0
 70
    32
  0
VERTEX
  5
CCA3
  8
0
 10
-388.02544244947001
 20
838.12023737026584
 30
0.0
 70
    32
  0
VERTEX
  5
CCA4
  8
0
 10
-388.03044244946989
 20
838.11623737026571
 30
0.0
 70
    32
  0
VERTEX
  5
CCA5
  8
0
 10
-388.03444244947002
 20
838.11223737026569
 30
0.0
 70
    32
  0
VERTEX
  5
CCA6
  8
0
 10
-388.03944244947002
 20
838.10723737026569
 30
0.0
 70
    32
  0
VERTEX
  5
CCA7
  8
0
 10
-388.04344244946998
 20
838.10323737026567
 30
0.0
 70
    32
  0
VERTEX
  5
CCA8
  8
0
 10
-388.04844244946997
 20
838.09923737026566
 30
0.0
 70
    32
  0
VERTEX
  5
CCA9
  8
0
 10
-388.05244244946999
 20
838.09423737026566
 30
0.0
 70
    32
  0
VERTEX
  5
CCAA
  8
0
 10
-388.05744244946999
 20
838.09023737026575
 30
0.0
 70
    32
  0
VERTEX
  5
CCAB
  8
0
 10
-388.06144244947001
 20
838.08523737026565
 30
0.0
 70
    32
  0
VERTEX
  5
CCAC
  8
0
 10
-388.06544244947003
 20
838.08123737026563
 30
0.0
 70
    32
  0
VERTEX
  5
CCAD
  8
0
 10
-388.06944244946999
 20
838.07623737026574
 30
0.0
 70
    32
  0
VERTEX
  5
CCAE
  8
0
 10
-388.07444244946998
 20
838.07223737026561
 30
0.0
 70
    32
  0
VERTEX
  5
CCAF
  8
0
 10
-388.07844244947
 20
838.06723737026562
 30
0.0
 70
    32
  0
VERTEX
  5
CCB0
  8
0
 10
-388.08244244947002
 20
838.06223737026573
 30
0.0
 70
    32
  0
VERTEX
  5
CCB1
  8
0
 10
-388.08644244946998
 20
838.0582373702656
 30
0.0
 70
    32
  0
VERTEX
  5
CCB2
  8
0
 10
-388.09044244946989
 20
838.05323737026561
 30
0.0
 70
    32
  0
VERTEX
  5
CCB3
  8
0
 10
-388.09444244947002
 20
838.04823737026572
 30
0.0
 70
    32
  0
VERTEX
  5
CCB4
  8
0
 10
-388.09844244946999
 20
838.04323737026573
 30
0.0
 70
    32
  0
VERTEX
  5
CCB5
  8
0
 10
-388.10244244946989
 20
838.03823737026573
 30
0.0
 70
    32
  0
VERTEX
  5
CCB6
  8
0
 10
-388.10644244947002
 20
838.03423737026583
 30
0.0
 70
    32
  0
VERTEX
  5
CCB7
  8
0
 10
-388.11044244946999
 20
838.02923737026572
 30
0.0
 70
    32
  0
VERTEX
  5
CCB8
  8
0
 10
-388.11344244947003
 20
838.02423737026595
 30
0.0
 70
    32
  0
VERTEX
  5
CCB9
  8
0
 10
-388.11744244946999
 20
838.01923737026573
 30
0.0
 70
    32
  0
VERTEX
  5
CCBA
  8
0
 10
-388.12144244947001
 20
838.01423737026585
 30
0.0
 70
    32
  0
VERTEX
  5
CCBB
  8
0
 10
-388.12544244946997
 20
838.00923737026574
 30
0.0
 70
    32
  0
VERTEX
  5
CCBC
  8
0
 10
-388.12844244947001
 20
838.00423737026586
 30
0.0
 70
    32
  0
VERTEX
  5
CCBD
  8
0
 10
-388.13244244946998
 20
837.99923737026575
 30
0.0
 70
    32
  0
VERTEX
  5
CCBE
  8
0
 10
-388.13544244947002
 20
837.99423737026564
 30
0.0
 70
    32
  0
VERTEX
  5
CCBF
  8
0
 10
-388.13944244946998
 20
837.98823737026578
 30
0.0
 70
    32
  0
VERTEX
  5
CCC0
  8
0
 10
-388.14244244947002
 20
837.98323737026556
 30
0.0
 70
    32
  0
VERTEX
  5
CCC1
  8
0
 10
-388.14644244946999
 20
837.97823737026579
 30
0.0
 70
    32
  0
VERTEX
  5
CCC2
  8
0
 10
-388.14944244946997
 20
837.97323737026568
 30
0.0
 70
    32
  0
VERTEX
  5
CCC3
  8
0
 10
-388.1524424494699
 20
837.9682373702658
 30
0.0
 70
    32
  0
VERTEX
  5
CCC4
  8
0
 10
-388.15644244946998
 20
837.96223737026571
 30
0.0
 70
    32
  0
VERTEX
  5
CCC5
  8
0
 10
-388.15944244947002
 20
837.95723737026549
 30
0.0
 70
    32
  0
VERTEX
  5
CCC6
  8
0
 10
-388.16244244947001
 20
837.95223737026572
 30
0.0
 70
    32
  0
VERTEX
  5
CCC7
  8
0
 10
-388.16544244946988
 20
837.94623737026564
 30
0.0
 70
    32
  0
VERTEX
  5
CCC8
  8
0
 10
-388.16844244946998
 20
837.94123737026575
 30
0.0
 70
    32
  0
VERTEX
  5
CCC9
  8
0
 10
-388.17144244947002
 20
837.93623737026564
 30
0.0
 70
    32
  0
VERTEX
  5
CCCA
  8
0
 10
-388.17444244947001
 20
837.93023737026567
 30
0.0
 70
    32
  0
VERTEX
  5
CCCB
  8
0
 10
-388.17744244946999
 20
837.92523737026568
 30
0.0
 70
    32
  0
VERTEX
  5
CCCC
  8
0
 10
-388.18044244946998
 20
837.91923737026571
 30
0.0
 70
    32
  0
VERTEX
  5
CCCD
  8
0
 10
-388.18344244947002
 20
837.91423737026582
 30
0.0
 70
    32
  0
VERTEX
  5
CCCE
  8
0
 10
-388.18644244947001
 20
837.90823737026562
 30
0.0
 70
    32
  0
VERTEX
  5
CCCF
  8
0
 10
-388.18844244947002
 20
837.90323737026563
 30
0.0
 70
    32
  0
VERTEX
  5
CCD0
  8
0
 10
-388.19144244947
 20
837.89723737026566
 30
0.0
 70
    32
  0
VERTEX
  5
CCD1
  8
0
 10
-388.19444244946999
 20
837.89223737026566
 30
0.0
 70
    32
  0
VERTEX
  5
CCD2
  8
0
 10
-388.19644244947
 20
837.88623737026558
 30
0.0
 70
    32
  0
VERTEX
  5
CCD3
  8
0
 10
-388.19944244946998
 20
837.88123737026581
 30
0.0
 70
    32
  0
VERTEX
  5
CCD4
  8
0
 10
-388.20144244946999
 20
837.87523737026561
 30
0.0
 70
    32
  0
VERTEX
  5
CCD5
  8
0
 10
-388.20344244947
 20
837.86923737026575
 30
0.0
 70
    32
  0
VERTEX
  5
CCD6
  8
0
 10
-388.20644244946999
 20
837.86423737026576
 30
0.0
 70
    32
  0
VERTEX
  5
CCD7
  8
0
 10
-388.20844244947
 20
837.85823737026556
 30
0.0
 70
    32
  0
VERTEX
  5
CCD8
  8
0
 10
-388.21044244946989
 20
837.85223737026581
 30
0.0
 70
    32
  0
VERTEX
  5
CCD9
  8
0
 10
-388.2124424494699
 20
837.84623737026573
 30
0.0
 70
    32
  0
VERTEX
  5
CCDA
  8
0
 10
-388.21444244947003
 20
837.8412373702655
 30
0.0
 70
    32
  0
VERTEX
  5
CCDB
  8
0
 10
-388.21644244946998
 20
837.83523737026565
 30
0.0
 70
    32
  0
VERTEX
  5
CCDC
  8
0
 10
-388.21844244946999
 20
837.82923737026556
 30
0.0
 70
    32
  0
VERTEX
  5
CCDD
  8
0
 10
-388.22044244947
 20
837.82323737026547
 30
0.0
 70
    32
  0
VERTEX
  5
CCDE
  8
0
 10
-388.22244244947001
 20
837.81823737026571
 30
0.0
 70
    32
  0
VERTEX
  5
CCDF
  8
0
 10
-388.22444244947002
 20
837.81223737026551
 30
0.0
 70
    32
  0
VERTEX
  5
CCE0
  8
0
 10
-388.22544244946999
 20
837.80623737026576
 30
0.0
 70
    32
  0
VERTEX
  5
CCE1
  8
0
 10
-388.22744244946989
 20
837.80023737026556
 30
0.0
 70
    32
  0
VERTEX
  5
CCE2
  8
0
 10
-388.22844244946998
 20
837.79423737026593
 30
0.0
 70
    32
  0
VERTEX
  5
CCE3
  8
0
 10
-388.23044244946988
 20
837.78823737026573
 30
0.0
 70
    32
  0
VERTEX
  5
CCE4
  8
0
 10
-388.23144244947002
 20
837.78223737026565
 30
0.0
 70
    32
  0
VERTEX
  5
CCE5
  8
0
 10
-388.23344244946998
 20
837.77723737026577
 30
0.0
 70
    32
  0
VERTEX
  5
CCE6
  8
0
 10
-388.23444244947001
 20
837.77123737026568
 30
0.0
 70
    32
  0
VERTEX
  5
CCE7
  8
0
 10
-388.23544244946999
 20
837.76523737026571
 30
0.0
 70
    32
  0
VERTEX
  5
CCE8
  8
0
 10
-388.23644244947002
 20
837.75923737026585
 30
0.0
 70
    32
  0
VERTEX
  5
CCE9
  8
0
 10
-388.23744244947
 20
837.75323737026565
 30
0.0
 70
    32
  0
VERTEX
  5
CCEA
  8
0
 10
-388.23844244947003
 20
837.74723737026568
 30
0.0
 70
    32
  0
VERTEX
  5
CCEB
  8
0
 10
-388.23944244947
 20
837.74123737026571
 30
0.0
 70
    32
  0
VERTEX
  5
CCEC
  8
0
 10
-388.24044244946998
 20
837.73523737026562
 30
0.0
 70
    32
  0
VERTEX
  5
CCED
  8
0
 10
-388.24144244947001
 20
837.72923737026565
 30
0.0
 70
    32
  0
VERTEX
  5
CCEE
  8
0
 10
-388.24244244946999
 20
837.72323737026568
 30
0.0
 70
    32
  0
VERTEX
  5
CCEF
  8
0
 10
-388.24244244946999
 20
837.71723737026559
 30
0.0
 70
    32
  0
VERTEX
  5
CCF0
  8
0
 10
-388.24344244947002
 20
837.71123737026562
 30
0.0
 70
    32
  0
VERTEX
  5
CCF1
  8
0
 10
-388.24444244947
 20
837.70523737026565
 30
0.0
 70
    32
  0
VERTEX
  5
CCF2
  8
0
 10
-388.24444244947
 20
837.69923737026568
 30
0.0
 70
    32
  0
VERTEX
  5
CCF3
  8
0
 10
-388.24544244946998
 20
837.69323737026559
 30
0.0
 70
    32
  0
VERTEX
  5
CCF4
  8
0
 10
-388.24544244946998
 20
837.68723737026562
 30
0.0
 70
    32
  0
VERTEX
  5
CCF5
  8
0
 10
-388.24644244947001
 20
837.68023737026567
 30
0.0
 70
    32
  0
VERTEX
  5
CCF6
  8
0
 10
-388.24644244947001
 20
837.67423737026559
 30
0.0
 70
    32
  0
VERTEX
  5
CCF7
  8
0
 10
-388.24744244946999
 20
837.66823737026573
 30
0.0
 70
    32
  0
VERTEX
  5
CCF8
  8
0
 10
-388.24744244946999
 20
837.66223737026564
 30
0.0
 70
    32
  0
VERTEX
  5
CCF9
  8
0
 10
-388.24744244946999
 20
837.65623737026556
 30
0.0
 70
    32
  0
VERTEX
  5
CCFA
  8
0
 10
-388.24844244947002
 20
837.65023737026581
 30
0.0
 70
    32
  0
VERTEX
  5
CCFB
  8
0
 10
-388.24844244947002
 20
837.64423737026573
 30
0.0
 70
    32
  0
VERTEX
  5
CCFC
  8
0
 10
-388.24844244947002
 20
837.63823737026553
 30
0.0
 70
    32
  0
VERTEX
  5
CCFD
  8
0
 10
-388.24844244947002
 20
837.63223737026578
 30
0.0
 70
    32
  0
VERTEX
  5
CCFE
  8
0
 10
-388.24944244947
 20
837.62623737026559
 30
0.0
 70
    32
  0
VERTEX
  5
CCFF
  8
0
 10
-388.24944244947
 20
837.61923737026564
 30
0.0
 70
    32
  0
VERTEX
  5
CD00
  8
0
 10
-388.24944244947
 20
837.61323737026578
 30
0.0
 70
    32
  0
VERTEX
  5
CD01
  8
0
 10
-388.24944244947
 20
837.60723737026569
 30
0.0
 70
    32
  0
VERTEX
  5
CD02
  8
0
 10
-388.25044244946997
 20
837.60123737026549
 30
0.0
 70
    32
  0
VERTEX
  5
CD03
  8
0
 10
-388.25044244946997
 20
837.59523737026575
 30
0.0
 70
    32
  0
VERTEX
  5
CD04
  8
0
 10
-388.25044244946997
 20
837.58923737026555
 30
0.0
 70
    32
  0
VERTEX
  5
CD05
  8
0
 10
-388.25044244946997
 20
837.58323737026546
 30
0.0
 70
    32
  0
VERTEX
  5
CD06
  8
0
 10
-388.25044244946997
 20
837.57723737026572
 30
0.0
 70
    32
  0
VERTEX
  5
CD07
  8
0
 10
-388.25044244946997
 20
837.57123737026564
 30
0.0
 70
    32
  0
VERTEX
  5
CD08
  8
0
 10
-388.25144244947001
 20
837.56423737026569
 30
0.0
 70
    32
  0
VERTEX
  5
CD09
  8
0
 10
-388.25144244947001
 20
837.55823737026572
 30
0.0
 70
    32
  0
VERTEX
  5
CD0A
  8
0
 10
-388.25144244947001
 20
837.55223737026563
 30
0.0
 70
    32
  0
VERTEX
  5
CD0B
  8
0
 10
-388.25144244947001
 20
837.54623737026566
 30
0.0
 70
    32
  0
VERTEX
  5
CD0C
  8
0
 10
-388.25144244947001
 20
837.54023737026569
 30
0.0
 70
    32
  0
VERTEX
  5
CD0D
  8
0
 10
-388.25244244946998
 20
837.53423737026571
 30
0.0
 70
    32
  0
VERTEX
  5
CD0E
  8
0
 10
-388.25244244946998
 20
837.52823737026563
 30
0.0
 70
    32
  0
VERTEX
  5
CD0F
  8
0
 10
-388.25244244946998
 20
837.52223737026566
 30
0.0
 70
    32
  0
VERTEX
  5
CD10
  8
0
 10
-388.25344244947001
 20
837.51523737026582
 30
0.0
 70
    32
  0
VERTEX
  5
CD11
  8
0
 10
-388.25344244947001
 20
837.50923737026562
 30
0.0
 70
    32
  0
VERTEX
  5
CD12
  8
0
 10
-388.25344244947001
 20
837.50323737026565
 30
0.0
 70
    32
  0
VERTEX
  5
CD13
  8
0
 10
-388.25444244946999
 20
837.49723737026568
 30
0.0
 70
    32
  0
VERTEX
  5
CD14
  8
0
 10
-388.25444244946999
 20
837.49123737026559
 30
0.0
 70
    32
  0
VERTEX
  5
CD15
  8
0
 10
-388.25544244947002
 20
837.48523737026574
 30
0.0
 70
    32
  0
VERTEX
  5
CD16
  8
0
 10
-388.25544244947002
 20
837.47923737026565
 30
0.0
 70
    32
  0
VERTEX
  5
CD17
  8
0
 10
-388.25644244947
 20
837.47323737026557
 30
0.0
 70
    32
  0
SEQEND
  5
CD18
  8
0
  0
VIEWPORT
  5
BADA
 67
     1
  8
0
 10
5.249999665167528
 20
4.016860864854312
 30
0.0
 40
16.259362384438411
 41
8.0158201110956853
 68
     1
 69
     1
1001
ACAD
1000
MVIEW
1002
{
1070
    16
1010
0.0
1020
0.0
1030
0.0
1010
0.0
1020
0.0
1030
1.0
1040
0.0
1040
8.0158201110956853
1040
5.249999665167528
1040
4.016860864854312
1040
50.0
1040
0.0
1040
0.0
1070
     0
1070
   100
1070
     1
1070
     1
1070
     0
1070
     0
1070
     0
1070
     0
1040
0.0
1040
0.0
1040
0.0
1040
0.5
1040
0.5
1040
0.5
1040
0.5
1070
     0
1002
{
1002
}
1002
}
  0
VIEWPORT
  5
BADD
 67
     1
  8
0
 10
5.249999629487192
 20
4.0166741807634683
 30
0.0
 40
10.44245679893058
 41
7.8813805131999892
 68
     2
 69
     2
1001
ACAD
1000
MVIEW
1002
{
1070
    16
1010
0.0
1020
0.0
1030
0.0
1010
0.0
1020
0.0
1030
1.0
1040
0.0
1040
7.8813805190370463
1040
-387.20985136692838
1040
838.2226040800208
1040
50.0
1040
0.0
1040
0.0
1070
     0
1070
   100
1070
     1
1070
     2
1070
     0
1070
     0
1070
     0
1070
     0
1040
0.0
1040
0.0
1040
0.0
1040
0.5
1040
0.5
1040
0.5
1040
0.5
1070
     0
1002
{
1002
}
1002
}
  0
ENDSEC
  0
EOF
