  0
SECTION
  2
HEADER
  9
$ACADVER
  1
AC1009
  9
$INSBASE
 10
0.0
 20
0.0
 30
0.0
  9
$EXTMIN
 10
-389.93991053657271
 20
834.65667183693085
 30
0.0
  9
$EXTMAX
 10
-383.9430257495203
 20
843.05086629103664
 30
0.0
  9
$LIMMIN
 10
0.0
 20
0.0
  9
$LIMMAX
 10
1500.0
 20
1500.0
  9
$ORTHOMODE
 70
     0
  9
$REGENMODE
 70
     1
  9
$FILLMODE
 70
     1
  9
$QTEXTMODE
 70
     0
  9
$MIRRTEXT
 70
     1
  9
$DRAGMODE
 70
     2
  9
$LTSCALE
 40
1.0
  9
$OSMODE
 70
    37
  9
$ATTMODE
 70
     1
  9
$TEXTSIZE
 40
1.5
  9
$TRACEWID
 40
0.05
  9
$TEXTSTYLE
  7
STANDARD
  9
$CLAYER
  8
0
  9
$CELTYPE
  6
BYLAYER
  9
$CECOLOR
 62
   256
  9
$DIMSCALE
 40
1.0
  9
$DIMASZ
 40
0.75
  9
$DIMEXO
 40
1.5
  9
$DIMDLI
 40
2.0
  9
$DIMRND
 40
0.0
  9
$DIMDLE
 40
0.0
  9
$DIMEXE
 40
1.0
  9
$DIMTP
 40
0.0
  9
$DIMTM
 40
0.0
  9
$DIMTXT
 40
1.5
  9
$DIMCEN
 40
2.0
  9
$DIMTSZ
 40
0.0
  9
$DIMTOL
 70
     0
  9
$DIMLIM
 70
     0
  9
$DIMTIH
 70
     0
  9
$DIMTOH
 70
     0
  9
$DIMSE1
 70
     0
  9
$DIMSE2
 70
     0
  9
$DIMTAD
 70
     1
  9
$DIMZIN
 70
     0
  9
$DIMBLK
  1
ARCHTICK
  9
$DIMASO
 70
     1
  9
$DIMSHO
 70
     1
  9
$DIMPOST
  1
"
  9
$DIMAPOST
  1

  9
$DIMALT
 70
     0
  9
$DIMALTD
 70
     2
  9
$DIMALTF
 40
25.399999999999999
  9
$DIMLFAC
 40
1.0
  9
$DIMTOFL
 70
     0
  9
$DIMTVP
 40
0.0
  9
$DIMTIX
 70
     1
  9
$DIMSOXD
 70
     0
  9
$DIMSAH
 70
     0
  9
$DIMBLK1
  1

  9
$DIMBLK2
  1

  9
$DIMSTYLE
  2
THREE_QUARTER_INCH_SCALE
  9
$DIMCLRD
 70
     0
  9
$DIMCLRE
 70
     0
  9
$DIMCLRT
 70
     0
  9
$DIMTFAC
 40
1.0
  9
$DIMGAP
 40
1.0
  9
$LUNITS
 70
     2
  9
$LUPREC
 70
     4
  9
$SKETCHINC
 40
0.1
  9
$FILLETRAD
 40
0.0
  9
$AUNITS
 70
     0
  9
$AUPREC
 70
     0
  9
$MENU
  1
.
  9
$ELEVATION
 40
0.0
  9
$PELEVATION
 40
0.0
  9
$THICKNESS
 40
0.0
  9
$LIMCHECK
 70
     0
  9
$BLIPMODE
 70
     0
  9
$CHAMFERA
 40
0.5
  9
$CHAMFERB
 40
0.5
  9
$SKPOLY
 70
     0
  9
$TDCREATE
 40
2452089.395738773
  9
$TDUPDATE
 40
2453612.3451808449
  9
$TDINDWG
 40
1.0265495486
  9
$TDUSRTIMER
 40
1.0265491898000001
  9
$USRTIMER
 70
     1
  9
$ANGBASE
 50
0.0
  9
$ANGDIR
 70
     0
  9
$PDMODE
 70
     0
  9
$PDSIZE
 40
10.0
  9
$PLINEWID
 40
0.0
  9
$COORDS
 70
     1
  9
$SPLFRAME
 70
     0
  9
$SPLINETYPE
 70
     6
  9
$SPLINESEGS
 70
     8
  9
$ATTDIA
 70
     0
  9
$ATTREQ
 70
     1
  9
$HANDLING
 70
     1
  9
$HANDSEED
  5
FE3D
  9
$SURFTAB1
 70
     6
  9
$SURFTAB2
 70
     6
  9
$SURFTYPE
 70
     6
  9
$SURFU
 70
     6
  9
$SURFV
 70
     6
  9
$UCSNAME
  2

  9
$UCSORG
 10
0.0
 20
0.0
 30
0.0
  9
$UCSXDIR
 10
1.0
 20
0.0
 30
0.0
  9
$UCSYDIR
 10
0.0
 20
1.0
 30
0.0
  9
$PUCSNAME
  2

  9
$PUCSORG
 10
0.0
 20
0.0
 30
0.0
  9
$PUCSXDIR
 10
1.0
 20
0.0
 30
0.0
  9
$PUCSYDIR
 10
0.0
 20
1.0
 30
0.0
  9
$USERI1
 70
     0
  9
$USERI2
 70
     0
  9
$USERI3
 70
     0
  9
$USERI4
 70
     0
  9
$USERI5
 70
     0
  9
$USERR1
 40
0.0
  9
$USERR2
 40
0.0
  9
$USERR3
 40
0.0
  9
$USERR4
 40
0.0
  9
$USERR5
 40
0.0
  9
$WORLDVIEW
 70
     1
  9
$SHADEDGE
 70
     3
  9
$SHADEDIF
 70
    70
  9
$TILEMODE
 70
     0
  9
$MAXACTVP
 70
    64
  9
$PLIMCHECK
 70
     0
  9
$PEXTMIN
 10
0.0282895744820628
 20
0.0759353784799721
 30
-0.0015258207003583
  9
$PEXTMAX
 10
10.47170975585299
 20
7.9577863512286546
 30
0.0000000349246037
  9
$PLIMMIN
 10
-0.1682389550263349
 20
-0.2033427855578579
  9
$PLIMMAX
 10
10.754640548407011
 20
8.2370640492290015
  9
$UNITMODE
 70
     0
  9
$VISRETAIN
 70
     1
  9
$PLINEGEN
 70
     0
  9
$PSLTSCALE
 70
     1
  0
ENDSEC
  0
SECTION
  2
TABLES
  0
TABLE
  2
VPORT
 70
     1
  0
VPORT
  2
*ACTIVE
 70
     0
 10
0.0
 20
0.0
 11
1.0
 21
1.0
 12
-386.52380251144001
 22
838.09204166179234
 13
0.0
 23
0.0
 14
0.5
 24
0.5
 15
0.5
 25
0.5
 16
0.0
 26
0.0
 36
1.0
 17
0.0
 27
0.0
 37
0.0
 40
3.930952126162941
 41
2.0226628895184122
 42
50.0
 43
0.0
 44
0.0
 50
0.0
 51
0.0
 71
     0
 72
   100
 73
     1
 74
     2
 75
     0
 76
     0
 77
     0
 78
     0
  0
ENDTAB
  0
TABLE
  2
LTYPE
 70
     1
  0
LTYPE
  2
CONTINUOUS
 70
     0
  3
Solid line
 72
    65
 73
     0
 40
0.0
  0
ENDTAB
  0
TABLE
  2
LAYER
 70
    10
  0
LAYER
  2
0
 70
     0
 62
     7
  6
CONTINUOUS
  0
LAYER
  2
DEFPOINTS
 70
     0
 62
     7
  6
CONTINUOUS
  0
LAYER
  2
FRAME_200
 70
     0
 62
     8
  6
CONTINUOUS
  0
LAYER
  2
FRAME_070
 70
     0
 62
     5
  6
CONTINUOUS
  0
LAYER
  2
FRAME_050
 70
     0
 62
     6
  6
CONTINUOUS
  0
LAYER
  2
TITLE_BLOCK
 70
     0
 62
     7
  6
CONTINUOUS
  0
LAYER
  2
FRAME_025
 70
     0
 62
     7
  6
CONTINUOUS
  0
LAYER
  2
VIEWPORT
 70
     0
 62
     7
  6
CONTINUOUS
  0
LAYER
  2
PROF
 70
     0
 62
     7
  6
CONTINUOUS
  0
LAYER
  2
PROFILE
 70
     0
 62
     7
  6
CONTINUOUS
  0
ENDTAB
  0
TABLE
  2
STYLE
 70
     2
  0
STYLE
  2
STANDARD
 70
     0
 40
0.0
 41
1.0
 50
0.0
 71
     0
 42
1.5
  3
txt
  4

  0
STYLE
  2
ISO_PROPORTIONAL
 70
     0
 40
0.0
 41
1.0
 50
0.0
 71
     0
 42
2.5
  3
isocp.shx
  4

  0
ENDTAB
  0
TABLE
  2
VIEW
 70
     0
  0
ENDTAB
  0
TABLE
  2
UCS
 70
     0
  0
ENDTAB
  0
TABLE
  2
APPID
 70
     6
  0
APPID
  2
ACAD
 70
     0
  0
APPID
  2
DCO15
 70
     0
  0
APPID
  2
ACAD_EXEMPT_FROM_CAD_STANDARDS
 70
     0
  0
APPID
  2
ACAD_PSEXT
 70
     0
  0
APPID
  2
CONTENTBLOCKDESCRIPTION
 70
     0
  0
APPID
  2
CONTENTBLOCKICON
 70
     0
  0
ENDTAB
  0
TABLE
  2
DIMSTYLE
 70
    10
  0
DIMSTYLE
  2
FULL_SCALE
 70
     0
  3
"
  4

  5

  6

  7

 40
1.0
 41
0.046875
 42
0.09375
 43
0.125
 44
0.0625
 45
0.0
 46
0.0
 47
0.0
 48
0.0
140
0.125
141
0.125
142
0.0
143
25.399999999999999
144
1.0
145
0.0
146
1.0
147
0.0625
 71
     0
 72
     0
 73
     0
 74
     0
 75
     0
 76
     0
 77
     1
 78
     0
170
     0
171
     2
172
     0
173
     0
174
     1
175
     0
176
     0
177
     0
178
     0
  0
DIMSTYLE
  2
HALF_SCALE
 70
     0
  3
"
  4

  5

  6

  7

 40
1.0
 41
0.09375
 42
0.1875
 43
0.25
 44
0.125
 45
0.0
 46
0.0
 47
0.0
 48
0.0
140
0.25
141
0.25
142
0.0
143
25.399999999999999
144
1.0
145
0.0
146
1.0
147
0.125
 71
     0
 72
     0
 73
     0
 74
     0
 75
     0
 76
     0
 77
     1
 78
     0
170
     0
171
     2
172
     0
173
     0
174
     1
175
     0
176
     0
177
     0
178
     0
  0
DIMSTYLE
  2
INCH_SCALE
 70
     0
  3
"
  4

  5

  6

  7

 40
1.0
 41
0.5625
 42
1.125
 43
1.5
 44
0.75
 45
0.0
 46
0.0
 47
0.0
 48
0.0
140
1.125
141
1.5
142
0.0
143
25.399999999999999
144
1.0
145
0.0
146
1.0
147
0.75
 71
     0
 72
     0
 73
     0
 74
     0
 75
     0
 76
     0
 77
     1
 78
     0
170
     0
171
     2
172
     0
173
     0
174
     1
175
     0
176
     0
177
     0
178
     0
  0
DIMSTYLE
  2
THREE_QUARTER_INCH_SCALE
 70
     0
  3
"
  4

  5

  6

  7

 40
1.0
 41
0.75
 42
1.5
 43
2.0
 44
1.0
 45
0.0
 46
0.0
 47
0.0
 48
0.0
140
1.5
141
2.0
142
0.0
143
25.399999999999999
144
1.0
145
0.0
146
1.0
147
1.0
 71
     0
 72
     0
 73
     0
 74
     0
 75
     0
 76
     0
 77
     1
 78
     0
170
     0
171
     2
172
     0
173
     0
174
     1
175
     0
176
     0
177
     0
178
     0
  0
DIMSTYLE
  2
ZHALF_INCH_SCALE
 70
     0
  3
"
  4

  5

  6

  7

 40
1.0
 41
1.125
 42
2.25
 43
3.0
 44
1.5
 45
0.0
 46
0.0
 47
0.0
 48
0.0
140
2.25
141
3.0
142
0.0
143
25.399999999999999
144
1.0
145
0.0
146
1.0
147
1.5
 71
     0
 72
     0
 73
     0
 74
     0
 75
     0
 76
     0
 77
     1
 78
     0
170
     0
171
     2
172
     0
173
     0
174
     1
175
     0
176
     0
177
     0
178
     0
  0
DIMSTYLE
  2
FULL_SCALE0
 70
     0
  3
"
  4

  5
ARCHTICK
  6

  7

 40
1.0
 41
0.046875
 42
0.09375
 43
0.125
 44
0.0625
 45
0.0
 46
0.0
 47
0.0
 48
0.0
140
0.125
141
0.125
142
0.0
143
25.399999999999999
144
1.0
145
0.0
146
1.0
147
0.0625
 71
     0
 72
     0
 73
     0
 74
     0
 75
     0
 76
     0
 77
     1
 78
     0
170
     0
171
     2
172
     0
173
     0
174
     1
175
     0
176
     0
177
     0
178
     0
  0
DIMSTYLE
  2
HALF_SCALE0
 70
     0
  3
"
  4

  5
ARCHTICK
  6

  7

 40
1.0
 41
0.09375
 42
0.1875
 43
0.25
 44
0.125
 45
0.0
 46
0.0
 47
0.0
 48
0.0
140
0.25
141
0.25
142
0.0
143
25.399999999999999
144
1.0
145
0.0
146
1.0
147
0.125
 71
     0
 72
     0
 73
     0
 74
     0
 75
     0
 76
     0
 77
     1
 78
     0
170
     0
171
     2
172
     0
173
     0
174
     1
175
     0
176
     0
177
     0
178
     0
  0
DIMSTYLE
  2
INCH_SCALE0
 70
     0
  3
"
  4

  5
ARCHTICK
  6

  7

 40
1.0
 41
0.5625
 42
1.125
 43
1.5
 44
0.75
 45
0.0
 46
0.0
 47
0.0
 48
0.0
140
1.125
141
1.5
142
0.0
143
25.399999999999999
144
1.0
145
0.0
146
1.0
147
0.75
 71
     0
 72
     0
 73
     0
 74
     0
 75
     0
 76
     0
 77
     1
 78
     0
170
     0
171
     2
172
     0
173
     0
174
     1
175
     0
176
     0
177
     0
178
     0
  0
DIMSTYLE
  2
THREE_QUARTER_INCH_SCALE0
 70
     0
  3
"
  4

  5
ARCHTICK
  6

  7

 40
1.0
 41
0.75
 42
1.5
 43
2.0
 44
1.0
 45
0.0
 46
0.0
 47
0.0
 48
0.0
140
1.5
141
2.0
142
0.0
143
25.399999999999999
144
1.0
145
0.0
146
1.0
147
1.0
 71
     0
 72
     0
 73
     0
 74
     0
 75
     0
 76
     0
 77
     1
 78
     0
170
     0
171
     2
172
     0
173
     0
174
     1
175
     0
176
     0
177
     0
178
     0
  0
DIMSTYLE
  2
ZHALF_INCH_SCALE0
 70
     0
  3
"
  4

  5
ARCHTICK
  6

  7

 40
1.0
 41
1.125
 42
2.25
 43
3.0
 44
1.5
 45
0.0
 46
0.0
 47
0.0
 48
0.0
140
2.25
141
3.0
142
0.0
143
25.399999999999999
144
1.0
145
0.0
146
1.0
147
1.5
 71
     0
 72
     0
 73
     0
 74
     0
 75
     0
 76
     0
 77
     1
 78
     0
170
     0
171
     2
172
     0
173
     0
174
     1
175
     0
176
     0
177
     0
178
     0
  0
ENDTAB
  0
ENDSEC
  0
SECTION
  2
BLOCKS
  0
BLOCK
  8
0
  2
$MODEL_SPACE
 70
     0
 10
0.0
 20
0.0
 30
0.0
  3
$MODEL_SPACE
  1

  0
ENDBLK
  5
C9DC
  8
0
  0
BLOCK
 67
     1
  8
0
  2
$PAPER_SPACE
 70
     0
 10
0.0
 20
0.0
 30
0.0
  3
$PAPER_SPACE
  1

  0
ENDBLK
  5
C9D8
 67
     1
  8
0
  0
BLOCK
  8
0
  2
_ARCHTICK
 70
     0
 10
0.0
 20
0.0
 30
0.0
  3
_ARCHTICK
  1

  0
POLYLINE
  5
158
  8
0
  6
BYBLOCK
 62
     0
 66
     1
 10
0.0
 20
0.0
 30
0.0
 40
0.15
 41
0.15
  0
VERTEX
  5
FB23
  8
0
  6
BYBLOCK
 62
     0
 10
-0.5
 20
-0.5
 30
0.0
  0
VERTEX
  5
FB24
  8
0
  6
BYBLOCK
 62
     0
 10
0.5
 20
0.5
 30
0.0
  0
SEQEND
  5
FB25
  8
0
  6
BYBLOCK
 62
     0
  0
ENDBLK
  5
15A
  8
0
  0
BLOCK
  8
0
  2
_OPEN30
 70
     0
 10
0.0
 20
0.0
 30
0.0
  3
_OPEN30
  1

  0
LINE
  5
15C
  8
0
  6
BYBLOCK
 62
     0
 10
-1.0
 20
0.26794919
 30
0.0
 11
0.0
 21
0.0
 31
0.0
  0
LINE
  5
15D
  8
0
  6
BYBLOCK
 62
     0
 10
0.0
 20
0.0
 30
0.0
 11
-1.0
 21
-0.26794919
 31
0.0
  0
LINE
  5
15E
  8
0
  6
BYBLOCK
 62
     0
 10
0.0
 20
0.0
 30
0.0
 11
-1.0
 21
0.0
 31
0.0
  0
ENDBLK
  5
160
  8
0
  0
BLOCK
  8
0
  2
ISO_A2_TITLE_BLOCK
 70
     2
 10
0.0
 20
0.0
 30
0.0
  3
ISO_A2_TITLE_BLOCK
  1

  0
LINE
  5
BDD
  8
FRAME_050
 10
299.5
 20
12.5
 30
0.0
 11
297.0
 21
7.5
 31
0.0
  0
LINE
  5
BDE
  8
FRAME_050
 10
294.5
 20
12.5
 30
0.0
 11
299.5
 21
12.5
 31
0.0
  0
LINE
  5
BDF
  8
FRAME_050
 10
247.0
 20
5.0
 30
0.0
 11
347.0
 21
5.0
 31
0.0
  0
LINE
  5
BE0
  8
FRAME_070
 10
584.0
 20
410.0
 30
0.0
 11
10.0
 21
410.0
 31
0.0
  0
LINE
  5
BE1
  8
FRAME_070
 10
10.0
 20
10.0
 30
0.0
 11
584.0
 21
10.0
 31
0.0
  0
LINE
  5
BE2
  8
FRAME_050
 10
12.5
 20
207.5
 30
0.0
 11
7.5
 21
210.0
 31
0.0
  0
LINE
  5
BE3
  8
FRAME_050
 10
12.5
 20
212.5
 30
0.0
 11
12.5
 21
207.5
 31
0.0
  0
LINE
  5
BE4
  8
FRAME_070
 10
10.0
 20
410.0
 30
0.0
 11
10.0
 21
10.0
 31
0.0
  0
LINE
  5
BE5
  8
FRAME_200
 10
0.0
 20
0.0
 30
0.0
 11
0.0
 21
10.0
 31
0.0
  0
LINE
  5
BE6
  8
FRAME_200
 10
0.0
 20
0.0
 30
0.0
 11
10.0
 21
0.0
 31
0.0
  0
TEXT
  5
BE7
  8
FRAME_050
 10
5.9000000000000004
 20
35.0
 30
0.0
 40
4.0
  1
H
  7
ISO_PROPORTIONAL
 72
     4
 11
7.5
 21
37.0
 31
0.0
  0
LINE
  5
BE8
  8
FRAME_050
 10
10.0
 20
60.0
 30
0.0
 11
5.0
 21
60.0
 31
0.0
  0
LINE
  5
BE9
  8
FRAME_050
 10
81.75
 20
5.0
 30
0.0
 11
81.75
 21
10.0
 31
0.0
  0
TEXT
  5
BEA
  8
FRAME_050
 10
44.874999999999993
 20
5.5
 30
0.0
 40
4.0
  1
1
  7
ISO_PROPORTIONAL
 72
     4
 11
45.875
 21
7.5
 31
0.0
  0
TEXT
  5
BEB
  8
FRAME_050
 10
6.0035533905932743
 20
85.0
 30
0.0
 40
4.0
  1
G
  7
ISO_PROPORTIONAL
 72
     4
 11
7.5
 21
87.0
 31
0.0
  0
LINE
  5
BEC
  8
FRAME_050
 10
10.0
 20
110.0
 30
0.0
 11
5.0
 21
110.0
 31
0.0
  0
TEXT
  5
BED
  8
FRAME_050
 10
6.0999999999999988
 20
135.0
 30
0.0
 40
4.0
  1
F
  7
ISO_PROPORTIONAL
 72
     4
 11
7.5
 21
137.0
 31
0.0
  0
LINE
  5
BEE
  8
FRAME_050
 10
10.0
 20
160.0
 30
0.0
 11
5.0
 21
160.0
 31
0.0
  0
TEXT
  5
BEF
  8
FRAME_050
 10
6.0999999999999988
 20
185.0
 30
0.0
 40
4.0
  1
E
  7
ISO_PROPORTIONAL
 72
     4
 11
7.5
 21
187.0
 31
0.0
  0
LINE
  5
BF0
  8
FRAME_050
 10
153.5
 20
5.0
 30
0.0
 11
153.5
 21
10.0
 31
0.0
  0
TEXT
  5
BF1
  8
FRAME_050
 10
116.1556692913386
 20
5.3996062992125982
 30
0.0
 40
4.0
  1
2
  7
ISO_PROPORTIONAL
 72
     4
 11
117.625
 21
7.5
 31
0.0
  0
TEXT
  5
BF2
  8
FRAME_050
 10
187.89215728752529
 20
5.5828427124746138
 30
0.0
 40
4.0
  1
3
  7
ISO_PROPORTIONAL
 72
     4
 11
189.375
 21
7.5
 31
0.0
  0
LINE
  5
BF3
  8
FRAME_050
 10
225.25
 20
5.0
 30
0.0
 11
225.25
 21
10.0
 31
0.0
  0
LINE
  5
BF4
  8
FRAME_050
 10
297.0
 20
7.5
 30
0.0
 11
294.5
 21
12.5
 31
0.0
  0
LINE
  5
BF5
  8
FRAME_050
 10
287.0
 20
5.0
 30
0.0
 11
287.0
 21
10.0
 31
0.0
  0
LINE
  5
BF6
  8
FRAME_050
 10
277.0
 20
5.0
 30
0.0
 11
277.0
 21
10.0
 31
0.0
  0
LINE
  5
BF7
  8
FRAME_050
 10
267.0
 20
5.0
 30
0.0
 11
267.0
 21
10.0
 31
0.0
  0
LINE
  5
BF8
  8
FRAME_050
 10
257.0
 20
5.0
 30
0.0
 11
257.0
 21
10.0
 31
0.0
  0
LINE
  5
BF9
  8
FRAME_050
 10
247.0
 20
5.0
 30
0.0
 11
247.0
 21
10.0
 31
0.0
  0
LINE
  5
BFA
  8
FRAME_050
 10
297.0
 20
10.0
 30
0.0
 11
297.0
 21
5.0
 31
0.0
  0
LINE
  5
BFB
  8
FRAME_050
 10
297.0
 20
10.0
 30
0.0
 11
297.0
 21
15.0
 31
0.0
  0
LINE
  5
BFC
  8
FRAME_050
 10
5.0
 20
210.0
 30
0.0
 11
15.0
 21
210.0
 31
0.0
  0
LINE
  5
BFD
  8
FRAME_050
 10
7.5
 20
210.0
 30
0.0
 11
12.5
 21
212.5
 31
0.0
  0
TEXT
  5
BFE
  8
FRAME_050
 10
5.7860912703473977
 20
235.0
 30
0.0
 40
4.0
  1
D
  7
ISO_PROPORTIONAL
 72
     4
 11
7.5
 21
237.0
 31
0.0
  0
LINE
  5
BFF
  8
FRAME_050
 10
10.0
 20
260.0
 30
0.0
 11
5.0
 21
260.0
 31
0.0
  0
TEXT
  5
C00
  8
FRAME_050
 10
6.1931980515339466
 20
285.0
 30
0.0
 40
4.0
  1
C
  7
ISO_PROPORTIONAL
 72
     4
 11
7.5
 21
287.0
 31
0.0
  0
LINE
  5
C01
  8
FRAME_050
 10
10.0
 20
310.0
 30
0.0
 11
5.0
 21
310.0
 31
0.0
  0
TEXT
  5
C02
  8
FRAME_050
 10
5.8999999999999959
 20
335.0
 30
0.0
 40
4.0
  1
B
  7
ISO_PROPORTIONAL
 72
     4
 11
7.5
 21
337.0
 31
0.0
  0
LINE
  5
C03
  8
FRAME_050
 10
10.0
 20
360.0
 30
0.0
 11
5.0
 21
360.0
 31
0.0
  0
TEXT
  5
C04
  8
FRAME_050
 10
5.6999999999999993
 20
385.0
 30
0.0
 40
4.0
  1
A
  7
ISO_PROPORTIONAL
 72
     4
 11
7.5
 21
387.0
 31
0.0
  0
LINE
  5
C05
  8
FRAME_200
 10
10.0
 20
420.0
 30
0.0
 11
0.0
 21
420.0
 31
0.0
  0
LINE
  5
C06
  8
FRAME_200
 10
0.0
 20
420.0
 30
0.0
 11
0.0
 21
410.0
 31
0.0
  0
TEXT
  5
C07
  8
FRAME_050
 10
44.874999999999993
 20
410.5
 30
0.0
 40
4.0
  1
1
  7
ISO_PROPORTIONAL
 72
     4
 11
45.875
 21
412.5
 31
0.0
  0
LINE
  5
C08
  8
FRAME_050
 10
81.75
 20
410.0
 30
0.0
 11
81.75
 21
415.0
 31
0.0
  0
TEXT
  5
C09
  8
FRAME_050
 10
116.1556692913386
 20
410.39960629921262
 30
0.0
 40
4.0
  1
2
  7
ISO_PROPORTIONAL
 72
     4
 11
117.625
 21
412.5
 31
0.0
  0
LINE
  5
C0A
  8
FRAME_050
 10
153.5
 20
410.0
 30
0.0
 11
153.5
 21
415.0
 31
0.0
  0
TEXT
  5
C0B
  8
FRAME_050
 10
187.89215728752529
 20
410.58284271247459
 30
0.0
 40
4.0
  1
3
  7
ISO_PROPORTIONAL
 72
     4
 11
189.375
 21
412.5
 31
0.0
  0
LINE
  5
C0C
  8
FRAME_050
 10
297.0
 20
405.0
 30
0.0
 11
297.0
 21
415.0
 31
0.0
  0
LINE
  5
C0D
  8
FRAME_050
 10
225.25
 20
410.0
 30
0.0
 11
225.25
 21
415.0
 31
0.0
  0
TEXT
  5
C0E
  8
FRAME_050
 10
259.52499999999998
 20
410.5
 30
0.0
 40
4.0
  1
4
  7
ISO_PROPORTIONAL
 72
     4
 11
261.125
 21
412.5
 31
0.0
  0
LINE
  5
C0F
  8
FRAME_070
 10
584.0
 20
10.0
 30
0.0
 11
584.0
 21
410.0
 31
0.0
  0
ATTDEF
  5
C10
  8
FRAME_025
 10
473.0
 20
31.75
 30
0.0
 40
2.5
  1
XXX - 00/00/00
  7
ISO_PROPORTIONAL
 11
473.0
 21
33.0
 31
0.0
  3
Approved by - Date
  2
APPROVED_BY_DATE
 70
     8
 74
     2
  0
TEXT
  5
C11
  8
FRAME_025
 10
448.0
 20
41.749999999999993
 30
0.0
 40
2.5
  1
Title/Name, designation, material, dimension etc
  7
ISO_PROPORTIONAL
 11
448.0
 21
43.0
 31
0.0
 73
     2
  0
TEXT
  5
C12
  8
FRAME_025
 10
473.0
 20
35.75
 30
0.0
 40
2.5
  1
Approved by - date
  7
ISO_PROPORTIONAL
 11
473.0
 21
37.0
 31
0.0
 73
     2
  0
LINE
  5
C13
  8
FRAME_070
 10
414.0
 20
46.0
 30
0.0
 11
584.0
 21
46.0
 31
0.0
  0
LINE
  5
C14
  8
FRAME_070
 10
414.0
 20
40.0
 30
0.0
 11
584.0
 21
40.0
 31
0.0
  0
LINE
  5
C15
  8
FRAME_070
 10
414.0
 20
30.0
 30
0.0
 11
584.0
 21
30.0
 31
0.0
  0
LINE
  5
C16
  8
FRAME_050
 10
368.75
 20
5.0
 30
0.0
 11
368.75
 21
10.0
 31
0.0
  0
LINE
  5
C17
  8
FRAME_050
 10
337.0
 20
5.0
 30
0.0
 11
337.0
 21
10.0
 31
0.0
  0
LINE
  5
C18
  8
FRAME_050
 10
327.0
 20
5.0
 30
0.0
 11
327.0
 21
10.0
 31
0.0
  0
LINE
  5
C19
  8
FRAME_050
 10
317.0
 20
5.0
 30
0.0
 11
317.0
 21
10.0
 31
0.0
  0
LINE
  5
C1A
  8
FRAME_050
 10
307.0
 20
5.0
 30
0.0
 11
307.0
 21
10.0
 31
0.0
  0
LINE
  5
C1B
  8
FRAME_050
 10
347.0
 20
5.0
 30
0.0
 11
347.0
 21
10.0
 31
0.0
  0
LINE
  5
C1C
  8
FRAME_050
 10
440.5
 20
5.0
 30
0.0
 11
440.5
 21
10.0
 31
0.0
  0
TEXT
  5
C1D
  8
FRAME_050
 10
403.24547244094481
 20
5.4102362204724406
 30
0.0
 40
4.0
  1
6
  7
ISO_PROPORTIONAL
 72
     4
 11
404.62499999999989
 21
7.5
 31
0.0
  0
TEXT
  5
C1E
  8
FRAME_050
 10
474.97499999999991
 20
5.5
 30
0.0
 40
4.0
  1
7
  7
ISO_PROPORTIONAL
 72
     4
 11
476.37499999999989
 21
7.5
 31
0.0
  0
TEXT
  5
C1F
  8
FRAME_025
 10
431.0
 20
41.749999999999993
 30
0.0
 40
2.5
  1
Quantity
  7
ISO_PROPORTIONAL
 11
431.0
 21
43.0
 31
0.0
 73
     2
  0
TEXT
  5
C20
  8
FRAME_025
 10
416.0
 20
41.749999999999993
 30
0.0
 40
2.5
  1
Itemref
  7
ISO_PROPORTIONAL
 11
416.0
 21
43.0
 31
0.0
 73
     2
  0
LINE
  5
C21
  8
FRAME_070
 10
414.0
 20
40.0
 30
0.0
 11
414.0
 21
46.0
 31
0.0
  0
LINE
  5
C22
  8
FRAME_070
 10
429.0
 20
40.0
 30
0.0
 11
429.0
 21
46.0
 31
0.0
  0
LINE
  5
C23
  8
FRAME_070
 10
414.0
 20
10.0
 30
0.0
 11
414.0
 21
40.0
 31
0.0
  0
ATTDEF
  5
C24
  8
FRAME_025
 10
416.0
 20
31.75
 30
0.0
 40
2.5
  1
XXX
  7
ISO_PROPORTIONAL
 11
416.0
 21
33.0
 31
0.0
  3
Designed by
  2
DESIGNED_BY
 70
     8
 74
     2
  0
TEXT
  5
C25
  8
FRAME_025
 10
416.0
 20
35.75
 30
0.0
 40
2.5
  1
Designed by
  7
ISO_PROPORTIONAL
 11
416.0
 21
37.0
 31
0.0
 73
     2
  0
LINE
  5
C26
  8
FRAME_070
 10
446.0
 20
40.0
 30
0.0
 11
446.0
 21
46.0
 31
0.0
  0
ATTDEF
  5
C27
  8
FRAME_025
 10
448.0
 20
31.75
 30
0.0
 40
2.5
  1
XXX
  7
ISO_PROPORTIONAL
 11
448.0
 21
33.0
 31
0.0
  3
Checked by
  2
CHECKED_BY
 70
     8
 74
     2
  0
TEXT
  5
C28
  8
FRAME_025
 10
448.0
 20
35.75
 30
0.0
 40
2.5
  1
Checked by
  7
ISO_PROPORTIONAL
 11
448.0
 21
37.0
 31
0.0
 73
     2
  0
ATTDEF
  5
C29
  8
FRAME_050
 10
444.74999999999989
 20
17.5
 30
0.0
 40
5.0
  1
XXX
  7
ISO_PROPORTIONAL
 72
     4
 11
451.49999999999989
 21
20.0
 31
0.0
  3
Owner
  2
OWNER
 70
     8
  0
LINE
  5
C2A
  8
FRAME_070
 10
446.0
 20
30.0
 30
0.0
 11
446.0
 21
40.0
 31
0.0
  0
LINE
  5
C2B
  8
FRAME_070
 10
471.0
 20
30.0
 30
0.0
 11
471.0
 21
40.0
 31
0.0
  0
LINE
  5
C2C
  8
FRAME_070
 10
489.0
 20
20.0
 30
0.0
 11
584.0
 21
20.0
 31
0.0
  0
LINE
  5
C2D
  8
FRAME_050
 10
512.25
 20
5.0
 30
0.0
 11
512.25
 21
10.0
 31
0.0
  0
TEXT
  5
C2E
  8
FRAME_050
 10
546.72499999999991
 20
5.5
 30
0.0
 40
4.0
  1
8
  7
ISO_PROPORTIONAL
 72
     4
 11
548.125
 21
7.5
 31
0.0
  0
ATTDEF
  5
C2F
  8
FRAME_050
 10
517.64999999999986
 20
13.5
 30
0.0
 40
3.0
  1
X
  7
ISO_PROPORTIONAL
 72
     4
 11
519.0
 21
15.0
 31
0.0
  3
Drawing number
  2
DRAWING_NUMBER
 70
     8
  0
ATTDEF
  5
C30
  8
FRAME_050
 10
529.75
 20
22.5
 30
0.0
 40
5.0
  1
XXX
  7
ISO_PROPORTIONAL
 72
     4
 11
536.5
 21
25.0
 31
0.0
  3
Title / Name
  2
TITLE
 70
     8
  0
LINE
  5
C31
  8
FRAME_070
 10
489.0
 20
10.0
 30
0.0
 11
489.0
 21
30.0
 31
0.0
  0
ATTDEF
  5
C32
  8
FRAME_025
 10
511.0
 20
31.75
 30
0.0
 40
2.5
  1
XXX
  7
ISO_PROPORTIONAL
 11
511.0
 21
33.0
 31
0.0
  3
Filename
  2
FILENAME
 70
     8
 74
     2
  0
TEXT
  5
C33
  8
FRAME_025
 10
511.0
 20
35.75
 30
0.0
 40
2.5
  1
Filename
  7
ISO_PROPORTIONAL
 11
511.0
 21
37.0
 31
0.0
 73
     2
  0
LINE
  5
C34
  8
FRAME_070
 10
509.0
 20
30.0
 30
0.0
 11
509.0
 21
40.0
 31
0.0
  0
TEXT
  5
C35
  8
FRAME_025
 10
536.0
 20
41.749999999999993
 30
0.0
 40
2.5
  1
Article No./Reference
  7
ISO_PROPORTIONAL
 11
536.0
 21
43.0
 31
0.0
 73
     2
  0
LINE
  5
C36
  8
FRAME_070
 10
534.0
 20
40.0
 30
0.0
 11
534.0
 21
46.0
 31
0.0
  0
ATTDEF
  5
C37
  8
FRAME_025
 10
551.0
 20
11.75
 30
0.0
 40
2.5
  1
0
  7
ISO_PROPORTIONAL
 11
551.0
 21
13.0
 31
0.0
  3
Edition
  2
EDITION
 70
     8
 74
     2
  0
TEXT
  5
C38
  8
FRAME_025
 10
551.0
 20
15.75
 30
0.0
 40
2.5
  1
Edition
  7
ISO_PROPORTIONAL
 11
551.0
 21
17.0
 31
0.0
 73
     2
  0
LINE
  5
C39
  8
FRAME_070
 10
549.0
 20
10.0
 30
0.0
 11
549.0
 21
20.0
 31
0.0
  0
ATTDEF
  5
C3A
  8
FRAME_025
 10
536.0
 20
31.75
 30
0.0
 40
2.5
  1
00/00/00
  7
ISO_PROPORTIONAL
 11
536.0
 21
33.0
 31
0.0
  3
Date
  2
DATE
 70
     8
 74
     2
  0
TEXT
  5
C3B
  8
FRAME_025
 10
536.0
 20
35.75
 30
0.0
 40
2.5
  1
Date
  7
ISO_PROPORTIONAL
 11
536.0
 21
37.0
 31
0.0
 73
     2
  0
LINE
  5
C3C
  8
FRAME_070
 10
534.0
 20
30.0
 30
0.0
 11
534.0
 21
40.0
 31
0.0
  0
ATTDEF
  5
C3D
  8
FRAME_025
 10
566.0
 20
11.75
 30
0.0
 40
2.5
  1
1/1
  7
ISO_PROPORTIONAL
 11
566.0
 21
13.0
 31
0.0
  3
Sheet
  2
SHEET
 70
     8
 74
     2
  0
TEXT
  5
C3E
  8
FRAME_025
 10
566.0
 20
15.75
 30
0.0
 40
2.5
  1
Sheet
  7
ISO_PROPORTIONAL
 11
566.0
 21
17.0
 31
0.0
 73
     2
  0
LINE
  5
C3F
  8
FRAME_070
 10
564.0
 20
10.0
 30
0.0
 11
564.0
 21
20.0
 31
0.0
  0
ATTDEF
  5
C40
  8
FRAME_025
 10
566.0
 20
31.75
 30
0.0
 40
2.5
  1
1:1
  7
ISO_PROPORTIONAL
 11
566.0
 21
33.0
 31
0.0
  3
Scale
  2
SCALE
 70
     8
 74
     2
  0
TEXT
  5
C41
  8
FRAME_025
 10
566.0
 20
35.75
 30
0.0
 40
2.5
  1
Scale
  7
ISO_PROPORTIONAL
 11
566.0
 21
37.0
 31
0.0
 73
     2
  0
LINE
  5
C42
  8
FRAME_070
 10
564.0
 20
30.0
 30
0.0
 11
564.0
 21
40.0
 31
0.0
  0
LINE
  5
C43
  8
FRAME_200
 10
594.0
 20
0.0
 30
0.0
 11
594.0
 21
10.0
 31
0.0
  0
LINE
  5
C44
  8
FRAME_200
 10
594.0
 20
0.0
 30
0.0
 11
584.0
 21
0.0
 31
0.0
  0
TEXT
  5
C45
  8
FRAME_050
 10
584.89999999999998
 20
35.0
 30
0.0
 40
4.0
  1
H
  7
ISO_PROPORTIONAL
 72
     4
 11
586.5
 21
37.0
 31
0.0
  0
LINE
  5
C46
  8
FRAME_050
 10
589.0
 20
60.0
 30
0.0
 11
584.0
 21
60.0
 31
0.0
  0
TEXT
  5
C47
  8
FRAME_050
 10
585.0035533905932
 20
85.0
 30
0.0
 40
4.0
  1
G
  7
ISO_PROPORTIONAL
 72
     4
 11
586.5
 21
87.0
 31
0.0
  0
LINE
  5
C48
  8
FRAME_050
 10
589.0
 20
110.0
 30
0.0
 11
584.0
 21
110.0
 31
0.0
  0
TEXT
  5
C49
  8
FRAME_050
 10
585.09999999999991
 20
135.0
 30
0.0
 40
4.0
  1
F
  7
ISO_PROPORTIONAL
 72
     4
 11
586.5
 21
137.0
 31
0.0
  0
LINE
  5
C4A
  8
FRAME_050
 10
589.0
 20
160.0
 30
0.0
 11
584.0
 21
160.0
 31
0.0
  0
TEXT
  5
C4B
  8
FRAME_050
 10
585.09999999999991
 20
185.0
 30
0.0
 40
4.0
  1
E
  7
ISO_PROPORTIONAL
 72
     4
 11
586.5
 21
187.0
 31
0.0
  0
LINE
  5
C4C
  8
FRAME_070
 10
414.0
 20
404.0
 30
0.0
 11
584.0
 21
404.0
 31
0.0
  0
TEXT
  5
C4D
  8
FRAME_050
 10
331.39215728752538
 20
410.58284271247459
 30
0.0
 40
4.0
  1
5
  7
ISO_PROPORTIONAL
 72
     4
 11
332.875
 21
412.5
 31
0.0
  0
LINE
  5
C4E
  8
FRAME_050
 10
368.75
 20
410.0
 30
0.0
 11
368.75
 21
415.0
 31
0.0
  0
TEXT
  5
C4F
  8
FRAME_025
 10
428.0
 20
405.75
 30
0.0
 40
2.5
  1
Revision note
  7
ISO_PROPORTIONAL
 11
428.0
 21
407.0
 31
0.0
 73
     2
  0
TEXT
  5
C50
  8
FRAME_025
 10
416.0
 20
405.75
 30
0.0
 40
2.5
  1
RevNo
  7
ISO_PROPORTIONAL
 11
416.0
 21
407.0
 31
0.0
 73
     2
  0
LINE
  5
C51
  8
FRAME_070
 10
426.0
 20
404.0
 30
0.0
 11
426.0
 21
410.0
 31
0.0
  0
LINE
  5
C52
  8
FRAME_070
 10
414.0
 20
404.0
 30
0.0
 11
414.0
 21
410.0
 31
0.0
  0
TEXT
  5
C53
  8
FRAME_050
 10
403.24547244094481
 20
410.41023622047243
 30
0.0
 40
4.0
  1
6
  7
ISO_PROPORTIONAL
 72
     4
 11
404.62499999999989
 21
412.5
 31
0.0
  0
LINE
  5
C54
  8
FRAME_050
 10
440.5
 20
410.0
 30
0.0
 11
440.5
 21
415.0
 31
0.0
  0
TEXT
  5
C55
  8
FRAME_050
 10
474.97499999999991
 20
410.5
 30
0.0
 40
4.0
  1
7
  7
ISO_PROPORTIONAL
 72
     4
 11
476.37499999999989
 21
412.5
 31
0.0
  0
LINE
  5
C56
  8
FRAME_050
 10
579.0
 20
210.0
 30
0.0
 11
589.0
 21
210.0
 31
0.0
  0
TEXT
  5
C57
  8
FRAME_050
 10
584.78609127034736
 20
235.0
 30
0.0
 40
4.0
  1
D
  7
ISO_PROPORTIONAL
 72
     4
 11
586.5
 21
237.0
 31
0.0
  0
LINE
  5
C58
  8
FRAME_050
 10
589.0
 20
260.0
 30
0.0
 11
584.0
 21
260.0
 31
0.0
  0
TEXT
  5
C59
  8
FRAME_050
 10
585.19319805153395
 20
285.0
 30
0.0
 40
4.0
  1
C
  7
ISO_PROPORTIONAL
 72
     4
 11
586.5
 21
287.0
 31
0.0
  0
LINE
  5
C5A
  8
FRAME_050
 10
589.0
 20
310.0
 30
0.0
 11
584.0
 21
310.0
 31
0.0
  0
TEXT
  5
C5B
  8
FRAME_050
 10
584.89999999999998
 20
335.0
 30
0.0
 40
4.0
  1
B
  7
ISO_PROPORTIONAL
 72
     4
 11
586.5
 21
337.0
 31
0.0
  0
TEXT
  5
C5C
  8
FRAME_025
 10
571.08299391850551
 20
405.75
 30
0.0
 40
2.5
  1
Checked
  7
ISO_PROPORTIONAL
 11
571.08299391850551
 21
407.0
 31
0.0
 73
     2
  0
TEXT
  5
C5D
  8
FRAME_025
 10
555.36099797283521
 20
405.75
 30
0.0
 40
2.5
  1
Signature
  7
ISO_PROPORTIONAL
 11
555.36099797283521
 21
407.0
 31
0.0
 73
     2
  0
TEXT
  5
C5E
  8
FRAME_025
 10
537.0
 20
405.75
 30
0.0
 40
2.5
  1
Date
  7
ISO_PROPORTIONAL
 11
537.0
 21
407.0
 31
0.0
 73
     2
  0
LINE
  5
C5F
  8
FRAME_070
 10
570.0
 20
404.0
 30
0.0
 11
570.0
 21
410.0
 31
0.0
  0
LINE
  5
C60
  8
FRAME_070
 10
555.0
 20
404.0
 30
0.0
 11
555.0
 21
410.0
 31
0.0
  0
LINE
  5
C61
  8
FRAME_070
 10
535.0
 20
404.0
 30
0.0
 11
535.0
 21
410.0
 31
0.0
  0
LINE
  5
C62
  8
FRAME_050
 10
512.25
 20
410.0
 30
0.0
 11
512.25
 21
415.0
 31
0.0
  0
TEXT
  5
C63
  8
FRAME_050
 10
546.72499999999991
 20
410.5
 30
0.0
 40
4.0
  1
8
  7
ISO_PROPORTIONAL
 72
     4
 11
548.125
 21
412.5
 31
0.0
  0
LINE
  5
C64
  8
FRAME_050
 10
589.0
 20
360.0
 30
0.0
 11
584.0
 21
360.0
 31
0.0
  0
TEXT
  5
C65
  8
FRAME_050
 10
584.70000000000005
 20
385.0
 30
0.0
 40
4.0
  1
A
  7
ISO_PROPORTIONAL
 72
     4
 11
586.5
 21
387.0
 31
0.0
  0
LINE
  5
C66
  8
FRAME_200
 10
594.0
 20
420.0
 30
0.0
 11
584.0
 21
420.0
 31
0.0
  0
LINE
  5
C67
  8
FRAME_200
 10
594.0
 20
410.0
 30
0.0
 11
594.0
 21
420.0
 31
0.0
  0
ENDBLK
  5
C69
  8
0
  0
BLOCK
  8
0
  2
WOBB001END
 70
     0
 10
0.0
 20
0.0
 30
0.0
  3
WOBB001END
  1

  0
LINE
  5
4D66
  8
0
  6
CONTINUOUS
 10
0.0
 20
0.0
 30
0.0
 11
0.8749999999999998
 21
0.0
 31
0.0
  0
ARC
  5
4D67
  8
0
  6
CONTINUOUS
 10
0.0331648379439287
 20
-0.5087238935900234
 30
0.0
 40
0.8790130605592325
 50
284.06490243660443
 51
312.19222981924361
  0
ARC
  5
4D68
  8
0
  6
CONTINUOUS
 10
0.2841534338796767
 20
-1.510548310625538
 30
0.0
 40
0.1537731892806598
 50
104.0649024366044
 51
179.4721730735024
  0
LINE
  5
4D69
  8
0
  6
CONTINUOUS
 10
0.0
 20
0.0
 30
0.0
 11
-0.0000000000000003
 21
-1.7501564476661911
 31
0.0
  0
ARC
  5
4D6A
  8
0
  6
CONTINUOUS
 10
0.1404622019506122
 20
-1.630313718354619
 30
0.0
 40
0.1198427293115722
 50
275.0
 51
85.000000000000057
  0
LINE
  5
4D6B
  8
0
  6
CONTINUOUS
 10
-0.0000000000000003
 20
-1.7501564476661911
 30
0.0
 11
0.1456946485130855
 21
-1.7501564476661911
 31
0.0
  0
LINE
  5
4D6C
  8
0
  6
CONTINUOUS
 10
0.1377603739254348
 20
-1.7508506067459131
 30
0.0
 11
0.150907184036669
 21
-1.7497004098996509
 31
0.0
  0
LINE
  5
4D6D
  8
0
  6
CONTINUOUS
 10
0.1303867696719884
 20
-1.5091317231818231
 30
0.0
 11
0.1509071840366689
 21
-1.510927026809586
 31
0.0
  0
LINE
  5
4D6E
  8
0
  6
CONTINUOUS
 10
0.8749999999999998
 20
0.0
 30
0.0
 11
0.8749999999999996
 21
-0.8649327026588228
 31
0.0
  0
LINE
  5
4D6F
  8
0
  6
CONTINUOUS
 10
0.727014513830997
 20
-0.872688293355061
 30
0.0
 11
0.727014513830997
 21
-0.9264923397184784
 31
0.0
  0
ARC
  5
4D70
  8
0
  6
CONTINUOUS
 10
0.41187090827646
 20
-0.9264923397184784
 30
0.0
 40
0.3151436055545369
 50
312.19222981924361
 51
0.0
  0
LINE
  5
4D71
  8
0
  6
CONTINUOUS
 10
0.727014513830997
 20
-0.872688293355061
 30
0.0
 11
0.8749999999999996
 21
-0.8649327026588228
 31
0.0
  0
ENDBLK
  5
4D72
  8
0
  0
BLOCK
  8
0
  2
A$C0A61123B
 70
     0
 10
0.0
 20
0.0
 30
0.0
  3
A$C0A61123B
  1

  0
LINE
  5
C0AD
  8
PROF
  6
CONTINUOUS
 10
4.9012016798694162
 20
13.325025853350891
 30
0.0000000000000002
 11
4.9012016798694162
 21
12.88585218805485
 31
0.0000000000000003
  0
INSERT
  5
C0AE
  8
0
  2
*U7
 10
0.0
 20
0.0
 30
0.0
  0
LINE
  5
C0AF
  8
PROF
 10
4.519857503186925
 20
12.72227734589444
 30
0.0000000000000001
 11
4.519857503186925
 21
12.88585218805485
 31
0.0000000000000001
  0
LINE
  5
C0B0
  8
PROF
  6
CONTINUOUS
 10
3.6306271195888362
 20
13.325025853350891
 30
0.0000000000000002
 11
4.9012016798694162
 21
13.325025853350891
 31
0.0000000000000002
  0
LINE
  5
C0B1
  8
PROF
 10
1.9750295148747341
 20
10.37671325491794
 30
0.0000000000000002
 11
1.9750295148747341
 21
10.11391186758919
 31
0.0000000000000002
  0
LINE
  5
C0B2
  8
PROF
 10
1.6079673357556299
 20
10.11391186758919
 30
0.0000000000000001
 11
1.9750295148747341
 21
10.11391186758919
 31
0.0000000000000001
  0
LINE
  5
C0B3
  8
PROF
 10
1.9750295148747341
 20
10.11391186758919
 30
0.0000000000000001
 11
1.944958486898144
 21
10.11391186758919
 31
0.0000000000000001
  0
LINE
  5
C0B4
  8
PROF
 10
1.9750295148747341
 20
10.11391186758919
 30
0.0000000000000001
 11
1.944958486898144
 21
10.11391186758919
 31
0.0000000000000001
  0
LINE
  5
C0B5
  8
PROF
 10
0.3222605517169654
 20
7.5247473351056451
 30
-0.0000000000000002
 11
-0.0000008570117416
 21
7.5247473351056451
 31
0.0
  0
LINE
  5
C0B6
  8
PROF
 10
-0.0000008570117416
 20
7.5247473351056451
 30
0.0
 11
-0.0000008570117416
 21
9.1943336957369848
 31
0.0
  0
POLYLINE
  5
C0B7
  8
PROF
 66
     1
 10
0.0
 20
0.0
 30
0.0000000000000001
 70
     4
 75
     6
  0
VERTEX
  5
C0B8
  8
PROF
 10
1.6079673357556299
 20
10.11391186758919
 30
0.0000000000000001
 70
    16
  0
VERTEX
  5
C0B9
  8
PROF
 10
1.6079673357556299
 20
10.11391186758919
 30
0.0000000000000001
 70
     8
  0
VERTEX
  5
C0BA
  8
PROF
 10
1.6468132326485809
 20
10.02198069336111
 30
0.0000000000000001
 70
     8
  0
VERTEX
  5
C0BB
  8
PROF
 10
1.67335966680929
 20
9.9344134163010231
 30
0.0000000000000001
 70
     8
  0
VERTEX
  5
C0BC
  8
PROF
 10
1.6890086400463229
 20
9.8512576644480951
 30
0.0000000000000001
 70
     8
  0
VERTEX
  5
C0BD
  8
PROF
 10
1.6951621541682571
 20
9.7725610658417281
 30
0.0000000000000001
 70
     8
  0
VERTEX
  5
C0BE
  8
PROF
 10
1.693222210983605
 20
9.6983712485214237
 30
0.0000000000000001
 70
     8
  0
VERTEX
  5
C0BF
  8
PROF
 10
1.6845908123009961
 20
9.6287358405263603
 30
0.0000000000000001
 70
     8
  0
VERTEX
  5
C0C0
  8
PROF
 10
1.670669959928885
 20
9.5637024698960431
 30
0.0000000000000001
 70
     8
  0
VERTEX
  5
C0C1
  8
PROF
 10
1.6528616556759621
 20
9.5033187646697552
 30
0.0000000000000001
 70
     8
  0
VERTEX
  5
C0C2
  8
PROF
 10
1.632356299273054
 20
9.4475843259650691
 30
0.0000000000000001
 70
     8
  0
VERTEX
  5
C0C3
  8
PROF
 10
1.609497882140658
 20
9.3963066472123273
 30
0.0000000000000001
 70
     8
  0
VERTEX
  5
C0C4
  8
PROF
 10
1.584418793621637
 20
9.3492451949202842
 30
0.0000000000000001
 70
     8
  0
VERTEX
  5
C0C5
  8
PROF
 10
1.5572514230587431
 20
9.3061594355972357
 30
0.0000000000000001
 70
     8
  0
VERTEX
  5
C0C6
  8
PROF
 10
1.5281281597949601
 20
9.2668088357519274
 30
0.0000000000000001
 70
     8
  0
VERTEX
  5
C0C7
  8
PROF
 10
1.497181393172978
 20
9.2309528618929981
 30
0.0000000000000001
 70
     8
  0
VERTEX
  5
C0C8
  8
PROF
 10
1.4645435125357249
 20
9.1983509805288541
 30
0.0000000000000001
 70
     8
  0
VERTEX
  5
C0C9
  8
PROF
 10
1.4303469072260091
 20
9.1687626581682462
 30
0.0000000000000001
 70
     8
  0
VERTEX
  5
C0CA
  8
PROF
 10
1.394736033257401
 20
9.1419547918675335
 30
0.0000000000000001
 70
     8
  0
VERTEX
  5
C0CB
  8
PROF
 10
1.3579036133264131
 20
9.1177240008747713
 30
0.0000000000000001
 70
     8
  0
VERTEX
  5
C0CC
  8
PROF
 10
1.3200544368004321
 20
9.0958743349860924
 30
0.0000000000000001
 70
     8
  0
VERTEX
  5
C0CD
  8
PROF
 10
1.281393293046676
 20
9.0762098439975034
 30
0.0000000000000001
 70
     8
  0
VERTEX
  5
C0CE
  8
PROF
 10
1.2421249714324161
 20
9.0585345777049042
 30
0.0000000000000001
 70
     8
  0
VERTEX
  5
C0CF
  8
PROF
 10
1.202454261324986
 20
9.0426525859044187
 30
0.0000000000000001
 70
     8
  0
VERTEX
  5
C0D0
  8
PROF
 10
1.162585952091659
 20
9.0283679183919503
 30
0.0000000000000001
 70
     8
  0
VERTEX
  5
C0D1
  8
PROF
 10
1.1227248330997091
 20
9.0154846249635021
 30
0.0000000000000001
 70
     8
  0
VERTEX
  5
C0D2
  8
PROF
 10
1.0829726247361
 20
9.0034643862466055
 30
0.0000000000000001
 70
     8
  0
VERTEX
  5
C0D3
  8
PROF
 10
1.043018771466222
 20
8.9903994061946833
 30
0.0000000000000001
 70
     8
  0
VERTEX
  5
C0D4
  8
PROF
 10
1.002449648775211
 20
8.9740395195925622
 30
0.0000000000000001
 70
     8
  0
VERTEX
  5
C0D5
  8
PROF
 10
0.9608516321480919
 20
8.9521345612251935
 30
0.0000000000000001
 70
     8
  0
VERTEX
  5
C0D6
  8
PROF
 10
0.9178110970699435
 20
8.9224343658775052
 30
0.0000000000000001
 70
     8
  0
VERTEX
  5
C0D7
  8
PROF
 10
0.8729144190259033
 20
8.8826887683343312
 30
0.0000000000000001
 70
     8
  0
VERTEX
  5
C0D8
  8
PROF
 10
0.8257479735009949
 20
8.8306476033806121
 30
0.0000000000000001
 70
     8
  0
VERTEX
  5
C0D9
  8
PROF
 10
0.7758981359802988
 20
8.764060705801171
 30
0.0000000000000001
 70
     8
  0
VERTEX
  5
C0DA
  8
PROF
 10
1.7292019016096549
 20
9.8629858761255491
 30
0.0000000000000001
 70
    16
  0
VERTEX
  5
C0DB
  8
PROF
 10
1.679373123114088
 20
9.4532143012734213
 30
0.0000000000000001
 70
    16
  0
VERTEX
  5
C0DC
  8
PROF
 10
1.4455611507419801
 20
9.1391837193732481
 30
0.0000000000000001
 70
    16
  0
VERTEX
  5
C0DD
  8
PROF
 10
1.1204637172738201
 20
9.0026267702428413
 30
0.0000000000000001
 70
    16
  0
VERTEX
  5
C0DE
  8
PROF
 10
0.9127765582653638
 20
8.9630202230383702
 30
0.0000000000000001
 70
    16
  0
VERTEX
  5
C0DF
  8
PROF
 10
0.7758981359802988
 20
8.764060705801171
 30
0.0000000000000001
 70
    16
  0
SEQEND
  5
C0E0
  8
PROF
  0
ARC
  5
C0E1
  8
PROF
 10
0.733429816733235
 20
8.4849506952165257
 30
0.0000000000000001
 40
0.2823224329524727
 50
269.73652020831901
 51
81.348449993176914
  0
LINE
  5
C0E2
  8
PROF
  6
CONTINUOUS
 10
-0.0000008570117416
 20
9.1943336957369848
 30
-0.0000000000000001
 11
3.6306271195888362
 21
13.325025853350891
 31
0.0000000000000002
  0
POLYLINE
  5
C0E3
  8
PROF
 66
     1
 10
0.0
 20
0.0
 30
0.0000000000000001
 70
     4
 75
     6
  0
VERTEX
  5
C0E4
  8
PROF
 10
4.519857503186925
 20
12.72227734589444
 30
0.0000000000000001
 70
    16
  0
VERTEX
  5
C0E5
  8
PROF
 10
4.519857503186925
 20
12.72227734589444
 30
0.0000000000000001
 70
     8
  0
VERTEX
  5
C0E6
  8
PROF
 10
4.4467035366886289
 20
12.741128108778071
 30
0.0000000000000001
 70
     8
  0
VERTEX
  5
C0E7
  8
PROF
 10
4.3786645761268801
 20
12.754675269913941
 30
0.0000000000000001
 70
     8
  0
VERTEX
  5
C0E8
  8
PROF
 10
4.3154364111440469
 20
12.76334314092332
 30
0.0000000000000001
 70
     8
  0
VERTEX
  5
C0E9
  8
PROF
 10
4.256714831382566
 20
12.76755603342724
 30
0.0000000000000001
 70
     8
  0
VERTEX
  5
C0EA
  8
PROF
 10
4.2021956264849791
 20
12.76773825904672
 30
0.0000000000000001
 70
     8
  0
VERTEX
  5
C0EB
  8
PROF
 10
4.1515745860935436
 20
12.764314129403139
 30
0.0000000000000001
 70
     8
  0
VERTEX
  5
C0EC
  8
PROF
 10
4.1045474998508649
 20
12.75770795611743
 30
0.0000000000000001
 70
     8
  0
VERTEX
  5
C0ED
  8
PROF
 10
4.0608101573993149
 20
12.748344050810831
 30
0.0000000000000001
 70
     8
  0
VERTEX
  5
C0EE
  8
PROF
 10
4.0200583483813261
 20
12.736646725104491
 30
0.0000000000000001
 70
     8
  0
VERTEX
  5
C0EF
  8
PROF
 10
3.981987862439381
 20
12.72304029061945
 30
0.0000000000000001
 70
     8
  0
VERTEX
  5
C0F0
  8
PROF
 10
3.946294489215858
 20
12.707949058976959
 30
0.0000000000000001
 70
     8
  0
VERTEX
  5
C0F1
  8
PROF
 10
3.912674018353242
 20
12.691797341798059
 30
0.0000000000000001
 70
     8
  0
VERTEX
  5
C0F2
  8
PROF
 10
3.8808638350742499
 20
12.67494295718654
 30
0.0000000000000001
 70
     8
  0
VERTEX
  5
C0F3
  8
PROF
 10
3.850767706922738
 20
12.65747774917668
 30
0.0000000000000001
 70
     8
  0
VERTEX
  5
C0F4
  8
PROF
 10
3.8223309970228438
 20
12.639427068285499
 30
0.0000000000000001
 70
     8
  0
VERTEX
  5
C0F5
  8
PROF
 10
3.795499068498712
 20
12.62081626503004
 30
0.0000000000000001
 70
     8
  0
VERTEX
  5
C0F6
  8
PROF
 10
3.7702172844744819
 20
12.601670689926999
 30
0.0000000000000001
 70
     8
  0
VERTEX
  5
C0F7
  8
PROF
 10
3.7464310080743521
 20
12.58201569349364
 30
0.0000000000000001
 70
     8
  0
VERTEX
  5
C0F8
  8
PROF
 10
3.7240856024224609
 20
12.56187662624666
 30
0.0000000000000001
 70
     8
  0
VERTEX
  5
C0F9
  8
PROF
 10
3.7031264306428961
 20
12.541278838703191
 30
0.0000000000000001
 70
     8
  0
VERTEX
  5
C0FA
  8
PROF
 10
3.683498855859908
 20
12.520247681380051
 30
0.0000000000000001
 70
     8
  0
VERTEX
  5
C0FB
  8
PROF
 10
3.665148241197528
 20
12.49880850479428
 30
0.0000000000000001
 70
     8
  0
VERTEX
  5
C0FC
  8
PROF
 10
3.648019949779949
 20
12.47698665946279
 30
0.0000000000000001
 70
     8
  0
VERTEX
  5
C0FD
  8
PROF
 10
3.6320593447313159
 20
12.45480749590263
 30
0.0000000000000001
 70
     8
  0
VERTEX
  5
C0FE
  8
PROF
 10
3.617189584886658
 20
12.43223790353807
 30
0.0000000000000001
 70
     8
  0
VERTEX
  5
C0FF
  8
PROF
 10
3.6032450119242849
 20
12.40901092742285
 30
0.0000000000000001
 70
     8
  0
VERTEX
  5
C100
  8
PROF
 10
3.590037763233453
 20
12.38480115151844
 30
0.0000000000000001
 70
     8
  0
VERTEX
  5
C101
  8
PROF
 10
3.5773799762033032
 20
12.35928315978594
 30
0.0000000000000001
 70
     8
  0
VERTEX
  5
C102
  8
PROF
 10
3.5650837882230899
 20
12.33213153618658
 30
0.0000000000000001
 70
     8
  0
VERTEX
  5
C103
  8
PROF
 10
3.552961336681959
 20
12.303020864681571
 30
0.0000000000000001
 70
     8
  0
VERTEX
  5
C104
  8
PROF
 10
3.540824758969165
 20
12.271625729232371
 30
0.0000000000000001
 70
     8
  0
VERTEX
  5
C105
  8
PROF
 10
3.528486192473848
 20
12.23762071379997
 30
0.0000000000000001
 70
     8
  0
VERTEX
  5
C106
  8
PROF
 10
3.5157577745852659
 20
12.200680402345711
 30
0.0000000000000001
 70
     8
  0
VERTEX
  5
C107
  8
PROF
 10
3.502451642692618
 20
12.16047937883093
 30
0.0000000000000001
 70
     8
  0
VERTEX
  5
C108
  8
PROF
 10
3.4883799341851041
 20
12.116692227216619
 30
0.0000000000000001
 70
     8
  0
VERTEX
  5
C109
  8
PROF
 10
3.4733547864519201
 20
12.06899353146423
 30
0.0000000000000001
 70
     8
  0
VERTEX
  5
C10A
  8
PROF
 10
3.45723654619428
 20
12.0172095445447
 30
0.0000000000000001
 70
     8
  0
VERTEX
  5
C10B
  8
PROF
 10
3.440078397361388
 20
11.961773195467799
 30
0.0000000000000001
 70
     8
  0
VERTEX
  5
C10C
  8
PROF
 10
3.4219817332145781
 20
11.90326908225302
 30
0.0000000000000001
 70
     8
  0
VERTEX
  5
C10D
  8
PROF
 10
3.4030479470150099
 20
11.842281802919951
 30
0.0000000000000001
 70
     8
  0
VERTEX
  5
C10E
  8
PROF
 10
3.383378432024017
 20
11.779395955487979
 30
0.0000000000000001
 70
     8
  0
VERTEX
  5
C10F
  8
PROF
 10
3.36307458150287
 20
11.7151961379768
 30
0.0000000000000001
 70
     8
  0
VERTEX
  5
C110
  8
PROF
 10
3.342237788712735
 20
11.650266948405831
 30
0.0000000000000001
 70
     8
  0
VERTEX
  5
C111
  8
PROF
 10
3.3209694469149991
 20
11.58519298479461
 30
0.0000000000000001
 70
     8
  0
VERTEX
  5
C112
  8
PROF
 10
3.299370949370767
 20
11.52055884516254
 30
0.0000000000000001
 70
     8
  0
VERTEX
  5
C113
  8
PROF
 10
3.277543689341428
 20
11.456949127529461
 30
0.0000000000000001
 70
     8
  0
VERTEX
  5
C114
  8
PROF
 10
3.2555890600881399
 20
11.3949484299145
 30
0.0000000000000001
 70
     8
  0
VERTEX
  5
C115
  8
PROF
 10
3.2336084548721811
 20
11.335141350337491
 30
0.0000000000000001
 70
     8
  0
VERTEX
  5
C116
  8
PROF
 10
3.2116715641212181
 20
11.277995447977769
 30
0.0000000000000001
 70
     8
  0
VERTEX
  5
C117
  8
PROF
 10
3.1897212669278461
 20
11.22351012665467
 30
0.0000000000000001
 70
     8
  0
VERTEX
  5
C118
  8
PROF
 10
3.1676687395512881
 20
11.17156775134765
 30
0.0000000000000001
 70
     8
  0
VERTEX
  5
C119
  8
PROF
 10
3.1454251582505321
 20
11.12205068703588
 30
0.0000000000000001
 70
     8
  0
VERTEX
  5
C11A
  8
PROF
 10
3.122901699284625
 20
11.07484129869874
 30
0.0000000000000001
 70
     8
  0
VERTEX
  5
C11B
  8
PROF
 10
3.1000095389127278
 20
11.02982195131551
 30
0.0000000000000001
 70
     8
  0
VERTEX
  5
C11C
  8
PROF
 10
3.07665985339389
 20
10.986875009865679
 30
0.0000000000000001
 70
     8
  0
VERTEX
  5
C11D
  8
PROF
 10
3.0527638189871591
 20
10.9458828393283
 30
0.0000000000000001
 70
     8
  0
VERTEX
  5
C11E
  8
PROF
 10
3.0282326119516361
 20
10.90672780468298
 30
0.0000000000000001
 70
     8
  0
VERTEX
  5
C11F
  8
PROF
 10
3.0029774085463701
 20
10.869292270908771
 30
0.0000000000000001
 70
     8
  0
VERTEX
  5
C120
  8
PROF
 10
2.9769093850304089
 20
10.833458602985161
 30
0.0000000000000001
 70
     8
  0
VERTEX
  5
C121
  8
PROF
 10
2.9499397176628559
 20
10.799109165891419
 30
0.0000000000000001
 70
     8
  0
VERTEX
  5
C122
  8
PROF
 10
2.922000609840437
 20
10.76614363969508
 30
0.0000000000000001
 70
     8
  0
VERTEX
  5
C123
  8
PROF
 10
2.8931083735102998
 20
10.7345309648158
 30
0.0000000000000001
 70
     8
  0
VERTEX
  5
C124
  8
PROF
 10
2.8633003477572729
 20
10.70425739676193
 30
0.0000000000000001
 70
     8
  0
VERTEX
  5
C125
  8
PROF
 10
2.8326138716660689
 20
10.67530919104115
 30
0.0000000000000001
 70
     8
  0
VERTEX
  5
C126
  8
PROF
 10
2.801086284321626
 20
10.647672603161711
 30
0.0000000000000001
 70
     8
  0
VERTEX
  5
C127
  8
PROF
 10
2.7687549248087162
 20
10.62133388863162
 30
0.0000000000000001
 70
     8
  0
VERTEX
  5
C128
  8
PROF
 10
2.7356571322120531
 20
10.5962793029588
 30
0.0000000000000001
 70
     8
  0
VERTEX
  5
C129
  8
PROF
 10
2.7018302456165202
 20
10.572495101651381
 30
0.0000000000000001
 70
     8
  0
VERTEX
  5
C12A
  8
PROF
 10
2.6673116041068838
 20
10.54996754021726
 30
0.0000000000000001
 70
     8
  0
VERTEX
  5
C12B
  8
PROF
 10
2.6321385467680321
 20
10.528682874164581
 30
0.0000000000000001
 70
     8
  0
VERTEX
  5
C12C
  8
PROF
 10
2.5963484126846179
 20
10.508627359001251
 30
0.0000000000000001
 70
     8
  0
VERTEX
  5
C12D
  8
PROF
 10
2.5599785409415841
 20
10.489787250235279
 30
0.0000000000000001
 70
     8
  0
VERTEX
  5
C12E
  8
PROF
 10
2.522998630314361
 20
10.472162234281081
 30
0.0000000000000001
 70
     8
  0
VERTEX
  5
C12F
  8
PROF
 10
2.4851078183409072
 20
10.455805721177621
 30
0.0000000000000001
 70
     8
  0
VERTEX
  5
C130
  8
PROF
 10
2.4459376022498982
 20
10.44078455187036
 30
0.0000000000000001
 70
     8
  0
VERTEX
  5
C131
  8
PROF
 10
2.4051194792701249
 20
10.42716556730465
 30
0.0000000000000001
 70
     8
  0
VERTEX
  5
C132
  8
PROF
 10
2.3622849466301541
 20
10.415015608425851
 30
0.0000000000000001
 70
     8
  0
VERTEX
  5
C133
  8
PROF
 10
2.317065501558714
 20
10.40440151617929
 30
0.0000000000000001
 70
     8
  0
VERTEX
  5
C134
  8
PROF
 10
2.2690926412844301
 20
10.395390131510339
 30
0.0000000000000001
 70
     8
  0
VERTEX
  5
C135
  8
PROF
 10
2.2179978630360879
 20
10.388048295364451
 30
0.0000000000000001
 70
     8
  0
VERTEX
  5
C136
  8
PROF
 10
2.1634126640422551
 20
10.38244284868688
 30
0.0000000000000001
 70
     8
  0
VERTEX
  5
C137
  8
PROF
 10
2.1049685415316031
 20
10.37864063242295
 30
0.0000000000000001
 70
     8
  0
VERTEX
  5
C138
  8
PROF
 10
2.0422969927328709
 20
10.37670848751816
 30
0.0000000000000001
 70
     8
  0
VERTEX
  5
C139
  8
PROF
 10
1.9750295148747341
 20
10.37671325491794
 30
0.0000000000000001
 70
     8
  0
VERTEX
  5
C13A
  8
PROF
 10
4.2166060115107484
 20
12.80885334975255
 30
0.0000000000000001
 70
    16
  0
VERTEX
  5
C13B
  8
PROF
 10
3.8702254102732909
 20
12.707065515763929
 30
0.0000000000000001
 70
    16
  0
VERTEX
  5
C13C
  8
PROF
 10
3.605346156896871
 20
12.46277472098552
 30
0.0000000000000001
 70
    16
  0
VERTEX
  5
C13D
  8
PROF
 10
3.500746030527238
 20
12.170680575709749
 30
0.0000000000000001
 70
    16
  0
VERTEX
  5
C13E
  8
PROF
 10
3.231798439705698
 20
11.26846416496107
 30
0.0000000000000001
 70
    16
  0
VERTEX
  5
C13F
  8
PROF
 10
2.9737109398832882
 20
10.76631086647069
 30
0.0000000000000001
 70
    16
  0
VERTEX
  5
C140
  8
PROF
 10
2.5729961067384002
 20
10.460947364504699
 30
0.0000000000000001
 70
    16
  0
VERTEX
  5
C141
  8
PROF
 10
2.2537826214546031
 20
10.372731239449759
 30
0.0000000000000001
 70
    16
  0
VERTEX
  5
C142
  8
PROF
 10
1.9750295148747341
 20
10.37671325491794
 30
0.0000000000000001
 70
    16
  0
SEQEND
  5
C143
  8
PROF
  0
LINE
  5
C144
  8
PROF
 10
4.9012016798694162
 20
12.88585218805485
 30
0.0000000000000003
 11
4.519857503186925
 21
12.88585218805485
 31
0.0000000000000003
  0
LINE
  5
C145
  8
PROF
 10
0.7321315362267457
 20
8.2026312473991556
 30
0.0000000000000006
 11
0.7321315362267457
 21
8.0511853963434952
 31
0.0000000000000006
  0
ARC
  5
C146
  8
PROF
 10
0.7977322214551919
 20
7.577333933202679
 30
0.0000000000000006
 40
0.4783708383912013
 50
97.882010168942557
 51
186.31119505698641
  0
LINE
  5
C147
  8
FRAME_050
 10
7.8016377197432121
 20
17.99371054969447
 30
0.0
 11
7.8016377197432121
 21
0.0000000000002274
 31
0.0
  0
ENDBLK
  5
C149
  8
0
  0
BLOCK
  8
0
  2
*U7
 70
     1
 10
0.0
 20
0.0
 30
0.0
  3
*U7
  1

  0
TEXT
  5
C8C3
  8
0
 10
3.5177832928899071
 20
10.38601584255777
 30
0.0
 40
0.125
  1
Crown Moulding
  0
TEXT
  5
C8C4
  8
0
 10
3.5223876585106431
 20
10.17717091304435
 30
0.0
 40
0.125
  1
TL-AB509
  0
TEXT
  5
C8C5
  8
0
 10
3.5074661032582561
 20
9.9667059289606801
 30
0.0
 40
0.125
  1
1-5/16" x 7-9/16"
  0
TEXT
  5
C8C6
  8
0
 10
3.519403347460166
 20
9.7562409448770051
 30
0.0
 40
0.125
  1
800.66.TAGUE
  0
ENDBLK
  5
C8C8
  8
0
  0
BLOCK
  8
0
  2
*U8
 70
     1
 10
0.0
 20
0.0
 30
0.0
  3
*U8
  1

  0
TEXT
  5
C8CA
  8
0
 10
5.3066868277875692
 20
1.767659498411035
 30
0.0
 40
0.125
  1
Back Band
  0
TEXT
  5
C8CB
  8
0
 10
5.3153839628489603
 20
1.55881456889762
 30
0.0
 40
0.125
  1
TL-1
  0
TEXT
  5
C8CC
  8
0
 10
5.3004624075965721
 20
1.3483495848139451
 30
0.0
 40
0.125
  1
1-3/8" x 1-9/16"
  0
TEXT
  5
C8CD
  8
0
 10
5.3123996517984811
 20
1.1378846007302701
 30
0.0
 40
0.125
  1
800.66.TAGUE
  0
ENDBLK
  5
C8CF
  8
0
  0
BLOCK
  8
0
  2
*U9
 70
     1
 10
0.0
 20
0.0
 30
0.0
  3
*U9
  1

  0
TEXT
  5
C8D1
  8
0
 10
-385.7580743253551
 20
838.2627455404056
 30
0.0
 40
0.125
  1
Back Band
  0
TEXT
  5
C8D2
  8
0
 10
-385.74937719029373
 20
838.05390061089247
 30
0.0
 40
0.125
  1
TL-1
  0
TEXT
  5
C8D3
  8
0
 10
-385.76429874554611
 20
837.84343562680851
 30
0.0
 40
0.125
  1
1-3/8" x 1-9/16"
  0
TEXT
  5
C8D4
  8
0
 10
-385.75236150134418
 20
837.63297064272513
 30
0.0
 40
0.125
  1
800.66.TAGUE
  0
ENDBLK
  5
C8D6
  8
0
  0
BLOCK
  8
0
  2
*D21
 70
     1
 10
0.0
 20
0.0
 30
0.0
  3
*D21
  1

  0
LINE
  5
CDAB
  8
0
 62
     0
 10
-346.64573732984462
 20
509.42191863586828
 30
0.0
 11
-346.03266106471222
 21
509.42191863586828
 31
0.0
  0
LINE
  5
CDAC
  8
0
 62
     0
 10
-347.59461414974379
 20
507.61166709199199
 30
0.0
 11
-346.03266106471222
 21
507.61166709199199
 31
0.0
  0
LINE
  5
CDAD
  8
0
 62
     0
 10
-346.09516106471222
 20
509.42191863586828
 30
0.0
 11
-346.09516106471222
 21
507.61166709199199
 31
0.0
  0
INSERT
  5
CDAE
  8
0
 62
     0
  2
_ARCHTICK
 10
-346.09516106471222
 20
509.42191863586828
 30
0.0
 41
0.046875
 42
0.046875
 43
0.046875
 50
90.0
  0
INSERT
  5
CDAF
  8
0
 62
     0
  2
_ARCHTICK
 10
-346.09516106471222
 20
507.61166709199199
 30
0.0
 41
0.046875
 42
0.046875
 43
0.046875
 50
270.0
  0
INSERT
  5
CDB0
  8
0
  2
*U77
 10
0.0
 20
0.0
 30
0.0
  0
POINT
  5
CDB1
  8
DEFPOINTS
 62
     0
 10
-346.73948732984462
 20
509.42191863586828
 30
0.0
  0
POINT
  5
CDB2
  8
DEFPOINTS
 62
     0
 10
-347.68836414974379
 20
507.61166709199199
 30
0.0
  0
POINT
  5
CDB3
  8
DEFPOINTS
 62
     0
 10
-346.09516106471222
 20
507.61166709199199
 30
0.0
  0
ENDBLK
  5
CDB4
  8
0
  0
BLOCK
  8
0
  2
*D23
 70
     1
 10
0.0
 20
0.0
 30
0.0
  3
*D23
  1

  0
LINE
  5
CDEB
  8
0
 62
     0
 10
-387.02714157709249
 20
839.57969957928674
 30
0.0
 11
-386.41406531196009
 21
839.57969957928674
 31
0.0
  0
LINE
  5
CDEC
  8
0
 62
     0
 10
-387.97601839699172
 20
837.76944803541039
 30
0.0
 11
-386.41406531196009
 21
837.76944803541039
 31
0.0
  0
LINE
  5
CDED
  8
0
 62
     0
 10
-386.47656531196009
 20
839.57969957928674
 30
0.0
 11
-386.47656531196009
 21
837.76944803541039
 31
0.0
  0
INSERT
  5
CDEE
  8
0
 62
     0
  2
_ARCHTICK
 10
-386.47656531196009
 20
839.57969957928674
 30
0.0
 41
0.046875
 42
0.046875
 43
0.046875
 50
90.0
  0
INSERT
  5
CDEF
  8
0
 62
     0
  2
_ARCHTICK
 10
-386.47656531196009
 20
837.76944803541039
 30
0.0
 41
0.046875
 42
0.046875
 43
0.046875
 50
270.0
  0
INSERT
  5
CDF0
  8
0
  2
*U79
 10
0.0
 20
0.0
 30
0.0
  0
POINT
  5
CDF1
  8
DEFPOINTS
 62
     0
 10
-387.12089157709249
 20
839.57969957928674
 30
0.0
  0
POINT
  5
CDF2
  8
DEFPOINTS
 62
     0
 10
-388.06976839699172
 20
837.76944803541039
 30
0.0
  0
POINT
  5
CDF3
  8
DEFPOINTS
 62
     0
 10
-386.47656531196009
 20
837.76944803541039
 30
0.0
  0
ENDBLK
  5
CDEA
  8
0
  0
BLOCK
  8
0
  2
*U66
 70
     1
 10
0.0
 20
0.0
 30
0.0
  3
*U66
  1

  0
TEXT
  5
FB33
  8
0
 10
2.0520856342580478
 20
1.4053520973297959
 30
0.0
 40
0.125
  1
Exterior Casing
  0
TEXT
  5
FB34
  8
0
 10
2.0520856342580478
 20
1.1970187639964629
 30
0.0
 40
0.125
  1
TL-180
  0
TEXT
  5
FB35
  8
0
 10
2.0520856342580478
 20
0.9886854306631298
 30
0.0
 40
0.125
  1
1-1/4" x 2"
  0
TEXT
  5
FB36
  8
0
 10
2.0520856342580478
 20
0.7803520973297964
 30
0.0
 40
0.125
  1
800.66.TAGUE
  0
ENDBLK
  5
FB38
  8
0
  0
BLOCK
  8
0
  2
*U67
 70
     1
 10
0.0
 20
0.0
 30
0.0
  3
*U67
  1

  0
TEXT
  5
FB3A
  8
0
 10
1.875832532300876
 20
1.1538771312937111
 30
0.0
 40
0.125
  1
Exterior Casing
  0
TEXT
  5
FB3B
  8
0
 10
1.875832532300876
 20
0.9455437979603782
 30
0.0
 40
0.125
  1
TL-544
  0
TEXT
  5
FB3C
  8
0
 10
1.875832532300876
 20
0.7372104646270449
 30
0.0
 40
0.125
  1
1-1/8" x 1-9/16"
  0
TEXT
  5
FB3D
  8
0
 10
1.875832532300876
 20
0.5288771312937115
 30
0.0
 40
0.125
  1
800.66.TAGUE
  0
ENDBLK
  5
FB3F
  8
0
  0
BLOCK
  8
0
  2
*U68
 70
     1
 10
0.0
 20
0.0
 30
0.0
  3
*U68
  1

  0
TEXT
  5
FB41
  8
0
 10
2.2653468102219558
 20
1.612015904330746
 30
0.0
 40
0.125
  1
Exterior Casing
  0
TEXT
  5
FB42
  8
0
 10
2.2653468102219558
 20
1.403682570997413
 30
0.0
 40
0.125
  1
TL-2023
  0
TEXT
  5
FB43
  8
0
 10
2.2653468102219558
 20
1.19534923766408
 30
0.0
 40
0.125
  1
1-13/16" x 3" 
  0
TEXT
  5
FB44
  8
0
 10
2.2653468102219558
 20
0.9870159043307467
 30
0.0
 40
0.125
  1
800.66.TAGUE
  0
ENDBLK
  5
FB46
  8
0
  0
BLOCK
  8
0
  2
*U69
 70
     1
 10
0.0
 20
0.0
 30
0.0
  3
*U69
  1

  0
TEXT
  5
FB48
  8
0
 10
2.0898675486657221
 20
0.9145072342178082
 30
0.0
 40
0.125
  1
Exterior Casing
  0
TEXT
  5
FB49
  8
0
 10
2.0898675486657221
 20
0.706173900884475
 30
0.0
 40
0.125
  1
TL-2087
  0
TEXT
  5
FB4A
  8
0
 10
2.0898675486657221
 20
0.4978405675511416
 30
0.0
 40
0.125
  1
7/8" x 1-7/16"
  0
TEXT
  5
FB4B
  8
0
 10
2.0898675486657221
 20
0.2895072342178082
 30
0.0
 40
0.125
  1
800.66.TAGUE
  0
ENDBLK
  5
FB4D
  8
0
  0
BLOCK
  8
0
  2
*U70
 70
     1
 10
0.0
 20
0.0
 30
0.0
  3
*U70
  1

  0
TEXT
  5
FB4F
  8
0
 10
2.1806631076311191
 20
0.8419101546792263
 30
0.0
 40
0.125
  1
Exterior Casing
  0
TEXT
  5
FB50
  8
0
 10
2.1806631076311191
 20
0.6335768213458931
 30
0.0
 40
0.125
  1
TL-2158
  0
TEXT
  5
FB51
  8
0
 10
2.1806631076311191
 20
0.4252434880125597
 30
0.0
 40
0.125
  1
1-1/16" x 1-5/16"
  0
TEXT
  5
FB52
  8
0
 10
2.1806631076311191
 20
0.2169101546792262
 30
0.0
 40
0.125
  1
800.66.TAGUE
  0
ENDBLK
  5
FB54
  8
0
  0
BLOCK
  8
0
  2
*U71
 70
     1
 10
0.0
 20
0.0
 30
0.0
  3
*U71
  1

  0
TEXT
  5
FB56
  8
0
 10
2.2408536425556909
 20
1.2992247915469759
 30
0.0
 40
0.125
  1
Exterior Casing
  0
TEXT
  5
FB57
  8
0
 10
2.2408536425556909
 20
1.090891458213642
 30
0.0
 40
0.125
  1
TL-2174
  0
TEXT
  5
FB58
  8
0
 10
2.2408536425556909
 20
0.8825581248803095
 30
0.0
 40
0.125
  1
1-3/8" x 1-7/16"
  0
TEXT
  5
FB59
  8
0
 10
2.2408536425556909
 20
0.6742247915469762
 30
0.0
 40
0.125
  1
800.66.TAGUE
  0
ENDBLK
  5
FB5B
  8
0
  0
BLOCK
  8
0
  2
*U72
 70
     1
 10
0.0
 20
0.0
 30
0.0
  3
*U72
  1

  0
TEXT
  5
FB5D
  8
0
 10
2.8048346441314029
 20
1.129982283289336
 30
0.0
 40
0.125
  1
Exterior Casing
  0
TEXT
  5
FB5E
  8
0
 10
2.8048346441314029
 20
0.9216489499560037
 30
0.0
 40
0.125
  1
TL-2175
  0
TEXT
  5
FB5F
  8
0
 10
2.8048346441314029
 20
0.7133156166226704
 30
0.0
 40
0.125
  1
1-9/32" x 1-29/32"
  0
TEXT
  5
FB60
  8
0
 10
2.8048346441314029
 20
0.504982283289337
 30
0.0
 40
0.125
  1
800.66.TAGUE
  0
ENDBLK
  5
FB62
  8
0
  0
BLOCK
  8
0
  2
*U73
 70
     1
 10
0.0
 20
0.0
 30
0.0
  3
*U73
  1

  0
TEXT
  5
FB64
  8
0
 10
2.5484960182450891
 20
0.679430053902138
 30
0.0
 40
0.125
  1
Exterior Casing
  0
TEXT
  5
FB65
  8
0
 10
2.5484960182450891
 20
0.4710967205688046
 30
0.0
 40
0.125
  1
TL-2176
  0
TEXT
  5
FB66
  8
0
 10
2.5484960182450891
 20
0.2627633872354712
 30
0.0
 40
0.125
  1
19/32" x 1-5/8"
  0
TEXT
  5
FB67
  8
0
 10
2.5484960182450891
 20
0.0544300539021379
 30
0.0
 40
0.125
  1
800.66.TAGUE
  0
ENDBLK
  5
FB69
  8
0
  0
BLOCK
  8
0
  2
*U74
 70
     1
 10
0.0
 20
0.0
 30
0.0
  3
*U74
  1

  0
TEXT
  5
FB6B
  8
0
 10
2.105732231568993
 20
0.7255830389262883
 30
0.0
 40
0.125
  1
Exterior Casing
  0
TEXT
  5
FB6C
  8
0
 10
2.105732231568993
 20
0.5172497055929551
 30
0.0
 40
0.125
  1
TL-2108
  0
TEXT
  5
FB6D
  8
0
 10
2.105732231568993
 20
0.3089163722596217
 30
0.0
 40
0.125
  1
15/16" x 1-1/16"
  0
TEXT
  5
FB6E
  8
0
 10
2.105732231568993
 20
0.1005830389262883
 30
0.0
 40
0.125
  1
800.66.TAGUE
  0
ENDBLK
  5
FB70
  8
0
  0
BLOCK
  8
0
  2
*U75
 70
     1
 10
0.0
 20
0.0
 30
0.0
  3
*U75
  1

  0
TEXT
  5
FB72
  8
0
 10
0.0469294570366401
 20
0.67943073463357
 30
0.0
 40
0.125
  1
Exterior Casing
  0
TEXT
  5
FB73
  8
0
 10
0.0469294570366401
 20
0.4710974013002366
 30
0.0
 40
0.125
  1
TL-2206
  0
TEXT
  5
FB74
  8
0
 10
0.0469294570366401
 20
0.2627640679669033
 30
0.0
 40
0.125
  1
1-3/32" x 1-23/32"
  0
TEXT
  5
FB75
  8
0
 10
0.0469294570366401
 20
0.05443073463357
 30
0.0
 40
0.125
  1
800.66.TAGUE
  0
ENDBLK
  5
FB77
  8
0
  0
BLOCK
  8
0
  2
*U76
 70
     1
 10
0.0
 20
0.0
 30
0.0
  3
*U76
  1

  0
TEXT
  5
FB79
  8
0
 10
0.0449853036485593
 20
0.6794309447934666
 30
0.0
 40
0.125
  1
Exterior Casing
  0
TEXT
  5
FB7A
  8
0
 10
0.0449853036485593
 20
0.4710976114601333
 30
0.0
 40
0.125
  1
TL-2207
  0
TEXT
  5
FB7B
  8
0
 10
0.0449853036485593
 20
0.2627642781267999
 30
0.0
 40
0.125
  1
1-1/8" x 2-15/16"
  0
TEXT
  5
FB7C
  8
0
 10
0.0449853036485593
 20
0.0544309447934666
 30
0.0
 40
0.125
  1
800.66.TAGUE
  0
ENDBLK
  5
FB7E
  8
0
  0
BLOCK
  8
0
  2
*U77
 70
     1
 10
0.0
 20
0.0
 30
0.0
  3
*U77
  1

  0
TEXT
  5
FB80
  8
0
 62
     0
 10
-346.15979271546257
 20
508.16262619726342
 30
0.0
 40
0.125
  1
Cutter
 50
90.0
  0
ENDBLK
  5
FB82
  8
0
  0
BLOCK
  8
0
  2
*U78
 70
     1
 10
0.0
 20
0.0
 30
0.0
  3
*U78
  1

  0
TEXT
  5
FB84
  8
0
 10
3.5112004937425918
 20
2.3236705000861089
 30
0.0
 40
0.125
  1
Exterior Casing
  0
TEXT
  5
FB85
  8
0
 10
3.5112004937425918
 20
2.1153371667527749
 30
0.0
 40
0.125
  1
TL-2242
  0
TEXT
  5
FB86
  8
0
 10
3.5112004937425918
 20
1.9070038334194419
 30
0.0
 40
0.125
  1
2" x 4-1/2"
  0
TEXT
  5
FB87
  8
0
 10
3.5112004937425918
 20
1.6986705000861091
 30
0.0
 40
0.125
  1
800.66.TAGUE
  0
ENDBLK
  5
FB89
  8
0
  0
BLOCK
  8
0
  2
*U79
 70
     1
 10
0.0
 20
0.0
 30
0.0
  3
*U79
  1

  0
TEXT
  5
FB8B
  8
0
 62
     0
 10
-386.5390653119602
 20
838.32040714068194
 30
0.0
 40
0.125
  1
Cutter
 50
90.0
  0
ENDBLK
  5
FB8D
  8
0
  0
BLOCK
  8
0
  2
*U80
 70
     1
 10
0.0
 20
0.0
 30
0.0
  3
*U80
  1

  0
TEXT
  5
FB8F
  8
0
 10
1.983241637717696
 20
1.2297917133489591
 30
0.0
 40
0.125
  1
Exterior Casing
  0
TEXT
  5
FB90
  8
0
 10
1.983241637717696
 20
1.0214583800156249
 30
0.0
 40
0.125
  1
TL-2254
  0
TEXT
  5
FB91
  8
0
 10
1.983241637717696
 20
0.8131250466822924
 30
0.0
 40
0.125
  1
1-1/4" x 1-3/4"
  0
TEXT
  5
FB92
  8
0
 10
1.983241637717696
 20
0.6047917133489591
 30
0.0
 40
0.125
  1
800.66.TAGUE
  0
ENDBLK
  5
FB94
  8
0
  0
BLOCK
  8
0
  2
*U81
 70
     1
 10
0.0
 20
0.0
 30
0.0
  3
*U81
  1

  0
TEXT
  5
FB96
  8
0
 10
2.2285402119240412
 20
3.7215677387475798
 30
0.0
 40
0.125
  1
Exterior Jamb
  0
TEXT
  5
FB97
  8
0
 10
2.2285402119240412
 20
3.5132344054142468
 30
0.0
 40
0.125
  1
TL-2126
  0
TEXT
  5
FB98
  8
0
 10
2.2285402119240412
 20
3.3049010720809142
 30
0.0
 40
0.125
  1
1-1/4" x 6-5/8"
  0
TEXT
  5
FB99
  8
0
 10
2.2285402119240412
 20
3.0965677387475798
 30
0.0
 40
0.125
  1
800.66.TAGUE
  0
ENDBLK
  5
FB9B
  8
0
  0
BLOCK
  8
0
  2
*U82
 70
     1
 10
0.0
 20
0.0
 30
0.0
  3
*U82
  1

  0
TEXT
  5
FB9D
  8
0
 10
2.025590122046196
 20
3.8877018206065941
 30
0.0
 40
0.125
  1
Exterior Jamb
  0
TEXT
  5
FB9E
  8
0
 10
2.025590122046196
 20
3.6793684872732602
 30
0.0
 40
0.125
  1
TL-2127
  0
TEXT
  5
FB9F
  8
0
 10
2.025590122046196
 20
3.4710351539399271
 30
0.0
 40
0.125
  1
1-1/4" x 6-5/8"
  0
TEXT
  5
FBA0
  8
0
 10
2.025590122046196
 20
3.2627018206065941
 30
0.0
 40
0.125
  1
800.66.TAGUE
  0
ENDBLK
  5
FBA2
  8
0
  0
BLOCK
  8
0
  2
*U83
 70
     1
 10
0.0
 20
0.0
 30
0.0
  3
*U83
  1

  0
TEXT
  5
FBA4
  8
0
 10
1.8279899277385421
 20
2.0085009357213721
 30
0.0
 40
0.125
  1
Fluting
  0
TEXT
  5
FBA5
  8
0
 10
1.8279899277385421
 20
1.800167602388038
 30
0.0
 40
0.125
  1
TL-123
  0
TEXT
  5
FBA6
  8
0
 10
1.8279899277385421
 20
1.5918342690547049
 30
0.0
 40
0.125
  1
3/4" x 3-1/2"
  0
TEXT
  5
FBA7
  8
0
 10
1.8279899277385421
 20
1.3835009357213719
 30
0.0
 40
0.125
  1
800.66.TAGUE
  0
ENDBLK
  5
FBA9
  8
0
  0
BLOCK
  8
0
  2
*U84
 70
     1
 10
0.0
 20
0.0
 30
0.0
  3
*U84
  1

  0
TEXT
  5
FBAB
  8
0
 10
1.9710461263608181
 20
3.9608870512416838
 30
0.0
 40
0.125
  1
Fluting
  0
TEXT
  5
FBAC
  8
0
 10
1.9710461263608181
 20
3.7525537179083499
 30
0.0
 40
0.125
  1
TL-343
  0
TEXT
  5
FBAD
  8
0
 10
1.9710461263608181
 20
3.5442203845750169
 30
0.0
 40
0.125
  1
7/8" x 7-3/16"
  0
TEXT
  5
FBAE
  8
0
 10
1.9710461263608181
 20
3.3358870512416838
 30
0.0
 40
0.125
  1
800.66.TAGUE
  0
ENDBLK
  5
FBB0
  8
0
  0
BLOCK
  8
0
  2
*U85
 70
     1
 10
0.0
 20
0.0
 30
0.0
  3
*U85
  1

  0
TEXT
  5
FBB2
  8
0
 10
1.4662897697170929
 20
3.8395028676267202
 30
0.0
 40
0.125
  1
Fluting
  0
TEXT
  5
FBB3
  8
0
 10
1.4662897697170929
 20
3.6311695342933858
 30
0.0
 40
0.125
  1
TL-2183
  0
TEXT
  5
FBB4
  8
0
 10
1.4662897697170929
 20
3.4228362009600528
 30
0.0
 40
0.125
  1
3/4" x 7-1/4"
  0
TEXT
  5
FBB5
  8
0
 10
1.4662897697170929
 20
3.2145028676267202
 30
0.0
 40
0.125
  1
800.66.TAGUE
  0
ENDBLK
  5
FBB7
  8
0
  0
BLOCK
  8
0
  2
*U86
 70
     1
 10
0.0
 20
0.0
 30
0.0
  3
*U86
  1

  0
TEXT
  5
FBB9
  8
0
 10
2.0951853732560148
 20
2.6676693683394879
 30
0.0
 40
0.125
  1
Fluting
  0
TEXT
  5
FBBA
  8
0
 10
2.0951853732560148
 20
2.4593360350061548
 30
0.0
 40
0.125
  1
TL-2276
  0
TEXT
  5
FBBB
  8
0
 10
2.0951853732560148
 20
2.2510027016728218
 30
0.0
 40
0.125
  1
11/16" x 3"
  0
TEXT
  5
FBBC
  8
0
 10
2.0951853732560148
 20
2.0426693683394879
 30
0.0
 40
0.125
  1
800.66.TAGUE
  0
ENDBLK
  5
FBBE
  8
0
  0
BLOCK
  8
0
  2
*U87
 70
     1
 10
0.0
 20
0.0
 30
0.0
  3
*U87
  1

  0
TEXT
  5
FBC0
  8
0
 10
2.4586482925877808
 20
1.0775582798773931
 30
0.0
 40
0.125
  1
Full Round
  0
TEXT
  5
FBC1
  8
0
 10
2.4586482925877808
 20
0.8692249465440607
 30
0.0
 40
0.125
  1
TL-232
  0
TEXT
  5
FBC2
  8
0
 10
2.4586482925877808
 20
0.6608916132107274
 30
0.0
 40
0.125
  1
1-7/16" x 1-7/16"
  0
TEXT
  5
FBC3
  8
0
 10
2.4586482925877808
 20
0.452558279877394
 30
0.0
 40
0.125
  1
800.66.TAGUE
  0
ENDBLK
  5
FBC5
  8
0
  0
BLOCK
  8
0
  2
*U88
 70
     1
 10
0.0
 20
0.0
 30
0.0
  3
*U88
  1

  0
TEXT
  5
FBC7
  8
0
 10
2.339763263951113
 20
0.912090443150646
 30
0.0
 40
0.125
  1
Full Round
  0
TEXT
  5
FBC8
  8
0
 10
2.339763263951113
 20
0.7037571098173128
 30
0.0
 40
0.125
  1
TL-233
  0
TEXT
  5
FBC9
  8
0
 10
2.339763263951113
 20
0.4954237764839795
 30
0.0
 40
0.125
  1
1-3/16" x 1-3/16"
  0
TEXT
  5
FBCA
  8
0
 10
2.339763263951113
 20
0.287090443150646
 30
0.0
 40
0.125
  1
800.66.TAGUE
  0
ENDBLK
  5
FBCC
  8
0
  0
BLOCK
  8
0
  2
*U89
 70
     1
 10
0.0
 20
0.0
 30
0.0
  3
*U89
  1

  0
TEXT
  5
FBCE
  8
0
 10
2.2927598682417729
 20
0.8643692839127652
 30
0.0
 40
0.125
  1
Full Round
  0
TEXT
  5
FBCF
  8
0
 10
2.2927598682417729
 20
0.6560359505794321
 30
0.0
 40
0.125
  1
TL-234
  0
TEXT
  5
FBD0
  8
0
 10
2.2927598682417729
 20
0.4477026172460987
 30
0.0
 40
0.125
  1
1-1/16" x 1-1/16"
  0
TEXT
  5
FBD1
  8
0
 10
2.2927598682417729
 20
0.2393692839127652
 30
0.0
 40
0.125
  1
800.66.TAGUE
  0
ENDBLK
  5
FBD3
  8
0
  0
BLOCK
  8
0
  2
*U90
 70
     1
 10
0.0
 20
0.0
 30
0.0
  3
*U90
  1

  0
TEXT
  5
FBD5
  8
0
 10
2.0765905058337921
 20
1.0252762384561711
 30
0.0
 40
0.125
  1
Glass Bead
  0
TEXT
  5
FBD6
  8
0
 10
2.0765905058337921
 20
0.8169429051228387
 30
0.0
 40
0.125
  1
TL-145
  0
TEXT
  5
FBD7
  8
0
 10
2.0765905058337921
 20
0.6086095717895054
 30
0.0
 40
0.125
  1
11/16" x 3/4"
  0
TEXT
  5
FBD8
  8
0
 10
2.0765905058337921
 20
0.400276238456172
 30
0.0
 40
0.125
  1
800.66.TAGUE
  0
ENDBLK
  5
FBDA
  8
0
  0
BLOCK
  8
0
  2
*U91
 70
     1
 10
0.0
 20
0.0
 30
0.0
  3
*U91
  1

  0
TEXT
  5
FBDC
  8
0
 10
1.468683703905185
 20
0.7455079879047162
 30
0.0
 40
0.125
  1
Glass Bead
  0
TEXT
  5
FBDD
  8
0
 10
1.468683703905185
 20
0.537174654571383
 30
0.0
 40
0.125
  1
TL-147
  0
TEXT
  5
FBDE
  8
0
 10
1.468683703905185
 20
0.3288413212380496
 30
0.0
 40
0.125
  1
1/2" x 9/16"
  0
TEXT
  5
FBDF
  8
0
 10
1.468683703905185
 20
0.1205079879047162
 30
0.0
 40
0.125
  1
800.66.TAGUE
  0
ENDBLK
  5
FBE1
  8
0
  0
BLOCK
  8
0
  2
*U92
 70
     1
 10
0.0
 20
0.0
 30
0.0
  3
*U92
  1

  0
TEXT
  5
FBE3
  8
0
 10
1.584020839760341
 20
0.6794303041602916
 30
0.0
 40
0.125
  1
Glass Bead
  0
TEXT
  5
FBE4
  8
0
 10
1.584020839760341
 20
0.4710969708269583
 30
0.0
 40
0.125
  1
TL-152
  0
TEXT
  5
FBE5
  8
0
 10
1.584020839760341
 20
0.262763637493625
 30
0.0
 40
0.125
  1
3/8" x 11/16"
  0
TEXT
  5
FBE6
  8
0
 10
1.584020839760341
 20
0.0544303041602916
 30
0.0
 40
0.125
  1
800.66.TAGUE
  0
ENDBLK
  5
FBE8
  8
0
  0
BLOCK
  8
0
  2
*U93
 70
     1
 10
0.0
 20
0.0
 30
0.0
  3
*U93
  1

  0
TEXT
  5
FBEA
  8
0
 10
1.3526095965341931
 20
0.7381811042487243
 30
0.0
 40
0.125
  1
Glass Bead
  0
TEXT
  5
FBEB
  8
0
 10
1.3526095965341931
 20
0.5298477709153912
 30
0.0
 40
0.125
  1
TL-2142
  0
TEXT
  5
FBEC
  8
0
 10
1.3526095965341931
 20
0.3215144375820577
 30
0.0
 40
0.125
  1
11/32" x 29/32"
  0
TEXT
  5
FBED
  8
0
 10
1.3526095965341931
 20
0.1131811042487243
 30
0.0
 40
0.125
  1
800.66.TAGUE
  0
ENDBLK
  5
FBEF
  8
0
  0
BLOCK
  8
0
  2
*U94
 70
     1
 10
0.0
 20
0.0
 30
0.0
  3
*U94
  1

  0
TEXT
  5
FBF1
  8
0
 10
1.3435544091540801
 20
0.6794309539541246
 30
0.0
 40
0.125
  1
Glass Bead
  0
TEXT
  5
FBF2
  8
0
 10
1.3435544091540801
 20
0.4710976206207913
 30
0.0
 40
0.125
  1
TL-2149
  0
TEXT
  5
FBF3
  8
0
 10
1.3435544091540801
 20
0.2627642872874579
 30
0.0
 40
0.125
  1
3/8" x 1/2"
  0
TEXT
  5
FBF4
  8
0
 10
1.3435544091540801
 20
0.0544309539541246
 30
0.0
 40
0.125
  1
800.66.TAGUE
  0
ENDBLK
  5
FBF6
  8
0
  0
BLOCK
  8
0
  2
*U95
 70
     1
 10
0.0
 20
0.0
 30
0.0
  3
*U95
  1

  0
TEXT
  5
FBF8
  8
0
 10
1.488844305553698
 20
0.6807937379744545
 30
0.0
 40
0.125
  1
Glass Bead
  0
TEXT
  5
FBF9
  8
0
 10
1.488844305553698
 20
0.4724604046411212
 30
0.0
 40
0.125
  1
TL-2155
  0
TEXT
  5
FBFA
  8
0
 10
1.488844305553698
 20
0.2641270713077878
 30
0.0
 40
0.125
  1
1/2" x 13/16"
  0
TEXT
  5
FBFB
  8
0
 10
1.488844305553698
 20
0.0557937379744544
 30
0.0
 40
0.125
  1
800.66.TAGUE
  0
ENDBLK
  5
FBFD
  8
0
  0
BLOCK
  8
0
  2
*U96
 70
     1
 10
0.0
 20
0.0
 30
0.0
  3
*U96
  1

  0
TEXT
  5
FBFF
  8
0
 10
1.52304343587059
 20
0.6794307504626432
 30
0.0
 40
0.125
  1
Glass Bead
  0
TEXT
  5
FC00
  8
0
 10
1.52304343587059
 20
0.4710974171293099
 30
0.0
 40
0.125
  1
TL-2218
  0
TEXT
  5
FC01
  8
0
 10
1.52304343587059
 20
0.2627640837959765
 30
0.0
 40
0.125
  1
1/4" x 5/8"
  0
TEXT
  5
FC02
  8
0
 10
1.52304343587059
 20
0.0544307504626431
 30
0.0
 40
0.125
  1
800.66.TAGUE
  0
ENDBLK
  5
FC04
  8
0
  0
BLOCK
  8
0
  2
*U97
 70
     1
 10
0.0
 20
0.0
 30
0.0
  3
*U97
  1

  0
TEXT
  5
FC06
  8
0
 10
2.8235364504146778
 20
0.7161662597191026
 30
0.0
 40
0.125
  1
Half Round
  0
TEXT
  5
FC07
  8
0
 10
2.8235364504146778
 20
0.5078329263857692
 30
0.0
 40
0.125
  1
TL-6
  0
TEXT
  5
FC08
  8
0
 10
2.8235364504146778
 20
0.2994995930524358
 30
0.0
 40
0.125
  1
7/8" x 1-3/4"
  0
TEXT
  5
FC09
  8
0
 10
2.8235364504146778
 20
0.0911662597191025
 30
0.0
 40
0.125
  1
800.66.TAGUE
  0
ENDBLK
  5
FC0B
  8
0
  0
BLOCK
  8
0
  2
*U98
 70
     1
 10
0.0
 20
0.0
 30
0.0
  3
*U98
  1

  0
TEXT
  5
FC0D
  8
0
 10
2.8316039409763221
 20
0.7222806133900122
 30
0.0
 40
0.125
  1
Half Round
  0
TEXT
  5
FC0E
  8
0
 10
2.8316039409763221
 20
0.5139472800566788
 30
0.0
 40
0.125
  1
TL-7
  0
TEXT
  5
FC0F
  8
0
 10
2.8316039409763221
 20
0.3056139467233454
 30
0.0
 40
0.125
  1
1" x 2"
  0
TEXT
  5
FC10
  8
0
 10
2.8316039409763221
 20
0.0972806133900122
 30
0.0
 40
0.125
  1
800.66.TAGUE
  0
ENDBLK
  5
FC12
  8
0
  0
BLOCK
  8
0
  2
*U99
 70
     1
 10
0.0
 20
0.0
 30
0.0
  3
*U99
  1

  0
TEXT
  5
FC14
  8
0
 10
4.3092556456276148
 20
0.8292621657587915
 30
0.0
 40
0.125
  1
Half Round
  0
TEXT
  5
FC15
  8
0
 10
4.3092556456276148
 20
0.6209288324254582
 30
0.0
 40
0.125
  1
TL-8
  0
TEXT
  5
FC16
  8
0
 10
4.3092556456276148
 20
0.4125954990921248
 30
0.0
 40
0.125
  1
1-1/2" x 3"
  0
TEXT
  5
FC17
  8
0
 10
4.3092556456276148
 20
0.2042621657587915
 30
0.0
 40
0.125
  1
800.66.TAGUE
  0
ENDBLK
  5
FC19
  8
0
  0
BLOCK
  8
0
  2
*U100
 70
     1
 10
0.0
 20
0.0
 30
0.0
  3
*U100
  1

  0
TEXT
  5
FC1B
  8
0
 10
2.524104426630799
 20
0.6794299200373644
 30
0.0
 40
0.125
  1
Half Round
  0
TEXT
  5
FC1C
  8
0
 10
2.524104426630799
 20
0.471096586704031
 30
0.0
 40
0.125
  1
TL-116
  0
TEXT
  5
FC1D
  8
0
 10
2.524104426630799
 20
0.2627632533706976
 30
0.0
 40
0.125
  1
3/4" x 1-1/2"
  0
TEXT
  5
FC1E
  8
0
 10
2.524104426630799
 20
0.0544299200373644
 30
0.0
 40
0.125
  1
800.66.TAGUE
  0
ENDBLK
  5
FC20
  8
0
  0
BLOCK
  8
0
  2
*U101
 70
     1
 10
0.0
 20
0.0
 30
0.0
  3
*U101
  1

  0
TEXT
  5
FC22
  8
0
 10
2.4691699319003528
 20
0.6794301275302815
 30
0.0
 40
0.125
  1
Half Round
  0
TEXT
  5
FC23
  8
0
 10
2.4691699319003528
 20
0.4710967941969481
 30
0.0
 40
0.125
  1
TL-119
  0
TEXT
  5
FC24
  8
0
 10
2.4691699319003528
 20
0.2627634608636147
 30
0.0
 40
0.125
  1
5/8" x 1-1/4"
  0
TEXT
  5
FC25
  8
0
 10
2.4691699319003528
 20
0.0544301275302814
 30
0.0
 40
0.125
  1
800.66.TAGUE
  0
ENDBLK
  5
FC27
  8
0
  0
BLOCK
  8
0
  2
*U102
 70
     1
 10
0.0
 20
0.0
 30
0.0
  3
*U102
  1

  0
TEXT
  5
FC29
  8
0
 10
1.96218194837894
 20
0.679429735423696
 30
0.0
 40
0.125
  1
Half Round
  0
TEXT
  5
FC2A
  8
0
 10
1.96218194837894
 20
0.4710964020903626
 30
0.0
 40
0.125
  1
TL-120
  0
TEXT
  5
FC2B
  8
0
 10
1.96218194837894
 20
0.2627630687570293
 30
0.0
 40
0.125
  1
1/2" x 1"
  0
TEXT
  5
FC2C
  8
0
 10
1.96218194837894
 20
0.054429735423696
 30
0.0
 40
0.125
  1
800.66.TAGUE
  0
ENDBLK
  5
FC2E
  8
0
  0
BLOCK
  8
0
  2
*U103
 70
     1
 10
0.0
 20
0.0
 30
0.0
  3
*U103
  1

  0
TEXT
  5
FC30
  8
0
 10
1.51989036816559
 20
0.679429754589819
 30
0.0
 40
0.125
  1
Half Round
  0
TEXT
  5
FC31
  8
0
 10
1.51989036816559
 20
0.4710964212564856
 30
0.0
 40
0.125
  1
TL-122
  0
TEXT
  5
FC32
  8
0
 10
1.51989036816559
 20
0.2627630879231522
 30
0.0
 40
0.125
  1
11/32" x 11/16"
  0
TEXT
  5
FC33
  8
0
 10
1.51989036816559
 20
0.0544297545898189
 30
0.0
 40
0.125
  1
800.66.TAGUE
  0
ENDBLK
  5
FC35
  8
0
  0
BLOCK
  8
0
  2
*U104
 70
     1
 10
0.0
 20
0.0
 30
0.0
  3
*U104
  1

  0
TEXT
  5
FC37
  8
0
 10
1.332760358760481
 20
0.6794306489528026
 30
0.0
 40
0.125
  1
Half Round
  0
TEXT
  5
FC38
  8
0
 10
1.332760358760481
 20
0.4710973156194692
 30
0.0
 40
0.125
  1
TL-124
  0
TEXT
  5
FC39
  8
0
 10
1.332760358760481
 20
0.2627639822861358
 30
0.0
 40
0.125
  1
1/4" x 1/2"
  0
TEXT
  5
FC3A
  8
0
 10
1.332760358760481
 20
0.0544306489528026
 30
0.0
 40
0.125
  1
800.66.TAGUE
  0
ENDBLK
  5
FC3C
  8
0
  0
BLOCK
  8
0
  2
*U105
 70
     1
 10
0.0
 20
0.0
 30
0.0
  3
*U105
  1

  0
TEXT
  5
FC3E
  8
0
 10
2.6263646070054838
 20
2.827461056571678
 30
0.0
 40
0.125
  1
Hand Rail
  0
TEXT
  5
FC3F
  8
0
 10
2.6263646070054838
 20
2.6191277232383441
 30
0.0
 40
0.125
  1
TL-14
  0
TEXT
  5
FC40
  8
0
 10
2.6263646070054838
 20
2.410794389905011
 30
0.0
 40
0.125
  1
1-5/8" x 5-1/4"
  0
TEXT
  5
FC41
  8
0
 10
2.6263646070054838
 20
2.202461056571678
 30
0.0
 40
0.125
  1
800.66.TAGUE
  0
ENDBLK
  5
FC43
  8
0
  0
BLOCK
  8
0
  2
*U106
 70
     1
 10
0.0
 20
0.0
 30
0.0
  3
*U106
  1

  0
TEXT
  5
FC45
  8
0
 10
2.2830209502855041
 20
2.755934710444194
 30
0.0
 40
0.125
  1
Hand Rail
  0
TEXT
  5
FC46
  8
0
 10
2.2830209502855041
 20
2.5476013771108601
 30
0.0
 40
0.125
  1
TL-15
  0
TEXT
  5
FC47
  8
0
 10
2.2830209502855041
 20
2.3392680437775271
 30
0.0
 40
0.125
  1
1-3/8" x 5-1/2"
  0
TEXT
  5
FC48
  8
0
 10
2.2830209502855041
 20
2.130934710444194
 30
0.0
 40
0.125
  1
800.66.TAGUE
  0
ENDBLK
  5
FC4A
  8
0
  0
BLOCK
  8
0
  2
*U107
 70
     1
 10
0.0
 20
0.0
 30
0.0
  3
*U107
  1

  0
TEXT
  5
FC4C
  8
0
 10
3.5100871080940119
 20
1.046126857764647
 30
0.0
 40
0.125
  1
Hand Rail
  0
TEXT
  5
FC4D
  8
0
 10
3.5100871080940119
 20
0.8377935244313146
 30
0.0
 40
0.125
  1
TL-96
  0
TEXT
  5
FC4E
  8
0
 10
3.5100871080940119
 20
0.6294601910979814
 30
0.0
 40
0.125
  1
1-1/4" x 2-1/4"
  0
TEXT
  5
FC4F
  8
0
 10
3.5100871080940119
 20
0.4211268577646479
 30
0.0
 40
0.125
  1
800.66.TAGUE
  0
ENDBLK
  5
FC51
  8
0
  0
BLOCK
  8
0
  2
*U108
 70
     1
 10
0.0
 20
0.0
 30
0.0
  3
*U108
  1

  0
TEXT
  5
FC53
  8
0
 10
2.3417636350062589
 20
4.2171919217870482
 30
0.0
 40
0.125
  1
Hand Rail
  0
TEXT
  5
FC54
  8
0
 10
2.3417636350062589
 20
4.0088585884537151
 30
0.0
 40
0.125
  1
TL-117
  0
TEXT
  5
FC55
  8
0
 10
2.3417636350062589
 20
3.8005252551203812
 30
0.0
 40
0.125
  1
1-1/4" x 8-1/8"
  0
TEXT
  5
FC56
  8
0
 10
2.3417636350062589
 20
3.5921919217870482
 30
0.0
 40
0.125
  1
800.66.TAGUE
  0
ENDBLK
  5
FC58
  8
0
  0
BLOCK
  8
0
  2
*U109
 70
     1
 10
0.0
 20
0.0
 30
0.0
  3
*U109
  1

  0
TEXT
  5
FC5A
  8
0
 10
2.7125232555794119
 20
1.098442957172892
 30
0.0
 40
0.125
  1
Hand Rail
  0
TEXT
  5
FC5B
  8
0
 10
2.7125232555794119
 20
0.8901096238395592
 30
0.0
 40
0.125
  1
TL-231
  0
TEXT
  5
FC5C
  8
0
 10
2.7125232555794119
 20
0.6817762905062259
 30
0.0
 40
0.125
  1
1-1/2" x 1-11/16"
  0
TEXT
  5
FC5D
  8
0
 10
2.7125232555794119
 20
0.4734429571728925
 30
0.0
 40
0.125
  1
800.66.TAGUE
  0
ENDBLK
  5
FC5F
  8
0
  0
BLOCK
  8
0
  2
*U110
 70
     1
 10
0.0
 20
0.0
 30
0.0
  3
*U110
  1

  0
TEXT
  5
FC61
  8
0
 10
2.960252587020249
 20
0.6772989443436474
 30
0.0
 40
0.125
  1
Lattice
  0
TEXT
  5
FC62
  8
0
 10
2.960252587020249
 20
0.468965611010314
 30
0.0
 40
0.125
  1
TL-266
  0
TEXT
  5
FC63
  8
0
 10
2.960252587020249
 20
0.2606322776769806
 30
0.0
 40
0.125
  1
1/4" x 1-5/8"
  0
TEXT
  5
FC64
  8
0
 10
2.960252587020249
 20
0.0522989443436472
 30
0.0
 40
0.125
  1
800.66.TAGUE
  0
ENDBLK
  5
FC66
  8
0
  0
BLOCK
  8
0
  2
*U111
 70
     1
 10
0.0
 20
0.0
 30
0.0
  3
*U111
  1

  0
TEXT
  5
FC68
  8
0
 10
2.5177643903332401
 20
0.6772985360157691
 30
0.0
 40
0.125
  1
Lattice
  0
TEXT
  5
FC69
  8
0
 10
2.5177643903332401
 20
0.4689652026824358
 30
0.0
 40
0.125
  1
TL-267
  0
TEXT
  5
FC6A
  8
0
 10
2.5177643903332401
 20
0.2606318693491024
 30
0.0
 40
0.125
  1
1/4" x 1-3/8"
  0
TEXT
  5
FC6B
  8
0
 10
2.5177643903332401
 20
0.0522985360157691
 30
0.0
 40
0.125
  1
800.66.TAGUE
  0
ENDBLK
  5
FC6D
  8
0
  0
BLOCK
  8
0
  2
*U112
 70
     1
 10
0.0
 20
0.0
 30
0.0
  3
*U112
  1

  0
TEXT
  5
FC6F
  8
0
 10
2.3872073702682419
 20
0.6772987437404936
 30
0.0
 40
0.125
  1
Lattice
  0
TEXT
  5
FC70
  8
0
 10
2.3872073702682419
 20
0.4689654104071603
 30
0.0
 40
0.125
  1
TL-268
  0
TEXT
  5
FC71
  8
0
 10
2.3872073702682419
 20
0.260632077073827
 30
0.0
 40
0.125
  1
1/4" x 1-1/8"
  0
TEXT
  5
FC72
  8
0
 10
2.3872073702682419
 20
0.0522987437404936
 30
0.0
 40
0.125
  1
800.66.TAGUE
  0
ENDBLK
  5
FC74
  8
0
  0
BLOCK
  8
0
  2
*U113
 70
     1
 10
0.0
 20
0.0
 30
0.0
  3
*U113
  1

  0
TEXT
  5
FC76
  8
0
 10
1.7198452767448771
 20
0.6772982915522335
 30
0.0
 40
0.125
  1
Lattice
  0
TEXT
  5
FC77
  8
0
 10
1.7198452767448771
 20
0.4689649582189002
 30
0.0
 40
0.125
  1
TL-269
  0
TEXT
  5
FC78
  8
0
 10
1.7198452767448771
 20
0.2606316248855668
 30
0.0
 40
0.125
  1
1/4" x 3/4"
  0
TEXT
  5
FC79
  8
0
 10
1.7198452767448771
 20
0.0522982915522334
 30
0.0
 40
0.125
  1
800.66.TAGUE
  0
ENDBLK
  5
FC7B
  8
0
  0
BLOCK
  8
0
  2
*U114
 70
     1
 10
0.0
 20
0.0
 30
0.0
  3
*U114
  1

  0
TEXT
  5
FC7D
  8
0
 10
2.0085733028087129
 20
0.6772989387914095
 30
0.0
 40
0.125
  1
Lattice
  0
TEXT
  5
FC7E
  8
0
 10
2.0085733028087129
 20
0.4689656054580762
 30
0.0
 40
0.125
  1
TL-270
  0
TEXT
  5
FC7F
  8
0
 10
2.0085733028087129
 20
0.2606322721247428
 30
0.0
 40
0.125
  1
1/4" x 7/8"
  0
TEXT
  5
FC80
  8
0
 10
2.0085733028087129
 20
0.0522989387914095
 30
0.0
 40
0.125
  1
800.66.TAGUE
  0
ENDBLK
  5
FC82
  8
0
  0
BLOCK
  8
0
  2
*U115
 70
     1
 10
0.0
 20
0.0
 30
0.0
  3
*U115
  1

  0
TEXT
  5
FC84
  8
0
 10
2.940701223973178
 20
0.6772980715210224
 30
0.0
 40
0.125
  1
Lattice
  0
TEXT
  5
FC85
  8
0
 10
2.940701223973178
 20
0.4689647381876891
 30
0.0
 40
0.125
  1
TL-962
  0
TEXT
  5
FC86
  8
0
 10
2.940701223973178
 20
0.2606314048543558
 30
0.0
 40
0.125
  1
1/4" x 2"
  0
TEXT
  5
FC87
  8
0
 10
2.940701223973178
 20
0.0522980715210224
 30
0.0
 40
0.125
  1
800.66.TAGUE
  0
ENDBLK
  5
FC89
  8
0
  0
BLOCK
  8
0
  2
*U116
 70
     1
 10
0.0
 20
0.0
 30
0.0
  3
*U116
  1

  0
TEXT
  5
FC8B
  8
0
 10
1.983768624240724
 20
1.1498699559202801
 30
0.0
 40
0.125
  1
Lip Moulding
  0
TEXT
  5
FC8C
  8
0
 10
1.983768624240724
 20
0.9415366225869473
 30
0.0
 40
0.125
  1
TL-18
  0
TEXT
  5
FC8D
  8
0
 10
1.983768624240724
 20
0.7332032892536139
 30
0.0
 40
0.125
  1
3/4" x 1-15/16"
  0
TEXT
  5
FC8E
  8
0
 10
1.983768624240724
 20
0.5248699559202806
 30
0.0
 40
0.125
  1
800.66.TAGUE
  0
ENDBLK
  5
FC90
  8
0
  0
BLOCK
  8
0
  2
*U117
 70
     1
 10
0.0
 20
0.0
 30
0.0
  3
*U117
  1

  0
TEXT
  5
FC92
  8
0
 10
2.2853728967398861
 20
1.2855052394233999
 30
0.0
 40
0.125
  1
Lip Moulding
  0
TEXT
  5
FC93
  8
0
 10
2.2853728967398861
 20
1.0771719060900671
 30
0.0
 40
0.125
  1
TL-530
  0
TEXT
  5
FC94
  8
0
 10
2.2853728967398861
 20
0.8688385727567342
 30
0.0
 40
0.125
  1
5/8" x 1-5/8"
  0
TEXT
  5
FC95
  8
0
 10
2.2853728967398861
 20
0.6605052394234008
 30
0.0
 40
0.125
  1
800.66.TAGUE
  0
ENDBLK
  5
FC97
  8
0
  0
BLOCK
  8
0
  2
*U118
 70
     1
 10
0.0
 20
0.0
 30
0.0
  3
*U118
  1

  0
TEXT
  5
FC99
  8
0
 10
2.269200201813987
 20
1.1997502285778401
 30
0.0
 40
0.125
  1
Lip Moulding
  0
TEXT
  5
FC9A
  8
0
 10
2.269200201813987
 20
0.9914168952445077
 30
0.0
 40
0.125
  1
TL-532
  0
TEXT
  5
FC9B
  8
0
 10
2.269200201813987
 20
0.7830835619111745
 30
0.0
 40
0.125
  1
3/4" x 1-3/4"
  0
TEXT
  5
FC9C
  8
0
 10
2.269200201813987
 20
0.574750228577841
 30
0.0
 40
0.125
  1
800.66.TAGUE
  0
ENDBLK
  5
FC9E
  8
0
  0
BLOCK
  8
0
  2
*U119
 70
     1
 10
0.0
 20
0.0
 30
0.0
  3
*U119
  1

  0
TEXT
  5
FCA0
  8
0
 10
1.8892783014391621
 20
1.241449235052527
 30
0.0
 40
0.125
  1
Lip Moulding
  0
TEXT
  5
FCA1
  8
0
 10
1.8892783014391621
 20
1.033115901719194
 30
0.0
 40
0.125
  1
TL-2169
  0
TEXT
  5
FCA2
  8
0
 10
1.8892783014391621
 20
0.8247825683858613
 30
0.0
 40
0.125
  1
11/16" x 1-7/8"
  0
TEXT
  5
FCA3
  8
0
 10
1.8892783014391621
 20
0.6164492350525279
 30
0.0
 40
0.125
  1
800.66.TAGUE
  0
ENDBLK
  5
FCA5
  8
0
  0
BLOCK
  8
0
  2
*U120
 70
     1
 10
0.0
 20
0.0
 30
0.0
  3
*U120
  1

  0
TEXT
  5
FCA7
  8
0
 10
1.620143794977025
 20
1.0038028284741349
 30
0.0
 40
0.125
  1
Lip Moulding
  0
TEXT
  5
FCA8
  8
0
 10
1.620143794977025
 20
0.7954694951408026
 30
0.0
 40
0.125
  1
TL-2179
  0
TEXT
  5
FCA9
  8
0
 10
1.620143794977025
 20
0.5871361618074693
 30
0.0
 40
0.125
  1
3/4" x 1-1/4"
  0
TEXT
  5
FCAA
  8
0
 10
1.620143794977025
 20
0.3788028284741358
 30
0.0
 40
0.125
  1
800.66.TAGUE
  0
ENDBLK
  5
FCAC
  8
0
  0
BLOCK
  8
0
  2
*U121
 70
     1
 10
0.0
 20
0.0
 30
0.0
  3
*U121
  1

  0
TEXT
  5
FCAE
  8
0
 10
1.9163743563030939
 20
1.019442403193352
 30
0.0
 40
0.125
  1
Lip Moulding
  0
TEXT
  5
FCAF
  8
0
 10
1.9163743563030939
 20
0.811109069860019
 30
0.0
 40
0.125
  1
TL-2181
  0
TEXT
  5
FCB0
  8
0
 10
1.9163743563030939
 20
0.6027757365266857
 30
0.0
 40
0.125
  1
3/4" x 1-11/16"
  0
TEXT
  5
FCB1
  8
0
 10
1.9163743563030939
 20
0.3944424031933522
 30
0.0
 40
0.125
  1
800.66.TAGUE
  0
ENDBLK
  5
FCB3
  8
0
  0
BLOCK
  8
0
  2
*U122
 70
     1
 10
0.0
 20
0.0
 30
0.0
  3
*U122
  1

  0
TEXT
  5
FCB5
  8
0
 10
-386.49913914759532
 20
839.27713583572859
 30
0.0
 40
0.125
  1
Lip Moulding
  0
TEXT
  5
FCB6
  8
0
 10
-386.49913914759532
 20
839.0688025023951
 30
0.0
 40
0.125
  1
TL-2181
  0
TEXT
  5
FCB7
  8
0
 10
-386.49913914759532
 20
838.86046916906196
 30
0.0
 40
0.125
  1
3/4" x 1-11/16"
  0
TEXT
  5
FCB8
  8
0
 10
-386.49913914759532
 20
838.65213583572847
 30
0.0
 40
0.125
  1
800.66.TAGUE
  0
ENDBLK
  5
FCBA
  8
0
  0
ENDSEC
  0
SECTION
  2
ENTITIES
  0
LINE
  5
FB1C
  8
0
 10
-388.11654410388633
 20
839.66706696660935
 30
0.0
 11
-388.41551350100508
 21
839.66706696660935
 31
0.0
  0
LINE
  5
FB1D
  8
0
 10
-388.41551350100508
 20
839.66706696660935
 30
0.0
 11
-388.41551350100508
 21
838.88471363433109
 31
0.0
  0
LINE
  5
FB1E
  8
0
 10
-388.41551350100508
 20
838.88471363433109
 30
0.0
 11
-387.85242413887318
 21
838.39351681249775
 31
0.0
  0
LINE
  5
FB1F
  8
0
 10
-387.85242413887318
 20
838.39351681249775
 30
0.0
 11
-387.67990695172068
 21
838.39351681249775
 31
0.0
  0
LINE
  5
FB20
  8
0
 10
-387.67990695172068
 20
838.39351681249775
 30
0.0
 11
-387.67990695172068
 21
838.25769381938346
 31
0.0
  0
POLYLINE
  8
0
  5
FCBB
  66
     1
 10
0.000000
 20
0.000000
 30
0.000000
  70
     8
  0
VERTEX
  8
0
  5
FCBC
 10
-388.117
 20
839.667
 30
0.000000
  70
    32
  0
VERTEX
  8
0
  5
FCBD
 10
-388.116
 20
839.662
 30
0.000000
  70
    32
  0
VERTEX
  8
0
  5
FCBE
 10
-388.116
 20
839.657
 30
0.000000
  70
    32
  0
VERTEX
  8
0
  5
FCBF
 10
-388.116
 20
839.652
 30
0.000000
  70
    32
  0
VERTEX
  8
0
  5
FCC0
 10
-388.115
 20
839.647
 30
0.000000
  70
    32
  0
VERTEX
  8
0
  5
FCC1
 10
-388.115
 20
839.642
 30
0.000000
  70
    32
  0
VERTEX
  8
0
  5
FCC2
 10
-388.115
 20
839.637
 30
0.000000
  70
    32
  0
VERTEX
  8
0
  5
FCC3
 10
-388.115
 20
839.632
 30
0.000000
  70
    32
  0
VERTEX
  8
0
  5
FCC4
 10
-388.114
 20
839.627
 30
0.000000
  70
    32
  0
VERTEX
  8
0
  5
FCC5
 10
-388.114
 20
839.622
 30
0.000000
  70
    32
  0
VERTEX
  8
0
  5
FCC6
 10
-388.114
 20
839.617
 30
0.000000
  70
    32
  0
VERTEX
  8
0
  5
FCC7
 10
-388.113
 20
839.612
 30
0.000000
  70
    32
  0
VERTEX
  8
0
  5
FCC8
 10
-388.113
 20
839.607
 30
0.000000
  70
    32
  0
VERTEX
  8
0
  5
FCC9
 10
-388.113
 20
839.602
 30
0.000000
  70
    32
  0
VERTEX
  8
0
  5
FCCA
 10
-388.112
 20
839.597
 30
0.000000
  70
    32
  0
VERTEX
  8
0
  5
FCCB
 10
-388.112
 20
839.592
 30
0.000000
  70
    32
  0
VERTEX
  8
0
  5
FCCC
 10
-388.112
 20
839.587
 30
0.000000
  70
    32
  0
VERTEX
  8
0
  5
FCCD
 10
-388.111
 20
839.582
 30
0.000000
  70
    32
  0
VERTEX
  8
0
  5
FCCE
 10
-388.111
 20
839.577
 30
0.000000
  70
    32
  0
VERTEX
  8
0
  5
FCCF
 10
-388.110
 20
839.572
 30
0.000000
  70
    32
  0
VERTEX
  8
0
  5
FCD0
 10
-388.110
 20
839.567
 30
0.000000
  70
    32
  0
VERTEX
  8
0
  5
FCD1
 10
-388.109
 20
839.562
 30
0.000000
  70
    32
  0
VERTEX
  8
0
  5
FCD2
 10
-388.109
 20
839.557
 30
0.000000
  70
    32
  0
VERTEX
  8
0
  5
FCD3
 10
-388.108
 20
839.552
 30
0.000000
  70
    32
  0
VERTEX
  8
0
  5
FCD4
 10
-388.107
 20
839.547
 30
0.000000
  70
    32
  0
VERTEX
  8
0
  5
FCD5
 10
-388.106
 20
839.542
 30
0.000000
  70
    32
  0
VERTEX
  8
0
  5
FCD6
 10
-388.105
 20
839.537
 30
0.000000
  70
    32
  0
VERTEX
  8
0
  5
FCD7
 10
-388.105
 20
839.532
 30
0.000000
  70
    32
  0
VERTEX
  8
0
  5
FCD8
 10
-388.104
 20
839.528
 30
0.000000
  70
    32
  0
VERTEX
  8
0
  5
FCD9
 10
-388.103
 20
839.523
 30
0.000000
  70
    32
  0
VERTEX
  8
0
  5
FCDA
 10
-388.101
 20
839.518
 30
0.000000
  70
    32
  0
VERTEX
  8
0
  5
FCDB
 10
-388.100
 20
839.513
 30
0.000000
  70
    32
  0
VERTEX
  8
0
  5
FCDC
 10
-388.099
 20
839.508
 30
0.000000
  70
    32
  0
VERTEX
  8
0
  5
FCDD
 10
-388.098
 20
839.503
 30
0.000000
  70
    32
  0
VERTEX
  8
0
  5
FCDE
 10
-388.096
 20
839.499
 30
0.000000
  70
    32
  0
VERTEX
  8
0
  5
FCDF
 10
-388.095
 20
839.494
 30
0.000000
  70
    32
  0
VERTEX
  8
0
  5
FCE0
 10
-388.093
 20
839.489
 30
0.000000
  70
    32
  0
VERTEX
  8
0
  5
FCE1
 10
-388.091
 20
839.485
 30
0.000000
  70
    32
  0
VERTEX
  8
0
  5
FCE2
 10
-388.090
 20
839.480
 30
0.000000
  70
    32
  0
VERTEX
  8
0
  5
FCE3
 10
-388.088
 20
839.475
 30
0.000000
  70
    32
  0
VERTEX
  8
0
  5
FCE4
 10
-388.086
 20
839.471
 30
0.000000
  70
    32
  0
VERTEX
  8
0
  5
FCE5
 10
-388.084
 20
839.466
 30
0.000000
  70
    32
  0
VERTEX
  8
0
  5
FCE6
 10
-388.082
 20
839.461
 30
0.000000
  70
    32
  0
VERTEX
  8
0
  5
FCE7
 10
-388.080
 20
839.457
 30
0.000000
  70
    32
  0
VERTEX
  8
0
  5
FCE8
 10
-388.077
 20
839.452
 30
0.000000
  70
    32
  0
VERTEX
  8
0
  5
FCE9
 10
-388.075
 20
839.448
 30
0.000000
  70
    32
  0
VERTEX
  8
0
  5
FCEA
 10
-388.073
 20
839.444
 30
0.000000
  70
    32
  0
VERTEX
  8
0
  5
FCEB
 10
-388.070
 20
839.439
 30
0.000000
  70
    32
  0
VERTEX
  8
0
  5
FCEC
 10
-388.068
 20
839.435
 30
0.000000
  70
    32
  0
VERTEX
  8
0
  5
FCED
 10
-388.065
 20
839.431
 30
0.000000
  70
    32
  0
VERTEX
  8
0
  5
FCEE
 10
-388.062
 20
839.426
 30
0.000000
  70
    32
  0
VERTEX
  8
0
  5
FCEF
 10
-388.060
 20
839.422
 30
0.000000
  70
    32
  0
VERTEX
  8
0
  5
FCF0
 10
-388.057
 20
839.418
 30
0.000000
  70
    32
  0
VERTEX
  8
0
  5
FCF1
 10
-388.054
 20
839.414
 30
0.000000
  70
    32
  0
VERTEX
  8
0
  5
FCF2
 10
-388.051
 20
839.410
 30
0.000000
  70
    32
  0
VERTEX
  8
0
  5
FCF3
 10
-388.048
 20
839.406
 30
0.000000
  70
    32
  0
VERTEX
  8
0
  5
FCF4
 10
-388.045
 20
839.402
 30
0.000000
  70
    32
  0
VERTEX
  8
0
  5
FCF5
 10
-388.042
 20
839.398
 30
0.000000
  70
    32
  0
VERTEX
  8
0
  5
FCF6
 10
-388.039
 20
839.394
 30
0.000000
  70
    32
  0
VERTEX
  8
0
  5
FCF7
 10
-388.036
 20
839.390
 30
0.000000
  70
    32
  0
VERTEX
  8
0
  5
FCF8
 10
-388.033
 20
839.387
 30
0.000000
  70
    32
  0
VERTEX
  8
0
  5
FCF9
 10
-388.030
 20
839.383
 30
0.000000
  70
    32
  0
VERTEX
  8
0
  5
FCFA
 10
-388.026
 20
839.379
 30
0.000000
  70
    32
  0
VERTEX
  8
0
  5
FCFB
 10
-388.023
 20
839.375
 30
0.000000
  70
    32
  0
VERTEX
  8
0
  5
FCFC
 10
-388.020
 20
839.372
 30
0.000000
  70
    32
  0
VERTEX
  8
0
  5
FCFD
 10
-388.016
 20
839.368
 30
0.000000
  70
    32
  0
VERTEX
  8
0
  5
FCFE
 10
-388.013
 20
839.365
 30
0.000000
  70
    32
  0
VERTEX
  8
0
  5
FCFF
 10
-388.009
 20
839.361
 30
0.000000
  70
    32
  0
VERTEX
  8
0
  5
FD00
 10
-388.006
 20
839.358
 30
0.000000
  70
    32
  0
VERTEX
  8
0
  5
FD01
 10
-388.002
 20
839.355
 30
0.000000
  70
    32
  0
VERTEX
  8
0
  5
FD02
 10
-387.998
 20
839.351
 30
0.000000
  70
    32
  0
VERTEX
  8
0
  5
FD03
 10
-387.995
 20
839.348
 30
0.000000
  70
    32
  0
VERTEX
  8
0
  5
FD04
 10
-387.991
 20
839.345
 30
0.000000
  70
    32
  0
VERTEX
  8
0
  5
FD05
 10
-387.987
 20
839.341
 30
0.000000
  70
    32
  0
VERTEX
  8
0
  5
FD06
 10
-387.983
 20
839.338
 30
0.000000
  70
    32
  0
VERTEX
  8
0
  5
FD07
 10
-387.980
 20
839.335
 30
0.000000
  70
    32
  0
VERTEX
  8
0
  5
FD08
 10
-387.976
 20
839.332
 30
0.000000
  70
    32
  0
VERTEX
  8
0
  5
FD09
 10
-387.972
 20
839.328
 30
0.000000
  70
    32
  0
VERTEX
  8
0
  5
FD0A
 10
-387.968
 20
839.325
 30
0.000000
  70
    32
  0
VERTEX
  8
0
  5
FD0B
 10
-387.964
 20
839.322
 30
0.000000
  70
    32
  0
VERTEX
  8
0
  5
FD0C
 10
-387.960
 20
839.319
 30
0.000000
  70
    32
  0
VERTEX
  8
0
  5
FD0D
 10
-387.956
 20
839.316
 30
0.000000
  70
    32
  0
VERTEX
  8
0
  5
FD0E
 10
-387.952
 20
839.313
 30
0.000000
  70
    32
  0
VERTEX
  8
0
  5
FD0F
 10
-387.948
 20
839.310
 30
0.000000
  70
    32
  0
VERTEX
  8
0
  5
FD10
 10
-387.944
 20
839.307
 30
0.000000
  70
    32
  0
VERTEX
  8
0
  5
FD11
 10
-387.940
 20
839.304
 30
0.000000
  70
    32
  0
VERTEX
  8
0
  5
FD12
 10
-387.936
 20
839.301
 30
0.000000
  70
    32
  0
VERTEX
  8
0
  5
FD13
 10
-387.932
 20
839.298
 30
0.000000
  70
    32
  0
VERTEX
  8
0
  5
FD14
 10
-387.928
 20
839.295
 30
0.000000
  70
    32
  0
VERTEX
  8
0
  5
FD15
 10
-387.924
 20
839.292
 30
0.000000
  70
    32
  0
VERTEX
  8
0
  5
FD16
 10
-387.920
 20
839.289
 30
0.000000
  70
    32
  0
VERTEX
  8
0
  5
FD17
 10
-387.916
 20
839.287
 30
0.000000
  70
    32
  0
VERTEX
  8
0
  5
FD18
 10
-387.911
 20
839.284
 30
0.000000
  70
    32
  0
VERTEX
  8
0
  5
FD19
 10
-387.907
 20
839.281
 30
0.000000
  70
    32
  0
VERTEX
  8
0
  5
FD1A
 10
-387.903
 20
839.278
 30
0.000000
  70
    32
  0
VERTEX
  8
0
  5
FD1B
 10
-387.899
 20
839.275
 30
0.000000
  70
    32
  0
VERTEX
  8
0
  5
FD1C
 10
-387.895
 20
839.272
 30
0.000000
  70
    32
  0
VERTEX
  8
0
  5
FD1D
 10
-387.891
 20
839.269
 30
0.000000
  70
    32
  0
VERTEX
  8
0
  5
FD1E
 10
-387.886
 20
839.267
 30
0.000000
  70
    32
  0
VERTEX
  8
0
  5
FD1F
 10
-387.882
 20
839.264
 30
0.000000
  70
    32
  0
VERTEX
  8
0
  5
FD20
 10
-387.878
 20
839.261
 30
0.000000
  70
    32
  0
VERTEX
  8
0
  5
FD21
 10
-387.874
 20
839.258
 30
0.000000
  70
    32
  0
VERTEX
  8
0
  5
FD22
 10
-387.869
 20
839.255
 30
0.000000
  70
    32
  0
VERTEX
  8
0
  5
FD23
 10
-387.865
 20
839.252
 30
0.000000
  70
    32
  0
VERTEX
  8
0
  5
FD24
 10
-387.861
 20
839.250
 30
0.000000
  70
    32
  0
VERTEX
  8
0
  5
FD25
 10
-387.857
 20
839.247
 30
0.000000
  70
    32
  0
VERTEX
  8
0
  5
FD26
 10
-387.853
 20
839.244
 30
0.000000
  70
    32
  0
VERTEX
  8
0
  5
FD27
 10
-387.848
 20
839.241
 30
0.000000
  70
    32
  0
VERTEX
  8
0
  5
FD28
 10
-387.844
 20
839.238
 30
0.000000
  70
    32
  0
VERTEX
  8
0
  5
FD29
 10
-387.840
 20
839.235
 30
0.000000
  70
    32
  0
VERTEX
  8
0
  5
FD2A
 10
-387.836
 20
839.232
 30
0.000000
  70
    32
  0
VERTEX
  8
0
  5
FD2B
 10
-387.832
 20
839.230
 30
0.000000
  70
    32
  0
VERTEX
  8
0
  5
FD2C
 10
-387.828
 20
839.227
 30
0.000000
  70
    32
  0
VERTEX
  8
0
  5
FD2D
 10
-387.823
 20
839.224
 30
0.000000
  70
    32
  0
VERTEX
  8
0
  5
FD2E
 10
-387.819
 20
839.221
 30
0.000000
  70
    32
  0
VERTEX
  8
0
  5
FD2F
 10
-387.815
 20
839.218
 30
0.000000
  70
    32
  0
VERTEX
  8
0
  5
FD30
 10
-387.811
 20
839.215
 30
0.000000
  70
    32
  0
VERTEX
  8
0
  5
FD31
 10
-387.807
 20
839.212
 30
0.000000
  70
    32
  0
VERTEX
  8
0
  5
FD32
 10
-387.803
 20
839.209
 30
0.000000
  70
    32
  0
VERTEX
  8
0
  5
FD33
 10
-387.799
 20
839.206
 30
0.000000
  70
    32
  0
VERTEX
  8
0
  5
FD34
 10
-387.795
 20
839.203
 30
0.000000
  70
    32
  0
VERTEX
  8
0
  5
FD35
 10
-387.791
 20
839.200
 30
0.000000
  70
    32
  0
VERTEX
  8
0
  5
FD36
 10
-387.787
 20
839.197
 30
0.000000
  70
    32
  0
VERTEX
  8
0
  5
FD37
 10
-387.783
 20
839.194
 30
0.000000
  70
    32
  0
VERTEX
  8
0
  5
FD38
 10
-387.779
 20
839.191
 30
0.000000
  70
    32
  0
VERTEX
  8
0
  5
FD39
 10
-387.775
 20
839.188
 30
0.000000
  70
    32
  0
VERTEX
  8
0
  5
FD3A
 10
-387.771
 20
839.185
 30
0.000000
  70
    32
  0
VERTEX
  8
0
  5
FD3B
 10
-387.767
 20
839.182
 30
0.000000
  70
    32
  0
VERTEX
  8
0
  5
FD3C
 10
-387.763
 20
839.179
 30
0.000000
  70
    32
  0
VERTEX
  8
0
  5
FD3D
 10
-387.759
 20
839.176
 30
0.000000
  70
    32
  0
VERTEX
  8
0
  5
FD3E
 10
-387.755
 20
839.172
 30
0.000000
  70
    32
  0
VERTEX
  8
0
  5
FD3F
 10
-387.751
 20
839.169
 30
0.000000
  70
    32
  0
VERTEX
  8
0
  5
FD40
 10
-387.747
 20
839.166
 30
0.000000
  70
    32
  0
VERTEX
  8
0
  5
FD41
 10
-387.743
 20
839.163
 30
0.000000
  70
    32
  0
VERTEX
  8
0
  5
FD42
 10
-387.739
 20
839.160
 30
0.000000
  70
    32
  0
VERTEX
  8
0
  5
FD43
 10
-387.735
 20
839.157
 30
0.000000
  70
    32
  0
VERTEX
  8
0
  5
FD44
 10
-387.731
 20
839.154
 30
0.000000
  70
    32
  0
VERTEX
  8
0
  5
FD45
 10
-387.728
 20
839.150
 30
0.000000
  70
    32
  0
VERTEX
  8
0
  5
FD46
 10
-387.724
 20
839.147
 30
0.000000
  70
    32
  0
VERTEX
  8
0
  5
FD47
 10
-387.720
 20
839.144
 30
0.000000
  70
    32
  0
VERTEX
  8
0
  5
FD48
 10
-387.716
 20
839.141
 30
0.000000
  70
    32
  0
VERTEX
  8
0
  5
FD49
 10
-387.712
 20
839.137
 30
0.000000
  70
    32
  0
VERTEX
  8
0
  5
FD4A
 10
-387.709
 20
839.134
 30
0.000000
  70
    32
  0
VERTEX
  8
0
  5
FD4B
 10
-387.705
 20
839.131
 30
0.000000
  70
    32
  0
VERTEX
  8
0
  5
FD4C
 10
-387.701
 20
839.128
 30
0.000000
  70
    32
  0
VERTEX
  8
0
  5
FD4D
 10
-387.697
 20
839.124
 30
0.000000
  70
    32
  0
VERTEX
  8
0
  5
FD4E
 10
-387.694
 20
839.121
 30
0.000000
  70
    32
  0
VERTEX
  8
0
  5
FD4F
 10
-387.690
 20
839.118
 30
0.000000
  70
    32
  0
VERTEX
  8
0
  5
FD50
 10
-387.686
 20
839.114
 30
0.000000
  70
    32
  0
VERTEX
  8
0
  5
FD51
 10
-387.682
 20
839.111
 30
0.000000
  70
    32
  0
VERTEX
  8
0
  5
FD52
 10
-387.679
 20
839.108
 30
0.000000
  70
    32
  0
VERTEX
  8
0
  5
FD53
 10
-387.675
 20
839.104
 30
0.000000
  70
    32
  0
VERTEX
  8
0
  5
FD54
 10
-387.671
 20
839.101
 30
0.000000
  70
    32
  0
VERTEX
  8
0
  5
FD55
 10
-387.668
 20
839.098
 30
0.000000
  70
    32
  0
VERTEX
  8
0
  5
FD56
 10
-387.664
 20
839.094
 30
0.000000
  70
    32
  0
VERTEX
  8
0
  5
FD57
 10
-387.661
 20
839.091
 30
0.000000
  70
    32
  0
VERTEX
  8
0
  5
FD58
 10
-387.657
 20
839.087
 30
0.000000
  70
    32
  0
VERTEX
  8
0
  5
FD59
 10
-387.653
 20
839.084
 30
0.000000
  70
    32
  0
VERTEX
  8
0
  5
FD5A
 10
-387.650
 20
839.080
 30
0.000000
  70
    32
  0
VERTEX
  8
0
  5
FD5B
 10
-387.646
 20
839.077
 30
0.000000
  70
    32
  0
VERTEX
  8
0
  5
FD5C
 10
-387.643
 20
839.073
 30
0.000000
  70
    32
  0
VERTEX
  8
0
  5
FD5D
 10
-387.639
 20
839.070
 30
0.000000
  70
    32
  0
VERTEX
  8
0
  5
FD5E
 10
-387.636
 20
839.066
 30
0.000000
  70
    32
  0
VERTEX
  8
0
  5
FD5F
 10
-387.632
 20
839.063
 30
0.000000
  70
    32
  0
VERTEX
  8
0
  5
FD60
 10
-387.629
 20
839.059
 30
0.000000
  70
    32
  0
VERTEX
  8
0
  5
FD61
 10
-387.625
 20
839.056
 30
0.000000
  70
    32
  0
VERTEX
  8
0
  5
FD62
 10
-387.622
 20
839.052
 30
0.000000
  70
    32
  0
VERTEX
  8
0
  5
FD63
 10
-387.618
 20
839.049
 30
0.000000
  70
    32
  0
VERTEX
  8
0
  5
FD64
 10
-387.615
 20
839.045
 30
0.000000
  70
    32
  0
VERTEX
  8
0
  5
FD65
 10
-387.611
 20
839.041
 30
0.000000
  70
    32
  0
VERTEX
  8
0
  5
FD66
 10
-387.608
 20
839.038
 30
0.000000
  70
    32
  0
VERTEX
  8
0
  5
FD67
 10
-387.605
 20
839.034
 30
0.000000
  70
    32
  0
VERTEX
  8
0
  5
FD68
 10
-387.601
 20
839.031
 30
0.000000
  70
    32
  0
VERTEX
  8
0
  5
FD69
 10
-387.598
 20
839.027
 30
0.000000
  70
    32
  0
VERTEX
  8
0
  5
FD6A
 10
-387.594
 20
839.023
 30
0.000000
  70
    32
  0
VERTEX
  8
0
  5
FD6B
 10
-387.591
 20
839.019
 30
0.000000
  70
    32
  0
VERTEX
  8
0
  5
FD6C
 10
-387.588
 20
839.016
 30
0.000000
  70
    32
  0
VERTEX
  8
0
  5
FD6D
 10
-387.584
 20
839.012
 30
0.000000
  70
    32
  0
VERTEX
  8
0
  5
FD6E
 10
-387.581
 20
839.008
 30
0.000000
  70
    32
  0
VERTEX
  8
0
  5
FD6F
 10
-387.578
 20
839.005
 30
0.000000
  70
    32
  0
VERTEX
  8
0
  5
FD70
 10
-387.575
 20
839.001
 30
0.000000
  70
    32
  0
VERTEX
  8
0
  5
FD71
 10
-387.571
 20
838.997
 30
0.000000
  70
    32
  0
VERTEX
  8
0
  5
FD72
 10
-387.568
 20
838.993
 30
0.000000
  70
    32
  0
VERTEX
  8
0
  5
FD73
 10
-387.565
 20
838.990
 30
0.000000
  70
    32
  0
VERTEX
  8
0
  5
FD74
 10
-387.562
 20
838.986
 30
0.000000
  70
    32
  0
VERTEX
  8
0
  5
FD75
 10
-387.558
 20
838.982
 30
0.000000
  70
    32
  0
VERTEX
  8
0
  5
FD76
 10
-387.555
 20
838.978
 30
0.000000
  70
    32
  0
VERTEX
  8
0
  5
FD77
 10
-387.552
 20
838.974
 30
0.000000
  70
    32
  0
VERTEX
  8
0
  5
FD78
 10
-387.549
 20
838.970
 30
0.000000
  70
    32
  0
VERTEX
  8
0
  5
FD79
 10
-387.546
 20
838.967
 30
0.000000
  70
    32
  0
VERTEX
  8
0
  5
FD7A
 10
-387.543
 20
838.963
 30
0.000000
  70
    32
  0
VERTEX
  8
0
  5
FD7B
 10
-387.540
 20
838.959
 30
0.000000
  70
    32
  0
VERTEX
  8
0
  5
FD7C
 10
-387.537
 20
838.955
 30
0.000000
  70
    32
  0
VERTEX
  8
0
  5
FD7D
 10
-387.533
 20
838.951
 30
0.000000
  70
    32
  0
VERTEX
  8
0
  5
FD7E
 10
-387.530
 20
838.947
 30
0.000000
  70
    32
  0
VERTEX
  8
0
  5
FD7F
 10
-387.527
 20
838.943
 30
0.000000
  70
    32
  0
VERTEX
  8
0
  5
FD80
 10
-387.524
 20
838.939
 30
0.000000
  70
    32
  0
VERTEX
  8
0
  5
FD81
 10
-387.521
 20
838.935
 30
0.000000
  70
    32
  0
VERTEX
  8
0
  5
FD82
 10
-387.518
 20
838.931
 30
0.000000
  70
    32
  0
VERTEX
  8
0
  5
FD83
 10
-387.515
 20
838.927
 30
0.000000
  70
    32
  0
VERTEX
  8
0
  5
FD84
 10
-387.512
 20
838.923
 30
0.000000
  70
    32
  0
VERTEX
  8
0
  5
FD85
 10
-387.509
 20
838.919
 30
0.000000
  70
    32
  0
VERTEX
  8
0
  5
FD86
 10
-387.507
 20
838.915
 30
0.000000
  70
    32
  0
VERTEX
  8
0
  5
FD87
 10
-387.504
 20
838.911
 30
0.000000
  70
    32
  0
VERTEX
  8
0
  5
FD88
 10
-387.501
 20
838.907
 30
0.000000
  70
    32
  0
VERTEX
  8
0
  5
FD89
 10
-387.498
 20
838.903
 30
0.000000
  70
    32
  0
VERTEX
  8
0
  5
FD8A
 10
-387.495
 20
838.899
 30
0.000000
  70
    32
  0
VERTEX
  8
0
  5
FD8B
 10
-387.492
 20
838.895
 30
0.000000
  70
    32
  0
VERTEX
  8
0
  5
FD8C
 10
-387.489
 20
838.890
 30
0.000000
  70
    32
  0
VERTEX
  8
0
  5
FD8D
 10
-387.487
 20
838.886
 30
0.000000
  70
    32
  0
VERTEX
  8
0
  5
FD8E
 10
-387.484
 20
838.882
 30
0.000000
  70
    32
  0
VERTEX
  8
0
  5
FD8F
 10
-387.481
 20
838.878
 30
0.000000
  70
    32
  0
VERTEX
  8
0
  5
FD90
 10
-387.478
 20
838.874
 30
0.000000
  70
    32
  0
VERTEX
  8
0
  5
FD91
 10
-387.476
 20
838.870
 30
0.000000
  70
    32
  0
VERTEX
  8
0
  5
FD92
 10
-387.473
 20
838.865
 30
0.000000
  70
    32
  0
VERTEX
  8
0
  5
FD93
 10
-387.470
 20
838.861
 30
0.000000
  70
    32
  0
VERTEX
  8
0
  5
FD94
 10
-387.468
 20
838.857
 30
0.000000
  70
    32
  0
VERTEX
  8
0
  5
FD95
 10
-387.465
 20
838.853
 30
0.000000
  70
    32
  0
VERTEX
  8
0
  5
FD96
 10
-387.462
 20
838.848
 30
0.000000
  70
    32
  0
VERTEX
  8
0
  5
FD97
 10
-387.460
 20
838.844
 30
0.000000
  70
    32
  0
VERTEX
  8
0
  5
FD98
 10
-387.457
 20
838.840
 30
0.000000
  70
    32
  0
VERTEX
  8
0
  5
FD99
 10
-387.455
 20
838.835
 30
0.000000
  70
    32
  0
VERTEX
  8
0
  5
FD9A
 10
-387.452
 20
838.831
 30
0.000000
  70
    32
  0
VERTEX
  8
0
  5
FD9B
 10
-387.450
 20
838.827
 30
0.000000
  70
    32
  0
VERTEX
  8
0
  5
FD9C
 10
-387.447
 20
838.823
 30
0.000000
  70
    32
  0
VERTEX
  8
0
  5
FD9D
 10
-387.445
 20
838.818
 30
0.000000
  70
    32
  0
VERTEX
  8
0
  5
FD9E
 10
-387.442
 20
838.814
 30
0.000000
  70
    32
  0
VERTEX
  8
0
  5
FD9F
 10
-387.440
 20
838.809
 30
0.000000
  70
    32
  0
VERTEX
  8
0
  5
FDA0
 10
-387.437
 20
838.805
 30
0.000000
  70
    32
  0
VERTEX
  8
0
  5
FDA1
 10
-387.435
 20
838.801
 30
0.000000
  70
    32
  0
VERTEX
  8
0
  5
FDA2
 10
-387.433
 20
838.796
 30
0.000000
  70
    32
  0
VERTEX
  8
0
  5
FDA3
 10
-387.430
 20
838.792
 30
0.000000
  70
    32
  0
VERTEX
  8
0
  5
FDA4
 10
-387.428
 20
838.787
 30
0.000000
  70
    32
  0
VERTEX
  8
0
  5
FDA5
 10
-387.426
 20
838.783
 30
0.000000
  70
    32
  0
VERTEX
  8
0
  5
FDA6
 10
-387.423
 20
838.778
 30
0.000000
  70
    32
  0
VERTEX
  8
0
  5
FDA7
 10
-387.421
 20
838.774
 30
0.000000
  70
    32
  0
VERTEX
  8
0
  5
FDA8
 10
-387.419
 20
838.769
 30
0.000000
  70
    32
  0
VERTEX
  8
0
  5
FDA9
 10
-387.417
 20
838.765
 30
0.000000
  70
    32
  0
VERTEX
  8
0
  5
FDAA
 10
-387.414
 20
838.760
 30
0.000000
  70
    32
  0
VERTEX
  8
0
  5
FDAB
 10
-387.412
 20
838.756
 30
0.000000
  70
    32
  0
VERTEX
  8
0
  5
FDAC
 10
-387.410
 20
838.751
 30
0.000000
  70
    32
  0
VERTEX
  8
0
  5
FDAD
 10
-387.408
 20
838.747
 30
0.000000
  70
    32
  0
VERTEX
  8
0
  5
FDAE
 10
-387.406
 20
838.742
 30
0.000000
  70
    32
  0
VERTEX
  8
0
  5
FDAF
 10
-387.404
 20
838.737
 30
0.000000
  70
    32
  0
VERTEX
  8
0
  5
FDB0
 10
-387.402
 20
838.733
 30
0.000000
  70
    32
  0
VERTEX
  8
0
  5
FDB1
 10
-387.400
 20
838.728
 30
0.000000
  70
    32
  0
VERTEX
  8
0
  5
FDB2
 10
-387.398
 20
838.724
 30
0.000000
  70
    32
  0
VERTEX
  8
0
  5
FDB3
 10
-387.396
 20
838.719
 30
0.000000
  70
    32
  0
VERTEX
  8
0
  5
FDB4
 10
-387.394
 20
838.714
 30
0.000000
  70
    32
  0
VERTEX
  8
0
  5
FDB5
 10
-387.392
 20
838.710
 30
0.000000
  70
    32
  0
VERTEX
  8
0
  5
FDB6
 10
-387.390
 20
838.705
 30
0.000000
  70
    32
  0
VERTEX
  8
0
  5
FDB7
 10
-387.388
 20
838.700
 30
0.000000
  70
    32
  0
VERTEX
  8
0
  5
FDB8
 10
-387.386
 20
838.695
 30
0.000000
  70
    32
  0
VERTEX
  8
0
  5
FDB9
 10
-387.385
 20
838.691
 30
0.000000
  70
    32
  0
VERTEX
  8
0
  5
FDBA
 10
-387.383
 20
838.686
 30
0.000000
  70
    32
  0
VERTEX
  8
0
  5
FDBB
 10
-387.381
 20
838.681
 30
0.000000
  70
    32
  0
VERTEX
  8
0
  5
FDBC
 10
-387.379
 20
838.676
 30
0.000000
  70
    32
  0
VERTEX
  8
0
  5
FDBD
 10
-387.378
 20
838.672
 30
0.000000
  70
    32
  0
VERTEX
  8
0
  5
FDBE
 10
-387.376
 20
838.667
 30
0.000000
  70
    32
  0
VERTEX
  8
0
  5
FDBF
 10
-387.375
 20
838.662
 30
0.000000
  70
    32
  0
VERTEX
  8
0
  5
FDC0
 10
-387.373
 20
838.657
 30
0.000000
  70
    32
  0
VERTEX
  8
0
  5
FDC1
 10
-387.371
 20
838.652
 30
0.000000
  70
    32
  0
VERTEX
  8
0
  5
FDC2
 10
-387.370
 20
838.648
 30
0.000000
  70
    32
  0
VERTEX
  8
0
  5
FDC3
 10
-387.369
 20
838.643
 30
0.000000
  70
    32
  0
VERTEX
  8
0
  5
FDC4
 10
-387.367
 20
838.638
 30
0.000000
  70
    32
  0
VERTEX
  8
0
  5
FDC5
 10
-387.366
 20
838.633
 30
0.000000
  70
    32
  0
VERTEX
  8
0
  5
FDC6
 10
-387.365
 20
838.628
 30
0.000000
  70
    32
  0
VERTEX
  8
0
  5
FDC7
 10
-387.363
 20
838.623
 30
0.000000
  70
    32
  0
VERTEX
  8
0
  5
FDC8
 10
-387.362
 20
838.618
 30
0.000000
  70
    32
  0
VERTEX
  8
0
  5
FDC9
 10
-387.361
 20
838.614
 30
0.000000
  70
    32
  0
VERTEX
  8
0
  5
FDCA
 10
-387.360
 20
838.609
 30
0.000000
  70
    32
  0
VERTEX
  8
0
  5
FDCB
 10
-387.359
 20
838.604
 30
0.000000
  70
    32
  0
VERTEX
  8
0
  5
FDCC
 10
-387.358
 20
838.599
 30
0.000000
  70
    32
  0
VERTEX
  8
0
  5
FDCD
 10
-387.357
 20
838.594
 30
0.000000
  70
    32
  0
VERTEX
  8
0
  5
FDCE
 10
-387.356
 20
838.589
 30
0.000000
  70
    32
  0
VERTEX
  8
0
  5
FDCF
 10
-387.355
 20
838.584
 30
0.000000
  70
    32
  0
VERTEX
  8
0
  5
FDD0
 10
-387.355
 20
838.579
 30
0.000000
  70
    32
  0
VERTEX
  8
0
  5
FDD1
 10
-387.354
 20
838.574
 30
0.000000
  70
    32
  0
VERTEX
  8
0
  5
FDD2
 10
-387.353
 20
838.569
 30
0.000000
  70
    32
  0
VERTEX
  8
0
  5
FDD3
 10
-387.353
 20
838.564
 30
0.000000
  70
    32
  0
VERTEX
  8
0
  5
FDD4
 10
-387.352
 20
838.559
 30
0.000000
  70
    32
  0
VERTEX
  8
0
  5
FDD5
 10
-387.352
 20
838.554
 30
0.000000
  70
    32
  0
VERTEX
  8
0
  5
FDD6
 10
-387.351
 20
838.549
 30
0.000000
  70
    32
  0
VERTEX
  8
0
  5
FDD7
 10
-387.351
 20
838.544
 30
0.000000
  70
    32
  0
VERTEX
  8
0
  5
FDD8
 10
-387.351
 20
838.539
 30
0.000000
  70
    32
  0
VERTEX
  8
0
  5
FDD9
 10
-387.351
 20
838.534
 30
0.000000
  70
    32
  0
VERTEX
  8
0
  5
FDDA
 10
-387.351
 20
838.529
 30
0.000000
  70
    32
  0
VERTEX
  8
0
  5
FDDB
 10
-387.351
 20
838.524
 30
0.000000
  70
    32
  0
VERTEX
  8
0
  5
FDDC
 10
-387.351
 20
838.519
 30
0.000000
  70
    32
  0
VERTEX
  8
0
  5
FDDD
 10
-387.351
 20
838.514
 30
0.000000
  70
    32
  0
VERTEX
  8
0
  5
FDDE
 10
-387.351
 20
838.509
 30
0.000000
  70
    32
  0
VERTEX
  8
0
  5
FDDF
 10
-387.351
 20
838.504
 30
0.000000
  70
    32
  0
VERTEX
  8
0
  5
FDE0
 10
-387.351
 20
838.499
 30
0.000000
  70
    32
  0
VERTEX
  8
0
  5
FDE1
 10
-387.352
 20
838.494
 30
0.000000
  70
    32
  0
VERTEX
  8
0
  5
FDE2
 10
-387.352
 20
838.489
 30
0.000000
  70
    32
  0
VERTEX
  8
0
  5
FDE3
 10
-387.353
 20
838.484
 30
0.000000
  70
    32
  0
VERTEX
  8
0
  5
FDE4
 10
-387.354
 20
838.479
 30
0.000000
  70
    32
  0
VERTEX
  8
0
  5
FDE5
 10
-387.354
 20
838.474
 30
0.000000
  70
    32
  0
VERTEX
  8
0
  5
FDE6
 10
-387.355
 20
838.469
 30
0.000000
  70
    32
  0
VERTEX
  8
0
  5
FDE7
 10
-387.356
 20
838.464
 30
0.000000
  70
    32
  0
VERTEX
  8
0
  5
FDE8
 10
-387.357
 20
838.459
 30
0.000000
  70
    32
  0
VERTEX
  8
0
  5
FDE9
 10
-387.358
 20
838.454
 30
0.000000
  70
    32
  0
VERTEX
  8
0
  5
FDEA
 10
-387.359
 20
838.449
 30
0.000000
  70
    32
  0
VERTEX
  8
0
  5
FDEB
 10
-387.361
 20
838.444
 30
0.000000
  70
    32
  0
VERTEX
  8
0
  5
FDEC
 10
-387.362
 20
838.440
 30
0.000000
  70
    32
  0
VERTEX
  8
0
  5
FDED
 10
-387.363
 20
838.435
 30
0.000000
  70
    32
  0
VERTEX
  8
0
  5
FDEE
 10
-387.365
 20
838.430
 30
0.000000
  70
    32
  0
VERTEX
  8
0
  5
FDEF
 10
-387.366
 20
838.425
 30
0.000000
  70
    32
  0
VERTEX
  8
0
  5
FDF0
 10
-387.368
 20
838.420
 30
0.000000
  70
    32
  0
VERTEX
  8
0
  5
FDF1
 10
-387.370
 20
838.416
 30
0.000000
  70
    32
  0
VERTEX
  8
0
  5
FDF2
 10
-387.372
 20
838.411
 30
0.000000
  70
    32
  0
VERTEX
  8
0
  5
FDF3
 10
-387.374
 20
838.406
 30
0.000000
  70
    32
  0
VERTEX
  8
0
  5
FDF4
 10
-387.376
 20
838.402
 30
0.000000
  70
    32
  0
VERTEX
  8
0
  5
FDF5
 10
-387.378
 20
838.397
 30
0.000000
  70
    32
  0
VERTEX
  8
0
  5
FDF6
 10
-387.380
 20
838.393
 30
0.000000
  70
    32
  0
VERTEX
  8
0
  5
FDF7
 10
-387.383
 20
838.388
 30
0.000000
  70
    32
  0
VERTEX
  8
0
  5
FDF8
 10
-387.385
 20
838.384
 30
0.000000
  70
    32
  0
VERTEX
  8
0
  5
FDF9
 10
-387.388
 20
838.380
 30
0.000000
  70
    32
  0
VERTEX
  8
0
  5
FDFA
 10
-387.390
 20
838.375
 30
0.000000
  70
    32
  0
VERTEX
  8
0
  5
FDFB
 10
-387.393
 20
838.371
 30
0.000000
  70
    32
  0
VERTEX
  8
0
  5
FDFC
 10
-387.396
 20
838.367
 30
0.000000
  70
    32
  0
VERTEX
  8
0
  5
FDFD
 10
-387.399
 20
838.363
 30
0.000000
  70
    32
  0
VERTEX
  8
0
  5
FDFE
 10
-387.402
 20
838.359
 30
0.000000
  70
    32
  0
VERTEX
  8
0
  5
FDFF
 10
-387.405
 20
838.355
 30
0.000000
  70
    32
  0
VERTEX
  8
0
  5
FE00
 10
-387.409
 20
838.351
 30
0.000000
  70
    32
  0
VERTEX
  8
0
  5
FE01
 10
-387.412
 20
838.347
 30
0.000000
  70
    32
  0
VERTEX
  8
0
  5
FE02
 10
-387.415
 20
838.344
 30
0.000000
  70
    32
  0
VERTEX
  8
0
  5
FE03
 10
-387.419
 20
838.340
 30
0.000000
  70
    32
  0
VERTEX
  8
0
  5
FE04
 10
-387.422
 20
838.336
 30
0.000000
  70
    32
  0
VERTEX
  8
0
  5
FE05
 10
-387.426
 20
838.333
 30
0.000000
  70
    32
  0
VERTEX
  8
0
  5
FE06
 10
-387.430
 20
838.329
 30
0.000000
  70
    32
  0
VERTEX
  8
0
  5
FE07
 10
-387.434
 20
838.326
 30
0.000000
  70
    32
  0
VERTEX
  8
0
  5
FE08
 10
-387.437
 20
838.323
 30
0.000000
  70
    32
  0
VERTEX
  8
0
  5
FE09
 10
-387.441
 20
838.320
 30
0.000000
  70
    32
  0
VERTEX
  8
0
  5
FE0A
 10
-387.445
 20
838.316
 30
0.000000
  70
    32
  0
VERTEX
  8
0
  5
FE0B
 10
-387.450
 20
838.313
 30
0.000000
  70
    32
  0
VERTEX
  8
0
  5
FE0C
 10
-387.454
 20
838.310
 30
0.000000
  70
    32
  0
VERTEX
  8
0
  5
FE0D
 10
-387.458
 20
838.308
 30
0.000000
  70
    32
  0
VERTEX
  8
0
  5
FE0E
 10
-387.462
 20
838.305
 30
0.000000
  70
    32
  0
VERTEX
  8
0
  5
FE0F
 10
-387.466
 20
838.302
 30
0.000000
  70
    32
  0
VERTEX
  8
0
  5
FE10
 10
-387.471
 20
838.299
 30
0.000000
  70
    32
  0
VERTEX
  8
0
  5
FE11
 10
-387.475
 20
838.297
 30
0.000000
  70
    32
  0
VERTEX
  8
0
  5
FE12
 10
-387.480
 20
838.295
 30
0.000000
  70
    32
  0
VERTEX
  8
0
  5
FE13
 10
-387.484
 20
838.292
 30
0.000000
  70
    32
  0
VERTEX
  8
0
  5
FE14
 10
-387.489
 20
838.290
 30
0.000000
  70
    32
  0
VERTEX
  8
0
  5
FE15
 10
-387.493
 20
838.288
 30
0.000000
  70
    32
  0
VERTEX
  8
0
  5
FE16
 10
-387.498
 20
838.286
 30
0.000000
  70
    32
  0
VERTEX
  8
0
  5
FE17
 10
-387.502
 20
838.284
 30
0.000000
  70
    32
  0
VERTEX
  8
0
  5
FE18
 10
-387.507
 20
838.282
 30
0.000000
  70
    32
  0
VERTEX
  8
0
  5
FE19
 10
-387.512
 20
838.280
 30
0.000000
  70
    32
  0
VERTEX
  8
0
  5
FE1A
 10
-387.517
 20
838.279
 30
0.000000
  70
    32
  0
VERTEX
  8
0
  5
FE1B
 10
-387.521
 20
838.277
 30
0.000000
  70
    32
  0
VERTEX
  8
0
  5
FE1C
 10
-387.526
 20
838.276
 30
0.000000
  70
    32
  0
VERTEX
  8
0
  5
FE1D
 10
-387.531
 20
838.274
 30
0.000000
  70
    32
  0
VERTEX
  8
0
  5
FE1E
 10
-387.536
 20
838.273
 30
0.000000
  70
    32
  0
VERTEX
  8
0
  5
FE1F
 10
-387.540
 20
838.272
 30
0.000000
  70
    32
  0
VERTEX
  8
0
  5
FE20
 10
-387.545
 20
838.271
 30
0.000000
  70
    32
  0
VERTEX
  8
0
  5
FE21
 10
-387.550
 20
838.270
 30
0.000000
  70
    32
  0
VERTEX
  8
0
  5
FE22
 10
-387.555
 20
838.269
 30
0.000000
  70
    32
  0
VERTEX
  8
0
  5
FE23
 10
-387.560
 20
838.268
 30
0.000000
  70
    32
  0
VERTEX
  8
0
  5
FE24
 10
-387.565
 20
838.267
 30
0.000000
  70
    32
  0
VERTEX
  8
0
  5
FE25
 10
-387.570
 20
838.266
 30
0.000000
  70
    32
  0
VERTEX
  8
0
  5
FE26
 10
-387.575
 20
838.265
 30
0.000000
  70
    32
  0
VERTEX
  8
0
  5
FE27
 10
-387.580
 20
838.265
 30
0.000000
  70
    32
  0
VERTEX
  8
0
  5
FE28
 10
-387.585
 20
838.264
 30
0.000000
  70
    32
  0
VERTEX
  8
0
  5
FE29
 10
-387.590
 20
838.264
 30
0.000000
  70
    32
  0
VERTEX
  8
0
  5
FE2A
 10
-387.595
 20
838.263
 30
0.000000
  70
    32
  0
VERTEX
  8
0
  5
FE2B
 10
-387.600
 20
838.263
 30
0.000000
  70
    32
  0
VERTEX
  8
0
  5
FE2C
 10
-387.605
 20
838.262
 30
0.000000
  70
    32
  0
VERTEX
  8
0
  5
FE2D
 10
-387.610
 20
838.262
 30
0.000000
  70
    32
  0
VERTEX
  8
0
  5
FE2E
 10
-387.615
 20
838.261
 30
0.000000
  70
    32
  0
VERTEX
  8
0
  5
FE2F
 10
-387.620
 20
838.261
 30
0.000000
  70
    32
  0
VERTEX
  8
0
  5
FE30
 10
-387.625
 20
838.261
 30
0.000000
  70
    32
  0
VERTEX
  8
0
  5
FE31
 10
-387.630
 20
838.260
 30
0.000000
  70
    32
  0
VERTEX
  8
0
  5
FE32
 10
-387.635
 20
838.260
 30
0.000000
  70
    32
  0
VERTEX
  8
0
  5
FE33
 10
-387.640
 20
838.260
 30
0.000000
  70
    32
  0
VERTEX
  8
0
  5
FE34
 10
-387.645
 20
838.260
 30
0.000000
  70
    32
  0
VERTEX
  8
0
  5
FE35
 10
-387.650
 20
838.259
 30
0.000000
  70
    32
  0
VERTEX
  8
0
  5
FE36
 10
-387.655
 20
838.259
 30
0.000000
  70
    32
  0
VERTEX
  8
0
  5
FE37
 10
-387.660
 20
838.259
 30
0.000000
  70
    32
  0
VERTEX
  8
0
  5
FE38
 10
-387.665
 20
838.259
 30
0.000000
  70
    32
  0
VERTEX
  8
0
  5
FE39
 10
-387.670
 20
838.258
 30
0.000000
  70
    32
  0
VERTEX
  8
0
  5
FE3A
 10
-387.675
 20
838.258
 30
0.000000
  70
    32
  0
VERTEX
  8
0
  5
FE3B
 10
-387.680
 20
838.258
 30
0.000000
  70
    32
  0
SEQEND
  8
0
  5
FE3C
  0
INSERT
  5
FB22
  8
0
  2
*U122
 10
0.0
 20
0.0
 30
0.0
  0
VIEWPORT
  5
BADA
 67
     1
  8
0
 10
5.249999665167528
 20
4.016860864854312
 30
0.0
 40
16.259362384438411
 41
8.0158201110956853
 68
     1
 69
     1
1001
ACAD
1000
MVIEW
1002
{
1070
    16
1010
0.0
1020
0.0
1030
0.0
1010
0.0
1020
0.0
1030
1.0
1040
0.0
1040
8.0158201110956853
1040
5.249999665167528
1040
4.016860864854312
1040
50.0
1040
0.0
1040
0.0
1070
     0
1070
   100
1070
     1
1070
     1
1070
     0
1070
     0
1070
     0
1070
     0
1040
0.0
1040
0.0
1040
0.0
1040
0.5
1040
0.5
1040
0.5
1040
0.5
1070
     0
1002
{
1002
}
1002
}
  0
VIEWPORT
  5
BADD
 67
     1
  8
0
 10
5.249999629487192
 20
4.0166741807634683
 30
0.0
 40
10.44245679893058
 41
7.8813805131999892
 68
     2
 69
     2
1001
ACAD
1000
MVIEW
1002
{
1070
    16
1010
0.0
1020
0.0
1030
0.0
1010
0.0
1020
0.0
1030
1.0
1040
0.0
1040
7.8813805131999892
1040
-386.95948185412709
1040
838.98450758524882
1040
50.0
1040
0.0
1040
0.0
1070
     0
1070
   100
1070
     1
1070
     2
1070
     0
1070
     0
1070
     0
1070
     0
1040
0.0
1040
0.0
1040
0.0
1040
0.5
1040
0.5
1040
0.5
1040
0.5
1070
     0
1002
{
1002
}
1002
}
  0
ENDSEC
  0
EOF
