  0
SECTION
  2
HEADER
  9
$ACADVER
  1
AC1009
  9
$INSBASE
 10
0.0
 20
0.0
 30
0.0
  9
$EXTMIN
 10
-389.93991053657271
 20
834.65667183693085
 30
0.0
  9
$EXTMAX
 10
-383.9430257495203
 20
843.05086629103664
 30
0.0
  9
$LIMMIN
 10
0.0
 20
0.0
  9
$LIMMAX
 10
1500.0
 20
1500.0
  9
$ORTHOMODE
 70
     0
  9
$REGENMODE
 70
     1
  9
$FILLMODE
 70
     1
  9
$QTEXTMODE
 70
     0
  9
$MIRRTEXT
 70
     1
  9
$DRAGMODE
 70
     2
  9
$LTSCALE
 40
1.0
  9
$OSMODE
 70
    37
  9
$ATTMODE
 70
     1
  9
$TEXTSIZE
 40
1.5
  9
$TRACEWID
 40
0.05
  9
$TEXTSTYLE
  7
STANDARD
  9
$CLAYER
  8
0
  9
$CELTYPE
  6
BYLAYER
  9
$CECOLOR
 62
   256
  9
$DIMSCALE
 40
1.0
  9
$DIMASZ
 40
0.75
  9
$DIMEXO
 40
1.5
  9
$DIMDLI
 40
2.0
  9
$DIMRND
 40
0.0
  9
$DIMDLE
 40
0.0
  9
$DIMEXE
 40
1.0
  9
$DIMTP
 40
0.0
  9
$DIMTM
 40
0.0
  9
$DIMTXT
 40
1.5
  9
$DIMCEN
 40
2.0
  9
$DIMTSZ
 40
0.0
  9
$DIMTOL
 70
     0
  9
$DIMLIM
 70
     0
  9
$DIMTIH
 70
     0
  9
$DIMTOH
 70
     0
  9
$DIMSE1
 70
     0
  9
$DIMSE2
 70
     0
  9
$DIMTAD
 70
     1
  9
$DIMZIN
 70
     0
  9
$DIMBLK
  1
ARCHTICK
  9
$DIMASO
 70
     1
  9
$DIMSHO
 70
     1
  9
$DIMPOST
  1
"
  9
$DIMAPOST
  1

  9
$DIMALT
 70
     0
  9
$DIMALTD
 70
     2
  9
$DIMALTF
 40
25.399999999999999
  9
$DIMLFAC
 40
1.0
  9
$DIMTOFL
 70
     0
  9
$DIMTVP
 40
0.0
  9
$DIMTIX
 70
     1
  9
$DIMSOXD
 70
     0
  9
$DIMSAH
 70
     0
  9
$DIMBLK1
  1

  9
$DIMBLK2
  1

  9
$DIMSTYLE
  2
THREE_QUARTER_INCH_SCALE
  9
$DIMCLRD
 70
     0
  9
$DIMCLRE
 70
     0
  9
$DIMCLRT
 70
     0
  9
$DIMTFAC
 40
1.0
  9
$DIMGAP
 40
1.0
  9
$LUNITS
 70
     2
  9
$LUPREC
 70
     4
  9
$SKETCHINC
 40
0.1
  9
$FILLETRAD
 40
0.0
  9
$AUNITS
 70
     0
  9
$AUPREC
 70
     0
  9
$MENU
  1
.
  9
$ELEVATION
 40
0.0
  9
$PELEVATION
 40
0.0
  9
$THICKNESS
 40
0.0
  9
$LIMCHECK
 70
     0
  9
$BLIPMODE
 70
     0
  9
$CHAMFERA
 40
0.5
  9
$CHAMFERB
 40
0.5
  9
$SKPOLY
 70
     0
  9
$TDCREATE
 40
2452089.395738773
  9
$TDUPDATE
 40
2453612.3445247342
  9
$TDINDWG
 40
1.0258939815000001
  9
$TDUSRTIMER
 40
1.0258936227
  9
$USRTIMER
 70
     1
  9
$ANGBASE
 50
0.0
  9
$ANGDIR
 70
     0
  9
$PDMODE
 70
     0
  9
$PDSIZE
 40
10.0
  9
$PLINEWID
 40
0.0
  9
$COORDS
 70
     1
  9
$SPLFRAME
 70
     0
  9
$SPLINETYPE
 70
     6
  9
$SPLINESEGS
 70
     8
  9
$ATTDIA
 70
     0
  9
$ATTREQ
 70
     1
  9
$HANDLING
 70
     1
  9
$HANDSEED
  5
FD95
  9
$SURFTAB1
 70
     6
  9
$SURFTAB2
 70
     6
  9
$SURFTYPE
 70
     6
  9
$SURFU
 70
     6
  9
$SURFV
 70
     6
  9
$UCSNAME
  2

  9
$UCSORG
 10
0.0
 20
0.0
 30
0.0
  9
$UCSXDIR
 10
1.0
 20
0.0
 30
0.0
  9
$UCSYDIR
 10
0.0
 20
1.0
 30
0.0
  9
$PUCSNAME
  2

  9
$PUCSORG
 10
0.0
 20
0.0
 30
0.0
  9
$PUCSXDIR
 10
1.0
 20
0.0
 30
0.0
  9
$PUCSYDIR
 10
0.0
 20
1.0
 30
0.0
  9
$USERI1
 70
     0
  9
$USERI2
 70
     0
  9
$USERI3
 70
     0
  9
$USERI4
 70
     0
  9
$USERI5
 70
     0
  9
$USERR1
 40
0.0
  9
$USERR2
 40
0.0
  9
$USERR3
 40
0.0
  9
$USERR4
 40
0.0
  9
$USERR5
 40
0.0
  9
$WORLDVIEW
 70
     1
  9
$SHADEDGE
 70
     3
  9
$SHADEDIF
 70
    70
  9
$TILEMODE
 70
     0
  9
$MAXACTVP
 70
    64
  9
$PLIMCHECK
 70
     0
  9
$PEXTMIN
 10
0.0282895744820628
 20
0.0759353784799721
 30
-0.0015258207003583
  9
$PEXTMAX
 10
10.47170975585299
 20
7.9577863512286546
 30
0.0000000349246037
  9
$PLIMMIN
 10
-0.1682389550263349
 20
-0.2033427855578579
  9
$PLIMMAX
 10
10.754640548407011
 20
8.2370640492290015
  9
$UNITMODE
 70
     0
  9
$VISRETAIN
 70
     1
  9
$PLINEGEN
 70
     0
  9
$PSLTSCALE
 70
     1
  0
ENDSEC
  0
SECTION
  2
TABLES
  0
TABLE
  2
VPORT
 70
     1
  0
VPORT
  2
*ACTIVE
 70
     0
 10
0.0
 20
0.0
 11
1.0
 21
1.0
 12
-386.52380251144001
 22
838.09204166179234
 13
0.0
 23
0.0
 14
0.5
 24
0.5
 15
0.5
 25
0.5
 16
0.0
 26
0.0
 36
1.0
 17
0.0
 27
0.0
 37
0.0
 40
3.930952126162941
 41
2.0226628895184122
 42
50.0
 43
0.0
 44
0.0
 50
0.0
 51
0.0
 71
     0
 72
   100
 73
     1
 74
     2
 75
     0
 76
     0
 77
     0
 78
     0
  0
ENDTAB
  0
TABLE
  2
LTYPE
 70
     1
  0
LTYPE
  2
CONTINUOUS
 70
     0
  3
Solid line
 72
    65
 73
     0
 40
0.0
  0
ENDTAB
  0
TABLE
  2
LAYER
 70
    10
  0
LAYER
  2
0
 70
     0
 62
     7
  6
CONTINUOUS
  0
LAYER
  2
DEFPOINTS
 70
     0
 62
     7
  6
CONTINUOUS
  0
LAYER
  2
FRAME_200
 70
     0
 62
     8
  6
CONTINUOUS
  0
LAYER
  2
FRAME_070
 70
     0
 62
     5
  6
CONTINUOUS
  0
LAYER
  2
FRAME_050
 70
     0
 62
     6
  6
CONTINUOUS
  0
LAYER
  2
TITLE_BLOCK
 70
     0
 62
     7
  6
CONTINUOUS
  0
LAYER
  2
FRAME_025
 70
     0
 62
     7
  6
CONTINUOUS
  0
LAYER
  2
VIEWPORT
 70
     0
 62
     7
  6
CONTINUOUS
  0
LAYER
  2
PROF
 70
     0
 62
     7
  6
CONTINUOUS
  0
LAYER
  2
PROFILE
 70
     0
 62
     7
  6
CONTINUOUS
  0
ENDTAB
  0
TABLE
  2
STYLE
 70
     2
  0
STYLE
  2
STANDARD
 70
     0
 40
0.0
 41
1.0
 50
0.0
 71
     0
 42
1.5
  3
txt
  4

  0
STYLE
  2
ISO_PROPORTIONAL
 70
     0
 40
0.0
 41
1.0
 50
0.0
 71
     0
 42
2.5
  3
isocp.shx
  4

  0
ENDTAB
  0
TABLE
  2
VIEW
 70
     0
  0
ENDTAB
  0
TABLE
  2
UCS
 70
     0
  0
ENDTAB
  0
TABLE
  2
APPID
 70
     6
  0
APPID
  2
ACAD
 70
     0
  0
APPID
  2
DCO15
 70
     0
  0
APPID
  2
ACAD_EXEMPT_FROM_CAD_STANDARDS
 70
     0
  0
APPID
  2
ACAD_PSEXT
 70
     0
  0
APPID
  2
CONTENTBLOCKDESCRIPTION
 70
     0
  0
APPID
  2
CONTENTBLOCKICON
 70
     0
  0
ENDTAB
  0
TABLE
  2
DIMSTYLE
 70
    10
  0
DIMSTYLE
  2
FULL_SCALE
 70
     0
  3
"
  4

  5

  6

  7

 40
1.0
 41
0.046875
 42
0.09375
 43
0.125
 44
0.0625
 45
0.0
 46
0.0
 47
0.0
 48
0.0
140
0.125
141
0.125
142
0.0
143
25.399999999999999
144
1.0
145
0.0
146
1.0
147
0.0625
 71
     0
 72
     0
 73
     0
 74
     0
 75
     0
 76
     0
 77
     1
 78
     0
170
     0
171
     2
172
     0
173
     0
174
     1
175
     0
176
     0
177
     0
178
     0
  0
DIMSTYLE
  2
HALF_SCALE
 70
     0
  3
"
  4

  5

  6

  7

 40
1.0
 41
0.09375
 42
0.1875
 43
0.25
 44
0.125
 45
0.0
 46
0.0
 47
0.0
 48
0.0
140
0.25
141
0.25
142
0.0
143
25.399999999999999
144
1.0
145
0.0
146
1.0
147
0.125
 71
     0
 72
     0
 73
     0
 74
     0
 75
     0
 76
     0
 77
     1
 78
     0
170
     0
171
     2
172
     0
173
     0
174
     1
175
     0
176
     0
177
     0
178
     0
  0
DIMSTYLE
  2
INCH_SCALE
 70
     0
  3
"
  4

  5

  6

  7

 40
1.0
 41
0.5625
 42
1.125
 43
1.5
 44
0.75
 45
0.0
 46
0.0
 47
0.0
 48
0.0
140
1.125
141
1.5
142
0.0
143
25.399999999999999
144
1.0
145
0.0
146
1.0
147
0.75
 71
     0
 72
     0
 73
     0
 74
     0
 75
     0
 76
     0
 77
     1
 78
     0
170
     0
171
     2
172
     0
173
     0
174
     1
175
     0
176
     0
177
     0
178
     0
  0
DIMSTYLE
  2
THREE_QUARTER_INCH_SCALE
 70
     0
  3
"
  4

  5

  6

  7

 40
1.0
 41
0.75
 42
1.5
 43
2.0
 44
1.0
 45
0.0
 46
0.0
 47
0.0
 48
0.0
140
1.5
141
2.0
142
0.0
143
25.399999999999999
144
1.0
145
0.0
146
1.0
147
1.0
 71
     0
 72
     0
 73
     0
 74
     0
 75
     0
 76
     0
 77
     1
 78
     0
170
     0
171
     2
172
     0
173
     0
174
     1
175
     0
176
     0
177
     0
178
     0
  0
DIMSTYLE
  2
ZHALF_INCH_SCALE
 70
     0
  3
"
  4

  5

  6

  7

 40
1.0
 41
1.125
 42
2.25
 43
3.0
 44
1.5
 45
0.0
 46
0.0
 47
0.0
 48
0.0
140
2.25
141
3.0
142
0.0
143
25.399999999999999
144
1.0
145
0.0
146
1.0
147
1.5
 71
     0
 72
     0
 73
     0
 74
     0
 75
     0
 76
     0
 77
     1
 78
     0
170
     0
171
     2
172
     0
173
     0
174
     1
175
     0
176
     0
177
     0
178
     0
  0
DIMSTYLE
  2
FULL_SCALE0
 70
     0
  3
"
  4

  5
ARCHTICK
  6

  7

 40
1.0
 41
0.046875
 42
0.09375
 43
0.125
 44
0.0625
 45
0.0
 46
0.0
 47
0.0
 48
0.0
140
0.125
141
0.125
142
0.0
143
25.399999999999999
144
1.0
145
0.0
146
1.0
147
0.0625
 71
     0
 72
     0
 73
     0
 74
     0
 75
     0
 76
     0
 77
     1
 78
     0
170
     0
171
     2
172
     0
173
     0
174
     1
175
     0
176
     0
177
     0
178
     0
  0
DIMSTYLE
  2
HALF_SCALE0
 70
     0
  3
"
  4

  5
ARCHTICK
  6

  7

 40
1.0
 41
0.09375
 42
0.1875
 43
0.25
 44
0.125
 45
0.0
 46
0.0
 47
0.0
 48
0.0
140
0.25
141
0.25
142
0.0
143
25.399999999999999
144
1.0
145
0.0
146
1.0
147
0.125
 71
     0
 72
     0
 73
     0
 74
     0
 75
     0
 76
     0
 77
     1
 78
     0
170
     0
171
     2
172
     0
173
     0
174
     1
175
     0
176
     0
177
     0
178
     0
  0
DIMSTYLE
  2
INCH_SCALE0
 70
     0
  3
"
  4

  5
ARCHTICK
  6

  7

 40
1.0
 41
0.5625
 42
1.125
 43
1.5
 44
0.75
 45
0.0
 46
0.0
 47
0.0
 48
0.0
140
1.125
141
1.5
142
0.0
143
25.399999999999999
144
1.0
145
0.0
146
1.0
147
0.75
 71
     0
 72
     0
 73
     0
 74
     0
 75
     0
 76
     0
 77
     1
 78
     0
170
     0
171
     2
172
     0
173
     0
174
     1
175
     0
176
     0
177
     0
178
     0
  0
DIMSTYLE
  2
THREE_QUARTER_INCH_SCALE0
 70
     0
  3
"
  4

  5
ARCHTICK
  6

  7

 40
1.0
 41
0.75
 42
1.5
 43
2.0
 44
1.0
 45
0.0
 46
0.0
 47
0.0
 48
0.0
140
1.5
141
2.0
142
0.0
143
25.399999999999999
144
1.0
145
0.0
146
1.0
147
1.0
 71
     0
 72
     0
 73
     0
 74
     0
 75
     0
 76
     0
 77
     1
 78
     0
170
     0
171
     2
172
     0
173
     0
174
     1
175
     0
176
     0
177
     0
178
     0
  0
DIMSTYLE
  2
ZHALF_INCH_SCALE0
 70
     0
  3
"
  4

  5
ARCHTICK
  6

  7

 40
1.0
 41
1.125
 42
2.25
 43
3.0
 44
1.5
 45
0.0
 46
0.0
 47
0.0
 48
0.0
140
2.25
141
3.0
142
0.0
143
25.399999999999999
144
1.0
145
0.0
146
1.0
147
1.5
 71
     0
 72
     0
 73
     0
 74
     0
 75
     0
 76
     0
 77
     1
 78
     0
170
     0
171
     2
172
     0
173
     0
174
     1
175
     0
176
     0
177
     0
178
     0
  0
ENDTAB
  0
ENDSEC
  0
SECTION
  2
BLOCKS
  0
BLOCK
  8
0
  2
$MODEL_SPACE
 70
     0
 10
0.0
 20
0.0
 30
0.0
  3
$MODEL_SPACE
  1

  0
ENDBLK
  5
C9DC
  8
0
  0
BLOCK
 67
     1
  8
0
  2
$PAPER_SPACE
 70
     0
 10
0.0
 20
0.0
 30
0.0
  3
$PAPER_SPACE
  1

  0
ENDBLK
  5
C9D8
 67
     1
  8
0
  0
BLOCK
  8
0
  2
_ARCHTICK
 70
     0
 10
0.0
 20
0.0
 30
0.0
  3
_ARCHTICK
  1

  0
POLYLINE
  5
158
  8
0
  6
BYBLOCK
 62
     0
 66
     1
 10
0.0
 20
0.0
 30
0.0
 40
0.15
 41
0.15
  0
VERTEX
  5
F980
  8
0
  6
BYBLOCK
 62
     0
 10
-0.5
 20
-0.5
 30
0.0
  0
VERTEX
  5
F981
  8
0
  6
BYBLOCK
 62
     0
 10
0.5
 20
0.5
 30
0.0
  0
SEQEND
  5
F982
  8
0
  6
BYBLOCK
 62
     0
  0
ENDBLK
  5
15A
  8
0
  0
BLOCK
  8
0
  2
_OPEN30
 70
     0
 10
0.0
 20
0.0
 30
0.0
  3
_OPEN30
  1

  0
LINE
  5
15C
  8
0
  6
BYBLOCK
 62
     0
 10
-1.0
 20
0.26794919
 30
0.0
 11
0.0
 21
0.0
 31
0.0
  0
LINE
  5
15D
  8
0
  6
BYBLOCK
 62
     0
 10
0.0
 20
0.0
 30
0.0
 11
-1.0
 21
-0.26794919
 31
0.0
  0
LINE
  5
15E
  8
0
  6
BYBLOCK
 62
     0
 10
0.0
 20
0.0
 30
0.0
 11
-1.0
 21
0.0
 31
0.0
  0
ENDBLK
  5
160
  8
0
  0
BLOCK
  8
0
  2
ISO_A2_TITLE_BLOCK
 70
     2
 10
0.0
 20
0.0
 30
0.0
  3
ISO_A2_TITLE_BLOCK
  1

  0
LINE
  5
BDD
  8
FRAME_050
 10
299.5
 20
12.5
 30
0.0
 11
297.0
 21
7.5
 31
0.0
  0
LINE
  5
BDE
  8
FRAME_050
 10
294.5
 20
12.5
 30
0.0
 11
299.5
 21
12.5
 31
0.0
  0
LINE
  5
BDF
  8
FRAME_050
 10
247.0
 20
5.0
 30
0.0
 11
347.0
 21
5.0
 31
0.0
  0
LINE
  5
BE0
  8
FRAME_070
 10
584.0
 20
410.0
 30
0.0
 11
10.0
 21
410.0
 31
0.0
  0
LINE
  5
BE1
  8
FRAME_070
 10
10.0
 20
10.0
 30
0.0
 11
584.0
 21
10.0
 31
0.0
  0
LINE
  5
BE2
  8
FRAME_050
 10
12.5
 20
207.5
 30
0.0
 11
7.5
 21
210.0
 31
0.0
  0
LINE
  5
BE3
  8
FRAME_050
 10
12.5
 20
212.5
 30
0.0
 11
12.5
 21
207.5
 31
0.0
  0
LINE
  5
BE4
  8
FRAME_070
 10
10.0
 20
410.0
 30
0.0
 11
10.0
 21
10.0
 31
0.0
  0
LINE
  5
BE5
  8
FRAME_200
 10
0.0
 20
0.0
 30
0.0
 11
0.0
 21
10.0
 31
0.0
  0
LINE
  5
BE6
  8
FRAME_200
 10
0.0
 20
0.0
 30
0.0
 11
10.0
 21
0.0
 31
0.0
  0
TEXT
  5
BE7
  8
FRAME_050
 10
5.9000000000000004
 20
35.0
 30
0.0
 40
4.0
  1
H
  7
ISO_PROPORTIONAL
 72
     4
 11
7.5
 21
37.0
 31
0.0
  0
LINE
  5
BE8
  8
FRAME_050
 10
10.0
 20
60.0
 30
0.0
 11
5.0
 21
60.0
 31
0.0
  0
LINE
  5
BE9
  8
FRAME_050
 10
81.75
 20
5.0
 30
0.0
 11
81.75
 21
10.0
 31
0.0
  0
TEXT
  5
BEA
  8
FRAME_050
 10
44.874999999999993
 20
5.5
 30
0.0
 40
4.0
  1
1
  7
ISO_PROPORTIONAL
 72
     4
 11
45.875
 21
7.5
 31
0.0
  0
TEXT
  5
BEB
  8
FRAME_050
 10
6.0035533905932743
 20
85.0
 30
0.0
 40
4.0
  1
G
  7
ISO_PROPORTIONAL
 72
     4
 11
7.5
 21
87.0
 31
0.0
  0
LINE
  5
BEC
  8
FRAME_050
 10
10.0
 20
110.0
 30
0.0
 11
5.0
 21
110.0
 31
0.0
  0
TEXT
  5
BED
  8
FRAME_050
 10
6.0999999999999988
 20
135.0
 30
0.0
 40
4.0
  1
F
  7
ISO_PROPORTIONAL
 72
     4
 11
7.5
 21
137.0
 31
0.0
  0
LINE
  5
BEE
  8
FRAME_050
 10
10.0
 20
160.0
 30
0.0
 11
5.0
 21
160.0
 31
0.0
  0
TEXT
  5
BEF
  8
FRAME_050
 10
6.0999999999999988
 20
185.0
 30
0.0
 40
4.0
  1
E
  7
ISO_PROPORTIONAL
 72
     4
 11
7.5
 21
187.0
 31
0.0
  0
LINE
  5
BF0
  8
FRAME_050
 10
153.5
 20
5.0
 30
0.0
 11
153.5
 21
10.0
 31
0.0
  0
TEXT
  5
BF1
  8
FRAME_050
 10
116.1556692913386
 20
5.3996062992125982
 30
0.0
 40
4.0
  1
2
  7
ISO_PROPORTIONAL
 72
     4
 11
117.625
 21
7.5
 31
0.0
  0
TEXT
  5
BF2
  8
FRAME_050
 10
187.89215728752529
 20
5.5828427124746138
 30
0.0
 40
4.0
  1
3
  7
ISO_PROPORTIONAL
 72
     4
 11
189.375
 21
7.5
 31
0.0
  0
LINE
  5
BF3
  8
FRAME_050
 10
225.25
 20
5.0
 30
0.0
 11
225.25
 21
10.0
 31
0.0
  0
LINE
  5
BF4
  8
FRAME_050
 10
297.0
 20
7.5
 30
0.0
 11
294.5
 21
12.5
 31
0.0
  0
LINE
  5
BF5
  8
FRAME_050
 10
287.0
 20
5.0
 30
0.0
 11
287.0
 21
10.0
 31
0.0
  0
LINE
  5
BF6
  8
FRAME_050
 10
277.0
 20
5.0
 30
0.0
 11
277.0
 21
10.0
 31
0.0
  0
LINE
  5
BF7
  8
FRAME_050
 10
267.0
 20
5.0
 30
0.0
 11
267.0
 21
10.0
 31
0.0
  0
LINE
  5
BF8
  8
FRAME_050
 10
257.0
 20
5.0
 30
0.0
 11
257.0
 21
10.0
 31
0.0
  0
LINE
  5
BF9
  8
FRAME_050
 10
247.0
 20
5.0
 30
0.0
 11
247.0
 21
10.0
 31
0.0
  0
LINE
  5
BFA
  8
FRAME_050
 10
297.0
 20
10.0
 30
0.0
 11
297.0
 21
5.0
 31
0.0
  0
LINE
  5
BFB
  8
FRAME_050
 10
297.0
 20
10.0
 30
0.0
 11
297.0
 21
15.0
 31
0.0
  0
LINE
  5
BFC
  8
FRAME_050
 10
5.0
 20
210.0
 30
0.0
 11
15.0
 21
210.0
 31
0.0
  0
LINE
  5
BFD
  8
FRAME_050
 10
7.5
 20
210.0
 30
0.0
 11
12.5
 21
212.5
 31
0.0
  0
TEXT
  5
BFE
  8
FRAME_050
 10
5.7860912703473977
 20
235.0
 30
0.0
 40
4.0
  1
D
  7
ISO_PROPORTIONAL
 72
     4
 11
7.5
 21
237.0
 31
0.0
  0
LINE
  5
BFF
  8
FRAME_050
 10
10.0
 20
260.0
 30
0.0
 11
5.0
 21
260.0
 31
0.0
  0
TEXT
  5
C00
  8
FRAME_050
 10
6.1931980515339466
 20
285.0
 30
0.0
 40
4.0
  1
C
  7
ISO_PROPORTIONAL
 72
     4
 11
7.5
 21
287.0
 31
0.0
  0
LINE
  5
C01
  8
FRAME_050
 10
10.0
 20
310.0
 30
0.0
 11
5.0
 21
310.0
 31
0.0
  0
TEXT
  5
C02
  8
FRAME_050
 10
5.8999999999999959
 20
335.0
 30
0.0
 40
4.0
  1
B
  7
ISO_PROPORTIONAL
 72
     4
 11
7.5
 21
337.0
 31
0.0
  0
LINE
  5
C03
  8
FRAME_050
 10
10.0
 20
360.0
 30
0.0
 11
5.0
 21
360.0
 31
0.0
  0
TEXT
  5
C04
  8
FRAME_050
 10
5.6999999999999993
 20
385.0
 30
0.0
 40
4.0
  1
A
  7
ISO_PROPORTIONAL
 72
     4
 11
7.5
 21
387.0
 31
0.0
  0
LINE
  5
C05
  8
FRAME_200
 10
10.0
 20
420.0
 30
0.0
 11
0.0
 21
420.0
 31
0.0
  0
LINE
  5
C06
  8
FRAME_200
 10
0.0
 20
420.0
 30
0.0
 11
0.0
 21
410.0
 31
0.0
  0
TEXT
  5
C07
  8
FRAME_050
 10
44.874999999999993
 20
410.5
 30
0.0
 40
4.0
  1
1
  7
ISO_PROPORTIONAL
 72
     4
 11
45.875
 21
412.5
 31
0.0
  0
LINE
  5
C08
  8
FRAME_050
 10
81.75
 20
410.0
 30
0.0
 11
81.75
 21
415.0
 31
0.0
  0
TEXT
  5
C09
  8
FRAME_050
 10
116.1556692913386
 20
410.39960629921262
 30
0.0
 40
4.0
  1
2
  7
ISO_PROPORTIONAL
 72
     4
 11
117.625
 21
412.5
 31
0.0
  0
LINE
  5
C0A
  8
FRAME_050
 10
153.5
 20
410.0
 30
0.0
 11
153.5
 21
415.0
 31
0.0
  0
TEXT
  5
C0B
  8
FRAME_050
 10
187.89215728752529
 20
410.58284271247459
 30
0.0
 40
4.0
  1
3
  7
ISO_PROPORTIONAL
 72
     4
 11
189.375
 21
412.5
 31
0.0
  0
LINE
  5
C0C
  8
FRAME_050
 10
297.0
 20
405.0
 30
0.0
 11
297.0
 21
415.0
 31
0.0
  0
LINE
  5
C0D
  8
FRAME_050
 10
225.25
 20
410.0
 30
0.0
 11
225.25
 21
415.0
 31
0.0
  0
TEXT
  5
C0E
  8
FRAME_050
 10
259.52499999999998
 20
410.5
 30
0.0
 40
4.0
  1
4
  7
ISO_PROPORTIONAL
 72
     4
 11
261.125
 21
412.5
 31
0.0
  0
LINE
  5
C0F
  8
FRAME_070
 10
584.0
 20
10.0
 30
0.0
 11
584.0
 21
410.0
 31
0.0
  0
ATTDEF
  5
C10
  8
FRAME_025
 10
473.0
 20
31.75
 30
0.0
 40
2.5
  1
XXX - 00/00/00
  7
ISO_PROPORTIONAL
 11
473.0
 21
33.0
 31
0.0
  3
Approved by - Date
  2
APPROVED_BY_DATE
 70
     8
 74
     2
  0
TEXT
  5
C11
  8
FRAME_025
 10
448.0
 20
41.749999999999993
 30
0.0
 40
2.5
  1
Title/Name, designation, material, dimension etc
  7
ISO_PROPORTIONAL
 11
448.0
 21
43.0
 31
0.0
 73
     2
  0
TEXT
  5
C12
  8
FRAME_025
 10
473.0
 20
35.75
 30
0.0
 40
2.5
  1
Approved by - date
  7
ISO_PROPORTIONAL
 11
473.0
 21
37.0
 31
0.0
 73
     2
  0
LINE
  5
C13
  8
FRAME_070
 10
414.0
 20
46.0
 30
0.0
 11
584.0
 21
46.0
 31
0.0
  0
LINE
  5
C14
  8
FRAME_070
 10
414.0
 20
40.0
 30
0.0
 11
584.0
 21
40.0
 31
0.0
  0
LINE
  5
C15
  8
FRAME_070
 10
414.0
 20
30.0
 30
0.0
 11
584.0
 21
30.0
 31
0.0
  0
LINE
  5
C16
  8
FRAME_050
 10
368.75
 20
5.0
 30
0.0
 11
368.75
 21
10.0
 31
0.0
  0
LINE
  5
C17
  8
FRAME_050
 10
337.0
 20
5.0
 30
0.0
 11
337.0
 21
10.0
 31
0.0
  0
LINE
  5
C18
  8
FRAME_050
 10
327.0
 20
5.0
 30
0.0
 11
327.0
 21
10.0
 31
0.0
  0
LINE
  5
C19
  8
FRAME_050
 10
317.0
 20
5.0
 30
0.0
 11
317.0
 21
10.0
 31
0.0
  0
LINE
  5
C1A
  8
FRAME_050
 10
307.0
 20
5.0
 30
0.0
 11
307.0
 21
10.0
 31
0.0
  0
LINE
  5
C1B
  8
FRAME_050
 10
347.0
 20
5.0
 30
0.0
 11
347.0
 21
10.0
 31
0.0
  0
LINE
  5
C1C
  8
FRAME_050
 10
440.5
 20
5.0
 30
0.0
 11
440.5
 21
10.0
 31
0.0
  0
TEXT
  5
C1D
  8
FRAME_050
 10
403.24547244094481
 20
5.4102362204724406
 30
0.0
 40
4.0
  1
6
  7
ISO_PROPORTIONAL
 72
     4
 11
404.62499999999989
 21
7.5
 31
0.0
  0
TEXT
  5
C1E
  8
FRAME_050
 10
474.97499999999991
 20
5.5
 30
0.0
 40
4.0
  1
7
  7
ISO_PROPORTIONAL
 72
     4
 11
476.37499999999989
 21
7.5
 31
0.0
  0
TEXT
  5
C1F
  8
FRAME_025
 10
431.0
 20
41.749999999999993
 30
0.0
 40
2.5
  1
Quantity
  7
ISO_PROPORTIONAL
 11
431.0
 21
43.0
 31
0.0
 73
     2
  0
TEXT
  5
C20
  8
FRAME_025
 10
416.0
 20
41.749999999999993
 30
0.0
 40
2.5
  1
Itemref
  7
ISO_PROPORTIONAL
 11
416.0
 21
43.0
 31
0.0
 73
     2
  0
LINE
  5
C21
  8
FRAME_070
 10
414.0
 20
40.0
 30
0.0
 11
414.0
 21
46.0
 31
0.0
  0
LINE
  5
C22
  8
FRAME_070
 10
429.0
 20
40.0
 30
0.0
 11
429.0
 21
46.0
 31
0.0
  0
LINE
  5
C23
  8
FRAME_070
 10
414.0
 20
10.0
 30
0.0
 11
414.0
 21
40.0
 31
0.0
  0
ATTDEF
  5
C24
  8
FRAME_025
 10
416.0
 20
31.75
 30
0.0
 40
2.5
  1
XXX
  7
ISO_PROPORTIONAL
 11
416.0
 21
33.0
 31
0.0
  3
Designed by
  2
DESIGNED_BY
 70
     8
 74
     2
  0
TEXT
  5
C25
  8
FRAME_025
 10
416.0
 20
35.75
 30
0.0
 40
2.5
  1
Designed by
  7
ISO_PROPORTIONAL
 11
416.0
 21
37.0
 31
0.0
 73
     2
  0
LINE
  5
C26
  8
FRAME_070
 10
446.0
 20
40.0
 30
0.0
 11
446.0
 21
46.0
 31
0.0
  0
ATTDEF
  5
C27
  8
FRAME_025
 10
448.0
 20
31.75
 30
0.0
 40
2.5
  1
XXX
  7
ISO_PROPORTIONAL
 11
448.0
 21
33.0
 31
0.0
  3
Checked by
  2
CHECKED_BY
 70
     8
 74
     2
  0
TEXT
  5
C28
  8
FRAME_025
 10
448.0
 20
35.75
 30
0.0
 40
2.5
  1
Checked by
  7
ISO_PROPORTIONAL
 11
448.0
 21
37.0
 31
0.0
 73
     2
  0
ATTDEF
  5
C29
  8
FRAME_050
 10
444.74999999999989
 20
17.5
 30
0.0
 40
5.0
  1
XXX
  7
ISO_PROPORTIONAL
 72
     4
 11
451.49999999999989
 21
20.0
 31
0.0
  3
Owner
  2
OWNER
 70
     8
  0
LINE
  5
C2A
  8
FRAME_070
 10
446.0
 20
30.0
 30
0.0
 11
446.0
 21
40.0
 31
0.0
  0
LINE
  5
C2B
  8
FRAME_070
 10
471.0
 20
30.0
 30
0.0
 11
471.0
 21
40.0
 31
0.0
  0
LINE
  5
C2C
  8
FRAME_070
 10
489.0
 20
20.0
 30
0.0
 11
584.0
 21
20.0
 31
0.0
  0
LINE
  5
C2D
  8
FRAME_050
 10
512.25
 20
5.0
 30
0.0
 11
512.25
 21
10.0
 31
0.0
  0
TEXT
  5
C2E
  8
FRAME_050
 10
546.72499999999991
 20
5.5
 30
0.0
 40
4.0
  1
8
  7
ISO_PROPORTIONAL
 72
     4
 11
548.125
 21
7.5
 31
0.0
  0
ATTDEF
  5
C2F
  8
FRAME_050
 10
517.64999999999986
 20
13.5
 30
0.0
 40
3.0
  1
X
  7
ISO_PROPORTIONAL
 72
     4
 11
519.0
 21
15.0
 31
0.0
  3
Drawing number
  2
DRAWING_NUMBER
 70
     8
  0
ATTDEF
  5
C30
  8
FRAME_050
 10
529.75
 20
22.5
 30
0.0
 40
5.0
  1
XXX
  7
ISO_PROPORTIONAL
 72
     4
 11
536.5
 21
25.0
 31
0.0
  3
Title / Name
  2
TITLE
 70
     8
  0
LINE
  5
C31
  8
FRAME_070
 10
489.0
 20
10.0
 30
0.0
 11
489.0
 21
30.0
 31
0.0
  0
ATTDEF
  5
C32
  8
FRAME_025
 10
511.0
 20
31.75
 30
0.0
 40
2.5
  1
XXX
  7
ISO_PROPORTIONAL
 11
511.0
 21
33.0
 31
0.0
  3
Filename
  2
FILENAME
 70
     8
 74
     2
  0
TEXT
  5
C33
  8
FRAME_025
 10
511.0
 20
35.75
 30
0.0
 40
2.5
  1
Filename
  7
ISO_PROPORTIONAL
 11
511.0
 21
37.0
 31
0.0
 73
     2
  0
LINE
  5
C34
  8
FRAME_070
 10
509.0
 20
30.0
 30
0.0
 11
509.0
 21
40.0
 31
0.0
  0
TEXT
  5
C35
  8
FRAME_025
 10
536.0
 20
41.749999999999993
 30
0.0
 40
2.5
  1
Article No./Reference
  7
ISO_PROPORTIONAL
 11
536.0
 21
43.0
 31
0.0
 73
     2
  0
LINE
  5
C36
  8
FRAME_070
 10
534.0
 20
40.0
 30
0.0
 11
534.0
 21
46.0
 31
0.0
  0
ATTDEF
  5
C37
  8
FRAME_025
 10
551.0
 20
11.75
 30
0.0
 40
2.5
  1
0
  7
ISO_PROPORTIONAL
 11
551.0
 21
13.0
 31
0.0
  3
Edition
  2
EDITION
 70
     8
 74
     2
  0
TEXT
  5
C38
  8
FRAME_025
 10
551.0
 20
15.75
 30
0.0
 40
2.5
  1
Edition
  7
ISO_PROPORTIONAL
 11
551.0
 21
17.0
 31
0.0
 73
     2
  0
LINE
  5
C39
  8
FRAME_070
 10
549.0
 20
10.0
 30
0.0
 11
549.0
 21
20.0
 31
0.0
  0
ATTDEF
  5
C3A
  8
FRAME_025
 10
536.0
 20
31.75
 30
0.0
 40
2.5
  1
00/00/00
  7
ISO_PROPORTIONAL
 11
536.0
 21
33.0
 31
0.0
  3
Date
  2
DATE
 70
     8
 74
     2
  0
TEXT
  5
C3B
  8
FRAME_025
 10
536.0
 20
35.75
 30
0.0
 40
2.5
  1
Date
  7
ISO_PROPORTIONAL
 11
536.0
 21
37.0
 31
0.0
 73
     2
  0
LINE
  5
C3C
  8
FRAME_070
 10
534.0
 20
30.0
 30
0.0
 11
534.0
 21
40.0
 31
0.0
  0
ATTDEF
  5
C3D
  8
FRAME_025
 10
566.0
 20
11.75
 30
0.0
 40
2.5
  1
1/1
  7
ISO_PROPORTIONAL
 11
566.0
 21
13.0
 31
0.0
  3
Sheet
  2
SHEET
 70
     8
 74
     2
  0
TEXT
  5
C3E
  8
FRAME_025
 10
566.0
 20
15.75
 30
0.0
 40
2.5
  1
Sheet
  7
ISO_PROPORTIONAL
 11
566.0
 21
17.0
 31
0.0
 73
     2
  0
LINE
  5
C3F
  8
FRAME_070
 10
564.0
 20
10.0
 30
0.0
 11
564.0
 21
20.0
 31
0.0
  0
ATTDEF
  5
C40
  8
FRAME_025
 10
566.0
 20
31.75
 30
0.0
 40
2.5
  1
1:1
  7
ISO_PROPORTIONAL
 11
566.0
 21
33.0
 31
0.0
  3
Scale
  2
SCALE
 70
     8
 74
     2
  0
TEXT
  5
C41
  8
FRAME_025
 10
566.0
 20
35.75
 30
0.0
 40
2.5
  1
Scale
  7
ISO_PROPORTIONAL
 11
566.0
 21
37.0
 31
0.0
 73
     2
  0
LINE
  5
C42
  8
FRAME_070
 10
564.0
 20
30.0
 30
0.0
 11
564.0
 21
40.0
 31
0.0
  0
LINE
  5
C43
  8
FRAME_200
 10
594.0
 20
0.0
 30
0.0
 11
594.0
 21
10.0
 31
0.0
  0
LINE
  5
C44
  8
FRAME_200
 10
594.0
 20
0.0
 30
0.0
 11
584.0
 21
0.0
 31
0.0
  0
TEXT
  5
C45
  8
FRAME_050
 10
584.89999999999998
 20
35.0
 30
0.0
 40
4.0
  1
H
  7
ISO_PROPORTIONAL
 72
     4
 11
586.5
 21
37.0
 31
0.0
  0
LINE
  5
C46
  8
FRAME_050
 10
589.0
 20
60.0
 30
0.0
 11
584.0
 21
60.0
 31
0.0
  0
TEXT
  5
C47
  8
FRAME_050
 10
585.0035533905932
 20
85.0
 30
0.0
 40
4.0
  1
G
  7
ISO_PROPORTIONAL
 72
     4
 11
586.5
 21
87.0
 31
0.0
  0
LINE
  5
C48
  8
FRAME_050
 10
589.0
 20
110.0
 30
0.0
 11
584.0
 21
110.0
 31
0.0
  0
TEXT
  5
C49
  8
FRAME_050
 10
585.09999999999991
 20
135.0
 30
0.0
 40
4.0
  1
F
  7
ISO_PROPORTIONAL
 72
     4
 11
586.5
 21
137.0
 31
0.0
  0
LINE
  5
C4A
  8
FRAME_050
 10
589.0
 20
160.0
 30
0.0
 11
584.0
 21
160.0
 31
0.0
  0
TEXT
  5
C4B
  8
FRAME_050
 10
585.09999999999991
 20
185.0
 30
0.0
 40
4.0
  1
E
  7
ISO_PROPORTIONAL
 72
     4
 11
586.5
 21
187.0
 31
0.0
  0
LINE
  5
C4C
  8
FRAME_070
 10
414.0
 20
404.0
 30
0.0
 11
584.0
 21
404.0
 31
0.0
  0
TEXT
  5
C4D
  8
FRAME_050
 10
331.39215728752538
 20
410.58284271247459
 30
0.0
 40
4.0
  1
5
  7
ISO_PROPORTIONAL
 72
     4
 11
332.875
 21
412.5
 31
0.0
  0
LINE
  5
C4E
  8
FRAME_050
 10
368.75
 20
410.0
 30
0.0
 11
368.75
 21
415.0
 31
0.0
  0
TEXT
  5
C4F
  8
FRAME_025
 10
428.0
 20
405.75
 30
0.0
 40
2.5
  1
Revision note
  7
ISO_PROPORTIONAL
 11
428.0
 21
407.0
 31
0.0
 73
     2
  0
TEXT
  5
C50
  8
FRAME_025
 10
416.0
 20
405.75
 30
0.0
 40
2.5
  1
RevNo
  7
ISO_PROPORTIONAL
 11
416.0
 21
407.0
 31
0.0
 73
     2
  0
LINE
  5
C51
  8
FRAME_070
 10
426.0
 20
404.0
 30
0.0
 11
426.0
 21
410.0
 31
0.0
  0
LINE
  5
C52
  8
FRAME_070
 10
414.0
 20
404.0
 30
0.0
 11
414.0
 21
410.0
 31
0.0
  0
TEXT
  5
C53
  8
FRAME_050
 10
403.24547244094481
 20
410.41023622047243
 30
0.0
 40
4.0
  1
6
  7
ISO_PROPORTIONAL
 72
     4
 11
404.62499999999989
 21
412.5
 31
0.0
  0
LINE
  5
C54
  8
FRAME_050
 10
440.5
 20
410.0
 30
0.0
 11
440.5
 21
415.0
 31
0.0
  0
TEXT
  5
C55
  8
FRAME_050
 10
474.97499999999991
 20
410.5
 30
0.0
 40
4.0
  1
7
  7
ISO_PROPORTIONAL
 72
     4
 11
476.37499999999989
 21
412.5
 31
0.0
  0
LINE
  5
C56
  8
FRAME_050
 10
579.0
 20
210.0
 30
0.0
 11
589.0
 21
210.0
 31
0.0
  0
TEXT
  5
C57
  8
FRAME_050
 10
584.78609127034736
 20
235.0
 30
0.0
 40
4.0
  1
D
  7
ISO_PROPORTIONAL
 72
     4
 11
586.5
 21
237.0
 31
0.0
  0
LINE
  5
C58
  8
FRAME_050
 10
589.0
 20
260.0
 30
0.0
 11
584.0
 21
260.0
 31
0.0
  0
TEXT
  5
C59
  8
FRAME_050
 10
585.19319805153395
 20
285.0
 30
0.0
 40
4.0
  1
C
  7
ISO_PROPORTIONAL
 72
     4
 11
586.5
 21
287.0
 31
0.0
  0
LINE
  5
C5A
  8
FRAME_050
 10
589.0
 20
310.0
 30
0.0
 11
584.0
 21
310.0
 31
0.0
  0
TEXT
  5
C5B
  8
FRAME_050
 10
584.89999999999998
 20
335.0
 30
0.0
 40
4.0
  1
B
  7
ISO_PROPORTIONAL
 72
     4
 11
586.5
 21
337.0
 31
0.0
  0
TEXT
  5
C5C
  8
FRAME_025
 10
571.08299391850551
 20
405.75
 30
0.0
 40
2.5
  1
Checked
  7
ISO_PROPORTIONAL
 11
571.08299391850551
 21
407.0
 31
0.0
 73
     2
  0
TEXT
  5
C5D
  8
FRAME_025
 10
555.36099797283521
 20
405.75
 30
0.0
 40
2.5
  1
Signature
  7
ISO_PROPORTIONAL
 11
555.36099797283521
 21
407.0
 31
0.0
 73
     2
  0
TEXT
  5
C5E
  8
FRAME_025
 10
537.0
 20
405.75
 30
0.0
 40
2.5
  1
Date
  7
ISO_PROPORTIONAL
 11
537.0
 21
407.0
 31
0.0
 73
     2
  0
LINE
  5
C5F
  8
FRAME_070
 10
570.0
 20
404.0
 30
0.0
 11
570.0
 21
410.0
 31
0.0
  0
LINE
  5
C60
  8
FRAME_070
 10
555.0
 20
404.0
 30
0.0
 11
555.0
 21
410.0
 31
0.0
  0
LINE
  5
C61
  8
FRAME_070
 10
535.0
 20
404.0
 30
0.0
 11
535.0
 21
410.0
 31
0.0
  0
LINE
  5
C62
  8
FRAME_050
 10
512.25
 20
410.0
 30
0.0
 11
512.25
 21
415.0
 31
0.0
  0
TEXT
  5
C63
  8
FRAME_050
 10
546.72499999999991
 20
410.5
 30
0.0
 40
4.0
  1
8
  7
ISO_PROPORTIONAL
 72
     4
 11
548.125
 21
412.5
 31
0.0
  0
LINE
  5
C64
  8
FRAME_050
 10
589.0
 20
360.0
 30
0.0
 11
584.0
 21
360.0
 31
0.0
  0
TEXT
  5
C65
  8
FRAME_050
 10
584.70000000000005
 20
385.0
 30
0.0
 40
4.0
  1
A
  7
ISO_PROPORTIONAL
 72
     4
 11
586.5
 21
387.0
 31
0.0
  0
LINE
  5
C66
  8
FRAME_200
 10
594.0
 20
420.0
 30
0.0
 11
584.0
 21
420.0
 31
0.0
  0
LINE
  5
C67
  8
FRAME_200
 10
594.0
 20
410.0
 30
0.0
 11
594.0
 21
420.0
 31
0.0
  0
ENDBLK
  5
C69
  8
0
  0
BLOCK
  8
0
  2
WOBB001END
 70
     0
 10
0.0
 20
0.0
 30
0.0
  3
WOBB001END
  1

  0
LINE
  5
4D66
  8
0
  6
CONTINUOUS
 10
0.0
 20
0.0
 30
0.0
 11
0.8749999999999998
 21
0.0
 31
0.0
  0
ARC
  5
4D67
  8
0
  6
CONTINUOUS
 10
0.0331648379439287
 20
-0.5087238935900234
 30
0.0
 40
0.8790130605592325
 50
284.06490243660443
 51
312.19222981924361
  0
ARC
  5
4D68
  8
0
  6
CONTINUOUS
 10
0.2841534338796767
 20
-1.510548310625538
 30
0.0
 40
0.1537731892806598
 50
104.0649024366044
 51
179.4721730735024
  0
LINE
  5
4D69
  8
0
  6
CONTINUOUS
 10
0.0
 20
0.0
 30
0.0
 11
-0.0000000000000003
 21
-1.7501564476661911
 31
0.0
  0
ARC
  5
4D6A
  8
0
  6
CONTINUOUS
 10
0.1404622019506122
 20
-1.630313718354619
 30
0.0
 40
0.1198427293115722
 50
275.0
 51
85.000000000000057
  0
LINE
  5
4D6B
  8
0
  6
CONTINUOUS
 10
-0.0000000000000003
 20
-1.7501564476661911
 30
0.0
 11
0.1456946485130855
 21
-1.7501564476661911
 31
0.0
  0
LINE
  5
4D6C
  8
0
  6
CONTINUOUS
 10
0.1377603739254348
 20
-1.7508506067459131
 30
0.0
 11
0.150907184036669
 21
-1.7497004098996509
 31
0.0
  0
LINE
  5
4D6D
  8
0
  6
CONTINUOUS
 10
0.1303867696719884
 20
-1.5091317231818231
 30
0.0
 11
0.1509071840366689
 21
-1.510927026809586
 31
0.0
  0
LINE
  5
4D6E
  8
0
  6
CONTINUOUS
 10
0.8749999999999998
 20
0.0
 30
0.0
 11
0.8749999999999996
 21
-0.8649327026588228
 31
0.0
  0
LINE
  5
4D6F
  8
0
  6
CONTINUOUS
 10
0.727014513830997
 20
-0.872688293355061
 30
0.0
 11
0.727014513830997
 21
-0.9264923397184784
 31
0.0
  0
ARC
  5
4D70
  8
0
  6
CONTINUOUS
 10
0.41187090827646
 20
-0.9264923397184784
 30
0.0
 40
0.3151436055545369
 50
312.19222981924361
 51
0.0
  0
LINE
  5
4D71
  8
0
  6
CONTINUOUS
 10
0.727014513830997
 20
-0.872688293355061
 30
0.0
 11
0.8749999999999996
 21
-0.8649327026588228
 31
0.0
  0
ENDBLK
  5
4D72
  8
0
  0
BLOCK
  8
0
  2
A$C0A61123B
 70
     0
 10
0.0
 20
0.0
 30
0.0
  3
A$C0A61123B
  1

  0
LINE
  5
C0AD
  8
PROF
  6
CONTINUOUS
 10
4.9012016798694162
 20
13.325025853350891
 30
0.0000000000000002
 11
4.9012016798694162
 21
12.88585218805485
 31
0.0000000000000003
  0
INSERT
  5
C0AE
  8
0
  2
*U7
 10
0.0
 20
0.0
 30
0.0
  0
LINE
  5
C0AF
  8
PROF
 10
4.519857503186925
 20
12.72227734589444
 30
0.0000000000000001
 11
4.519857503186925
 21
12.88585218805485
 31
0.0000000000000001
  0
LINE
  5
C0B0
  8
PROF
  6
CONTINUOUS
 10
3.6306271195888362
 20
13.325025853350891
 30
0.0000000000000002
 11
4.9012016798694162
 21
13.325025853350891
 31
0.0000000000000002
  0
LINE
  5
C0B1
  8
PROF
 10
1.9750295148747341
 20
10.37671325491794
 30
0.0000000000000002
 11
1.9750295148747341
 21
10.11391186758919
 31
0.0000000000000002
  0
LINE
  5
C0B2
  8
PROF
 10
1.6079673357556299
 20
10.11391186758919
 30
0.0000000000000001
 11
1.9750295148747341
 21
10.11391186758919
 31
0.0000000000000001
  0
LINE
  5
C0B3
  8
PROF
 10
1.9750295148747341
 20
10.11391186758919
 30
0.0000000000000001
 11
1.944958486898144
 21
10.11391186758919
 31
0.0000000000000001
  0
LINE
  5
C0B4
  8
PROF
 10
1.9750295148747341
 20
10.11391186758919
 30
0.0000000000000001
 11
1.944958486898144
 21
10.11391186758919
 31
0.0000000000000001
  0
LINE
  5
C0B5
  8
PROF
 10
0.3222605517169654
 20
7.5247473351056451
 30
-0.0000000000000002
 11
-0.0000008570117416
 21
7.5247473351056451
 31
0.0
  0
LINE
  5
C0B6
  8
PROF
 10
-0.0000008570117416
 20
7.5247473351056451
 30
0.0
 11
-0.0000008570117416
 21
9.1943336957369848
 31
0.0
  0
POLYLINE
  5
C0B7
  8
PROF
 66
     1
 10
0.0
 20
0.0
 30
0.0000000000000001
 70
     4
 75
     6
  0
VERTEX
  5
C0B8
  8
PROF
 10
1.6079673357556299
 20
10.11391186758919
 30
0.0000000000000001
 70
    16
  0
VERTEX
  5
C0B9
  8
PROF
 10
1.6079673357556299
 20
10.11391186758919
 30
0.0000000000000001
 70
     8
  0
VERTEX
  5
C0BA
  8
PROF
 10
1.6468132326485809
 20
10.02198069336111
 30
0.0000000000000001
 70
     8
  0
VERTEX
  5
C0BB
  8
PROF
 10
1.67335966680929
 20
9.9344134163010231
 30
0.0000000000000001
 70
     8
  0
VERTEX
  5
C0BC
  8
PROF
 10
1.6890086400463229
 20
9.8512576644480951
 30
0.0000000000000001
 70
     8
  0
VERTEX
  5
C0BD
  8
PROF
 10
1.6951621541682571
 20
9.7725610658417281
 30
0.0000000000000001
 70
     8
  0
VERTEX
  5
C0BE
  8
PROF
 10
1.693222210983605
 20
9.6983712485214237
 30
0.0000000000000001
 70
     8
  0
VERTEX
  5
C0BF
  8
PROF
 10
1.6845908123009961
 20
9.6287358405263603
 30
0.0000000000000001
 70
     8
  0
VERTEX
  5
C0C0
  8
PROF
 10
1.670669959928885
 20
9.5637024698960431
 30
0.0000000000000001
 70
     8
  0
VERTEX
  5
C0C1
  8
PROF
 10
1.6528616556759621
 20
9.5033187646697552
 30
0.0000000000000001
 70
     8
  0
VERTEX
  5
C0C2
  8
PROF
 10
1.632356299273054
 20
9.4475843259650691
 30
0.0000000000000001
 70
     8
  0
VERTEX
  5
C0C3
  8
PROF
 10
1.609497882140658
 20
9.3963066472123273
 30
0.0000000000000001
 70
     8
  0
VERTEX
  5
C0C4
  8
PROF
 10
1.584418793621637
 20
9.3492451949202842
 30
0.0000000000000001
 70
     8
  0
VERTEX
  5
C0C5
  8
PROF
 10
1.5572514230587431
 20
9.3061594355972357
 30
0.0000000000000001
 70
     8
  0
VERTEX
  5
C0C6
  8
PROF
 10
1.5281281597949601
 20
9.2668088357519274
 30
0.0000000000000001
 70
     8
  0
VERTEX
  5
C0C7
  8
PROF
 10
1.497181393172978
 20
9.2309528618929981
 30
0.0000000000000001
 70
     8
  0
VERTEX
  5
C0C8
  8
PROF
 10
1.4645435125357249
 20
9.1983509805288541
 30
0.0000000000000001
 70
     8
  0
VERTEX
  5
C0C9
  8
PROF
 10
1.4303469072260091
 20
9.1687626581682462
 30
0.0000000000000001
 70
     8
  0
VERTEX
  5
C0CA
  8
PROF
 10
1.394736033257401
 20
9.1419547918675335
 30
0.0000000000000001
 70
     8
  0
VERTEX
  5
C0CB
  8
PROF
 10
1.3579036133264131
 20
9.1177240008747713
 30
0.0000000000000001
 70
     8
  0
VERTEX
  5
C0CC
  8
PROF
 10
1.3200544368004321
 20
9.0958743349860924
 30
0.0000000000000001
 70
     8
  0
VERTEX
  5
C0CD
  8
PROF
 10
1.281393293046676
 20
9.0762098439975034
 30
0.0000000000000001
 70
     8
  0
VERTEX
  5
C0CE
  8
PROF
 10
1.2421249714324161
 20
9.0585345777049042
 30
0.0000000000000001
 70
     8
  0
VERTEX
  5
C0CF
  8
PROF
 10
1.202454261324986
 20
9.0426525859044187
 30
0.0000000000000001
 70
     8
  0
VERTEX
  5
C0D0
  8
PROF
 10
1.162585952091659
 20
9.0283679183919503
 30
0.0000000000000001
 70
     8
  0
VERTEX
  5
C0D1
  8
PROF
 10
1.1227248330997091
 20
9.0154846249635021
 30
0.0000000000000001
 70
     8
  0
VERTEX
  5
C0D2
  8
PROF
 10
1.0829726247361
 20
9.0034643862466055
 30
0.0000000000000001
 70
     8
  0
VERTEX
  5
C0D3
  8
PROF
 10
1.043018771466222
 20
8.9903994061946833
 30
0.0000000000000001
 70
     8
  0
VERTEX
  5
C0D4
  8
PROF
 10
1.002449648775211
 20
8.9740395195925622
 30
0.0000000000000001
 70
     8
  0
VERTEX
  5
C0D5
  8
PROF
 10
0.9608516321480919
 20
8.9521345612251935
 30
0.0000000000000001
 70
     8
  0
VERTEX
  5
C0D6
  8
PROF
 10
0.9178110970699435
 20
8.9224343658775052
 30
0.0000000000000001
 70
     8
  0
VERTEX
  5
C0D7
  8
PROF
 10
0.8729144190259033
 20
8.8826887683343312
 30
0.0000000000000001
 70
     8
  0
VERTEX
  5
C0D8
  8
PROF
 10
0.8257479735009949
 20
8.8306476033806121
 30
0.0000000000000001
 70
     8
  0
VERTEX
  5
C0D9
  8
PROF
 10
0.7758981359802988
 20
8.764060705801171
 30
0.0000000000000001
 70
     8
  0
VERTEX
  5
C0DA
  8
PROF
 10
1.7292019016096549
 20
9.8629858761255491
 30
0.0000000000000001
 70
    16
  0
VERTEX
  5
C0DB
  8
PROF
 10
1.679373123114088
 20
9.4532143012734213
 30
0.0000000000000001
 70
    16
  0
VERTEX
  5
C0DC
  8
PROF
 10
1.4455611507419801
 20
9.1391837193732481
 30
0.0000000000000001
 70
    16
  0
VERTEX
  5
C0DD
  8
PROF
 10
1.1204637172738201
 20
9.0026267702428413
 30
0.0000000000000001
 70
    16
  0
VERTEX
  5
C0DE
  8
PROF
 10
0.9127765582653638
 20
8.9630202230383702
 30
0.0000000000000001
 70
    16
  0
VERTEX
  5
C0DF
  8
PROF
 10
0.7758981359802988
 20
8.764060705801171
 30
0.0000000000000001
 70
    16
  0
SEQEND
  5
C0E0
  8
PROF
  0
ARC
  5
C0E1
  8
PROF
 10
0.733429816733235
 20
8.4849506952165257
 30
0.0000000000000001
 40
0.2823224329524727
 50
269.73652020831901
 51
81.348449993176914
  0
LINE
  5
C0E2
  8
PROF
  6
CONTINUOUS
 10
-0.0000008570117416
 20
9.1943336957369848
 30
-0.0000000000000001
 11
3.6306271195888362
 21
13.325025853350891
 31
0.0000000000000002
  0
POLYLINE
  5
C0E3
  8
PROF
 66
     1
 10
0.0
 20
0.0
 30
0.0000000000000001
 70
     4
 75
     6
  0
VERTEX
  5
C0E4
  8
PROF
 10
4.519857503186925
 20
12.72227734589444
 30
0.0000000000000001
 70
    16
  0
VERTEX
  5
C0E5
  8
PROF
 10
4.519857503186925
 20
12.72227734589444
 30
0.0000000000000001
 70
     8
  0
VERTEX
  5
C0E6
  8
PROF
 10
4.4467035366886289
 20
12.741128108778071
 30
0.0000000000000001
 70
     8
  0
VERTEX
  5
C0E7
  8
PROF
 10
4.3786645761268801
 20
12.754675269913941
 30
0.0000000000000001
 70
     8
  0
VERTEX
  5
C0E8
  8
PROF
 10
4.3154364111440469
 20
12.76334314092332
 30
0.0000000000000001
 70
     8
  0
VERTEX
  5
C0E9
  8
PROF
 10
4.256714831382566
 20
12.76755603342724
 30
0.0000000000000001
 70
     8
  0
VERTEX
  5
C0EA
  8
PROF
 10
4.2021956264849791
 20
12.76773825904672
 30
0.0000000000000001
 70
     8
  0
VERTEX
  5
C0EB
  8
PROF
 10
4.1515745860935436
 20
12.764314129403139
 30
0.0000000000000001
 70
     8
  0
VERTEX
  5
C0EC
  8
PROF
 10
4.1045474998508649
 20
12.75770795611743
 30
0.0000000000000001
 70
     8
  0
VERTEX
  5
C0ED
  8
PROF
 10
4.0608101573993149
 20
12.748344050810831
 30
0.0000000000000001
 70
     8
  0
VERTEX
  5
C0EE
  8
PROF
 10
4.0200583483813261
 20
12.736646725104491
 30
0.0000000000000001
 70
     8
  0
VERTEX
  5
C0EF
  8
PROF
 10
3.981987862439381
 20
12.72304029061945
 30
0.0000000000000001
 70
     8
  0
VERTEX
  5
C0F0
  8
PROF
 10
3.946294489215858
 20
12.707949058976959
 30
0.0000000000000001
 70
     8
  0
VERTEX
  5
C0F1
  8
PROF
 10
3.912674018353242
 20
12.691797341798059
 30
0.0000000000000001
 70
     8
  0
VERTEX
  5
C0F2
  8
PROF
 10
3.8808638350742499
 20
12.67494295718654
 30
0.0000000000000001
 70
     8
  0
VERTEX
  5
C0F3
  8
PROF
 10
3.850767706922738
 20
12.65747774917668
 30
0.0000000000000001
 70
     8
  0
VERTEX
  5
C0F4
  8
PROF
 10
3.8223309970228438
 20
12.639427068285499
 30
0.0000000000000001
 70
     8
  0
VERTEX
  5
C0F5
  8
PROF
 10
3.795499068498712
 20
12.62081626503004
 30
0.0000000000000001
 70
     8
  0
VERTEX
  5
C0F6
  8
PROF
 10
3.7702172844744819
 20
12.601670689926999
 30
0.0000000000000001
 70
     8
  0
VERTEX
  5
C0F7
  8
PROF
 10
3.7464310080743521
 20
12.58201569349364
 30
0.0000000000000001
 70
     8
  0
VERTEX
  5
C0F8
  8
PROF
 10
3.7240856024224609
 20
12.56187662624666
 30
0.0000000000000001
 70
     8
  0
VERTEX
  5
C0F9
  8
PROF
 10
3.7031264306428961
 20
12.541278838703191
 30
0.0000000000000001
 70
     8
  0
VERTEX
  5
C0FA
  8
PROF
 10
3.683498855859908
 20
12.520247681380051
 30
0.0000000000000001
 70
     8
  0
VERTEX
  5
C0FB
  8
PROF
 10
3.665148241197528
 20
12.49880850479428
 30
0.0000000000000001
 70
     8
  0
VERTEX
  5
C0FC
  8
PROF
 10
3.648019949779949
 20
12.47698665946279
 30
0.0000000000000001
 70
     8
  0
VERTEX
  5
C0FD
  8
PROF
 10
3.6320593447313159
 20
12.45480749590263
 30
0.0000000000000001
 70
     8
  0
VERTEX
  5
C0FE
  8
PROF
 10
3.617189584886658
 20
12.43223790353807
 30
0.0000000000000001
 70
     8
  0
VERTEX
  5
C0FF
  8
PROF
 10
3.6032450119242849
 20
12.40901092742285
 30
0.0000000000000001
 70
     8
  0
VERTEX
  5
C100
  8
PROF
 10
3.590037763233453
 20
12.38480115151844
 30
0.0000000000000001
 70
     8
  0
VERTEX
  5
C101
  8
PROF
 10
3.5773799762033032
 20
12.35928315978594
 30
0.0000000000000001
 70
     8
  0
VERTEX
  5
C102
  8
PROF
 10
3.5650837882230899
 20
12.33213153618658
 30
0.0000000000000001
 70
     8
  0
VERTEX
  5
C103
  8
PROF
 10
3.552961336681959
 20
12.303020864681571
 30
0.0000000000000001
 70
     8
  0
VERTEX
  5
C104
  8
PROF
 10
3.540824758969165
 20
12.271625729232371
 30
0.0000000000000001
 70
     8
  0
VERTEX
  5
C105
  8
PROF
 10
3.528486192473848
 20
12.23762071379997
 30
0.0000000000000001
 70
     8
  0
VERTEX
  5
C106
  8
PROF
 10
3.5157577745852659
 20
12.200680402345711
 30
0.0000000000000001
 70
     8
  0
VERTEX
  5
C107
  8
PROF
 10
3.502451642692618
 20
12.16047937883093
 30
0.0000000000000001
 70
     8
  0
VERTEX
  5
C108
  8
PROF
 10
3.4883799341851041
 20
12.116692227216619
 30
0.0000000000000001
 70
     8
  0
VERTEX
  5
C109
  8
PROF
 10
3.4733547864519201
 20
12.06899353146423
 30
0.0000000000000001
 70
     8
  0
VERTEX
  5
C10A
  8
PROF
 10
3.45723654619428
 20
12.0172095445447
 30
0.0000000000000001
 70
     8
  0
VERTEX
  5
C10B
  8
PROF
 10
3.440078397361388
 20
11.961773195467799
 30
0.0000000000000001
 70
     8
  0
VERTEX
  5
C10C
  8
PROF
 10
3.4219817332145781
 20
11.90326908225302
 30
0.0000000000000001
 70
     8
  0
VERTEX
  5
C10D
  8
PROF
 10
3.4030479470150099
 20
11.842281802919951
 30
0.0000000000000001
 70
     8
  0
VERTEX
  5
C10E
  8
PROF
 10
3.383378432024017
 20
11.779395955487979
 30
0.0000000000000001
 70
     8
  0
VERTEX
  5
C10F
  8
PROF
 10
3.36307458150287
 20
11.7151961379768
 30
0.0000000000000001
 70
     8
  0
VERTEX
  5
C110
  8
PROF
 10
3.342237788712735
 20
11.650266948405831
 30
0.0000000000000001
 70
     8
  0
VERTEX
  5
C111
  8
PROF
 10
3.3209694469149991
 20
11.58519298479461
 30
0.0000000000000001
 70
     8
  0
VERTEX
  5
C112
  8
PROF
 10
3.299370949370767
 20
11.52055884516254
 30
0.0000000000000001
 70
     8
  0
VERTEX
  5
C113
  8
PROF
 10
3.277543689341428
 20
11.456949127529461
 30
0.0000000000000001
 70
     8
  0
VERTEX
  5
C114
  8
PROF
 10
3.2555890600881399
 20
11.3949484299145
 30
0.0000000000000001
 70
     8
  0
VERTEX
  5
C115
  8
PROF
 10
3.2336084548721811
 20
11.335141350337491
 30
0.0000000000000001
 70
     8
  0
VERTEX
  5
C116
  8
PROF
 10
3.2116715641212181
 20
11.277995447977769
 30
0.0000000000000001
 70
     8
  0
VERTEX
  5
C117
  8
PROF
 10
3.1897212669278461
 20
11.22351012665467
 30
0.0000000000000001
 70
     8
  0
VERTEX
  5
C118
  8
PROF
 10
3.1676687395512881
 20
11.17156775134765
 30
0.0000000000000001
 70
     8
  0
VERTEX
  5
C119
  8
PROF
 10
3.1454251582505321
 20
11.12205068703588
 30
0.0000000000000001
 70
     8
  0
VERTEX
  5
C11A
  8
PROF
 10
3.122901699284625
 20
11.07484129869874
 30
0.0000000000000001
 70
     8
  0
VERTEX
  5
C11B
  8
PROF
 10
3.1000095389127278
 20
11.02982195131551
 30
0.0000000000000001
 70
     8
  0
VERTEX
  5
C11C
  8
PROF
 10
3.07665985339389
 20
10.986875009865679
 30
0.0000000000000001
 70
     8
  0
VERTEX
  5
C11D
  8
PROF
 10
3.0527638189871591
 20
10.9458828393283
 30
0.0000000000000001
 70
     8
  0
VERTEX
  5
C11E
  8
PROF
 10
3.0282326119516361
 20
10.90672780468298
 30
0.0000000000000001
 70
     8
  0
VERTEX
  5
C11F
  8
PROF
 10
3.0029774085463701
 20
10.869292270908771
 30
0.0000000000000001
 70
     8
  0
VERTEX
  5
C120
  8
PROF
 10
2.9769093850304089
 20
10.833458602985161
 30
0.0000000000000001
 70
     8
  0
VERTEX
  5
C121
  8
PROF
 10
2.9499397176628559
 20
10.799109165891419
 30
0.0000000000000001
 70
     8
  0
VERTEX
  5
C122
  8
PROF
 10
2.922000609840437
 20
10.76614363969508
 30
0.0000000000000001
 70
     8
  0
VERTEX
  5
C123
  8
PROF
 10
2.8931083735102998
 20
10.7345309648158
 30
0.0000000000000001
 70
     8
  0
VERTEX
  5
C124
  8
PROF
 10
2.8633003477572729
 20
10.70425739676193
 30
0.0000000000000001
 70
     8
  0
VERTEX
  5
C125
  8
PROF
 10
2.8326138716660689
 20
10.67530919104115
 30
0.0000000000000001
 70
     8
  0
VERTEX
  5
C126
  8
PROF
 10
2.801086284321626
 20
10.647672603161711
 30
0.0000000000000001
 70
     8
  0
VERTEX
  5
C127
  8
PROF
 10
2.7687549248087162
 20
10.62133388863162
 30
0.0000000000000001
 70
     8
  0
VERTEX
  5
C128
  8
PROF
 10
2.7356571322120531
 20
10.5962793029588
 30
0.0000000000000001
 70
     8
  0
VERTEX
  5
C129
  8
PROF
 10
2.7018302456165202
 20
10.572495101651381
 30
0.0000000000000001
 70
     8
  0
VERTEX
  5
C12A
  8
PROF
 10
2.6673116041068838
 20
10.54996754021726
 30
0.0000000000000001
 70
     8
  0
VERTEX
  5
C12B
  8
PROF
 10
2.6321385467680321
 20
10.528682874164581
 30
0.0000000000000001
 70
     8
  0
VERTEX
  5
C12C
  8
PROF
 10
2.5963484126846179
 20
10.508627359001251
 30
0.0000000000000001
 70
     8
  0
VERTEX
  5
C12D
  8
PROF
 10
2.5599785409415841
 20
10.489787250235279
 30
0.0000000000000001
 70
     8
  0
VERTEX
  5
C12E
  8
PROF
 10
2.522998630314361
 20
10.472162234281081
 30
0.0000000000000001
 70
     8
  0
VERTEX
  5
C12F
  8
PROF
 10
2.4851078183409072
 20
10.455805721177621
 30
0.0000000000000001
 70
     8
  0
VERTEX
  5
C130
  8
PROF
 10
2.4459376022498982
 20
10.44078455187036
 30
0.0000000000000001
 70
     8
  0
VERTEX
  5
C131
  8
PROF
 10
2.4051194792701249
 20
10.42716556730465
 30
0.0000000000000001
 70
     8
  0
VERTEX
  5
C132
  8
PROF
 10
2.3622849466301541
 20
10.415015608425851
 30
0.0000000000000001
 70
     8
  0
VERTEX
  5
C133
  8
PROF
 10
2.317065501558714
 20
10.40440151617929
 30
0.0000000000000001
 70
     8
  0
VERTEX
  5
C134
  8
PROF
 10
2.2690926412844301
 20
10.395390131510339
 30
0.0000000000000001
 70
     8
  0
VERTEX
  5
C135
  8
PROF
 10
2.2179978630360879
 20
10.388048295364451
 30
0.0000000000000001
 70
     8
  0
VERTEX
  5
C136
  8
PROF
 10
2.1634126640422551
 20
10.38244284868688
 30
0.0000000000000001
 70
     8
  0
VERTEX
  5
C137
  8
PROF
 10
2.1049685415316031
 20
10.37864063242295
 30
0.0000000000000001
 70
     8
  0
VERTEX
  5
C138
  8
PROF
 10
2.0422969927328709
 20
10.37670848751816
 30
0.0000000000000001
 70
     8
  0
VERTEX
  5
C139
  8
PROF
 10
1.9750295148747341
 20
10.37671325491794
 30
0.0000000000000001
 70
     8
  0
VERTEX
  5
C13A
  8
PROF
 10
4.2166060115107484
 20
12.80885334975255
 30
0.0000000000000001
 70
    16
  0
VERTEX
  5
C13B
  8
PROF
 10
3.8702254102732909
 20
12.707065515763929
 30
0.0000000000000001
 70
    16
  0
VERTEX
  5
C13C
  8
PROF
 10
3.605346156896871
 20
12.46277472098552
 30
0.0000000000000001
 70
    16
  0
VERTEX
  5
C13D
  8
PROF
 10
3.500746030527238
 20
12.170680575709749
 30
0.0000000000000001
 70
    16
  0
VERTEX
  5
C13E
  8
PROF
 10
3.231798439705698
 20
11.26846416496107
 30
0.0000000000000001
 70
    16
  0
VERTEX
  5
C13F
  8
PROF
 10
2.9737109398832882
 20
10.76631086647069
 30
0.0000000000000001
 70
    16
  0
VERTEX
  5
C140
  8
PROF
 10
2.5729961067384002
 20
10.460947364504699
 30
0.0000000000000001
 70
    16
  0
VERTEX
  5
C141
  8
PROF
 10
2.2537826214546031
 20
10.372731239449759
 30
0.0000000000000001
 70
    16
  0
VERTEX
  5
C142
  8
PROF
 10
1.9750295148747341
 20
10.37671325491794
 30
0.0000000000000001
 70
    16
  0
SEQEND
  5
C143
  8
PROF
  0
LINE
  5
C144
  8
PROF
 10
4.9012016798694162
 20
12.88585218805485
 30
0.0000000000000003
 11
4.519857503186925
 21
12.88585218805485
 31
0.0000000000000003
  0
LINE
  5
C145
  8
PROF
 10
0.7321315362267457
 20
8.2026312473991556
 30
0.0000000000000006
 11
0.7321315362267457
 21
8.0511853963434952
 31
0.0000000000000006
  0
ARC
  5
C146
  8
PROF
 10
0.7977322214551919
 20
7.577333933202679
 30
0.0000000000000006
 40
0.4783708383912013
 50
97.882010168942557
 51
186.31119505698641
  0
LINE
  5
C147
  8
FRAME_050
 10
7.8016377197432121
 20
17.99371054969447
 30
0.0
 11
7.8016377197432121
 21
0.0000000000002274
 31
0.0
  0
ENDBLK
  5
C149
  8
0
  0
BLOCK
  8
0
  2
*U7
 70
     1
 10
0.0
 20
0.0
 30
0.0
  3
*U7
  1

  0
TEXT
  5
C8C3
  8
0
 10
3.5177832928899071
 20
10.38601584255777
 30
0.0
 40
0.125
  1
Crown Moulding
  0
TEXT
  5
C8C4
  8
0
 10
3.5223876585106431
 20
10.17717091304435
 30
0.0
 40
0.125
  1
TL-AB509
  0
TEXT
  5
C8C5
  8
0
 10
3.5074661032582561
 20
9.9667059289606801
 30
0.0
 40
0.125
  1
1-5/16" x 7-9/16"
  0
TEXT
  5
C8C6
  8
0
 10
3.519403347460166
 20
9.7562409448770051
 30
0.0
 40
0.125
  1
800.66.TAGUE
  0
ENDBLK
  5
C8C8
  8
0
  0
BLOCK
  8
0
  2
*U8
 70
     1
 10
0.0
 20
0.0
 30
0.0
  3
*U8
  1

  0
TEXT
  5
C8CA
  8
0
 10
5.3066868277875692
 20
1.767659498411035
 30
0.0
 40
0.125
  1
Back Band
  0
TEXT
  5
C8CB
  8
0
 10
5.3153839628489603
 20
1.55881456889762
 30
0.0
 40
0.125
  1
TL-1
  0
TEXT
  5
C8CC
  8
0
 10
5.3004624075965721
 20
1.3483495848139451
 30
0.0
 40
0.125
  1
1-3/8" x 1-9/16"
  0
TEXT
  5
C8CD
  8
0
 10
5.3123996517984811
 20
1.1378846007302701
 30
0.0
 40
0.125
  1
800.66.TAGUE
  0
ENDBLK
  5
C8CF
  8
0
  0
BLOCK
  8
0
  2
*U9
 70
     1
 10
0.0
 20
0.0
 30
0.0
  3
*U9
  1

  0
TEXT
  5
C8D1
  8
0
 10
-385.7580743253551
 20
838.2627455404056
 30
0.0
 40
0.125
  1
Back Band
  0
TEXT
  5
C8D2
  8
0
 10
-385.74937719029373
 20
838.05390061089247
 30
0.0
 40
0.125
  1
TL-1
  0
TEXT
  5
C8D3
  8
0
 10
-385.76429874554611
 20
837.84343562680851
 30
0.0
 40
0.125
  1
1-3/8" x 1-9/16"
  0
TEXT
  5
C8D4
  8
0
 10
-385.75236150134418
 20
837.63297064272513
 30
0.0
 40
0.125
  1
800.66.TAGUE
  0
ENDBLK
  5
C8D6
  8
0
  0
BLOCK
  8
0
  2
*D21
 70
     1
 10
0.0
 20
0.0
 30
0.0
  3
*D21
  1

  0
LINE
  5
CDAB
  8
0
 62
     0
 10
-346.64573732984462
 20
509.42191863586828
 30
0.0
 11
-346.03266106471222
 21
509.42191863586828
 31
0.0
  0
LINE
  5
CDAC
  8
0
 62
     0
 10
-347.59461414974379
 20
507.61166709199199
 30
0.0
 11
-346.03266106471222
 21
507.61166709199199
 31
0.0
  0
LINE
  5
CDAD
  8
0
 62
     0
 10
-346.09516106471222
 20
509.42191863586828
 30
0.0
 11
-346.09516106471222
 21
507.61166709199199
 31
0.0
  0
INSERT
  5
CDAE
  8
0
 62
     0
  2
_ARCHTICK
 10
-346.09516106471222
 20
509.42191863586828
 30
0.0
 41
0.046875
 42
0.046875
 43
0.046875
 50
90.0
  0
INSERT
  5
CDAF
  8
0
 62
     0
  2
_ARCHTICK
 10
-346.09516106471222
 20
507.61166709199199
 30
0.0
 41
0.046875
 42
0.046875
 43
0.046875
 50
270.0
  0
INSERT
  5
CDB0
  8
0
  2
*U76
 10
0.0
 20
0.0
 30
0.0
  0
POINT
  5
CDB1
  8
DEFPOINTS
 62
     0
 10
-346.73948732984462
 20
509.42191863586828
 30
0.0
  0
POINT
  5
CDB2
  8
DEFPOINTS
 62
     0
 10
-347.68836414974379
 20
507.61166709199199
 30
0.0
  0
POINT
  5
CDB3
  8
DEFPOINTS
 62
     0
 10
-346.09516106471222
 20
507.61166709199199
 30
0.0
  0
ENDBLK
  5
CDB4
  8
0
  0
BLOCK
  8
0
  2
*D23
 70
     1
 10
0.0
 20
0.0
 30
0.0
  3
*D23
  1

  0
LINE
  5
CDEB
  8
0
 62
     0
 10
-387.02714157709249
 20
839.57969957928674
 30
0.0
 11
-386.41406531196009
 21
839.57969957928674
 31
0.0
  0
LINE
  5
CDEC
  8
0
 62
     0
 10
-387.97601839699172
 20
837.76944803541039
 30
0.0
 11
-386.41406531196009
 21
837.76944803541039
 31
0.0
  0
LINE
  5
CDED
  8
0
 62
     0
 10
-386.47656531196009
 20
839.57969957928674
 30
0.0
 11
-386.47656531196009
 21
837.76944803541039
 31
0.0
  0
INSERT
  5
CDEE
  8
0
 62
     0
  2
_ARCHTICK
 10
-386.47656531196009
 20
839.57969957928674
 30
0.0
 41
0.046875
 42
0.046875
 43
0.046875
 50
90.0
  0
INSERT
  5
CDEF
  8
0
 62
     0
  2
_ARCHTICK
 10
-386.47656531196009
 20
837.76944803541039
 30
0.0
 41
0.046875
 42
0.046875
 43
0.046875
 50
270.0
  0
INSERT
  5
CDF0
  8
0
  2
*U78
 10
0.0
 20
0.0
 30
0.0
  0
POINT
  5
CDF1
  8
DEFPOINTS
 62
     0
 10
-387.12089157709249
 20
839.57969957928674
 30
0.0
  0
POINT
  5
CDF2
  8
DEFPOINTS
 62
     0
 10
-388.06976839699172
 20
837.76944803541039
 30
0.0
  0
POINT
  5
CDF3
  8
DEFPOINTS
 62
     0
 10
-386.47656531196009
 20
837.76944803541039
 30
0.0
  0
ENDBLK
  5
CDEA
  8
0
  0
BLOCK
  8
0
  2
*U65
 70
     1
 10
0.0
 20
0.0
 30
0.0
  3
*U65
  1

  0
TEXT
  5
F990
  8
0
 10
2.0520856342580478
 20
1.4053520973297959
 30
0.0
 40
0.125
  1
Exterior Casing
  0
TEXT
  5
F991
  8
0
 10
2.0520856342580478
 20
1.1970187639964629
 30
0.0
 40
0.125
  1
TL-180
  0
TEXT
  5
F992
  8
0
 10
2.0520856342580478
 20
0.9886854306631298
 30
0.0
 40
0.125
  1
1-1/4" x 2"
  0
TEXT
  5
F993
  8
0
 10
2.0520856342580478
 20
0.7803520973297964
 30
0.0
 40
0.125
  1
800.66.TAGUE
  0
ENDBLK
  5
F995
  8
0
  0
BLOCK
  8
0
  2
*U66
 70
     1
 10
0.0
 20
0.0
 30
0.0
  3
*U66
  1

  0
TEXT
  5
F997
  8
0
 10
1.875832532300876
 20
1.1538771312937111
 30
0.0
 40
0.125
  1
Exterior Casing
  0
TEXT
  5
F998
  8
0
 10
1.875832532300876
 20
0.9455437979603782
 30
0.0
 40
0.125
  1
TL-544
  0
TEXT
  5
F999
  8
0
 10
1.875832532300876
 20
0.7372104646270449
 30
0.0
 40
0.125
  1
1-1/8" x 1-9/16"
  0
TEXT
  5
F99A
  8
0
 10
1.875832532300876
 20
0.5288771312937115
 30
0.0
 40
0.125
  1
800.66.TAGUE
  0
ENDBLK
  5
F99C
  8
0
  0
BLOCK
  8
0
  2
*U67
 70
     1
 10
0.0
 20
0.0
 30
0.0
  3
*U67
  1

  0
TEXT
  5
F99E
  8
0
 10
2.2653468102219558
 20
1.612015904330746
 30
0.0
 40
0.125
  1
Exterior Casing
  0
TEXT
  5
F99F
  8
0
 10
2.2653468102219558
 20
1.403682570997413
 30
0.0
 40
0.125
  1
TL-2023
  0
TEXT
  5
F9A0
  8
0
 10
2.2653468102219558
 20
1.19534923766408
 30
0.0
 40
0.125
  1
1-13/16" x 3" 
  0
TEXT
  5
F9A1
  8
0
 10
2.2653468102219558
 20
0.9870159043307467
 30
0.0
 40
0.125
  1
800.66.TAGUE
  0
ENDBLK
  5
F9A3
  8
0
  0
BLOCK
  8
0
  2
*U68
 70
     1
 10
0.0
 20
0.0
 30
0.0
  3
*U68
  1

  0
TEXT
  5
F9A5
  8
0
 10
2.0898675486657221
 20
0.9145072342178082
 30
0.0
 40
0.125
  1
Exterior Casing
  0
TEXT
  5
F9A6
  8
0
 10
2.0898675486657221
 20
0.706173900884475
 30
0.0
 40
0.125
  1
TL-2087
  0
TEXT
  5
F9A7
  8
0
 10
2.0898675486657221
 20
0.4978405675511416
 30
0.0
 40
0.125
  1
7/8" x 1-7/16"
  0
TEXT
  5
F9A8
  8
0
 10
2.0898675486657221
 20
0.2895072342178082
 30
0.0
 40
0.125
  1
800.66.TAGUE
  0
ENDBLK
  5
F9AA
  8
0
  0
BLOCK
  8
0
  2
*U69
 70
     1
 10
0.0
 20
0.0
 30
0.0
  3
*U69
  1

  0
TEXT
  5
F9AC
  8
0
 10
2.1806631076311191
 20
0.8419101546792263
 30
0.0
 40
0.125
  1
Exterior Casing
  0
TEXT
  5
F9AD
  8
0
 10
2.1806631076311191
 20
0.6335768213458931
 30
0.0
 40
0.125
  1
TL-2158
  0
TEXT
  5
F9AE
  8
0
 10
2.1806631076311191
 20
0.4252434880125597
 30
0.0
 40
0.125
  1
1-1/16" x 1-5/16"
  0
TEXT
  5
F9AF
  8
0
 10
2.1806631076311191
 20
0.2169101546792262
 30
0.0
 40
0.125
  1
800.66.TAGUE
  0
ENDBLK
  5
F9B1
  8
0
  0
BLOCK
  8
0
  2
*U70
 70
     1
 10
0.0
 20
0.0
 30
0.0
  3
*U70
  1

  0
TEXT
  5
F9B3
  8
0
 10
2.2408536425556909
 20
1.2992247915469759
 30
0.0
 40
0.125
  1
Exterior Casing
  0
TEXT
  5
F9B4
  8
0
 10
2.2408536425556909
 20
1.090891458213642
 30
0.0
 40
0.125
  1
TL-2174
  0
TEXT
  5
F9B5
  8
0
 10
2.2408536425556909
 20
0.8825581248803095
 30
0.0
 40
0.125
  1
1-3/8" x 1-7/16"
  0
TEXT
  5
F9B6
  8
0
 10
2.2408536425556909
 20
0.6742247915469762
 30
0.0
 40
0.125
  1
800.66.TAGUE
  0
ENDBLK
  5
F9B8
  8
0
  0
BLOCK
  8
0
  2
*U71
 70
     1
 10
0.0
 20
0.0
 30
0.0
  3
*U71
  1

  0
TEXT
  5
F9BA
  8
0
 10
2.8048346441314029
 20
1.129982283289336
 30
0.0
 40
0.125
  1
Exterior Casing
  0
TEXT
  5
F9BB
  8
0
 10
2.8048346441314029
 20
0.9216489499560037
 30
0.0
 40
0.125
  1
TL-2175
  0
TEXT
  5
F9BC
  8
0
 10
2.8048346441314029
 20
0.7133156166226704
 30
0.0
 40
0.125
  1
1-9/32" x 1-29/32"
  0
TEXT
  5
F9BD
  8
0
 10
2.8048346441314029
 20
0.504982283289337
 30
0.0
 40
0.125
  1
800.66.TAGUE
  0
ENDBLK
  5
F9BF
  8
0
  0
BLOCK
  8
0
  2
*U72
 70
     1
 10
0.0
 20
0.0
 30
0.0
  3
*U72
  1

  0
TEXT
  5
F9C1
  8
0
 10
2.5484960182450891
 20
0.679430053902138
 30
0.0
 40
0.125
  1
Exterior Casing
  0
TEXT
  5
F9C2
  8
0
 10
2.5484960182450891
 20
0.4710967205688046
 30
0.0
 40
0.125
  1
TL-2176
  0
TEXT
  5
F9C3
  8
0
 10
2.5484960182450891
 20
0.2627633872354712
 30
0.0
 40
0.125
  1
19/32" x 1-5/8"
  0
TEXT
  5
F9C4
  8
0
 10
2.5484960182450891
 20
0.0544300539021379
 30
0.0
 40
0.125
  1
800.66.TAGUE
  0
ENDBLK
  5
F9C6
  8
0
  0
BLOCK
  8
0
  2
*U73
 70
     1
 10
0.0
 20
0.0
 30
0.0
  3
*U73
  1

  0
TEXT
  5
F9C8
  8
0
 10
2.105732231568993
 20
0.7255830389262883
 30
0.0
 40
0.125
  1
Exterior Casing
  0
TEXT
  5
F9C9
  8
0
 10
2.105732231568993
 20
0.5172497055929551
 30
0.0
 40
0.125
  1
TL-2108
  0
TEXT
  5
F9CA
  8
0
 10
2.105732231568993
 20
0.3089163722596217
 30
0.0
 40
0.125
  1
15/16" x 1-1/16"
  0
TEXT
  5
F9CB
  8
0
 10
2.105732231568993
 20
0.1005830389262883
 30
0.0
 40
0.125
  1
800.66.TAGUE
  0
ENDBLK
  5
F9CD
  8
0
  0
BLOCK
  8
0
  2
*U74
 70
     1
 10
0.0
 20
0.0
 30
0.0
  3
*U74
  1

  0
TEXT
  5
F9CF
  8
0
 10
0.0469294570366401
 20
0.67943073463357
 30
0.0
 40
0.125
  1
Exterior Casing
  0
TEXT
  5
F9D0
  8
0
 10
0.0469294570366401
 20
0.4710974013002366
 30
0.0
 40
0.125
  1
TL-2206
  0
TEXT
  5
F9D1
  8
0
 10
0.0469294570366401
 20
0.2627640679669033
 30
0.0
 40
0.125
  1
1-3/32" x 1-23/32"
  0
TEXT
  5
F9D2
  8
0
 10
0.0469294570366401
 20
0.05443073463357
 30
0.0
 40
0.125
  1
800.66.TAGUE
  0
ENDBLK
  5
F9D4
  8
0
  0
BLOCK
  8
0
  2
*U75
 70
     1
 10
0.0
 20
0.0
 30
0.0
  3
*U75
  1

  0
TEXT
  5
F9D6
  8
0
 10
0.0449853036485593
 20
0.6794309447934666
 30
0.0
 40
0.125
  1
Exterior Casing
  0
TEXT
  5
F9D7
  8
0
 10
0.0449853036485593
 20
0.4710976114601333
 30
0.0
 40
0.125
  1
TL-2207
  0
TEXT
  5
F9D8
  8
0
 10
0.0449853036485593
 20
0.2627642781267999
 30
0.0
 40
0.125
  1
1-1/8" x 2-15/16"
  0
TEXT
  5
F9D9
  8
0
 10
0.0449853036485593
 20
0.0544309447934666
 30
0.0
 40
0.125
  1
800.66.TAGUE
  0
ENDBLK
  5
F9DB
  8
0
  0
BLOCK
  8
0
  2
*U76
 70
     1
 10
0.0
 20
0.0
 30
0.0
  3
*U76
  1

  0
TEXT
  5
F9DD
  8
0
 62
     0
 10
-346.15979271546257
 20
508.16262619726342
 30
0.0
 40
0.125
  1
Cutter
 50
90.0
  0
ENDBLK
  5
F9DF
  8
0
  0
BLOCK
  8
0
  2
*U77
 70
     1
 10
0.0
 20
0.0
 30
0.0
  3
*U77
  1

  0
TEXT
  5
F9E1
  8
0
 10
3.5112004937425918
 20
2.3236705000861089
 30
0.0
 40
0.125
  1
Exterior Casing
  0
TEXT
  5
F9E2
  8
0
 10
3.5112004937425918
 20
2.1153371667527749
 30
0.0
 40
0.125
  1
TL-2242
  0
TEXT
  5
F9E3
  8
0
 10
3.5112004937425918
 20
1.9070038334194419
 30
0.0
 40
0.125
  1
2" x 4-1/2"
  0
TEXT
  5
F9E4
  8
0
 10
3.5112004937425918
 20
1.6986705000861091
 30
0.0
 40
0.125
  1
800.66.TAGUE
  0
ENDBLK
  5
F9E6
  8
0
  0
BLOCK
  8
0
  2
*U78
 70
     1
 10
0.0
 20
0.0
 30
0.0
  3
*U78
  1

  0
TEXT
  5
F9E8
  8
0
 62
     0
 10
-386.5390653119602
 20
838.32040714068194
 30
0.0
 40
0.125
  1
Cutter
 50
90.0
  0
ENDBLK
  5
F9EA
  8
0
  0
BLOCK
  8
0
  2
*U79
 70
     1
 10
0.0
 20
0.0
 30
0.0
  3
*U79
  1

  0
TEXT
  5
F9EC
  8
0
 10
1.983241637717696
 20
1.2297917133489591
 30
0.0
 40
0.125
  1
Exterior Casing
  0
TEXT
  5
F9ED
  8
0
 10
1.983241637717696
 20
1.0214583800156249
 30
0.0
 40
0.125
  1
TL-2254
  0
TEXT
  5
F9EE
  8
0
 10
1.983241637717696
 20
0.8131250466822924
 30
0.0
 40
0.125
  1
1-1/4" x 1-3/4"
  0
TEXT
  5
F9EF
  8
0
 10
1.983241637717696
 20
0.6047917133489591
 30
0.0
 40
0.125
  1
800.66.TAGUE
  0
ENDBLK
  5
F9F1
  8
0
  0
BLOCK
  8
0
  2
*U80
 70
     1
 10
0.0
 20
0.0
 30
0.0
  3
*U80
  1

  0
TEXT
  5
F9F3
  8
0
 10
2.2285402119240412
 20
3.7215677387475798
 30
0.0
 40
0.125
  1
Exterior Jamb
  0
TEXT
  5
F9F4
  8
0
 10
2.2285402119240412
 20
3.5132344054142468
 30
0.0
 40
0.125
  1
TL-2126
  0
TEXT
  5
F9F5
  8
0
 10
2.2285402119240412
 20
3.3049010720809142
 30
0.0
 40
0.125
  1
1-1/4" x 6-5/8"
  0
TEXT
  5
F9F6
  8
0
 10
2.2285402119240412
 20
3.0965677387475798
 30
0.0
 40
0.125
  1
800.66.TAGUE
  0
ENDBLK
  5
F9F8
  8
0
  0
BLOCK
  8
0
  2
*U81
 70
     1
 10
0.0
 20
0.0
 30
0.0
  3
*U81
  1

  0
TEXT
  5
F9FA
  8
0
 10
2.025590122046196
 20
3.8877018206065941
 30
0.0
 40
0.125
  1
Exterior Jamb
  0
TEXT
  5
F9FB
  8
0
 10
2.025590122046196
 20
3.6793684872732602
 30
0.0
 40
0.125
  1
TL-2127
  0
TEXT
  5
F9FC
  8
0
 10
2.025590122046196
 20
3.4710351539399271
 30
0.0
 40
0.125
  1
1-1/4" x 6-5/8"
  0
TEXT
  5
F9FD
  8
0
 10
2.025590122046196
 20
3.2627018206065941
 30
0.0
 40
0.125
  1
800.66.TAGUE
  0
ENDBLK
  5
F9FF
  8
0
  0
BLOCK
  8
0
  2
*U82
 70
     1
 10
0.0
 20
0.0
 30
0.0
  3
*U82
  1

  0
TEXT
  5
FA01
  8
0
 10
1.8279899277385421
 20
2.0085009357213721
 30
0.0
 40
0.125
  1
Fluting
  0
TEXT
  5
FA02
  8
0
 10
1.8279899277385421
 20
1.800167602388038
 30
0.0
 40
0.125
  1
TL-123
  0
TEXT
  5
FA03
  8
0
 10
1.8279899277385421
 20
1.5918342690547049
 30
0.0
 40
0.125
  1
3/4" x 3-1/2"
  0
TEXT
  5
FA04
  8
0
 10
1.8279899277385421
 20
1.3835009357213719
 30
0.0
 40
0.125
  1
800.66.TAGUE
  0
ENDBLK
  5
FA06
  8
0
  0
BLOCK
  8
0
  2
*U83
 70
     1
 10
0.0
 20
0.0
 30
0.0
  3
*U83
  1

  0
TEXT
  5
FA08
  8
0
 10
1.9710461263608181
 20
3.9608870512416838
 30
0.0
 40
0.125
  1
Fluting
  0
TEXT
  5
FA09
  8
0
 10
1.9710461263608181
 20
3.7525537179083499
 30
0.0
 40
0.125
  1
TL-343
  0
TEXT
  5
FA0A
  8
0
 10
1.9710461263608181
 20
3.5442203845750169
 30
0.0
 40
0.125
  1
7/8" x 7-3/16"
  0
TEXT
  5
FA0B
  8
0
 10
1.9710461263608181
 20
3.3358870512416838
 30
0.0
 40
0.125
  1
800.66.TAGUE
  0
ENDBLK
  5
FA0D
  8
0
  0
BLOCK
  8
0
  2
*U84
 70
     1
 10
0.0
 20
0.0
 30
0.0
  3
*U84
  1

  0
TEXT
  5
FA0F
  8
0
 10
1.4662897697170929
 20
3.8395028676267202
 30
0.0
 40
0.125
  1
Fluting
  0
TEXT
  5
FA10
  8
0
 10
1.4662897697170929
 20
3.6311695342933858
 30
0.0
 40
0.125
  1
TL-2183
  0
TEXT
  5
FA11
  8
0
 10
1.4662897697170929
 20
3.4228362009600528
 30
0.0
 40
0.125
  1
3/4" x 7-1/4"
  0
TEXT
  5
FA12
  8
0
 10
1.4662897697170929
 20
3.2145028676267202
 30
0.0
 40
0.125
  1
800.66.TAGUE
  0
ENDBLK
  5
FA14
  8
0
  0
BLOCK
  8
0
  2
*U85
 70
     1
 10
0.0
 20
0.0
 30
0.0
  3
*U85
  1

  0
TEXT
  5
FA16
  8
0
 10
2.0951853732560148
 20
2.6676693683394879
 30
0.0
 40
0.125
  1
Fluting
  0
TEXT
  5
FA17
  8
0
 10
2.0951853732560148
 20
2.4593360350061548
 30
0.0
 40
0.125
  1
TL-2276
  0
TEXT
  5
FA18
  8
0
 10
2.0951853732560148
 20
2.2510027016728218
 30
0.0
 40
0.125
  1
11/16" x 3"
  0
TEXT
  5
FA19
  8
0
 10
2.0951853732560148
 20
2.0426693683394879
 30
0.0
 40
0.125
  1
800.66.TAGUE
  0
ENDBLK
  5
FA1B
  8
0
  0
BLOCK
  8
0
  2
*U86
 70
     1
 10
0.0
 20
0.0
 30
0.0
  3
*U86
  1

  0
TEXT
  5
FA1D
  8
0
 10
2.4586482925877808
 20
1.0775582798773931
 30
0.0
 40
0.125
  1
Full Round
  0
TEXT
  5
FA1E
  8
0
 10
2.4586482925877808
 20
0.8692249465440607
 30
0.0
 40
0.125
  1
TL-232
  0
TEXT
  5
FA1F
  8
0
 10
2.4586482925877808
 20
0.6608916132107274
 30
0.0
 40
0.125
  1
1-7/16" x 1-7/16"
  0
TEXT
  5
FA20
  8
0
 10
2.4586482925877808
 20
0.452558279877394
 30
0.0
 40
0.125
  1
800.66.TAGUE
  0
ENDBLK
  5
FA22
  8
0
  0
BLOCK
  8
0
  2
*U87
 70
     1
 10
0.0
 20
0.0
 30
0.0
  3
*U87
  1

  0
TEXT
  5
FA24
  8
0
 10
2.339763263951113
 20
0.912090443150646
 30
0.0
 40
0.125
  1
Full Round
  0
TEXT
  5
FA25
  8
0
 10
2.339763263951113
 20
0.7037571098173128
 30
0.0
 40
0.125
  1
TL-233
  0
TEXT
  5
FA26
  8
0
 10
2.339763263951113
 20
0.4954237764839795
 30
0.0
 40
0.125
  1
1-3/16" x 1-3/16"
  0
TEXT
  5
FA27
  8
0
 10
2.339763263951113
 20
0.287090443150646
 30
0.0
 40
0.125
  1
800.66.TAGUE
  0
ENDBLK
  5
FA29
  8
0
  0
BLOCK
  8
0
  2
*U88
 70
     1
 10
0.0
 20
0.0
 30
0.0
  3
*U88
  1

  0
TEXT
  5
FA2B
  8
0
 10
2.2927598682417729
 20
0.8643692839127652
 30
0.0
 40
0.125
  1
Full Round
  0
TEXT
  5
FA2C
  8
0
 10
2.2927598682417729
 20
0.6560359505794321
 30
0.0
 40
0.125
  1
TL-234
  0
TEXT
  5
FA2D
  8
0
 10
2.2927598682417729
 20
0.4477026172460987
 30
0.0
 40
0.125
  1
1-1/16" x 1-1/16"
  0
TEXT
  5
FA2E
  8
0
 10
2.2927598682417729
 20
0.2393692839127652
 30
0.0
 40
0.125
  1
800.66.TAGUE
  0
ENDBLK
  5
FA30
  8
0
  0
BLOCK
  8
0
  2
*U89
 70
     1
 10
0.0
 20
0.0
 30
0.0
  3
*U89
  1

  0
TEXT
  5
FA32
  8
0
 10
2.0765905058337921
 20
1.0252762384561711
 30
0.0
 40
0.125
  1
Glass Bead
  0
TEXT
  5
FA33
  8
0
 10
2.0765905058337921
 20
0.8169429051228387
 30
0.0
 40
0.125
  1
TL-145
  0
TEXT
  5
FA34
  8
0
 10
2.0765905058337921
 20
0.6086095717895054
 30
0.0
 40
0.125
  1
11/16" x 3/4"
  0
TEXT
  5
FA35
  8
0
 10
2.0765905058337921
 20
0.400276238456172
 30
0.0
 40
0.125
  1
800.66.TAGUE
  0
ENDBLK
  5
FA37
  8
0
  0
BLOCK
  8
0
  2
*U90
 70
     1
 10
0.0
 20
0.0
 30
0.0
  3
*U90
  1

  0
TEXT
  5
FA39
  8
0
 10
1.468683703905185
 20
0.7455079879047162
 30
0.0
 40
0.125
  1
Glass Bead
  0
TEXT
  5
FA3A
  8
0
 10
1.468683703905185
 20
0.537174654571383
 30
0.0
 40
0.125
  1
TL-147
  0
TEXT
  5
FA3B
  8
0
 10
1.468683703905185
 20
0.3288413212380496
 30
0.0
 40
0.125
  1
1/2" x 9/16"
  0
TEXT
  5
FA3C
  8
0
 10
1.468683703905185
 20
0.1205079879047162
 30
0.0
 40
0.125
  1
800.66.TAGUE
  0
ENDBLK
  5
FA3E
  8
0
  0
BLOCK
  8
0
  2
*U91
 70
     1
 10
0.0
 20
0.0
 30
0.0
  3
*U91
  1

  0
TEXT
  5
FA40
  8
0
 10
1.584020839760341
 20
0.6794303041602916
 30
0.0
 40
0.125
  1
Glass Bead
  0
TEXT
  5
FA41
  8
0
 10
1.584020839760341
 20
0.4710969708269583
 30
0.0
 40
0.125
  1
TL-152
  0
TEXT
  5
FA42
  8
0
 10
1.584020839760341
 20
0.262763637493625
 30
0.0
 40
0.125
  1
3/8" x 11/16"
  0
TEXT
  5
FA43
  8
0
 10
1.584020839760341
 20
0.0544303041602916
 30
0.0
 40
0.125
  1
800.66.TAGUE
  0
ENDBLK
  5
FA45
  8
0
  0
BLOCK
  8
0
  2
*U92
 70
     1
 10
0.0
 20
0.0
 30
0.0
  3
*U92
  1

  0
TEXT
  5
FA47
  8
0
 10
1.3526095965341931
 20
0.7381811042487243
 30
0.0
 40
0.125
  1
Glass Bead
  0
TEXT
  5
FA48
  8
0
 10
1.3526095965341931
 20
0.5298477709153912
 30
0.0
 40
0.125
  1
TL-2142
  0
TEXT
  5
FA49
  8
0
 10
1.3526095965341931
 20
0.3215144375820577
 30
0.0
 40
0.125
  1
11/32" x 29/32"
  0
TEXT
  5
FA4A
  8
0
 10
1.3526095965341931
 20
0.1131811042487243
 30
0.0
 40
0.125
  1
800.66.TAGUE
  0
ENDBLK
  5
FA4C
  8
0
  0
BLOCK
  8
0
  2
*U93
 70
     1
 10
0.0
 20
0.0
 30
0.0
  3
*U93
  1

  0
TEXT
  5
FA4E
  8
0
 10
1.3435544091540801
 20
0.6794309539541246
 30
0.0
 40
0.125
  1
Glass Bead
  0
TEXT
  5
FA4F
  8
0
 10
1.3435544091540801
 20
0.4710976206207913
 30
0.0
 40
0.125
  1
TL-2149
  0
TEXT
  5
FA50
  8
0
 10
1.3435544091540801
 20
0.2627642872874579
 30
0.0
 40
0.125
  1
3/8" x 1/2"
  0
TEXT
  5
FA51
  8
0
 10
1.3435544091540801
 20
0.0544309539541246
 30
0.0
 40
0.125
  1
800.66.TAGUE
  0
ENDBLK
  5
FA53
  8
0
  0
BLOCK
  8
0
  2
*U94
 70
     1
 10
0.0
 20
0.0
 30
0.0
  3
*U94
  1

  0
TEXT
  5
FA55
  8
0
 10
1.488844305553698
 20
0.6807937379744545
 30
0.0
 40
0.125
  1
Glass Bead
  0
TEXT
  5
FA56
  8
0
 10
1.488844305553698
 20
0.4724604046411212
 30
0.0
 40
0.125
  1
TL-2155
  0
TEXT
  5
FA57
  8
0
 10
1.488844305553698
 20
0.2641270713077878
 30
0.0
 40
0.125
  1
1/2" x 13/16"
  0
TEXT
  5
FA58
  8
0
 10
1.488844305553698
 20
0.0557937379744544
 30
0.0
 40
0.125
  1
800.66.TAGUE
  0
ENDBLK
  5
FA5A
  8
0
  0
BLOCK
  8
0
  2
*U95
 70
     1
 10
0.0
 20
0.0
 30
0.0
  3
*U95
  1

  0
TEXT
  5
FA5C
  8
0
 10
1.52304343587059
 20
0.6794307504626432
 30
0.0
 40
0.125
  1
Glass Bead
  0
TEXT
  5
FA5D
  8
0
 10
1.52304343587059
 20
0.4710974171293099
 30
0.0
 40
0.125
  1
TL-2218
  0
TEXT
  5
FA5E
  8
0
 10
1.52304343587059
 20
0.2627640837959765
 30
0.0
 40
0.125
  1
1/4" x 5/8"
  0
TEXT
  5
FA5F
  8
0
 10
1.52304343587059
 20
0.0544307504626431
 30
0.0
 40
0.125
  1
800.66.TAGUE
  0
ENDBLK
  5
FA61
  8
0
  0
BLOCK
  8
0
  2
*U96
 70
     1
 10
0.0
 20
0.0
 30
0.0
  3
*U96
  1

  0
TEXT
  5
FA63
  8
0
 10
2.8235364504146778
 20
0.7161662597191026
 30
0.0
 40
0.125
  1
Half Round
  0
TEXT
  5
FA64
  8
0
 10
2.8235364504146778
 20
0.5078329263857692
 30
0.0
 40
0.125
  1
TL-6
  0
TEXT
  5
FA65
  8
0
 10
2.8235364504146778
 20
0.2994995930524358
 30
0.0
 40
0.125
  1
7/8" x 1-3/4"
  0
TEXT
  5
FA66
  8
0
 10
2.8235364504146778
 20
0.0911662597191025
 30
0.0
 40
0.125
  1
800.66.TAGUE
  0
ENDBLK
  5
FA68
  8
0
  0
BLOCK
  8
0
  2
*U97
 70
     1
 10
0.0
 20
0.0
 30
0.0
  3
*U97
  1

  0
TEXT
  5
FA6A
  8
0
 10
2.8316039409763221
 20
0.7222806133900122
 30
0.0
 40
0.125
  1
Half Round
  0
TEXT
  5
FA6B
  8
0
 10
2.8316039409763221
 20
0.5139472800566788
 30
0.0
 40
0.125
  1
TL-7
  0
TEXT
  5
FA6C
  8
0
 10
2.8316039409763221
 20
0.3056139467233454
 30
0.0
 40
0.125
  1
1" x 2"
  0
TEXT
  5
FA6D
  8
0
 10
2.8316039409763221
 20
0.0972806133900122
 30
0.0
 40
0.125
  1
800.66.TAGUE
  0
ENDBLK
  5
FA6F
  8
0
  0
BLOCK
  8
0
  2
*U98
 70
     1
 10
0.0
 20
0.0
 30
0.0
  3
*U98
  1

  0
TEXT
  5
FA71
  8
0
 10
4.3092556456276148
 20
0.8292621657587915
 30
0.0
 40
0.125
  1
Half Round
  0
TEXT
  5
FA72
  8
0
 10
4.3092556456276148
 20
0.6209288324254582
 30
0.0
 40
0.125
  1
TL-8
  0
TEXT
  5
FA73
  8
0
 10
4.3092556456276148
 20
0.4125954990921248
 30
0.0
 40
0.125
  1
1-1/2" x 3"
  0
TEXT
  5
FA74
  8
0
 10
4.3092556456276148
 20
0.2042621657587915
 30
0.0
 40
0.125
  1
800.66.TAGUE
  0
ENDBLK
  5
FA76
  8
0
  0
BLOCK
  8
0
  2
*U99
 70
     1
 10
0.0
 20
0.0
 30
0.0
  3
*U99
  1

  0
TEXT
  5
FA78
  8
0
 10
2.524104426630799
 20
0.6794299200373644
 30
0.0
 40
0.125
  1
Half Round
  0
TEXT
  5
FA79
  8
0
 10
2.524104426630799
 20
0.471096586704031
 30
0.0
 40
0.125
  1
TL-116
  0
TEXT
  5
FA7A
  8
0
 10
2.524104426630799
 20
0.2627632533706976
 30
0.0
 40
0.125
  1
3/4" x 1-1/2"
  0
TEXT
  5
FA7B
  8
0
 10
2.524104426630799
 20
0.0544299200373644
 30
0.0
 40
0.125
  1
800.66.TAGUE
  0
ENDBLK
  5
FA7D
  8
0
  0
BLOCK
  8
0
  2
*U100
 70
     1
 10
0.0
 20
0.0
 30
0.0
  3
*U100
  1

  0
TEXT
  5
FA7F
  8
0
 10
2.4691699319003528
 20
0.6794301275302815
 30
0.0
 40
0.125
  1
Half Round
  0
TEXT
  5
FA80
  8
0
 10
2.4691699319003528
 20
0.4710967941969481
 30
0.0
 40
0.125
  1
TL-119
  0
TEXT
  5
FA81
  8
0
 10
2.4691699319003528
 20
0.2627634608636147
 30
0.0
 40
0.125
  1
5/8" x 1-1/4"
  0
TEXT
  5
FA82
  8
0
 10
2.4691699319003528
 20
0.0544301275302814
 30
0.0
 40
0.125
  1
800.66.TAGUE
  0
ENDBLK
  5
FA84
  8
0
  0
BLOCK
  8
0
  2
*U101
 70
     1
 10
0.0
 20
0.0
 30
0.0
  3
*U101
  1

  0
TEXT
  5
FA86
  8
0
 10
1.96218194837894
 20
0.679429735423696
 30
0.0
 40
0.125
  1
Half Round
  0
TEXT
  5
FA87
  8
0
 10
1.96218194837894
 20
0.4710964020903626
 30
0.0
 40
0.125
  1
TL-120
  0
TEXT
  5
FA88
  8
0
 10
1.96218194837894
 20
0.2627630687570293
 30
0.0
 40
0.125
  1
1/2" x 1"
  0
TEXT
  5
FA89
  8
0
 10
1.96218194837894
 20
0.054429735423696
 30
0.0
 40
0.125
  1
800.66.TAGUE
  0
ENDBLK
  5
FA8B
  8
0
  0
BLOCK
  8
0
  2
*U102
 70
     1
 10
0.0
 20
0.0
 30
0.0
  3
*U102
  1

  0
TEXT
  5
FA8D
  8
0
 10
1.51989036816559
 20
0.679429754589819
 30
0.0
 40
0.125
  1
Half Round
  0
TEXT
  5
FA8E
  8
0
 10
1.51989036816559
 20
0.4710964212564856
 30
0.0
 40
0.125
  1
TL-122
  0
TEXT
  5
FA8F
  8
0
 10
1.51989036816559
 20
0.2627630879231522
 30
0.0
 40
0.125
  1
11/32" x 11/16"
  0
TEXT
  5
FA90
  8
0
 10
1.51989036816559
 20
0.0544297545898189
 30
0.0
 40
0.125
  1
800.66.TAGUE
  0
ENDBLK
  5
FA92
  8
0
  0
BLOCK
  8
0
  2
*U103
 70
     1
 10
0.0
 20
0.0
 30
0.0
  3
*U103
  1

  0
TEXT
  5
FA94
  8
0
 10
1.332760358760481
 20
0.6794306489528026
 30
0.0
 40
0.125
  1
Half Round
  0
TEXT
  5
FA95
  8
0
 10
1.332760358760481
 20
0.4710973156194692
 30
0.0
 40
0.125
  1
TL-124
  0
TEXT
  5
FA96
  8
0
 10
1.332760358760481
 20
0.2627639822861358
 30
0.0
 40
0.125
  1
1/4" x 1/2"
  0
TEXT
  5
FA97
  8
0
 10
1.332760358760481
 20
0.0544306489528026
 30
0.0
 40
0.125
  1
800.66.TAGUE
  0
ENDBLK
  5
FA99
  8
0
  0
BLOCK
  8
0
  2
*U104
 70
     1
 10
0.0
 20
0.0
 30
0.0
  3
*U104
  1

  0
TEXT
  5
FA9B
  8
0
 10
2.6263646070054838
 20
2.827461056571678
 30
0.0
 40
0.125
  1
Hand Rail
  0
TEXT
  5
FA9C
  8
0
 10
2.6263646070054838
 20
2.6191277232383441
 30
0.0
 40
0.125
  1
TL-14
  0
TEXT
  5
FA9D
  8
0
 10
2.6263646070054838
 20
2.410794389905011
 30
0.0
 40
0.125
  1
1-5/8" x 5-1/4"
  0
TEXT
  5
FA9E
  8
0
 10
2.6263646070054838
 20
2.202461056571678
 30
0.0
 40
0.125
  1
800.66.TAGUE
  0
ENDBLK
  5
FAA0
  8
0
  0
BLOCK
  8
0
  2
*U105
 70
     1
 10
0.0
 20
0.0
 30
0.0
  3
*U105
  1

  0
TEXT
  5
FAA2
  8
0
 10
2.2830209502855041
 20
2.755934710444194
 30
0.0
 40
0.125
  1
Hand Rail
  0
TEXT
  5
FAA3
  8
0
 10
2.2830209502855041
 20
2.5476013771108601
 30
0.0
 40
0.125
  1
TL-15
  0
TEXT
  5
FAA4
  8
0
 10
2.2830209502855041
 20
2.3392680437775271
 30
0.0
 40
0.125
  1
1-3/8" x 5-1/2"
  0
TEXT
  5
FAA5
  8
0
 10
2.2830209502855041
 20
2.130934710444194
 30
0.0
 40
0.125
  1
800.66.TAGUE
  0
ENDBLK
  5
FAA7
  8
0
  0
BLOCK
  8
0
  2
*U106
 70
     1
 10
0.0
 20
0.0
 30
0.0
  3
*U106
  1

  0
TEXT
  5
FAA9
  8
0
 10
3.5100871080940119
 20
1.046126857764647
 30
0.0
 40
0.125
  1
Hand Rail
  0
TEXT
  5
FAAA
  8
0
 10
3.5100871080940119
 20
0.8377935244313146
 30
0.0
 40
0.125
  1
TL-96
  0
TEXT
  5
FAAB
  8
0
 10
3.5100871080940119
 20
0.6294601910979814
 30
0.0
 40
0.125
  1
1-1/4" x 2-1/4"
  0
TEXT
  5
FAAC
  8
0
 10
3.5100871080940119
 20
0.4211268577646479
 30
0.0
 40
0.125
  1
800.66.TAGUE
  0
ENDBLK
  5
FAAE
  8
0
  0
BLOCK
  8
0
  2
*U107
 70
     1
 10
0.0
 20
0.0
 30
0.0
  3
*U107
  1

  0
TEXT
  5
FAB0
  8
0
 10
2.3417636350062589
 20
4.2171919217870482
 30
0.0
 40
0.125
  1
Hand Rail
  0
TEXT
  5
FAB1
  8
0
 10
2.3417636350062589
 20
4.0088585884537151
 30
0.0
 40
0.125
  1
TL-117
  0
TEXT
  5
FAB2
  8
0
 10
2.3417636350062589
 20
3.8005252551203812
 30
0.0
 40
0.125
  1
1-1/4" x 8-1/8"
  0
TEXT
  5
FAB3
  8
0
 10
2.3417636350062589
 20
3.5921919217870482
 30
0.0
 40
0.125
  1
800.66.TAGUE
  0
ENDBLK
  5
FAB5
  8
0
  0
BLOCK
  8
0
  2
*U108
 70
     1
 10
0.0
 20
0.0
 30
0.0
  3
*U108
  1

  0
TEXT
  5
FAB7
  8
0
 10
2.7125232555794119
 20
1.098442957172892
 30
0.0
 40
0.125
  1
Hand Rail
  0
TEXT
  5
FAB8
  8
0
 10
2.7125232555794119
 20
0.8901096238395592
 30
0.0
 40
0.125
  1
TL-231
  0
TEXT
  5
FAB9
  8
0
 10
2.7125232555794119
 20
0.6817762905062259
 30
0.0
 40
0.125
  1
1-1/2" x 1-11/16"
  0
TEXT
  5
FABA
  8
0
 10
2.7125232555794119
 20
0.4734429571728925
 30
0.0
 40
0.125
  1
800.66.TAGUE
  0
ENDBLK
  5
FABC
  8
0
  0
BLOCK
  8
0
  2
*U109
 70
     1
 10
0.0
 20
0.0
 30
0.0
  3
*U109
  1

  0
TEXT
  5
FABE
  8
0
 10
2.960252587020249
 20
0.6772989443436474
 30
0.0
 40
0.125
  1
Lattice
  0
TEXT
  5
FABF
  8
0
 10
2.960252587020249
 20
0.468965611010314
 30
0.0
 40
0.125
  1
TL-266
  0
TEXT
  5
FAC0
  8
0
 10
2.960252587020249
 20
0.2606322776769806
 30
0.0
 40
0.125
  1
1/4" x 1-5/8"
  0
TEXT
  5
FAC1
  8
0
 10
2.960252587020249
 20
0.0522989443436472
 30
0.0
 40
0.125
  1
800.66.TAGUE
  0
ENDBLK
  5
FAC3
  8
0
  0
BLOCK
  8
0
  2
*U110
 70
     1
 10
0.0
 20
0.0
 30
0.0
  3
*U110
  1

  0
TEXT
  5
FAC5
  8
0
 10
2.5177643903332401
 20
0.6772985360157691
 30
0.0
 40
0.125
  1
Lattice
  0
TEXT
  5
FAC6
  8
0
 10
2.5177643903332401
 20
0.4689652026824358
 30
0.0
 40
0.125
  1
TL-267
  0
TEXT
  5
FAC7
  8
0
 10
2.5177643903332401
 20
0.2606318693491024
 30
0.0
 40
0.125
  1
1/4" x 1-3/8"
  0
TEXT
  5
FAC8
  8
0
 10
2.5177643903332401
 20
0.0522985360157691
 30
0.0
 40
0.125
  1
800.66.TAGUE
  0
ENDBLK
  5
FACA
  8
0
  0
BLOCK
  8
0
  2
*U111
 70
     1
 10
0.0
 20
0.0
 30
0.0
  3
*U111
  1

  0
TEXT
  5
FACC
  8
0
 10
2.3872073702682419
 20
0.6772987437404936
 30
0.0
 40
0.125
  1
Lattice
  0
TEXT
  5
FACD
  8
0
 10
2.3872073702682419
 20
0.4689654104071603
 30
0.0
 40
0.125
  1
TL-268
  0
TEXT
  5
FACE
  8
0
 10
2.3872073702682419
 20
0.260632077073827
 30
0.0
 40
0.125
  1
1/4" x 1-1/8"
  0
TEXT
  5
FACF
  8
0
 10
2.3872073702682419
 20
0.0522987437404936
 30
0.0
 40
0.125
  1
800.66.TAGUE
  0
ENDBLK
  5
FAD1
  8
0
  0
BLOCK
  8
0
  2
*U112
 70
     1
 10
0.0
 20
0.0
 30
0.0
  3
*U112
  1

  0
TEXT
  5
FAD3
  8
0
 10
1.7198452767448771
 20
0.6772982915522335
 30
0.0
 40
0.125
  1
Lattice
  0
TEXT
  5
FAD4
  8
0
 10
1.7198452767448771
 20
0.4689649582189002
 30
0.0
 40
0.125
  1
TL-269
  0
TEXT
  5
FAD5
  8
0
 10
1.7198452767448771
 20
0.2606316248855668
 30
0.0
 40
0.125
  1
1/4" x 3/4"
  0
TEXT
  5
FAD6
  8
0
 10
1.7198452767448771
 20
0.0522982915522334
 30
0.0
 40
0.125
  1
800.66.TAGUE
  0
ENDBLK
  5
FAD8
  8
0
  0
BLOCK
  8
0
  2
*U113
 70
     1
 10
0.0
 20
0.0
 30
0.0
  3
*U113
  1

  0
TEXT
  5
FADA
  8
0
 10
2.0085733028087129
 20
0.6772989387914095
 30
0.0
 40
0.125
  1
Lattice
  0
TEXT
  5
FADB
  8
0
 10
2.0085733028087129
 20
0.4689656054580762
 30
0.0
 40
0.125
  1
TL-270
  0
TEXT
  5
FADC
  8
0
 10
2.0085733028087129
 20
0.2606322721247428
 30
0.0
 40
0.125
  1
1/4" x 7/8"
  0
TEXT
  5
FADD
  8
0
 10
2.0085733028087129
 20
0.0522989387914095
 30
0.0
 40
0.125
  1
800.66.TAGUE
  0
ENDBLK
  5
FADF
  8
0
  0
BLOCK
  8
0
  2
*U114
 70
     1
 10
0.0
 20
0.0
 30
0.0
  3
*U114
  1

  0
TEXT
  5
FAE1
  8
0
 10
2.940701223973178
 20
0.6772980715210224
 30
0.0
 40
0.125
  1
Lattice
  0
TEXT
  5
FAE2
  8
0
 10
2.940701223973178
 20
0.4689647381876891
 30
0.0
 40
0.125
  1
TL-962
  0
TEXT
  5
FAE3
  8
0
 10
2.940701223973178
 20
0.2606314048543558
 30
0.0
 40
0.125
  1
1/4" x 2"
  0
TEXT
  5
FAE4
  8
0
 10
2.940701223973178
 20
0.0522980715210224
 30
0.0
 40
0.125
  1
800.66.TAGUE
  0
ENDBLK
  5
FAE6
  8
0
  0
BLOCK
  8
0
  2
*U115
 70
     1
 10
0.0
 20
0.0
 30
0.0
  3
*U115
  1

  0
TEXT
  5
FAE8
  8
0
 10
1.983768624240724
 20
1.1498699559202801
 30
0.0
 40
0.125
  1
Lip Moulding
  0
TEXT
  5
FAE9
  8
0
 10
1.983768624240724
 20
0.9415366225869473
 30
0.0
 40
0.125
  1
TL-18
  0
TEXT
  5
FAEA
  8
0
 10
1.983768624240724
 20
0.7332032892536139
 30
0.0
 40
0.125
  1
3/4" x 1-15/16"
  0
TEXT
  5
FAEB
  8
0
 10
1.983768624240724
 20
0.5248699559202806
 30
0.0
 40
0.125
  1
800.66.TAGUE
  0
ENDBLK
  5
FAED
  8
0
  0
BLOCK
  8
0
  2
*U116
 70
     1
 10
0.0
 20
0.0
 30
0.0
  3
*U116
  1

  0
TEXT
  5
FAEF
  8
0
 10
2.2853728967398861
 20
1.2855052394233999
 30
0.0
 40
0.125
  1
Lip Moulding
  0
TEXT
  5
FAF0
  8
0
 10
2.2853728967398861
 20
1.0771719060900671
 30
0.0
 40
0.125
  1
TL-530
  0
TEXT
  5
FAF1
  8
0
 10
2.2853728967398861
 20
0.8688385727567342
 30
0.0
 40
0.125
  1
5/8" x 1-5/8"
  0
TEXT
  5
FAF2
  8
0
 10
2.2853728967398861
 20
0.6605052394234008
 30
0.0
 40
0.125
  1
800.66.TAGUE
  0
ENDBLK
  5
FAF4
  8
0
  0
BLOCK
  8
0
  2
*U117
 70
     1
 10
0.0
 20
0.0
 30
0.0
  3
*U117
  1

  0
TEXT
  5
FAF6
  8
0
 10
2.269200201813987
 20
1.1997502285778401
 30
0.0
 40
0.125
  1
Lip Moulding
  0
TEXT
  5
FAF7
  8
0
 10
2.269200201813987
 20
0.9914168952445077
 30
0.0
 40
0.125
  1
TL-532
  0
TEXT
  5
FAF8
  8
0
 10
2.269200201813987
 20
0.7830835619111745
 30
0.0
 40
0.125
  1
3/4" x 1-3/4"
  0
TEXT
  5
FAF9
  8
0
 10
2.269200201813987
 20
0.574750228577841
 30
0.0
 40
0.125
  1
800.66.TAGUE
  0
ENDBLK
  5
FAFB
  8
0
  0
BLOCK
  8
0
  2
*U118
 70
     1
 10
0.0
 20
0.0
 30
0.0
  3
*U118
  1

  0
TEXT
  5
FAFD
  8
0
 10
1.8892783014391621
 20
1.241449235052527
 30
0.0
 40
0.125
  1
Lip Moulding
  0
TEXT
  5
FAFE
  8
0
 10
1.8892783014391621
 20
1.033115901719194
 30
0.0
 40
0.125
  1
TL-2169
  0
TEXT
  5
FAFF
  8
0
 10
1.8892783014391621
 20
0.8247825683858613
 30
0.0
 40
0.125
  1
11/16" x 1-7/8"
  0
TEXT
  5
FB00
  8
0
 10
1.8892783014391621
 20
0.6164492350525279
 30
0.0
 40
0.125
  1
800.66.TAGUE
  0
ENDBLK
  5
FB02
  8
0
  0
BLOCK
  8
0
  2
*U119
 70
     1
 10
0.0
 20
0.0
 30
0.0
  3
*U119
  1

  0
TEXT
  5
FB04
  8
0
 10
1.620143794977025
 20
1.0038028284741349
 30
0.0
 40
0.125
  1
Lip Moulding
  0
TEXT
  5
FB05
  8
0
 10
1.620143794977025
 20
0.7954694951408026
 30
0.0
 40
0.125
  1
TL-2179
  0
TEXT
  5
FB06
  8
0
 10
1.620143794977025
 20
0.5871361618074693
 30
0.0
 40
0.125
  1
3/4" x 1-1/4"
  0
TEXT
  5
FB07
  8
0
 10
1.620143794977025
 20
0.3788028284741358
 30
0.0
 40
0.125
  1
800.66.TAGUE
  0
ENDBLK
  5
FB09
  8
0
  0
BLOCK
  8
0
  2
*U120
 70
     1
 10
0.0
 20
0.0
 30
0.0
  3
*U120
  1

  0
TEXT
  5
FB0B
  8
0
 10
-386.6816172417486
 20
839.4204868398956
 30
0.0
 40
0.125
  1
Lip Moulding
  0
TEXT
  5
FB0C
  8
0
 10
-386.6816172417486
 20
839.21215350656234
 30
0.0
 40
0.125
  1
TL-2179
  0
TEXT
  5
FB0D
  8
0
 10
-386.6816172417486
 20
839.00382017322897
 30
0.0
 40
0.125
  1
3/4" x 1-1/4"
  0
TEXT
  5
FB0E
  8
0
 10
-386.6816172417486
 20
838.7954868398956
 30
0.0
 40
0.125
  1
800.66.TAGUE
  0
ENDBLK
  5
FB10
  8
0
  0
ENDSEC
  0
SECTION
  2
ENTITIES
  0
LINE
  5
F979
  8
0
 10
-387.97477887354893
 20
838.4166839979323
 30
0.0
 11
-387.97477887354859
 21
838.83921921021965
 31
0.0
  0
LINE
  5
F97A
  8
0
 10
-387.97477887354859
 20
838.83921921021965
 30
0.0
 11
-388.3017619083995
 21
838.83921921021965
 31
0.0
  0
LINE
  5
F97B
  8
0
 10
-388.3017619083995
 20
838.83921921021965
 30
0.0
 11
-388.30176190839933
 21
839.6666839979323
 31
0.0
  0
LINE
  5
F97C
  8
0
 10
-387.68511864779828
 20
839.0982531667205
 30
0.0
 11
-387.68511864779828
 21
839.16972552724894
 31
0.0
  0
POLYLINE
  8
0
  5
FB11
  66
     1
 10
0.000000
 20
0.000000
 30
0.000000
  70
     8
  0
VERTEX
  8
0
  5
FB12
 10
-387.685
 20
839.098
 30
0.000000
  70
    32
  0
VERTEX
  8
0
  5
FB13
 10
-387.682
 20
839.096
 30
0.000000
  70
    32
  0
VERTEX
  8
0
  5
FB14
 10
-387.679
 20
839.094
 30
0.000000
  70
    32
  0
VERTEX
  8
0
  5
FB15
 10
-387.677
 20
839.092
 30
0.000000
  70
    32
  0
VERTEX
  8
0
  5
FB16
 10
-387.674
 20
839.090
 30
0.000000
  70
    32
  0
VERTEX
  8
0
  5
FB17
 10
-387.671
 20
839.088
 30
0.000000
  70
    32
  0
VERTEX
  8
0
  5
FB18
 10
-387.668
 20
839.086
 30
0.000000
  70
    32
  0
VERTEX
  8
0
  5
FB19
 10
-387.666
 20
839.084
 30
0.000000
  70
    32
  0
VERTEX
  8
0
  5
FB1A
 10
-387.663
 20
839.082
 30
0.000000
  70
    32
  0
VERTEX
  8
0
  5
FB1B
 10
-387.661
 20
839.080
 30
0.000000
  70
    32
  0
VERTEX
  8
0
  5
FB1C
 10
-387.658
 20
839.078
 30
0.000000
  70
    32
  0
VERTEX
  8
0
  5
FB1D
 10
-387.655
 20
839.075
 30
0.000000
  70
    32
  0
VERTEX
  8
0
  5
FB1E
 10
-387.653
 20
839.073
 30
0.000000
  70
    32
  0
VERTEX
  8
0
  5
FB1F
 10
-387.650
 20
839.071
 30
0.000000
  70
    32
  0
VERTEX
  8
0
  5
FB20
 10
-387.648
 20
839.068
 30
0.000000
  70
    32
  0
VERTEX
  8
0
  5
FB21
 10
-387.645
 20
839.066
 30
0.000000
  70
    32
  0
VERTEX
  8
0
  5
FB22
 10
-387.643
 20
839.064
 30
0.000000
  70
    32
  0
VERTEX
  8
0
  5
FB23
 10
-387.640
 20
839.061
 30
0.000000
  70
    32
  0
VERTEX
  8
0
  5
FB24
 10
-387.638
 20
839.059
 30
0.000000
  70
    32
  0
VERTEX
  8
0
  5
FB25
 10
-387.635
 20
839.056
 30
0.000000
  70
    32
  0
VERTEX
  8
0
  5
FB26
 10
-387.633
 20
839.054
 30
0.000000
  70
    32
  0
VERTEX
  8
0
  5
FB27
 10
-387.631
 20
839.051
 30
0.000000
  70
    32
  0
VERTEX
  8
0
  5
FB28
 10
-387.628
 20
839.049
 30
0.000000
  70
    32
  0
VERTEX
  8
0
  5
FB29
 10
-387.626
 20
839.046
 30
0.000000
  70
    32
  0
VERTEX
  8
0
  5
FB2A
 10
-387.624
 20
839.044
 30
0.000000
  70
    32
  0
VERTEX
  8
0
  5
FB2B
 10
-387.622
 20
839.041
 30
0.000000
  70
    32
  0
VERTEX
  8
0
  5
FB2C
 10
-387.619
 20
839.038
 30
0.000000
  70
    32
  0
VERTEX
  8
0
  5
FB2D
 10
-387.617
 20
839.036
 30
0.000000
  70
    32
  0
VERTEX
  8
0
  5
FB2E
 10
-387.615
 20
839.033
 30
0.000000
  70
    32
  0
VERTEX
  8
0
  5
FB2F
 10
-387.613
 20
839.031
 30
0.000000
  70
    32
  0
VERTEX
  8
0
  5
FB30
 10
-387.610
 20
839.028
 30
0.000000
  70
    32
  0
VERTEX
  8
0
  5
FB31
 10
-387.608
 20
839.025
 30
0.000000
  70
    32
  0
VERTEX
  8
0
  5
FB32
 10
-387.606
 20
839.022
 30
0.000000
  70
    32
  0
VERTEX
  8
0
  5
FB33
 10
-387.604
 20
839.020
 30
0.000000
  70
    32
  0
VERTEX
  8
0
  5
FB34
 10
-387.602
 20
839.017
 30
0.000000
  70
    32
  0
VERTEX
  8
0
  5
FB35
 10
-387.600
 20
839.014
 30
0.000000
  70
    32
  0
VERTEX
  8
0
  5
FB36
 10
-387.598
 20
839.011
 30
0.000000
  70
    32
  0
VERTEX
  8
0
  5
FB37
 10
-387.596
 20
839.008
 30
0.000000
  70
    32
  0
VERTEX
  8
0
  5
FB38
 10
-387.594
 20
839.006
 30
0.000000
  70
    32
  0
VERTEX
  8
0
  5
FB39
 10
-387.592
 20
839.003
 30
0.000000
  70
    32
  0
VERTEX
  8
0
  5
FB3A
 10
-387.590
 20
839.000
 30
0.000000
  70
    32
  0
VERTEX
  8
0
  5
FB3B
 10
-387.588
 20
838.997
 30
0.000000
  70
    32
  0
VERTEX
  8
0
  5
FB3C
 10
-387.586
 20
838.994
 30
0.000000
  70
    32
  0
VERTEX
  8
0
  5
FB3D
 10
-387.584
 20
838.991
 30
0.000000
  70
    32
  0
VERTEX
  8
0
  5
FB3E
 10
-387.582
 20
838.988
 30
0.000000
  70
    32
  0
VERTEX
  8
0
  5
FB3F
 10
-387.580
 20
838.985
 30
0.000000
  70
    32
  0
VERTEX
  8
0
  5
FB40
 10
-387.579
 20
838.983
 30
0.000000
  70
    32
  0
VERTEX
  8
0
  5
FB41
 10
-387.577
 20
838.980
 30
0.000000
  70
    32
  0
VERTEX
  8
0
  5
FB42
 10
-387.575
 20
838.977
 30
0.000000
  70
    32
  0
VERTEX
  8
0
  5
FB43
 10
-387.573
 20
838.974
 30
0.000000
  70
    32
  0
VERTEX
  8
0
  5
FB44
 10
-387.572
 20
838.971
 30
0.000000
  70
    32
  0
VERTEX
  8
0
  5
FB45
 10
-387.570
 20
838.968
 30
0.000000
  70
    32
  0
VERTEX
  8
0
  5
FB46
 10
-387.568
 20
838.965
 30
0.000000
  70
    32
  0
VERTEX
  8
0
  5
FB47
 10
-387.567
 20
838.962
 30
0.000000
  70
    32
  0
VERTEX
  8
0
  5
FB48
 10
-387.565
 20
838.959
 30
0.000000
  70
    32
  0
VERTEX
  8
0
  5
FB49
 10
-387.563
 20
838.955
 30
0.000000
  70
    32
  0
VERTEX
  8
0
  5
FB4A
 10
-387.562
 20
838.952
 30
0.000000
  70
    32
  0
VERTEX
  8
0
  5
FB4B
 10
-387.560
 20
838.949
 30
0.000000
  70
    32
  0
VERTEX
  8
0
  5
FB4C
 10
-387.559
 20
838.946
 30
0.000000
  70
    32
  0
VERTEX
  8
0
  5
FB4D
 10
-387.557
 20
838.943
 30
0.000000
  70
    32
  0
VERTEX
  8
0
  5
FB4E
 10
-387.556
 20
838.940
 30
0.000000
  70
    32
  0
VERTEX
  8
0
  5
FB4F
 10
-387.555
 20
838.937
 30
0.000000
  70
    32
  0
VERTEX
  8
0
  5
FB50
 10
-387.553
 20
838.934
 30
0.000000
  70
    32
  0
VERTEX
  8
0
  5
FB51
 10
-387.552
 20
838.930
 30
0.000000
  70
    32
  0
VERTEX
  8
0
  5
FB52
 10
-387.551
 20
838.927
 30
0.000000
  70
    32
  0
VERTEX
  8
0
  5
FB53
 10
-387.549
 20
838.924
 30
0.000000
  70
    32
  0
VERTEX
  8
0
  5
FB54
 10
-387.548
 20
838.921
 30
0.000000
  70
    32
  0
VERTEX
  8
0
  5
FB55
 10
-387.547
 20
838.918
 30
0.000000
  70
    32
  0
VERTEX
  8
0
  5
FB56
 10
-387.546
 20
838.914
 30
0.000000
  70
    32
  0
VERTEX
  8
0
  5
FB57
 10
-387.545
 20
838.911
 30
0.000000
  70
    32
  0
VERTEX
  8
0
  5
FB58
 10
-387.544
 20
838.908
 30
0.000000
  70
    32
  0
VERTEX
  8
0
  5
FB59
 10
-387.543
 20
838.905
 30
0.000000
  70
    32
  0
VERTEX
  8
0
  5
FB5A
 10
-387.542
 20
838.901
 30
0.000000
  70
    32
  0
VERTEX
  8
0
  5
FB5B
 10
-387.541
 20
838.898
 30
0.000000
  70
    32
  0
VERTEX
  8
0
  5
FB5C
 10
-387.540
 20
838.895
 30
0.000000
  70
    32
  0
VERTEX
  8
0
  5
FB5D
 10
-387.539
 20
838.891
 30
0.000000
  70
    32
  0
VERTEX
  8
0
  5
FB5E
 10
-387.538
 20
838.888
 30
0.000000
  70
    32
  0
VERTEX
  8
0
  5
FB5F
 10
-387.538
 20
838.885
 30
0.000000
  70
    32
  0
VERTEX
  8
0
  5
FB60
 10
-387.537
 20
838.881
 30
0.000000
  70
    32
  0
VERTEX
  8
0
  5
FB61
 10
-387.536
 20
838.878
 30
0.000000
  70
    32
  0
VERTEX
  8
0
  5
FB62
 10
-387.536
 20
838.875
 30
0.000000
  70
    32
  0
VERTEX
  8
0
  5
FB63
 10
-387.535
 20
838.871
 30
0.000000
  70
    32
  0
VERTEX
  8
0
  5
FB64
 10
-387.535
 20
838.868
 30
0.000000
  70
    32
  0
VERTEX
  8
0
  5
FB65
 10
-387.534
 20
838.864
 30
0.000000
  70
    32
  0
VERTEX
  8
0
  5
FB66
 10
-387.534
 20
838.861
 30
0.000000
  70
    32
  0
VERTEX
  8
0
  5
FB67
 10
-387.533
 20
838.858
 30
0.000000
  70
    32
  0
VERTEX
  8
0
  5
FB68
 10
-387.533
 20
838.854
 30
0.000000
  70
    32
  0
VERTEX
  8
0
  5
FB69
 10
-387.532
 20
838.851
 30
0.000000
  70
    32
  0
VERTEX
  8
0
  5
FB6A
 10
-387.532
 20
838.847
 30
0.000000
  70
    32
  0
VERTEX
  8
0
  5
FB6B
 10
-387.532
 20
838.844
 30
0.000000
  70
    32
  0
VERTEX
  8
0
  5
FB6C
 10
-387.532
 20
838.840
 30
0.000000
  70
    32
  0
VERTEX
  8
0
  5
FB6D
 10
-387.531
 20
838.837
 30
0.000000
  70
    32
  0
VERTEX
  8
0
  5
FB6E
 10
-387.531
 20
838.834
 30
0.000000
  70
    32
  0
VERTEX
  8
0
  5
FB6F
 10
-387.531
 20
838.830
 30
0.000000
  70
    32
  0
VERTEX
  8
0
  5
FB70
 10
-387.531
 20
838.827
 30
0.000000
  70
    32
  0
VERTEX
  8
0
  5
FB71
 10
-387.531
 20
838.823
 30
0.000000
  70
    32
  0
VERTEX
  8
0
  5
FB72
 10
-387.531
 20
838.820
 30
0.000000
  70
    32
  0
VERTEX
  8
0
  5
FB73
 10
-387.531
 20
838.816
 30
0.000000
  70
    32
  0
VERTEX
  8
0
  5
FB74
 10
-387.531
 20
838.813
 30
0.000000
  70
    32
  0
VERTEX
  8
0
  5
FB75
 10
-387.531
 20
838.809
 30
0.000000
  70
    32
  0
VERTEX
  8
0
  5
FB76
 10
-387.531
 20
838.806
 30
0.000000
  70
    32
  0
VERTEX
  8
0
  5
FB77
 10
-387.531
 20
838.802
 30
0.000000
  70
    32
  0
VERTEX
  8
0
  5
FB78
 10
-387.532
 20
838.799
 30
0.000000
  70
    32
  0
VERTEX
  8
0
  5
FB79
 10
-387.532
 20
838.795
 30
0.000000
  70
    32
  0
VERTEX
  8
0
  5
FB7A
 10
-387.532
 20
838.792
 30
0.000000
  70
    32
  0
VERTEX
  8
0
  5
FB7B
 10
-387.533
 20
838.788
 30
0.000000
  70
    32
  0
VERTEX
  8
0
  5
FB7C
 10
-387.533
 20
838.785
 30
0.000000
  70
    32
  0
VERTEX
  8
0
  5
FB7D
 10
-387.533
 20
838.781
 30
0.000000
  70
    32
  0
VERTEX
  8
0
  5
FB7E
 10
-387.534
 20
838.778
 30
0.000000
  70
    32
  0
VERTEX
  8
0
  5
FB7F
 10
-387.534
 20
838.774
 30
0.000000
  70
    32
  0
VERTEX
  8
0
  5
FB80
 10
-387.535
 20
838.771
 30
0.000000
  70
    32
  0
VERTEX
  8
0
  5
FB81
 10
-387.535
 20
838.767
 30
0.000000
  70
    32
  0
VERTEX
  8
0
  5
FB82
 10
-387.536
 20
838.764
 30
0.000000
  70
    32
  0
VERTEX
  8
0
  5
FB83
 10
-387.536
 20
838.761
 30
0.000000
  70
    32
  0
VERTEX
  8
0
  5
FB84
 10
-387.537
 20
838.757
 30
0.000000
  70
    32
  0
VERTEX
  8
0
  5
FB85
 10
-387.538
 20
838.754
 30
0.000000
  70
    32
  0
VERTEX
  8
0
  5
FB86
 10
-387.538
 20
838.750
 30
0.000000
  70
    32
  0
VERTEX
  8
0
  5
FB87
 10
-387.539
 20
838.747
 30
0.000000
  70
    32
  0
VERTEX
  8
0
  5
FB88
 10
-387.540
 20
838.743
 30
0.000000
  70
    32
  0
VERTEX
  8
0
  5
FB89
 10
-387.541
 20
838.740
 30
0.000000
  70
    32
  0
VERTEX
  8
0
  5
FB8A
 10
-387.541
 20
838.736
 30
0.000000
  70
    32
  0
VERTEX
  8
0
  5
FB8B
 10
-387.542
 20
838.733
 30
0.000000
  70
    32
  0
VERTEX
  8
0
  5
FB8C
 10
-387.543
 20
838.730
 30
0.000000
  70
    32
  0
VERTEX
  8
0
  5
FB8D
 10
-387.544
 20
838.726
 30
0.000000
  70
    32
  0
VERTEX
  8
0
  5
FB8E
 10
-387.545
 20
838.723
 30
0.000000
  70
    32
  0
VERTEX
  8
0
  5
FB8F
 10
-387.546
 20
838.719
 30
0.000000
  70
    32
  0
VERTEX
  8
0
  5
FB90
 10
-387.547
 20
838.716
 30
0.000000
  70
    32
  0
VERTEX
  8
0
  5
FB91
 10
-387.548
 20
838.713
 30
0.000000
  70
    32
  0
VERTEX
  8
0
  5
FB92
 10
-387.549
 20
838.709
 30
0.000000
  70
    32
  0
VERTEX
  8
0
  5
FB93
 10
-387.550
 20
838.706
 30
0.000000
  70
    32
  0
VERTEX
  8
0
  5
FB94
 10
-387.551
 20
838.703
 30
0.000000
  70
    32
  0
VERTEX
  8
0
  5
FB95
 10
-387.553
 20
838.699
 30
0.000000
  70
    32
  0
VERTEX
  8
0
  5
FB96
 10
-387.554
 20
838.696
 30
0.000000
  70
    32
  0
VERTEX
  8
0
  5
FB97
 10
-387.555
 20
838.693
 30
0.000000
  70
    32
  0
VERTEX
  8
0
  5
FB98
 10
-387.556
 20
838.689
 30
0.000000
  70
    32
  0
VERTEX
  8
0
  5
FB99
 10
-387.558
 20
838.686
 30
0.000000
  70
    32
  0
VERTEX
  8
0
  5
FB9A
 10
-387.559
 20
838.683
 30
0.000000
  70
    32
  0
VERTEX
  8
0
  5
FB9B
 10
-387.560
 20
838.680
 30
0.000000
  70
    32
  0
VERTEX
  8
0
  5
FB9C
 10
-387.562
 20
838.676
 30
0.000000
  70
    32
  0
VERTEX
  8
0
  5
FB9D
 10
-387.563
 20
838.673
 30
0.000000
  70
    32
  0
VERTEX
  8
0
  5
FB9E
 10
-387.565
 20
838.670
 30
0.000000
  70
    32
  0
VERTEX
  8
0
  5
FB9F
 10
-387.566
 20
838.667
 30
0.000000
  70
    32
  0
VERTEX
  8
0
  5
FBA0
 10
-387.567
 20
838.664
 30
0.000000
  70
    32
  0
VERTEX
  8
0
  5
FBA1
 10
-387.569
 20
838.661
 30
0.000000
  70
    32
  0
VERTEX
  8
0
  5
FBA2
 10
-387.571
 20
838.657
 30
0.000000
  70
    32
  0
VERTEX
  8
0
  5
FBA3
 10
-387.572
 20
838.654
 30
0.000000
  70
    32
  0
VERTEX
  8
0
  5
FBA4
 10
-387.574
 20
838.651
 30
0.000000
  70
    32
  0
VERTEX
  8
0
  5
FBA5
 10
-387.575
 20
838.648
 30
0.000000
  70
    32
  0
VERTEX
  8
0
  5
FBA6
 10
-387.577
 20
838.645
 30
0.000000
  70
    32
  0
VERTEX
  8
0
  5
FBA7
 10
-387.579
 20
838.642
 30
0.000000
  70
    32
  0
VERTEX
  8
0
  5
FBA8
 10
-387.580
 20
838.639
 30
0.000000
  70
    32
  0
VERTEX
  8
0
  5
FBA9
 10
-387.582
 20
838.636
 30
0.000000
  70
    32
  0
VERTEX
  8
0
  5
FBAA
 10
-387.584
 20
838.633
 30
0.000000
  70
    32
  0
VERTEX
  8
0
  5
FBAB
 10
-387.586
 20
838.630
 30
0.000000
  70
    32
  0
VERTEX
  8
0
  5
FBAC
 10
-387.588
 20
838.627
 30
0.000000
  70
    32
  0
VERTEX
  8
0
  5
FBAD
 10
-387.589
 20
838.624
 30
0.000000
  70
    32
  0
VERTEX
  8
0
  5
FBAE
 10
-387.591
 20
838.621
 30
0.000000
  70
    32
  0
VERTEX
  8
0
  5
FBAF
 10
-387.593
 20
838.618
 30
0.000000
  70
    32
  0
VERTEX
  8
0
  5
FBB0
 10
-387.595
 20
838.616
 30
0.000000
  70
    32
  0
VERTEX
  8
0
  5
FBB1
 10
-387.597
 20
838.613
 30
0.000000
  70
    32
  0
VERTEX
  8
0
  5
FBB2
 10
-387.599
 20
838.610
 30
0.000000
  70
    32
  0
VERTEX
  8
0
  5
FBB3
 10
-387.601
 20
838.607
 30
0.000000
  70
    32
  0
VERTEX
  8
0
  5
FBB4
 10
-387.603
 20
838.604
 30
0.000000
  70
    32
  0
VERTEX
  8
0
  5
FBB5
 10
-387.605
 20
838.601
 30
0.000000
  70
    32
  0
VERTEX
  8
0
  5
FBB6
 10
-387.607
 20
838.599
 30
0.000000
  70
    32
  0
VERTEX
  8
0
  5
FBB7
 10
-387.609
 20
838.596
 30
0.000000
  70
    32
  0
VERTEX
  8
0
  5
FBB8
 10
-387.611
 20
838.593
 30
0.000000
  70
    32
  0
VERTEX
  8
0
  5
FBB9
 10
-387.613
 20
838.590
 30
0.000000
  70
    32
  0
VERTEX
  8
0
  5
FBBA
 10
-387.616
 20
838.588
 30
0.000000
  70
    32
  0
VERTEX
  8
0
  5
FBBB
 10
-387.618
 20
838.585
 30
0.000000
  70
    32
  0
VERTEX
  8
0
  5
FBBC
 10
-387.620
 20
838.582
 30
0.000000
  70
    32
  0
VERTEX
  8
0
  5
FBBD
 10
-387.622
 20
838.580
 30
0.000000
  70
    32
  0
VERTEX
  8
0
  5
FBBE
 10
-387.624
 20
838.577
 30
0.000000
  70
    32
  0
VERTEX
  8
0
  5
FBBF
 10
-387.627
 20
838.575
 30
0.000000
  70
    32
  0
VERTEX
  8
0
  5
FBC0
 10
-387.629
 20
838.572
 30
0.000000
  70
    32
  0
VERTEX
  8
0
  5
FBC1
 10
-387.631
 20
838.569
 30
0.000000
  70
    32
  0
VERTEX
  8
0
  5
FBC2
 10
-387.634
 20
838.567
 30
0.000000
  70
    32
  0
VERTEX
  8
0
  5
FBC3
 10
-387.636
 20
838.564
 30
0.000000
  70
    32
  0
VERTEX
  8
0
  5
FBC4
 10
-387.638
 20
838.562
 30
0.000000
  70
    32
  0
VERTEX
  8
0
  5
FBC5
 10
-387.641
 20
838.559
 30
0.000000
  70
    32
  0
VERTEX
  8
0
  5
FBC6
 10
-387.643
 20
838.557
 30
0.000000
  70
    32
  0
VERTEX
  8
0
  5
FBC7
 10
-387.646
 20
838.555
 30
0.000000
  70
    32
  0
VERTEX
  8
0
  5
FBC8
 10
-387.648
 20
838.552
 30
0.000000
  70
    32
  0
VERTEX
  8
0
  5
FBC9
 10
-387.651
 20
838.550
 30
0.000000
  70
    32
  0
VERTEX
  8
0
  5
FBCA
 10
-387.653
 20
838.547
 30
0.000000
  70
    32
  0
VERTEX
  8
0
  5
FBCB
 10
-387.656
 20
838.545
 30
0.000000
  70
    32
  0
VERTEX
  8
0
  5
FBCC
 10
-387.658
 20
838.543
 30
0.000000
  70
    32
  0
VERTEX
  8
0
  5
FBCD
 10
-387.661
 20
838.540
 30
0.000000
  70
    32
  0
VERTEX
  8
0
  5
FBCE
 10
-387.663
 20
838.538
 30
0.000000
  70
    32
  0
VERTEX
  8
0
  5
FBCF
 10
-387.666
 20
838.536
 30
0.000000
  70
    32
  0
VERTEX
  8
0
  5
FBD0
 10
-387.668
 20
838.534
 30
0.000000
  70
    32
  0
VERTEX
  8
0
  5
FBD1
 10
-387.671
 20
838.531
 30
0.000000
  70
    32
  0
VERTEX
  8
0
  5
FBD2
 10
-387.674
 20
838.529
 30
0.000000
  70
    32
  0
VERTEX
  8
0
  5
FBD3
 10
-387.676
 20
838.527
 30
0.000000
  70
    32
  0
VERTEX
  8
0
  5
FBD4
 10
-387.679
 20
838.525
 30
0.000000
  70
    32
  0
VERTEX
  8
0
  5
FBD5
 10
-387.682
 20
838.523
 30
0.000000
  70
    32
  0
VERTEX
  8
0
  5
FBD6
 10
-387.684
 20
838.521
 30
0.000000
  70
    32
  0
VERTEX
  8
0
  5
FBD7
 10
-387.687
 20
838.519
 30
0.000000
  70
    32
  0
VERTEX
  8
0
  5
FBD8
 10
-387.690
 20
838.517
 30
0.000000
  70
    32
  0
VERTEX
  8
0
  5
FBD9
 10
-387.693
 20
838.515
 30
0.000000
  70
    32
  0
VERTEX
  8
0
  5
FBDA
 10
-387.695
 20
838.513
 30
0.000000
  70
    32
  0
VERTEX
  8
0
  5
FBDB
 10
-387.698
 20
838.511
 30
0.000000
  70
    32
  0
VERTEX
  8
0
  5
FBDC
 10
-387.701
 20
838.509
 30
0.000000
  70
    32
  0
VERTEX
  8
0
  5
FBDD
 10
-387.704
 20
838.507
 30
0.000000
  70
    32
  0
VERTEX
  8
0
  5
FBDE
 10
-387.707
 20
838.505
 30
0.000000
  70
    32
  0
VERTEX
  8
0
  5
FBDF
 10
-387.710
 20
838.503
 30
0.000000
  70
    32
  0
VERTEX
  8
0
  5
FBE0
 10
-387.712
 20
838.501
 30
0.000000
  70
    32
  0
VERTEX
  8
0
  5
FBE1
 10
-387.715
 20
838.499
 30
0.000000
  70
    32
  0
VERTEX
  8
0
  5
FBE2
 10
-387.718
 20
838.497
 30
0.000000
  70
    32
  0
VERTEX
  8
0
  5
FBE3
 10
-387.721
 20
838.496
 30
0.000000
  70
    32
  0
VERTEX
  8
0
  5
FBE4
 10
-387.724
 20
838.494
 30
0.000000
  70
    32
  0
VERTEX
  8
0
  5
FBE5
 10
-387.727
 20
838.492
 30
0.000000
  70
    32
  0
VERTEX
  8
0
  5
FBE6
 10
-387.730
 20
838.490
 30
0.000000
  70
    32
  0
VERTEX
  8
0
  5
FBE7
 10
-387.733
 20
838.488
 30
0.000000
  70
    32
  0
VERTEX
  8
0
  5
FBE8
 10
-387.736
 20
838.487
 30
0.000000
  70
    32
  0
VERTEX
  8
0
  5
FBE9
 10
-387.739
 20
838.485
 30
0.000000
  70
    32
  0
VERTEX
  8
0
  5
FBEA
 10
-387.742
 20
838.483
 30
0.000000
  70
    32
  0
VERTEX
  8
0
  5
FBEB
 10
-387.745
 20
838.482
 30
0.000000
  70
    32
  0
VERTEX
  8
0
  5
FBEC
 10
-387.748
 20
838.480
 30
0.000000
  70
    32
  0
VERTEX
  8
0
  5
FBED
 10
-387.751
 20
838.479
 30
0.000000
  70
    32
  0
VERTEX
  8
0
  5
FBEE
 10
-387.754
 20
838.477
 30
0.000000
  70
    32
  0
VERTEX
  8
0
  5
FBEF
 10
-387.757
 20
838.475
 30
0.000000
  70
    32
  0
VERTEX
  8
0
  5
FBF0
 10
-387.760
 20
838.474
 30
0.000000
  70
    32
  0
VERTEX
  8
0
  5
FBF1
 10
-387.763
 20
838.472
 30
0.000000
  70
    32
  0
VERTEX
  8
0
  5
FBF2
 10
-387.766
 20
838.471
 30
0.000000
  70
    32
  0
VERTEX
  8
0
  5
FBF3
 10
-387.770
 20
838.469
 30
0.000000
  70
    32
  0
VERTEX
  8
0
  5
FBF4
 10
-387.773
 20
838.468
 30
0.000000
  70
    32
  0
VERTEX
  8
0
  5
FBF5
 10
-387.776
 20
838.466
 30
0.000000
  70
    32
  0
VERTEX
  8
0
  5
FBF6
 10
-387.779
 20
838.465
 30
0.000000
  70
    32
  0
VERTEX
  8
0
  5
FBF7
 10
-387.782
 20
838.464
 30
0.000000
  70
    32
  0
VERTEX
  8
0
  5
FBF8
 10
-387.785
 20
838.462
 30
0.000000
  70
    32
  0
VERTEX
  8
0
  5
FBF9
 10
-387.788
 20
838.461
 30
0.000000
  70
    32
  0
VERTEX
  8
0
  5
FBFA
 10
-387.792
 20
838.460
 30
0.000000
  70
    32
  0
VERTEX
  8
0
  5
FBFB
 10
-387.795
 20
838.458
 30
0.000000
  70
    32
  0
VERTEX
  8
0
  5
FBFC
 10
-387.798
 20
838.457
 30
0.000000
  70
    32
  0
VERTEX
  8
0
  5
FBFD
 10
-387.801
 20
838.456
 30
0.000000
  70
    32
  0
VERTEX
  8
0
  5
FBFE
 10
-387.804
 20
838.454
 30
0.000000
  70
    32
  0
VERTEX
  8
0
  5
FBFF
 10
-387.808
 20
838.453
 30
0.000000
  70
    32
  0
VERTEX
  8
0
  5
FC00
 10
-387.811
 20
838.452
 30
0.000000
  70
    32
  0
VERTEX
  8
0
  5
FC01
 10
-387.814
 20
838.451
 30
0.000000
  70
    32
  0
VERTEX
  8
0
  5
FC02
 10
-387.817
 20
838.450
 30
0.000000
  70
    32
  0
VERTEX
  8
0
  5
FC03
 10
-387.821
 20
838.448
 30
0.000000
  70
    32
  0
VERTEX
  8
0
  5
FC04
 10
-387.824
 20
838.447
 30
0.000000
  70
    32
  0
VERTEX
  8
0
  5
FC05
 10
-387.827
 20
838.446
 30
0.000000
  70
    32
  0
VERTEX
  8
0
  5
FC06
 10
-387.830
 20
838.445
 30
0.000000
  70
    32
  0
VERTEX
  8
0
  5
FC07
 10
-387.834
 20
838.444
 30
0.000000
  70
    32
  0
VERTEX
  8
0
  5
FC08
 10
-387.837
 20
838.443
 30
0.000000
  70
    32
  0
VERTEX
  8
0
  5
FC09
 10
-387.840
 20
838.442
 30
0.000000
  70
    32
  0
VERTEX
  8
0
  5
FC0A
 10
-387.844
 20
838.441
 30
0.000000
  70
    32
  0
VERTEX
  8
0
  5
FC0B
 10
-387.847
 20
838.440
 30
0.000000
  70
    32
  0
VERTEX
  8
0
  5
FC0C
 10
-387.850
 20
838.439
 30
0.000000
  70
    32
  0
VERTEX
  8
0
  5
FC0D
 10
-387.853
 20
838.438
 30
0.000000
  70
    32
  0
VERTEX
  8
0
  5
FC0E
 10
-387.857
 20
838.437
 30
0.000000
  70
    32
  0
VERTEX
  8
0
  5
FC0F
 10
-387.860
 20
838.436
 30
0.000000
  70
    32
  0
VERTEX
  8
0
  5
FC10
 10
-387.863
 20
838.435
 30
0.000000
  70
    32
  0
VERTEX
  8
0
  5
FC11
 10
-387.867
 20
838.434
 30
0.000000
  70
    32
  0
VERTEX
  8
0
  5
FC12
 10
-387.870
 20
838.433
 30
0.000000
  70
    32
  0
VERTEX
  8
0
  5
FC13
 10
-387.873
 20
838.432
 30
0.000000
  70
    32
  0
VERTEX
  8
0
  5
FC14
 10
-387.877
 20
838.431
 30
0.000000
  70
    32
  0
VERTEX
  8
0
  5
FC15
 10
-387.880
 20
838.431
 30
0.000000
  70
    32
  0
VERTEX
  8
0
  5
FC16
 10
-387.883
 20
838.430
 30
0.000000
  70
    32
  0
VERTEX
  8
0
  5
FC17
 10
-387.887
 20
838.429
 30
0.000000
  70
    32
  0
VERTEX
  8
0
  5
FC18
 10
-387.890
 20
838.428
 30
0.000000
  70
    32
  0
VERTEX
  8
0
  5
FC19
 10
-387.893
 20
838.427
 30
0.000000
  70
    32
  0
VERTEX
  8
0
  5
FC1A
 10
-387.897
 20
838.427
 30
0.000000
  70
    32
  0
VERTEX
  8
0
  5
FC1B
 10
-387.900
 20
838.426
 30
0.000000
  70
    32
  0
VERTEX
  8
0
  5
FC1C
 10
-387.903
 20
838.425
 30
0.000000
  70
    32
  0
VERTEX
  8
0
  5
FC1D
 10
-387.907
 20
838.425
 30
0.000000
  70
    32
  0
VERTEX
  8
0
  5
FC1E
 10
-387.910
 20
838.424
 30
0.000000
  70
    32
  0
VERTEX
  8
0
  5
FC1F
 10
-387.914
 20
838.423
 30
0.000000
  70
    32
  0
VERTEX
  8
0
  5
FC20
 10
-387.917
 20
838.423
 30
0.000000
  70
    32
  0
VERTEX
  8
0
  5
FC21
 10
-387.920
 20
838.422
 30
0.000000
  70
    32
  0
VERTEX
  8
0
  5
FC22
 10
-387.924
 20
838.422
 30
0.000000
  70
    32
  0
VERTEX
  8
0
  5
FC23
 10
-387.927
 20
838.421
 30
0.000000
  70
    32
  0
VERTEX
  8
0
  5
FC24
 10
-387.931
 20
838.421
 30
0.000000
  70
    32
  0
VERTEX
  8
0
  5
FC25
 10
-387.934
 20
838.420
 30
0.000000
  70
    32
  0
VERTEX
  8
0
  5
FC26
 10
-387.937
 20
838.420
 30
0.000000
  70
    32
  0
VERTEX
  8
0
  5
FC27
 10
-387.941
 20
838.419
 30
0.000000
  70
    32
  0
VERTEX
  8
0
  5
FC28
 10
-387.944
 20
838.419
 30
0.000000
  70
    32
  0
VERTEX
  8
0
  5
FC29
 10
-387.947
 20
838.419
 30
0.000000
  70
    32
  0
VERTEX
  8
0
  5
FC2A
 10
-387.951
 20
838.418
 30
0.000000
  70
    32
  0
VERTEX
  8
0
  5
FC2B
 10
-387.954
 20
838.418
 30
0.000000
  70
    32
  0
VERTEX
  8
0
  5
FC2C
 10
-387.958
 20
838.418
 30
0.000000
  70
    32
  0
VERTEX
  8
0
  5
FC2D
 10
-387.961
 20
838.417
 30
0.000000
  70
    32
  0
VERTEX
  8
0
  5
FC2E
 10
-387.965
 20
838.417
 30
0.000000
  70
    32
  0
VERTEX
  8
0
  5
FC2F
 10
-387.968
 20
838.417
 30
0.000000
  70
    32
  0
VERTEX
  8
0
  5
FC30
 10
-387.971
 20
838.417
 30
0.000000
  70
    32
  0
VERTEX
  8
0
  5
FC31
 10
-387.975
 20
838.417
 30
0.000000
  70
    32
  0
SEQEND
  8
0
  5
FC32
  0
POLYLINE
  8
0
  5
FC33
  66
     1
 10
0.000000
 20
0.000000
 30
0.000000
  70
     8
  0
VERTEX
  8
0
  5
FC34
 10
-387.685
 20
839.170
 30
0.000000
  70
    32
  0
VERTEX
  8
0
  5
FC35
 10
-387.685
 20
839.172
 30
0.000000
  70
    32
  0
VERTEX
  8
0
  5
FC36
 10
-387.686
 20
839.174
 30
0.000000
  70
    32
  0
VERTEX
  8
0
  5
FC37
 10
-387.686
 20
839.177
 30
0.000000
  70
    32
  0
VERTEX
  8
0
  5
FC38
 10
-387.687
 20
839.179
 30
0.000000
  70
    32
  0
VERTEX
  8
0
  5
FC39
 10
-387.688
 20
839.181
 30
0.000000
  70
    32
  0
VERTEX
  8
0
  5
FC3A
 10
-387.689
 20
839.183
 30
0.000000
  70
    32
  0
VERTEX
  8
0
  5
FC3B
 10
-387.690
 20
839.185
 30
0.000000
  70
    32
  0
VERTEX
  8
0
  5
FC3C
 10
-387.691
 20
839.187
 30
0.000000
  70
    32
  0
VERTEX
  8
0
  5
FC3D
 10
-387.693
 20
839.188
 30
0.000000
  70
    32
  0
VERTEX
  8
0
  5
FC3E
 10
-387.694
 20
839.190
 30
0.000000
  70
    32
  0
VERTEX
  8
0
  5
FC3F
 10
-387.696
 20
839.192
 30
0.000000
  70
    32
  0
VERTEX
  8
0
  5
FC40
 10
-387.698
 20
839.194
 30
0.000000
  70
    32
  0
VERTEX
  8
0
  5
FC41
 10
-387.700
 20
839.195
 30
0.000000
  70
    32
  0
VERTEX
  8
0
  5
FC42
 10
-387.702
 20
839.197
 30
0.000000
  70
    32
  0
VERTEX
  8
0
  5
FC43
 10
-387.704
 20
839.199
 30
0.000000
  70
    32
  0
VERTEX
  8
0
  5
FC44
 10
-387.706
 20
839.200
 30
0.000000
  70
    32
  0
VERTEX
  8
0
  5
FC45
 10
-387.708
 20
839.202
 30
0.000000
  70
    32
  0
VERTEX
  8
0
  5
FC46
 10
-387.711
 20
839.203
 30
0.000000
  70
    32
  0
VERTEX
  8
0
  5
FC47
 10
-387.713
 20
839.205
 30
0.000000
  70
    32
  0
VERTEX
  8
0
  5
FC48
 10
-387.715
 20
839.206
 30
0.000000
  70
    32
  0
VERTEX
  8
0
  5
FC49
 10
-387.717
 20
839.207
 30
0.000000
  70
    32
  0
VERTEX
  8
0
  5
FC4A
 10
-387.720
 20
839.209
 30
0.000000
  70
    32
  0
VERTEX
  8
0
  5
FC4B
 10
-387.722
 20
839.210
 30
0.000000
  70
    32
  0
VERTEX
  8
0
  5
FC4C
 10
-387.724
 20
839.212
 30
0.000000
  70
    32
  0
VERTEX
  8
0
  5
FC4D
 10
-387.726
 20
839.213
 30
0.000000
  70
    32
  0
VERTEX
  8
0
  5
FC4E
 10
-387.728
 20
839.214
 30
0.000000
  70
    32
  0
VERTEX
  8
0
  5
FC4F
 10
-387.731
 20
839.216
 30
0.000000
  70
    32
  0
VERTEX
  8
0
  5
FC50
 10
-387.733
 20
839.217
 30
0.000000
  70
    32
  0
VERTEX
  8
0
  5
FC51
 10
-387.735
 20
839.218
 30
0.000000
  70
    32
  0
VERTEX
  8
0
  5
FC52
 10
-387.737
 20
839.220
 30
0.000000
  70
    32
  0
VERTEX
  8
0
  5
FC53
 10
-387.739
 20
839.221
 30
0.000000
  70
    32
  0
VERTEX
  8
0
  5
FC54
 10
-387.741
 20
839.222
 30
0.000000
  70
    32
  0
VERTEX
  8
0
  5
FC55
 10
-387.743
 20
839.223
 30
0.000000
  70
    32
  0
VERTEX
  8
0
  5
FC56
 10
-387.745
 20
839.225
 30
0.000000
  70
    32
  0
VERTEX
  8
0
  5
FC57
 10
-387.747
 20
839.226
 30
0.000000
  70
    32
  0
VERTEX
  8
0
  5
FC58
 10
-387.749
 20
839.227
 30
0.000000
  70
    32
  0
VERTEX
  8
0
  5
FC59
 10
-387.751
 20
839.228
 30
0.000000
  70
    32
  0
VERTEX
  8
0
  5
FC5A
 10
-387.753
 20
839.230
 30
0.000000
  70
    32
  0
VERTEX
  8
0
  5
FC5B
 10
-387.755
 20
839.231
 30
0.000000
  70
    32
  0
VERTEX
  8
0
  5
FC5C
 10
-387.757
 20
839.232
 30
0.000000
  70
    32
  0
VERTEX
  8
0
  5
FC5D
 10
-387.759
 20
839.233
 30
0.000000
  70
    32
  0
VERTEX
  8
0
  5
FC5E
 10
-387.760
 20
839.235
 30
0.000000
  70
    32
  0
VERTEX
  8
0
  5
FC5F
 10
-387.762
 20
839.236
 30
0.000000
  70
    32
  0
VERTEX
  8
0
  5
FC60
 10
-387.764
 20
839.237
 30
0.000000
  70
    32
  0
VERTEX
  8
0
  5
FC61
 10
-387.766
 20
839.238
 30
0.000000
  70
    32
  0
VERTEX
  8
0
  5
FC62
 10
-387.768
 20
839.239
 30
0.000000
  70
    32
  0
VERTEX
  8
0
  5
FC63
 10
-387.770
 20
839.241
 30
0.000000
  70
    32
  0
VERTEX
  8
0
  5
FC64
 10
-387.772
 20
839.242
 30
0.000000
  70
    32
  0
VERTEX
  8
0
  5
FC65
 10
-387.774
 20
839.243
 30
0.000000
  70
    32
  0
VERTEX
  8
0
  5
FC66
 10
-387.776
 20
839.244
 30
0.000000
  70
    32
  0
VERTEX
  8
0
  5
FC67
 10
-387.778
 20
839.245
 30
0.000000
  70
    32
  0
VERTEX
  8
0
  5
FC68
 10
-387.780
 20
839.247
 30
0.000000
  70
    32
  0
VERTEX
  8
0
  5
FC69
 10
-387.782
 20
839.248
 30
0.000000
  70
    32
  0
VERTEX
  8
0
  5
FC6A
 10
-387.784
 20
839.249
 30
0.000000
  70
    32
  0
VERTEX
  8
0
  5
FC6B
 10
-387.786
 20
839.250
 30
0.000000
  70
    32
  0
VERTEX
  8
0
  5
FC6C
 10
-387.788
 20
839.251
 30
0.000000
  70
    32
  0
VERTEX
  8
0
  5
FC6D
 10
-387.790
 20
839.253
 30
0.000000
  70
    32
  0
VERTEX
  8
0
  5
FC6E
 10
-387.792
 20
839.254
 30
0.000000
  70
    32
  0
VERTEX
  8
0
  5
FC6F
 10
-387.795
 20
839.255
 30
0.000000
  70
    32
  0
VERTEX
  8
0
  5
FC70
 10
-387.797
 20
839.256
 30
0.000000
  70
    32
  0
VERTEX
  8
0
  5
FC71
 10
-387.799
 20
839.258
 30
0.000000
  70
    32
  0
VERTEX
  8
0
  5
FC72
 10
-387.801
 20
839.259
 30
0.000000
  70
    32
  0
VERTEX
  8
0
  5
FC73
 10
-387.803
 20
839.260
 30
0.000000
  70
    32
  0
VERTEX
  8
0
  5
FC74
 10
-387.805
 20
839.261
 30
0.000000
  70
    32
  0
VERTEX
  8
0
  5
FC75
 10
-387.807
 20
839.262
 30
0.000000
  70
    32
  0
VERTEX
  8
0
  5
FC76
 10
-387.809
 20
839.264
 30
0.000000
  70
    32
  0
VERTEX
  8
0
  5
FC77
 10
-387.811
 20
839.265
 30
0.000000
  70
    32
  0
VERTEX
  8
0
  5
FC78
 10
-387.813
 20
839.266
 30
0.000000
  70
    32
  0
VERTEX
  8
0
  5
FC79
 10
-387.815
 20
839.268
 30
0.000000
  70
    32
  0
VERTEX
  8
0
  5
FC7A
 10
-387.817
 20
839.269
 30
0.000000
  70
    32
  0
VERTEX
  8
0
  5
FC7B
 10
-387.819
 20
839.270
 30
0.000000
  70
    32
  0
VERTEX
  8
0
  5
FC7C
 10
-387.821
 20
839.271
 30
0.000000
  70
    32
  0
VERTEX
  8
0
  5
FC7D
 10
-387.823
 20
839.273
 30
0.000000
  70
    32
  0
VERTEX
  8
0
  5
FC7E
 10
-387.825
 20
839.274
 30
0.000000
  70
    32
  0
VERTEX
  8
0
  5
FC7F
 10
-387.827
 20
839.275
 30
0.000000
  70
    32
  0
VERTEX
  8
0
  5
FC80
 10
-387.829
 20
839.277
 30
0.000000
  70
    32
  0
VERTEX
  8
0
  5
FC81
 10
-387.831
 20
839.278
 30
0.000000
  70
    32
  0
VERTEX
  8
0
  5
FC82
 10
-387.833
 20
839.280
 30
0.000000
  70
    32
  0
VERTEX
  8
0
  5
FC83
 10
-387.835
 20
839.281
 30
0.000000
  70
    32
  0
VERTEX
  8
0
  5
FC84
 10
-387.837
 20
839.283
 30
0.000000
  70
    32
  0
VERTEX
  8
0
  5
FC85
 10
-387.839
 20
839.284
 30
0.000000
  70
    32
  0
VERTEX
  8
0
  5
FC86
 10
-387.841
 20
839.285
 30
0.000000
  70
    32
  0
VERTEX
  8
0
  5
FC87
 10
-387.842
 20
839.287
 30
0.000000
  70
    32
  0
VERTEX
  8
0
  5
FC88
 10
-387.844
 20
839.288
 30
0.000000
  70
    32
  0
VERTEX
  8
0
  5
FC89
 10
-387.846
 20
839.290
 30
0.000000
  70
    32
  0
VERTEX
  8
0
  5
FC8A
 10
-387.848
 20
839.291
 30
0.000000
  70
    32
  0
VERTEX
  8
0
  5
FC8B
 10
-387.850
 20
839.293
 30
0.000000
  70
    32
  0
VERTEX
  8
0
  5
FC8C
 10
-387.852
 20
839.294
 30
0.000000
  70
    32
  0
VERTEX
  8
0
  5
FC8D
 10
-387.854
 20
839.296
 30
0.000000
  70
    32
  0
VERTEX
  8
0
  5
FC8E
 10
-387.855
 20
839.298
 30
0.000000
  70
    32
  0
VERTEX
  8
0
  5
FC8F
 10
-387.857
 20
839.299
 30
0.000000
  70
    32
  0
VERTEX
  8
0
  5
FC90
 10
-387.859
 20
839.301
 30
0.000000
  70
    32
  0
VERTEX
  8
0
  5
FC91
 10
-387.861
 20
839.302
 30
0.000000
  70
    32
  0
VERTEX
  8
0
  5
FC92
 10
-387.862
 20
839.304
 30
0.000000
  70
    32
  0
VERTEX
  8
0
  5
FC93
 10
-387.864
 20
839.306
 30
0.000000
  70
    32
  0
VERTEX
  8
0
  5
FC94
 10
-387.866
 20
839.307
 30
0.000000
  70
    32
  0
VERTEX
  8
0
  5
FC95
 10
-387.868
 20
839.309
 30
0.000000
  70
    32
  0
VERTEX
  8
0
  5
FC96
 10
-387.869
 20
839.311
 30
0.000000
  70
    32
  0
VERTEX
  8
0
  5
FC97
 10
-387.871
 20
839.312
 30
0.000000
  70
    32
  0
VERTEX
  8
0
  5
FC98
 10
-387.873
 20
839.314
 30
0.000000
  70
    32
  0
VERTEX
  8
0
  5
FC99
 10
-387.874
 20
839.316
 30
0.000000
  70
    32
  0
VERTEX
  8
0
  5
FC9A
 10
-387.876
 20
839.317
 30
0.000000
  70
    32
  0
VERTEX
  8
0
  5
FC9B
 10
-387.878
 20
839.319
 30
0.000000
  70
    32
  0
VERTEX
  8
0
  5
FC9C
 10
-387.879
 20
839.321
 30
0.000000
  70
    32
  0
VERTEX
  8
0
  5
FC9D
 10
-387.881
 20
839.323
 30
0.000000
  70
    32
  0
VERTEX
  8
0
  5
FC9E
 10
-387.882
 20
839.324
 30
0.000000
  70
    32
  0
VERTEX
  8
0
  5
FC9F
 10
-387.884
 20
839.326
 30
0.000000
  70
    32
  0
VERTEX
  8
0
  5
FCA0
 10
-387.886
 20
839.328
 30
0.000000
  70
    32
  0
VERTEX
  8
0
  5
FCA1
 10
-387.887
 20
839.330
 30
0.000000
  70
    32
  0
VERTEX
  8
0
  5
FCA2
 10
-387.889
 20
839.332
 30
0.000000
  70
    32
  0
VERTEX
  8
0
  5
FCA3
 10
-387.890
 20
839.333
 30
0.000000
  70
    32
  0
VERTEX
  8
0
  5
FCA4
 10
-387.892
 20
839.335
 30
0.000000
  70
    32
  0
VERTEX
  8
0
  5
FCA5
 10
-387.893
 20
839.337
 30
0.000000
  70
    32
  0
VERTEX
  8
0
  5
FCA6
 10
-387.895
 20
839.339
 30
0.000000
  70
    32
  0
VERTEX
  8
0
  5
FCA7
 10
-387.896
 20
839.341
 30
0.000000
  70
    32
  0
VERTEX
  8
0
  5
FCA8
 10
-387.898
 20
839.343
 30
0.000000
  70
    32
  0
VERTEX
  8
0
  5
FCA9
 10
-387.899
 20
839.344
 30
0.000000
  70
    32
  0
VERTEX
  8
0
  5
FCAA
 10
-387.901
 20
839.346
 30
0.000000
  70
    32
  0
VERTEX
  8
0
  5
FCAB
 10
-387.902
 20
839.348
 30
0.000000
  70
    32
  0
VERTEX
  8
0
  5
FCAC
 10
-387.904
 20
839.350
 30
0.000000
  70
    32
  0
VERTEX
  8
0
  5
FCAD
 10
-387.905
 20
839.352
 30
0.000000
  70
    32
  0
VERTEX
  8
0
  5
FCAE
 10
-387.906
 20
839.354
 30
0.000000
  70
    32
  0
VERTEX
  8
0
  5
FCAF
 10
-387.908
 20
839.356
 30
0.000000
  70
    32
  0
VERTEX
  8
0
  5
FCB0
 10
-387.909
 20
839.358
 30
0.000000
  70
    32
  0
VERTEX
  8
0
  5
FCB1
 10
-387.911
 20
839.360
 30
0.000000
  70
    32
  0
VERTEX
  8
0
  5
FCB2
 10
-387.912
 20
839.362
 30
0.000000
  70
    32
  0
VERTEX
  8
0
  5
FCB3
 10
-387.913
 20
839.364
 30
0.000000
  70
    32
  0
VERTEX
  8
0
  5
FCB4
 10
-387.915
 20
839.366
 30
0.000000
  70
    32
  0
VERTEX
  8
0
  5
FCB5
 10
-387.916
 20
839.368
 30
0.000000
  70
    32
  0
VERTEX
  8
0
  5
FCB6
 10
-387.917
 20
839.370
 30
0.000000
  70
    32
  0
VERTEX
  8
0
  5
FCB7
 10
-387.919
 20
839.371
 30
0.000000
  70
    32
  0
VERTEX
  8
0
  5
FCB8
 10
-387.920
 20
839.373
 30
0.000000
  70
    32
  0
VERTEX
  8
0
  5
FCB9
 10
-387.921
 20
839.375
 30
0.000000
  70
    32
  0
VERTEX
  8
0
  5
FCBA
 10
-387.922
 20
839.377
 30
0.000000
  70
    32
  0
VERTEX
  8
0
  5
FCBB
 10
-387.924
 20
839.379
 30
0.000000
  70
    32
  0
VERTEX
  8
0
  5
FCBC
 10
-387.925
 20
839.382
 30
0.000000
  70
    32
  0
VERTEX
  8
0
  5
FCBD
 10
-387.926
 20
839.384
 30
0.000000
  70
    32
  0
VERTEX
  8
0
  5
FCBE
 10
-387.928
 20
839.386
 30
0.000000
  70
    32
  0
VERTEX
  8
0
  5
FCBF
 10
-387.929
 20
839.388
 30
0.000000
  70
    32
  0
VERTEX
  8
0
  5
FCC0
 10
-387.930
 20
839.390
 30
0.000000
  70
    32
  0
VERTEX
  8
0
  5
FCC1
 10
-387.931
 20
839.392
 30
0.000000
  70
    32
  0
VERTEX
  8
0
  5
FCC2
 10
-387.932
 20
839.394
 30
0.000000
  70
    32
  0
VERTEX
  8
0
  5
FCC3
 10
-387.934
 20
839.396
 30
0.000000
  70
    32
  0
VERTEX
  8
0
  5
FCC4
 10
-387.935
 20
839.398
 30
0.000000
  70
    32
  0
VERTEX
  8
0
  5
FCC5
 10
-387.936
 20
839.400
 30
0.000000
  70
    32
  0
VERTEX
  8
0
  5
FCC6
 10
-387.937
 20
839.402
 30
0.000000
  70
    32
  0
VERTEX
  8
0
  5
FCC7
 10
-387.938
 20
839.404
 30
0.000000
  70
    32
  0
VERTEX
  8
0
  5
FCC8
 10
-387.940
 20
839.406
 30
0.000000
  70
    32
  0
VERTEX
  8
0
  5
FCC9
 10
-387.941
 20
839.408
 30
0.000000
  70
    32
  0
VERTEX
  8
0
  5
FCCA
 10
-387.942
 20
839.410
 30
0.000000
  70
    32
  0
VERTEX
  8
0
  5
FCCB
 10
-387.943
 20
839.412
 30
0.000000
  70
    32
  0
VERTEX
  8
0
  5
FCCC
 10
-387.944
 20
839.414
 30
0.000000
  70
    32
  0
VERTEX
  8
0
  5
FCCD
 10
-387.945
 20
839.416
 30
0.000000
  70
    32
  0
VERTEX
  8
0
  5
FCCE
 10
-387.947
 20
839.419
 30
0.000000
  70
    32
  0
VERTEX
  8
0
  5
FCCF
 10
-387.948
 20
839.421
 30
0.000000
  70
    32
  0
VERTEX
  8
0
  5
FCD0
 10
-387.949
 20
839.423
 30
0.000000
  70
    32
  0
VERTEX
  8
0
  5
FCD1
 10
-387.950
 20
839.425
 30
0.000000
  70
    32
  0
VERTEX
  8
0
  5
FCD2
 10
-387.951
 20
839.427
 30
0.000000
  70
    32
  0
VERTEX
  8
0
  5
FCD3
 10
-387.952
 20
839.429
 30
0.000000
  70
    32
  0
VERTEX
  8
0
  5
FCD4
 10
-387.953
 20
839.431
 30
0.000000
  70
    32
  0
VERTEX
  8
0
  5
FCD5
 10
-387.955
 20
839.433
 30
0.000000
  70
    32
  0
VERTEX
  8
0
  5
FCD6
 10
-387.956
 20
839.435
 30
0.000000
  70
    32
  0
VERTEX
  8
0
  5
FCD7
 10
-387.957
 20
839.437
 30
0.000000
  70
    32
  0
VERTEX
  8
0
  5
FCD8
 10
-387.958
 20
839.440
 30
0.000000
  70
    32
  0
VERTEX
  8
0
  5
FCD9
 10
-387.959
 20
839.442
 30
0.000000
  70
    32
  0
VERTEX
  8
0
  5
FCDA
 10
-387.960
 20
839.444
 30
0.000000
  70
    32
  0
VERTEX
  8
0
  5
FCDB
 10
-387.961
 20
839.446
 30
0.000000
  70
    32
  0
VERTEX
  8
0
  5
FCDC
 10
-387.962
 20
839.448
 30
0.000000
  70
    32
  0
VERTEX
  8
0
  5
FCDD
 10
-387.964
 20
839.450
 30
0.000000
  70
    32
  0
VERTEX
  8
0
  5
FCDE
 10
-387.965
 20
839.452
 30
0.000000
  70
    32
  0
VERTEX
  8
0
  5
FCDF
 10
-387.966
 20
839.454
 30
0.000000
  70
    32
  0
VERTEX
  8
0
  5
FCE0
 10
-387.967
 20
839.456
 30
0.000000
  70
    32
  0
VERTEX
  8
0
  5
FCE1
 10
-387.968
 20
839.459
 30
0.000000
  70
    32
  0
VERTEX
  8
0
  5
FCE2
 10
-387.969
 20
839.461
 30
0.000000
  70
    32
  0
VERTEX
  8
0
  5
FCE3
 10
-387.970
 20
839.463
 30
0.000000
  70
    32
  0
VERTEX
  8
0
  5
FCE4
 10
-387.971
 20
839.465
 30
0.000000
  70
    32
  0
VERTEX
  8
0
  5
FCE5
 10
-387.973
 20
839.467
 30
0.000000
  70
    32
  0
VERTEX
  8
0
  5
FCE6
 10
-387.974
 20
839.469
 30
0.000000
  70
    32
  0
VERTEX
  8
0
  5
FCE7
 10
-387.975
 20
839.471
 30
0.000000
  70
    32
  0
VERTEX
  8
0
  5
FCE8
 10
-387.976
 20
839.473
 30
0.000000
  70
    32
  0
VERTEX
  8
0
  5
FCE9
 10
-387.977
 20
839.475
 30
0.000000
  70
    32
  0
VERTEX
  8
0
  5
FCEA
 10
-387.978
 20
839.477
 30
0.000000
  70
    32
  0
VERTEX
  8
0
  5
FCEB
 10
-387.979
 20
839.479
 30
0.000000
  70
    32
  0
VERTEX
  8
0
  5
FCEC
 10
-387.981
 20
839.482
 30
0.000000
  70
    32
  0
VERTEX
  8
0
  5
FCED
 10
-387.982
 20
839.484
 30
0.000000
  70
    32
  0
VERTEX
  8
0
  5
FCEE
 10
-387.983
 20
839.486
 30
0.000000
  70
    32
  0
VERTEX
  8
0
  5
FCEF
 10
-387.984
 20
839.488
 30
0.000000
  70
    32
  0
VERTEX
  8
0
  5
FCF0
 10
-387.985
 20
839.490
 30
0.000000
  70
    32
  0
VERTEX
  8
0
  5
FCF1
 10
-387.986
 20
839.492
 30
0.000000
  70
    32
  0
VERTEX
  8
0
  5
FCF2
 10
-387.987
 20
839.494
 30
0.000000
  70
    32
  0
VERTEX
  8
0
  5
FCF3
 10
-387.989
 20
839.496
 30
0.000000
  70
    32
  0
VERTEX
  8
0
  5
FCF4
 10
-387.990
 20
839.498
 30
0.000000
  70
    32
  0
VERTEX
  8
0
  5
FCF5
 10
-387.991
 20
839.500
 30
0.000000
  70
    32
  0
VERTEX
  8
0
  5
FCF6
 10
-387.992
 20
839.502
 30
0.000000
  70
    32
  0
VERTEX
  8
0
  5
FCF7
 10
-387.993
 20
839.504
 30
0.000000
  70
    32
  0
VERTEX
  8
0
  5
FCF8
 10
-387.995
 20
839.506
 30
0.000000
  70
    32
  0
VERTEX
  8
0
  5
FCF9
 10
-387.996
 20
839.508
 30
0.000000
  70
    32
  0
VERTEX
  8
0
  5
FCFA
 10
-387.997
 20
839.510
 30
0.000000
  70
    32
  0
VERTEX
  8
0
  5
FCFB
 10
-387.998
 20
839.512
 30
0.000000
  70
    32
  0
VERTEX
  8
0
  5
FCFC
 10
-387.999
 20
839.514
 30
0.000000
  70
    32
  0
VERTEX
  8
0
  5
FCFD
 10
-388.001
 20
839.516
 30
0.000000
  70
    32
  0
VERTEX
  8
0
  5
FCFE
 10
-388.002
 20
839.519
 30
0.000000
  70
    32
  0
VERTEX
  8
0
  5
FCFF
 10
-388.003
 20
839.521
 30
0.000000
  70
    32
  0
VERTEX
  8
0
  5
FD00
 10
-388.004
 20
839.523
 30
0.000000
  70
    32
  0
VERTEX
  8
0
  5
FD01
 10
-388.006
 20
839.525
 30
0.000000
  70
    32
  0
VERTEX
  8
0
  5
FD02
 10
-388.007
 20
839.527
 30
0.000000
  70
    32
  0
VERTEX
  8
0
  5
FD03
 10
-388.008
 20
839.529
 30
0.000000
  70
    32
  0
VERTEX
  8
0
  5
FD04
 10
-388.010
 20
839.531
 30
0.000000
  70
    32
  0
VERTEX
  8
0
  5
FD05
 10
-388.011
 20
839.533
 30
0.000000
  70
    32
  0
VERTEX
  8
0
  5
FD06
 10
-388.012
 20
839.535
 30
0.000000
  70
    32
  0
VERTEX
  8
0
  5
FD07
 10
-388.014
 20
839.536
 30
0.000000
  70
    32
  0
VERTEX
  8
0
  5
FD08
 10
-388.015
 20
839.538
 30
0.000000
  70
    32
  0
VERTEX
  8
0
  5
FD09
 10
-388.016
 20
839.540
 30
0.000000
  70
    32
  0
VERTEX
  8
0
  5
FD0A
 10
-388.018
 20
839.542
 30
0.000000
  70
    32
  0
VERTEX
  8
0
  5
FD0B
 10
-388.019
 20
839.544
 30
0.000000
  70
    32
  0
VERTEX
  8
0
  5
FD0C
 10
-388.020
 20
839.546
 30
0.000000
  70
    32
  0
VERTEX
  8
0
  5
FD0D
 10
-388.022
 20
839.548
 30
0.000000
  70
    32
  0
VERTEX
  8
0
  5
FD0E
 10
-388.023
 20
839.550
 30
0.000000
  70
    32
  0
VERTEX
  8
0
  5
FD0F
 10
-388.025
 20
839.552
 30
0.000000
  70
    32
  0
VERTEX
  8
0
  5
FD10
 10
-388.026
 20
839.554
 30
0.000000
  70
    32
  0
VERTEX
  8
0
  5
FD11
 10
-388.027
 20
839.556
 30
0.000000
  70
    32
  0
VERTEX
  8
0
  5
FD12
 10
-388.029
 20
839.558
 30
0.000000
  70
    32
  0
VERTEX
  8
0
  5
FD13
 10
-388.030
 20
839.560
 30
0.000000
  70
    32
  0
VERTEX
  8
0
  5
FD14
 10
-388.032
 20
839.562
 30
0.000000
  70
    32
  0
VERTEX
  8
0
  5
FD15
 10
-388.033
 20
839.564
 30
0.000000
  70
    32
  0
VERTEX
  8
0
  5
FD16
 10
-388.035
 20
839.565
 30
0.000000
  70
    32
  0
VERTEX
  8
0
  5
FD17
 10
-388.036
 20
839.567
 30
0.000000
  70
    32
  0
VERTEX
  8
0
  5
FD18
 10
-388.038
 20
839.569
 30
0.000000
  70
    32
  0
VERTEX
  8
0
  5
FD19
 10
-388.039
 20
839.571
 30
0.000000
  70
    32
  0
VERTEX
  8
0
  5
FD1A
 10
-388.041
 20
839.573
 30
0.000000
  70
    32
  0
VERTEX
  8
0
  5
FD1B
 10
-388.042
 20
839.575
 30
0.000000
  70
    32
  0
VERTEX
  8
0
  5
FD1C
 10
-388.044
 20
839.577
 30
0.000000
  70
    32
  0
VERTEX
  8
0
  5
FD1D
 10
-388.046
 20
839.578
 30
0.000000
  70
    32
  0
VERTEX
  8
0
  5
FD1E
 10
-388.047
 20
839.580
 30
0.000000
  70
    32
  0
VERTEX
  8
0
  5
FD1F
 10
-388.049
 20
839.582
 30
0.000000
  70
    32
  0
VERTEX
  8
0
  5
FD20
 10
-388.051
 20
839.584
 30
0.000000
  70
    32
  0
VERTEX
  8
0
  5
FD21
 10
-388.052
 20
839.586
 30
0.000000
  70
    32
  0
VERTEX
  8
0
  5
FD22
 10
-388.054
 20
839.587
 30
0.000000
  70
    32
  0
VERTEX
  8
0
  5
FD23
 10
-388.056
 20
839.589
 30
0.000000
  70
    32
  0
VERTEX
  8
0
  5
FD24
 10
-388.057
 20
839.591
 30
0.000000
  70
    32
  0
VERTEX
  8
0
  5
FD25
 10
-388.059
 20
839.593
 30
0.000000
  70
    32
  0
VERTEX
  8
0
  5
FD26
 10
-388.061
 20
839.594
 30
0.000000
  70
    32
  0
VERTEX
  8
0
  5
FD27
 10
-388.062
 20
839.596
 30
0.000000
  70
    32
  0
VERTEX
  8
0
  5
FD28
 10
-388.064
 20
839.598
 30
0.000000
  70
    32
  0
VERTEX
  8
0
  5
FD29
 10
-388.066
 20
839.599
 30
0.000000
  70
    32
  0
VERTEX
  8
0
  5
FD2A
 10
-388.068
 20
839.601
 30
0.000000
  70
    32
  0
VERTEX
  8
0
  5
FD2B
 10
-388.069
 20
839.603
 30
0.000000
  70
    32
  0
VERTEX
  8
0
  5
FD2C
 10
-388.071
 20
839.604
 30
0.000000
  70
    32
  0
VERTEX
  8
0
  5
FD2D
 10
-388.073
 20
839.606
 30
0.000000
  70
    32
  0
VERTEX
  8
0
  5
FD2E
 10
-388.075
 20
839.608
 30
0.000000
  70
    32
  0
VERTEX
  8
0
  5
FD2F
 10
-388.077
 20
839.609
 30
0.000000
  70
    32
  0
VERTEX
  8
0
  5
FD30
 10
-388.079
 20
839.611
 30
0.000000
  70
    32
  0
VERTEX
  8
0
  5
FD31
 10
-388.080
 20
839.612
 30
0.000000
  70
    32
  0
VERTEX
  8
0
  5
FD32
 10
-388.082
 20
839.614
 30
0.000000
  70
    32
  0
VERTEX
  8
0
  5
FD33
 10
-388.084
 20
839.616
 30
0.000000
  70
    32
  0
VERTEX
  8
0
  5
FD34
 10
-388.086
 20
839.617
 30
0.000000
  70
    32
  0
VERTEX
  8
0
  5
FD35
 10
-388.088
 20
839.619
 30
0.000000
  70
    32
  0
VERTEX
  8
0
  5
FD36
 10
-388.090
 20
839.620
 30
0.000000
  70
    32
  0
VERTEX
  8
0
  5
FD37
 10
-388.092
 20
839.622
 30
0.000000
  70
    32
  0
VERTEX
  8
0
  5
FD38
 10
-388.094
 20
839.623
 30
0.000000
  70
    32
  0
VERTEX
  8
0
  5
FD39
 10
-388.096
 20
839.624
 30
0.000000
  70
    32
  0
VERTEX
  8
0
  5
FD3A
 10
-388.098
 20
839.626
 30
0.000000
  70
    32
  0
VERTEX
  8
0
  5
FD3B
 10
-388.100
 20
839.627
 30
0.000000
  70
    32
  0
VERTEX
  8
0
  5
FD3C
 10
-388.102
 20
839.629
 30
0.000000
  70
    32
  0
VERTEX
  8
0
  5
FD3D
 10
-388.104
 20
839.630
 30
0.000000
  70
    32
  0
VERTEX
  8
0
  5
FD3E
 10
-388.106
 20
839.631
 30
0.000000
  70
    32
  0
VERTEX
  8
0
  5
FD3F
 10
-388.108
 20
839.632
 30
0.000000
  70
    32
  0
VERTEX
  8
0
  5
FD40
 10
-388.110
 20
839.634
 30
0.000000
  70
    32
  0
VERTEX
  8
0
  5
FD41
 10
-388.112
 20
839.635
 30
0.000000
  70
    32
  0
VERTEX
  8
0
  5
FD42
 10
-388.114
 20
839.636
 30
0.000000
  70
    32
  0
VERTEX
  8
0
  5
FD43
 10
-388.116
 20
839.637
 30
0.000000
  70
    32
  0
VERTEX
  8
0
  5
FD44
 10
-388.118
 20
839.639
 30
0.000000
  70
    32
  0
VERTEX
  8
0
  5
FD45
 10
-388.120
 20
839.640
 30
0.000000
  70
    32
  0
VERTEX
  8
0
  5
FD46
 10
-388.122
 20
839.641
 30
0.000000
  70
    32
  0
VERTEX
  8
0
  5
FD47
 10
-388.124
 20
839.642
 30
0.000000
  70
    32
  0
VERTEX
  8
0
  5
FD48
 10
-388.126
 20
839.643
 30
0.000000
  70
    32
  0
VERTEX
  8
0
  5
FD49
 10
-388.128
 20
839.644
 30
0.000000
  70
    32
  0
VERTEX
  8
0
  5
FD4A
 10
-388.131
 20
839.645
 30
0.000000
  70
    32
  0
VERTEX
  8
0
  5
FD4B
 10
-388.133
 20
839.646
 30
0.000000
  70
    32
  0
VERTEX
  8
0
  5
FD4C
 10
-388.135
 20
839.647
 30
0.000000
  70
    32
  0
VERTEX
  8
0
  5
FD4D
 10
-388.137
 20
839.648
 30
0.000000
  70
    32
  0
VERTEX
  8
0
  5
FD4E
 10
-388.139
 20
839.649
 30
0.000000
  70
    32
  0
VERTEX
  8
0
  5
FD4F
 10
-388.141
 20
839.650
 30
0.000000
  70
    32
  0
VERTEX
  8
0
  5
FD50
 10
-388.144
 20
839.651
 30
0.000000
  70
    32
  0
VERTEX
  8
0
  5
FD51
 10
-388.146
 20
839.652
 30
0.000000
  70
    32
  0
VERTEX
  8
0
  5
FD52
 10
-388.148
 20
839.653
 30
0.000000
  70
    32
  0
VERTEX
  8
0
  5
FD53
 10
-388.150
 20
839.653
 30
0.000000
  70
    32
  0
VERTEX
  8
0
  5
FD54
 10
-388.152
 20
839.654
 30
0.000000
  70
    32
  0
VERTEX
  8
0
  5
FD55
 10
-388.155
 20
839.655
 30
0.000000
  70
    32
  0
VERTEX
  8
0
  5
FD56
 10
-388.157
 20
839.656
 30
0.000000
  70
    32
  0
VERTEX
  8
0
  5
FD57
 10
-388.159
 20
839.656
 30
0.000000
  70
    32
  0
VERTEX
  8
0
  5
FD58
 10
-388.161
 20
839.657
 30
0.000000
  70
    32
  0
VERTEX
  8
0
  5
FD59
 10
-388.164
 20
839.658
 30
0.000000
  70
    32
  0
VERTEX
  8
0
  5
FD5A
 10
-388.166
 20
839.658
 30
0.000000
  70
    32
  0
VERTEX
  8
0
  5
FD5B
 10
-388.168
 20
839.659
 30
0.000000
  70
    32
  0
VERTEX
  8
0
  5
FD5C
 10
-388.170
 20
839.659
 30
0.000000
  70
    32
  0
VERTEX
  8
0
  5
FD5D
 10
-388.173
 20
839.660
 30
0.000000
  70
    32
  0
VERTEX
  8
0
  5
FD5E
 10
-388.175
 20
839.660
 30
0.000000
  70
    32
  0
VERTEX
  8
0
  5
FD5F
 10
-388.177
 20
839.661
 30
0.000000
  70
    32
  0
VERTEX
  8
0
  5
FD60
 10
-388.180
 20
839.661
 30
0.000000
  70
    32
  0
VERTEX
  8
0
  5
FD61
 10
-388.182
 20
839.662
 30
0.000000
  70
    32
  0
VERTEX
  8
0
  5
FD62
 10
-388.184
 20
839.662
 30
0.000000
  70
    32
  0
VERTEX
  8
0
  5
FD63
 10
-388.187
 20
839.662
 30
0.000000
  70
    32
  0
VERTEX
  8
0
  5
FD64
 10
-388.189
 20
839.663
 30
0.000000
  70
    32
  0
VERTEX
  8
0
  5
FD65
 10
-388.191
 20
839.663
 30
0.000000
  70
    32
  0
VERTEX
  8
0
  5
FD66
 10
-388.194
 20
839.663
 30
0.000000
  70
    32
  0
VERTEX
  8
0
  5
FD67
 10
-388.196
 20
839.664
 30
0.000000
  70
    32
  0
VERTEX
  8
0
  5
FD68
 10
-388.198
 20
839.664
 30
0.000000
  70
    32
  0
VERTEX
  8
0
  5
FD69
 10
-388.201
 20
839.664
 30
0.000000
  70
    32
  0
VERTEX
  8
0
  5
FD6A
 10
-388.203
 20
839.665
 30
0.000000
  70
    32
  0
VERTEX
  8
0
  5
FD6B
 10
-388.206
 20
839.665
 30
0.000000
  70
    32
  0
VERTEX
  8
0
  5
FD6C
 10
-388.208
 20
839.665
 30
0.000000
  70
    32
  0
VERTEX
  8
0
  5
FD6D
 10
-388.210
 20
839.665
 30
0.000000
  70
    32
  0
VERTEX
  8
0
  5
FD6E
 10
-388.213
 20
839.665
 30
0.000000
  70
    32
  0
VERTEX
  8
0
  5
FD6F
 10
-388.215
 20
839.666
 30
0.000000
  70
    32
  0
VERTEX
  8
0
  5
FD70
 10
-388.217
 20
839.666
 30
0.000000
  70
    32
  0
VERTEX
  8
0
  5
FD71
 10
-388.220
 20
839.666
 30
0.000000
  70
    32
  0
VERTEX
  8
0
  5
FD72
 10
-388.222
 20
839.666
 30
0.000000
  70
    32
  0
VERTEX
  8
0
  5
FD73
 10
-388.225
 20
839.666
 30
0.000000
  70
    32
  0
VERTEX
  8
0
  5
FD74
 10
-388.227
 20
839.666
 30
0.000000
  70
    32
  0
VERTEX
  8
0
  5
FD75
 10
-388.229
 20
839.666
 30
0.000000
  70
    32
  0
VERTEX
  8
0
  5
FD76
 10
-388.232
 20
839.666
 30
0.000000
  70
    32
  0
VERTEX
  8
0
  5
FD77
 10
-388.234
 20
839.667
 30
0.000000
  70
    32
  0
VERTEX
  8
0
  5
FD78
 10
-388.237
 20
839.667
 30
0.000000
  70
    32
  0
VERTEX
  8
0
  5
FD79
 10
-388.239
 20
839.667
 30
0.000000
  70
    32
  0
VERTEX
  8
0
  5
FD7A
 10
-388.242
 20
839.667
 30
0.000000
  70
    32
  0
VERTEX
  8
0
  5
FD7B
 10
-388.244
 20
839.667
 30
0.000000
  70
    32
  0
VERTEX
  8
0
  5
FD7C
 10
-388.246
 20
839.667
 30
0.000000
  70
    32
  0
VERTEX
  8
0
  5
FD7D
 10
-388.249
 20
839.667
 30
0.000000
  70
    32
  0
VERTEX
  8
0
  5
FD7E
 10
-388.251
 20
839.667
 30
0.000000
  70
    32
  0
VERTEX
  8
0
  5
FD7F
 10
-388.254
 20
839.667
 30
0.000000
  70
    32
  0
VERTEX
  8
0
  5
FD80
 10
-388.256
 20
839.667
 30
0.000000
  70
    32
  0
VERTEX
  8
0
  5
FD81
 10
-388.258
 20
839.667
 30
0.000000
  70
    32
  0
VERTEX
  8
0
  5
FD82
 10
-388.261
 20
839.667
 30
0.000000
  70
    32
  0
VERTEX
  8
0
  5
FD83
 10
-388.263
 20
839.667
 30
0.000000
  70
    32
  0
VERTEX
  8
0
  5
FD84
 10
-388.266
 20
839.667
 30
0.000000
  70
    32
  0
VERTEX
  8
0
  5
FD85
 10
-388.268
 20
839.667
 30
0.000000
  70
    32
  0
VERTEX
  8
0
  5
FD86
 10
-388.271
 20
839.667
 30
0.000000
  70
    32
  0
VERTEX
  8
0
  5
FD87
 10
-388.273
 20
839.667
 30
0.000000
  70
    32
  0
VERTEX
  8
0
  5
FD88
 10
-388.275
 20
839.667
 30
0.000000
  70
    32
  0
VERTEX
  8
0
  5
FD89
 10
-388.278
 20
839.667
 30
0.000000
  70
    32
  0
VERTEX
  8
0
  5
FD8A
 10
-388.280
 20
839.667
 30
0.000000
  70
    32
  0
VERTEX
  8
0
  5
FD8B
 10
-388.283
 20
839.667
 30
0.000000
  70
    32
  0
VERTEX
  8
0
  5
FD8C
 10
-388.285
 20
839.667
 30
0.000000
  70
    32
  0
VERTEX
  8
0
  5
FD8D
 10
-388.287
 20
839.667
 30
0.000000
  70
    32
  0
VERTEX
  8
0
  5
FD8E
 10
-388.290
 20
839.667
 30
0.000000
  70
    32
  0
VERTEX
  8
0
  5
FD8F
 10
-388.292
 20
839.667
 30
0.000000
  70
    32
  0
VERTEX
  8
0
  5
FD90
 10
-388.295
 20
839.667
 30
0.000000
  70
    32
  0
VERTEX
  8
0
  5
FD91
 10
-388.297
 20
839.667
 30
0.000000
  70
    32
  0
VERTEX
  8
0
  5
FD92
 10
-388.299
 20
839.667
 30
0.000000
  70
    32
  0
VERTEX
  8
0
  5
FD93
 10
-388.302
 20
839.667
 30
0.000000
  70
    32
  0
SEQEND
  8
0
  5
FD94
  0
INSERT
  5
F97F
  8
0
  2
*U120
 10
0.0
 20
0.0
 30
0.0
  0
VIEWPORT
  5
BADA
 67
     1
  8
0
 10
5.249999665167528
 20
4.016860864854312
 30
0.0
 40
16.259362384438411
 41
8.0158201110956853
 68
     2
 69
     1
1001
ACAD
1000
MVIEW
1002
{
1070
    16
1010
0.0
1020
0.0
1030
0.0
1010
0.0
1020
0.0
1030
1.0
1040
0.0
1040
8.0158201110956853
1040
5.249999665167528
1040
4.016860864854312
1040
50.0
1040
0.0
1040
0.0
1070
     0
1070
   100
1070
     1
1070
     1
1070
     0
1070
     0
1070
     0
1070
     0
1040
0.0
1040
0.0
1040
0.0
1040
0.5
1040
0.5
1040
0.5
1040
0.5
1070
     0
1002
{
1002
}
1002
}
  0
VIEWPORT
  5
BADD
 67
     1
  8
0
 10
5.249999629487192
 20
4.0166741807634683
 30
0.0
 40
10.44245679893058
 41
7.8813805131999892
 68
     1
 69
     2
1001
ACAD
1000
MVIEW
1002
{
1070
    16
1010
0.0
1020
0.0
1030
0.0
1010
0.0
1020
0.0
1030
1.0
1040
0.0
1040
7.8813805131999892
1040
-386.95948185412709
1040
838.98450758524882
1040
50.0
1040
0.0
1040
0.0
1070
     0
1070
   100
1070
     1
1070
     2
1070
     0
1070
     0
1070
     0
1070
     0
1040
0.0
1040
0.0
1040
0.0
1040
0.5
1040
0.5
1040
0.5
1040
0.5
1070
     0
1002
{
1002
}
1002
}
  0
ENDSEC
  0
EOF
