  0
SECTION
  2
HEADER
  9
$ACADVER
  1
AC1009
  9
$INSBASE
 10
0.0
 20
0.0
 30
0.0
  9
$EXTMIN
 10
-389.2801480589718
 20
837.20275845879428
 30
0.0
  9
$EXTMAX
 10
-384.4336450865257
 20
839.10749908555965
 30
0.0
  9
$LIMMIN
 10
0.0
 20
0.0
  9
$LIMMAX
 10
1500.0
 20
1500.0
  9
$ORTHOMODE
 70
     1
  9
$REGENMODE
 70
     1
  9
$FILLMODE
 70
     1
  9
$QTEXTMODE
 70
     0
  9
$MIRRTEXT
 70
     1
  9
$DRAGMODE
 70
     2
  9
$LTSCALE
 40
1.0
  9
$OSMODE
 70
    63
  9
$ATTMODE
 70
     1
  9
$TEXTSIZE
 40
1.5
  9
$TRACEWID
 40
0.05
  9
$TEXTSTYLE
  7
STANDARD
  9
$CLAYER
  8
0
  9
$CELTYPE
  6
BYLAYER
  9
$CECOLOR
 62
   256
  9
$DIMSCALE
 40
1.0
  9
$DIMASZ
 40
0.75
  9
$DIMEXO
 40
1.5
  9
$DIMDLI
 40
2.0
  9
$DIMRND
 40
0.0
  9
$DIMDLE
 40
0.0
  9
$DIMEXE
 40
1.0
  9
$DIMTP
 40
0.0
  9
$DIMTM
 40
0.0
  9
$DIMTXT
 40
1.5
  9
$DIMCEN
 40
2.0
  9
$DIMTSZ
 40
0.0
  9
$DIMTOL
 70
     0
  9
$DIMLIM
 70
     0
  9
$DIMTIH
 70
     0
  9
$DIMTOH
 70
     0
  9
$DIMSE1
 70
     0
  9
$DIMSE2
 70
     0
  9
$DIMTAD
 70
     1
  9
$DIMZIN
 70
     0
  9
$DIMBLK
  1
ARCHTICK
  9
$DIMASO
 70
     1
  9
$DIMSHO
 70
     1
  9
$DIMPOST
  1
"
  9
$DIMAPOST
  1

  9
$DIMALT
 70
     0
  9
$DIMALTD
 70
     2
  9
$DIMALTF
 40
25.399999999999999
  9
$DIMLFAC
 40
1.0
  9
$DIMTOFL
 70
     0
  9
$DIMTVP
 40
0.0
  9
$DIMTIX
 70
     1
  9
$DIMSOXD
 70
     0
  9
$DIMSAH
 70
     0
  9
$DIMBLK1
  1

  9
$DIMBLK2
  1

  9
$DIMSTYLE
  2
THREE_QUARTER_INCH_SCALE
  9
$DIMCLRD
 70
     0
  9
$DIMCLRE
 70
     0
  9
$DIMCLRT
 70
     0
  9
$DIMTFAC
 40
1.0
  9
$DIMGAP
 40
1.0
  9
$LUNITS
 70
     2
  9
$LUPREC
 70
     4
  9
$SKETCHINC
 40
0.1
  9
$FILLETRAD
 40
0.0
  9
$AUNITS
 70
     0
  9
$AUPREC
 70
     0
  9
$MENU
  1
.
  9
$ELEVATION
 40
0.0
  9
$PELEVATION
 40
0.0
  9
$THICKNESS
 40
0.0
  9
$LIMCHECK
 70
     0
  9
$BLIPMODE
 70
     0
  9
$CHAMFERA
 40
0.5
  9
$CHAMFERB
 40
0.5
  9
$SKPOLY
 70
     0
  9
$TDCREATE
 40
2452089.395738773
  9
$TDUPDATE
 40
2453621.515921134
  9
$TDINDWG
 40
0.9822251852
  9
$TDUSRTIMER
 40
0.9822248264
  9
$USRTIMER
 70
     1
  9
$ANGBASE
 50
0.0
  9
$ANGDIR
 70
     0
  9
$PDMODE
 70
     0
  9
$PDSIZE
 40
10.0
  9
$PLINEWID
 40
0.0
  9
$COORDS
 70
     0
  9
$SPLFRAME
 70
     0
  9
$SPLINETYPE
 70
     6
  9
$SPLINESEGS
 70
     8
  9
$ATTDIA
 70
     0
  9
$ATTREQ
 70
     1
  9
$HANDLING
 70
     1
  9
$HANDSEED
  5
CD4F
  9
$SURFTAB1
 70
     6
  9
$SURFTAB2
 70
     6
  9
$SURFTYPE
 70
     6
  9
$SURFU
 70
     6
  9
$SURFV
 70
     6
  9
$UCSNAME
  2

  9
$UCSORG
 10
0.0
 20
0.0
 30
0.0
  9
$UCSXDIR
 10
1.0
 20
0.0
 30
0.0
  9
$UCSYDIR
 10
0.0
 20
1.0
 30
0.0
  9
$PUCSNAME
  2

  9
$PUCSORG
 10
0.0
 20
0.0
 30
0.0
  9
$PUCSXDIR
 10
1.0
 20
0.0
 30
0.0
  9
$PUCSYDIR
 10
0.0
 20
1.0
 30
0.0
  9
$USERI1
 70
     0
  9
$USERI2
 70
     0
  9
$USERI3
 70
     0
  9
$USERI4
 70
     0
  9
$USERI5
 70
     0
  9
$USERR1
 40
0.0
  9
$USERR2
 40
0.0
  9
$USERR3
 40
0.0
  9
$USERR4
 40
0.0
  9
$USERR5
 40
0.0
  9
$WORLDVIEW
 70
     1
  9
$SHADEDGE
 70
     3
  9
$SHADEDIF
 70
    70
  9
$TILEMODE
 70
     0
  9
$MAXACTVP
 70
    64
  9
$PLIMCHECK
 70
     0
  9
$PEXTMIN
 10
0.0287712300219028
 20
0.0759839241634737
 30
0.0
  9
$PEXTMAX
 10
10.47122802895248
 20
7.957364437363462
 30
0.0
  9
$PLIMMIN
 10
-0.1682389550263349
 20
-0.2033427855578579
  9
$PLIMMAX
 10
10.754640548407011
 20
8.2370640492290015
  9
$UNITMODE
 70
     0
  9
$VISRETAIN
 70
     1
  9
$PLINEGEN
 70
     0
  9
$PSLTSCALE
 70
     1
  0
ENDSEC
  0
SECTION
  2
TABLES
  0
TABLE
  2
VPORT
 70
     1
  0
VPORT
  2
*ACTIVE
 70
     0
 10
0.0
 20
0.0
 11
1.0
 21
1.0
 12
-386.52380251144001
 22
838.09204166179234
 13
0.0
 23
0.0
 14
0.5
 24
0.5
 15
0.5
 25
0.5
 16
0.0
 26
0.0
 36
1.0
 17
0.0
 27
0.0
 37
0.0
 40
3.930952126162941
 41
2.0226628895184122
 42
50.0
 43
0.0
 44
0.0
 50
0.0
 51
0.0
 71
     0
 72
   100
 73
     1
 74
     2
 75
     0
 76
     0
 77
     0
 78
     0
  0
ENDTAB
  0
TABLE
  2
LTYPE
 70
     1
  0
LTYPE
  2
CONTINUOUS
 70
     0
  3
Solid line
 72
    65
 73
     0
 40
0.0
  0
ENDTAB
  0
TABLE
  2
LAYER
 70
    10
  0
LAYER
  2
0
 70
     0
 62
     7
  6
CONTINUOUS
  0
LAYER
  2
DEFPOINTS
 70
     0
 62
     7
  6
CONTINUOUS
  0
LAYER
  2
FRAME_200
 70
     0
 62
     8
  6
CONTINUOUS
  0
LAYER
  2
FRAME_070
 70
     0
 62
     5
  6
CONTINUOUS
  0
LAYER
  2
FRAME_050
 70
     0
 62
     6
  6
CONTINUOUS
  0
LAYER
  2
TITLE_BLOCK
 70
     0
 62
     7
  6
CONTINUOUS
  0
LAYER
  2
FRAME_025
 70
     0
 62
     7
  6
CONTINUOUS
  0
LAYER
  2
VIEWPORT
 70
     0
 62
     7
  6
CONTINUOUS
  0
LAYER
  2
PROF
 70
     0
 62
     7
  6
CONTINUOUS
  0
LAYER
  2
PROFILE
 70
     0
 62
     7
  6
CONTINUOUS
  0
ENDTAB
  0
TABLE
  2
STYLE
 70
     2
  0
STYLE
  2
STANDARD
 70
     0
 40
0.0
 41
1.0
 50
0.0
 71
     0
 42
1.5
  3
txt
  4

  0
STYLE
  2
ISO_PROPORTIONAL
 70
     0
 40
0.0
 41
1.0
 50
0.0
 71
     0
 42
2.5
  3
isocp.shx
  4

  0
ENDTAB
  0
TABLE
  2
VIEW
 70
     1
  0
ENDTAB
  0
TABLE
  2
UCS
 70
     0
  0
ENDTAB
  0
TABLE
  2
APPID
 70
     6
  0
APPID
  2
ACAD
 70
     0
  0
APPID
  2
DCO15
 70
     0
  0
APPID
  2
ACAD_EXEMPT_FROM_CAD_STANDARDS
 70
     0
  0
APPID
  2
ACAD_PSEXT
 70
     0
  0
APPID
  2
CONTENTBLOCKDESCRIPTION
 70
     0
  0
APPID
  2
CONTENTBLOCKICON
 70
     0
  0
ENDTAB
  0
TABLE
  2
DIMSTYLE
 70
    10
  0
DIMSTYLE
  2
FULL_SCALE
 70
     0
  3
"
  4

  5

  6

  7

 40
1.0
 41
0.046875
 42
0.09375
 43
0.125
 44
0.0625
 45
0.0
 46
0.0
 47
0.0
 48
0.0
140
0.125
141
0.125
142
0.0
143
25.399999999999999
144
1.0
145
0.0
146
1.0
147
0.0625
 71
     0
 72
     0
 73
     0
 74
     0
 75
     0
 76
     0
 77
     1
 78
     0
170
     0
171
     2
172
     0
173
     0
174
     1
175
     0
176
     0
177
     0
178
     0
  0
DIMSTYLE
  2
HALF_SCALE
 70
     0
  3
"
  4

  5

  6

  7

 40
1.0
 41
0.09375
 42
0.1875
 43
0.25
 44
0.125
 45
0.0
 46
0.0
 47
0.0
 48
0.0
140
0.25
141
0.25
142
0.0
143
25.399999999999999
144
1.0
145
0.0
146
1.0
147
0.125
 71
     0
 72
     0
 73
     0
 74
     0
 75
     0
 76
     0
 77
     1
 78
     0
170
     0
171
     2
172
     0
173
     0
174
     1
175
     0
176
     0
177
     0
178
     0
  0
DIMSTYLE
  2
INCH_SCALE
 70
     0
  3
"
  4

  5

  6

  7

 40
1.0
 41
0.5625
 42
1.125
 43
1.5
 44
0.75
 45
0.0
 46
0.0
 47
0.0
 48
0.0
140
1.125
141
1.5
142
0.0
143
25.399999999999999
144
1.0
145
0.0
146
1.0
147
0.75
 71
     0
 72
     0
 73
     0
 74
     0
 75
     0
 76
     0
 77
     1
 78
     0
170
     0
171
     2
172
     0
173
     0
174
     1
175
     0
176
     0
177
     0
178
     0
  0
DIMSTYLE
  2
THREE_QUARTER_INCH_SCALE
 70
     0
  3
"
  4

  5

  6

  7

 40
1.0
 41
0.75
 42
1.5
 43
2.0
 44
1.0
 45
0.0
 46
0.0
 47
0.0
 48
0.0
140
1.5
141
2.0
142
0.0
143
25.399999999999999
144
1.0
145
0.0
146
1.0
147
1.0
 71
     0
 72
     0
 73
     0
 74
     0
 75
     0
 76
     0
 77
     1
 78
     0
170
     0
171
     2
172
     0
173
     0
174
     1
175
     0
176
     0
177
     0
178
     0
  0
DIMSTYLE
  2
ZHALF_INCH_SCALE
 70
     0
  3
"
  4

  5

  6

  7

 40
1.0
 41
1.125
 42
2.25
 43
3.0
 44
1.5
 45
0.0
 46
0.0
 47
0.0
 48
0.0
140
2.25
141
3.0
142
0.0
143
25.399999999999999
144
1.0
145
0.0
146
1.0
147
1.5
 71
     0
 72
     0
 73
     0
 74
     0
 75
     0
 76
     0
 77
     1
 78
     0
170
     0
171
     2
172
     0
173
     0
174
     1
175
     0
176
     0
177
     0
178
     0
  0
DIMSTYLE
  2
FULL_SCALE0
 70
     0
  3
"
  4

  5
ARCHTICK
  6

  7

 40
1.0
 41
0.046875
 42
0.09375
 43
0.125
 44
0.0625
 45
0.0
 46
0.0
 47
0.0
 48
0.0
140
0.125
141
0.125
142
0.0
143
25.399999999999999
144
1.0
145
0.0
146
1.0
147
0.0625
 71
     0
 72
     0
 73
     0
 74
     0
 75
     0
 76
     0
 77
     1
 78
     0
170
     0
171
     2
172
     0
173
     0
174
     1
175
     0
176
     0
177
     0
178
     0
  0
DIMSTYLE
  2
HALF_SCALE0
 70
     0
  3
"
  4

  5
ARCHTICK
  6

  7

 40
1.0
 41
0.09375
 42
0.1875
 43
0.25
 44
0.125
 45
0.0
 46
0.0
 47
0.0
 48
0.0
140
0.25
141
0.25
142
0.0
143
25.399999999999999
144
1.0
145
0.0
146
1.0
147
0.125
 71
     0
 72
     0
 73
     0
 74
     0
 75
     0
 76
     0
 77
     1
 78
     0
170
     0
171
     2
172
     0
173
     0
174
     1
175
     0
176
     0
177
     0
178
     0
  0
DIMSTYLE
  2
INCH_SCALE0
 70
     0
  3
"
  4

  5
ARCHTICK
  6

  7

 40
1.0
 41
0.5625
 42
1.125
 43
1.5
 44
0.75
 45
0.0
 46
0.0
 47
0.0
 48
0.0
140
1.125
141
1.5
142
0.0
143
25.399999999999999
144
1.0
145
0.0
146
1.0
147
0.75
 71
     0
 72
     0
 73
     0
 74
     0
 75
     0
 76
     0
 77
     1
 78
     0
170
     0
171
     2
172
     0
173
     0
174
     1
175
     0
176
     0
177
     0
178
     0
  0
DIMSTYLE
  2
THREE_QUARTER_INCH_SCALE0
 70
     0
  3
"
  4

  5
ARCHTICK
  6

  7

 40
1.0
 41
0.75
 42
1.5
 43
2.0
 44
1.0
 45
0.0
 46
0.0
 47
0.0
 48
0.0
140
1.5
141
2.0
142
0.0
143
25.399999999999999
144
1.0
145
0.0
146
1.0
147
1.0
 71
     0
 72
     0
 73
     0
 74
     0
 75
     0
 76
     0
 77
     1
 78
     0
170
     0
171
     2
172
     0
173
     0
174
     1
175
     0
176
     0
177
     0
178
     0
  0
DIMSTYLE
  2
ZHALF_INCH_SCALE0
 70
     0
  3
"
  4

  5
ARCHTICK
  6

  7

 40
1.0
 41
1.125
 42
2.25
 43
3.0
 44
1.5
 45
0.0
 46
0.0
 47
0.0
 48
0.0
140
2.25
141
3.0
142
0.0
143
25.399999999999999
144
1.0
145
0.0
146
1.0
147
1.5
 71
     0
 72
     0
 73
     0
 74
     0
 75
     0
 76
     0
 77
     1
 78
     0
170
     0
171
     2
172
     0
173
     0
174
     1
175
     0
176
     0
177
     0
178
     0
  0
ENDTAB
  0
ENDSEC
  0
SECTION
  2
BLOCKS
  0
BLOCK
  8
0
  2
$MODEL_SPACE
 70
     0
 10
0.0
 20
0.0
 30
0.0
  3
$MODEL_SPACE
  1

  0
ENDBLK
  5
C9DC
  8
0
  0
BLOCK
 67
     1
  8
0
  2
$PAPER_SPACE
 70
     0
 10
0.0
 20
0.0
 30
0.0
  3
$PAPER_SPACE
  1

  0
ENDBLK
  5
C9D8
 67
     1
  8
0
  0
BLOCK
  8
0
  2
_ARCHTICK
 70
     0
 10
0.0
 20
0.0
 30
0.0
  3
_ARCHTICK
  1

  0
POLYLINE
  5
158
  8
0
  6
BYBLOCK
 62
     0
 66
     1
 10
0.0
 20
0.0
 30
0.0
 40
0.15
 41
0.15
  0
VERTEX
  5
CBF8
  8
0
  6
BYBLOCK
 62
     0
 10
-0.5
 20
-0.5
 30
0.0
  0
VERTEX
  5
CBF9
  8
0
  6
BYBLOCK
 62
     0
 10
0.5
 20
0.5
 30
0.0
  0
SEQEND
  5
CBFA
  8
0
  6
BYBLOCK
 62
     0
  0
ENDBLK
  5
15A
  8
0
  0
BLOCK
  8
0
  2
_OPEN30
 70
     0
 10
0.0
 20
0.0
 30
0.0
  3
_OPEN30
  1

  0
LINE
  5
15C
  8
0
  6
BYBLOCK
 62
     0
 10
-1.0
 20
0.26794919
 30
0.0
 11
0.0
 21
0.0
 31
0.0
  0
LINE
  5
15D
  8
0
  6
BYBLOCK
 62
     0
 10
0.0
 20
0.0
 30
0.0
 11
-1.0
 21
-0.26794919
 31
0.0
  0
LINE
  5
15E
  8
0
  6
BYBLOCK
 62
     0
 10
0.0
 20
0.0
 30
0.0
 11
-1.0
 21
0.0
 31
0.0
  0
ENDBLK
  5
160
  8
0
  0
BLOCK
  8
0
  2
ISO_A2_TITLE_BLOCK
 70
     2
 10
0.0
 20
0.0
 30
0.0
  3
ISO_A2_TITLE_BLOCK
  1

  0
LINE
  5
BDD
  8
FRAME_050
 10
299.5
 20
12.5
 30
0.0
 11
297.0
 21
7.5
 31
0.0
  0
LINE
  5
BDE
  8
FRAME_050
 10
294.5
 20
12.5
 30
0.0
 11
299.5
 21
12.5
 31
0.0
  0
LINE
  5
BDF
  8
FRAME_050
 10
247.0
 20
5.0
 30
0.0
 11
347.0
 21
5.0
 31
0.0
  0
LINE
  5
BE0
  8
FRAME_070
 10
584.0
 20
410.0
 30
0.0
 11
10.0
 21
410.0
 31
0.0
  0
LINE
  5
BE1
  8
FRAME_070
 10
10.0
 20
10.0
 30
0.0
 11
584.0
 21
10.0
 31
0.0
  0
LINE
  5
BE2
  8
FRAME_050
 10
12.5
 20
207.5
 30
0.0
 11
7.5
 21
210.0
 31
0.0
  0
LINE
  5
BE3
  8
FRAME_050
 10
12.5
 20
212.5
 30
0.0
 11
12.5
 21
207.5
 31
0.0
  0
LINE
  5
BE4
  8
FRAME_070
 10
10.0
 20
410.0
 30
0.0
 11
10.0
 21
10.0
 31
0.0
  0
LINE
  5
BE5
  8
FRAME_200
 10
0.0
 20
0.0
 30
0.0
 11
0.0
 21
10.0
 31
0.0
  0
LINE
  5
BE6
  8
FRAME_200
 10
0.0
 20
0.0
 30
0.0
 11
10.0
 21
0.0
 31
0.0
  0
TEXT
  5
BE7
  8
FRAME_050
 10
5.9000000000000004
 20
35.0
 30
0.0
 40
4.0
  1
H
  7
ISO_PROPORTIONAL
 72
     4
 11
7.5
 21
37.0
 31
0.0
  0
LINE
  5
BE8
  8
FRAME_050
 10
10.0
 20
60.0
 30
0.0
 11
5.0
 21
60.0
 31
0.0
  0
LINE
  5
BE9
  8
FRAME_050
 10
81.75
 20
5.0
 30
0.0
 11
81.75
 21
10.0
 31
0.0
  0
TEXT
  5
BEA
  8
FRAME_050
 10
44.874999999999993
 20
5.5
 30
0.0
 40
4.0
  1
1
  7
ISO_PROPORTIONAL
 72
     4
 11
45.875
 21
7.5
 31
0.0
  0
TEXT
  5
BEB
  8
FRAME_050
 10
6.0035533905932743
 20
85.0
 30
0.0
 40
4.0
  1
G
  7
ISO_PROPORTIONAL
 72
     4
 11
7.5
 21
87.0
 31
0.0
  0
LINE
  5
BEC
  8
FRAME_050
 10
10.0
 20
110.0
 30
0.0
 11
5.0
 21
110.0
 31
0.0
  0
TEXT
  5
BED
  8
FRAME_050
 10
6.0999999999999988
 20
135.0
 30
0.0
 40
4.0
  1
F
  7
ISO_PROPORTIONAL
 72
     4
 11
7.5
 21
137.0
 31
0.0
  0
LINE
  5
BEE
  8
FRAME_050
 10
10.0
 20
160.0
 30
0.0
 11
5.0
 21
160.0
 31
0.0
  0
TEXT
  5
BEF
  8
FRAME_050
 10
6.0999999999999988
 20
185.0
 30
0.0
 40
4.0
  1
E
  7
ISO_PROPORTIONAL
 72
     4
 11
7.5
 21
187.0
 31
0.0
  0
LINE
  5
BF0
  8
FRAME_050
 10
153.5
 20
5.0
 30
0.0
 11
153.5
 21
10.0
 31
0.0
  0
TEXT
  5
BF1
  8
FRAME_050
 10
116.1556692913386
 20
5.3996062992125982
 30
0.0
 40
4.0
  1
2
  7
ISO_PROPORTIONAL
 72
     4
 11
117.625
 21
7.5
 31
0.0
  0
TEXT
  5
BF2
  8
FRAME_050
 10
187.89215728752529
 20
5.5828427124746138
 30
0.0
 40
4.0
  1
3
  7
ISO_PROPORTIONAL
 72
     4
 11
189.375
 21
7.5
 31
0.0
  0
LINE
  5
BF3
  8
FRAME_050
 10
225.25
 20
5.0
 30
0.0
 11
225.25
 21
10.0
 31
0.0
  0
LINE
  5
BF4
  8
FRAME_050
 10
297.0
 20
7.5
 30
0.0
 11
294.5
 21
12.5
 31
0.0
  0
LINE
  5
BF5
  8
FRAME_050
 10
287.0
 20
5.0
 30
0.0
 11
287.0
 21
10.0
 31
0.0
  0
LINE
  5
BF6
  8
FRAME_050
 10
277.0
 20
5.0
 30
0.0
 11
277.0
 21
10.0
 31
0.0
  0
LINE
  5
BF7
  8
FRAME_050
 10
267.0
 20
5.0
 30
0.0
 11
267.0
 21
10.0
 31
0.0
  0
LINE
  5
BF8
  8
FRAME_050
 10
257.0
 20
5.0
 30
0.0
 11
257.0
 21
10.0
 31
0.0
  0
LINE
  5
BF9
  8
FRAME_050
 10
247.0
 20
5.0
 30
0.0
 11
247.0
 21
10.0
 31
0.0
  0
LINE
  5
BFA
  8
FRAME_050
 10
297.0
 20
10.0
 30
0.0
 11
297.0
 21
5.0
 31
0.0
  0
LINE
  5
BFB
  8
FRAME_050
 10
297.0
 20
10.0
 30
0.0
 11
297.0
 21
15.0
 31
0.0
  0
LINE
  5
BFC
  8
FRAME_050
 10
5.0
 20
210.0
 30
0.0
 11
15.0
 21
210.0
 31
0.0
  0
LINE
  5
BFD
  8
FRAME_050
 10
7.5
 20
210.0
 30
0.0
 11
12.5
 21
212.5
 31
0.0
  0
TEXT
  5
BFE
  8
FRAME_050
 10
5.7860912703473977
 20
235.0
 30
0.0
 40
4.0
  1
D
  7
ISO_PROPORTIONAL
 72
     4
 11
7.5
 21
237.0
 31
0.0
  0
LINE
  5
BFF
  8
FRAME_050
 10
10.0
 20
260.0
 30
0.0
 11
5.0
 21
260.0
 31
0.0
  0
TEXT
  5
C00
  8
FRAME_050
 10
6.1931980515339466
 20
285.0
 30
0.0
 40
4.0
  1
C
  7
ISO_PROPORTIONAL
 72
     4
 11
7.5
 21
287.0
 31
0.0
  0
LINE
  5
C01
  8
FRAME_050
 10
10.0
 20
310.0
 30
0.0
 11
5.0
 21
310.0
 31
0.0
  0
TEXT
  5
C02
  8
FRAME_050
 10
5.8999999999999959
 20
335.0
 30
0.0
 40
4.0
  1
B
  7
ISO_PROPORTIONAL
 72
     4
 11
7.5
 21
337.0
 31
0.0
  0
LINE
  5
C03
  8
FRAME_050
 10
10.0
 20
360.0
 30
0.0
 11
5.0
 21
360.0
 31
0.0
  0
TEXT
  5
C04
  8
FRAME_050
 10
5.6999999999999993
 20
385.0
 30
0.0
 40
4.0
  1
A
  7
ISO_PROPORTIONAL
 72
     4
 11
7.5
 21
387.0
 31
0.0
  0
LINE
  5
C05
  8
FRAME_200
 10
10.0
 20
420.0
 30
0.0
 11
0.0
 21
420.0
 31
0.0
  0
LINE
  5
C06
  8
FRAME_200
 10
0.0
 20
420.0
 30
0.0
 11
0.0
 21
410.0
 31
0.0
  0
TEXT
  5
C07
  8
FRAME_050
 10
44.874999999999993
 20
410.5
 30
0.0
 40
4.0
  1
1
  7
ISO_PROPORTIONAL
 72
     4
 11
45.875
 21
412.5
 31
0.0
  0
LINE
  5
C08
  8
FRAME_050
 10
81.75
 20
410.0
 30
0.0
 11
81.75
 21
415.0
 31
0.0
  0
TEXT
  5
C09
  8
FRAME_050
 10
116.1556692913386
 20
410.39960629921262
 30
0.0
 40
4.0
  1
2
  7
ISO_PROPORTIONAL
 72
     4
 11
117.625
 21
412.5
 31
0.0
  0
LINE
  5
C0A
  8
FRAME_050
 10
153.5
 20
410.0
 30
0.0
 11
153.5
 21
415.0
 31
0.0
  0
TEXT
  5
C0B
  8
FRAME_050
 10
187.89215728752529
 20
410.58284271247459
 30
0.0
 40
4.0
  1
3
  7
ISO_PROPORTIONAL
 72
     4
 11
189.375
 21
412.5
 31
0.0
  0
LINE
  5
C0C
  8
FRAME_050
 10
297.0
 20
405.0
 30
0.0
 11
297.0
 21
415.0
 31
0.0
  0
LINE
  5
C0D
  8
FRAME_050
 10
225.25
 20
410.0
 30
0.0
 11
225.25
 21
415.0
 31
0.0
  0
TEXT
  5
C0E
  8
FRAME_050
 10
259.52499999999998
 20
410.5
 30
0.0
 40
4.0
  1
4
  7
ISO_PROPORTIONAL
 72
     4
 11
261.125
 21
412.5
 31
0.0
  0
LINE
  5
C0F
  8
FRAME_070
 10
584.0
 20
10.0
 30
0.0
 11
584.0
 21
410.0
 31
0.0
  0
ATTDEF
  5
C10
  8
FRAME_025
 10
473.0
 20
31.75
 30
0.0
 40
2.5
  1
XXX - 00/00/00
  7
ISO_PROPORTIONAL
 11
473.0
 21
33.0
 31
0.0
  3
Approved by - Date
  2
APPROVED_BY_DATE
 70
     8
 74
     2
  0
TEXT
  5
C11
  8
FRAME_025
 10
448.0
 20
41.749999999999993
 30
0.0
 40
2.5
  1
Title/Name, designation, material, dimension etc
  7
ISO_PROPORTIONAL
 11
448.0
 21
43.0
 31
0.0
 73
     2
  0
TEXT
  5
C12
  8
FRAME_025
 10
473.0
 20
35.75
 30
0.0
 40
2.5
  1
Approved by - date
  7
ISO_PROPORTIONAL
 11
473.0
 21
37.0
 31
0.0
 73
     2
  0
LINE
  5
C13
  8
FRAME_070
 10
414.0
 20
46.0
 30
0.0
 11
584.0
 21
46.0
 31
0.0
  0
LINE
  5
C14
  8
FRAME_070
 10
414.0
 20
40.0
 30
0.0
 11
584.0
 21
40.0
 31
0.0
  0
LINE
  5
C15
  8
FRAME_070
 10
414.0
 20
30.0
 30
0.0
 11
584.0
 21
30.0
 31
0.0
  0
LINE
  5
C16
  8
FRAME_050
 10
368.75
 20
5.0
 30
0.0
 11
368.75
 21
10.0
 31
0.0
  0
LINE
  5
C17
  8
FRAME_050
 10
337.0
 20
5.0
 30
0.0
 11
337.0
 21
10.0
 31
0.0
  0
LINE
  5
C18
  8
FRAME_050
 10
327.0
 20
5.0
 30
0.0
 11
327.0
 21
10.0
 31
0.0
  0
LINE
  5
C19
  8
FRAME_050
 10
317.0
 20
5.0
 30
0.0
 11
317.0
 21
10.0
 31
0.0
  0
LINE
  5
C1A
  8
FRAME_050
 10
307.0
 20
5.0
 30
0.0
 11
307.0
 21
10.0
 31
0.0
  0
LINE
  5
C1B
  8
FRAME_050
 10
347.0
 20
5.0
 30
0.0
 11
347.0
 21
10.0
 31
0.0
  0
LINE
  5
C1C
  8
FRAME_050
 10
440.5
 20
5.0
 30
0.0
 11
440.5
 21
10.0
 31
0.0
  0
TEXT
  5
C1D
  8
FRAME_050
 10
403.24547244094481
 20
5.4102362204724406
 30
0.0
 40
4.0
  1
6
  7
ISO_PROPORTIONAL
 72
     4
 11
404.62499999999989
 21
7.5
 31
0.0
  0
TEXT
  5
C1E
  8
FRAME_050
 10
474.97499999999991
 20
5.5
 30
0.0
 40
4.0
  1
7
  7
ISO_PROPORTIONAL
 72
     4
 11
476.37499999999989
 21
7.5
 31
0.0
  0
TEXT
  5
C1F
  8
FRAME_025
 10
431.0
 20
41.749999999999993
 30
0.0
 40
2.5
  1
Quantity
  7
ISO_PROPORTIONAL
 11
431.0
 21
43.0
 31
0.0
 73
     2
  0
TEXT
  5
C20
  8
FRAME_025
 10
416.0
 20
41.749999999999993
 30
0.0
 40
2.5
  1
Itemref
  7
ISO_PROPORTIONAL
 11
416.0
 21
43.0
 31
0.0
 73
     2
  0
LINE
  5
C21
  8
FRAME_070
 10
414.0
 20
40.0
 30
0.0
 11
414.0
 21
46.0
 31
0.0
  0
LINE
  5
C22
  8
FRAME_070
 10
429.0
 20
40.0
 30
0.0
 11
429.0
 21
46.0
 31
0.0
  0
LINE
  5
C23
  8
FRAME_070
 10
414.0
 20
10.0
 30
0.0
 11
414.0
 21
40.0
 31
0.0
  0
ATTDEF
  5
C24
  8
FRAME_025
 10
416.0
 20
31.75
 30
0.0
 40
2.5
  1
XXX
  7
ISO_PROPORTIONAL
 11
416.0
 21
33.0
 31
0.0
  3
Designed by
  2
DESIGNED_BY
 70
     8
 74
     2
  0
TEXT
  5
C25
  8
FRAME_025
 10
416.0
 20
35.75
 30
0.0
 40
2.5
  1
Designed by
  7
ISO_PROPORTIONAL
 11
416.0
 21
37.0
 31
0.0
 73
     2
  0
LINE
  5
C26
  8
FRAME_070
 10
446.0
 20
40.0
 30
0.0
 11
446.0
 21
46.0
 31
0.0
  0
ATTDEF
  5
C27
  8
FRAME_025
 10
448.0
 20
31.75
 30
0.0
 40
2.5
  1
XXX
  7
ISO_PROPORTIONAL
 11
448.0
 21
33.0
 31
0.0
  3
Checked by
  2
CHECKED_BY
 70
     8
 74
     2
  0
TEXT
  5
C28
  8
FRAME_025
 10
448.0
 20
35.75
 30
0.0
 40
2.5
  1
Checked by
  7
ISO_PROPORTIONAL
 11
448.0
 21
37.0
 31
0.0
 73
     2
  0
ATTDEF
  5
C29
  8
FRAME_050
 10
444.74999999999989
 20
17.5
 30
0.0
 40
5.0
  1
XXX
  7
ISO_PROPORTIONAL
 72
     4
 11
451.49999999999989
 21
20.0
 31
0.0
  3
Owner
  2
OWNER
 70
     8
  0
LINE
  5
C2A
  8
FRAME_070
 10
446.0
 20
30.0
 30
0.0
 11
446.0
 21
40.0
 31
0.0
  0
LINE
  5
C2B
  8
FRAME_070
 10
471.0
 20
30.0
 30
0.0
 11
471.0
 21
40.0
 31
0.0
  0
LINE
  5
C2C
  8
FRAME_070
 10
489.0
 20
20.0
 30
0.0
 11
584.0
 21
20.0
 31
0.0
  0
LINE
  5
C2D
  8
FRAME_050
 10
512.25
 20
5.0
 30
0.0
 11
512.25
 21
10.0
 31
0.0
  0
TEXT
  5
C2E
  8
FRAME_050
 10
546.72499999999991
 20
5.5
 30
0.0
 40
4.0
  1
8
  7
ISO_PROPORTIONAL
 72
     4
 11
548.125
 21
7.5
 31
0.0
  0
ATTDEF
  5
C2F
  8
FRAME_050
 10
517.64999999999986
 20
13.5
 30
0.0
 40
3.0
  1
X
  7
ISO_PROPORTIONAL
 72
     4
 11
519.0
 21
15.0
 31
0.0
  3
Drawing number
  2
DRAWING_NUMBER
 70
     8
  0
ATTDEF
  5
C30
  8
FRAME_050
 10
529.75
 20
22.5
 30
0.0
 40
5.0
  1
XXX
  7
ISO_PROPORTIONAL
 72
     4
 11
536.5
 21
25.0
 31
0.0
  3
Title / Name
  2
TITLE
 70
     8
  0
LINE
  5
C31
  8
FRAME_070
 10
489.0
 20
10.0
 30
0.0
 11
489.0
 21
30.0
 31
0.0
  0
ATTDEF
  5
C32
  8
FRAME_025
 10
511.0
 20
31.75
 30
0.0
 40
2.5
  1
XXX
  7
ISO_PROPORTIONAL
 11
511.0
 21
33.0
 31
0.0
  3
Filename
  2
FILENAME
 70
     8
 74
     2
  0
TEXT
  5
C33
  8
FRAME_025
 10
511.0
 20
35.75
 30
0.0
 40
2.5
  1
Filename
  7
ISO_PROPORTIONAL
 11
511.0
 21
37.0
 31
0.0
 73
     2
  0
LINE
  5
C34
  8
FRAME_070
 10
509.0
 20
30.0
 30
0.0
 11
509.0
 21
40.0
 31
0.0
  0
TEXT
  5
C35
  8
FRAME_025
 10
536.0
 20
41.749999999999993
 30
0.0
 40
2.5
  1
Article No./Reference
  7
ISO_PROPORTIONAL
 11
536.0
 21
43.0
 31
0.0
 73
     2
  0
LINE
  5
C36
  8
FRAME_070
 10
534.0
 20
40.0
 30
0.0
 11
534.0
 21
46.0
 31
0.0
  0
ATTDEF
  5
C37
  8
FRAME_025
 10
551.0
 20
11.75
 30
0.0
 40
2.5
  1
0
  7
ISO_PROPORTIONAL
 11
551.0
 21
13.0
 31
0.0
  3
Edition
  2
EDITION
 70
     8
 74
     2
  0
TEXT
  5
C38
  8
FRAME_025
 10
551.0
 20
15.75
 30
0.0
 40
2.5
  1
Edition
  7
ISO_PROPORTIONAL
 11
551.0
 21
17.0
 31
0.0
 73
     2
  0
LINE
  5
C39
  8
FRAME_070
 10
549.0
 20
10.0
 30
0.0
 11
549.0
 21
20.0
 31
0.0
  0
ATTDEF
  5
C3A
  8
FRAME_025
 10
536.0
 20
31.75
 30
0.0
 40
2.5
  1
00/00/00
  7
ISO_PROPORTIONAL
 11
536.0
 21
33.0
 31
0.0
  3
Date
  2
DATE
 70
     8
 74
     2
  0
TEXT
  5
C3B
  8
FRAME_025
 10
536.0
 20
35.75
 30
0.0
 40
2.5
  1
Date
  7
ISO_PROPORTIONAL
 11
536.0
 21
37.0
 31
0.0
 73
     2
  0
LINE
  5
C3C
  8
FRAME_070
 10
534.0
 20
30.0
 30
0.0
 11
534.0
 21
40.0
 31
0.0
  0
ATTDEF
  5
C3D
  8
FRAME_025
 10
566.0
 20
11.75
 30
0.0
 40
2.5
  1
1/1
  7
ISO_PROPORTIONAL
 11
566.0
 21
13.0
 31
0.0
  3
Sheet
  2
SHEET
 70
     8
 74
     2
  0
TEXT
  5
C3E
  8
FRAME_025
 10
566.0
 20
15.75
 30
0.0
 40
2.5
  1
Sheet
  7
ISO_PROPORTIONAL
 11
566.0
 21
17.0
 31
0.0
 73
     2
  0
LINE
  5
C3F
  8
FRAME_070
 10
564.0
 20
10.0
 30
0.0
 11
564.0
 21
20.0
 31
0.0
  0
ATTDEF
  5
C40
  8
FRAME_025
 10
566.0
 20
31.75
 30
0.0
 40
2.5
  1
1:1
  7
ISO_PROPORTIONAL
 11
566.0
 21
33.0
 31
0.0
  3
Scale
  2
SCALE
 70
     8
 74
     2
  0
TEXT
  5
C41
  8
FRAME_025
 10
566.0
 20
35.75
 30
0.0
 40
2.5
  1
Scale
  7
ISO_PROPORTIONAL
 11
566.0
 21
37.0
 31
0.0
 73
     2
  0
LINE
  5
C42
  8
FRAME_070
 10
564.0
 20
30.0
 30
0.0
 11
564.0
 21
40.0
 31
0.0
  0
LINE
  5
C43
  8
FRAME_200
 10
594.0
 20
0.0
 30
0.0
 11
594.0
 21
10.0
 31
0.0
  0
LINE
  5
C44
  8
FRAME_200
 10
594.0
 20
0.0
 30
0.0
 11
584.0
 21
0.0
 31
0.0
  0
TEXT
  5
C45
  8
FRAME_050
 10
584.89999999999998
 20
35.0
 30
0.0
 40
4.0
  1
H
  7
ISO_PROPORTIONAL
 72
     4
 11
586.5
 21
37.0
 31
0.0
  0
LINE
  5
C46
  8
FRAME_050
 10
589.0
 20
60.0
 30
0.0
 11
584.0
 21
60.0
 31
0.0
  0
TEXT
  5
C47
  8
FRAME_050
 10
585.0035533905932
 20
85.0
 30
0.0
 40
4.0
  1
G
  7
ISO_PROPORTIONAL
 72
     4
 11
586.5
 21
87.0
 31
0.0
  0
LINE
  5
C48
  8
FRAME_050
 10
589.0
 20
110.0
 30
0.0
 11
584.0
 21
110.0
 31
0.0
  0
TEXT
  5
C49
  8
FRAME_050
 10
585.09999999999991
 20
135.0
 30
0.0
 40
4.0
  1
F
  7
ISO_PROPORTIONAL
 72
     4
 11
586.5
 21
137.0
 31
0.0
  0
LINE
  5
C4A
  8
FRAME_050
 10
589.0
 20
160.0
 30
0.0
 11
584.0
 21
160.0
 31
0.0
  0
TEXT
  5
C4B
  8
FRAME_050
 10
585.09999999999991
 20
185.0
 30
0.0
 40
4.0
  1
E
  7
ISO_PROPORTIONAL
 72
     4
 11
586.5
 21
187.0
 31
0.0
  0
LINE
  5
C4C
  8
FRAME_070
 10
414.0
 20
404.0
 30
0.0
 11
584.0
 21
404.0
 31
0.0
  0
TEXT
  5
C4D
  8
FRAME_050
 10
331.39215728752538
 20
410.58284271247459
 30
0.0
 40
4.0
  1
5
  7
ISO_PROPORTIONAL
 72
     4
 11
332.875
 21
412.5
 31
0.0
  0
LINE
  5
C4E
  8
FRAME_050
 10
368.75
 20
410.0
 30
0.0
 11
368.75
 21
415.0
 31
0.0
  0
TEXT
  5
C4F
  8
FRAME_025
 10
428.0
 20
405.75
 30
0.0
 40
2.5
  1
Revision note
  7
ISO_PROPORTIONAL
 11
428.0
 21
407.0
 31
0.0
 73
     2
  0
TEXT
  5
C50
  8
FRAME_025
 10
416.0
 20
405.75
 30
0.0
 40
2.5
  1
RevNo
  7
ISO_PROPORTIONAL
 11
416.0
 21
407.0
 31
0.0
 73
     2
  0
LINE
  5
C51
  8
FRAME_070
 10
426.0
 20
404.0
 30
0.0
 11
426.0
 21
410.0
 31
0.0
  0
LINE
  5
C52
  8
FRAME_070
 10
414.0
 20
404.0
 30
0.0
 11
414.0
 21
410.0
 31
0.0
  0
TEXT
  5
C53
  8
FRAME_050
 10
403.24547244094481
 20
410.41023622047243
 30
0.0
 40
4.0
  1
6
  7
ISO_PROPORTIONAL
 72
     4
 11
404.62499999999989
 21
412.5
 31
0.0
  0
LINE
  5
C54
  8
FRAME_050
 10
440.5
 20
410.0
 30
0.0
 11
440.5
 21
415.0
 31
0.0
  0
TEXT
  5
C55
  8
FRAME_050
 10
474.97499999999991
 20
410.5
 30
0.0
 40
4.0
  1
7
  7
ISO_PROPORTIONAL
 72
     4
 11
476.37499999999989
 21
412.5
 31
0.0
  0
LINE
  5
C56
  8
FRAME_050
 10
579.0
 20
210.0
 30
0.0
 11
589.0
 21
210.0
 31
0.0
  0
TEXT
  5
C57
  8
FRAME_050
 10
584.78609127034736
 20
235.0
 30
0.0
 40
4.0
  1
D
  7
ISO_PROPORTIONAL
 72
     4
 11
586.5
 21
237.0
 31
0.0
  0
LINE
  5
C58
  8
FRAME_050
 10
589.0
 20
260.0
 30
0.0
 11
584.0
 21
260.0
 31
0.0
  0
TEXT
  5
C59
  8
FRAME_050
 10
585.19319805153395
 20
285.0
 30
0.0
 40
4.0
  1
C
  7
ISO_PROPORTIONAL
 72
     4
 11
586.5
 21
287.0
 31
0.0
  0
LINE
  5
C5A
  8
FRAME_050
 10
589.0
 20
310.0
 30
0.0
 11
584.0
 21
310.0
 31
0.0
  0
TEXT
  5
C5B
  8
FRAME_050
 10
584.89999999999998
 20
335.0
 30
0.0
 40
4.0
  1
B
  7
ISO_PROPORTIONAL
 72
     4
 11
586.5
 21
337.0
 31
0.0
  0
TEXT
  5
C5C
  8
FRAME_025
 10
571.08299391850551
 20
405.75
 30
0.0
 40
2.5
  1
Checked
  7
ISO_PROPORTIONAL
 11
571.08299391850551
 21
407.0
 31
0.0
 73
     2
  0
TEXT
  5
C5D
  8
FRAME_025
 10
555.36099797283521
 20
405.75
 30
0.0
 40
2.5
  1
Signature
  7
ISO_PROPORTIONAL
 11
555.36099797283521
 21
407.0
 31
0.0
 73
     2
  0
TEXT
  5
C5E
  8
FRAME_025
 10
537.0
 20
405.75
 30
0.0
 40
2.5
  1
Date
  7
ISO_PROPORTIONAL
 11
537.0
 21
407.0
 31
0.0
 73
     2
  0
LINE
  5
C5F
  8
FRAME_070
 10
570.0
 20
404.0
 30
0.0
 11
570.0
 21
410.0
 31
0.0
  0
LINE
  5
C60
  8
FRAME_070
 10
555.0
 20
404.0
 30
0.0
 11
555.0
 21
410.0
 31
0.0
  0
LINE
  5
C61
  8
FRAME_070
 10
535.0
 20
404.0
 30
0.0
 11
535.0
 21
410.0
 31
0.0
  0
LINE
  5
C62
  8
FRAME_050
 10
512.25
 20
410.0
 30
0.0
 11
512.25
 21
415.0
 31
0.0
  0
TEXT
  5
C63
  8
FRAME_050
 10
546.72499999999991
 20
410.5
 30
0.0
 40
4.0
  1
8
  7
ISO_PROPORTIONAL
 72
     4
 11
548.125
 21
412.5
 31
0.0
  0
LINE
  5
C64
  8
FRAME_050
 10
589.0
 20
360.0
 30
0.0
 11
584.0
 21
360.0
 31
0.0
  0
TEXT
  5
C65
  8
FRAME_050
 10
584.70000000000005
 20
385.0
 30
0.0
 40
4.0
  1
A
  7
ISO_PROPORTIONAL
 72
     4
 11
586.5
 21
387.0
 31
0.0
  0
LINE
  5
C66
  8
FRAME_200
 10
594.0
 20
420.0
 30
0.0
 11
584.0
 21
420.0
 31
0.0
  0
LINE
  5
C67
  8
FRAME_200
 10
594.0
 20
410.0
 30
0.0
 11
594.0
 21
420.0
 31
0.0
  0
ENDBLK
  5
C69
  8
0
  0
BLOCK
  8
0
  2
WOBB001END
 70
     0
 10
0.0
 20
0.0
 30
0.0
  3
WOBB001END
  1

  0
LINE
  5
4D66
  8
0
  6
CONTINUOUS
 10
0.0
 20
0.0
 30
0.0
 11
0.8749999999999998
 21
0.0
 31
0.0
  0
ARC
  5
4D67
  8
0
  6
CONTINUOUS
 10
0.0331648379439287
 20
-0.5087238935900234
 30
0.0
 40
0.8790130605592325
 50
284.06490243660443
 51
312.19222981924361
  0
ARC
  5
4D68
  8
0
  6
CONTINUOUS
 10
0.2841534338796767
 20
-1.510548310625538
 30
0.0
 40
0.1537731892806598
 50
104.0649024366044
 51
179.4721730735024
  0
LINE
  5
4D69
  8
0
  6
CONTINUOUS
 10
0.0
 20
0.0
 30
0.0
 11
-0.0000000000000003
 21
-1.7501564476661911
 31
0.0
  0
ARC
  5
4D6A
  8
0
  6
CONTINUOUS
 10
0.1404622019506122
 20
-1.630313718354619
 30
0.0
 40
0.1198427293115722
 50
275.0
 51
85.000000000000057
  0
LINE
  5
4D6B
  8
0
  6
CONTINUOUS
 10
-0.0000000000000003
 20
-1.7501564476661911
 30
0.0
 11
0.1456946485130855
 21
-1.7501564476661911
 31
0.0
  0
LINE
  5
4D6C
  8
0
  6
CONTINUOUS
 10
0.1377603739254348
 20
-1.7508506067459131
 30
0.0
 11
0.150907184036669
 21
-1.7497004098996509
 31
0.0
  0
LINE
  5
4D6D
  8
0
  6
CONTINUOUS
 10
0.1303867696719884
 20
-1.5091317231818231
 30
0.0
 11
0.1509071840366689
 21
-1.510927026809586
 31
0.0
  0
LINE
  5
4D6E
  8
0
  6
CONTINUOUS
 10
0.8749999999999998
 20
0.0
 30
0.0
 11
0.8749999999999996
 21
-0.8649327026588228
 31
0.0
  0
LINE
  5
4D6F
  8
0
  6
CONTINUOUS
 10
0.727014513830997
 20
-0.872688293355061
 30
0.0
 11
0.727014513830997
 21
-0.9264923397184784
 31
0.0
  0
ARC
  5
4D70
  8
0
  6
CONTINUOUS
 10
0.41187090827646
 20
-0.9264923397184784
 30
0.0
 40
0.3151436055545369
 50
312.19222981924361
 51
0.0
  0
LINE
  5
4D71
  8
0
  6
CONTINUOUS
 10
0.727014513830997
 20
-0.872688293355061
 30
0.0
 11
0.8749999999999996
 21
-0.8649327026588228
 31
0.0
  0
ENDBLK
  5
4D72
  8
0
  0
BLOCK
  8
0
  2
A$C0A61123B
 70
     0
 10
0.0
 20
0.0
 30
0.0
  3
A$C0A61123B
  1

  0
LINE
  5
C0AD
  8
PROF
  6
CONTINUOUS
 10
4.9012016798694162
 20
13.325025853350891
 30
0.0000000000000002
 11
4.9012016798694162
 21
12.88585218805485
 31
0.0000000000000003
  0
INSERT
  5
C0AE
  8
0
  2
*U7
 10
0.0
 20
0.0
 30
0.0
  0
LINE
  5
C0AF
  8
PROF
 10
4.519857503186925
 20
12.72227734589444
 30
0.0000000000000001
 11
4.519857503186925
 21
12.88585218805485
 31
0.0000000000000001
  0
LINE
  5
C0B0
  8
PROF
  6
CONTINUOUS
 10
3.6306271195888362
 20
13.325025853350891
 30
0.0000000000000002
 11
4.9012016798694162
 21
13.325025853350891
 31
0.0000000000000002
  0
LINE
  5
C0B1
  8
PROF
 10
1.9750295148747341
 20
10.37671325491794
 30
0.0000000000000002
 11
1.9750295148747341
 21
10.11391186758919
 31
0.0000000000000002
  0
LINE
  5
C0B2
  8
PROF
 10
1.6079673357556299
 20
10.11391186758919
 30
0.0000000000000001
 11
1.9750295148747341
 21
10.11391186758919
 31
0.0000000000000001
  0
LINE
  5
C0B3
  8
PROF
 10
1.9750295148747341
 20
10.11391186758919
 30
0.0000000000000001
 11
1.944958486898144
 21
10.11391186758919
 31
0.0000000000000001
  0
LINE
  5
C0B4
  8
PROF
 10
1.9750295148747341
 20
10.11391186758919
 30
0.0000000000000001
 11
1.944958486898144
 21
10.11391186758919
 31
0.0000000000000001
  0
LINE
  5
C0B5
  8
PROF
 10
0.3222605517169654
 20
7.5247473351056451
 30
-0.0000000000000002
 11
-0.0000008570117416
 21
7.5247473351056451
 31
0.0
  0
LINE
  5
C0B6
  8
PROF
 10
-0.0000008570117416
 20
7.5247473351056451
 30
0.0
 11
-0.0000008570117416
 21
9.1943336957369848
 31
0.0
  0
POLYLINE
  5
C0B7
  8
PROF
 66
     1
 10
0.0
 20
0.0
 30
0.0000000000000001
 70
     4
 75
     6
  0
VERTEX
  5
C0B8
  8
PROF
 10
1.6079673357556299
 20
10.11391186758919
 30
0.0000000000000001
 70
    16
  0
VERTEX
  5
C0B9
  8
PROF
 10
1.6079673357556299
 20
10.11391186758919
 30
0.0000000000000001
 70
     8
  0
VERTEX
  5
C0BA
  8
PROF
 10
1.6468132326485809
 20
10.02198069336111
 30
0.0000000000000001
 70
     8
  0
VERTEX
  5
C0BB
  8
PROF
 10
1.67335966680929
 20
9.9344134163010231
 30
0.0000000000000001
 70
     8
  0
VERTEX
  5
C0BC
  8
PROF
 10
1.6890086400463229
 20
9.8512576644480951
 30
0.0000000000000001
 70
     8
  0
VERTEX
  5
C0BD
  8
PROF
 10
1.6951621541682571
 20
9.7725610658417281
 30
0.0000000000000001
 70
     8
  0
VERTEX
  5
C0BE
  8
PROF
 10
1.693222210983605
 20
9.6983712485214237
 30
0.0000000000000001
 70
     8
  0
VERTEX
  5
C0BF
  8
PROF
 10
1.6845908123009961
 20
9.6287358405263603
 30
0.0000000000000001
 70
     8
  0
VERTEX
  5
C0C0
  8
PROF
 10
1.670669959928885
 20
9.5637024698960431
 30
0.0000000000000001
 70
     8
  0
VERTEX
  5
C0C1
  8
PROF
 10
1.6528616556759621
 20
9.5033187646697552
 30
0.0000000000000001
 70
     8
  0
VERTEX
  5
C0C2
  8
PROF
 10
1.632356299273054
 20
9.4475843259650691
 30
0.0000000000000001
 70
     8
  0
VERTEX
  5
C0C3
  8
PROF
 10
1.609497882140658
 20
9.3963066472123273
 30
0.0000000000000001
 70
     8
  0
VERTEX
  5
C0C4
  8
PROF
 10
1.584418793621637
 20
9.3492451949202842
 30
0.0000000000000001
 70
     8
  0
VERTEX
  5
C0C5
  8
PROF
 10
1.5572514230587431
 20
9.3061594355972357
 30
0.0000000000000001
 70
     8
  0
VERTEX
  5
C0C6
  8
PROF
 10
1.5281281597949601
 20
9.2668088357519274
 30
0.0000000000000001
 70
     8
  0
VERTEX
  5
C0C7
  8
PROF
 10
1.497181393172978
 20
9.2309528618929981
 30
0.0000000000000001
 70
     8
  0
VERTEX
  5
C0C8
  8
PROF
 10
1.4645435125357249
 20
9.1983509805288541
 30
0.0000000000000001
 70
     8
  0
VERTEX
  5
C0C9
  8
PROF
 10
1.4303469072260091
 20
9.1687626581682462
 30
0.0000000000000001
 70
     8
  0
VERTEX
  5
C0CA
  8
PROF
 10
1.394736033257401
 20
9.1419547918675335
 30
0.0000000000000001
 70
     8
  0
VERTEX
  5
C0CB
  8
PROF
 10
1.3579036133264131
 20
9.1177240008747713
 30
0.0000000000000001
 70
     8
  0
VERTEX
  5
C0CC
  8
PROF
 10
1.3200544368004321
 20
9.0958743349860924
 30
0.0000000000000001
 70
     8
  0
VERTEX
  5
C0CD
  8
PROF
 10
1.281393293046676
 20
9.0762098439975034
 30
0.0000000000000001
 70
     8
  0
VERTEX
  5
C0CE
  8
PROF
 10
1.2421249714324161
 20
9.0585345777049042
 30
0.0000000000000001
 70
     8
  0
VERTEX
  5
C0CF
  8
PROF
 10
1.202454261324986
 20
9.0426525859044187
 30
0.0000000000000001
 70
     8
  0
VERTEX
  5
C0D0
  8
PROF
 10
1.162585952091659
 20
9.0283679183919503
 30
0.0000000000000001
 70
     8
  0
VERTEX
  5
C0D1
  8
PROF
 10
1.1227248330997091
 20
9.0154846249635021
 30
0.0000000000000001
 70
     8
  0
VERTEX
  5
C0D2
  8
PROF
 10
1.0829726247361
 20
9.0034643862466055
 30
0.0000000000000001
 70
     8
  0
VERTEX
  5
C0D3
  8
PROF
 10
1.043018771466222
 20
8.9903994061946833
 30
0.0000000000000001
 70
     8
  0
VERTEX
  5
C0D4
  8
PROF
 10
1.002449648775211
 20
8.9740395195925622
 30
0.0000000000000001
 70
     8
  0
VERTEX
  5
C0D5
  8
PROF
 10
0.9608516321480919
 20
8.9521345612251935
 30
0.0000000000000001
 70
     8
  0
VERTEX
  5
C0D6
  8
PROF
 10
0.9178110970699435
 20
8.9224343658775052
 30
0.0000000000000001
 70
     8
  0
VERTEX
  5
C0D7
  8
PROF
 10
0.8729144190259033
 20
8.8826887683343312
 30
0.0000000000000001
 70
     8
  0
VERTEX
  5
C0D8
  8
PROF
 10
0.8257479735009949
 20
8.8306476033806121
 30
0.0000000000000001
 70
     8
  0
VERTEX
  5
C0D9
  8
PROF
 10
0.7758981359802988
 20
8.764060705801171
 30
0.0000000000000001
 70
     8
  0
VERTEX
  5
C0DA
  8
PROF
 10
1.7292019016096549
 20
9.8629858761255491
 30
0.0000000000000001
 70
    16
  0
VERTEX
  5
C0DB
  8
PROF
 10
1.679373123114088
 20
9.4532143012734213
 30
0.0000000000000001
 70
    16
  0
VERTEX
  5
C0DC
  8
PROF
 10
1.4455611507419801
 20
9.1391837193732481
 30
0.0000000000000001
 70
    16
  0
VERTEX
  5
C0DD
  8
PROF
 10
1.1204637172738201
 20
9.0026267702428413
 30
0.0000000000000001
 70
    16
  0
VERTEX
  5
C0DE
  8
PROF
 10
0.9127765582653638
 20
8.9630202230383702
 30
0.0000000000000001
 70
    16
  0
VERTEX
  5
C0DF
  8
PROF
 10
0.7758981359802988
 20
8.764060705801171
 30
0.0000000000000001
 70
    16
  0
SEQEND
  5
C0E0
  8
PROF
  0
ARC
  5
C0E1
  8
PROF
 10
0.733429816733235
 20
8.4849506952165257
 30
0.0000000000000001
 40
0.2823224329524727
 50
269.73652020831901
 51
81.348449993176914
  0
LINE
  5
C0E2
  8
PROF
  6
CONTINUOUS
 10
-0.0000008570117416
 20
9.1943336957369848
 30
-0.0000000000000001
 11
3.6306271195888362
 21
13.325025853350891
 31
0.0000000000000002
  0
POLYLINE
  5
C0E3
  8
PROF
 66
     1
 10
0.0
 20
0.0
 30
0.0000000000000001
 70
     4
 75
     6
  0
VERTEX
  5
C0E4
  8
PROF
 10
4.519857503186925
 20
12.72227734589444
 30
0.0000000000000001
 70
    16
  0
VERTEX
  5
C0E5
  8
PROF
 10
4.519857503186925
 20
12.72227734589444
 30
0.0000000000000001
 70
     8
  0
VERTEX
  5
C0E6
  8
PROF
 10
4.4467035366886289
 20
12.741128108778071
 30
0.0000000000000001
 70
     8
  0
VERTEX
  5
C0E7
  8
PROF
 10
4.3786645761268801
 20
12.754675269913941
 30
0.0000000000000001
 70
     8
  0
VERTEX
  5
C0E8
  8
PROF
 10
4.3154364111440469
 20
12.76334314092332
 30
0.0000000000000001
 70
     8
  0
VERTEX
  5
C0E9
  8
PROF
 10
4.256714831382566
 20
12.76755603342724
 30
0.0000000000000001
 70
     8
  0
VERTEX
  5
C0EA
  8
PROF
 10
4.2021956264849791
 20
12.76773825904672
 30
0.0000000000000001
 70
     8
  0
VERTEX
  5
C0EB
  8
PROF
 10
4.1515745860935436
 20
12.764314129403139
 30
0.0000000000000001
 70
     8
  0
VERTEX
  5
C0EC
  8
PROF
 10
4.1045474998508649
 20
12.75770795611743
 30
0.0000000000000001
 70
     8
  0
VERTEX
  5
C0ED
  8
PROF
 10
4.0608101573993149
 20
12.748344050810831
 30
0.0000000000000001
 70
     8
  0
VERTEX
  5
C0EE
  8
PROF
 10
4.0200583483813261
 20
12.736646725104491
 30
0.0000000000000001
 70
     8
  0
VERTEX
  5
C0EF
  8
PROF
 10
3.981987862439381
 20
12.72304029061945
 30
0.0000000000000001
 70
     8
  0
VERTEX
  5
C0F0
  8
PROF
 10
3.946294489215858
 20
12.707949058976959
 30
0.0000000000000001
 70
     8
  0
VERTEX
  5
C0F1
  8
PROF
 10
3.912674018353242
 20
12.691797341798059
 30
0.0000000000000001
 70
     8
  0
VERTEX
  5
C0F2
  8
PROF
 10
3.8808638350742499
 20
12.67494295718654
 30
0.0000000000000001
 70
     8
  0
VERTEX
  5
C0F3
  8
PROF
 10
3.850767706922738
 20
12.65747774917668
 30
0.0000000000000001
 70
     8
  0
VERTEX
  5
C0F4
  8
PROF
 10
3.8223309970228438
 20
12.639427068285499
 30
0.0000000000000001
 70
     8
  0
VERTEX
  5
C0F5
  8
PROF
 10
3.795499068498712
 20
12.62081626503004
 30
0.0000000000000001
 70
     8
  0
VERTEX
  5
C0F6
  8
PROF
 10
3.7702172844744819
 20
12.601670689926999
 30
0.0000000000000001
 70
     8
  0
VERTEX
  5
C0F7
  8
PROF
 10
3.7464310080743521
 20
12.58201569349364
 30
0.0000000000000001
 70
     8
  0
VERTEX
  5
C0F8
  8
PROF
 10
3.7240856024224609
 20
12.56187662624666
 30
0.0000000000000001
 70
     8
  0
VERTEX
  5
C0F9
  8
PROF
 10
3.7031264306428961
 20
12.541278838703191
 30
0.0000000000000001
 70
     8
  0
VERTEX
  5
C0FA
  8
PROF
 10
3.683498855859908
 20
12.520247681380051
 30
0.0000000000000001
 70
     8
  0
VERTEX
  5
C0FB
  8
PROF
 10
3.665148241197528
 20
12.49880850479428
 30
0.0000000000000001
 70
     8
  0
VERTEX
  5
C0FC
  8
PROF
 10
3.648019949779949
 20
12.47698665946279
 30
0.0000000000000001
 70
     8
  0
VERTEX
  5
C0FD
  8
PROF
 10
3.6320593447313159
 20
12.45480749590263
 30
0.0000000000000001
 70
     8
  0
VERTEX
  5
C0FE
  8
PROF
 10
3.617189584886658
 20
12.43223790353807
 30
0.0000000000000001
 70
     8
  0
VERTEX
  5
C0FF
  8
PROF
 10
3.6032450119242849
 20
12.40901092742285
 30
0.0000000000000001
 70
     8
  0
VERTEX
  5
C100
  8
PROF
 10
3.590037763233453
 20
12.38480115151844
 30
0.0000000000000001
 70
     8
  0
VERTEX
  5
C101
  8
PROF
 10
3.5773799762033032
 20
12.35928315978594
 30
0.0000000000000001
 70
     8
  0
VERTEX
  5
C102
  8
PROF
 10
3.5650837882230899
 20
12.33213153618658
 30
0.0000000000000001
 70
     8
  0
VERTEX
  5
C103
  8
PROF
 10
3.552961336681959
 20
12.303020864681571
 30
0.0000000000000001
 70
     8
  0
VERTEX
  5
C104
  8
PROF
 10
3.540824758969165
 20
12.271625729232371
 30
0.0000000000000001
 70
     8
  0
VERTEX
  5
C105
  8
PROF
 10
3.528486192473848
 20
12.23762071379997
 30
0.0000000000000001
 70
     8
  0
VERTEX
  5
C106
  8
PROF
 10
3.5157577745852659
 20
12.200680402345711
 30
0.0000000000000001
 70
     8
  0
VERTEX
  5
C107
  8
PROF
 10
3.502451642692618
 20
12.16047937883093
 30
0.0000000000000001
 70
     8
  0
VERTEX
  5
C108
  8
PROF
 10
3.4883799341851041
 20
12.116692227216619
 30
0.0000000000000001
 70
     8
  0
VERTEX
  5
C109
  8
PROF
 10
3.4733547864519201
 20
12.06899353146423
 30
0.0000000000000001
 70
     8
  0
VERTEX
  5
C10A
  8
PROF
 10
3.45723654619428
 20
12.0172095445447
 30
0.0000000000000001
 70
     8
  0
VERTEX
  5
C10B
  8
PROF
 10
3.440078397361388
 20
11.961773195467799
 30
0.0000000000000001
 70
     8
  0
VERTEX
  5
C10C
  8
PROF
 10
3.4219817332145781
 20
11.90326908225302
 30
0.0000000000000001
 70
     8
  0
VERTEX
  5
C10D
  8
PROF
 10
3.4030479470150099
 20
11.842281802919951
 30
0.0000000000000001
 70
     8
  0
VERTEX
  5
C10E
  8
PROF
 10
3.383378432024017
 20
11.779395955487979
 30
0.0000000000000001
 70
     8
  0
VERTEX
  5
C10F
  8
PROF
 10
3.36307458150287
 20
11.7151961379768
 30
0.0000000000000001
 70
     8
  0
VERTEX
  5
C110
  8
PROF
 10
3.342237788712735
 20
11.650266948405831
 30
0.0000000000000001
 70
     8
  0
VERTEX
  5
C111
  8
PROF
 10
3.3209694469149991
 20
11.58519298479461
 30
0.0000000000000001
 70
     8
  0
VERTEX
  5
C112
  8
PROF
 10
3.299370949370767
 20
11.52055884516254
 30
0.0000000000000001
 70
     8
  0
VERTEX
  5
C113
  8
PROF
 10
3.277543689341428
 20
11.456949127529461
 30
0.0000000000000001
 70
     8
  0
VERTEX
  5
C114
  8
PROF
 10
3.2555890600881399
 20
11.3949484299145
 30
0.0000000000000001
 70
     8
  0
VERTEX
  5
C115
  8
PROF
 10
3.2336084548721811
 20
11.335141350337491
 30
0.0000000000000001
 70
     8
  0
VERTEX
  5
C116
  8
PROF
 10
3.2116715641212181
 20
11.277995447977769
 30
0.0000000000000001
 70
     8
  0
VERTEX
  5
C117
  8
PROF
 10
3.1897212669278461
 20
11.22351012665467
 30
0.0000000000000001
 70
     8
  0
VERTEX
  5
C118
  8
PROF
 10
3.1676687395512881
 20
11.17156775134765
 30
0.0000000000000001
 70
     8
  0
VERTEX
  5
C119
  8
PROF
 10
3.1454251582505321
 20
11.12205068703588
 30
0.0000000000000001
 70
     8
  0
VERTEX
  5
C11A
  8
PROF
 10
3.122901699284625
 20
11.07484129869874
 30
0.0000000000000001
 70
     8
  0
VERTEX
  5
C11B
  8
PROF
 10
3.1000095389127278
 20
11.02982195131551
 30
0.0000000000000001
 70
     8
  0
VERTEX
  5
C11C
  8
PROF
 10
3.07665985339389
 20
10.986875009865679
 30
0.0000000000000001
 70
     8
  0
VERTEX
  5
C11D
  8
PROF
 10
3.0527638189871591
 20
10.9458828393283
 30
0.0000000000000001
 70
     8
  0
VERTEX
  5
C11E
  8
PROF
 10
3.0282326119516361
 20
10.90672780468298
 30
0.0000000000000001
 70
     8
  0
VERTEX
  5
C11F
  8
PROF
 10
3.0029774085463701
 20
10.869292270908771
 30
0.0000000000000001
 70
     8
  0
VERTEX
  5
C120
  8
PROF
 10
2.9769093850304089
 20
10.833458602985161
 30
0.0000000000000001
 70
     8
  0
VERTEX
  5
C121
  8
PROF
 10
2.9499397176628559
 20
10.799109165891419
 30
0.0000000000000001
 70
     8
  0
VERTEX
  5
C122
  8
PROF
 10
2.922000609840437
 20
10.76614363969508
 30
0.0000000000000001
 70
     8
  0
VERTEX
  5
C123
  8
PROF
 10
2.8931083735102998
 20
10.7345309648158
 30
0.0000000000000001
 70
     8
  0
VERTEX
  5
C124
  8
PROF
 10
2.8633003477572729
 20
10.70425739676193
 30
0.0000000000000001
 70
     8
  0
VERTEX
  5
C125
  8
PROF
 10
2.8326138716660689
 20
10.67530919104115
 30
0.0000000000000001
 70
     8
  0
VERTEX
  5
C126
  8
PROF
 10
2.801086284321626
 20
10.647672603161711
 30
0.0000000000000001
 70
     8
  0
VERTEX
  5
C127
  8
PROF
 10
2.7687549248087162
 20
10.62133388863162
 30
0.0000000000000001
 70
     8
  0
VERTEX
  5
C128
  8
PROF
 10
2.7356571322120531
 20
10.5962793029588
 30
0.0000000000000001
 70
     8
  0
VERTEX
  5
C129
  8
PROF
 10
2.7018302456165202
 20
10.572495101651381
 30
0.0000000000000001
 70
     8
  0
VERTEX
  5
C12A
  8
PROF
 10
2.6673116041068838
 20
10.54996754021726
 30
0.0000000000000001
 70
     8
  0
VERTEX
  5
C12B
  8
PROF
 10
2.6321385467680321
 20
10.528682874164581
 30
0.0000000000000001
 70
     8
  0
VERTEX
  5
C12C
  8
PROF
 10
2.5963484126846179
 20
10.508627359001251
 30
0.0000000000000001
 70
     8
  0
VERTEX
  5
C12D
  8
PROF
 10
2.5599785409415841
 20
10.489787250235279
 30
0.0000000000000001
 70
     8
  0
VERTEX
  5
C12E
  8
PROF
 10
2.522998630314361
 20
10.472162234281081
 30
0.0000000000000001
 70
     8
  0
VERTEX
  5
C12F
  8
PROF
 10
2.4851078183409072
 20
10.455805721177621
 30
0.0000000000000001
 70
     8
  0
VERTEX
  5
C130
  8
PROF
 10
2.4459376022498982
 20
10.44078455187036
 30
0.0000000000000001
 70
     8
  0
VERTEX
  5
C131
  8
PROF
 10
2.4051194792701249
 20
10.42716556730465
 30
0.0000000000000001
 70
     8
  0
VERTEX
  5
C132
  8
PROF
 10
2.3622849466301541
 20
10.415015608425851
 30
0.0000000000000001
 70
     8
  0
VERTEX
  5
C133
  8
PROF
 10
2.317065501558714
 20
10.40440151617929
 30
0.0000000000000001
 70
     8
  0
VERTEX
  5
C134
  8
PROF
 10
2.2690926412844301
 20
10.395390131510339
 30
0.0000000000000001
 70
     8
  0
VERTEX
  5
C135
  8
PROF
 10
2.2179978630360879
 20
10.388048295364451
 30
0.0000000000000001
 70
     8
  0
VERTEX
  5
C136
  8
PROF
 10
2.1634126640422551
 20
10.38244284868688
 30
0.0000000000000001
 70
     8
  0
VERTEX
  5
C137
  8
PROF
 10
2.1049685415316031
 20
10.37864063242295
 30
0.0000000000000001
 70
     8
  0
VERTEX
  5
C138
  8
PROF
 10
2.0422969927328709
 20
10.37670848751816
 30
0.0000000000000001
 70
     8
  0
VERTEX
  5
C139
  8
PROF
 10
1.9750295148747341
 20
10.37671325491794
 30
0.0000000000000001
 70
     8
  0
VERTEX
  5
C13A
  8
PROF
 10
4.2166060115107484
 20
12.80885334975255
 30
0.0000000000000001
 70
    16
  0
VERTEX
  5
C13B
  8
PROF
 10
3.8702254102732909
 20
12.707065515763929
 30
0.0000000000000001
 70
    16
  0
VERTEX
  5
C13C
  8
PROF
 10
3.605346156896871
 20
12.46277472098552
 30
0.0000000000000001
 70
    16
  0
VERTEX
  5
C13D
  8
PROF
 10
3.500746030527238
 20
12.170680575709749
 30
0.0000000000000001
 70
    16
  0
VERTEX
  5
C13E
  8
PROF
 10
3.231798439705698
 20
11.26846416496107
 30
0.0000000000000001
 70
    16
  0
VERTEX
  5
C13F
  8
PROF
 10
2.9737109398832882
 20
10.76631086647069
 30
0.0000000000000001
 70
    16
  0
VERTEX
  5
C140
  8
PROF
 10
2.5729961067384002
 20
10.460947364504699
 30
0.0000000000000001
 70
    16
  0
VERTEX
  5
C141
  8
PROF
 10
2.2537826214546031
 20
10.372731239449759
 30
0.0000000000000001
 70
    16
  0
VERTEX
  5
C142
  8
PROF
 10
1.9750295148747341
 20
10.37671325491794
 30
0.0000000000000001
 70
    16
  0
SEQEND
  5
C143
  8
PROF
  0
LINE
  5
C144
  8
PROF
 10
4.9012016798694162
 20
12.88585218805485
 30
0.0000000000000003
 11
4.519857503186925
 21
12.88585218805485
 31
0.0000000000000003
  0
LINE
  5
C145
  8
PROF
 10
0.7321315362267457
 20
8.2026312473991556
 30
0.0000000000000006
 11
0.7321315362267457
 21
8.0511853963434952
 31
0.0000000000000006
  0
ARC
  5
C146
  8
PROF
 10
0.7977322214551919
 20
7.577333933202679
 30
0.0000000000000006
 40
0.4783708383912013
 50
97.882010168942557
 51
186.31119505698641
  0
LINE
  5
C147
  8
FRAME_050
 10
7.8016377197432121
 20
17.99371054969447
 30
0.0
 11
7.8016377197432121
 21
0.0000000000002274
 31
0.0
  0
ENDBLK
  5
C149
  8
0
  0
BLOCK
  8
0
  2
*U7
 70
     1
 10
0.0
 20
0.0
 30
0.0
  3
*U7
  1

  0
TEXT
  5
C8C3
  8
0
 10
3.5177832928899071
 20
10.38601584255777
 30
0.0
 40
0.125
  1
Crown Moulding
  0
TEXT
  5
C8C4
  8
0
 10
3.5223876585106431
 20
10.17717091304435
 30
0.0
 40
0.125
  1
TL-AB509
  0
TEXT
  5
C8C5
  8
0
 10
3.5074661032582561
 20
9.9667059289606801
 30
0.0
 40
0.125
  1
1-5/16" x 7-9/16"
  0
TEXT
  5
C8C6
  8
0
 10
3.519403347460166
 20
9.7562409448770051
 30
0.0
 40
0.125
  1
800.66.TAGUE
  0
ENDBLK
  5
C8C8
  8
0
  0
BLOCK
  8
0
  2
*U10
 70
     1
 10
0.0
 20
0.0
 30
0.0
  3
*U10
  1

  0
TEXT
  5
CC07
  8
0
 10
-386.47531175319239
 20
838.64848514756602
 30
0.0
 40
0.125
  1
Exterior Casing
  0
TEXT
  5
CC08
  8
0
 10
-386.47531175319239
 20
838.44015181423265
 30
0.0
 40
0.125
  1
TL-2175
  0
TEXT
  5
CC09
  8
0
 10
-386.47531175319239
 20
838.23181848089939
 30
0.0
 40
0.125
  1
1-9/32" x 1-29/32"
  0
TEXT
  5
CC0A
  8
0
 10
-386.47531175319239
 20
838.02348514756613
 30
0.0
 40
0.125
  1
800.66.TAGUE
  0
ENDBLK
  5
CC0C
  8
0
  0
ENDSEC
  0
SECTION
  2
ENTITIES
  0
INSERT
  5
CB9B
  8
0
  2
*U10
 10
0.0
 20
0.0
 30
0.0
  0
LINE
  5
CB9C
  8
0
 10
-388.97953647019642
 20
839.10749908555965
 30
0.0
 11
-388.97953647019642
 21
837.20275845879428
 31
0.0
  0
LINE
  5
CB9D
  8
0
 10
-388.97953647019642
 20
839.10749908555965
 30
0.0
 11
-387.70021439073508
 21
839.10749908555965
 31
0.0
  0
LINE
  5
CB9E
  8
0
 10
-388.72953647019642
 20
837.20275845879428
 30
0.0
 11
-388.97953647019642
 21
837.20275845879428
 31
0.0
  0
LINE
  5
CB9F
  8
0
 10
-387.70021439073508
 20
838.35749908555965
 30
0.0
 11
-387.70021439073508
 21
839.10749908555965
 31
0.0
  0
POLYLINE
  8
0
  5
CC0D
  66
     1
 10
0.000000
 20
0.000000
 30
0.000000
  70
     8
  0
VERTEX
  8
0
  5
CC0E
 10
-387.700
 20
838.357
 30
0.000000
  70
    32
  0
VERTEX
  8
0
  5
CC0F
 10
-387.704
 20
838.356
 30
0.000000
  70
    32
  0
VERTEX
  8
0
  5
CC10
 10
-387.708
 20
838.355
 30
0.000000
  70
    32
  0
VERTEX
  8
0
  5
CC11
 10
-387.712
 20
838.354
 30
0.000000
  70
    32
  0
VERTEX
  8
0
  5
CC12
 10
-387.716
 20
838.353
 30
0.000000
  70
    32
  0
VERTEX
  8
0
  5
CC13
 10
-387.720
 20
838.352
 30
0.000000
  70
    32
  0
VERTEX
  8
0
  5
CC14
 10
-387.724
 20
838.351
 30
0.000000
  70
    32
  0
VERTEX
  8
0
  5
CC15
 10
-387.728
 20
838.349
 30
0.000000
  70
    32
  0
VERTEX
  8
0
  5
CC16
 10
-387.732
 20
838.348
 30
0.000000
  70
    32
  0
VERTEX
  8
0
  5
CC17
 10
-387.736
 20
838.347
 30
0.000000
  70
    32
  0
VERTEX
  8
0
  5
CC18
 10
-387.740
 20
838.345
 30
0.000000
  70
    32
  0
VERTEX
  8
0
  5
CC19
 10
-387.744
 20
838.344
 30
0.000000
  70
    32
  0
VERTEX
  8
0
  5
CC1A
 10
-387.747
 20
838.342
 30
0.000000
  70
    32
  0
VERTEX
  8
0
  5
CC1B
 10
-387.751
 20
838.341
 30
0.000000
  70
    32
  0
VERTEX
  8
0
  5
CC1C
 10
-387.755
 20
838.339
 30
0.000000
  70
    32
  0
VERTEX
  8
0
  5
CC1D
 10
-387.759
 20
838.337
 30
0.000000
  70
    32
  0
VERTEX
  8
0
  5
CC1E
 10
-387.763
 20
838.336
 30
0.000000
  70
    32
  0
VERTEX
  8
0
  5
CC1F
 10
-387.767
 20
838.334
 30
0.000000
  70
    32
  0
VERTEX
  8
0
  5
CC20
 10
-387.770
 20
838.332
 30
0.000000
  70
    32
  0
VERTEX
  8
0
  5
CC21
 10
-387.774
 20
838.331
 30
0.000000
  70
    32
  0
VERTEX
  8
0
  5
CC22
 10
-387.778
 20
838.329
 30
0.000000
  70
    32
  0
VERTEX
  8
0
  5
CC23
 10
-387.782
 20
838.327
 30
0.000000
  70
    32
  0
VERTEX
  8
0
  5
CC24
 10
-387.785
 20
838.325
 30
0.000000
  70
    32
  0
VERTEX
  8
0
  5
CC25
 10
-387.789
 20
838.323
 30
0.000000
  70
    32
  0
VERTEX
  8
0
  5
CC26
 10
-387.793
 20
838.322
 30
0.000000
  70
    32
  0
VERTEX
  8
0
  5
CC27
 10
-387.797
 20
838.320
 30
0.000000
  70
    32
  0
VERTEX
  8
0
  5
CC28
 10
-387.800
 20
838.318
 30
0.000000
  70
    32
  0
VERTEX
  8
0
  5
CC29
 10
-387.804
 20
838.316
 30
0.000000
  70
    32
  0
VERTEX
  8
0
  5
CC2A
 10
-387.808
 20
838.314
 30
0.000000
  70
    32
  0
VERTEX
  8
0
  5
CC2B
 10
-387.811
 20
838.312
 30
0.000000
  70
    32
  0
VERTEX
  8
0
  5
CC2C
 10
-387.815
 20
838.310
 30
0.000000
  70
    32
  0
VERTEX
  8
0
  5
CC2D
 10
-387.819
 20
838.308
 30
0.000000
  70
    32
  0
VERTEX
  8
0
  5
CC2E
 10
-387.822
 20
838.306
 30
0.000000
  70
    32
  0
VERTEX
  8
0
  5
CC2F
 10
-387.826
 20
838.304
 30
0.000000
  70
    32
  0
VERTEX
  8
0
  5
CC30
 10
-387.830
 20
838.301
 30
0.000000
  70
    32
  0
VERTEX
  8
0
  5
CC31
 10
-387.833
 20
838.299
 30
0.000000
  70
    32
  0
VERTEX
  8
0
  5
CC32
 10
-387.837
 20
838.297
 30
0.000000
  70
    32
  0
VERTEX
  8
0
  5
CC33
 10
-387.840
 20
838.295
 30
0.000000
  70
    32
  0
VERTEX
  8
0
  5
CC34
 10
-387.844
 20
838.293
 30
0.000000
  70
    32
  0
VERTEX
  8
0
  5
CC35
 10
-387.848
 20
838.291
 30
0.000000
  70
    32
  0
VERTEX
  8
0
  5
CC36
 10
-387.851
 20
838.289
 30
0.000000
  70
    32
  0
VERTEX
  8
0
  5
CC37
 10
-387.855
 20
838.286
 30
0.000000
  70
    32
  0
VERTEX
  8
0
  5
CC38
 10
-387.858
 20
838.284
 30
0.000000
  70
    32
  0
VERTEX
  8
0
  5
CC39
 10
-387.862
 20
838.282
 30
0.000000
  70
    32
  0
VERTEX
  8
0
  5
CC3A
 10
-387.865
 20
838.280
 30
0.000000
  70
    32
  0
VERTEX
  8
0
  5
CC3B
 10
-387.869
 20
838.278
 30
0.000000
  70
    32
  0
VERTEX
  8
0
  5
CC3C
 10
-387.872
 20
838.275
 30
0.000000
  70
    32
  0
VERTEX
  8
0
  5
CC3D
 10
-387.876
 20
838.273
 30
0.000000
  70
    32
  0
VERTEX
  8
0
  5
CC3E
 10
-387.879
 20
838.271
 30
0.000000
  70
    32
  0
VERTEX
  8
0
  5
CC3F
 10
-387.883
 20
838.269
 30
0.000000
  70
    32
  0
VERTEX
  8
0
  5
CC40
 10
-387.886
 20
838.266
 30
0.000000
  70
    32
  0
VERTEX
  8
0
  5
CC41
 10
-387.890
 20
838.264
 30
0.000000
  70
    32
  0
VERTEX
  8
0
  5
CC42
 10
-387.893
 20
838.262
 30
0.000000
  70
    32
  0
VERTEX
  8
0
  5
CC43
 10
-387.897
 20
838.260
 30
0.000000
  70
    32
  0
VERTEX
  8
0
  5
CC44
 10
-387.900
 20
838.257
 30
0.000000
  70
    32
  0
VERTEX
  8
0
  5
CC45
 10
-387.904
 20
838.255
 30
0.000000
  70
    32
  0
VERTEX
  8
0
  5
CC46
 10
-387.907
 20
838.253
 30
0.000000
  70
    32
  0
VERTEX
  8
0
  5
CC47
 10
-387.911
 20
838.251
 30
0.000000
  70
    32
  0
VERTEX
  8
0
  5
CC48
 10
-387.914
 20
838.248
 30
0.000000
  70
    32
  0
VERTEX
  8
0
  5
CC49
 10
-387.918
 20
838.246
 30
0.000000
  70
    32
  0
VERTEX
  8
0
  5
CC4A
 10
-387.921
 20
838.244
 30
0.000000
  70
    32
  0
VERTEX
  8
0
  5
CC4B
 10
-387.924
 20
838.241
 30
0.000000
  70
    32
  0
VERTEX
  8
0
  5
CC4C
 10
-387.928
 20
838.239
 30
0.000000
  70
    32
  0
VERTEX
  8
0
  5
CC4D
 10
-387.931
 20
838.237
 30
0.000000
  70
    32
  0
VERTEX
  8
0
  5
CC4E
 10
-387.935
 20
838.235
 30
0.000000
  70
    32
  0
VERTEX
  8
0
  5
CC4F
 10
-387.938
 20
838.232
 30
0.000000
  70
    32
  0
VERTEX
  8
0
  5
CC50
 10
-387.942
 20
838.230
 30
0.000000
  70
    32
  0
VERTEX
  8
0
  5
CC51
 10
-387.945
 20
838.228
 30
0.000000
  70
    32
  0
VERTEX
  8
0
  5
CC52
 10
-387.949
 20
838.225
 30
0.000000
  70
    32
  0
VERTEX
  8
0
  5
CC53
 10
-387.952
 20
838.223
 30
0.000000
  70
    32
  0
VERTEX
  8
0
  5
CC54
 10
-387.956
 20
838.221
 30
0.000000
  70
    32
  0
VERTEX
  8
0
  5
CC55
 10
-387.959
 20
838.219
 30
0.000000
  70
    32
  0
VERTEX
  8
0
  5
CC56
 10
-387.962
 20
838.216
 30
0.000000
  70
    32
  0
VERTEX
  8
0
  5
CC57
 10
-387.966
 20
838.214
 30
0.000000
  70
    32
  0
VERTEX
  8
0
  5
CC58
 10
-387.969
 20
838.212
 30
0.000000
  70
    32
  0
VERTEX
  8
0
  5
CC59
 10
-387.973
 20
838.209
 30
0.000000
  70
    32
  0
VERTEX
  8
0
  5
CC5A
 10
-387.976
 20
838.207
 30
0.000000
  70
    32
  0
VERTEX
  8
0
  5
CC5B
 10
-387.980
 20
838.205
 30
0.000000
  70
    32
  0
VERTEX
  8
0
  5
CC5C
 10
-387.983
 20
838.202
 30
0.000000
  70
    32
  0
VERTEX
  8
0
  5
CC5D
 10
-387.987
 20
838.200
 30
0.000000
  70
    32
  0
VERTEX
  8
0
  5
CC5E
 10
-387.990
 20
838.198
 30
0.000000
  70
    32
  0
VERTEX
  8
0
  5
CC5F
 10
-387.994
 20
838.195
 30
0.000000
  70
    32
  0
VERTEX
  8
0
  5
CC60
 10
-387.997
 20
838.193
 30
0.000000
  70
    32
  0
VERTEX
  8
0
  5
CC61
 10
-388.001
 20
838.191
 30
0.000000
  70
    32
  0
VERTEX
  8
0
  5
CC62
 10
-388.004
 20
838.188
 30
0.000000
  70
    32
  0
VERTEX
  8
0
  5
CC63
 10
-388.007
 20
838.186
 30
0.000000
  70
    32
  0
VERTEX
  8
0
  5
CC64
 10
-388.011
 20
838.183
 30
0.000000
  70
    32
  0
VERTEX
  8
0
  5
CC65
 10
-388.014
 20
838.181
 30
0.000000
  70
    32
  0
VERTEX
  8
0
  5
CC66
 10
-388.018
 20
838.179
 30
0.000000
  70
    32
  0
VERTEX
  8
0
  5
CC67
 10
-388.021
 20
838.176
 30
0.000000
  70
    32
  0
VERTEX
  8
0
  5
CC68
 10
-388.024
 20
838.174
 30
0.000000
  70
    32
  0
VERTEX
  8
0
  5
CC69
 10
-388.028
 20
838.171
 30
0.000000
  70
    32
  0
VERTEX
  8
0
  5
CC6A
 10
-388.031
 20
838.169
 30
0.000000
  70
    32
  0
VERTEX
  8
0
  5
CC6B
 10
-388.034
 20
838.166
 30
0.000000
  70
    32
  0
VERTEX
  8
0
  5
CC6C
 10
-388.038
 20
838.164
 30
0.000000
  70
    32
  0
VERTEX
  8
0
  5
CC6D
 10
-388.041
 20
838.161
 30
0.000000
  70
    32
  0
VERTEX
  8
0
  5
CC6E
 10
-388.044
 20
838.158
 30
0.000000
  70
    32
  0
VERTEX
  8
0
  5
CC6F
 10
-388.047
 20
838.156
 30
0.000000
  70
    32
  0
VERTEX
  8
0
  5
CC70
 10
-388.051
 20
838.153
 30
0.000000
  70
    32
  0
VERTEX
  8
0
  5
CC71
 10
-388.054
 20
838.151
 30
0.000000
  70
    32
  0
VERTEX
  8
0
  5
CC72
 10
-388.057
 20
838.148
 30
0.000000
  70
    32
  0
VERTEX
  8
0
  5
CC73
 10
-388.060
 20
838.145
 30
0.000000
  70
    32
  0
VERTEX
  8
0
  5
CC74
 10
-388.063
 20
838.143
 30
0.000000
  70
    32
  0
VERTEX
  8
0
  5
CC75
 10
-388.066
 20
838.140
 30
0.000000
  70
    32
  0
VERTEX
  8
0
  5
CC76
 10
-388.069
 20
838.137
 30
0.000000
  70
    32
  0
VERTEX
  8
0
  5
CC77
 10
-388.072
 20
838.134
 30
0.000000
  70
    32
  0
VERTEX
  8
0
  5
CC78
 10
-388.075
 20
838.131
 30
0.000000
  70
    32
  0
VERTEX
  8
0
  5
CC79
 10
-388.078
 20
838.129
 30
0.000000
  70
    32
  0
VERTEX
  8
0
  5
CC7A
 10
-388.081
 20
838.126
 30
0.000000
  70
    32
  0
VERTEX
  8
0
  5
CC7B
 10
-388.084
 20
838.123
 30
0.000000
  70
    32
  0
VERTEX
  8
0
  5
CC7C
 10
-388.087
 20
838.120
 30
0.000000
  70
    32
  0
VERTEX
  8
0
  5
CC7D
 10
-388.090
 20
838.117
 30
0.000000
  70
    32
  0
VERTEX
  8
0
  5
CC7E
 10
-388.093
 20
838.114
 30
0.000000
  70
    32
  0
VERTEX
  8
0
  5
CC7F
 10
-388.095
 20
838.111
 30
0.000000
  70
    32
  0
VERTEX
  8
0
  5
CC80
 10
-388.098
 20
838.108
 30
0.000000
  70
    32
  0
VERTEX
  8
0
  5
CC81
 10
-388.101
 20
838.105
 30
0.000000
  70
    32
  0
VERTEX
  8
0
  5
CC82
 10
-388.103
 20
838.101
 30
0.000000
  70
    32
  0
VERTEX
  8
0
  5
CC83
 10
-388.106
 20
838.098
 30
0.000000
  70
    32
  0
VERTEX
  8
0
  5
CC84
 10
-388.109
 20
838.095
 30
0.000000
  70
    32
  0
VERTEX
  8
0
  5
CC85
 10
-388.111
 20
838.092
 30
0.000000
  70
    32
  0
VERTEX
  8
0
  5
CC86
 10
-388.114
 20
838.089
 30
0.000000
  70
    32
  0
VERTEX
  8
0
  5
CC87
 10
-388.116
 20
838.085
 30
0.000000
  70
    32
  0
VERTEX
  8
0
  5
CC88
 10
-388.119
 20
838.082
 30
0.000000
  70
    32
  0
VERTEX
  8
0
  5
CC89
 10
-388.121
 20
838.079
 30
0.000000
  70
    32
  0
VERTEX
  8
0
  5
CC8A
 10
-388.124
 20
838.075
 30
0.000000
  70
    32
  0
VERTEX
  8
0
  5
CC8B
 10
-388.126
 20
838.072
 30
0.000000
  70
    32
  0
VERTEX
  8
0
  5
CC8C
 10
-388.129
 20
838.069
 30
0.000000
  70
    32
  0
VERTEX
  8
0
  5
CC8D
 10
-388.131
 20
838.065
 30
0.000000
  70
    32
  0
VERTEX
  8
0
  5
CC8E
 10
-388.133
 20
838.062
 30
0.000000
  70
    32
  0
VERTEX
  8
0
  5
CC8F
 10
-388.136
 20
838.059
 30
0.000000
  70
    32
  0
VERTEX
  8
0
  5
CC90
 10
-388.138
 20
838.055
 30
0.000000
  70
    32
  0
VERTEX
  8
0
  5
CC91
 10
-388.140
 20
838.052
 30
0.000000
  70
    32
  0
VERTEX
  8
0
  5
CC92
 10
-388.143
 20
838.048
 30
0.000000
  70
    32
  0
VERTEX
  8
0
  5
CC93
 10
-388.145
 20
838.045
 30
0.000000
  70
    32
  0
VERTEX
  8
0
  5
CC94
 10
-388.147
 20
838.041
 30
0.000000
  70
    32
  0
VERTEX
  8
0
  5
CC95
 10
-388.150
 20
838.038
 30
0.000000
  70
    32
  0
VERTEX
  8
0
  5
CC96
 10
-388.152
 20
838.034
 30
0.000000
  70
    32
  0
VERTEX
  8
0
  5
CC97
 10
-388.154
 20
838.031
 30
0.000000
  70
    32
  0
VERTEX
  8
0
  5
CC98
 10
-388.157
 20
838.027
 30
0.000000
  70
    32
  0
VERTEX
  8
0
  5
CC99
 10
-388.159
 20
838.024
 30
0.000000
  70
    32
  0
VERTEX
  8
0
  5
CC9A
 10
-388.161
 20
838.020
 30
0.000000
  70
    32
  0
VERTEX
  8
0
  5
CC9B
 10
-388.163
 20
838.017
 30
0.000000
  70
    32
  0
VERTEX
  8
0
  5
CC9C
 10
-388.166
 20
838.013
 30
0.000000
  70
    32
  0
VERTEX
  8
0
  5
CC9D
 10
-388.168
 20
838.010
 30
0.000000
  70
    32
  0
VERTEX
  8
0
  5
CC9E
 10
-388.170
 20
838.006
 30
0.000000
  70
    32
  0
VERTEX
  8
0
  5
CC9F
 10
-388.172
 20
838.003
 30
0.000000
  70
    32
  0
VERTEX
  8
0
  5
CCA0
 10
-388.175
 20
837.999
 30
0.000000
  70
    32
  0
VERTEX
  8
0
  5
CCA1
 10
-388.177
 20
837.996
 30
0.000000
  70
    32
  0
VERTEX
  8
0
  5
CCA2
 10
-388.179
 20
837.992
 30
0.000000
  70
    32
  0
VERTEX
  8
0
  5
CCA3
 10
-388.181
 20
837.988
 30
0.000000
  70
    32
  0
VERTEX
  8
0
  5
CCA4
 10
-388.183
 20
837.985
 30
0.000000
  70
    32
  0
VERTEX
  8
0
  5
CCA5
 10
-388.186
 20
837.981
 30
0.000000
  70
    32
  0
VERTEX
  8
0
  5
CCA6
 10
-388.188
 20
837.978
 30
0.000000
  70
    32
  0
VERTEX
  8
0
  5
CCA7
 10
-388.190
 20
837.974
 30
0.000000
  70
    32
  0
VERTEX
  8
0
  5
CCA8
 10
-388.192
 20
837.971
 30
0.000000
  70
    32
  0
VERTEX
  8
0
  5
CCA9
 10
-388.195
 20
837.967
 30
0.000000
  70
    32
  0
VERTEX
  8
0
  5
CCAA
 10
-388.197
 20
837.964
 30
0.000000
  70
    32
  0
VERTEX
  8
0
  5
CCAB
 10
-388.199
 20
837.960
 30
0.000000
  70
    32
  0
VERTEX
  8
0
  5
CCAC
 10
-388.202
 20
837.957
 30
0.000000
  70
    32
  0
VERTEX
  8
0
  5
CCAD
 10
-388.204
 20
837.953
 30
0.000000
  70
    32
  0
VERTEX
  8
0
  5
CCAE
 10
-388.206
 20
837.950
 30
0.000000
  70
    32
  0
VERTEX
  8
0
  5
CCAF
 10
-388.208
 20
837.946
 30
0.000000
  70
    32
  0
VERTEX
  8
0
  5
CCB0
 10
-388.211
 20
837.943
 30
0.000000
  70
    32
  0
VERTEX
  8
0
  5
CCB1
 10
-388.213
 20
837.939
 30
0.000000
  70
    32
  0
VERTEX
  8
0
  5
CCB2
 10
-388.215
 20
837.936
 30
0.000000
  70
    32
  0
VERTEX
  8
0
  5
CCB3
 10
-388.218
 20
837.932
 30
0.000000
  70
    32
  0
VERTEX
  8
0
  5
CCB4
 10
-388.220
 20
837.929
 30
0.000000
  70
    32
  0
VERTEX
  8
0
  5
CCB5
 10
-388.222
 20
837.925
 30
0.000000
  70
    32
  0
VERTEX
  8
0
  5
CCB6
 10
-388.225
 20
837.922
 30
0.000000
  70
    32
  0
VERTEX
  8
0
  5
CCB7
 10
-388.227
 20
837.918
 30
0.000000
  70
    32
  0
VERTEX
  8
0
  5
CCB8
 10
-388.230
 20
837.915
 30
0.000000
  70
    32
  0
VERTEX
  8
0
  5
CCB9
 10
-388.232
 20
837.912
 30
0.000000
  70
    32
  0
VERTEX
  8
0
  5
CCBA
 10
-388.234
 20
837.908
 30
0.000000
  70
    32
  0
VERTEX
  8
0
  5
CCBB
 10
-388.237
 20
837.905
 30
0.000000
  70
    32
  0
VERTEX
  8
0
  5
CCBC
 10
-388.239
 20
837.901
 30
0.000000
  70
    32
  0
VERTEX
  8
0
  5
CCBD
 10
-388.242
 20
837.898
 30
0.000000
  70
    32
  0
VERTEX
  8
0
  5
CCBE
 10
-388.244
 20
837.895
 30
0.000000
  70
    32
  0
VERTEX
  8
0
  5
CCBF
 10
-388.247
 20
837.891
 30
0.000000
  70
    32
  0
VERTEX
  8
0
  5
CCC0
 10
-388.249
 20
837.888
 30
0.000000
  70
    32
  0
VERTEX
  8
0
  5
CCC1
 10
-388.252
 20
837.885
 30
0.000000
  70
    32
  0
VERTEX
  8
0
  5
CCC2
 10
-388.254
 20
837.881
 30
0.000000
  70
    32
  0
VERTEX
  8
0
  5
CCC3
 10
-388.257
 20
837.878
 30
0.000000
  70
    32
  0
VERTEX
  8
0
  5
CCC4
 10
-388.259
 20
837.875
 30
0.000000
  70
    32
  0
VERTEX
  8
0
  5
CCC5
 10
-388.262
 20
837.871
 30
0.000000
  70
    32
  0
VERTEX
  8
0
  5
CCC6
 10
-388.264
 20
837.868
 30
0.000000
  70
    32
  0
VERTEX
  8
0
  5
CCC7
 10
-388.267
 20
837.865
 30
0.000000
  70
    32
  0
VERTEX
  8
0
  5
CCC8
 10
-388.269
 20
837.861
 30
0.000000
  70
    32
  0
VERTEX
  8
0
  5
CCC9
 10
-388.272
 20
837.858
 30
0.000000
  70
    32
  0
VERTEX
  8
0
  5
CCCA
 10
-388.274
 20
837.855
 30
0.000000
  70
    32
  0
VERTEX
  8
0
  5
CCCB
 10
-388.277
 20
837.852
 30
0.000000
  70
    32
  0
VERTEX
  8
0
  5
CCCC
 10
-388.280
 20
837.848
 30
0.000000
  70
    32
  0
VERTEX
  8
0
  5
CCCD
 10
-388.282
 20
837.845
 30
0.000000
  70
    32
  0
VERTEX
  8
0
  5
CCCE
 10
-388.285
 20
837.842
 30
0.000000
  70
    32
  0
VERTEX
  8
0
  5
CCCF
 10
-388.287
 20
837.839
 30
0.000000
  70
    32
  0
VERTEX
  8
0
  5
CCD0
 10
-388.290
 20
837.836
 30
0.000000
  70
    32
  0
VERTEX
  8
0
  5
CCD1
 10
-388.293
 20
837.833
 30
0.000000
  70
    32
  0
VERTEX
  8
0
  5
CCD2
 10
-388.296
 20
837.829
 30
0.000000
  70
    32
  0
VERTEX
  8
0
  5
CCD3
 10
-388.298
 20
837.826
 30
0.000000
  70
    32
  0
VERTEX
  8
0
  5
CCD4
 10
-388.301
 20
837.823
 30
0.000000
  70
    32
  0
VERTEX
  8
0
  5
CCD5
 10
-388.304
 20
837.820
 30
0.000000
  70
    32
  0
VERTEX
  8
0
  5
CCD6
 10
-388.306
 20
837.817
 30
0.000000
  70
    32
  0
VERTEX
  8
0
  5
CCD7
 10
-388.309
 20
837.814
 30
0.000000
  70
    32
  0
VERTEX
  8
0
  5
CCD8
 10
-388.312
 20
837.811
 30
0.000000
  70
    32
  0
VERTEX
  8
0
  5
CCD9
 10
-388.315
 20
837.808
 30
0.000000
  70
    32
  0
VERTEX
  8
0
  5
CCDA
 10
-388.318
 20
837.805
 30
0.000000
  70
    32
  0
VERTEX
  8
0
  5
CCDB
 10
-388.320
 20
837.802
 30
0.000000
  70
    32
  0
VERTEX
  8
0
  5
CCDC
 10
-388.323
 20
837.799
 30
0.000000
  70
    32
  0
VERTEX
  8
0
  5
CCDD
 10
-388.326
 20
837.796
 30
0.000000
  70
    32
  0
VERTEX
  8
0
  5
CCDE
 10
-388.329
 20
837.793
 30
0.000000
  70
    32
  0
VERTEX
  8
0
  5
CCDF
 10
-388.332
 20
837.790
 30
0.000000
  70
    32
  0
VERTEX
  8
0
  5
CCE0
 10
-388.335
 20
837.787
 30
0.000000
  70
    32
  0
VERTEX
  8
0
  5
CCE1
 10
-388.338
 20
837.784
 30
0.000000
  70
    32
  0
VERTEX
  8
0
  5
CCE2
 10
-388.341
 20
837.781
 30
0.000000
  70
    32
  0
VERTEX
  8
0
  5
CCE3
 10
-388.344
 20
837.778
 30
0.000000
  70
    32
  0
VERTEX
  8
0
  5
CCE4
 10
-388.347
 20
837.776
 30
0.000000
  70
    32
  0
VERTEX
  8
0
  5
CCE5
 10
-388.350
 20
837.773
 30
0.000000
  70
    32
  0
VERTEX
  8
0
  5
CCE6
 10
-388.353
 20
837.770
 30
0.000000
  70
    32
  0
VERTEX
  8
0
  5
CCE7
 10
-388.356
 20
837.767
 30
0.000000
  70
    32
  0
VERTEX
  8
0
  5
CCE8
 10
-388.359
 20
837.764
 30
0.000000
  70
    32
  0
VERTEX
  8
0
  5
CCE9
 10
-388.362
 20
837.762
 30
0.000000
  70
    32
  0
VERTEX
  8
0
  5
CCEA
 10
-388.365
 20
837.759
 30
0.000000
  70
    32
  0
VERTEX
  8
0
  5
CCEB
 10
-388.368
 20
837.756
 30
0.000000
  70
    32
  0
VERTEX
  8
0
  5
CCEC
 10
-388.371
 20
837.753
 30
0.000000
  70
    32
  0
VERTEX
  8
0
  5
CCED
 10
-388.374
 20
837.751
 30
0.000000
  70
    32
  0
VERTEX
  8
0
  5
CCEE
 10
-388.377
 20
837.748
 30
0.000000
  70
    32
  0
VERTEX
  8
0
  5
CCEF
 10
-388.381
 20
837.745
 30
0.000000
  70
    32
  0
VERTEX
  8
0
  5
CCF0
 10
-388.384
 20
837.743
 30
0.000000
  70
    32
  0
VERTEX
  8
0
  5
CCF1
 10
-388.387
 20
837.740
 30
0.000000
  70
    32
  0
VERTEX
  8
0
  5
CCF2
 10
-388.390
 20
837.737
 30
0.000000
  70
    32
  0
VERTEX
  8
0
  5
CCF3
 10
-388.393
 20
837.735
 30
0.000000
  70
    32
  0
VERTEX
  8
0
  5
CCF4
 10
-388.397
 20
837.732
 30
0.000000
  70
    32
  0
VERTEX
  8
0
  5
CCF5
 10
-388.400
 20
837.730
 30
0.000000
  70
    32
  0
VERTEX
  8
0
  5
CCF6
 10
-388.403
 20
837.727
 30
0.000000
  70
    32
  0
VERTEX
  8
0
  5
CCF7
 10
-388.406
 20
837.725
 30
0.000000
  70
    32
  0
VERTEX
  8
0
  5
CCF8
 10
-388.410
 20
837.722
 30
0.000000
  70
    32
  0
VERTEX
  8
0
  5
CCF9
 10
-388.413
 20
837.720
 30
0.000000
  70
    32
  0
VERTEX
  8
0
  5
CCFA
 10
-388.416
 20
837.717
 30
0.000000
  70
    32
  0
VERTEX
  8
0
  5
CCFB
 10
-388.420
 20
837.715
 30
0.000000
  70
    32
  0
VERTEX
  8
0
  5
CCFC
 10
-388.423
 20
837.712
 30
0.000000
  70
    32
  0
VERTEX
  8
0
  5
CCFD
 10
-388.426
 20
837.710
 30
0.000000
  70
    32
  0
VERTEX
  8
0
  5
CCFE
 10
-388.430
 20
837.707
 30
0.000000
  70
    32
  0
VERTEX
  8
0
  5
CCFF
 10
-388.433
 20
837.705
 30
0.000000
  70
    32
  0
VERTEX
  8
0
  5
CD00
 10
-388.437
 20
837.703
 30
0.000000
  70
    32
  0
VERTEX
  8
0
  5
CD01
 10
-388.440
 20
837.700
 30
0.000000
  70
    32
  0
VERTEX
  8
0
  5
CD02
 10
-388.443
 20
837.698
 30
0.000000
  70
    32
  0
VERTEX
  8
0
  5
CD03
 10
-388.447
 20
837.696
 30
0.000000
  70
    32
  0
VERTEX
  8
0
  5
CD04
 10
-388.450
 20
837.693
 30
0.000000
  70
    32
  0
VERTEX
  8
0
  5
CD05
 10
-388.454
 20
837.691
 30
0.000000
  70
    32
  0
VERTEX
  8
0
  5
CD06
 10
-388.457
 20
837.689
 30
0.000000
  70
    32
  0
VERTEX
  8
0
  5
CD07
 10
-388.461
 20
837.686
 30
0.000000
  70
    32
  0
VERTEX
  8
0
  5
CD08
 10
-388.464
 20
837.684
 30
0.000000
  70
    32
  0
VERTEX
  8
0
  5
CD09
 10
-388.468
 20
837.682
 30
0.000000
  70
    32
  0
VERTEX
  8
0
  5
CD0A
 10
-388.471
 20
837.680
 30
0.000000
  70
    32
  0
VERTEX
  8
0
  5
CD0B
 10
-388.475
 20
837.678
 30
0.000000
  70
    32
  0
VERTEX
  8
0
  5
CD0C
 10
-388.478
 20
837.675
 30
0.000000
  70
    32
  0
VERTEX
  8
0
  5
CD0D
 10
-388.482
 20
837.673
 30
0.000000
  70
    32
  0
VERTEX
  8
0
  5
CD0E
 10
-388.486
 20
837.671
 30
0.000000
  70
    32
  0
VERTEX
  8
0
  5
CD0F
 10
-388.489
 20
837.669
 30
0.000000
  70
    32
  0
VERTEX
  8
0
  5
CD10
 10
-388.493
 20
837.667
 30
0.000000
  70
    32
  0
VERTEX
  8
0
  5
CD11
 10
-388.496
 20
837.665
 30
0.000000
  70
    32
  0
VERTEX
  8
0
  5
CD12
 10
-388.500
 20
837.663
 30
0.000000
  70
    32
  0
VERTEX
  8
0
  5
CD13
 10
-388.504
 20
837.660
 30
0.000000
  70
    32
  0
VERTEX
  8
0
  5
CD14
 10
-388.507
 20
837.658
 30
0.000000
  70
    32
  0
VERTEX
  8
0
  5
CD15
 10
-388.511
 20
837.656
 30
0.000000
  70
    32
  0
VERTEX
  8
0
  5
CD16
 10
-388.515
 20
837.654
 30
0.000000
  70
    32
  0
VERTEX
  8
0
  5
CD17
 10
-388.518
 20
837.652
 30
0.000000
  70
    32
  0
VERTEX
  8
0
  5
CD18
 10
-388.522
 20
837.650
 30
0.000000
  70
    32
  0
VERTEX
  8
0
  5
CD19
 10
-388.526
 20
837.648
 30
0.000000
  70
    32
  0
VERTEX
  8
0
  5
CD1A
 10
-388.529
 20
837.646
 30
0.000000
  70
    32
  0
VERTEX
  8
0
  5
CD1B
 10
-388.533
 20
837.644
 30
0.000000
  70
    32
  0
VERTEX
  8
0
  5
CD1C
 10
-388.537
 20
837.642
 30
0.000000
  70
    32
  0
VERTEX
  8
0
  5
CD1D
 10
-388.541
 20
837.640
 30
0.000000
  70
    32
  0
VERTEX
  8
0
  5
CD1E
 10
-388.544
 20
837.639
 30
0.000000
  70
    32
  0
VERTEX
  8
0
  5
CD1F
 10
-388.548
 20
837.637
 30
0.000000
  70
    32
  0
VERTEX
  8
0
  5
CD20
 10
-388.552
 20
837.635
 30
0.000000
  70
    32
  0
VERTEX
  8
0
  5
CD21
 10
-388.556
 20
837.633
 30
0.000000
  70
    32
  0
VERTEX
  8
0
  5
CD22
 10
-388.559
 20
837.631
 30
0.000000
  70
    32
  0
VERTEX
  8
0
  5
CD23
 10
-388.563
 20
837.629
 30
0.000000
  70
    32
  0
VERTEX
  8
0
  5
CD24
 10
-388.567
 20
837.627
 30
0.000000
  70
    32
  0
VERTEX
  8
0
  5
CD25
 10
-388.571
 20
837.625
 30
0.000000
  70
    32
  0
VERTEX
  8
0
  5
CD26
 10
-388.575
 20
837.624
 30
0.000000
  70
    32
  0
VERTEX
  8
0
  5
CD27
 10
-388.578
 20
837.622
 30
0.000000
  70
    32
  0
VERTEX
  8
0
  5
CD28
 10
-388.582
 20
837.620
 30
0.000000
  70
    32
  0
VERTEX
  8
0
  5
CD29
 10
-388.586
 20
837.618
 30
0.000000
  70
    32
  0
VERTEX
  8
0
  5
CD2A
 10
-388.590
 20
837.617
 30
0.000000
  70
    32
  0
VERTEX
  8
0
  5
CD2B
 10
-388.594
 20
837.615
 30
0.000000
  70
    32
  0
VERTEX
  8
0
  5
CD2C
 10
-388.598
 20
837.613
 30
0.000000
  70
    32
  0
VERTEX
  8
0
  5
CD2D
 10
-388.601
 20
837.612
 30
0.000000
  70
    32
  0
VERTEX
  8
0
  5
CD2E
 10
-388.605
 20
837.610
 30
0.000000
  70
    32
  0
VERTEX
  8
0
  5
CD2F
 10
-388.609
 20
837.609
 30
0.000000
  70
    32
  0
VERTEX
  8
0
  5
CD30
 10
-388.613
 20
837.607
 30
0.000000
  70
    32
  0
VERTEX
  8
0
  5
CD31
 10
-388.617
 20
837.606
 30
0.000000
  70
    32
  0
VERTEX
  8
0
  5
CD32
 10
-388.621
 20
837.604
 30
0.000000
  70
    32
  0
VERTEX
  8
0
  5
CD33
 10
-388.625
 20
837.603
 30
0.000000
  70
    32
  0
VERTEX
  8
0
  5
CD34
 10
-388.629
 20
837.601
 30
0.000000
  70
    32
  0
VERTEX
  8
0
  5
CD35
 10
-388.633
 20
837.600
 30
0.000000
  70
    32
  0
VERTEX
  8
0
  5
CD36
 10
-388.637
 20
837.598
 30
0.000000
  70
    32
  0
VERTEX
  8
0
  5
CD37
 10
-388.641
 20
837.597
 30
0.000000
  70
    32
  0
VERTEX
  8
0
  5
CD38
 10
-388.645
 20
837.596
 30
0.000000
  70
    32
  0
VERTEX
  8
0
  5
CD39
 10
-388.649
 20
837.594
 30
0.000000
  70
    32
  0
VERTEX
  8
0
  5
CD3A
 10
-388.652
 20
837.593
 30
0.000000
  70
    32
  0
VERTEX
  8
0
  5
CD3B
 10
-388.656
 20
837.592
 30
0.000000
  70
    32
  0
VERTEX
  8
0
  5
CD3C
 10
-388.660
 20
837.591
 30
0.000000
  70
    32
  0
VERTEX
  8
0
  5
CD3D
 10
-388.664
 20
837.590
 30
0.000000
  70
    32
  0
VERTEX
  8
0
  5
CD3E
 10
-388.668
 20
837.589
 30
0.000000
  70
    32
  0
VERTEX
  8
0
  5
CD3F
 10
-388.672
 20
837.588
 30
0.000000
  70
    32
  0
VERTEX
  8
0
  5
CD40
 10
-388.677
 20
837.587
 30
0.000000
  70
    32
  0
VERTEX
  8
0
  5
CD41
 10
-388.681
 20
837.586
 30
0.000000
  70
    32
  0
VERTEX
  8
0
  5
CD42
 10
-388.685
 20
837.585
 30
0.000000
  70
    32
  0
VERTEX
  8
0
  5
CD43
 10
-388.689
 20
837.584
 30
0.000000
  70
    32
  0
VERTEX
  8
0
  5
CD44
 10
-388.693
 20
837.583
 30
0.000000
  70
    32
  0
VERTEX
  8
0
  5
CD45
 10
-388.697
 20
837.582
 30
0.000000
  70
    32
  0
VERTEX
  8
0
  5
CD46
 10
-388.701
 20
837.582
 30
0.000000
  70
    32
  0
VERTEX
  8
0
  5
CD47
 10
-388.705
 20
837.581
 30
0.000000
  70
    32
  0
VERTEX
  8
0
  5
CD48
 10
-388.709
 20
837.580
 30
0.000000
  70
    32
  0
VERTEX
  8
0
  5
CD49
 10
-388.713
 20
837.580
 30
0.000000
  70
    32
  0
VERTEX
  8
0
  5
CD4A
 10
-388.717
 20
837.579
 30
0.000000
  70
    32
  0
VERTEX
  8
0
  5
CD4B
 10
-388.721
 20
837.579
 30
0.000000
  70
    32
  0
VERTEX
  8
0
  5
CD4C
 10
-388.725
 20
837.578
 30
0.000000
  70
    32
  0
VERTEX
  8
0
  5
CD4D
 10
-388.730
 20
837.578
 30
0.000000
  70
    32
  0
SEQEND
  8
0
  5
CD4E
  0
LINE
  5
CBA1
  8
0
 10
-388.72953647019642
 20
837.20275845879428
 30
0.0
 11
-388.72953647019642
 21
837.57775845879428
 31
0.0
  0
VIEWPORT
  5
BADA
 67
     1
  8
0
 10
5.249999665167528
 20
5.3976156192433988
 30
0.0
 40
16.259362384438411
 41
10.777329619873861
 68
     2
 69
     1
1001
ACAD
1000
MVIEW
1002
{
1070
    16
1010
0.0
1020
0.0
1030
0.0
1010
0.0
1020
0.0
1030
1.0
1040
0.0
1040
10.777329619873861
1040
5.249999665167528
1040
5.3976156192433988
1040
50.0
1040
0.0
1040
0.0
1070
     0
1070
   100
1070
     1
1070
     1
1070
     0
1070
     0
1070
     0
1070
     0
1040
0.0
1040
0.0
1040
0.0
1040
0.5
1040
0.5
1040
0.5
1040
0.5
1070
     0
1002
{
1002
}
1002
}
  0
VIEWPORT
  5
BADD
 67
     1
  8
0
 10
5.249999629487192
 20
4.0166741807634683
 30
0.0
 40
10.44245679893058
 41
7.8813805131999892
 68
     1
 69
     2
1001
ACAD
1000
MVIEW
1002
{
1070
    16
1010
0.0
1020
0.0
1030
0.0
1010
0.0
1020
0.0
1030
1.0
1040
0.0
1040
7.8813805190370463
1040
-387.20985136692838
1040
838.2226040800208
1040
50.0
1040
0.0
1040
0.0
1070
     0
1070
   100
1070
     1
1070
     2
1070
     0
1070
     0
1070
     0
1070
     0
1040
0.0
1040
0.0
1040
0.0
1040
0.5
1040
0.5
1040
0.5
1040
0.5
1070
     0
1002
{
1002
}
1002
}
  0
ENDSEC
  0
EOF
