  0
SECTION
  2
HEADER
  9
$ACADVER
  1
AC1009
  9
$INSBASE
 10
0.0
 20
0.0
 30
0.0
  9
$EXTMIN
 10
-389.93991053657271
 20
834.65667183693085
 30
0.0
  9
$EXTMAX
 10
-383.9430257495203
 20
843.05086629103664
 30
0.0
  9
$LIMMIN
 10
0.0
 20
0.0
  9
$LIMMAX
 10
1500.0
 20
1500.0
  9
$ORTHOMODE
 70
     0
  9
$REGENMODE
 70
     1
  9
$FILLMODE
 70
     1
  9
$QTEXTMODE
 70
     0
  9
$MIRRTEXT
 70
     1
  9
$DRAGMODE
 70
     2
  9
$LTSCALE
 40
1.0
  9
$OSMODE
 70
    37
  9
$ATTMODE
 70
     1
  9
$TEXTSIZE
 40
1.5
  9
$TRACEWID
 40
0.05
  9
$TEXTSTYLE
  7
STANDARD
  9
$CLAYER
  8
0
  9
$CELTYPE
  6
BYLAYER
  9
$CECOLOR
 62
   256
  9
$DIMSCALE
 40
1.0
  9
$DIMASZ
 40
0.75
  9
$DIMEXO
 40
1.5
  9
$DIMDLI
 40
2.0
  9
$DIMRND
 40
0.0
  9
$DIMDLE
 40
0.0
  9
$DIMEXE
 40
1.0
  9
$DIMTP
 40
0.0
  9
$DIMTM
 40
0.0
  9
$DIMTXT
 40
1.5
  9
$DIMCEN
 40
2.0
  9
$DIMTSZ
 40
0.0
  9
$DIMTOL
 70
     0
  9
$DIMLIM
 70
     0
  9
$DIMTIH
 70
     0
  9
$DIMTOH
 70
     0
  9
$DIMSE1
 70
     0
  9
$DIMSE2
 70
     0
  9
$DIMTAD
 70
     1
  9
$DIMZIN
 70
     0
  9
$DIMBLK
  1
ARCHTICK
  9
$DIMASO
 70
     1
  9
$DIMSHO
 70
     1
  9
$DIMPOST
  1
"
  9
$DIMAPOST
  1

  9
$DIMALT
 70
     0
  9
$DIMALTD
 70
     2
  9
$DIMALTF
 40
25.399999999999999
  9
$DIMLFAC
 40
1.0
  9
$DIMTOFL
 70
     0
  9
$DIMTVP
 40
0.0
  9
$DIMTIX
 70
     1
  9
$DIMSOXD
 70
     0
  9
$DIMSAH
 70
     0
  9
$DIMBLK1
  1

  9
$DIMBLK2
  1

  9
$DIMSTYLE
  2
THREE_QUARTER_INCH_SCALE
  9
$DIMCLRD
 70
     0
  9
$DIMCLRE
 70
     0
  9
$DIMCLRT
 70
     0
  9
$DIMTFAC
 40
1.0
  9
$DIMGAP
 40
1.0
  9
$LUNITS
 70
     2
  9
$LUPREC
 70
     4
  9
$SKETCHINC
 40
0.1
  9
$FILLETRAD
 40
0.0
  9
$AUNITS
 70
     0
  9
$AUPREC
 70
     0
  9
$MENU
  1
.
  9
$ELEVATION
 40
0.0
  9
$PELEVATION
 40
0.0
  9
$THICKNESS
 40
0.0
  9
$LIMCHECK
 70
     0
  9
$BLIPMODE
 70
     0
  9
$CHAMFERA
 40
0.5
  9
$CHAMFERB
 40
0.5
  9
$SKPOLY
 70
     0
  9
$TDCREATE
 40
2452089.395738773
  9
$TDUPDATE
 40
2453612.344077141
  9
$TDINDWG
 40
1.0254458565
  9
$TDUSRTIMER
 40
1.0254454977
  9
$USRTIMER
 70
     1
  9
$ANGBASE
 50
0.0
  9
$ANGDIR
 70
     0
  9
$PDMODE
 70
     0
  9
$PDSIZE
 40
10.0
  9
$PLINEWID
 40
0.0
  9
$COORDS
 70
     1
  9
$SPLFRAME
 70
     0
  9
$SPLINETYPE
 70
     6
  9
$SPLINESEGS
 70
     8
  9
$ATTDIA
 70
     0
  9
$ATTREQ
 70
     1
  9
$HANDLING
 70
     1
  9
$HANDSEED
  5
FB52
  9
$SURFTAB1
 70
     6
  9
$SURFTAB2
 70
     6
  9
$SURFTYPE
 70
     6
  9
$SURFU
 70
     6
  9
$SURFV
 70
     6
  9
$UCSNAME
  2

  9
$UCSORG
 10
0.0
 20
0.0
 30
0.0
  9
$UCSXDIR
 10
1.0
 20
0.0
 30
0.0
  9
$UCSYDIR
 10
0.0
 20
1.0
 30
0.0
  9
$PUCSNAME
  2

  9
$PUCSORG
 10
0.0
 20
0.0
 30
0.0
  9
$PUCSXDIR
 10
1.0
 20
0.0
 30
0.0
  9
$PUCSYDIR
 10
0.0
 20
1.0
 30
0.0
  9
$USERI1
 70
     0
  9
$USERI2
 70
     0
  9
$USERI3
 70
     0
  9
$USERI4
 70
     0
  9
$USERI5
 70
     0
  9
$USERR1
 40
0.0
  9
$USERR2
 40
0.0
  9
$USERR3
 40
0.0
  9
$USERR4
 40
0.0
  9
$USERR5
 40
0.0
  9
$WORLDVIEW
 70
     1
  9
$SHADEDGE
 70
     3
  9
$SHADEDIF
 70
    70
  9
$TILEMODE
 70
     0
  9
$MAXACTVP
 70
    64
  9
$PLIMCHECK
 70
     0
  9
$PEXTMIN
 10
0.0282895744820628
 20
0.0759353784799721
 30
-0.0015258207003583
  9
$PEXTMAX
 10
10.47170975585299
 20
7.9577863512286546
 30
0.0000000349246037
  9
$PLIMMIN
 10
-0.1682389550263349
 20
-0.2033427855578579
  9
$PLIMMAX
 10
10.754640548407011
 20
8.2370640492290015
  9
$UNITMODE
 70
     0
  9
$VISRETAIN
 70
     1
  9
$PLINEGEN
 70
     0
  9
$PSLTSCALE
 70
     1
  0
ENDSEC
  0
SECTION
  2
TABLES
  0
TABLE
  2
VPORT
 70
     1
  0
VPORT
  2
*ACTIVE
 70
     0
 10
0.0
 20
0.0
 11
1.0
 21
1.0
 12
-386.52380251144001
 22
838.09204166179234
 13
0.0
 23
0.0
 14
0.5
 24
0.5
 15
0.5
 25
0.5
 16
0.0
 26
0.0
 36
1.0
 17
0.0
 27
0.0
 37
0.0
 40
3.930952126162941
 41
2.0226628895184122
 42
50.0
 43
0.0
 44
0.0
 50
0.0
 51
0.0
 71
     0
 72
   100
 73
     1
 74
     2
 75
     0
 76
     0
 77
     0
 78
     0
  0
ENDTAB
  0
TABLE
  2
LTYPE
 70
     1
  0
LTYPE
  2
CONTINUOUS
 70
     0
  3
Solid line
 72
    65
 73
     0
 40
0.0
  0
ENDTAB
  0
TABLE
  2
LAYER
 70
    10
  0
LAYER
  2
0
 70
     0
 62
     7
  6
CONTINUOUS
  0
LAYER
  2
DEFPOINTS
 70
     0
 62
     7
  6
CONTINUOUS
  0
LAYER
  2
FRAME_200
 70
     0
 62
     8
  6
CONTINUOUS
  0
LAYER
  2
FRAME_070
 70
     0
 62
     5
  6
CONTINUOUS
  0
LAYER
  2
FRAME_050
 70
     0
 62
     6
  6
CONTINUOUS
  0
LAYER
  2
TITLE_BLOCK
 70
     0
 62
     7
  6
CONTINUOUS
  0
LAYER
  2
FRAME_025
 70
     0
 62
     7
  6
CONTINUOUS
  0
LAYER
  2
VIEWPORT
 70
     0
 62
     7
  6
CONTINUOUS
  0
LAYER
  2
PROF
 70
     0
 62
     7
  6
CONTINUOUS
  0
LAYER
  2
PROFILE
 70
     0
 62
     7
  6
CONTINUOUS
  0
ENDTAB
  0
TABLE
  2
STYLE
 70
     2
  0
STYLE
  2
STANDARD
 70
     0
 40
0.0
 41
1.0
 50
0.0
 71
     0
 42
1.5
  3
txt
  4

  0
STYLE
  2
ISO_PROPORTIONAL
 70
     0
 40
0.0
 41
1.0
 50
0.0
 71
     0
 42
2.5
  3
isocp.shx
  4

  0
ENDTAB
  0
TABLE
  2
VIEW
 70
     0
  0
ENDTAB
  0
TABLE
  2
UCS
 70
     0
  0
ENDTAB
  0
TABLE
  2
APPID
 70
     6
  0
APPID
  2
ACAD
 70
     0
  0
APPID
  2
DCO15
 70
     0
  0
APPID
  2
ACAD_EXEMPT_FROM_CAD_STANDARDS
 70
     0
  0
APPID
  2
ACAD_PSEXT
 70
     0
  0
APPID
  2
CONTENTBLOCKDESCRIPTION
 70
     0
  0
APPID
  2
CONTENTBLOCKICON
 70
     0
  0
ENDTAB
  0
TABLE
  2
DIMSTYLE
 70
    10
  0
DIMSTYLE
  2
FULL_SCALE
 70
     0
  3
"
  4

  5

  6

  7

 40
1.0
 41
0.046875
 42
0.09375
 43
0.125
 44
0.0625
 45
0.0
 46
0.0
 47
0.0
 48
0.0
140
0.125
141
0.125
142
0.0
143
25.399999999999999
144
1.0
145
0.0
146
1.0
147
0.0625
 71
     0
 72
     0
 73
     0
 74
     0
 75
     0
 76
     0
 77
     1
 78
     0
170
     0
171
     2
172
     0
173
     0
174
     1
175
     0
176
     0
177
     0
178
     0
  0
DIMSTYLE
  2
HALF_SCALE
 70
     0
  3
"
  4

  5

  6

  7

 40
1.0
 41
0.09375
 42
0.1875
 43
0.25
 44
0.125
 45
0.0
 46
0.0
 47
0.0
 48
0.0
140
0.25
141
0.25
142
0.0
143
25.399999999999999
144
1.0
145
0.0
146
1.0
147
0.125
 71
     0
 72
     0
 73
     0
 74
     0
 75
     0
 76
     0
 77
     1
 78
     0
170
     0
171
     2
172
     0
173
     0
174
     1
175
     0
176
     0
177
     0
178
     0
  0
DIMSTYLE
  2
INCH_SCALE
 70
     0
  3
"
  4

  5

  6

  7

 40
1.0
 41
0.5625
 42
1.125
 43
1.5
 44
0.75
 45
0.0
 46
0.0
 47
0.0
 48
0.0
140
1.125
141
1.5
142
0.0
143
25.399999999999999
144
1.0
145
0.0
146
1.0
147
0.75
 71
     0
 72
     0
 73
     0
 74
     0
 75
     0
 76
     0
 77
     1
 78
     0
170
     0
171
     2
172
     0
173
     0
174
     1
175
     0
176
     0
177
     0
178
     0
  0
DIMSTYLE
  2
THREE_QUARTER_INCH_SCALE
 70
     0
  3
"
  4

  5

  6

  7

 40
1.0
 41
0.75
 42
1.5
 43
2.0
 44
1.0
 45
0.0
 46
0.0
 47
0.0
 48
0.0
140
1.5
141
2.0
142
0.0
143
25.399999999999999
144
1.0
145
0.0
146
1.0
147
1.0
 71
     0
 72
     0
 73
     0
 74
     0
 75
     0
 76
     0
 77
     1
 78
     0
170
     0
171
     2
172
     0
173
     0
174
     1
175
     0
176
     0
177
     0
178
     0
  0
DIMSTYLE
  2
ZHALF_INCH_SCALE
 70
     0
  3
"
  4

  5

  6

  7

 40
1.0
 41
1.125
 42
2.25
 43
3.0
 44
1.5
 45
0.0
 46
0.0
 47
0.0
 48
0.0
140
2.25
141
3.0
142
0.0
143
25.399999999999999
144
1.0
145
0.0
146
1.0
147
1.5
 71
     0
 72
     0
 73
     0
 74
     0
 75
     0
 76
     0
 77
     1
 78
     0
170
     0
171
     2
172
     0
173
     0
174
     1
175
     0
176
     0
177
     0
178
     0
  0
DIMSTYLE
  2
FULL_SCALE0
 70
     0
  3
"
  4

  5
ARCHTICK
  6

  7

 40
1.0
 41
0.046875
 42
0.09375
 43
0.125
 44
0.0625
 45
0.0
 46
0.0
 47
0.0
 48
0.0
140
0.125
141
0.125
142
0.0
143
25.399999999999999
144
1.0
145
0.0
146
1.0
147
0.0625
 71
     0
 72
     0
 73
     0
 74
     0
 75
     0
 76
     0
 77
     1
 78
     0
170
     0
171
     2
172
     0
173
     0
174
     1
175
     0
176
     0
177
     0
178
     0
  0
DIMSTYLE
  2
HALF_SCALE0
 70
     0
  3
"
  4

  5
ARCHTICK
  6

  7

 40
1.0
 41
0.09375
 42
0.1875
 43
0.25
 44
0.125
 45
0.0
 46
0.0
 47
0.0
 48
0.0
140
0.25
141
0.25
142
0.0
143
25.399999999999999
144
1.0
145
0.0
146
1.0
147
0.125
 71
     0
 72
     0
 73
     0
 74
     0
 75
     0
 76
     0
 77
     1
 78
     0
170
     0
171
     2
172
     0
173
     0
174
     1
175
     0
176
     0
177
     0
178
     0
  0
DIMSTYLE
  2
INCH_SCALE0
 70
     0
  3
"
  4

  5
ARCHTICK
  6

  7

 40
1.0
 41
0.5625
 42
1.125
 43
1.5
 44
0.75
 45
0.0
 46
0.0
 47
0.0
 48
0.0
140
1.125
141
1.5
142
0.0
143
25.399999999999999
144
1.0
145
0.0
146
1.0
147
0.75
 71
     0
 72
     0
 73
     0
 74
     0
 75
     0
 76
     0
 77
     1
 78
     0
170
     0
171
     2
172
     0
173
     0
174
     1
175
     0
176
     0
177
     0
178
     0
  0
DIMSTYLE
  2
THREE_QUARTER_INCH_SCALE0
 70
     0
  3
"
  4

  5
ARCHTICK
  6

  7

 40
1.0
 41
0.75
 42
1.5
 43
2.0
 44
1.0
 45
0.0
 46
0.0
 47
0.0
 48
0.0
140
1.5
141
2.0
142
0.0
143
25.399999999999999
144
1.0
145
0.0
146
1.0
147
1.0
 71
     0
 72
     0
 73
     0
 74
     0
 75
     0
 76
     0
 77
     1
 78
     0
170
     0
171
     2
172
     0
173
     0
174
     1
175
     0
176
     0
177
     0
178
     0
  0
DIMSTYLE
  2
ZHALF_INCH_SCALE0
 70
     0
  3
"
  4

  5
ARCHTICK
  6

  7

 40
1.0
 41
1.125
 42
2.25
 43
3.0
 44
1.5
 45
0.0
 46
0.0
 47
0.0
 48
0.0
140
2.25
141
3.0
142
0.0
143
25.399999999999999
144
1.0
145
0.0
146
1.0
147
1.5
 71
     0
 72
     0
 73
     0
 74
     0
 75
     0
 76
     0
 77
     1
 78
     0
170
     0
171
     2
172
     0
173
     0
174
     1
175
     0
176
     0
177
     0
178
     0
  0
ENDTAB
  0
ENDSEC
  0
SECTION
  2
BLOCKS
  0
BLOCK
  8
0
  2
$MODEL_SPACE
 70
     0
 10
0.0
 20
0.0
 30
0.0
  3
$MODEL_SPACE
  1

  0
ENDBLK
  5
C9DC
  8
0
  0
BLOCK
 67
     1
  8
0
  2
$PAPER_SPACE
 70
     0
 10
0.0
 20
0.0
 30
0.0
  3
$PAPER_SPACE
  1

  0
ENDBLK
  5
C9D8
 67
     1
  8
0
  0
BLOCK
  8
0
  2
_ARCHTICK
 70
     0
 10
0.0
 20
0.0
 30
0.0
  3
_ARCHTICK
  1

  0
POLYLINE
  5
158
  8
0
  6
BYBLOCK
 62
     0
 66
     1
 10
0.0
 20
0.0
 30
0.0
 40
0.15
 41
0.15
  0
VERTEX
  5
F7E4
  8
0
  6
BYBLOCK
 62
     0
 10
-0.5
 20
-0.5
 30
0.0
  0
VERTEX
  5
F7E5
  8
0
  6
BYBLOCK
 62
     0
 10
0.5
 20
0.5
 30
0.0
  0
SEQEND
  5
F7E6
  8
0
  6
BYBLOCK
 62
     0
  0
ENDBLK
  5
15A
  8
0
  0
BLOCK
  8
0
  2
_OPEN30
 70
     0
 10
0.0
 20
0.0
 30
0.0
  3
_OPEN30
  1

  0
LINE
  5
15C
  8
0
  6
BYBLOCK
 62
     0
 10
-1.0
 20
0.26794919
 30
0.0
 11
0.0
 21
0.0
 31
0.0
  0
LINE
  5
15D
  8
0
  6
BYBLOCK
 62
     0
 10
0.0
 20
0.0
 30
0.0
 11
-1.0
 21
-0.26794919
 31
0.0
  0
LINE
  5
15E
  8
0
  6
BYBLOCK
 62
     0
 10
0.0
 20
0.0
 30
0.0
 11
-1.0
 21
0.0
 31
0.0
  0
ENDBLK
  5
160
  8
0
  0
BLOCK
  8
0
  2
ISO_A2_TITLE_BLOCK
 70
     2
 10
0.0
 20
0.0
 30
0.0
  3
ISO_A2_TITLE_BLOCK
  1

  0
LINE
  5
BDD
  8
FRAME_050
 10
299.5
 20
12.5
 30
0.0
 11
297.0
 21
7.5
 31
0.0
  0
LINE
  5
BDE
  8
FRAME_050
 10
294.5
 20
12.5
 30
0.0
 11
299.5
 21
12.5
 31
0.0
  0
LINE
  5
BDF
  8
FRAME_050
 10
247.0
 20
5.0
 30
0.0
 11
347.0
 21
5.0
 31
0.0
  0
LINE
  5
BE0
  8
FRAME_070
 10
584.0
 20
410.0
 30
0.0
 11
10.0
 21
410.0
 31
0.0
  0
LINE
  5
BE1
  8
FRAME_070
 10
10.0
 20
10.0
 30
0.0
 11
584.0
 21
10.0
 31
0.0
  0
LINE
  5
BE2
  8
FRAME_050
 10
12.5
 20
207.5
 30
0.0
 11
7.5
 21
210.0
 31
0.0
  0
LINE
  5
BE3
  8
FRAME_050
 10
12.5
 20
212.5
 30
0.0
 11
12.5
 21
207.5
 31
0.0
  0
LINE
  5
BE4
  8
FRAME_070
 10
10.0
 20
410.0
 30
0.0
 11
10.0
 21
10.0
 31
0.0
  0
LINE
  5
BE5
  8
FRAME_200
 10
0.0
 20
0.0
 30
0.0
 11
0.0
 21
10.0
 31
0.0
  0
LINE
  5
BE6
  8
FRAME_200
 10
0.0
 20
0.0
 30
0.0
 11
10.0
 21
0.0
 31
0.0
  0
TEXT
  5
BE7
  8
FRAME_050
 10
5.9000000000000004
 20
35.0
 30
0.0
 40
4.0
  1
H
  7
ISO_PROPORTIONAL
 72
     4
 11
7.5
 21
37.0
 31
0.0
  0
LINE
  5
BE8
  8
FRAME_050
 10
10.0
 20
60.0
 30
0.0
 11
5.0
 21
60.0
 31
0.0
  0
LINE
  5
BE9
  8
FRAME_050
 10
81.75
 20
5.0
 30
0.0
 11
81.75
 21
10.0
 31
0.0
  0
TEXT
  5
BEA
  8
FRAME_050
 10
44.874999999999993
 20
5.5
 30
0.0
 40
4.0
  1
1
  7
ISO_PROPORTIONAL
 72
     4
 11
45.875
 21
7.5
 31
0.0
  0
TEXT
  5
BEB
  8
FRAME_050
 10
6.0035533905932743
 20
85.0
 30
0.0
 40
4.0
  1
G
  7
ISO_PROPORTIONAL
 72
     4
 11
7.5
 21
87.0
 31
0.0
  0
LINE
  5
BEC
  8
FRAME_050
 10
10.0
 20
110.0
 30
0.0
 11
5.0
 21
110.0
 31
0.0
  0
TEXT
  5
BED
  8
FRAME_050
 10
6.0999999999999988
 20
135.0
 30
0.0
 40
4.0
  1
F
  7
ISO_PROPORTIONAL
 72
     4
 11
7.5
 21
137.0
 31
0.0
  0
LINE
  5
BEE
  8
FRAME_050
 10
10.0
 20
160.0
 30
0.0
 11
5.0
 21
160.0
 31
0.0
  0
TEXT
  5
BEF
  8
FRAME_050
 10
6.0999999999999988
 20
185.0
 30
0.0
 40
4.0
  1
E
  7
ISO_PROPORTIONAL
 72
     4
 11
7.5
 21
187.0
 31
0.0
  0
LINE
  5
BF0
  8
FRAME_050
 10
153.5
 20
5.0
 30
0.0
 11
153.5
 21
10.0
 31
0.0
  0
TEXT
  5
BF1
  8
FRAME_050
 10
116.1556692913386
 20
5.3996062992125982
 30
0.0
 40
4.0
  1
2
  7
ISO_PROPORTIONAL
 72
     4
 11
117.625
 21
7.5
 31
0.0
  0
TEXT
  5
BF2
  8
FRAME_050
 10
187.89215728752529
 20
5.5828427124746138
 30
0.0
 40
4.0
  1
3
  7
ISO_PROPORTIONAL
 72
     4
 11
189.375
 21
7.5
 31
0.0
  0
LINE
  5
BF3
  8
FRAME_050
 10
225.25
 20
5.0
 30
0.0
 11
225.25
 21
10.0
 31
0.0
  0
LINE
  5
BF4
  8
FRAME_050
 10
297.0
 20
7.5
 30
0.0
 11
294.5
 21
12.5
 31
0.0
  0
LINE
  5
BF5
  8
FRAME_050
 10
287.0
 20
5.0
 30
0.0
 11
287.0
 21
10.0
 31
0.0
  0
LINE
  5
BF6
  8
FRAME_050
 10
277.0
 20
5.0
 30
0.0
 11
277.0
 21
10.0
 31
0.0
  0
LINE
  5
BF7
  8
FRAME_050
 10
267.0
 20
5.0
 30
0.0
 11
267.0
 21
10.0
 31
0.0
  0
LINE
  5
BF8
  8
FRAME_050
 10
257.0
 20
5.0
 30
0.0
 11
257.0
 21
10.0
 31
0.0
  0
LINE
  5
BF9
  8
FRAME_050
 10
247.0
 20
5.0
 30
0.0
 11
247.0
 21
10.0
 31
0.0
  0
LINE
  5
BFA
  8
FRAME_050
 10
297.0
 20
10.0
 30
0.0
 11
297.0
 21
5.0
 31
0.0
  0
LINE
  5
BFB
  8
FRAME_050
 10
297.0
 20
10.0
 30
0.0
 11
297.0
 21
15.0
 31
0.0
  0
LINE
  5
BFC
  8
FRAME_050
 10
5.0
 20
210.0
 30
0.0
 11
15.0
 21
210.0
 31
0.0
  0
LINE
  5
BFD
  8
FRAME_050
 10
7.5
 20
210.0
 30
0.0
 11
12.5
 21
212.5
 31
0.0
  0
TEXT
  5
BFE
  8
FRAME_050
 10
5.7860912703473977
 20
235.0
 30
0.0
 40
4.0
  1
D
  7
ISO_PROPORTIONAL
 72
     4
 11
7.5
 21
237.0
 31
0.0
  0
LINE
  5
BFF
  8
FRAME_050
 10
10.0
 20
260.0
 30
0.0
 11
5.0
 21
260.0
 31
0.0
  0
TEXT
  5
C00
  8
FRAME_050
 10
6.1931980515339466
 20
285.0
 30
0.0
 40
4.0
  1
C
  7
ISO_PROPORTIONAL
 72
     4
 11
7.5
 21
287.0
 31
0.0
  0
LINE
  5
C01
  8
FRAME_050
 10
10.0
 20
310.0
 30
0.0
 11
5.0
 21
310.0
 31
0.0
  0
TEXT
  5
C02
  8
FRAME_050
 10
5.8999999999999959
 20
335.0
 30
0.0
 40
4.0
  1
B
  7
ISO_PROPORTIONAL
 72
     4
 11
7.5
 21
337.0
 31
0.0
  0
LINE
  5
C03
  8
FRAME_050
 10
10.0
 20
360.0
 30
0.0
 11
5.0
 21
360.0
 31
0.0
  0
TEXT
  5
C04
  8
FRAME_050
 10
5.6999999999999993
 20
385.0
 30
0.0
 40
4.0
  1
A
  7
ISO_PROPORTIONAL
 72
     4
 11
7.5
 21
387.0
 31
0.0
  0
LINE
  5
C05
  8
FRAME_200
 10
10.0
 20
420.0
 30
0.0
 11
0.0
 21
420.0
 31
0.0
  0
LINE
  5
C06
  8
FRAME_200
 10
0.0
 20
420.0
 30
0.0
 11
0.0
 21
410.0
 31
0.0
  0
TEXT
  5
C07
  8
FRAME_050
 10
44.874999999999993
 20
410.5
 30
0.0
 40
4.0
  1
1
  7
ISO_PROPORTIONAL
 72
     4
 11
45.875
 21
412.5
 31
0.0
  0
LINE
  5
C08
  8
FRAME_050
 10
81.75
 20
410.0
 30
0.0
 11
81.75
 21
415.0
 31
0.0
  0
TEXT
  5
C09
  8
FRAME_050
 10
116.1556692913386
 20
410.39960629921262
 30
0.0
 40
4.0
  1
2
  7
ISO_PROPORTIONAL
 72
     4
 11
117.625
 21
412.5
 31
0.0
  0
LINE
  5
C0A
  8
FRAME_050
 10
153.5
 20
410.0
 30
0.0
 11
153.5
 21
415.0
 31
0.0
  0
TEXT
  5
C0B
  8
FRAME_050
 10
187.89215728752529
 20
410.58284271247459
 30
0.0
 40
4.0
  1
3
  7
ISO_PROPORTIONAL
 72
     4
 11
189.375
 21
412.5
 31
0.0
  0
LINE
  5
C0C
  8
FRAME_050
 10
297.0
 20
405.0
 30
0.0
 11
297.0
 21
415.0
 31
0.0
  0
LINE
  5
C0D
  8
FRAME_050
 10
225.25
 20
410.0
 30
0.0
 11
225.25
 21
415.0
 31
0.0
  0
TEXT
  5
C0E
  8
FRAME_050
 10
259.52499999999998
 20
410.5
 30
0.0
 40
4.0
  1
4
  7
ISO_PROPORTIONAL
 72
     4
 11
261.125
 21
412.5
 31
0.0
  0
LINE
  5
C0F
  8
FRAME_070
 10
584.0
 20
10.0
 30
0.0
 11
584.0
 21
410.0
 31
0.0
  0
ATTDEF
  5
C10
  8
FRAME_025
 10
473.0
 20
31.75
 30
0.0
 40
2.5
  1
XXX - 00/00/00
  7
ISO_PROPORTIONAL
 11
473.0
 21
33.0
 31
0.0
  3
Approved by - Date
  2
APPROVED_BY_DATE
 70
     8
 74
     2
  0
TEXT
  5
C11
  8
FRAME_025
 10
448.0
 20
41.749999999999993
 30
0.0
 40
2.5
  1
Title/Name, designation, material, dimension etc
  7
ISO_PROPORTIONAL
 11
448.0
 21
43.0
 31
0.0
 73
     2
  0
TEXT
  5
C12
  8
FRAME_025
 10
473.0
 20
35.75
 30
0.0
 40
2.5
  1
Approved by - date
  7
ISO_PROPORTIONAL
 11
473.0
 21
37.0
 31
0.0
 73
     2
  0
LINE
  5
C13
  8
FRAME_070
 10
414.0
 20
46.0
 30
0.0
 11
584.0
 21
46.0
 31
0.0
  0
LINE
  5
C14
  8
FRAME_070
 10
414.0
 20
40.0
 30
0.0
 11
584.0
 21
40.0
 31
0.0
  0
LINE
  5
C15
  8
FRAME_070
 10
414.0
 20
30.0
 30
0.0
 11
584.0
 21
30.0
 31
0.0
  0
LINE
  5
C16
  8
FRAME_050
 10
368.75
 20
5.0
 30
0.0
 11
368.75
 21
10.0
 31
0.0
  0
LINE
  5
C17
  8
FRAME_050
 10
337.0
 20
5.0
 30
0.0
 11
337.0
 21
10.0
 31
0.0
  0
LINE
  5
C18
  8
FRAME_050
 10
327.0
 20
5.0
 30
0.0
 11
327.0
 21
10.0
 31
0.0
  0
LINE
  5
C19
  8
FRAME_050
 10
317.0
 20
5.0
 30
0.0
 11
317.0
 21
10.0
 31
0.0
  0
LINE
  5
C1A
  8
FRAME_050
 10
307.0
 20
5.0
 30
0.0
 11
307.0
 21
10.0
 31
0.0
  0
LINE
  5
C1B
  8
FRAME_050
 10
347.0
 20
5.0
 30
0.0
 11
347.0
 21
10.0
 31
0.0
  0
LINE
  5
C1C
  8
FRAME_050
 10
440.5
 20
5.0
 30
0.0
 11
440.5
 21
10.0
 31
0.0
  0
TEXT
  5
C1D
  8
FRAME_050
 10
403.24547244094481
 20
5.4102362204724406
 30
0.0
 40
4.0
  1
6
  7
ISO_PROPORTIONAL
 72
     4
 11
404.62499999999989
 21
7.5
 31
0.0
  0
TEXT
  5
C1E
  8
FRAME_050
 10
474.97499999999991
 20
5.5
 30
0.0
 40
4.0
  1
7
  7
ISO_PROPORTIONAL
 72
     4
 11
476.37499999999989
 21
7.5
 31
0.0
  0
TEXT
  5
C1F
  8
FRAME_025
 10
431.0
 20
41.749999999999993
 30
0.0
 40
2.5
  1
Quantity
  7
ISO_PROPORTIONAL
 11
431.0
 21
43.0
 31
0.0
 73
     2
  0
TEXT
  5
C20
  8
FRAME_025
 10
416.0
 20
41.749999999999993
 30
0.0
 40
2.5
  1
Itemref
  7
ISO_PROPORTIONAL
 11
416.0
 21
43.0
 31
0.0
 73
     2
  0
LINE
  5
C21
  8
FRAME_070
 10
414.0
 20
40.0
 30
0.0
 11
414.0
 21
46.0
 31
0.0
  0
LINE
  5
C22
  8
FRAME_070
 10
429.0
 20
40.0
 30
0.0
 11
429.0
 21
46.0
 31
0.0
  0
LINE
  5
C23
  8
FRAME_070
 10
414.0
 20
10.0
 30
0.0
 11
414.0
 21
40.0
 31
0.0
  0
ATTDEF
  5
C24
  8
FRAME_025
 10
416.0
 20
31.75
 30
0.0
 40
2.5
  1
XXX
  7
ISO_PROPORTIONAL
 11
416.0
 21
33.0
 31
0.0
  3
Designed by
  2
DESIGNED_BY
 70
     8
 74
     2
  0
TEXT
  5
C25
  8
FRAME_025
 10
416.0
 20
35.75
 30
0.0
 40
2.5
  1
Designed by
  7
ISO_PROPORTIONAL
 11
416.0
 21
37.0
 31
0.0
 73
     2
  0
LINE
  5
C26
  8
FRAME_070
 10
446.0
 20
40.0
 30
0.0
 11
446.0
 21
46.0
 31
0.0
  0
ATTDEF
  5
C27
  8
FRAME_025
 10
448.0
 20
31.75
 30
0.0
 40
2.5
  1
XXX
  7
ISO_PROPORTIONAL
 11
448.0
 21
33.0
 31
0.0
  3
Checked by
  2
CHECKED_BY
 70
     8
 74
     2
  0
TEXT
  5
C28
  8
FRAME_025
 10
448.0
 20
35.75
 30
0.0
 40
2.5
  1
Checked by
  7
ISO_PROPORTIONAL
 11
448.0
 21
37.0
 31
0.0
 73
     2
  0
ATTDEF
  5
C29
  8
FRAME_050
 10
444.74999999999989
 20
17.5
 30
0.0
 40
5.0
  1
XXX
  7
ISO_PROPORTIONAL
 72
     4
 11
451.49999999999989
 21
20.0
 31
0.0
  3
Owner
  2
OWNER
 70
     8
  0
LINE
  5
C2A
  8
FRAME_070
 10
446.0
 20
30.0
 30
0.0
 11
446.0
 21
40.0
 31
0.0
  0
LINE
  5
C2B
  8
FRAME_070
 10
471.0
 20
30.0
 30
0.0
 11
471.0
 21
40.0
 31
0.0
  0
LINE
  5
C2C
  8
FRAME_070
 10
489.0
 20
20.0
 30
0.0
 11
584.0
 21
20.0
 31
0.0
  0
LINE
  5
C2D
  8
FRAME_050
 10
512.25
 20
5.0
 30
0.0
 11
512.25
 21
10.0
 31
0.0
  0
TEXT
  5
C2E
  8
FRAME_050
 10
546.72499999999991
 20
5.5
 30
0.0
 40
4.0
  1
8
  7
ISO_PROPORTIONAL
 72
     4
 11
548.125
 21
7.5
 31
0.0
  0
ATTDEF
  5
C2F
  8
FRAME_050
 10
517.64999999999986
 20
13.5
 30
0.0
 40
3.0
  1
X
  7
ISO_PROPORTIONAL
 72
     4
 11
519.0
 21
15.0
 31
0.0
  3
Drawing number
  2
DRAWING_NUMBER
 70
     8
  0
ATTDEF
  5
C30
  8
FRAME_050
 10
529.75
 20
22.5
 30
0.0
 40
5.0
  1
XXX
  7
ISO_PROPORTIONAL
 72
     4
 11
536.5
 21
25.0
 31
0.0
  3
Title / Name
  2
TITLE
 70
     8
  0
LINE
  5
C31
  8
FRAME_070
 10
489.0
 20
10.0
 30
0.0
 11
489.0
 21
30.0
 31
0.0
  0
ATTDEF
  5
C32
  8
FRAME_025
 10
511.0
 20
31.75
 30
0.0
 40
2.5
  1
XXX
  7
ISO_PROPORTIONAL
 11
511.0
 21
33.0
 31
0.0
  3
Filename
  2
FILENAME
 70
     8
 74
     2
  0
TEXT
  5
C33
  8
FRAME_025
 10
511.0
 20
35.75
 30
0.0
 40
2.5
  1
Filename
  7
ISO_PROPORTIONAL
 11
511.0
 21
37.0
 31
0.0
 73
     2
  0
LINE
  5
C34
  8
FRAME_070
 10
509.0
 20
30.0
 30
0.0
 11
509.0
 21
40.0
 31
0.0
  0
TEXT
  5
C35
  8
FRAME_025
 10
536.0
 20
41.749999999999993
 30
0.0
 40
2.5
  1
Article No./Reference
  7
ISO_PROPORTIONAL
 11
536.0
 21
43.0
 31
0.0
 73
     2
  0
LINE
  5
C36
  8
FRAME_070
 10
534.0
 20
40.0
 30
0.0
 11
534.0
 21
46.0
 31
0.0
  0
ATTDEF
  5
C37
  8
FRAME_025
 10
551.0
 20
11.75
 30
0.0
 40
2.5
  1
0
  7
ISO_PROPORTIONAL
 11
551.0
 21
13.0
 31
0.0
  3
Edition
  2
EDITION
 70
     8
 74
     2
  0
TEXT
  5
C38
  8
FRAME_025
 10
551.0
 20
15.75
 30
0.0
 40
2.5
  1
Edition
  7
ISO_PROPORTIONAL
 11
551.0
 21
17.0
 31
0.0
 73
     2
  0
LINE
  5
C39
  8
FRAME_070
 10
549.0
 20
10.0
 30
0.0
 11
549.0
 21
20.0
 31
0.0
  0
ATTDEF
  5
C3A
  8
FRAME_025
 10
536.0
 20
31.75
 30
0.0
 40
2.5
  1
00/00/00
  7
ISO_PROPORTIONAL
 11
536.0
 21
33.0
 31
0.0
  3
Date
  2
DATE
 70
     8
 74
     2
  0
TEXT
  5
C3B
  8
FRAME_025
 10
536.0
 20
35.75
 30
0.0
 40
2.5
  1
Date
  7
ISO_PROPORTIONAL
 11
536.0
 21
37.0
 31
0.0
 73
     2
  0
LINE
  5
C3C
  8
FRAME_070
 10
534.0
 20
30.0
 30
0.0
 11
534.0
 21
40.0
 31
0.0
  0
ATTDEF
  5
C3D
  8
FRAME_025
 10
566.0
 20
11.75
 30
0.0
 40
2.5
  1
1/1
  7
ISO_PROPORTIONAL
 11
566.0
 21
13.0
 31
0.0
  3
Sheet
  2
SHEET
 70
     8
 74
     2
  0
TEXT
  5
C3E
  8
FRAME_025
 10
566.0
 20
15.75
 30
0.0
 40
2.5
  1
Sheet
  7
ISO_PROPORTIONAL
 11
566.0
 21
17.0
 31
0.0
 73
     2
  0
LINE
  5
C3F
  8
FRAME_070
 10
564.0
 20
10.0
 30
0.0
 11
564.0
 21
20.0
 31
0.0
  0
ATTDEF
  5
C40
  8
FRAME_025
 10
566.0
 20
31.75
 30
0.0
 40
2.5
  1
1:1
  7
ISO_PROPORTIONAL
 11
566.0
 21
33.0
 31
0.0
  3
Scale
  2
SCALE
 70
     8
 74
     2
  0
TEXT
  5
C41
  8
FRAME_025
 10
566.0
 20
35.75
 30
0.0
 40
2.5
  1
Scale
  7
ISO_PROPORTIONAL
 11
566.0
 21
37.0
 31
0.0
 73
     2
  0
LINE
  5
C42
  8
FRAME_070
 10
564.0
 20
30.0
 30
0.0
 11
564.0
 21
40.0
 31
0.0
  0
LINE
  5
C43
  8
FRAME_200
 10
594.0
 20
0.0
 30
0.0
 11
594.0
 21
10.0
 31
0.0
  0
LINE
  5
C44
  8
FRAME_200
 10
594.0
 20
0.0
 30
0.0
 11
584.0
 21
0.0
 31
0.0
  0
TEXT
  5
C45
  8
FRAME_050
 10
584.89999999999998
 20
35.0
 30
0.0
 40
4.0
  1
H
  7
ISO_PROPORTIONAL
 72
     4
 11
586.5
 21
37.0
 31
0.0
  0
LINE
  5
C46
  8
FRAME_050
 10
589.0
 20
60.0
 30
0.0
 11
584.0
 21
60.0
 31
0.0
  0
TEXT
  5
C47
  8
FRAME_050
 10
585.0035533905932
 20
85.0
 30
0.0
 40
4.0
  1
G
  7
ISO_PROPORTIONAL
 72
     4
 11
586.5
 21
87.0
 31
0.0
  0
LINE
  5
C48
  8
FRAME_050
 10
589.0
 20
110.0
 30
0.0
 11
584.0
 21
110.0
 31
0.0
  0
TEXT
  5
C49
  8
FRAME_050
 10
585.09999999999991
 20
135.0
 30
0.0
 40
4.0
  1
F
  7
ISO_PROPORTIONAL
 72
     4
 11
586.5
 21
137.0
 31
0.0
  0
LINE
  5
C4A
  8
FRAME_050
 10
589.0
 20
160.0
 30
0.0
 11
584.0
 21
160.0
 31
0.0
  0
TEXT
  5
C4B
  8
FRAME_050
 10
585.09999999999991
 20
185.0
 30
0.0
 40
4.0
  1
E
  7
ISO_PROPORTIONAL
 72
     4
 11
586.5
 21
187.0
 31
0.0
  0
LINE
  5
C4C
  8
FRAME_070
 10
414.0
 20
404.0
 30
0.0
 11
584.0
 21
404.0
 31
0.0
  0
TEXT
  5
C4D
  8
FRAME_050
 10
331.39215728752538
 20
410.58284271247459
 30
0.0
 40
4.0
  1
5
  7
ISO_PROPORTIONAL
 72
     4
 11
332.875
 21
412.5
 31
0.0
  0
LINE
  5
C4E
  8
FRAME_050
 10
368.75
 20
410.0
 30
0.0
 11
368.75
 21
415.0
 31
0.0
  0
TEXT
  5
C4F
  8
FRAME_025
 10
428.0
 20
405.75
 30
0.0
 40
2.5
  1
Revision note
  7
ISO_PROPORTIONAL
 11
428.0
 21
407.0
 31
0.0
 73
     2
  0
TEXT
  5
C50
  8
FRAME_025
 10
416.0
 20
405.75
 30
0.0
 40
2.5
  1
RevNo
  7
ISO_PROPORTIONAL
 11
416.0
 21
407.0
 31
0.0
 73
     2
  0
LINE
  5
C51
  8
FRAME_070
 10
426.0
 20
404.0
 30
0.0
 11
426.0
 21
410.0
 31
0.0
  0
LINE
  5
C52
  8
FRAME_070
 10
414.0
 20
404.0
 30
0.0
 11
414.0
 21
410.0
 31
0.0
  0
TEXT
  5
C53
  8
FRAME_050
 10
403.24547244094481
 20
410.41023622047243
 30
0.0
 40
4.0
  1
6
  7
ISO_PROPORTIONAL
 72
     4
 11
404.62499999999989
 21
412.5
 31
0.0
  0
LINE
  5
C54
  8
FRAME_050
 10
440.5
 20
410.0
 30
0.0
 11
440.5
 21
415.0
 31
0.0
  0
TEXT
  5
C55
  8
FRAME_050
 10
474.97499999999991
 20
410.5
 30
0.0
 40
4.0
  1
7
  7
ISO_PROPORTIONAL
 72
     4
 11
476.37499999999989
 21
412.5
 31
0.0
  0
LINE
  5
C56
  8
FRAME_050
 10
579.0
 20
210.0
 30
0.0
 11
589.0
 21
210.0
 31
0.0
  0
TEXT
  5
C57
  8
FRAME_050
 10
584.78609127034736
 20
235.0
 30
0.0
 40
4.0
  1
D
  7
ISO_PROPORTIONAL
 72
     4
 11
586.5
 21
237.0
 31
0.0
  0
LINE
  5
C58
  8
FRAME_050
 10
589.0
 20
260.0
 30
0.0
 11
584.0
 21
260.0
 31
0.0
  0
TEXT
  5
C59
  8
FRAME_050
 10
585.19319805153395
 20
285.0
 30
0.0
 40
4.0
  1
C
  7
ISO_PROPORTIONAL
 72
     4
 11
586.5
 21
287.0
 31
0.0
  0
LINE
  5
C5A
  8
FRAME_050
 10
589.0
 20
310.0
 30
0.0
 11
584.0
 21
310.0
 31
0.0
  0
TEXT
  5
C5B
  8
FRAME_050
 10
584.89999999999998
 20
335.0
 30
0.0
 40
4.0
  1
B
  7
ISO_PROPORTIONAL
 72
     4
 11
586.5
 21
337.0
 31
0.0
  0
TEXT
  5
C5C
  8
FRAME_025
 10
571.08299391850551
 20
405.75
 30
0.0
 40
2.5
  1
Checked
  7
ISO_PROPORTIONAL
 11
571.08299391850551
 21
407.0
 31
0.0
 73
     2
  0
TEXT
  5
C5D
  8
FRAME_025
 10
555.36099797283521
 20
405.75
 30
0.0
 40
2.5
  1
Signature
  7
ISO_PROPORTIONAL
 11
555.36099797283521
 21
407.0
 31
0.0
 73
     2
  0
TEXT
  5
C5E
  8
FRAME_025
 10
537.0
 20
405.75
 30
0.0
 40
2.5
  1
Date
  7
ISO_PROPORTIONAL
 11
537.0
 21
407.0
 31
0.0
 73
     2
  0
LINE
  5
C5F
  8
FRAME_070
 10
570.0
 20
404.0
 30
0.0
 11
570.0
 21
410.0
 31
0.0
  0
LINE
  5
C60
  8
FRAME_070
 10
555.0
 20
404.0
 30
0.0
 11
555.0
 21
410.0
 31
0.0
  0
LINE
  5
C61
  8
FRAME_070
 10
535.0
 20
404.0
 30
0.0
 11
535.0
 21
410.0
 31
0.0
  0
LINE
  5
C62
  8
FRAME_050
 10
512.25
 20
410.0
 30
0.0
 11
512.25
 21
415.0
 31
0.0
  0
TEXT
  5
C63
  8
FRAME_050
 10
546.72499999999991
 20
410.5
 30
0.0
 40
4.0
  1
8
  7
ISO_PROPORTIONAL
 72
     4
 11
548.125
 21
412.5
 31
0.0
  0
LINE
  5
C64
  8
FRAME_050
 10
589.0
 20
360.0
 30
0.0
 11
584.0
 21
360.0
 31
0.0
  0
TEXT
  5
C65
  8
FRAME_050
 10
584.70000000000005
 20
385.0
 30
0.0
 40
4.0
  1
A
  7
ISO_PROPORTIONAL
 72
     4
 11
586.5
 21
387.0
 31
0.0
  0
LINE
  5
C66
  8
FRAME_200
 10
594.0
 20
420.0
 30
0.0
 11
584.0
 21
420.0
 31
0.0
  0
LINE
  5
C67
  8
FRAME_200
 10
594.0
 20
410.0
 30
0.0
 11
594.0
 21
420.0
 31
0.0
  0
ENDBLK
  5
C69
  8
0
  0
BLOCK
  8
0
  2
WOBB001END
 70
     0
 10
0.0
 20
0.0
 30
0.0
  3
WOBB001END
  1

  0
LINE
  5
4D66
  8
0
  6
CONTINUOUS
 10
0.0
 20
0.0
 30
0.0
 11
0.8749999999999998
 21
0.0
 31
0.0
  0
ARC
  5
4D67
  8
0
  6
CONTINUOUS
 10
0.0331648379439287
 20
-0.5087238935900234
 30
0.0
 40
0.8790130605592325
 50
284.06490243660443
 51
312.19222981924361
  0
ARC
  5
4D68
  8
0
  6
CONTINUOUS
 10
0.2841534338796767
 20
-1.510548310625538
 30
0.0
 40
0.1537731892806598
 50
104.0649024366044
 51
179.4721730735024
  0
LINE
  5
4D69
  8
0
  6
CONTINUOUS
 10
0.0
 20
0.0
 30
0.0
 11
-0.0000000000000003
 21
-1.7501564476661911
 31
0.0
  0
ARC
  5
4D6A
  8
0
  6
CONTINUOUS
 10
0.1404622019506122
 20
-1.630313718354619
 30
0.0
 40
0.1198427293115722
 50
275.0
 51
85.000000000000057
  0
LINE
  5
4D6B
  8
0
  6
CONTINUOUS
 10
-0.0000000000000003
 20
-1.7501564476661911
 30
0.0
 11
0.1456946485130855
 21
-1.7501564476661911
 31
0.0
  0
LINE
  5
4D6C
  8
0
  6
CONTINUOUS
 10
0.1377603739254348
 20
-1.7508506067459131
 30
0.0
 11
0.150907184036669
 21
-1.7497004098996509
 31
0.0
  0
LINE
  5
4D6D
  8
0
  6
CONTINUOUS
 10
0.1303867696719884
 20
-1.5091317231818231
 30
0.0
 11
0.1509071840366689
 21
-1.510927026809586
 31
0.0
  0
LINE
  5
4D6E
  8
0
  6
CONTINUOUS
 10
0.8749999999999998
 20
0.0
 30
0.0
 11
0.8749999999999996
 21
-0.8649327026588228
 31
0.0
  0
LINE
  5
4D6F
  8
0
  6
CONTINUOUS
 10
0.727014513830997
 20
-0.872688293355061
 30
0.0
 11
0.727014513830997
 21
-0.9264923397184784
 31
0.0
  0
ARC
  5
4D70
  8
0
  6
CONTINUOUS
 10
0.41187090827646
 20
-0.9264923397184784
 30
0.0
 40
0.3151436055545369
 50
312.19222981924361
 51
0.0
  0
LINE
  5
4D71
  8
0
  6
CONTINUOUS
 10
0.727014513830997
 20
-0.872688293355061
 30
0.0
 11
0.8749999999999996
 21
-0.8649327026588228
 31
0.0
  0
ENDBLK
  5
4D72
  8
0
  0
BLOCK
  8
0
  2
A$C0A61123B
 70
     0
 10
0.0
 20
0.0
 30
0.0
  3
A$C0A61123B
  1

  0
LINE
  5
C0AD
  8
PROF
  6
CONTINUOUS
 10
4.9012016798694162
 20
13.325025853350891
 30
0.0000000000000002
 11
4.9012016798694162
 21
12.88585218805485
 31
0.0000000000000003
  0
INSERT
  5
C0AE
  8
0
  2
*U7
 10
0.0
 20
0.0
 30
0.0
  0
LINE
  5
C0AF
  8
PROF
 10
4.519857503186925
 20
12.72227734589444
 30
0.0000000000000001
 11
4.519857503186925
 21
12.88585218805485
 31
0.0000000000000001
  0
LINE
  5
C0B0
  8
PROF
  6
CONTINUOUS
 10
3.6306271195888362
 20
13.325025853350891
 30
0.0000000000000002
 11
4.9012016798694162
 21
13.325025853350891
 31
0.0000000000000002
  0
LINE
  5
C0B1
  8
PROF
 10
1.9750295148747341
 20
10.37671325491794
 30
0.0000000000000002
 11
1.9750295148747341
 21
10.11391186758919
 31
0.0000000000000002
  0
LINE
  5
C0B2
  8
PROF
 10
1.6079673357556299
 20
10.11391186758919
 30
0.0000000000000001
 11
1.9750295148747341
 21
10.11391186758919
 31
0.0000000000000001
  0
LINE
  5
C0B3
  8
PROF
 10
1.9750295148747341
 20
10.11391186758919
 30
0.0000000000000001
 11
1.944958486898144
 21
10.11391186758919
 31
0.0000000000000001
  0
LINE
  5
C0B4
  8
PROF
 10
1.9750295148747341
 20
10.11391186758919
 30
0.0000000000000001
 11
1.944958486898144
 21
10.11391186758919
 31
0.0000000000000001
  0
LINE
  5
C0B5
  8
PROF
 10
0.3222605517169654
 20
7.5247473351056451
 30
-0.0000000000000002
 11
-0.0000008570117416
 21
7.5247473351056451
 31
0.0
  0
LINE
  5
C0B6
  8
PROF
 10
-0.0000008570117416
 20
7.5247473351056451
 30
0.0
 11
-0.0000008570117416
 21
9.1943336957369848
 31
0.0
  0
POLYLINE
  5
C0B7
  8
PROF
 66
     1
 10
0.0
 20
0.0
 30
0.0000000000000001
 70
     4
 75
     6
  0
VERTEX
  5
C0B8
  8
PROF
 10
1.6079673357556299
 20
10.11391186758919
 30
0.0000000000000001
 70
    16
  0
VERTEX
  5
C0B9
  8
PROF
 10
1.6079673357556299
 20
10.11391186758919
 30
0.0000000000000001
 70
     8
  0
VERTEX
  5
C0BA
  8
PROF
 10
1.6468132326485809
 20
10.02198069336111
 30
0.0000000000000001
 70
     8
  0
VERTEX
  5
C0BB
  8
PROF
 10
1.67335966680929
 20
9.9344134163010231
 30
0.0000000000000001
 70
     8
  0
VERTEX
  5
C0BC
  8
PROF
 10
1.6890086400463229
 20
9.8512576644480951
 30
0.0000000000000001
 70
     8
  0
VERTEX
  5
C0BD
  8
PROF
 10
1.6951621541682571
 20
9.7725610658417281
 30
0.0000000000000001
 70
     8
  0
VERTEX
  5
C0BE
  8
PROF
 10
1.693222210983605
 20
9.6983712485214237
 30
0.0000000000000001
 70
     8
  0
VERTEX
  5
C0BF
  8
PROF
 10
1.6845908123009961
 20
9.6287358405263603
 30
0.0000000000000001
 70
     8
  0
VERTEX
  5
C0C0
  8
PROF
 10
1.670669959928885
 20
9.5637024698960431
 30
0.0000000000000001
 70
     8
  0
VERTEX
  5
C0C1
  8
PROF
 10
1.6528616556759621
 20
9.5033187646697552
 30
0.0000000000000001
 70
     8
  0
VERTEX
  5
C0C2
  8
PROF
 10
1.632356299273054
 20
9.4475843259650691
 30
0.0000000000000001
 70
     8
  0
VERTEX
  5
C0C3
  8
PROF
 10
1.609497882140658
 20
9.3963066472123273
 30
0.0000000000000001
 70
     8
  0
VERTEX
  5
C0C4
  8
PROF
 10
1.584418793621637
 20
9.3492451949202842
 30
0.0000000000000001
 70
     8
  0
VERTEX
  5
C0C5
  8
PROF
 10
1.5572514230587431
 20
9.3061594355972357
 30
0.0000000000000001
 70
     8
  0
VERTEX
  5
C0C6
  8
PROF
 10
1.5281281597949601
 20
9.2668088357519274
 30
0.0000000000000001
 70
     8
  0
VERTEX
  5
C0C7
  8
PROF
 10
1.497181393172978
 20
9.2309528618929981
 30
0.0000000000000001
 70
     8
  0
VERTEX
  5
C0C8
  8
PROF
 10
1.4645435125357249
 20
9.1983509805288541
 30
0.0000000000000001
 70
     8
  0
VERTEX
  5
C0C9
  8
PROF
 10
1.4303469072260091
 20
9.1687626581682462
 30
0.0000000000000001
 70
     8
  0
VERTEX
  5
C0CA
  8
PROF
 10
1.394736033257401
 20
9.1419547918675335
 30
0.0000000000000001
 70
     8
  0
VERTEX
  5
C0CB
  8
PROF
 10
1.3579036133264131
 20
9.1177240008747713
 30
0.0000000000000001
 70
     8
  0
VERTEX
  5
C0CC
  8
PROF
 10
1.3200544368004321
 20
9.0958743349860924
 30
0.0000000000000001
 70
     8
  0
VERTEX
  5
C0CD
  8
PROF
 10
1.281393293046676
 20
9.0762098439975034
 30
0.0000000000000001
 70
     8
  0
VERTEX
  5
C0CE
  8
PROF
 10
1.2421249714324161
 20
9.0585345777049042
 30
0.0000000000000001
 70
     8
  0
VERTEX
  5
C0CF
  8
PROF
 10
1.202454261324986
 20
9.0426525859044187
 30
0.0000000000000001
 70
     8
  0
VERTEX
  5
C0D0
  8
PROF
 10
1.162585952091659
 20
9.0283679183919503
 30
0.0000000000000001
 70
     8
  0
VERTEX
  5
C0D1
  8
PROF
 10
1.1227248330997091
 20
9.0154846249635021
 30
0.0000000000000001
 70
     8
  0
VERTEX
  5
C0D2
  8
PROF
 10
1.0829726247361
 20
9.0034643862466055
 30
0.0000000000000001
 70
     8
  0
VERTEX
  5
C0D3
  8
PROF
 10
1.043018771466222
 20
8.9903994061946833
 30
0.0000000000000001
 70
     8
  0
VERTEX
  5
C0D4
  8
PROF
 10
1.002449648775211
 20
8.9740395195925622
 30
0.0000000000000001
 70
     8
  0
VERTEX
  5
C0D5
  8
PROF
 10
0.9608516321480919
 20
8.9521345612251935
 30
0.0000000000000001
 70
     8
  0
VERTEX
  5
C0D6
  8
PROF
 10
0.9178110970699435
 20
8.9224343658775052
 30
0.0000000000000001
 70
     8
  0
VERTEX
  5
C0D7
  8
PROF
 10
0.8729144190259033
 20
8.8826887683343312
 30
0.0000000000000001
 70
     8
  0
VERTEX
  5
C0D8
  8
PROF
 10
0.8257479735009949
 20
8.8306476033806121
 30
0.0000000000000001
 70
     8
  0
VERTEX
  5
C0D9
  8
PROF
 10
0.7758981359802988
 20
8.764060705801171
 30
0.0000000000000001
 70
     8
  0
VERTEX
  5
C0DA
  8
PROF
 10
1.7292019016096549
 20
9.8629858761255491
 30
0.0000000000000001
 70
    16
  0
VERTEX
  5
C0DB
  8
PROF
 10
1.679373123114088
 20
9.4532143012734213
 30
0.0000000000000001
 70
    16
  0
VERTEX
  5
C0DC
  8
PROF
 10
1.4455611507419801
 20
9.1391837193732481
 30
0.0000000000000001
 70
    16
  0
VERTEX
  5
C0DD
  8
PROF
 10
1.1204637172738201
 20
9.0026267702428413
 30
0.0000000000000001
 70
    16
  0
VERTEX
  5
C0DE
  8
PROF
 10
0.9127765582653638
 20
8.9630202230383702
 30
0.0000000000000001
 70
    16
  0
VERTEX
  5
C0DF
  8
PROF
 10
0.7758981359802988
 20
8.764060705801171
 30
0.0000000000000001
 70
    16
  0
SEQEND
  5
C0E0
  8
PROF
  0
ARC
  5
C0E1
  8
PROF
 10
0.733429816733235
 20
8.4849506952165257
 30
0.0000000000000001
 40
0.2823224329524727
 50
269.73652020831901
 51
81.348449993176914
  0
LINE
  5
C0E2
  8
PROF
  6
CONTINUOUS
 10
-0.0000008570117416
 20
9.1943336957369848
 30
-0.0000000000000001
 11
3.6306271195888362
 21
13.325025853350891
 31
0.0000000000000002
  0
POLYLINE
  5
C0E3
  8
PROF
 66
     1
 10
0.0
 20
0.0
 30
0.0000000000000001
 70
     4
 75
     6
  0
VERTEX
  5
C0E4
  8
PROF
 10
4.519857503186925
 20
12.72227734589444
 30
0.0000000000000001
 70
    16
  0
VERTEX
  5
C0E5
  8
PROF
 10
4.519857503186925
 20
12.72227734589444
 30
0.0000000000000001
 70
     8
  0
VERTEX
  5
C0E6
  8
PROF
 10
4.4467035366886289
 20
12.741128108778071
 30
0.0000000000000001
 70
     8
  0
VERTEX
  5
C0E7
  8
PROF
 10
4.3786645761268801
 20
12.754675269913941
 30
0.0000000000000001
 70
     8
  0
VERTEX
  5
C0E8
  8
PROF
 10
4.3154364111440469
 20
12.76334314092332
 30
0.0000000000000001
 70
     8
  0
VERTEX
  5
C0E9
  8
PROF
 10
4.256714831382566
 20
12.76755603342724
 30
0.0000000000000001
 70
     8
  0
VERTEX
  5
C0EA
  8
PROF
 10
4.2021956264849791
 20
12.76773825904672
 30
0.0000000000000001
 70
     8
  0
VERTEX
  5
C0EB
  8
PROF
 10
4.1515745860935436
 20
12.764314129403139
 30
0.0000000000000001
 70
     8
  0
VERTEX
  5
C0EC
  8
PROF
 10
4.1045474998508649
 20
12.75770795611743
 30
0.0000000000000001
 70
     8
  0
VERTEX
  5
C0ED
  8
PROF
 10
4.0608101573993149
 20
12.748344050810831
 30
0.0000000000000001
 70
     8
  0
VERTEX
  5
C0EE
  8
PROF
 10
4.0200583483813261
 20
12.736646725104491
 30
0.0000000000000001
 70
     8
  0
VERTEX
  5
C0EF
  8
PROF
 10
3.981987862439381
 20
12.72304029061945
 30
0.0000000000000001
 70
     8
  0
VERTEX
  5
C0F0
  8
PROF
 10
3.946294489215858
 20
12.707949058976959
 30
0.0000000000000001
 70
     8
  0
VERTEX
  5
C0F1
  8
PROF
 10
3.912674018353242
 20
12.691797341798059
 30
0.0000000000000001
 70
     8
  0
VERTEX
  5
C0F2
  8
PROF
 10
3.8808638350742499
 20
12.67494295718654
 30
0.0000000000000001
 70
     8
  0
VERTEX
  5
C0F3
  8
PROF
 10
3.850767706922738
 20
12.65747774917668
 30
0.0000000000000001
 70
     8
  0
VERTEX
  5
C0F4
  8
PROF
 10
3.8223309970228438
 20
12.639427068285499
 30
0.0000000000000001
 70
     8
  0
VERTEX
  5
C0F5
  8
PROF
 10
3.795499068498712
 20
12.62081626503004
 30
0.0000000000000001
 70
     8
  0
VERTEX
  5
C0F6
  8
PROF
 10
3.7702172844744819
 20
12.601670689926999
 30
0.0000000000000001
 70
     8
  0
VERTEX
  5
C0F7
  8
PROF
 10
3.7464310080743521
 20
12.58201569349364
 30
0.0000000000000001
 70
     8
  0
VERTEX
  5
C0F8
  8
PROF
 10
3.7240856024224609
 20
12.56187662624666
 30
0.0000000000000001
 70
     8
  0
VERTEX
  5
C0F9
  8
PROF
 10
3.7031264306428961
 20
12.541278838703191
 30
0.0000000000000001
 70
     8
  0
VERTEX
  5
C0FA
  8
PROF
 10
3.683498855859908
 20
12.520247681380051
 30
0.0000000000000001
 70
     8
  0
VERTEX
  5
C0FB
  8
PROF
 10
3.665148241197528
 20
12.49880850479428
 30
0.0000000000000001
 70
     8
  0
VERTEX
  5
C0FC
  8
PROF
 10
3.648019949779949
 20
12.47698665946279
 30
0.0000000000000001
 70
     8
  0
VERTEX
  5
C0FD
  8
PROF
 10
3.6320593447313159
 20
12.45480749590263
 30
0.0000000000000001
 70
     8
  0
VERTEX
  5
C0FE
  8
PROF
 10
3.617189584886658
 20
12.43223790353807
 30
0.0000000000000001
 70
     8
  0
VERTEX
  5
C0FF
  8
PROF
 10
3.6032450119242849
 20
12.40901092742285
 30
0.0000000000000001
 70
     8
  0
VERTEX
  5
C100
  8
PROF
 10
3.590037763233453
 20
12.38480115151844
 30
0.0000000000000001
 70
     8
  0
VERTEX
  5
C101
  8
PROF
 10
3.5773799762033032
 20
12.35928315978594
 30
0.0000000000000001
 70
     8
  0
VERTEX
  5
C102
  8
PROF
 10
3.5650837882230899
 20
12.33213153618658
 30
0.0000000000000001
 70
     8
  0
VERTEX
  5
C103
  8
PROF
 10
3.552961336681959
 20
12.303020864681571
 30
0.0000000000000001
 70
     8
  0
VERTEX
  5
C104
  8
PROF
 10
3.540824758969165
 20
12.271625729232371
 30
0.0000000000000001
 70
     8
  0
VERTEX
  5
C105
  8
PROF
 10
3.528486192473848
 20
12.23762071379997
 30
0.0000000000000001
 70
     8
  0
VERTEX
  5
C106
  8
PROF
 10
3.5157577745852659
 20
12.200680402345711
 30
0.0000000000000001
 70
     8
  0
VERTEX
  5
C107
  8
PROF
 10
3.502451642692618
 20
12.16047937883093
 30
0.0000000000000001
 70
     8
  0
VERTEX
  5
C108
  8
PROF
 10
3.4883799341851041
 20
12.116692227216619
 30
0.0000000000000001
 70
     8
  0
VERTEX
  5
C109
  8
PROF
 10
3.4733547864519201
 20
12.06899353146423
 30
0.0000000000000001
 70
     8
  0
VERTEX
  5
C10A
  8
PROF
 10
3.45723654619428
 20
12.0172095445447
 30
0.0000000000000001
 70
     8
  0
VERTEX
  5
C10B
  8
PROF
 10
3.440078397361388
 20
11.961773195467799
 30
0.0000000000000001
 70
     8
  0
VERTEX
  5
C10C
  8
PROF
 10
3.4219817332145781
 20
11.90326908225302
 30
0.0000000000000001
 70
     8
  0
VERTEX
  5
C10D
  8
PROF
 10
3.4030479470150099
 20
11.842281802919951
 30
0.0000000000000001
 70
     8
  0
VERTEX
  5
C10E
  8
PROF
 10
3.383378432024017
 20
11.779395955487979
 30
0.0000000000000001
 70
     8
  0
VERTEX
  5
C10F
  8
PROF
 10
3.36307458150287
 20
11.7151961379768
 30
0.0000000000000001
 70
     8
  0
VERTEX
  5
C110
  8
PROF
 10
3.342237788712735
 20
11.650266948405831
 30
0.0000000000000001
 70
     8
  0
VERTEX
  5
C111
  8
PROF
 10
3.3209694469149991
 20
11.58519298479461
 30
0.0000000000000001
 70
     8
  0
VERTEX
  5
C112
  8
PROF
 10
3.299370949370767
 20
11.52055884516254
 30
0.0000000000000001
 70
     8
  0
VERTEX
  5
C113
  8
PROF
 10
3.277543689341428
 20
11.456949127529461
 30
0.0000000000000001
 70
     8
  0
VERTEX
  5
C114
  8
PROF
 10
3.2555890600881399
 20
11.3949484299145
 30
0.0000000000000001
 70
     8
  0
VERTEX
  5
C115
  8
PROF
 10
3.2336084548721811
 20
11.335141350337491
 30
0.0000000000000001
 70
     8
  0
VERTEX
  5
C116
  8
PROF
 10
3.2116715641212181
 20
11.277995447977769
 30
0.0000000000000001
 70
     8
  0
VERTEX
  5
C117
  8
PROF
 10
3.1897212669278461
 20
11.22351012665467
 30
0.0000000000000001
 70
     8
  0
VERTEX
  5
C118
  8
PROF
 10
3.1676687395512881
 20
11.17156775134765
 30
0.0000000000000001
 70
     8
  0
VERTEX
  5
C119
  8
PROF
 10
3.1454251582505321
 20
11.12205068703588
 30
0.0000000000000001
 70
     8
  0
VERTEX
  5
C11A
  8
PROF
 10
3.122901699284625
 20
11.07484129869874
 30
0.0000000000000001
 70
     8
  0
VERTEX
  5
C11B
  8
PROF
 10
3.1000095389127278
 20
11.02982195131551
 30
0.0000000000000001
 70
     8
  0
VERTEX
  5
C11C
  8
PROF
 10
3.07665985339389
 20
10.986875009865679
 30
0.0000000000000001
 70
     8
  0
VERTEX
  5
C11D
  8
PROF
 10
3.0527638189871591
 20
10.9458828393283
 30
0.0000000000000001
 70
     8
  0
VERTEX
  5
C11E
  8
PROF
 10
3.0282326119516361
 20
10.90672780468298
 30
0.0000000000000001
 70
     8
  0
VERTEX
  5
C11F
  8
PROF
 10
3.0029774085463701
 20
10.869292270908771
 30
0.0000000000000001
 70
     8
  0
VERTEX
  5
C120
  8
PROF
 10
2.9769093850304089
 20
10.833458602985161
 30
0.0000000000000001
 70
     8
  0
VERTEX
  5
C121
  8
PROF
 10
2.9499397176628559
 20
10.799109165891419
 30
0.0000000000000001
 70
     8
  0
VERTEX
  5
C122
  8
PROF
 10
2.922000609840437
 20
10.76614363969508
 30
0.0000000000000001
 70
     8
  0
VERTEX
  5
C123
  8
PROF
 10
2.8931083735102998
 20
10.7345309648158
 30
0.0000000000000001
 70
     8
  0
VERTEX
  5
C124
  8
PROF
 10
2.8633003477572729
 20
10.70425739676193
 30
0.0000000000000001
 70
     8
  0
VERTEX
  5
C125
  8
PROF
 10
2.8326138716660689
 20
10.67530919104115
 30
0.0000000000000001
 70
     8
  0
VERTEX
  5
C126
  8
PROF
 10
2.801086284321626
 20
10.647672603161711
 30
0.0000000000000001
 70
     8
  0
VERTEX
  5
C127
  8
PROF
 10
2.7687549248087162
 20
10.62133388863162
 30
0.0000000000000001
 70
     8
  0
VERTEX
  5
C128
  8
PROF
 10
2.7356571322120531
 20
10.5962793029588
 30
0.0000000000000001
 70
     8
  0
VERTEX
  5
C129
  8
PROF
 10
2.7018302456165202
 20
10.572495101651381
 30
0.0000000000000001
 70
     8
  0
VERTEX
  5
C12A
  8
PROF
 10
2.6673116041068838
 20
10.54996754021726
 30
0.0000000000000001
 70
     8
  0
VERTEX
  5
C12B
  8
PROF
 10
2.6321385467680321
 20
10.528682874164581
 30
0.0000000000000001
 70
     8
  0
VERTEX
  5
C12C
  8
PROF
 10
2.5963484126846179
 20
10.508627359001251
 30
0.0000000000000001
 70
     8
  0
VERTEX
  5
C12D
  8
PROF
 10
2.5599785409415841
 20
10.489787250235279
 30
0.0000000000000001
 70
     8
  0
VERTEX
  5
C12E
  8
PROF
 10
2.522998630314361
 20
10.472162234281081
 30
0.0000000000000001
 70
     8
  0
VERTEX
  5
C12F
  8
PROF
 10
2.4851078183409072
 20
10.455805721177621
 30
0.0000000000000001
 70
     8
  0
VERTEX
  5
C130
  8
PROF
 10
2.4459376022498982
 20
10.44078455187036
 30
0.0000000000000001
 70
     8
  0
VERTEX
  5
C131
  8
PROF
 10
2.4051194792701249
 20
10.42716556730465
 30
0.0000000000000001
 70
     8
  0
VERTEX
  5
C132
  8
PROF
 10
2.3622849466301541
 20
10.415015608425851
 30
0.0000000000000001
 70
     8
  0
VERTEX
  5
C133
  8
PROF
 10
2.317065501558714
 20
10.40440151617929
 30
0.0000000000000001
 70
     8
  0
VERTEX
  5
C134
  8
PROF
 10
2.2690926412844301
 20
10.395390131510339
 30
0.0000000000000001
 70
     8
  0
VERTEX
  5
C135
  8
PROF
 10
2.2179978630360879
 20
10.388048295364451
 30
0.0000000000000001
 70
     8
  0
VERTEX
  5
C136
  8
PROF
 10
2.1634126640422551
 20
10.38244284868688
 30
0.0000000000000001
 70
     8
  0
VERTEX
  5
C137
  8
PROF
 10
2.1049685415316031
 20
10.37864063242295
 30
0.0000000000000001
 70
     8
  0
VERTEX
  5
C138
  8
PROF
 10
2.0422969927328709
 20
10.37670848751816
 30
0.0000000000000001
 70
     8
  0
VERTEX
  5
C139
  8
PROF
 10
1.9750295148747341
 20
10.37671325491794
 30
0.0000000000000001
 70
     8
  0
VERTEX
  5
C13A
  8
PROF
 10
4.2166060115107484
 20
12.80885334975255
 30
0.0000000000000001
 70
    16
  0
VERTEX
  5
C13B
  8
PROF
 10
3.8702254102732909
 20
12.707065515763929
 30
0.0000000000000001
 70
    16
  0
VERTEX
  5
C13C
  8
PROF
 10
3.605346156896871
 20
12.46277472098552
 30
0.0000000000000001
 70
    16
  0
VERTEX
  5
C13D
  8
PROF
 10
3.500746030527238
 20
12.170680575709749
 30
0.0000000000000001
 70
    16
  0
VERTEX
  5
C13E
  8
PROF
 10
3.231798439705698
 20
11.26846416496107
 30
0.0000000000000001
 70
    16
  0
VERTEX
  5
C13F
  8
PROF
 10
2.9737109398832882
 20
10.76631086647069
 30
0.0000000000000001
 70
    16
  0
VERTEX
  5
C140
  8
PROF
 10
2.5729961067384002
 20
10.460947364504699
 30
0.0000000000000001
 70
    16
  0
VERTEX
  5
C141
  8
PROF
 10
2.2537826214546031
 20
10.372731239449759
 30
0.0000000000000001
 70
    16
  0
VERTEX
  5
C142
  8
PROF
 10
1.9750295148747341
 20
10.37671325491794
 30
0.0000000000000001
 70
    16
  0
SEQEND
  5
C143
  8
PROF
  0
LINE
  5
C144
  8
PROF
 10
4.9012016798694162
 20
12.88585218805485
 30
0.0000000000000003
 11
4.519857503186925
 21
12.88585218805485
 31
0.0000000000000003
  0
LINE
  5
C145
  8
PROF
 10
0.7321315362267457
 20
8.2026312473991556
 30
0.0000000000000006
 11
0.7321315362267457
 21
8.0511853963434952
 31
0.0000000000000006
  0
ARC
  5
C146
  8
PROF
 10
0.7977322214551919
 20
7.577333933202679
 30
0.0000000000000006
 40
0.4783708383912013
 50
97.882010168942557
 51
186.31119505698641
  0
LINE
  5
C147
  8
FRAME_050
 10
7.8016377197432121
 20
17.99371054969447
 30
0.0
 11
7.8016377197432121
 21
0.0000000000002274
 31
0.0
  0
ENDBLK
  5
C149
  8
0
  0
BLOCK
  8
0
  2
*U7
 70
     1
 10
0.0
 20
0.0
 30
0.0
  3
*U7
  1

  0
TEXT
  5
C8C3
  8
0
 10
3.5177832928899071
 20
10.38601584255777
 30
0.0
 40
0.125
  1
Crown Moulding
  0
TEXT
  5
C8C4
  8
0
 10
3.5223876585106431
 20
10.17717091304435
 30
0.0
 40
0.125
  1
TL-AB509
  0
TEXT
  5
C8C5
  8
0
 10
3.5074661032582561
 20
9.9667059289606801
 30
0.0
 40
0.125
  1
1-5/16" x 7-9/16"
  0
TEXT
  5
C8C6
  8
0
 10
3.519403347460166
 20
9.7562409448770051
 30
0.0
 40
0.125
  1
800.66.TAGUE
  0
ENDBLK
  5
C8C8
  8
0
  0
BLOCK
  8
0
  2
*U8
 70
     1
 10
0.0
 20
0.0
 30
0.0
  3
*U8
  1

  0
TEXT
  5
C8CA
  8
0
 10
5.3066868277875692
 20
1.767659498411035
 30
0.0
 40
0.125
  1
Back Band
  0
TEXT
  5
C8CB
  8
0
 10
5.3153839628489603
 20
1.55881456889762
 30
0.0
 40
0.125
  1
TL-1
  0
TEXT
  5
C8CC
  8
0
 10
5.3004624075965721
 20
1.3483495848139451
 30
0.0
 40
0.125
  1
1-3/8" x 1-9/16"
  0
TEXT
  5
C8CD
  8
0
 10
5.3123996517984811
 20
1.1378846007302701
 30
0.0
 40
0.125
  1
800.66.TAGUE
  0
ENDBLK
  5
C8CF
  8
0
  0
BLOCK
  8
0
  2
*U9
 70
     1
 10
0.0
 20
0.0
 30
0.0
  3
*U9
  1

  0
TEXT
  5
C8D1
  8
0
 10
-385.7580743253551
 20
838.2627455404056
 30
0.0
 40
0.125
  1
Back Band
  0
TEXT
  5
C8D2
  8
0
 10
-385.74937719029373
 20
838.05390061089247
 30
0.0
 40
0.125
  1
TL-1
  0
TEXT
  5
C8D3
  8
0
 10
-385.76429874554611
 20
837.84343562680851
 30
0.0
 40
0.125
  1
1-3/8" x 1-9/16"
  0
TEXT
  5
C8D4
  8
0
 10
-385.75236150134418
 20
837.63297064272513
 30
0.0
 40
0.125
  1
800.66.TAGUE
  0
ENDBLK
  5
C8D6
  8
0
  0
BLOCK
  8
0
  2
*D21
 70
     1
 10
0.0
 20
0.0
 30
0.0
  3
*D21
  1

  0
LINE
  5
CDAB
  8
0
 62
     0
 10
-346.64573732984462
 20
509.42191863586828
 30
0.0
 11
-346.03266106471222
 21
509.42191863586828
 31
0.0
  0
LINE
  5
CDAC
  8
0
 62
     0
 10
-347.59461414974379
 20
507.61166709199199
 30
0.0
 11
-346.03266106471222
 21
507.61166709199199
 31
0.0
  0
LINE
  5
CDAD
  8
0
 62
     0
 10
-346.09516106471222
 20
509.42191863586828
 30
0.0
 11
-346.09516106471222
 21
507.61166709199199
 31
0.0
  0
INSERT
  5
CDAE
  8
0
 62
     0
  2
_ARCHTICK
 10
-346.09516106471222
 20
509.42191863586828
 30
0.0
 41
0.046875
 42
0.046875
 43
0.046875
 50
90.0
  0
INSERT
  5
CDAF
  8
0
 62
     0
  2
_ARCHTICK
 10
-346.09516106471222
 20
507.61166709199199
 30
0.0
 41
0.046875
 42
0.046875
 43
0.046875
 50
270.0
  0
INSERT
  5
CDB0
  8
0
  2
*U75
 10
0.0
 20
0.0
 30
0.0
  0
POINT
  5
CDB1
  8
DEFPOINTS
 62
     0
 10
-346.73948732984462
 20
509.42191863586828
 30
0.0
  0
POINT
  5
CDB2
  8
DEFPOINTS
 62
     0
 10
-347.68836414974379
 20
507.61166709199199
 30
0.0
  0
POINT
  5
CDB3
  8
DEFPOINTS
 62
     0
 10
-346.09516106471222
 20
507.61166709199199
 30
0.0
  0
ENDBLK
  5
CDB4
  8
0
  0
BLOCK
  8
0
  2
*D23
 70
     1
 10
0.0
 20
0.0
 30
0.0
  3
*D23
  1

  0
LINE
  5
CDEB
  8
0
 62
     0
 10
-387.02714157709249
 20
839.57969957928674
 30
0.0
 11
-386.41406531196009
 21
839.57969957928674
 31
0.0
  0
LINE
  5
CDEC
  8
0
 62
     0
 10
-387.97601839699172
 20
837.76944803541039
 30
0.0
 11
-386.41406531196009
 21
837.76944803541039
 31
0.0
  0
LINE
  5
CDED
  8
0
 62
     0
 10
-386.47656531196009
 20
839.57969957928674
 30
0.0
 11
-386.47656531196009
 21
837.76944803541039
 31
0.0
  0
INSERT
  5
CDEE
  8
0
 62
     0
  2
_ARCHTICK
 10
-386.47656531196009
 20
839.57969957928674
 30
0.0
 41
0.046875
 42
0.046875
 43
0.046875
 50
90.0
  0
INSERT
  5
CDEF
  8
0
 62
     0
  2
_ARCHTICK
 10
-386.47656531196009
 20
837.76944803541039
 30
0.0
 41
0.046875
 42
0.046875
 43
0.046875
 50
270.0
  0
INSERT
  5
CDF0
  8
0
  2
*U77
 10
0.0
 20
0.0
 30
0.0
  0
POINT
  5
CDF1
  8
DEFPOINTS
 62
     0
 10
-387.12089157709249
 20
839.57969957928674
 30
0.0
  0
POINT
  5
CDF2
  8
DEFPOINTS
 62
     0
 10
-388.06976839699172
 20
837.76944803541039
 30
0.0
  0
POINT
  5
CDF3
  8
DEFPOINTS
 62
     0
 10
-386.47656531196009
 20
837.76944803541039
 30
0.0
  0
ENDBLK
  5
CDEA
  8
0
  0
BLOCK
  8
0
  2
*U64
 70
     1
 10
0.0
 20
0.0
 30
0.0
  3
*U64
  1

  0
TEXT
  5
F7F4
  8
0
 10
2.0520856342580478
 20
1.4053520973297959
 30
0.0
 40
0.125
  1
Exterior Casing
  0
TEXT
  5
F7F5
  8
0
 10
2.0520856342580478
 20
1.1970187639964629
 30
0.0
 40
0.125
  1
TL-180
  0
TEXT
  5
F7F6
  8
0
 10
2.0520856342580478
 20
0.9886854306631298
 30
0.0
 40
0.125
  1
1-1/4" x 2"
  0
TEXT
  5
F7F7
  8
0
 10
2.0520856342580478
 20
0.7803520973297964
 30
0.0
 40
0.125
  1
800.66.TAGUE
  0
ENDBLK
  5
F7F9
  8
0
  0
BLOCK
  8
0
  2
*U65
 70
     1
 10
0.0
 20
0.0
 30
0.0
  3
*U65
  1

  0
TEXT
  5
F7FB
  8
0
 10
1.875832532300876
 20
1.1538771312937111
 30
0.0
 40
0.125
  1
Exterior Casing
  0
TEXT
  5
F7FC
  8
0
 10
1.875832532300876
 20
0.9455437979603782
 30
0.0
 40
0.125
  1
TL-544
  0
TEXT
  5
F7FD
  8
0
 10
1.875832532300876
 20
0.7372104646270449
 30
0.0
 40
0.125
  1
1-1/8" x 1-9/16"
  0
TEXT
  5
F7FE
  8
0
 10
1.875832532300876
 20
0.5288771312937115
 30
0.0
 40
0.125
  1
800.66.TAGUE
  0
ENDBLK
  5
F800
  8
0
  0
BLOCK
  8
0
  2
*U66
 70
     1
 10
0.0
 20
0.0
 30
0.0
  3
*U66
  1

  0
TEXT
  5
F802
  8
0
 10
2.2653468102219558
 20
1.612015904330746
 30
0.0
 40
0.125
  1
Exterior Casing
  0
TEXT
  5
F803
  8
0
 10
2.2653468102219558
 20
1.403682570997413
 30
0.0
 40
0.125
  1
TL-2023
  0
TEXT
  5
F804
  8
0
 10
2.2653468102219558
 20
1.19534923766408
 30
0.0
 40
0.125
  1
1-13/16" x 3" 
  0
TEXT
  5
F805
  8
0
 10
2.2653468102219558
 20
0.9870159043307467
 30
0.0
 40
0.125
  1
800.66.TAGUE
  0
ENDBLK
  5
F807
  8
0
  0
BLOCK
  8
0
  2
*U67
 70
     1
 10
0.0
 20
0.0
 30
0.0
  3
*U67
  1

  0
TEXT
  5
F809
  8
0
 10
2.0898675486657221
 20
0.9145072342178082
 30
0.0
 40
0.125
  1
Exterior Casing
  0
TEXT
  5
F80A
  8
0
 10
2.0898675486657221
 20
0.706173900884475
 30
0.0
 40
0.125
  1
TL-2087
  0
TEXT
  5
F80B
  8
0
 10
2.0898675486657221
 20
0.4978405675511416
 30
0.0
 40
0.125
  1
7/8" x 1-7/16"
  0
TEXT
  5
F80C
  8
0
 10
2.0898675486657221
 20
0.2895072342178082
 30
0.0
 40
0.125
  1
800.66.TAGUE
  0
ENDBLK
  5
F80E
  8
0
  0
BLOCK
  8
0
  2
*U68
 70
     1
 10
0.0
 20
0.0
 30
0.0
  3
*U68
  1

  0
TEXT
  5
F810
  8
0
 10
2.1806631076311191
 20
0.8419101546792263
 30
0.0
 40
0.125
  1
Exterior Casing
  0
TEXT
  5
F811
  8
0
 10
2.1806631076311191
 20
0.6335768213458931
 30
0.0
 40
0.125
  1
TL-2158
  0
TEXT
  5
F812
  8
0
 10
2.1806631076311191
 20
0.4252434880125597
 30
0.0
 40
0.125
  1
1-1/16" x 1-5/16"
  0
TEXT
  5
F813
  8
0
 10
2.1806631076311191
 20
0.2169101546792262
 30
0.0
 40
0.125
  1
800.66.TAGUE
  0
ENDBLK
  5
F815
  8
0
  0
BLOCK
  8
0
  2
*U69
 70
     1
 10
0.0
 20
0.0
 30
0.0
  3
*U69
  1

  0
TEXT
  5
F817
  8
0
 10
2.2408536425556909
 20
1.2992247915469759
 30
0.0
 40
0.125
  1
Exterior Casing
  0
TEXT
  5
F818
  8
0
 10
2.2408536425556909
 20
1.090891458213642
 30
0.0
 40
0.125
  1
TL-2174
  0
TEXT
  5
F819
  8
0
 10
2.2408536425556909
 20
0.8825581248803095
 30
0.0
 40
0.125
  1
1-3/8" x 1-7/16"
  0
TEXT
  5
F81A
  8
0
 10
2.2408536425556909
 20
0.6742247915469762
 30
0.0
 40
0.125
  1
800.66.TAGUE
  0
ENDBLK
  5
F81C
  8
0
  0
BLOCK
  8
0
  2
*U70
 70
     1
 10
0.0
 20
0.0
 30
0.0
  3
*U70
  1

  0
TEXT
  5
F81E
  8
0
 10
2.8048346441314029
 20
1.129982283289336
 30
0.0
 40
0.125
  1
Exterior Casing
  0
TEXT
  5
F81F
  8
0
 10
2.8048346441314029
 20
0.9216489499560037
 30
0.0
 40
0.125
  1
TL-2175
  0
TEXT
  5
F820
  8
0
 10
2.8048346441314029
 20
0.7133156166226704
 30
0.0
 40
0.125
  1
1-9/32" x 1-29/32"
  0
TEXT
  5
F821
  8
0
 10
2.8048346441314029
 20
0.504982283289337
 30
0.0
 40
0.125
  1
800.66.TAGUE
  0
ENDBLK
  5
F823
  8
0
  0
BLOCK
  8
0
  2
*U71
 70
     1
 10
0.0
 20
0.0
 30
0.0
  3
*U71
  1

  0
TEXT
  5
F825
  8
0
 10
2.5484960182450891
 20
0.679430053902138
 30
0.0
 40
0.125
  1
Exterior Casing
  0
TEXT
  5
F826
  8
0
 10
2.5484960182450891
 20
0.4710967205688046
 30
0.0
 40
0.125
  1
TL-2176
  0
TEXT
  5
F827
  8
0
 10
2.5484960182450891
 20
0.2627633872354712
 30
0.0
 40
0.125
  1
19/32" x 1-5/8"
  0
TEXT
  5
F828
  8
0
 10
2.5484960182450891
 20
0.0544300539021379
 30
0.0
 40
0.125
  1
800.66.TAGUE
  0
ENDBLK
  5
F82A
  8
0
  0
BLOCK
  8
0
  2
*U72
 70
     1
 10
0.0
 20
0.0
 30
0.0
  3
*U72
  1

  0
TEXT
  5
F82C
  8
0
 10
2.105732231568993
 20
0.7255830389262883
 30
0.0
 40
0.125
  1
Exterior Casing
  0
TEXT
  5
F82D
  8
0
 10
2.105732231568993
 20
0.5172497055929551
 30
0.0
 40
0.125
  1
TL-2108
  0
TEXT
  5
F82E
  8
0
 10
2.105732231568993
 20
0.3089163722596217
 30
0.0
 40
0.125
  1
15/16" x 1-1/16"
  0
TEXT
  5
F82F
  8
0
 10
2.105732231568993
 20
0.1005830389262883
 30
0.0
 40
0.125
  1
800.66.TAGUE
  0
ENDBLK
  5
F831
  8
0
  0
BLOCK
  8
0
  2
*U73
 70
     1
 10
0.0
 20
0.0
 30
0.0
  3
*U73
  1

  0
TEXT
  5
F833
  8
0
 10
0.0469294570366401
 20
0.67943073463357
 30
0.0
 40
0.125
  1
Exterior Casing
  0
TEXT
  5
F834
  8
0
 10
0.0469294570366401
 20
0.4710974013002366
 30
0.0
 40
0.125
  1
TL-2206
  0
TEXT
  5
F835
  8
0
 10
0.0469294570366401
 20
0.2627640679669033
 30
0.0
 40
0.125
  1
1-3/32" x 1-23/32"
  0
TEXT
  5
F836
  8
0
 10
0.0469294570366401
 20
0.05443073463357
 30
0.0
 40
0.125
  1
800.66.TAGUE
  0
ENDBLK
  5
F838
  8
0
  0
BLOCK
  8
0
  2
*U74
 70
     1
 10
0.0
 20
0.0
 30
0.0
  3
*U74
  1

  0
TEXT
  5
F83A
  8
0
 10
0.0449853036485593
 20
0.6794309447934666
 30
0.0
 40
0.125
  1
Exterior Casing
  0
TEXT
  5
F83B
  8
0
 10
0.0449853036485593
 20
0.4710976114601333
 30
0.0
 40
0.125
  1
TL-2207
  0
TEXT
  5
F83C
  8
0
 10
0.0449853036485593
 20
0.2627642781267999
 30
0.0
 40
0.125
  1
1-1/8" x 2-15/16"
  0
TEXT
  5
F83D
  8
0
 10
0.0449853036485593
 20
0.0544309447934666
 30
0.0
 40
0.125
  1
800.66.TAGUE
  0
ENDBLK
  5
F83F
  8
0
  0
BLOCK
  8
0
  2
*U75
 70
     1
 10
0.0
 20
0.0
 30
0.0
  3
*U75
  1

  0
TEXT
  5
F841
  8
0
 62
     0
 10
-346.15979271546257
 20
508.16262619726342
 30
0.0
 40
0.125
  1
Cutter
 50
90.0
  0
ENDBLK
  5
F843
  8
0
  0
BLOCK
  8
0
  2
*U76
 70
     1
 10
0.0
 20
0.0
 30
0.0
  3
*U76
  1

  0
TEXT
  5
F845
  8
0
 10
3.5112004937425918
 20
2.3236705000861089
 30
0.0
 40
0.125
  1
Exterior Casing
  0
TEXT
  5
F846
  8
0
 10
3.5112004937425918
 20
2.1153371667527749
 30
0.0
 40
0.125
  1
TL-2242
  0
TEXT
  5
F847
  8
0
 10
3.5112004937425918
 20
1.9070038334194419
 30
0.0
 40
0.125
  1
2" x 4-1/2"
  0
TEXT
  5
F848
  8
0
 10
3.5112004937425918
 20
1.6986705000861091
 30
0.0
 40
0.125
  1
800.66.TAGUE
  0
ENDBLK
  5
F84A
  8
0
  0
BLOCK
  8
0
  2
*U77
 70
     1
 10
0.0
 20
0.0
 30
0.0
  3
*U77
  1

  0
TEXT
  5
F84C
  8
0
 62
     0
 10
-386.5390653119602
 20
838.32040714068194
 30
0.0
 40
0.125
  1
Cutter
 50
90.0
  0
ENDBLK
  5
F84E
  8
0
  0
BLOCK
  8
0
  2
*U78
 70
     1
 10
0.0
 20
0.0
 30
0.0
  3
*U78
  1

  0
TEXT
  5
F850
  8
0
 10
1.983241637717696
 20
1.2297917133489591
 30
0.0
 40
0.125
  1
Exterior Casing
  0
TEXT
  5
F851
  8
0
 10
1.983241637717696
 20
1.0214583800156249
 30
0.0
 40
0.125
  1
TL-2254
  0
TEXT
  5
F852
  8
0
 10
1.983241637717696
 20
0.8131250466822924
 30
0.0
 40
0.125
  1
1-1/4" x 1-3/4"
  0
TEXT
  5
F853
  8
0
 10
1.983241637717696
 20
0.6047917133489591
 30
0.0
 40
0.125
  1
800.66.TAGUE
  0
ENDBLK
  5
F855
  8
0
  0
BLOCK
  8
0
  2
*U79
 70
     1
 10
0.0
 20
0.0
 30
0.0
  3
*U79
  1

  0
TEXT
  5
F857
  8
0
 10
2.2285402119240412
 20
3.7215677387475798
 30
0.0
 40
0.125
  1
Exterior Jamb
  0
TEXT
  5
F858
  8
0
 10
2.2285402119240412
 20
3.5132344054142468
 30
0.0
 40
0.125
  1
TL-2126
  0
TEXT
  5
F859
  8
0
 10
2.2285402119240412
 20
3.3049010720809142
 30
0.0
 40
0.125
  1
1-1/4" x 6-5/8"
  0
TEXT
  5
F85A
  8
0
 10
2.2285402119240412
 20
3.0965677387475798
 30
0.0
 40
0.125
  1
800.66.TAGUE
  0
ENDBLK
  5
F85C
  8
0
  0
BLOCK
  8
0
  2
*U80
 70
     1
 10
0.0
 20
0.0
 30
0.0
  3
*U80
  1

  0
TEXT
  5
F85E
  8
0
 10
2.025590122046196
 20
3.8877018206065941
 30
0.0
 40
0.125
  1
Exterior Jamb
  0
TEXT
  5
F85F
  8
0
 10
2.025590122046196
 20
3.6793684872732602
 30
0.0
 40
0.125
  1
TL-2127
  0
TEXT
  5
F860
  8
0
 10
2.025590122046196
 20
3.4710351539399271
 30
0.0
 40
0.125
  1
1-1/4" x 6-5/8"
  0
TEXT
  5
F861
  8
0
 10
2.025590122046196
 20
3.2627018206065941
 30
0.0
 40
0.125
  1
800.66.TAGUE
  0
ENDBLK
  5
F863
  8
0
  0
BLOCK
  8
0
  2
*U81
 70
     1
 10
0.0
 20
0.0
 30
0.0
  3
*U81
  1

  0
TEXT
  5
F865
  8
0
 10
1.8279899277385421
 20
2.0085009357213721
 30
0.0
 40
0.125
  1
Fluting
  0
TEXT
  5
F866
  8
0
 10
1.8279899277385421
 20
1.800167602388038
 30
0.0
 40
0.125
  1
TL-123
  0
TEXT
  5
F867
  8
0
 10
1.8279899277385421
 20
1.5918342690547049
 30
0.0
 40
0.125
  1
3/4" x 3-1/2"
  0
TEXT
  5
F868
  8
0
 10
1.8279899277385421
 20
1.3835009357213719
 30
0.0
 40
0.125
  1
800.66.TAGUE
  0
ENDBLK
  5
F86A
  8
0
  0
BLOCK
  8
0
  2
*U82
 70
     1
 10
0.0
 20
0.0
 30
0.0
  3
*U82
  1

  0
TEXT
  5
F86C
  8
0
 10
1.9710461263608181
 20
3.9608870512416838
 30
0.0
 40
0.125
  1
Fluting
  0
TEXT
  5
F86D
  8
0
 10
1.9710461263608181
 20
3.7525537179083499
 30
0.0
 40
0.125
  1
TL-343
  0
TEXT
  5
F86E
  8
0
 10
1.9710461263608181
 20
3.5442203845750169
 30
0.0
 40
0.125
  1
7/8" x 7-3/16"
  0
TEXT
  5
F86F
  8
0
 10
1.9710461263608181
 20
3.3358870512416838
 30
0.0
 40
0.125
  1
800.66.TAGUE
  0
ENDBLK
  5
F871
  8
0
  0
BLOCK
  8
0
  2
*U83
 70
     1
 10
0.0
 20
0.0
 30
0.0
  3
*U83
  1

  0
TEXT
  5
F873
  8
0
 10
1.4662897697170929
 20
3.8395028676267202
 30
0.0
 40
0.125
  1
Fluting
  0
TEXT
  5
F874
  8
0
 10
1.4662897697170929
 20
3.6311695342933858
 30
0.0
 40
0.125
  1
TL-2183
  0
TEXT
  5
F875
  8
0
 10
1.4662897697170929
 20
3.4228362009600528
 30
0.0
 40
0.125
  1
3/4" x 7-1/4"
  0
TEXT
  5
F876
  8
0
 10
1.4662897697170929
 20
3.2145028676267202
 30
0.0
 40
0.125
  1
800.66.TAGUE
  0
ENDBLK
  5
F878
  8
0
  0
BLOCK
  8
0
  2
*U84
 70
     1
 10
0.0
 20
0.0
 30
0.0
  3
*U84
  1

  0
TEXT
  5
F87A
  8
0
 10
2.0951853732560148
 20
2.6676693683394879
 30
0.0
 40
0.125
  1
Fluting
  0
TEXT
  5
F87B
  8
0
 10
2.0951853732560148
 20
2.4593360350061548
 30
0.0
 40
0.125
  1
TL-2276
  0
TEXT
  5
F87C
  8
0
 10
2.0951853732560148
 20
2.2510027016728218
 30
0.0
 40
0.125
  1
11/16" x 3"
  0
TEXT
  5
F87D
  8
0
 10
2.0951853732560148
 20
2.0426693683394879
 30
0.0
 40
0.125
  1
800.66.TAGUE
  0
ENDBLK
  5
F87F
  8
0
  0
BLOCK
  8
0
  2
*U85
 70
     1
 10
0.0
 20
0.0
 30
0.0
  3
*U85
  1

  0
TEXT
  5
F881
  8
0
 10
2.4586482925877808
 20
1.0775582798773931
 30
0.0
 40
0.125
  1
Full Round
  0
TEXT
  5
F882
  8
0
 10
2.4586482925877808
 20
0.8692249465440607
 30
0.0
 40
0.125
  1
TL-232
  0
TEXT
  5
F883
  8
0
 10
2.4586482925877808
 20
0.6608916132107274
 30
0.0
 40
0.125
  1
1-7/16" x 1-7/16"
  0
TEXT
  5
F884
  8
0
 10
2.4586482925877808
 20
0.452558279877394
 30
0.0
 40
0.125
  1
800.66.TAGUE
  0
ENDBLK
  5
F886
  8
0
  0
BLOCK
  8
0
  2
*U86
 70
     1
 10
0.0
 20
0.0
 30
0.0
  3
*U86
  1

  0
TEXT
  5
F888
  8
0
 10
2.339763263951113
 20
0.912090443150646
 30
0.0
 40
0.125
  1
Full Round
  0
TEXT
  5
F889
  8
0
 10
2.339763263951113
 20
0.7037571098173128
 30
0.0
 40
0.125
  1
TL-233
  0
TEXT
  5
F88A
  8
0
 10
2.339763263951113
 20
0.4954237764839795
 30
0.0
 40
0.125
  1
1-3/16" x 1-3/16"
  0
TEXT
  5
F88B
  8
0
 10
2.339763263951113
 20
0.287090443150646
 30
0.0
 40
0.125
  1
800.66.TAGUE
  0
ENDBLK
  5
F88D
  8
0
  0
BLOCK
  8
0
  2
*U87
 70
     1
 10
0.0
 20
0.0
 30
0.0
  3
*U87
  1

  0
TEXT
  5
F88F
  8
0
 10
2.2927598682417729
 20
0.8643692839127652
 30
0.0
 40
0.125
  1
Full Round
  0
TEXT
  5
F890
  8
0
 10
2.2927598682417729
 20
0.6560359505794321
 30
0.0
 40
0.125
  1
TL-234
  0
TEXT
  5
F891
  8
0
 10
2.2927598682417729
 20
0.4477026172460987
 30
0.0
 40
0.125
  1
1-1/16" x 1-1/16"
  0
TEXT
  5
F892
  8
0
 10
2.2927598682417729
 20
0.2393692839127652
 30
0.0
 40
0.125
  1
800.66.TAGUE
  0
ENDBLK
  5
F894
  8
0
  0
BLOCK
  8
0
  2
*U88
 70
     1
 10
0.0
 20
0.0
 30
0.0
  3
*U88
  1

  0
TEXT
  5
F896
  8
0
 10
2.0765905058337921
 20
1.0252762384561711
 30
0.0
 40
0.125
  1
Glass Bead
  0
TEXT
  5
F897
  8
0
 10
2.0765905058337921
 20
0.8169429051228387
 30
0.0
 40
0.125
  1
TL-145
  0
TEXT
  5
F898
  8
0
 10
2.0765905058337921
 20
0.6086095717895054
 30
0.0
 40
0.125
  1
11/16" x 3/4"
  0
TEXT
  5
F899
  8
0
 10
2.0765905058337921
 20
0.400276238456172
 30
0.0
 40
0.125
  1
800.66.TAGUE
  0
ENDBLK
  5
F89B
  8
0
  0
BLOCK
  8
0
  2
*U89
 70
     1
 10
0.0
 20
0.0
 30
0.0
  3
*U89
  1

  0
TEXT
  5
F89D
  8
0
 10
1.468683703905185
 20
0.7455079879047162
 30
0.0
 40
0.125
  1
Glass Bead
  0
TEXT
  5
F89E
  8
0
 10
1.468683703905185
 20
0.537174654571383
 30
0.0
 40
0.125
  1
TL-147
  0
TEXT
  5
F89F
  8
0
 10
1.468683703905185
 20
0.3288413212380496
 30
0.0
 40
0.125
  1
1/2" x 9/16"
  0
TEXT
  5
F8A0
  8
0
 10
1.468683703905185
 20
0.1205079879047162
 30
0.0
 40
0.125
  1
800.66.TAGUE
  0
ENDBLK
  5
F8A2
  8
0
  0
BLOCK
  8
0
  2
*U90
 70
     1
 10
0.0
 20
0.0
 30
0.0
  3
*U90
  1

  0
TEXT
  5
F8A4
  8
0
 10
1.584020839760341
 20
0.6794303041602916
 30
0.0
 40
0.125
  1
Glass Bead
  0
TEXT
  5
F8A5
  8
0
 10
1.584020839760341
 20
0.4710969708269583
 30
0.0
 40
0.125
  1
TL-152
  0
TEXT
  5
F8A6
  8
0
 10
1.584020839760341
 20
0.262763637493625
 30
0.0
 40
0.125
  1
3/8" x 11/16"
  0
TEXT
  5
F8A7
  8
0
 10
1.584020839760341
 20
0.0544303041602916
 30
0.0
 40
0.125
  1
800.66.TAGUE
  0
ENDBLK
  5
F8A9
  8
0
  0
BLOCK
  8
0
  2
*U91
 70
     1
 10
0.0
 20
0.0
 30
0.0
  3
*U91
  1

  0
TEXT
  5
F8AB
  8
0
 10
1.3526095965341931
 20
0.7381811042487243
 30
0.0
 40
0.125
  1
Glass Bead
  0
TEXT
  5
F8AC
  8
0
 10
1.3526095965341931
 20
0.5298477709153912
 30
0.0
 40
0.125
  1
TL-2142
  0
TEXT
  5
F8AD
  8
0
 10
1.3526095965341931
 20
0.3215144375820577
 30
0.0
 40
0.125
  1
11/32" x 29/32"
  0
TEXT
  5
F8AE
  8
0
 10
1.3526095965341931
 20
0.1131811042487243
 30
0.0
 40
0.125
  1
800.66.TAGUE
  0
ENDBLK
  5
F8B0
  8
0
  0
BLOCK
  8
0
  2
*U92
 70
     1
 10
0.0
 20
0.0
 30
0.0
  3
*U92
  1

  0
TEXT
  5
F8B2
  8
0
 10
1.3435544091540801
 20
0.6794309539541246
 30
0.0
 40
0.125
  1
Glass Bead
  0
TEXT
  5
F8B3
  8
0
 10
1.3435544091540801
 20
0.4710976206207913
 30
0.0
 40
0.125
  1
TL-2149
  0
TEXT
  5
F8B4
  8
0
 10
1.3435544091540801
 20
0.2627642872874579
 30
0.0
 40
0.125
  1
3/8" x 1/2"
  0
TEXT
  5
F8B5
  8
0
 10
1.3435544091540801
 20
0.0544309539541246
 30
0.0
 40
0.125
  1
800.66.TAGUE
  0
ENDBLK
  5
F8B7
  8
0
  0
BLOCK
  8
0
  2
*U93
 70
     1
 10
0.0
 20
0.0
 30
0.0
  3
*U93
  1

  0
TEXT
  5
F8B9
  8
0
 10
1.488844305553698
 20
0.6807937379744545
 30
0.0
 40
0.125
  1
Glass Bead
  0
TEXT
  5
F8BA
  8
0
 10
1.488844305553698
 20
0.4724604046411212
 30
0.0
 40
0.125
  1
TL-2155
  0
TEXT
  5
F8BB
  8
0
 10
1.488844305553698
 20
0.2641270713077878
 30
0.0
 40
0.125
  1
1/2" x 13/16"
  0
TEXT
  5
F8BC
  8
0
 10
1.488844305553698
 20
0.0557937379744544
 30
0.0
 40
0.125
  1
800.66.TAGUE
  0
ENDBLK
  5
F8BE
  8
0
  0
BLOCK
  8
0
  2
*U94
 70
     1
 10
0.0
 20
0.0
 30
0.0
  3
*U94
  1

  0
TEXT
  5
F8C0
  8
0
 10
1.52304343587059
 20
0.6794307504626432
 30
0.0
 40
0.125
  1
Glass Bead
  0
TEXT
  5
F8C1
  8
0
 10
1.52304343587059
 20
0.4710974171293099
 30
0.0
 40
0.125
  1
TL-2218
  0
TEXT
  5
F8C2
  8
0
 10
1.52304343587059
 20
0.2627640837959765
 30
0.0
 40
0.125
  1
1/4" x 5/8"
  0
TEXT
  5
F8C3
  8
0
 10
1.52304343587059
 20
0.0544307504626431
 30
0.0
 40
0.125
  1
800.66.TAGUE
  0
ENDBLK
  5
F8C5
  8
0
  0
BLOCK
  8
0
  2
*U95
 70
     1
 10
0.0
 20
0.0
 30
0.0
  3
*U95
  1

  0
TEXT
  5
F8C7
  8
0
 10
2.8235364504146778
 20
0.7161662597191026
 30
0.0
 40
0.125
  1
Half Round
  0
TEXT
  5
F8C8
  8
0
 10
2.8235364504146778
 20
0.5078329263857692
 30
0.0
 40
0.125
  1
TL-6
  0
TEXT
  5
F8C9
  8
0
 10
2.8235364504146778
 20
0.2994995930524358
 30
0.0
 40
0.125
  1
7/8" x 1-3/4"
  0
TEXT
  5
F8CA
  8
0
 10
2.8235364504146778
 20
0.0911662597191025
 30
0.0
 40
0.125
  1
800.66.TAGUE
  0
ENDBLK
  5
F8CC
  8
0
  0
BLOCK
  8
0
  2
*U96
 70
     1
 10
0.0
 20
0.0
 30
0.0
  3
*U96
  1

  0
TEXT
  5
F8CE
  8
0
 10
2.8316039409763221
 20
0.7222806133900122
 30
0.0
 40
0.125
  1
Half Round
  0
TEXT
  5
F8CF
  8
0
 10
2.8316039409763221
 20
0.5139472800566788
 30
0.0
 40
0.125
  1
TL-7
  0
TEXT
  5
F8D0
  8
0
 10
2.8316039409763221
 20
0.3056139467233454
 30
0.0
 40
0.125
  1
1" x 2"
  0
TEXT
  5
F8D1
  8
0
 10
2.8316039409763221
 20
0.0972806133900122
 30
0.0
 40
0.125
  1
800.66.TAGUE
  0
ENDBLK
  5
F8D3
  8
0
  0
BLOCK
  8
0
  2
*U97
 70
     1
 10
0.0
 20
0.0
 30
0.0
  3
*U97
  1

  0
TEXT
  5
F8D5
  8
0
 10
4.3092556456276148
 20
0.8292621657587915
 30
0.0
 40
0.125
  1
Half Round
  0
TEXT
  5
F8D6
  8
0
 10
4.3092556456276148
 20
0.6209288324254582
 30
0.0
 40
0.125
  1
TL-8
  0
TEXT
  5
F8D7
  8
0
 10
4.3092556456276148
 20
0.4125954990921248
 30
0.0
 40
0.125
  1
1-1/2" x 3"
  0
TEXT
  5
F8D8
  8
0
 10
4.3092556456276148
 20
0.2042621657587915
 30
0.0
 40
0.125
  1
800.66.TAGUE
  0
ENDBLK
  5
F8DA
  8
0
  0
BLOCK
  8
0
  2
*U98
 70
     1
 10
0.0
 20
0.0
 30
0.0
  3
*U98
  1

  0
TEXT
  5
F8DC
  8
0
 10
2.524104426630799
 20
0.6794299200373644
 30
0.0
 40
0.125
  1
Half Round
  0
TEXT
  5
F8DD
  8
0
 10
2.524104426630799
 20
0.471096586704031
 30
0.0
 40
0.125
  1
TL-116
  0
TEXT
  5
F8DE
  8
0
 10
2.524104426630799
 20
0.2627632533706976
 30
0.0
 40
0.125
  1
3/4" x 1-1/2"
  0
TEXT
  5
F8DF
  8
0
 10
2.524104426630799
 20
0.0544299200373644
 30
0.0
 40
0.125
  1
800.66.TAGUE
  0
ENDBLK
  5
F8E1
  8
0
  0
BLOCK
  8
0
  2
*U99
 70
     1
 10
0.0
 20
0.0
 30
0.0
  3
*U99
  1

  0
TEXT
  5
F8E3
  8
0
 10
2.4691699319003528
 20
0.6794301275302815
 30
0.0
 40
0.125
  1
Half Round
  0
TEXT
  5
F8E4
  8
0
 10
2.4691699319003528
 20
0.4710967941969481
 30
0.0
 40
0.125
  1
TL-119
  0
TEXT
  5
F8E5
  8
0
 10
2.4691699319003528
 20
0.2627634608636147
 30
0.0
 40
0.125
  1
5/8" x 1-1/4"
  0
TEXT
  5
F8E6
  8
0
 10
2.4691699319003528
 20
0.0544301275302814
 30
0.0
 40
0.125
  1
800.66.TAGUE
  0
ENDBLK
  5
F8E8
  8
0
  0
BLOCK
  8
0
  2
*U100
 70
     1
 10
0.0
 20
0.0
 30
0.0
  3
*U100
  1

  0
TEXT
  5
F8EA
  8
0
 10
1.96218194837894
 20
0.679429735423696
 30
0.0
 40
0.125
  1
Half Round
  0
TEXT
  5
F8EB
  8
0
 10
1.96218194837894
 20
0.4710964020903626
 30
0.0
 40
0.125
  1
TL-120
  0
TEXT
  5
F8EC
  8
0
 10
1.96218194837894
 20
0.2627630687570293
 30
0.0
 40
0.125
  1
1/2" x 1"
  0
TEXT
  5
F8ED
  8
0
 10
1.96218194837894
 20
0.054429735423696
 30
0.0
 40
0.125
  1
800.66.TAGUE
  0
ENDBLK
  5
F8EF
  8
0
  0
BLOCK
  8
0
  2
*U101
 70
     1
 10
0.0
 20
0.0
 30
0.0
  3
*U101
  1

  0
TEXT
  5
F8F1
  8
0
 10
1.51989036816559
 20
0.679429754589819
 30
0.0
 40
0.125
  1
Half Round
  0
TEXT
  5
F8F2
  8
0
 10
1.51989036816559
 20
0.4710964212564856
 30
0.0
 40
0.125
  1
TL-122
  0
TEXT
  5
F8F3
  8
0
 10
1.51989036816559
 20
0.2627630879231522
 30
0.0
 40
0.125
  1
11/32" x 11/16"
  0
TEXT
  5
F8F4
  8
0
 10
1.51989036816559
 20
0.0544297545898189
 30
0.0
 40
0.125
  1
800.66.TAGUE
  0
ENDBLK
  5
F8F6
  8
0
  0
BLOCK
  8
0
  2
*U102
 70
     1
 10
0.0
 20
0.0
 30
0.0
  3
*U102
  1

  0
TEXT
  5
F8F8
  8
0
 10
1.332760358760481
 20
0.6794306489528026
 30
0.0
 40
0.125
  1
Half Round
  0
TEXT
  5
F8F9
  8
0
 10
1.332760358760481
 20
0.4710973156194692
 30
0.0
 40
0.125
  1
TL-124
  0
TEXT
  5
F8FA
  8
0
 10
1.332760358760481
 20
0.2627639822861358
 30
0.0
 40
0.125
  1
1/4" x 1/2"
  0
TEXT
  5
F8FB
  8
0
 10
1.332760358760481
 20
0.0544306489528026
 30
0.0
 40
0.125
  1
800.66.TAGUE
  0
ENDBLK
  5
F8FD
  8
0
  0
BLOCK
  8
0
  2
*U103
 70
     1
 10
0.0
 20
0.0
 30
0.0
  3
*U103
  1

  0
TEXT
  5
F8FF
  8
0
 10
2.6263646070054838
 20
2.827461056571678
 30
0.0
 40
0.125
  1
Hand Rail
  0
TEXT
  5
F900
  8
0
 10
2.6263646070054838
 20
2.6191277232383441
 30
0.0
 40
0.125
  1
TL-14
  0
TEXT
  5
F901
  8
0
 10
2.6263646070054838
 20
2.410794389905011
 30
0.0
 40
0.125
  1
1-5/8" x 5-1/4"
  0
TEXT
  5
F902
  8
0
 10
2.6263646070054838
 20
2.202461056571678
 30
0.0
 40
0.125
  1
800.66.TAGUE
  0
ENDBLK
  5
F904
  8
0
  0
BLOCK
  8
0
  2
*U104
 70
     1
 10
0.0
 20
0.0
 30
0.0
  3
*U104
  1

  0
TEXT
  5
F906
  8
0
 10
2.2830209502855041
 20
2.755934710444194
 30
0.0
 40
0.125
  1
Hand Rail
  0
TEXT
  5
F907
  8
0
 10
2.2830209502855041
 20
2.5476013771108601
 30
0.0
 40
0.125
  1
TL-15
  0
TEXT
  5
F908
  8
0
 10
2.2830209502855041
 20
2.3392680437775271
 30
0.0
 40
0.125
  1
1-3/8" x 5-1/2"
  0
TEXT
  5
F909
  8
0
 10
2.2830209502855041
 20
2.130934710444194
 30
0.0
 40
0.125
  1
800.66.TAGUE
  0
ENDBLK
  5
F90B
  8
0
  0
BLOCK
  8
0
  2
*U105
 70
     1
 10
0.0
 20
0.0
 30
0.0
  3
*U105
  1

  0
TEXT
  5
F90D
  8
0
 10
3.5100871080940119
 20
1.046126857764647
 30
0.0
 40
0.125
  1
Hand Rail
  0
TEXT
  5
F90E
  8
0
 10
3.5100871080940119
 20
0.8377935244313146
 30
0.0
 40
0.125
  1
TL-96
  0
TEXT
  5
F90F
  8
0
 10
3.5100871080940119
 20
0.6294601910979814
 30
0.0
 40
0.125
  1
1-1/4" x 2-1/4"
  0
TEXT
  5
F910
  8
0
 10
3.5100871080940119
 20
0.4211268577646479
 30
0.0
 40
0.125
  1
800.66.TAGUE
  0
ENDBLK
  5
F912
  8
0
  0
BLOCK
  8
0
  2
*U106
 70
     1
 10
0.0
 20
0.0
 30
0.0
  3
*U106
  1

  0
TEXT
  5
F914
  8
0
 10
2.3417636350062589
 20
4.2171919217870482
 30
0.0
 40
0.125
  1
Hand Rail
  0
TEXT
  5
F915
  8
0
 10
2.3417636350062589
 20
4.0088585884537151
 30
0.0
 40
0.125
  1
TL-117
  0
TEXT
  5
F916
  8
0
 10
2.3417636350062589
 20
3.8005252551203812
 30
0.0
 40
0.125
  1
1-1/4" x 8-1/8"
  0
TEXT
  5
F917
  8
0
 10
2.3417636350062589
 20
3.5921919217870482
 30
0.0
 40
0.125
  1
800.66.TAGUE
  0
ENDBLK
  5
F919
  8
0
  0
BLOCK
  8
0
  2
*U107
 70
     1
 10
0.0
 20
0.0
 30
0.0
  3
*U107
  1

  0
TEXT
  5
F91B
  8
0
 10
2.7125232555794119
 20
1.098442957172892
 30
0.0
 40
0.125
  1
Hand Rail
  0
TEXT
  5
F91C
  8
0
 10
2.7125232555794119
 20
0.8901096238395592
 30
0.0
 40
0.125
  1
TL-231
  0
TEXT
  5
F91D
  8
0
 10
2.7125232555794119
 20
0.6817762905062259
 30
0.0
 40
0.125
  1
1-1/2" x 1-11/16"
  0
TEXT
  5
F91E
  8
0
 10
2.7125232555794119
 20
0.4734429571728925
 30
0.0
 40
0.125
  1
800.66.TAGUE
  0
ENDBLK
  5
F920
  8
0
  0
BLOCK
  8
0
  2
*U108
 70
     1
 10
0.0
 20
0.0
 30
0.0
  3
*U108
  1

  0
TEXT
  5
F922
  8
0
 10
2.960252587020249
 20
0.6772989443436474
 30
0.0
 40
0.125
  1
Lattice
  0
TEXT
  5
F923
  8
0
 10
2.960252587020249
 20
0.468965611010314
 30
0.0
 40
0.125
  1
TL-266
  0
TEXT
  5
F924
  8
0
 10
2.960252587020249
 20
0.2606322776769806
 30
0.0
 40
0.125
  1
1/4" x 1-5/8"
  0
TEXT
  5
F925
  8
0
 10
2.960252587020249
 20
0.0522989443436472
 30
0.0
 40
0.125
  1
800.66.TAGUE
  0
ENDBLK
  5
F927
  8
0
  0
BLOCK
  8
0
  2
*U109
 70
     1
 10
0.0
 20
0.0
 30
0.0
  3
*U109
  1

  0
TEXT
  5
F929
  8
0
 10
2.5177643903332401
 20
0.6772985360157691
 30
0.0
 40
0.125
  1
Lattice
  0
TEXT
  5
F92A
  8
0
 10
2.5177643903332401
 20
0.4689652026824358
 30
0.0
 40
0.125
  1
TL-267
  0
TEXT
  5
F92B
  8
0
 10
2.5177643903332401
 20
0.2606318693491024
 30
0.0
 40
0.125
  1
1/4" x 1-3/8"
  0
TEXT
  5
F92C
  8
0
 10
2.5177643903332401
 20
0.0522985360157691
 30
0.0
 40
0.125
  1
800.66.TAGUE
  0
ENDBLK
  5
F92E
  8
0
  0
BLOCK
  8
0
  2
*U110
 70
     1
 10
0.0
 20
0.0
 30
0.0
  3
*U110
  1

  0
TEXT
  5
F930
  8
0
 10
2.3872073702682419
 20
0.6772987437404936
 30
0.0
 40
0.125
  1
Lattice
  0
TEXT
  5
F931
  8
0
 10
2.3872073702682419
 20
0.4689654104071603
 30
0.0
 40
0.125
  1
TL-268
  0
TEXT
  5
F932
  8
0
 10
2.3872073702682419
 20
0.260632077073827
 30
0.0
 40
0.125
  1
1/4" x 1-1/8"
  0
TEXT
  5
F933
  8
0
 10
2.3872073702682419
 20
0.0522987437404936
 30
0.0
 40
0.125
  1
800.66.TAGUE
  0
ENDBLK
  5
F935
  8
0
  0
BLOCK
  8
0
  2
*U111
 70
     1
 10
0.0
 20
0.0
 30
0.0
  3
*U111
  1

  0
TEXT
  5
F937
  8
0
 10
1.7198452767448771
 20
0.6772982915522335
 30
0.0
 40
0.125
  1
Lattice
  0
TEXT
  5
F938
  8
0
 10
1.7198452767448771
 20
0.4689649582189002
 30
0.0
 40
0.125
  1
TL-269
  0
TEXT
  5
F939
  8
0
 10
1.7198452767448771
 20
0.2606316248855668
 30
0.0
 40
0.125
  1
1/4" x 3/4"
  0
TEXT
  5
F93A
  8
0
 10
1.7198452767448771
 20
0.0522982915522334
 30
0.0
 40
0.125
  1
800.66.TAGUE
  0
ENDBLK
  5
F93C
  8
0
  0
BLOCK
  8
0
  2
*U112
 70
     1
 10
0.0
 20
0.0
 30
0.0
  3
*U112
  1

  0
TEXT
  5
F93E
  8
0
 10
2.0085733028087129
 20
0.6772989387914095
 30
0.0
 40
0.125
  1
Lattice
  0
TEXT
  5
F93F
  8
0
 10
2.0085733028087129
 20
0.4689656054580762
 30
0.0
 40
0.125
  1
TL-270
  0
TEXT
  5
F940
  8
0
 10
2.0085733028087129
 20
0.2606322721247428
 30
0.0
 40
0.125
  1
1/4" x 7/8"
  0
TEXT
  5
F941
  8
0
 10
2.0085733028087129
 20
0.0522989387914095
 30
0.0
 40
0.125
  1
800.66.TAGUE
  0
ENDBLK
  5
F943
  8
0
  0
BLOCK
  8
0
  2
*U113
 70
     1
 10
0.0
 20
0.0
 30
0.0
  3
*U113
  1

  0
TEXT
  5
F945
  8
0
 10
2.940701223973178
 20
0.6772980715210224
 30
0.0
 40
0.125
  1
Lattice
  0
TEXT
  5
F946
  8
0
 10
2.940701223973178
 20
0.4689647381876891
 30
0.0
 40
0.125
  1
TL-962
  0
TEXT
  5
F947
  8
0
 10
2.940701223973178
 20
0.2606314048543558
 30
0.0
 40
0.125
  1
1/4" x 2"
  0
TEXT
  5
F948
  8
0
 10
2.940701223973178
 20
0.0522980715210224
 30
0.0
 40
0.125
  1
800.66.TAGUE
  0
ENDBLK
  5
F94A
  8
0
  0
BLOCK
  8
0
  2
*U114
 70
     1
 10
0.0
 20
0.0
 30
0.0
  3
*U114
  1

  0
TEXT
  5
F94C
  8
0
 10
1.983768624240724
 20
1.1498699559202801
 30
0.0
 40
0.125
  1
Lip Moulding
  0
TEXT
  5
F94D
  8
0
 10
1.983768624240724
 20
0.9415366225869473
 30
0.0
 40
0.125
  1
TL-18
  0
TEXT
  5
F94E
  8
0
 10
1.983768624240724
 20
0.7332032892536139
 30
0.0
 40
0.125
  1
3/4" x 1-15/16"
  0
TEXT
  5
F94F
  8
0
 10
1.983768624240724
 20
0.5248699559202806
 30
0.0
 40
0.125
  1
800.66.TAGUE
  0
ENDBLK
  5
F951
  8
0
  0
BLOCK
  8
0
  2
*U115
 70
     1
 10
0.0
 20
0.0
 30
0.0
  3
*U115
  1

  0
TEXT
  5
F953
  8
0
 10
2.2853728967398861
 20
1.2855052394233999
 30
0.0
 40
0.125
  1
Lip Moulding
  0
TEXT
  5
F954
  8
0
 10
2.2853728967398861
 20
1.0771719060900671
 30
0.0
 40
0.125
  1
TL-530
  0
TEXT
  5
F955
  8
0
 10
2.2853728967398861
 20
0.8688385727567342
 30
0.0
 40
0.125
  1
5/8" x 1-5/8"
  0
TEXT
  5
F956
  8
0
 10
2.2853728967398861
 20
0.6605052394234008
 30
0.0
 40
0.125
  1
800.66.TAGUE
  0
ENDBLK
  5
F958
  8
0
  0
BLOCK
  8
0
  2
*U116
 70
     1
 10
0.0
 20
0.0
 30
0.0
  3
*U116
  1

  0
TEXT
  5
F95A
  8
0
 10
2.269200201813987
 20
1.1997502285778401
 30
0.0
 40
0.125
  1
Lip Moulding
  0
TEXT
  5
F95B
  8
0
 10
2.269200201813987
 20
0.9914168952445077
 30
0.0
 40
0.125
  1
TL-532
  0
TEXT
  5
F95C
  8
0
 10
2.269200201813987
 20
0.7830835619111745
 30
0.0
 40
0.125
  1
3/4" x 1-3/4"
  0
TEXT
  5
F95D
  8
0
 10
2.269200201813987
 20
0.574750228577841
 30
0.0
 40
0.125
  1
800.66.TAGUE
  0
ENDBLK
  5
F95F
  8
0
  0
BLOCK
  8
0
  2
*U117
 70
     1
 10
0.0
 20
0.0
 30
0.0
  3
*U117
  1

  0
TEXT
  5
F961
  8
0
 10
1.8892783014391621
 20
1.241449235052527
 30
0.0
 40
0.125
  1
Lip Moulding
  0
TEXT
  5
F962
  8
0
 10
1.8892783014391621
 20
1.033115901719194
 30
0.0
 40
0.125
  1
TL-2169
  0
TEXT
  5
F963
  8
0
 10
1.8892783014391621
 20
0.8247825683858613
 30
0.0
 40
0.125
  1
11/16" x 1-7/8"
  0
TEXT
  5
F964
  8
0
 10
1.8892783014391621
 20
0.6164492350525279
 30
0.0
 40
0.125
  1
800.66.TAGUE
  0
ENDBLK
  5
F966
  8
0
  0
BLOCK
  8
0
  2
*U118
 70
     1
 10
0.0
 20
0.0
 30
0.0
  3
*U118
  1

  0
TEXT
  5
F968
  8
0
 10
-386.50348472014218
 20
839.15844854004933
 30
0.0
 40
0.125
  1
Lip Moulding
  0
TEXT
  5
F969
  8
0
 10
-386.50348472014218
 20
838.95011520671585
 30
0.0
 40
0.125
  1
TL-2169
  0
TEXT
  5
F96A
  8
0
 10
-386.50348472014218
 20
838.74178187338259
 30
0.0
 40
0.125
  1
11/16" x 1-7/8"
  0
TEXT
  5
F96B
  8
0
 10
-386.50348472014218
 20
838.53344854004933
 30
0.0
 40
0.125
  1
800.66.TAGUE
  0
ENDBLK
  5
F96D
  8
0
  0
ENDSEC
  0
SECTION
  2
ENTITIES
  0
LINE
  5
F7D7
  8
0
  6
CONTINUOUS
 10
-388.39276411542272
 20
839.60454691972723
 30
0.0
 11
-388.38711229501689
 21
839.10759446435316
 31
0.0
  0
POLYLINE
  8
0
  5
F96E
  66
     1
 10
0.000000
 20
0.000000
 30
0.000000
  70
     8
  0
VERTEX
  8
0
  5
F96F
 10
-388.206
 20
839.268
 30
0.000000
  70
    32
  0
VERTEX
  8
0
  5
F970
 10
-388.206
 20
839.265
 30
0.000000
  70
    32
  0
VERTEX
  8
0
  5
F971
 10
-388.206
 20
839.263
 30
0.000000
  70
    32
  0
VERTEX
  8
0
  5
F972
 10
-388.205
 20
839.260
 30
0.000000
  70
    32
  0
VERTEX
  8
0
  5
F973
 10
-388.205
 20
839.257
 30
0.000000
  70
    32
  0
VERTEX
  8
0
  5
F974
 10
-388.205
 20
839.255
 30
0.000000
  70
    32
  0
VERTEX
  8
0
  5
F975
 10
-388.204
 20
839.252
 30
0.000000
  70
    32
  0
VERTEX
  8
0
  5
F976
 10
-388.204
 20
839.249
 30
0.000000
  70
    32
  0
VERTEX
  8
0
  5
F977
 10
-388.204
 20
839.247
 30
0.000000
  70
    32
  0
VERTEX
  8
0
  5
F978
 10
-388.203
 20
839.244
 30
0.000000
  70
    32
  0
VERTEX
  8
0
  5
F979
 10
-388.203
 20
839.242
 30
0.000000
  70
    32
  0
VERTEX
  8
0
  5
F97A
 10
-388.202
 20
839.239
 30
0.000000
  70
    32
  0
VERTEX
  8
0
  5
F97B
 10
-388.202
 20
839.236
 30
0.000000
  70
    32
  0
VERTEX
  8
0
  5
F97C
 10
-388.201
 20
839.234
 30
0.000000
  70
    32
  0
VERTEX
  8
0
  5
F97D
 10
-388.200
 20
839.231
 30
0.000000
  70
    32
  0
VERTEX
  8
0
  5
F97E
 10
-388.200
 20
839.229
 30
0.000000
  70
    32
  0
VERTEX
  8
0
  5
F97F
 10
-388.199
 20
839.226
 30
0.000000
  70
    32
  0
VERTEX
  8
0
  5
F980
 10
-388.198
 20
839.223
 30
0.000000
  70
    32
  0
VERTEX
  8
0
  5
F981
 10
-388.198
 20
839.221
 30
0.000000
  70
    32
  0
VERTEX
  8
0
  5
F982
 10
-388.197
 20
839.218
 30
0.000000
  70
    32
  0
VERTEX
  8
0
  5
F983
 10
-388.196
 20
839.216
 30
0.000000
  70
    32
  0
VERTEX
  8
0
  5
F984
 10
-388.195
 20
839.213
 30
0.000000
  70
    32
  0
VERTEX
  8
0
  5
F985
 10
-388.195
 20
839.211
 30
0.000000
  70
    32
  0
VERTEX
  8
0
  5
F986
 10
-388.194
 20
839.208
 30
0.000000
  70
    32
  0
VERTEX
  8
0
  5
F987
 10
-388.193
 20
839.206
 30
0.000000
  70
    32
  0
VERTEX
  8
0
  5
F988
 10
-388.192
 20
839.203
 30
0.000000
  70
    32
  0
VERTEX
  8
0
  5
F989
 10
-388.191
 20
839.200
 30
0.000000
  70
    32
  0
VERTEX
  8
0
  5
F98A
 10
-388.190
 20
839.198
 30
0.000000
  70
    32
  0
VERTEX
  8
0
  5
F98B
 10
-388.189
 20
839.195
 30
0.000000
  70
    32
  0
VERTEX
  8
0
  5
F98C
 10
-388.188
 20
839.193
 30
0.000000
  70
    32
  0
VERTEX
  8
0
  5
F98D
 10
-388.187
 20
839.190
 30
0.000000
  70
    32
  0
VERTEX
  8
0
  5
F98E
 10
-388.186
 20
839.188
 30
0.000000
  70
    32
  0
VERTEX
  8
0
  5
F98F
 10
-388.185
 20
839.186
 30
0.000000
  70
    32
  0
VERTEX
  8
0
  5
F990
 10
-388.184
 20
839.183
 30
0.000000
  70
    32
  0
VERTEX
  8
0
  5
F991
 10
-388.183
 20
839.181
 30
0.000000
  70
    32
  0
VERTEX
  8
0
  5
F992
 10
-388.182
 20
839.178
 30
0.000000
  70
    32
  0
VERTEX
  8
0
  5
F993
 10
-388.180
 20
839.176
 30
0.000000
  70
    32
  0
VERTEX
  8
0
  5
F994
 10
-388.179
 20
839.173
 30
0.000000
  70
    32
  0
VERTEX
  8
0
  5
F995
 10
-388.178
 20
839.171
 30
0.000000
  70
    32
  0
VERTEX
  8
0
  5
F996
 10
-388.177
 20
839.168
 30
0.000000
  70
    32
  0
VERTEX
  8
0
  5
F997
 10
-388.176
 20
839.166
 30
0.000000
  70
    32
  0
VERTEX
  8
0
  5
F998
 10
-388.174
 20
839.164
 30
0.000000
  70
    32
  0
VERTEX
  8
0
  5
F999
 10
-388.173
 20
839.161
 30
0.000000
  70
    32
  0
VERTEX
  8
0
  5
F99A
 10
-388.172
 20
839.159
 30
0.000000
  70
    32
  0
VERTEX
  8
0
  5
F99B
 10
-388.170
 20
839.157
 30
0.000000
  70
    32
  0
VERTEX
  8
0
  5
F99C
 10
-388.169
 20
839.154
 30
0.000000
  70
    32
  0
VERTEX
  8
0
  5
F99D
 10
-388.168
 20
839.152
 30
0.000000
  70
    32
  0
VERTEX
  8
0
  5
F99E
 10
-388.166
 20
839.150
 30
0.000000
  70
    32
  0
VERTEX
  8
0
  5
F99F
 10
-388.165
 20
839.147
 30
0.000000
  70
    32
  0
VERTEX
  8
0
  5
F9A0
 10
-388.164
 20
839.145
 30
0.000000
  70
    32
  0
VERTEX
  8
0
  5
F9A1
 10
-388.162
 20
839.143
 30
0.000000
  70
    32
  0
VERTEX
  8
0
  5
F9A2
 10
-388.161
 20
839.140
 30
0.000000
  70
    32
  0
VERTEX
  8
0
  5
F9A3
 10
-388.159
 20
839.138
 30
0.000000
  70
    32
  0
VERTEX
  8
0
  5
F9A4
 10
-388.158
 20
839.136
 30
0.000000
  70
    32
  0
VERTEX
  8
0
  5
F9A5
 10
-388.156
 20
839.134
 30
0.000000
  70
    32
  0
VERTEX
  8
0
  5
F9A6
 10
-388.155
 20
839.131
 30
0.000000
  70
    32
  0
VERTEX
  8
0
  5
F9A7
 10
-388.153
 20
839.129
 30
0.000000
  70
    32
  0
VERTEX
  8
0
  5
F9A8
 10
-388.152
 20
839.127
 30
0.000000
  70
    32
  0
VERTEX
  8
0
  5
F9A9
 10
-388.150
 20
839.125
 30
0.000000
  70
    32
  0
VERTEX
  8
0
  5
F9AA
 10
-388.149
 20
839.123
 30
0.000000
  70
    32
  0
VERTEX
  8
0
  5
F9AB
 10
-388.147
 20
839.120
 30
0.000000
  70
    32
  0
VERTEX
  8
0
  5
F9AC
 10
-388.145
 20
839.118
 30
0.000000
  70
    32
  0
VERTEX
  8
0
  5
F9AD
 10
-388.144
 20
839.116
 30
0.000000
  70
    32
  0
VERTEX
  8
0
  5
F9AE
 10
-388.142
 20
839.114
 30
0.000000
  70
    32
  0
VERTEX
  8
0
  5
F9AF
 10
-388.140
 20
839.112
 30
0.000000
  70
    32
  0
VERTEX
  8
0
  5
F9B0
 10
-388.139
 20
839.110
 30
0.000000
  70
    32
  0
VERTEX
  8
0
  5
F9B1
 10
-388.137
 20
839.108
 30
0.000000
  70
    32
  0
VERTEX
  8
0
  5
F9B2
 10
-388.135
 20
839.106
 30
0.000000
  70
    32
  0
VERTEX
  8
0
  5
F9B3
 10
-388.134
 20
839.104
 30
0.000000
  70
    32
  0
VERTEX
  8
0
  5
F9B4
 10
-388.132
 20
839.101
 30
0.000000
  70
    32
  0
VERTEX
  8
0
  5
F9B5
 10
-388.130
 20
839.099
 30
0.000000
  70
    32
  0
VERTEX
  8
0
  5
F9B6
 10
-388.129
 20
839.097
 30
0.000000
  70
    32
  0
VERTEX
  8
0
  5
F9B7
 10
-388.127
 20
839.095
 30
0.000000
  70
    32
  0
VERTEX
  8
0
  5
F9B8
 10
-388.125
 20
839.093
 30
0.000000
  70
    32
  0
VERTEX
  8
0
  5
F9B9
 10
-388.123
 20
839.091
 30
0.000000
  70
    32
  0
VERTEX
  8
0
  5
F9BA
 10
-388.121
 20
839.089
 30
0.000000
  70
    32
  0
VERTEX
  8
0
  5
F9BB
 10
-388.120
 20
839.088
 30
0.000000
  70
    32
  0
VERTEX
  8
0
  5
F9BC
 10
-388.118
 20
839.086
 30
0.000000
  70
    32
  0
VERTEX
  8
0
  5
F9BD
 10
-388.116
 20
839.084
 30
0.000000
  70
    32
  0
VERTEX
  8
0
  5
F9BE
 10
-388.114
 20
839.082
 30
0.000000
  70
    32
  0
VERTEX
  8
0
  5
F9BF
 10
-388.112
 20
839.080
 30
0.000000
  70
    32
  0
VERTEX
  8
0
  5
F9C0
 10
-388.110
 20
839.078
 30
0.000000
  70
    32
  0
VERTEX
  8
0
  5
F9C1
 10
-388.108
 20
839.076
 30
0.000000
  70
    32
  0
VERTEX
  8
0
  5
F9C2
 10
-388.107
 20
839.074
 30
0.000000
  70
    32
  0
VERTEX
  8
0
  5
F9C3
 10
-388.105
 20
839.072
 30
0.000000
  70
    32
  0
VERTEX
  8
0
  5
F9C4
 10
-388.103
 20
839.071
 30
0.000000
  70
    32
  0
VERTEX
  8
0
  5
F9C5
 10
-388.101
 20
839.069
 30
0.000000
  70
    32
  0
VERTEX
  8
0
  5
F9C6
 10
-388.099
 20
839.067
 30
0.000000
  70
    32
  0
VERTEX
  8
0
  5
F9C7
 10
-388.097
 20
839.065
 30
0.000000
  70
    32
  0
VERTEX
  8
0
  5
F9C8
 10
-388.095
 20
839.063
 30
0.000000
  70
    32
  0
VERTEX
  8
0
  5
F9C9
 10
-388.093
 20
839.062
 30
0.000000
  70
    32
  0
VERTEX
  8
0
  5
F9CA
 10
-388.091
 20
839.060
 30
0.000000
  70
    32
  0
VERTEX
  8
0
  5
F9CB
 10
-388.089
 20
839.058
 30
0.000000
  70
    32
  0
VERTEX
  8
0
  5
F9CC
 10
-388.087
 20
839.056
 30
0.000000
  70
    32
  0
VERTEX
  8
0
  5
F9CD
 10
-388.085
 20
839.055
 30
0.000000
  70
    32
  0
VERTEX
  8
0
  5
F9CE
 10
-388.083
 20
839.053
 30
0.000000
  70
    32
  0
VERTEX
  8
0
  5
F9CF
 10
-388.081
 20
839.051
 30
0.000000
  70
    32
  0
VERTEX
  8
0
  5
F9D0
 10
-388.079
 20
839.050
 30
0.000000
  70
    32
  0
VERTEX
  8
0
  5
F9D1
 10
-388.077
 20
839.048
 30
0.000000
  70
    32
  0
VERTEX
  8
0
  5
F9D2
 10
-388.074
 20
839.046
 30
0.000000
  70
    32
  0
VERTEX
  8
0
  5
F9D3
 10
-388.072
 20
839.045
 30
0.000000
  70
    32
  0
VERTEX
  8
0
  5
F9D4
 10
-388.070
 20
839.043
 30
0.000000
  70
    32
  0
VERTEX
  8
0
  5
F9D5
 10
-388.068
 20
839.041
 30
0.000000
  70
    32
  0
VERTEX
  8
0
  5
F9D6
 10
-388.066
 20
839.040
 30
0.000000
  70
    32
  0
VERTEX
  8
0
  5
F9D7
 10
-388.064
 20
839.038
 30
0.000000
  70
    32
  0
VERTEX
  8
0
  5
F9D8
 10
-388.062
 20
839.037
 30
0.000000
  70
    32
  0
VERTEX
  8
0
  5
F9D9
 10
-388.059
 20
839.035
 30
0.000000
  70
    32
  0
VERTEX
  8
0
  5
F9DA
 10
-388.057
 20
839.033
 30
0.000000
  70
    32
  0
VERTEX
  8
0
  5
F9DB
 10
-388.055
 20
839.032
 30
0.000000
  70
    32
  0
VERTEX
  8
0
  5
F9DC
 10
-388.053
 20
839.030
 30
0.000000
  70
    32
  0
VERTEX
  8
0
  5
F9DD
 10
-388.051
 20
839.029
 30
0.000000
  70
    32
  0
VERTEX
  8
0
  5
F9DE
 10
-388.048
 20
839.027
 30
0.000000
  70
    32
  0
VERTEX
  8
0
  5
F9DF
 10
-388.046
 20
839.026
 30
0.000000
  70
    32
  0
VERTEX
  8
0
  5
F9E0
 10
-388.044
 20
839.024
 30
0.000000
  70
    32
  0
VERTEX
  8
0
  5
F9E1
 10
-388.042
 20
839.023
 30
0.000000
  70
    32
  0
VERTEX
  8
0
  5
F9E2
 10
-388.039
 20
839.022
 30
0.000000
  70
    32
  0
VERTEX
  8
0
  5
F9E3
 10
-388.037
 20
839.020
 30
0.000000
  70
    32
  0
VERTEX
  8
0
  5
F9E4
 10
-388.035
 20
839.019
 30
0.000000
  70
    32
  0
VERTEX
  8
0
  5
F9E5
 10
-388.033
 20
839.017
 30
0.000000
  70
    32
  0
VERTEX
  8
0
  5
F9E6
 10
-388.030
 20
839.016
 30
0.000000
  70
    32
  0
VERTEX
  8
0
  5
F9E7
 10
-388.028
 20
839.015
 30
0.000000
  70
    32
  0
VERTEX
  8
0
  5
F9E8
 10
-388.026
 20
839.013
 30
0.000000
  70
    32
  0
VERTEX
  8
0
  5
F9E9
 10
-388.023
 20
839.012
 30
0.000000
  70
    32
  0
VERTEX
  8
0
  5
F9EA
 10
-388.021
 20
839.011
 30
0.000000
  70
    32
  0
VERTEX
  8
0
  5
F9EB
 10
-388.019
 20
839.009
 30
0.000000
  70
    32
  0
VERTEX
  8
0
  5
F9EC
 10
-388.016
 20
839.008
 30
0.000000
  70
    32
  0
VERTEX
  8
0
  5
F9ED
 10
-388.014
 20
839.007
 30
0.000000
  70
    32
  0
VERTEX
  8
0
  5
F9EE
 10
-388.012
 20
839.005
 30
0.000000
  70
    32
  0
VERTEX
  8
0
  5
F9EF
 10
-388.009
 20
839.004
 30
0.000000
  70
    32
  0
VERTEX
  8
0
  5
F9F0
 10
-388.007
 20
839.003
 30
0.000000
  70
    32
  0
VERTEX
  8
0
  5
F9F1
 10
-388.004
 20
839.002
 30
0.000000
  70
    32
  0
VERTEX
  8
0
  5
F9F2
 10
-388.002
 20
839.001
 30
0.000000
  70
    32
  0
VERTEX
  8
0
  5
F9F3
 10
-388.000
 20
838.999
 30
0.000000
  70
    32
  0
VERTEX
  8
0
  5
F9F4
 10
-387.997
 20
838.998
 30
0.000000
  70
    32
  0
VERTEX
  8
0
  5
F9F5
 10
-387.995
 20
838.997
 30
0.000000
  70
    32
  0
VERTEX
  8
0
  5
F9F6
 10
-387.992
 20
838.996
 30
0.000000
  70
    32
  0
VERTEX
  8
0
  5
F9F7
 10
-387.990
 20
838.995
 30
0.000000
  70
    32
  0
VERTEX
  8
0
  5
F9F8
 10
-387.987
 20
838.994
 30
0.000000
  70
    32
  0
VERTEX
  8
0
  5
F9F9
 10
-387.985
 20
838.993
 30
0.000000
  70
    32
  0
VERTEX
  8
0
  5
F9FA
 10
-387.983
 20
838.991
 30
0.000000
  70
    32
  0
VERTEX
  8
0
  5
F9FB
 10
-387.980
 20
838.990
 30
0.000000
  70
    32
  0
VERTEX
  8
0
  5
F9FC
 10
-387.978
 20
838.989
 30
0.000000
  70
    32
  0
VERTEX
  8
0
  5
F9FD
 10
-387.975
 20
838.988
 30
0.000000
  70
    32
  0
VERTEX
  8
0
  5
F9FE
 10
-387.973
 20
838.987
 30
0.000000
  70
    32
  0
VERTEX
  8
0
  5
F9FF
 10
-387.970
 20
838.986
 30
0.000000
  70
    32
  0
VERTEX
  8
0
  5
FA00
 10
-387.968
 20
838.985
 30
0.000000
  70
    32
  0
VERTEX
  8
0
  5
FA01
 10
-387.965
 20
838.984
 30
0.000000
  70
    32
  0
VERTEX
  8
0
  5
FA02
 10
-387.963
 20
838.983
 30
0.000000
  70
    32
  0
VERTEX
  8
0
  5
FA03
 10
-387.960
 20
838.982
 30
0.000000
  70
    32
  0
VERTEX
  8
0
  5
FA04
 10
-387.958
 20
838.982
 30
0.000000
  70
    32
  0
VERTEX
  8
0
  5
FA05
 10
-387.955
 20
838.981
 30
0.000000
  70
    32
  0
VERTEX
  8
0
  5
FA06
 10
-387.953
 20
838.980
 30
0.000000
  70
    32
  0
VERTEX
  8
0
  5
FA07
 10
-387.950
 20
838.979
 30
0.000000
  70
    32
  0
VERTEX
  8
0
  5
FA08
 10
-387.947
 20
838.978
 30
0.000000
  70
    32
  0
VERTEX
  8
0
  5
FA09
 10
-387.945
 20
838.977
 30
0.000000
  70
    32
  0
VERTEX
  8
0
  5
FA0A
 10
-387.942
 20
838.977
 30
0.000000
  70
    32
  0
VERTEX
  8
0
  5
FA0B
 10
-387.940
 20
838.976
 30
0.000000
  70
    32
  0
VERTEX
  8
0
  5
FA0C
 10
-387.937
 20
838.975
 30
0.000000
  70
    32
  0
VERTEX
  8
0
  5
FA0D
 10
-387.935
 20
838.974
 30
0.000000
  70
    32
  0
VERTEX
  8
0
  5
FA0E
 10
-387.932
 20
838.973
 30
0.000000
  70
    32
  0
VERTEX
  8
0
  5
FA0F
 10
-387.930
 20
838.973
 30
0.000000
  70
    32
  0
VERTEX
  8
0
  5
FA10
 10
-387.927
 20
838.972
 30
0.000000
  70
    32
  0
VERTEX
  8
0
  5
FA11
 10
-387.924
 20
838.971
 30
0.000000
  70
    32
  0
VERTEX
  8
0
  5
FA12
 10
-387.922
 20
838.971
 30
0.000000
  70
    32
  0
VERTEX
  8
0
  5
FA13
 10
-387.919
 20
838.970
 30
0.000000
  70
    32
  0
VERTEX
  8
0
  5
FA14
 10
-387.917
 20
838.969
 30
0.000000
  70
    32
  0
VERTEX
  8
0
  5
FA15
 10
-387.914
 20
838.969
 30
0.000000
  70
    32
  0
VERTEX
  8
0
  5
FA16
 10
-387.911
 20
838.968
 30
0.000000
  70
    32
  0
VERTEX
  8
0
  5
FA17
 10
-387.909
 20
838.968
 30
0.000000
  70
    32
  0
VERTEX
  8
0
  5
FA18
 10
-387.906
 20
838.967
 30
0.000000
  70
    32
  0
VERTEX
  8
0
  5
FA19
 10
-387.904
 20
838.967
 30
0.000000
  70
    32
  0
VERTEX
  8
0
  5
FA1A
 10
-387.901
 20
838.966
 30
0.000000
  70
    32
  0
VERTEX
  8
0
  5
FA1B
 10
-387.898
 20
838.966
 30
0.000000
  70
    32
  0
VERTEX
  8
0
  5
FA1C
 10
-387.896
 20
838.965
 30
0.000000
  70
    32
  0
VERTEX
  8
0
  5
FA1D
 10
-387.893
 20
838.965
 30
0.000000
  70
    32
  0
VERTEX
  8
0
  5
FA1E
 10
-387.891
 20
838.964
 30
0.000000
  70
    32
  0
VERTEX
  8
0
  5
FA1F
 10
-387.888
 20
838.964
 30
0.000000
  70
    32
  0
VERTEX
  8
0
  5
FA20
 10
-387.885
 20
838.964
 30
0.000000
  70
    32
  0
VERTEX
  8
0
  5
FA21
 10
-387.883
 20
838.963
 30
0.000000
  70
    32
  0
VERTEX
  8
0
  5
FA22
 10
-387.880
 20
838.963
 30
0.000000
  70
    32
  0
VERTEX
  8
0
  5
FA23
 10
-387.877
 20
838.963
 30
0.000000
  70
    32
  0
VERTEX
  8
0
  5
FA24
 10
-387.875
 20
838.962
 30
0.000000
  70
    32
  0
VERTEX
  8
0
  5
FA25
 10
-387.872
 20
838.962
 30
0.000000
  70
    32
  0
VERTEX
  8
0
  5
FA26
 10
-387.869
 20
838.962
 30
0.000000
  70
    32
  0
VERTEX
  8
0
  5
FA27
 10
-387.867
 20
838.961
 30
0.000000
  70
    32
  0
VERTEX
  8
0
  5
FA28
 10
-387.864
 20
838.961
 30
0.000000
  70
    32
  0
VERTEX
  8
0
  5
FA29
 10
-387.862
 20
838.961
 30
0.000000
  70
    32
  0
VERTEX
  8
0
  5
FA2A
 10
-387.859
 20
838.961
 30
0.000000
  70
    32
  0
VERTEX
  8
0
  5
FA2B
 10
-387.856
 20
838.961
 30
0.000000
  70
    32
  0
VERTEX
  8
0
  5
FA2C
 10
-387.854
 20
838.960
 30
0.000000
  70
    32
  0
VERTEX
  8
0
  5
FA2D
 10
-387.851
 20
838.960
 30
0.000000
  70
    32
  0
VERTEX
  8
0
  5
FA2E
 10
-387.848
 20
838.960
 30
0.000000
  70
    32
  0
VERTEX
  8
0
  5
FA2F
 10
-387.846
 20
838.960
 30
0.000000
  70
    32
  0
VERTEX
  8
0
  5
FA30
 10
-387.843
 20
838.960
 30
0.000000
  70
    32
  0
VERTEX
  8
0
  5
FA31
 10
-387.840
 20
838.960
 30
0.000000
  70
    32
  0
VERTEX
  8
0
  5
FA32
 10
-387.838
 20
838.959
 30
0.000000
  70
    32
  0
VERTEX
  8
0
  5
FA33
 10
-387.835
 20
838.959
 30
0.000000
  70
    32
  0
VERTEX
  8
0
  5
FA34
 10
-387.832
 20
838.959
 30
0.000000
  70
    32
  0
VERTEX
  8
0
  5
FA35
 10
-387.830
 20
838.959
 30
0.000000
  70
    32
  0
VERTEX
  8
0
  5
FA36
 10
-387.827
 20
838.959
 30
0.000000
  70
    32
  0
VERTEX
  8
0
  5
FA37
 10
-387.824
 20
838.959
 30
0.000000
  70
    32
  0
VERTEX
  8
0
  5
FA38
 10
-387.822
 20
838.959
 30
0.000000
  70
    32
  0
VERTEX
  8
0
  5
FA39
 10
-387.819
 20
838.959
 30
0.000000
  70
    32
  0
VERTEX
  8
0
  5
FA3A
 10
-387.816
 20
838.959
 30
0.000000
  70
    32
  0
VERTEX
  8
0
  5
FA3B
 10
-387.814
 20
838.959
 30
0.000000
  70
    32
  0
VERTEX
  8
0
  5
FA3C
 10
-387.811
 20
838.959
 30
0.000000
  70
    32
  0
VERTEX
  8
0
  5
FA3D
 10
-387.808
 20
838.959
 30
0.000000
  70
    32
  0
VERTEX
  8
0
  5
FA3E
 10
-387.806
 20
838.959
 30
0.000000
  70
    32
  0
VERTEX
  8
0
  5
FA3F
 10
-387.803
 20
838.959
 30
0.000000
  70
    32
  0
VERTEX
  8
0
  5
FA40
 10
-387.800
 20
838.959
 30
0.000000
  70
    32
  0
VERTEX
  8
0
  5
FA41
 10
-387.798
 20
838.959
 30
0.000000
  70
    32
  0
VERTEX
  8
0
  5
FA42
 10
-387.795
 20
838.959
 30
0.000000
  70
    32
  0
VERTEX
  8
0
  5
FA43
 10
-387.792
 20
838.959
 30
0.000000
  70
    32
  0
VERTEX
  8
0
  5
FA44
 10
-387.790
 20
838.959
 30
0.000000
  70
    32
  0
VERTEX
  8
0
  5
FA45
 10
-387.787
 20
838.959
 30
0.000000
  70
    32
  0
VERTEX
  8
0
  5
FA46
 10
-387.785
 20
838.959
 30
0.000000
  70
    32
  0
VERTEX
  8
0
  5
FA47
 10
-387.782
 20
838.958
 30
0.000000
  70
    32
  0
VERTEX
  8
0
  5
FA48
 10
-387.779
 20
838.958
 30
0.000000
  70
    32
  0
VERTEX
  8
0
  5
FA49
 10
-387.777
 20
838.958
 30
0.000000
  70
    32
  0
VERTEX
  8
0
  5
FA4A
 10
-387.774
 20
838.958
 30
0.000000
  70
    32
  0
VERTEX
  8
0
  5
FA4B
 10
-387.771
 20
838.958
 30
0.000000
  70
    32
  0
VERTEX
  8
0
  5
FA4C
 10
-387.769
 20
838.958
 30
0.000000
  70
    32
  0
VERTEX
  8
0
  5
FA4D
 10
-387.766
 20
838.958
 30
0.000000
  70
    32
  0
VERTEX
  8
0
  5
FA4E
 10
-387.763
 20
838.958
 30
0.000000
  70
    32
  0
SEQEND
  8
0
  5
FA4F
  0
LINE
  5
F7D9
  8
0
  6
CONTINUOUS
 10
-387.99503845223478
 20
838.35649893612594
 30
0.0
 11
-387.7787724311919
 21
838.35895852093665
 31
0.0
  0
LINE
  5
F7DA
  8
0
  6
CONTINUOUS
 10
-388.38711229501689
 20
839.10759446435316
 30
0.0
 11
-387.99503845223478
 21
838.35649893612594
 31
0.0
  0
POLYLINE
  8
0
  5
FA50
  66
     1
 10
0.000000
 20
0.000000
 30
0.000000
  70
     8
  0
VERTEX
  8
0
  5
FA51
 10
-387.717
 20
838.856
 30
0.000000
  70
    32
  0
VERTEX
  8
0
  5
FA52
 10
-387.714
 20
838.856
 30
0.000000
  70
    32
  0
VERTEX
  8
0
  5
FA53
 10
-387.710
 20
838.855
 30
0.000000
  70
    32
  0
VERTEX
  8
0
  5
FA54
 10
-387.706
 20
838.855
 30
0.000000
  70
    32
  0
VERTEX
  8
0
  5
FA55
 10
-387.703
 20
838.855
 30
0.000000
  70
    32
  0
VERTEX
  8
0
  5
FA56
 10
-387.699
 20
838.854
 30
0.000000
  70
    32
  0
VERTEX
  8
0
  5
FA57
 10
-387.695
 20
838.854
 30
0.000000
  70
    32
  0
VERTEX
  8
0
  5
FA58
 10
-387.691
 20
838.853
 30
0.000000
  70
    32
  0
VERTEX
  8
0
  5
FA59
 10
-387.688
 20
838.853
 30
0.000000
  70
    32
  0
VERTEX
  8
0
  5
FA5A
 10
-387.684
 20
838.852
 30
0.000000
  70
    32
  0
VERTEX
  8
0
  5
FA5B
 10
-387.680
 20
838.852
 30
0.000000
  70
    32
  0
VERTEX
  8
0
  5
FA5C
 10
-387.676
 20
838.851
 30
0.000000
  70
    32
  0
VERTEX
  8
0
  5
FA5D
 10
-387.673
 20
838.851
 30
0.000000
  70
    32
  0
VERTEX
  8
0
  5
FA5E
 10
-387.669
 20
838.850
 30
0.000000
  70
    32
  0
VERTEX
  8
0
  5
FA5F
 10
-387.665
 20
838.849
 30
0.000000
  70
    32
  0
VERTEX
  8
0
  5
FA60
 10
-387.661
 20
838.849
 30
0.000000
  70
    32
  0
VERTEX
  8
0
  5
FA61
 10
-387.658
 20
838.848
 30
0.000000
  70
    32
  0
VERTEX
  8
0
  5
FA62
 10
-387.654
 20
838.848
 30
0.000000
  70
    32
  0
VERTEX
  8
0
  5
FA63
 10
-387.650
 20
838.847
 30
0.000000
  70
    32
  0
VERTEX
  8
0
  5
FA64
 10
-387.646
 20
838.846
 30
0.000000
  70
    32
  0
VERTEX
  8
0
  5
FA65
 10
-387.643
 20
838.846
 30
0.000000
  70
    32
  0
VERTEX
  8
0
  5
FA66
 10
-387.639
 20
838.845
 30
0.000000
  70
    32
  0
VERTEX
  8
0
  5
FA67
 10
-387.635
 20
838.844
 30
0.000000
  70
    32
  0
VERTEX
  8
0
  5
FA68
 10
-387.632
 20
838.843
 30
0.000000
  70
    32
  0
VERTEX
  8
0
  5
FA69
 10
-387.628
 20
838.843
 30
0.000000
  70
    32
  0
VERTEX
  8
0
  5
FA6A
 10
-387.624
 20
838.842
 30
0.000000
  70
    32
  0
VERTEX
  8
0
  5
FA6B
 10
-387.621
 20
838.841
 30
0.000000
  70
    32
  0
VERTEX
  8
0
  5
FA6C
 10
-387.617
 20
838.840
 30
0.000000
  70
    32
  0
VERTEX
  8
0
  5
FA6D
 10
-387.613
 20
838.839
 30
0.000000
  70
    32
  0
VERTEX
  8
0
  5
FA6E
 10
-387.610
 20
838.838
 30
0.000000
  70
    32
  0
VERTEX
  8
0
  5
FA6F
 10
-387.606
 20
838.838
 30
0.000000
  70
    32
  0
VERTEX
  8
0
  5
FA70
 10
-387.602
 20
838.837
 30
0.000000
  70
    32
  0
VERTEX
  8
0
  5
FA71
 10
-387.599
 20
838.836
 30
0.000000
  70
    32
  0
VERTEX
  8
0
  5
FA72
 10
-387.595
 20
838.835
 30
0.000000
  70
    32
  0
VERTEX
  8
0
  5
FA73
 10
-387.591
 20
838.833
 30
0.000000
  70
    32
  0
VERTEX
  8
0
  5
FA74
 10
-387.588
 20
838.832
 30
0.000000
  70
    32
  0
VERTEX
  8
0
  5
FA75
 10
-387.584
 20
838.831
 30
0.000000
  70
    32
  0
VERTEX
  8
0
  5
FA76
 10
-387.581
 20
838.830
 30
0.000000
  70
    32
  0
VERTEX
  8
0
  5
FA77
 10
-387.577
 20
838.829
 30
0.000000
  70
    32
  0
VERTEX
  8
0
  5
FA78
 10
-387.574
 20
838.828
 30
0.000000
  70
    32
  0
VERTEX
  8
0
  5
FA79
 10
-387.570
 20
838.826
 30
0.000000
  70
    32
  0
VERTEX
  8
0
  5
FA7A
 10
-387.567
 20
838.825
 30
0.000000
  70
    32
  0
VERTEX
  8
0
  5
FA7B
 10
-387.563
 20
838.824
 30
0.000000
  70
    32
  0
VERTEX
  8
0
  5
FA7C
 10
-387.559
 20
838.822
 30
0.000000
  70
    32
  0
VERTEX
  8
0
  5
FA7D
 10
-387.556
 20
838.821
 30
0.000000
  70
    32
  0
VERTEX
  8
0
  5
FA7E
 10
-387.553
 20
838.819
 30
0.000000
  70
    32
  0
VERTEX
  8
0
  5
FA7F
 10
-387.549
 20
838.818
 30
0.000000
  70
    32
  0
VERTEX
  8
0
  5
FA80
 10
-387.546
 20
838.816
 30
0.000000
  70
    32
  0
VERTEX
  8
0
  5
FA81
 10
-387.542
 20
838.815
 30
0.000000
  70
    32
  0
VERTEX
  8
0
  5
FA82
 10
-387.539
 20
838.813
 30
0.000000
  70
    32
  0
VERTEX
  8
0
  5
FA83
 10
-387.535
 20
838.811
 30
0.000000
  70
    32
  0
VERTEX
  8
0
  5
FA84
 10
-387.532
 20
838.810
 30
0.000000
  70
    32
  0
VERTEX
  8
0
  5
FA85
 10
-387.529
 20
838.808
 30
0.000000
  70
    32
  0
VERTEX
  8
0
  5
FA86
 10
-387.525
 20
838.806
 30
0.000000
  70
    32
  0
VERTEX
  8
0
  5
FA87
 10
-387.522
 20
838.804
 30
0.000000
  70
    32
  0
VERTEX
  8
0
  5
FA88
 10
-387.519
 20
838.802
 30
0.000000
  70
    32
  0
VERTEX
  8
0
  5
FA89
 10
-387.515
 20
838.800
 30
0.000000
  70
    32
  0
VERTEX
  8
0
  5
FA8A
 10
-387.512
 20
838.798
 30
0.000000
  70
    32
  0
VERTEX
  8
0
  5
FA8B
 10
-387.509
 20
838.797
 30
0.000000
  70
    32
  0
VERTEX
  8
0
  5
FA8C
 10
-387.506
 20
838.795
 30
0.000000
  70
    32
  0
VERTEX
  8
0
  5
FA8D
 10
-387.502
 20
838.792
 30
0.000000
  70
    32
  0
VERTEX
  8
0
  5
FA8E
 10
-387.499
 20
838.790
 30
0.000000
  70
    32
  0
VERTEX
  8
0
  5
FA8F
 10
-387.496
 20
838.788
 30
0.000000
  70
    32
  0
VERTEX
  8
0
  5
FA90
 10
-387.493
 20
838.786
 30
0.000000
  70
    32
  0
VERTEX
  8
0
  5
FA91
 10
-387.490
 20
838.784
 30
0.000000
  70
    32
  0
VERTEX
  8
0
  5
FA92
 10
-387.487
 20
838.782
 30
0.000000
  70
    32
  0
VERTEX
  8
0
  5
FA93
 10
-387.484
 20
838.779
 30
0.000000
  70
    32
  0
VERTEX
  8
0
  5
FA94
 10
-387.481
 20
838.777
 30
0.000000
  70
    32
  0
VERTEX
  8
0
  5
FA95
 10
-387.478
 20
838.775
 30
0.000000
  70
    32
  0
VERTEX
  8
0
  5
FA96
 10
-387.475
 20
838.772
 30
0.000000
  70
    32
  0
VERTEX
  8
0
  5
FA97
 10
-387.472
 20
838.770
 30
0.000000
  70
    32
  0
VERTEX
  8
0
  5
FA98
 10
-387.469
 20
838.768
 30
0.000000
  70
    32
  0
VERTEX
  8
0
  5
FA99
 10
-387.466
 20
838.765
 30
0.000000
  70
    32
  0
VERTEX
  8
0
  5
FA9A
 10
-387.463
 20
838.763
 30
0.000000
  70
    32
  0
VERTEX
  8
0
  5
FA9B
 10
-387.460
 20
838.760
 30
0.000000
  70
    32
  0
VERTEX
  8
0
  5
FA9C
 10
-387.458
 20
838.757
 30
0.000000
  70
    32
  0
VERTEX
  8
0
  5
FA9D
 10
-387.455
 20
838.755
 30
0.000000
  70
    32
  0
VERTEX
  8
0
  5
FA9E
 10
-387.452
 20
838.752
 30
0.000000
  70
    32
  0
VERTEX
  8
0
  5
FA9F
 10
-387.449
 20
838.749
 30
0.000000
  70
    32
  0
VERTEX
  8
0
  5
FAA0
 10
-387.447
 20
838.747
 30
0.000000
  70
    32
  0
VERTEX
  8
0
  5
FAA1
 10
-387.444
 20
838.744
 30
0.000000
  70
    32
  0
VERTEX
  8
0
  5
FAA2
 10
-387.442
 20
838.741
 30
0.000000
  70
    32
  0
VERTEX
  8
0
  5
FAA3
 10
-387.439
 20
838.738
 30
0.000000
  70
    32
  0
VERTEX
  8
0
  5
FAA4
 10
-387.436
 20
838.736
 30
0.000000
  70
    32
  0
VERTEX
  8
0
  5
FAA5
 10
-387.434
 20
838.733
 30
0.000000
  70
    32
  0
VERTEX
  8
0
  5
FAA6
 10
-387.432
 20
838.730
 30
0.000000
  70
    32
  0
VERTEX
  8
0
  5
FAA7
 10
-387.429
 20
838.727
 30
0.000000
  70
    32
  0
VERTEX
  8
0
  5
FAA8
 10
-387.427
 20
838.724
 30
0.000000
  70
    32
  0
VERTEX
  8
0
  5
FAA9
 10
-387.424
 20
838.721
 30
0.000000
  70
    32
  0
VERTEX
  8
0
  5
FAAA
 10
-387.422
 20
838.718
 30
0.000000
  70
    32
  0
VERTEX
  8
0
  5
FAAB
 10
-387.420
 20
838.715
 30
0.000000
  70
    32
  0
VERTEX
  8
0
  5
FAAC
 10
-387.418
 20
838.712
 30
0.000000
  70
    32
  0
VERTEX
  8
0
  5
FAAD
 10
-387.415
 20
838.709
 30
0.000000
  70
    32
  0
VERTEX
  8
0
  5
FAAE
 10
-387.413
 20
838.706
 30
0.000000
  70
    32
  0
VERTEX
  8
0
  5
FAAF
 10
-387.411
 20
838.702
 30
0.000000
  70
    32
  0
VERTEX
  8
0
  5
FAB0
 10
-387.409
 20
838.699
 30
0.000000
  70
    32
  0
VERTEX
  8
0
  5
FAB1
 10
-387.407
 20
838.696
 30
0.000000
  70
    32
  0
VERTEX
  8
0
  5
FAB2
 10
-387.405
 20
838.693
 30
0.000000
  70
    32
  0
VERTEX
  8
0
  5
FAB3
 10
-387.403
 20
838.690
 30
0.000000
  70
    32
  0
VERTEX
  8
0
  5
FAB4
 10
-387.401
 20
838.686
 30
0.000000
  70
    32
  0
VERTEX
  8
0
  5
FAB5
 10
-387.399
 20
838.683
 30
0.000000
  70
    32
  0
VERTEX
  8
0
  5
FAB6
 10
-387.397
 20
838.680
 30
0.000000
  70
    32
  0
VERTEX
  8
0
  5
FAB7
 10
-387.395
 20
838.676
 30
0.000000
  70
    32
  0
VERTEX
  8
0
  5
FAB8
 10
-387.394
 20
838.673
 30
0.000000
  70
    32
  0
VERTEX
  8
0
  5
FAB9
 10
-387.392
 20
838.670
 30
0.000000
  70
    32
  0
VERTEX
  8
0
  5
FABA
 10
-387.390
 20
838.666
 30
0.000000
  70
    32
  0
VERTEX
  8
0
  5
FABB
 10
-387.388
 20
838.663
 30
0.000000
  70
    32
  0
VERTEX
  8
0
  5
FABC
 10
-387.387
 20
838.659
 30
0.000000
  70
    32
  0
VERTEX
  8
0
  5
FABD
 10
-387.385
 20
838.656
 30
0.000000
  70
    32
  0
VERTEX
  8
0
  5
FABE
 10
-387.384
 20
838.652
 30
0.000000
  70
    32
  0
VERTEX
  8
0
  5
FABF
 10
-387.382
 20
838.649
 30
0.000000
  70
    32
  0
VERTEX
  8
0
  5
FAC0
 10
-387.381
 20
838.645
 30
0.000000
  70
    32
  0
VERTEX
  8
0
  5
FAC1
 10
-387.379
 20
838.642
 30
0.000000
  70
    32
  0
VERTEX
  8
0
  5
FAC2
 10
-387.378
 20
838.638
 30
0.000000
  70
    32
  0
VERTEX
  8
0
  5
FAC3
 10
-387.376
 20
838.635
 30
0.000000
  70
    32
  0
VERTEX
  8
0
  5
FAC4
 10
-387.375
 20
838.631
 30
0.000000
  70
    32
  0
VERTEX
  8
0
  5
FAC5
 10
-387.374
 20
838.627
 30
0.000000
  70
    32
  0
VERTEX
  8
0
  5
FAC6
 10
-387.372
 20
838.624
 30
0.000000
  70
    32
  0
VERTEX
  8
0
  5
FAC7
 10
-387.371
 20
838.620
 30
0.000000
  70
    32
  0
VERTEX
  8
0
  5
FAC8
 10
-387.370
 20
838.616
 30
0.000000
  70
    32
  0
VERTEX
  8
0
  5
FAC9
 10
-387.369
 20
838.613
 30
0.000000
  70
    32
  0
VERTEX
  8
0
  5
FACA
 10
-387.368
 20
838.609
 30
0.000000
  70
    32
  0
VERTEX
  8
0
  5
FACB
 10
-387.367
 20
838.605
 30
0.000000
  70
    32
  0
VERTEX
  8
0
  5
FACC
 10
-387.366
 20
838.602
 30
0.000000
  70
    32
  0
VERTEX
  8
0
  5
FACD
 10
-387.365
 20
838.598
 30
0.000000
  70
    32
  0
VERTEX
  8
0
  5
FACE
 10
-387.364
 20
838.594
 30
0.000000
  70
    32
  0
VERTEX
  8
0
  5
FACF
 10
-387.363
 20
838.591
 30
0.000000
  70
    32
  0
VERTEX
  8
0
  5
FAD0
 10
-387.362
 20
838.587
 30
0.000000
  70
    32
  0
VERTEX
  8
0
  5
FAD1
 10
-387.361
 20
838.583
 30
0.000000
  70
    32
  0
VERTEX
  8
0
  5
FAD2
 10
-387.360
 20
838.579
 30
0.000000
  70
    32
  0
VERTEX
  8
0
  5
FAD3
 10
-387.359
 20
838.576
 30
0.000000
  70
    32
  0
VERTEX
  8
0
  5
FAD4
 10
-387.359
 20
838.572
 30
0.000000
  70
    32
  0
VERTEX
  8
0
  5
FAD5
 10
-387.358
 20
838.568
 30
0.000000
  70
    32
  0
VERTEX
  8
0
  5
FAD6
 10
-387.357
 20
838.564
 30
0.000000
  70
    32
  0
VERTEX
  8
0
  5
FAD7
 10
-387.357
 20
838.561
 30
0.000000
  70
    32
  0
VERTEX
  8
0
  5
FAD8
 10
-387.356
 20
838.557
 30
0.000000
  70
    32
  0
VERTEX
  8
0
  5
FAD9
 10
-387.356
 20
838.553
 30
0.000000
  70
    32
  0
VERTEX
  8
0
  5
FADA
 10
-387.355
 20
838.549
 30
0.000000
  70
    32
  0
VERTEX
  8
0
  5
FADB
 10
-387.355
 20
838.545
 30
0.000000
  70
    32
  0
VERTEX
  8
0
  5
FADC
 10
-387.354
 20
838.542
 30
0.000000
  70
    32
  0
VERTEX
  8
0
  5
FADD
 10
-387.354
 20
838.538
 30
0.000000
  70
    32
  0
VERTEX
  8
0
  5
FADE
 10
-387.354
 20
838.534
 30
0.000000
  70
    32
  0
VERTEX
  8
0
  5
FADF
 10
-387.353
 20
838.530
 30
0.000000
  70
    32
  0
VERTEX
  8
0
  5
FAE0
 10
-387.353
 20
838.526
 30
0.000000
  70
    32
  0
VERTEX
  8
0
  5
FAE1
 10
-387.353
 20
838.523
 30
0.000000
  70
    32
  0
VERTEX
  8
0
  5
FAE2
 10
-387.353
 20
838.519
 30
0.000000
  70
    32
  0
VERTEX
  8
0
  5
FAE3
 10
-387.353
 20
838.515
 30
0.000000
  70
    32
  0
VERTEX
  8
0
  5
FAE4
 10
-387.352
 20
838.511
 30
0.000000
  70
    32
  0
VERTEX
  8
0
  5
FAE5
 10
-387.352
 20
838.507
 30
0.000000
  70
    32
  0
VERTEX
  8
0
  5
FAE6
 10
-387.352
 20
838.504
 30
0.000000
  70
    32
  0
VERTEX
  8
0
  5
FAE7
 10
-387.352
 20
838.500
 30
0.000000
  70
    32
  0
VERTEX
  8
0
  5
FAE8
 10
-387.352
 20
838.496
 30
0.000000
  70
    32
  0
VERTEX
  8
0
  5
FAE9
 10
-387.353
 20
838.492
 30
0.000000
  70
    32
  0
VERTEX
  8
0
  5
FAEA
 10
-387.353
 20
838.488
 30
0.000000
  70
    32
  0
VERTEX
  8
0
  5
FAEB
 10
-387.353
 20
838.485
 30
0.000000
  70
    32
  0
VERTEX
  8
0
  5
FAEC
 10
-387.353
 20
838.481
 30
0.000000
  70
    32
  0
VERTEX
  8
0
  5
FAED
 10
-387.353
 20
838.477
 30
0.000000
  70
    32
  0
VERTEX
  8
0
  5
FAEE
 10
-387.354
 20
838.473
 30
0.000000
  70
    32
  0
VERTEX
  8
0
  5
FAEF
 10
-387.354
 20
838.469
 30
0.000000
  70
    32
  0
VERTEX
  8
0
  5
FAF0
 10
-387.354
 20
838.466
 30
0.000000
  70
    32
  0
VERTEX
  8
0
  5
FAF1
 10
-387.355
 20
838.462
 30
0.000000
  70
    32
  0
VERTEX
  8
0
  5
FAF2
 10
-387.355
 20
838.458
 30
0.000000
  70
    32
  0
VERTEX
  8
0
  5
FAF3
 10
-387.356
 20
838.454
 30
0.000000
  70
    32
  0
VERTEX
  8
0
  5
FAF4
 10
-387.356
 20
838.451
 30
0.000000
  70
    32
  0
VERTEX
  8
0
  5
FAF5
 10
-387.357
 20
838.447
 30
0.000000
  70
    32
  0
VERTEX
  8
0
  5
FAF6
 10
-387.357
 20
838.443
 30
0.000000
  70
    32
  0
VERTEX
  8
0
  5
FAF7
 10
-387.358
 20
838.439
 30
0.000000
  70
    32
  0
VERTEX
  8
0
  5
FAF8
 10
-387.358
 20
838.436
 30
0.000000
  70
    32
  0
VERTEX
  8
0
  5
FAF9
 10
-387.359
 20
838.432
 30
0.000000
  70
    32
  0
VERTEX
  8
0
  5
FAFA
 10
-387.360
 20
838.428
 30
0.000000
  70
    32
  0
VERTEX
  8
0
  5
FAFB
 10
-387.361
 20
838.424
 30
0.000000
  70
    32
  0
VERTEX
  8
0
  5
FAFC
 10
-387.361
 20
838.421
 30
0.000000
  70
    32
  0
VERTEX
  8
0
  5
FAFD
 10
-387.362
 20
838.417
 30
0.000000
  70
    32
  0
VERTEX
  8
0
  5
FAFE
 10
-387.363
 20
838.413
 30
0.000000
  70
    32
  0
VERTEX
  8
0
  5
FAFF
 10
-387.364
 20
838.409
 30
0.000000
  70
    32
  0
VERTEX
  8
0
  5
FB00
 10
-387.365
 20
838.406
 30
0.000000
  70
    32
  0
VERTEX
  8
0
  5
FB01
 10
-387.366
 20
838.402
 30
0.000000
  70
    32
  0
VERTEX
  8
0
  5
FB02
 10
-387.367
 20
838.398
 30
0.000000
  70
    32
  0
VERTEX
  8
0
  5
FB03
 10
-387.368
 20
838.395
 30
0.000000
  70
    32
  0
VERTEX
  8
0
  5
FB04
 10
-387.369
 20
838.391
 30
0.000000
  70
    32
  0
VERTEX
  8
0
  5
FB05
 10
-387.370
 20
838.387
 30
0.000000
  70
    32
  0
VERTEX
  8
0
  5
FB06
 10
-387.371
 20
838.384
 30
0.000000
  70
    32
  0
VERTEX
  8
0
  5
FB07
 10
-387.373
 20
838.380
 30
0.000000
  70
    32
  0
VERTEX
  8
0
  5
FB08
 10
-387.374
 20
838.377
 30
0.000000
  70
    32
  0
VERTEX
  8
0
  5
FB09
 10
-387.375
 20
838.373
 30
0.000000
  70
    32
  0
VERTEX
  8
0
  5
FB0A
 10
-387.376
 20
838.369
 30
0.000000
  70
    32
  0
VERTEX
  8
0
  5
FB0B
 10
-387.378
 20
838.366
 30
0.000000
  70
    32
  0
VERTEX
  8
0
  5
FB0C
 10
-387.379
 20
838.362
 30
0.000000
  70
    32
  0
VERTEX
  8
0
  5
FB0D
 10
-387.380
 20
838.359
 30
0.000000
  70
    32
  0
VERTEX
  8
0
  5
FB0E
 10
-387.382
 20
838.355
 30
0.000000
  70
    32
  0
VERTEX
  8
0
  5
FB0F
 10
-387.383
 20
838.352
 30
0.000000
  70
    32
  0
VERTEX
  8
0
  5
FB10
 10
-387.385
 20
838.348
 30
0.000000
  70
    32
  0
VERTEX
  8
0
  5
FB11
 10
-387.386
 20
838.345
 30
0.000000
  70
    32
  0
VERTEX
  8
0
  5
FB12
 10
-387.388
 20
838.341
 30
0.000000
  70
    32
  0
VERTEX
  8
0
  5
FB13
 10
-387.390
 20
838.338
 30
0.000000
  70
    32
  0
VERTEX
  8
0
  5
FB14
 10
-387.391
 20
838.334
 30
0.000000
  70
    32
  0
VERTEX
  8
0
  5
FB15
 10
-387.393
 20
838.331
 30
0.000000
  70
    32
  0
VERTEX
  8
0
  5
FB16
 10
-387.395
 20
838.327
 30
0.000000
  70
    32
  0
VERTEX
  8
0
  5
FB17
 10
-387.396
 20
838.324
 30
0.000000
  70
    32
  0
VERTEX
  8
0
  5
FB18
 10
-387.398
 20
838.321
 30
0.000000
  70
    32
  0
VERTEX
  8
0
  5
FB19
 10
-387.400
 20
838.317
 30
0.000000
  70
    32
  0
VERTEX
  8
0
  5
FB1A
 10
-387.402
 20
838.314
 30
0.000000
  70
    32
  0
VERTEX
  8
0
  5
FB1B
 10
-387.404
 20
838.311
 30
0.000000
  70
    32
  0
VERTEX
  8
0
  5
FB1C
 10
-387.405
 20
838.307
 30
0.000000
  70
    32
  0
VERTEX
  8
0
  5
FB1D
 10
-387.407
 20
838.304
 30
0.000000
  70
    32
  0
VERTEX
  8
0
  5
FB1E
 10
-387.409
 20
838.301
 30
0.000000
  70
    32
  0
VERTEX
  8
0
  5
FB1F
 10
-387.411
 20
838.297
 30
0.000000
  70
    32
  0
VERTEX
  8
0
  5
FB20
 10
-387.413
 20
838.294
 30
0.000000
  70
    32
  0
VERTEX
  8
0
  5
FB21
 10
-387.415
 20
838.291
 30
0.000000
  70
    32
  0
VERTEX
  8
0
  5
FB22
 10
-387.417
 20
838.288
 30
0.000000
  70
    32
  0
VERTEX
  8
0
  5
FB23
 10
-387.419
 20
838.284
 30
0.000000
  70
    32
  0
VERTEX
  8
0
  5
FB24
 10
-387.422
 20
838.281
 30
0.000000
  70
    32
  0
VERTEX
  8
0
  5
FB25
 10
-387.424
 20
838.278
 30
0.000000
  70
    32
  0
VERTEX
  8
0
  5
FB26
 10
-387.426
 20
838.275
 30
0.000000
  70
    32
  0
VERTEX
  8
0
  5
FB27
 10
-387.428
 20
838.272
 30
0.000000
  70
    32
  0
VERTEX
  8
0
  5
FB28
 10
-387.430
 20
838.269
 30
0.000000
  70
    32
  0
VERTEX
  8
0
  5
FB29
 10
-387.433
 20
838.266
 30
0.000000
  70
    32
  0
VERTEX
  8
0
  5
FB2A
 10
-387.435
 20
838.263
 30
0.000000
  70
    32
  0
VERTEX
  8
0
  5
FB2B
 10
-387.437
 20
838.260
 30
0.000000
  70
    32
  0
VERTEX
  8
0
  5
FB2C
 10
-387.440
 20
838.257
 30
0.000000
  70
    32
  0
VERTEX
  8
0
  5
FB2D
 10
-387.442
 20
838.254
 30
0.000000
  70
    32
  0
VERTEX
  8
0
  5
FB2E
 10
-387.444
 20
838.251
 30
0.000000
  70
    32
  0
VERTEX
  8
0
  5
FB2F
 10
-387.447
 20
838.248
 30
0.000000
  70
    32
  0
VERTEX
  8
0
  5
FB30
 10
-387.449
 20
838.245
 30
0.000000
  70
    32
  0
VERTEX
  8
0
  5
FB31
 10
-387.452
 20
838.242
 30
0.000000
  70
    32
  0
VERTEX
  8
0
  5
FB32
 10
-387.454
 20
838.239
 30
0.000000
  70
    32
  0
VERTEX
  8
0
  5
FB33
 10
-387.457
 20
838.236
 30
0.000000
  70
    32
  0
VERTEX
  8
0
  5
FB34
 10
-387.459
 20
838.233
 30
0.000000
  70
    32
  0
VERTEX
  8
0
  5
FB35
 10
-387.462
 20
838.230
 30
0.000000
  70
    32
  0
VERTEX
  8
0
  5
FB36
 10
-387.465
 20
838.228
 30
0.000000
  70
    32
  0
VERTEX
  8
0
  5
FB37
 10
-387.467
 20
838.225
 30
0.000000
  70
    32
  0
VERTEX
  8
0
  5
FB38
 10
-387.470
 20
838.222
 30
0.000000
  70
    32
  0
VERTEX
  8
0
  5
FB39
 10
-387.473
 20
838.219
 30
0.000000
  70
    32
  0
VERTEX
  8
0
  5
FB3A
 10
-387.475
 20
838.217
 30
0.000000
  70
    32
  0
VERTEX
  8
0
  5
FB3B
 10
-387.478
 20
838.214
 30
0.000000
  70
    32
  0
VERTEX
  8
0
  5
FB3C
 10
-387.481
 20
838.211
 30
0.000000
  70
    32
  0
VERTEX
  8
0
  5
FB3D
 10
-387.484
 20
838.209
 30
0.000000
  70
    32
  0
VERTEX
  8
0
  5
FB3E
 10
-387.486
 20
838.206
 30
0.000000
  70
    32
  0
VERTEX
  8
0
  5
FB3F
 10
-387.489
 20
838.204
 30
0.000000
  70
    32
  0
VERTEX
  8
0
  5
FB40
 10
-387.492
 20
838.201
 30
0.000000
  70
    32
  0
VERTEX
  8
0
  5
FB41
 10
-387.495
 20
838.199
 30
0.000000
  70
    32
  0
VERTEX
  8
0
  5
FB42
 10
-387.498
 20
838.196
 30
0.000000
  70
    32
  0
VERTEX
  8
0
  5
FB43
 10
-387.501
 20
838.194
 30
0.000000
  70
    32
  0
VERTEX
  8
0
  5
FB44
 10
-387.504
 20
838.191
 30
0.000000
  70
    32
  0
VERTEX
  8
0
  5
FB45
 10
-387.507
 20
838.189
 30
0.000000
  70
    32
  0
VERTEX
  8
0
  5
FB46
 10
-387.509
 20
838.187
 30
0.000000
  70
    32
  0
VERTEX
  8
0
  5
FB47
 10
-387.512
 20
838.184
 30
0.000000
  70
    32
  0
VERTEX
  8
0
  5
FB48
 10
-387.515
 20
838.182
 30
0.000000
  70
    32
  0
VERTEX
  8
0
  5
FB49
 10
-387.518
 20
838.180
 30
0.000000
  70
    32
  0
VERTEX
  8
0
  5
FB4A
 10
-387.522
 20
838.178
 30
0.000000
  70
    32
  0
VERTEX
  8
0
  5
FB4B
 10
-387.525
 20
838.175
 30
0.000000
  70
    32
  0
VERTEX
  8
0
  5
FB4C
 10
-387.528
 20
838.173
 30
0.000000
  70
    32
  0
VERTEX
  8
0
  5
FB4D
 10
-387.531
 20
838.171
 30
0.000000
  70
    32
  0
VERTEX
  8
0
  5
FB4E
 10
-387.534
 20
838.169
 30
0.000000
  70
    32
  0
VERTEX
  8
0
  5
FB4F
 10
-387.537
 20
838.167
 30
0.000000
  70
    32
  0
VERTEX
  8
0
  5
FB50
 10
-387.540
 20
838.165
 30
0.000000
  70
    32
  0
SEQEND
  8
0
  5
FB51
  0
LINE
  5
F7DC
  8
0
  6
CONTINUOUS
 10
-387.76325153576119
 20
838.95828067288903
 30
0.0
 11
-387.71749473087851
 21
838.85627742848806
 31
0.0
  0
ARC
  5
F7DD
  8
0
  6
CONTINUOUS
 10
-387.41424703820638
 20
837.86687313253492
 30
0.0
 40
0.2707451191990738
 50
117.5676483363729
 51
169.1013449776764
  0
LINE
  5
F7DE
  8
0
  6
CONTINUOUS
 10
-387.54020563720439
 20
838.16481984940185
 30
0.0
 11
-387.53954668067507
 21
838.10687921405633
 31
0.0
  0
LINE
  5
F7DF
  8
0
  6
CONTINUOUS
 10
-387.77374603898818
 20
837.91699862695475
 30
0.0
 11
-387.68010876865623
 21
837.91806355988615
 31
0.0
  0
LINE
  5
F7E0
  8
0
  6
CONTINUOUS
 10
-387.7787724311919
 20
838.35895852093665
 30
0.0
 11
-387.77374603898818
 21
837.91699862695475
 31
0.0
  0
LINE
  5
F7E1
  8
0
  6
CONTINUOUS
 10
-388.1921049085837
 20
839.60682900886366
 30
0.0
 11
-388.39276411542272
 21
839.60454691972723
 31
0.0
  0
ARC
  5
F7E2
  8
0
  6
CONTINUOUS
 10
-388.23397722197922
 20
839.43884379275767
 30
0.0
 40
0.173125167030285
 50
279.23948144759879
 51
76.003566044899614
  0
INSERT
  5
F7E3
  8
0
  2
*U118
 10
0.0
 20
0.0
 30
0.0
  0
VIEWPORT
  5
BADA
 67
     1
  8
0
 10
5.249999665167528
 20
4.016860864854312
 30
0.0
 40
16.259362384438411
 41
8.0158201110956853
 68
     2
 69
     1
1001
ACAD
1000
MVIEW
1002
{
1070
    16
1010
0.0
1020
0.0
1030
0.0
1010
0.0
1020
0.0
1030
1.0
1040
0.0
1040
8.0158201110956853
1040
5.249999665167528
1040
4.016860864854312
1040
50.0
1040
0.0
1040
0.0
1070
     0
1070
   100
1070
     1
1070
     1
1070
     0
1070
     0
1070
     0
1070
     0
1040
0.0
1040
0.0
1040
0.0
1040
0.5
1040
0.5
1040
0.5
1040
0.5
1070
     0
1002
{
1002
}
1002
}
  0
VIEWPORT
  5
BADD
 67
     1
  8
0
 10
5.249999629487192
 20
4.0166741807634683
 30
0.0
 40
10.44245679893058
 41
7.8813805131999892
 68
     1
 69
     2
1001
ACAD
1000
MVIEW
1002
{
1070
    16
1010
0.0
1020
0.0
1030
0.0
1010
0.0
1020
0.0
1030
1.0
1040
0.0
1040
7.8813805131999892
1040
-386.95948185412709
1040
838.98450758524882
1040
50.0
1040
0.0
1040
0.0
1070
     0
1070
   100
1070
     1
1070
     2
1070
     0
1070
     0
1070
     0
1070
     0
1040
0.0
1040
0.0
1040
0.0
1040
0.5
1040
0.5
1040
0.5
1040
0.5
1070
     0
1002
{
1002
}
1002
}
  0
ENDSEC
  0
EOF
