  0
SECTION
  2
HEADER
  9
$ACADVER
  1
AC1009
  9
$INSBASE
 10
0.0
 20
0.0
 30
0.0
  9
$EXTMIN
 10
-756.18497124323824
 20
844.6345319776359
 30
0.0
  9
$EXTMAX
 10
-376.864710023854
 20
1695.057914577664
 30
0.0
  9
$LIMMIN
 10
0.0
 20
0.0
  9
$LIMMAX
 10
1500.0
 20
1500.0
  9
$ORTHOMODE
 70
     0
  9
$REGENMODE
 70
     1
  9
$FILLMODE
 70
     1
  9
$QTEXTMODE
 70
     0
  9
$MIRRTEXT
 70
     1
  9
$DRAGMODE
 70
     2
  9
$LTSCALE
 40
1.0
  9
$OSMODE
 70
    63
  9
$ATTMODE
 70
     1
  9
$TEXTSIZE
 40
1.5
  9
$TRACEWID
 40
0.05
  9
$TEXTSTYLE
  7
STANDARD
  9
$CLAYER
  8
0
  9
$CELTYPE
  6
BYLAYER
  9
$CECOLOR
 62
   256
  9
$DIMSCALE
 40
1.0
  9
$DIMASZ
 40
0.75
  9
$DIMEXO
 40
1.5
  9
$DIMDLI
 40
2.0
  9
$DIMRND
 40
0.0
  9
$DIMDLE
 40
0.0
  9
$DIMEXE
 40
1.0
  9
$DIMTP
 40
0.0
  9
$DIMTM
 40
0.0
  9
$DIMTXT
 40
1.5
  9
$DIMCEN
 40
2.0
  9
$DIMTSZ
 40
0.0
  9
$DIMTOL
 70
     0
  9
$DIMLIM
 70
     0
  9
$DIMTIH
 70
     0
  9
$DIMTOH
 70
     0
  9
$DIMSE1
 70
     0
  9
$DIMSE2
 70
     0
  9
$DIMTAD
 70
     1
  9
$DIMZIN
 70
     0
  9
$DIMBLK
  1
ARCHTICK
  9
$DIMASO
 70
     1
  9
$DIMSHO
 70
     1
  9
$DIMPOST
  1
"
  9
$DIMAPOST
  1

  9
$DIMALT
 70
     0
  9
$DIMALTD
 70
     2
  9
$DIMALTF
 40
25.399999999999999
  9
$DIMLFAC
 40
1.0
  9
$DIMTOFL
 70
     0
  9
$DIMTVP
 40
0.0
  9
$DIMTIX
 70
     1
  9
$DIMSOXD
 70
     0
  9
$DIMSAH
 70
     0
  9
$DIMBLK1
  1

  9
$DIMBLK2
  1

  9
$DIMSTYLE
  2
THREE_QUARTER_INCH_SCALE
  9
$DIMCLRD
 70
     0
  9
$DIMCLRE
 70
     0
  9
$DIMCLRT
 70
     0
  9
$DIMTFAC
 40
1.0
  9
$DIMGAP
 40
1.0
  9
$LUNITS
 70
     2
  9
$LUPREC
 70
     4
  9
$SKETCHINC
 40
0.1
  9
$FILLETRAD
 40
0.0
  9
$AUNITS
 70
     0
  9
$AUPREC
 70
     0
  9
$MENU
  1
.
  9
$ELEVATION
 40
0.0
  9
$PELEVATION
 40
0.0
  9
$THICKNESS
 40
0.0
  9
$LIMCHECK
 70
     0
  9
$BLIPMODE
 70
     0
  9
$CHAMFERA
 40
0.5
  9
$CHAMFERB
 40
0.5
  9
$SKPOLY
 70
     0
  9
$TDCREATE
 40
2452089.395738773
  9
$TDUPDATE
 40
2453621.5141651272
  9
$TDINDWG
 40
1.3837950809999999
  9
$TDUSRTIMER
 40
1.3837950809999999
  9
$USRTIMER
 70
     1
  9
$ANGBASE
 50
0.0
  9
$ANGDIR
 70
     0
  9
$PDMODE
 70
     0
  9
$PDSIZE
 40
10.0
  9
$PLINEWID
 40
0.0
  9
$COORDS
 70
     0
  9
$SPLFRAME
 70
     0
  9
$SPLINETYPE
 70
     6
  9
$SPLINESEGS
 70
     8
  9
$ATTDIA
 70
     0
  9
$ATTREQ
 70
     1
  9
$HANDLING
 70
     1
  9
$HANDSEED
  5
2FF6A
  9
$SURFTAB1
 70
     6
  9
$SURFTAB2
 70
     6
  9
$SURFTYPE
 70
     6
  9
$SURFU
 70
     6
  9
$SURFV
 70
     6
  9
$UCSNAME
  2

  9
$UCSORG
 10
0.0
 20
0.0
 30
0.0
  9
$UCSXDIR
 10
1.0
 20
0.0
 30
0.0
  9
$UCSYDIR
 10
0.0
 20
1.0
 30
0.0
  9
$PUCSNAME
  2

  9
$PUCSORG
 10
0.0
 20
0.0
 30
0.0
  9
$PUCSXDIR
 10
1.0
 20
0.0
 30
0.0
  9
$PUCSYDIR
 10
0.0
 20
1.0
 30
0.0
  9
$USERI1
 70
     0
  9
$USERI2
 70
     0
  9
$USERI3
 70
     0
  9
$USERI4
 70
     0
  9
$USERI5
 70
     0
  9
$USERR1
 40
0.0
  9
$USERR2
 40
0.0
  9
$USERR3
 40
0.0
  9
$USERR4
 40
0.0
  9
$USERR5
 40
0.0
  9
$WORLDVIEW
 70
     1
  9
$SHADEDGE
 70
     3
  9
$SHADEDIF
 70
    70
  9
$TILEMODE
 70
     0
  9
$MAXACTVP
 70
    64
  9
$PLIMCHECK
 70
     0
  9
$PEXTMIN
 10
0.0287712300219028
 20
0.0759839241634737
 30
0.0
  9
$PEXTMAX
 10
10.47122802895248
 20
7.957364437363462
 30
0.0
  9
$PLIMMIN
 10
-0.2500002402958907
 20
-0.2499999962453767
  9
$PLIMMAX
 10
10.74999951940821
 20
8.2499997634587316
  9
$UNITMODE
 70
     0
  9
$VISRETAIN
 70
     1
  9
$PLINEGEN
 70
     0
  9
$PSLTSCALE
 70
     1
  0
ENDSEC
  0
SECTION
  2
TABLES
  0
TABLE
  2
VPORT
 70
     1
  0
VPORT
  2
*ACTIVE
 70
     0
 10
0.0
 20
0.0
 11
1.0
 21
1.0
 12
-380.70010693656201
 22
845.16779400026962
 13
0.0
 23
0.0
 14
0.5
 24
0.5
 15
0.5
 25
0.5
 16
0.0
 26
0.0
 36
1.0
 17
0.0
 27
0.0
 37
0.0
 40
8.8173627230431642
 41
2.0
 42
50.0
 43
0.0
 44
0.0
 50
0.0
 51
0.0
 71
     0
 72
   100
 73
     1
 74
     2
 75
     0
 76
     0
 77
     0
 78
     0
  0
ENDTAB
  0
TABLE
  2
LTYPE
 70
     1
  0
LTYPE
  2
CONTINUOUS
 70
     0
  3
Solid line
 72
    65
 73
     0
 40
0.0
  0
ENDTAB
  0
TABLE
  2
LAYER
 70
    10
  0
LAYER
  2
0
 70
     0
 62
     7
  6
CONTINUOUS
  0
LAYER
  2
DEFPOINTS
 70
     0
 62
     7
  6
CONTINUOUS
  0
LAYER
  2
FRAME_200
 70
     0
 62
     8
  6
CONTINUOUS
  0
LAYER
  2
FRAME_070
 70
     0
 62
     5
  6
CONTINUOUS
  0
LAYER
  2
FRAME_050
 70
     0
 62
     6
  6
CONTINUOUS
  0
LAYER
  2
TITLE_BLOCK
 70
     0
 62
     7
  6
CONTINUOUS
  0
LAYER
  2
FRAME_025
 70
     0
 62
     7
  6
CONTINUOUS
  0
LAYER
  2
VIEWPORT
 70
     0
 62
     7
  6
CONTINUOUS
  0
LAYER
  2
PROF
 70
     0
 62
     7
  6
CONTINUOUS
  0
LAYER
  2
PROFILE
 70
     0
 62
     7
  6
CONTINUOUS
  0
ENDTAB
  0
TABLE
  2
STYLE
 70
     2
  0
STYLE
  2
STANDARD
 70
     0
 40
0.0
 41
1.0
 50
0.0
 71
     0
 42
1.5
  3
txt
  4

  0
STYLE
  2
ISO_PROPORTIONAL
 70
     0
 40
0.0
 41
1.0
 50
0.0
 71
     0
 42
2.5
  3
isocp.shx
  4

  0
ENDTAB
  0
TABLE
  2
VIEW
 70
     1
  0
ENDTAB
  0
TABLE
  2
UCS
 70
     0
  0
ENDTAB
  0
TABLE
  2
APPID
 70
     6
  0
APPID
  2
ACAD
 70
     0
  0
APPID
  2
DCO15
 70
     0
  0
APPID
  2
ACAD_EXEMPT_FROM_CAD_STANDARDS
 70
     0
  0
APPID
  2
ACAD_PSEXT
 70
     0
  0
APPID
  2
CONTENTBLOCKDESCRIPTION
 70
     0
  0
APPID
  2
CONTENTBLOCKICON
 70
     0
  0
ENDTAB
  0
TABLE
  2
DIMSTYLE
 70
     5
  0
DIMSTYLE
  2
FULL_SCALE
 70
     0
  3
"
  4

  5
ARCHTICK
  6

  7

 40
1.0
 41
0.046875
 42
0.09375
 43
0.125
 44
0.0625
 45
0.0
 46
0.0
 47
0.0
 48
0.0
140
0.125
141
0.125
142
0.0
143
25.399999999999999
144
1.0
145
0.0
146
1.0
147
0.0625
 71
     0
 72
     0
 73
     0
 74
     0
 75
     0
 76
     0
 77
     1
 78
     0
170
     0
171
     2
172
     0
173
     0
174
     1
175
     0
176
     0
177
     0
178
     0
  0
DIMSTYLE
  2
HALF_SCALE
 70
     0
  3
"
  4

  5
ARCHTICK
  6

  7

 40
1.0
 41
0.09375
 42
0.1875
 43
0.25
 44
0.125
 45
0.0
 46
0.0
 47
0.0
 48
0.0
140
0.25
141
0.25
142
0.0
143
25.399999999999999
144
1.0
145
0.0
146
1.0
147
0.125
 71
     0
 72
     0
 73
     0
 74
     0
 75
     0
 76
     0
 77
     1
 78
     0
170
     0
171
     2
172
     0
173
     0
174
     1
175
     0
176
     0
177
     0
178
     0
  0
DIMSTYLE
  2
INCH_SCALE
 70
     0
  3
"
  4

  5
ARCHTICK
  6

  7

 40
1.0
 41
0.5625
 42
1.125
 43
1.5
 44
0.75
 45
0.0
 46
0.0
 47
0.0
 48
0.0
140
1.125
141
1.5
142
0.0
143
25.399999999999999
144
1.0
145
0.0
146
1.0
147
0.75
 71
     0
 72
     0
 73
     0
 74
     0
 75
     0
 76
     0
 77
     1
 78
     0
170
     0
171
     2
172
     0
173
     0
174
     1
175
     0
176
     0
177
     0
178
     0
  0
DIMSTYLE
  2
THREE_QUARTER_INCH_SCALE
 70
     0
  3
"
  4

  5
ARCHTICK
  6

  7

 40
1.0
 41
0.75
 42
1.5
 43
2.0
 44
1.0
 45
0.0
 46
0.0
 47
0.0
 48
0.0
140
1.5
141
2.0
142
0.0
143
25.399999999999999
144
1.0
145
0.0
146
1.0
147
1.0
 71
     0
 72
     0
 73
     0
 74
     0
 75
     0
 76
     0
 77
     1
 78
     0
170
     0
171
     2
172
     0
173
     0
174
     1
175
     0
176
     0
177
     0
178
     0
  0
DIMSTYLE
  2
ZHALF_INCH_SCALE
 70
     0
  3
"
  4

  5
ARCHTICK
  6

  7

 40
1.0
 41
1.125
 42
2.25
 43
3.0
 44
1.5
 45
0.0
 46
0.0
 47
0.0
 48
0.0
140
2.25
141
3.0
142
0.0
143
25.399999999999999
144
1.0
145
0.0
146
1.0
147
1.5
 71
     0
 72
     0
 73
     0
 74
     0
 75
     0
 76
     0
 77
     1
 78
     0
170
     0
171
     2
172
     0
173
     0
174
     1
175
     0
176
     0
177
     0
178
     0
  0
ENDTAB
  0
ENDSEC
  0
SECTION
  2
BLOCKS
  0
BLOCK
  8
0
  2
$MODEL_SPACE
 70
     0
 10
0.0
 20
0.0
 30
0.0
  3
$MODEL_SPACE
  1

  0
ENDBLK
  5
21
  8
0
  0
BLOCK
 67
     1
  8
0
  2
$PAPER_SPACE
 70
     0
 10
0.0
 20
0.0
 30
0.0
  3
$PAPER_SPACE
  1

  0
ENDBLK
  5
BAD5
 67
     1
  8
0
  0
BLOCK
  8
0
  2
_ARCHTICK
 70
     0
 10
0.0
 20
0.0
 30
0.0
  3
_ARCHTICK
  1

  0
POLYLINE
  5
158
  8
0
  6
BYBLOCK
 62
     0
 66
     1
 10
0.0
 20
0.0
 30
0.0
 40
0.15
 41
0.15
  0
VERTEX
  5
2FC54
  8
0
  6
BYBLOCK
 62
     0
 10
-0.5
 20
-0.5
 30
0.0
  0
VERTEX
  5
2FC55
  8
0
  6
BYBLOCK
 62
     0
 10
0.5
 20
0.5
 30
0.0
  0
SEQEND
  5
2FC56
  8
0
  6
BYBLOCK
 62
     0
  0
ENDBLK
  5
15A
  8
0
  0
BLOCK
  8
0
  2
_OPEN30
 70
     0
 10
0.0
 20
0.0
 30
0.0
  3
_OPEN30
  1

  0
LINE
  5
15C
  8
0
  6
BYBLOCK
 62
     0
 10
-1.0
 20
0.26794919
 30
0.0
 11
0.0
 21
0.0
 31
0.0
  0
LINE
  5
15D
  8
0
  6
BYBLOCK
 62
     0
 10
0.0
 20
0.0
 30
0.0
 11
-1.0
 21
-0.26794919
 31
0.0
  0
LINE
  5
15E
  8
0
  6
BYBLOCK
 62
     0
 10
0.0
 20
0.0
 30
0.0
 11
-1.0
 21
0.0
 31
0.0
  0
ENDBLK
  5
160
  8
0
  0
BLOCK
  8
0
  2
ISO_A2_TITLE_BLOCK
 70
     2
 10
0.0
 20
0.0
 30
0.0
  3
ISO_A2_TITLE_BLOCK
  1

  0
LINE
  5
BDD
  8
FRAME_050
 10
299.5
 20
12.5
 30
0.0
 11
297.0
 21
7.5
 31
0.0
  0
LINE
  5
BDE
  8
FRAME_050
 10
294.5
 20
12.5
 30
0.0
 11
299.5
 21
12.5
 31
0.0
  0
LINE
  5
BDF
  8
FRAME_050
 10
247.0
 20
5.0
 30
0.0
 11
347.0
 21
5.0
 31
0.0
  0
LINE
  5
BE0
  8
FRAME_070
 10
584.0
 20
410.0
 30
0.0
 11
10.0
 21
410.0
 31
0.0
  0
LINE
  5
BE1
  8
FRAME_070
 10
10.0
 20
10.0
 30
0.0
 11
584.0
 21
10.0
 31
0.0
  0
LINE
  5
BE2
  8
FRAME_050
 10
12.5
 20
207.5
 30
0.0
 11
7.5
 21
210.0
 31
0.0
  0
LINE
  5
BE3
  8
FRAME_050
 10
12.5
 20
212.5
 30
0.0
 11
12.5
 21
207.5
 31
0.0
  0
LINE
  5
BE4
  8
FRAME_070
 10
10.0
 20
410.0
 30
0.0
 11
10.0
 21
10.0
 31
0.0
  0
LINE
  5
BE5
  8
FRAME_200
 10
0.0
 20
0.0
 30
0.0
 11
0.0
 21
10.0
 31
0.0
  0
LINE
  5
BE6
  8
FRAME_200
 10
0.0
 20
0.0
 30
0.0
 11
10.0
 21
0.0
 31
0.0
  0
TEXT
  5
BE7
  8
FRAME_050
 10
5.9000000000000004
 20
35.0
 30
0.0
 40
4.0
  1
H
  7
ISO_PROPORTIONAL
 72
     4
 11
7.5
 21
37.0
 31
0.0
  0
LINE
  5
BE8
  8
FRAME_050
 10
10.0
 20
60.0
 30
0.0
 11
5.0
 21
60.0
 31
0.0
  0
LINE
  5
BE9
  8
FRAME_050
 10
81.75
 20
5.0
 30
0.0
 11
81.75
 21
10.0
 31
0.0
  0
TEXT
  5
BEA
  8
FRAME_050
 10
44.874999999999993
 20
5.5
 30
0.0
 40
4.0
  1
1
  7
ISO_PROPORTIONAL
 72
     4
 11
45.875
 21
7.5
 31
0.0
  0
TEXT
  5
BEB
  8
FRAME_050
 10
6.0035533905932743
 20
85.0
 30
0.0
 40
4.0
  1
G
  7
ISO_PROPORTIONAL
 72
     4
 11
7.5
 21
87.0
 31
0.0
  0
LINE
  5
BEC
  8
FRAME_050
 10
10.0
 20
110.0
 30
0.0
 11
5.0
 21
110.0
 31
0.0
  0
TEXT
  5
BED
  8
FRAME_050
 10
6.0999999999999988
 20
135.0
 30
0.0
 40
4.0
  1
F
  7
ISO_PROPORTIONAL
 72
     4
 11
7.5
 21
137.0
 31
0.0
  0
LINE
  5
BEE
  8
FRAME_050
 10
10.0
 20
160.0
 30
0.0
 11
5.0
 21
160.0
 31
0.0
  0
TEXT
  5
BEF
  8
FRAME_050
 10
6.0999999999999988
 20
185.0
 30
0.0
 40
4.0
  1
E
  7
ISO_PROPORTIONAL
 72
     4
 11
7.5
 21
187.0
 31
0.0
  0
LINE
  5
BF0
  8
FRAME_050
 10
153.5
 20
5.0
 30
0.0
 11
153.5
 21
10.0
 31
0.0
  0
TEXT
  5
BF1
  8
FRAME_050
 10
116.1556692913386
 20
5.3996062992125982
 30
0.0
 40
4.0
  1
2
  7
ISO_PROPORTIONAL
 72
     4
 11
117.625
 21
7.5
 31
0.0
  0
TEXT
  5
BF2
  8
FRAME_050
 10
187.89215728752529
 20
5.5828427124746138
 30
0.0
 40
4.0
  1
3
  7
ISO_PROPORTIONAL
 72
     4
 11
189.375
 21
7.5
 31
0.0
  0
LINE
  5
BF3
  8
FRAME_050
 10
225.25
 20
5.0
 30
0.0
 11
225.25
 21
10.0
 31
0.0
  0
LINE
  5
BF4
  8
FRAME_050
 10
297.0
 20
7.5
 30
0.0
 11
294.5
 21
12.5
 31
0.0
  0
LINE
  5
BF5
  8
FRAME_050
 10
287.0
 20
5.0
 30
0.0
 11
287.0
 21
10.0
 31
0.0
  0
LINE
  5
BF6
  8
FRAME_050
 10
277.0
 20
5.0
 30
0.0
 11
277.0
 21
10.0
 31
0.0
  0
LINE
  5
BF7
  8
FRAME_050
 10
267.0
 20
5.0
 30
0.0
 11
267.0
 21
10.0
 31
0.0
  0
LINE
  5
BF8
  8
FRAME_050
 10
257.0
 20
5.0
 30
0.0
 11
257.0
 21
10.0
 31
0.0
  0
LINE
  5
BF9
  8
FRAME_050
 10
247.0
 20
5.0
 30
0.0
 11
247.0
 21
10.0
 31
0.0
  0
LINE
  5
BFA
  8
FRAME_050
 10
297.0
 20
10.0
 30
0.0
 11
297.0
 21
5.0
 31
0.0
  0
LINE
  5
BFB
  8
FRAME_050
 10
297.0
 20
10.0
 30
0.0
 11
297.0
 21
15.0
 31
0.0
  0
LINE
  5
BFC
  8
FRAME_050
 10
5.0
 20
210.0
 30
0.0
 11
15.0
 21
210.0
 31
0.0
  0
LINE
  5
BFD
  8
FRAME_050
 10
7.5
 20
210.0
 30
0.0
 11
12.5
 21
212.5
 31
0.0
  0
TEXT
  5
BFE
  8
FRAME_050
 10
5.7860912703473977
 20
235.0
 30
0.0
 40
4.0
  1
D
  7
ISO_PROPORTIONAL
 72
     4
 11
7.5
 21
237.0
 31
0.0
  0
LINE
  5
BFF
  8
FRAME_050
 10
10.0
 20
260.0
 30
0.0
 11
5.0
 21
260.0
 31
0.0
  0
TEXT
  5
C00
  8
FRAME_050
 10
6.1931980515339466
 20
285.0
 30
0.0
 40
4.0
  1
C
  7
ISO_PROPORTIONAL
 72
     4
 11
7.5
 21
287.0
 31
0.0
  0
LINE
  5
C01
  8
FRAME_050
 10
10.0
 20
310.0
 30
0.0
 11
5.0
 21
310.0
 31
0.0
  0
TEXT
  5
C02
  8
FRAME_050
 10
5.8999999999999959
 20
335.0
 30
0.0
 40
4.0
  1
B
  7
ISO_PROPORTIONAL
 72
     4
 11
7.5
 21
337.0
 31
0.0
  0
LINE
  5
C03
  8
FRAME_050
 10
10.0
 20
360.0
 30
0.0
 11
5.0
 21
360.0
 31
0.0
  0
TEXT
  5
C04
  8
FRAME_050
 10
5.6999999999999993
 20
385.0
 30
0.0
 40
4.0
  1
A
  7
ISO_PROPORTIONAL
 72
     4
 11
7.5
 21
387.0
 31
0.0
  0
LINE
  5
C05
  8
FRAME_200
 10
10.0
 20
420.0
 30
0.0
 11
0.0
 21
420.0
 31
0.0
  0
LINE
  5
C06
  8
FRAME_200
 10
0.0
 20
420.0
 30
0.0
 11
0.0
 21
410.0
 31
0.0
  0
TEXT
  5
C07
  8
FRAME_050
 10
44.874999999999993
 20
410.5
 30
0.0
 40
4.0
  1
1
  7
ISO_PROPORTIONAL
 72
     4
 11
45.875
 21
412.5
 31
0.0
  0
LINE
  5
C08
  8
FRAME_050
 10
81.75
 20
410.0
 30
0.0
 11
81.75
 21
415.0
 31
0.0
  0
TEXT
  5
C09
  8
FRAME_050
 10
116.1556692913386
 20
410.39960629921262
 30
0.0
 40
4.0
  1
2
  7
ISO_PROPORTIONAL
 72
     4
 11
117.625
 21
412.5
 31
0.0
  0
LINE
  5
C0A
  8
FRAME_050
 10
153.5
 20
410.0
 30
0.0
 11
153.5
 21
415.0
 31
0.0
  0
TEXT
  5
C0B
  8
FRAME_050
 10
187.89215728752529
 20
410.58284271247459
 30
0.0
 40
4.0
  1
3
  7
ISO_PROPORTIONAL
 72
     4
 11
189.375
 21
412.5
 31
0.0
  0
LINE
  5
C0C
  8
FRAME_050
 10
297.0
 20
405.0
 30
0.0
 11
297.0
 21
415.0
 31
0.0
  0
LINE
  5
C0D
  8
FRAME_050
 10
225.25
 20
410.0
 30
0.0
 11
225.25
 21
415.0
 31
0.0
  0
TEXT
  5
C0E
  8
FRAME_050
 10
259.52499999999998
 20
410.5
 30
0.0
 40
4.0
  1
4
  7
ISO_PROPORTIONAL
 72
     4
 11
261.125
 21
412.5
 31
0.0
  0
LINE
  5
C0F
  8
FRAME_070
 10
584.0
 20
10.0
 30
0.0
 11
584.0
 21
410.0
 31
0.0
  0
ATTDEF
  5
C10
  8
FRAME_025
 10
473.0
 20
31.75
 30
0.0
 40
2.5
  1
XXX - 00/00/00
  7
ISO_PROPORTIONAL
 11
473.0
 21
33.0
 31
0.0
  3
Approved by - Date
  2
APPROVED_BY_DATE
 70
     8
 74
     2
  0
TEXT
  5
C11
  8
FRAME_025
 10
448.0
 20
41.749999999999993
 30
0.0
 40
2.5
  1
Title/Name, designation, material, dimension etc
  7
ISO_PROPORTIONAL
 11
448.0
 21
43.0
 31
0.0
 73
     2
  0
TEXT
  5
C12
  8
FRAME_025
 10
473.0
 20
35.75
 30
0.0
 40
2.5
  1
Approved by - date
  7
ISO_PROPORTIONAL
 11
473.0
 21
37.0
 31
0.0
 73
     2
  0
LINE
  5
C13
  8
FRAME_070
 10
414.0
 20
46.0
 30
0.0
 11
584.0
 21
46.0
 31
0.0
  0
LINE
  5
C14
  8
FRAME_070
 10
414.0
 20
40.0
 30
0.0
 11
584.0
 21
40.0
 31
0.0
  0
LINE
  5
C15
  8
FRAME_070
 10
414.0
 20
30.0
 30
0.0
 11
584.0
 21
30.0
 31
0.0
  0
LINE
  5
C16
  8
FRAME_050
 10
368.75
 20
5.0
 30
0.0
 11
368.75
 21
10.0
 31
0.0
  0
LINE
  5
C17
  8
FRAME_050
 10
337.0
 20
5.0
 30
0.0
 11
337.0
 21
10.0
 31
0.0
  0
LINE
  5
C18
  8
FRAME_050
 10
327.0
 20
5.0
 30
0.0
 11
327.0
 21
10.0
 31
0.0
  0
LINE
  5
C19
  8
FRAME_050
 10
317.0
 20
5.0
 30
0.0
 11
317.0
 21
10.0
 31
0.0
  0
LINE
  5
C1A
  8
FRAME_050
 10
307.0
 20
5.0
 30
0.0
 11
307.0
 21
10.0
 31
0.0
  0
LINE
  5
C1B
  8
FRAME_050
 10
347.0
 20
5.0
 30
0.0
 11
347.0
 21
10.0
 31
0.0
  0
LINE
  5
C1C
  8
FRAME_050
 10
440.5
 20
5.0
 30
0.0
 11
440.5
 21
10.0
 31
0.0
  0
TEXT
  5
C1D
  8
FRAME_050
 10
403.24547244094481
 20
5.4102362204724406
 30
0.0
 40
4.0
  1
6
  7
ISO_PROPORTIONAL
 72
     4
 11
404.62499999999989
 21
7.5
 31
0.0
  0
TEXT
  5
C1E
  8
FRAME_050
 10
474.97500000000002
 20
5.5
 30
0.0
 40
4.0
  1
7
  7
ISO_PROPORTIONAL
 72
     4
 11
476.37499999999989
 21
7.5
 31
0.0
  0
TEXT
  5
C1F
  8
FRAME_025
 10
431.0
 20
41.749999999999993
 30
0.0
 40
2.5
  1
Quantity
  7
ISO_PROPORTIONAL
 11
431.0
 21
43.0
 31
0.0
 73
     2
  0
TEXT
  5
C20
  8
FRAME_025
 10
416.0
 20
41.749999999999993
 30
0.0
 40
2.5
  1
Itemref
  7
ISO_PROPORTIONAL
 11
416.0
 21
43.0
 31
0.0
 73
     2
  0
LINE
  5
C21
  8
FRAME_070
 10
414.0
 20
40.0
 30
0.0
 11
414.0
 21
46.0
 31
0.0
  0
LINE
  5
C22
  8
FRAME_070
 10
429.0
 20
40.0
 30
0.0
 11
429.0
 21
46.0
 31
0.0
  0
LINE
  5
C23
  8
FRAME_070
 10
414.0
 20
10.0
 30
0.0
 11
414.0
 21
40.0
 31
0.0
  0
ATTDEF
  5
C24
  8
FRAME_025
 10
416.0
 20
31.75
 30
0.0
 40
2.5
  1
XXX
  7
ISO_PROPORTIONAL
 11
416.0
 21
33.0
 31
0.0
  3
Designed by
  2
DESIGNED_BY
 70
     8
 74
     2
  0
TEXT
  5
C25
  8
FRAME_025
 10
416.0
 20
35.75
 30
0.0
 40
2.5
  1
Designed by
  7
ISO_PROPORTIONAL
 11
416.0
 21
37.0
 31
0.0
 73
     2
  0
LINE
  5
C26
  8
FRAME_070
 10
446.0
 20
40.0
 30
0.0
 11
446.0
 21
46.0
 31
0.0
  0
ATTDEF
  5
C27
  8
FRAME_025
 10
448.0
 20
31.75
 30
0.0
 40
2.5
  1
XXX
  7
ISO_PROPORTIONAL
 11
448.0
 21
33.0
 31
0.0
  3
Checked by
  2
CHECKED_BY
 70
     8
 74
     2
  0
TEXT
  5
C28
  8
FRAME_025
 10
448.0
 20
35.75
 30
0.0
 40
2.5
  1
Checked by
  7
ISO_PROPORTIONAL
 11
448.0
 21
37.0
 31
0.0
 73
     2
  0
ATTDEF
  5
C29
  8
FRAME_050
 10
444.74999999999989
 20
17.5
 30
0.0
 40
5.0
  1
XXX
  7
ISO_PROPORTIONAL
 72
     4
 11
451.49999999999989
 21
20.0
 31
0.0
  3
Owner
  2
OWNER
 70
     8
  0
LINE
  5
C2A
  8
FRAME_070
 10
446.0
 20
30.0
 30
0.0
 11
446.0
 21
40.0
 31
0.0
  0
LINE
  5
C2B
  8
FRAME_070
 10
471.0
 20
30.0
 30
0.0
 11
471.0
 21
40.0
 31
0.0
  0
LINE
  5
C2C
  8
FRAME_070
 10
489.0
 20
20.0
 30
0.0
 11
584.0
 21
20.0
 31
0.0
  0
LINE
  5
C2D
  8
FRAME_050
 10
512.25
 20
5.0
 30
0.0
 11
512.25
 21
10.0
 31
0.0
  0
TEXT
  5
C2E
  8
FRAME_050
 10
546.72499999999991
 20
5.5
 30
0.0
 40
4.0
  1
8
  7
ISO_PROPORTIONAL
 72
     4
 11
548.125
 21
7.5
 31
0.0
  0
ATTDEF
  5
C2F
  8
FRAME_050
 10
517.64999999999986
 20
13.5
 30
0.0
 40
3.0
  1
X
  7
ISO_PROPORTIONAL
 72
     4
 11
519.0
 21
15.0
 31
0.0
  3
Drawing number
  2
DRAWING_NUMBER
 70
     8
  0
ATTDEF
  5
C30
  8
FRAME_050
 10
529.75
 20
22.5
 30
0.0
 40
5.0
  1
XXX
  7
ISO_PROPORTIONAL
 72
     4
 11
536.5
 21
25.0
 31
0.0
  3
Title / Name
  2
TITLE
 70
     8
  0
LINE
  5
C31
  8
FRAME_070
 10
489.0
 20
10.0
 30
0.0
 11
489.0
 21
30.0
 31
0.0
  0
ATTDEF
  5
C32
  8
FRAME_025
 10
511.0
 20
31.75
 30
0.0
 40
2.5
  1
XXX
  7
ISO_PROPORTIONAL
 11
511.0
 21
33.0
 31
0.0
  3
Filename
  2
FILENAME
 70
     8
 74
     2
  0
TEXT
  5
C33
  8
FRAME_025
 10
511.0
 20
35.75
 30
0.0
 40
2.5
  1
Filename
  7
ISO_PROPORTIONAL
 11
511.0
 21
37.0
 31
0.0
 73
     2
  0
LINE
  5
C34
  8
FRAME_070
 10
509.0
 20
30.0
 30
0.0
 11
509.0
 21
40.0
 31
0.0
  0
TEXT
  5
C35
  8
FRAME_025
 10
536.0
 20
41.749999999999993
 30
0.0
 40
2.5
  1
Article No./Reference
  7
ISO_PROPORTIONAL
 11
536.0
 21
43.0
 31
0.0
 73
     2
  0
LINE
  5
C36
  8
FRAME_070
 10
534.0
 20
40.0
 30
0.0
 11
534.0
 21
46.0
 31
0.0
  0
ATTDEF
  5
C37
  8
FRAME_025
 10
551.0
 20
11.75
 30
0.0
 40
2.5
  1
0
  7
ISO_PROPORTIONAL
 11
551.0
 21
13.0
 31
0.0
  3
Edition
  2
EDITION
 70
     8
 74
     2
  0
TEXT
  5
C38
  8
FRAME_025
 10
551.0
 20
15.75
 30
0.0
 40
2.5
  1
Edition
  7
ISO_PROPORTIONAL
 11
551.0
 21
17.0
 31
0.0
 73
     2
  0
LINE
  5
C39
  8
FRAME_070
 10
549.0
 20
10.0
 30
0.0
 11
549.0
 21
20.0
 31
0.0
  0
ATTDEF
  5
C3A
  8
FRAME_025
 10
536.0
 20
31.75
 30
0.0
 40
2.5
  1
00/00/00
  7
ISO_PROPORTIONAL
 11
536.0
 21
33.0
 31
0.0
  3
Date
  2
DATE
 70
     8
 74
     2
  0
TEXT
  5
C3B
  8
FRAME_025
 10
536.0
 20
35.75
 30
0.0
 40
2.5
  1
Date
  7
ISO_PROPORTIONAL
 11
536.0
 21
37.0
 31
0.0
 73
     2
  0
LINE
  5
C3C
  8
FRAME_070
 10
534.0
 20
30.0
 30
0.0
 11
534.0
 21
40.0
 31
0.0
  0
ATTDEF
  5
C3D
  8
FRAME_025
 10
566.0
 20
11.75
 30
0.0
 40
2.5
  1
1/1
  7
ISO_PROPORTIONAL
 11
566.0
 21
13.0
 31
0.0
  3
Sheet
  2
SHEET
 70
     8
 74
     2
  0
TEXT
  5
C3E
  8
FRAME_025
 10
566.0
 20
15.75
 30
0.0
 40
2.5
  1
Sheet
  7
ISO_PROPORTIONAL
 11
566.0
 21
17.0
 31
0.0
 73
     2
  0
LINE
  5
C3F
  8
FRAME_070
 10
564.0
 20
10.0
 30
0.0
 11
564.0
 21
20.0
 31
0.0
  0
ATTDEF
  5
C40
  8
FRAME_025
 10
566.0
 20
31.75
 30
0.0
 40
2.5
  1
1:1
  7
ISO_PROPORTIONAL
 11
566.0
 21
33.0
 31
0.0
  3
Scale
  2
SCALE
 70
     8
 74
     2
  0
TEXT
  5
C41
  8
FRAME_025
 10
566.0
 20
35.75
 30
0.0
 40
2.5
  1
Scale
  7
ISO_PROPORTIONAL
 11
566.0
 21
37.0
 31
0.0
 73
     2
  0
LINE
  5
C42
  8
FRAME_070
 10
564.0
 20
30.0
 30
0.0
 11
564.0
 21
40.0
 31
0.0
  0
LINE
  5
C43
  8
FRAME_200
 10
594.0
 20
0.0
 30
0.0
 11
594.0
 21
10.0
 31
0.0
  0
LINE
  5
C44
  8
FRAME_200
 10
594.0
 20
0.0
 30
0.0
 11
584.0
 21
0.0
 31
0.0
  0
TEXT
  5
C45
  8
FRAME_050
 10
584.89999999999998
 20
35.0
 30
0.0
 40
4.0
  1
H
  7
ISO_PROPORTIONAL
 72
     4
 11
586.5
 21
37.0
 31
0.0
  0
LINE
  5
C46
  8
FRAME_050
 10
589.0
 20
60.0
 30
0.0
 11
584.0
 21
60.0
 31
0.0
  0
TEXT
  5
C47
  8
FRAME_050
 10
585.0035533905932
 20
85.0
 30
0.0
 40
4.0
  1
G
  7
ISO_PROPORTIONAL
 72
     4
 11
586.5
 21
87.0
 31
0.0
  0
LINE
  5
C48
  8
FRAME_050
 10
589.0
 20
110.0
 30
0.0
 11
584.0
 21
110.0
 31
0.0
  0
TEXT
  5
C49
  8
FRAME_050
 10
585.09999999999991
 20
135.0
 30
0.0
 40
4.0
  1
F
  7
ISO_PROPORTIONAL
 72
     4
 11
586.5
 21
137.0
 31
0.0
  0
LINE
  5
C4A
  8
FRAME_050
 10
589.0
 20
160.0
 30
0.0
 11
584.0
 21
160.0
 31
0.0
  0
TEXT
  5
C4B
  8
FRAME_050
 10
585.09999999999991
 20
185.0
 30
0.0
 40
4.0
  1
E
  7
ISO_PROPORTIONAL
 72
     4
 11
586.5
 21
187.0
 31
0.0
  0
LINE
  5
C4C
  8
FRAME_070
 10
414.0
 20
404.0
 30
0.0
 11
584.0
 21
404.0
 31
0.0
  0
TEXT
  5
C4D
  8
FRAME_050
 10
331.39215728752538
 20
410.58284271247459
 30
0.0
 40
4.0
  1
5
  7
ISO_PROPORTIONAL
 72
     4
 11
332.875
 21
412.5
 31
0.0
  0
LINE
  5
C4E
  8
FRAME_050
 10
368.75
 20
410.0
 30
0.0
 11
368.75
 21
415.0
 31
0.0
  0
TEXT
  5
C4F
  8
FRAME_025
 10
428.0
 20
405.75
 30
0.0
 40
2.5
  1
Revision note
  7
ISO_PROPORTIONAL
 11
428.0
 21
407.0
 31
0.0
 73
     2
  0
TEXT
  5
C50
  8
FRAME_025
 10
416.0
 20
405.75
 30
0.0
 40
2.5
  1
RevNo
  7
ISO_PROPORTIONAL
 11
416.0
 21
407.0
 31
0.0
 73
     2
  0
LINE
  5
C51
  8
FRAME_070
 10
426.0
 20
404.0
 30
0.0
 11
426.0
 21
410.0
 31
0.0
  0
LINE
  5
C52
  8
FRAME_070
 10
414.0
 20
404.0
 30
0.0
 11
414.0
 21
410.0
 31
0.0
  0
TEXT
  5
C53
  8
FRAME_050
 10
403.24547244094481
 20
410.41023622047243
 30
0.0
 40
4.0
  1
6
  7
ISO_PROPORTIONAL
 72
     4
 11
404.62499999999989
 21
412.5
 31
0.0
  0
LINE
  5
C54
  8
FRAME_050
 10
440.5
 20
410.0
 30
0.0
 11
440.5
 21
415.0
 31
0.0
  0
TEXT
  5
C55
  8
FRAME_050
 10
474.97500000000002
 20
410.5
 30
0.0
 40
4.0
  1
7
  7
ISO_PROPORTIONAL
 72
     4
 11
476.37499999999989
 21
412.5
 31
0.0
  0
LINE
  5
C56
  8
FRAME_050
 10
579.0
 20
210.0
 30
0.0
 11
589.0
 21
210.0
 31
0.0
  0
TEXT
  5
C57
  8
FRAME_050
 10
584.78609127034736
 20
235.0
 30
0.0
 40
4.0
  1
D
  7
ISO_PROPORTIONAL
 72
     4
 11
586.5
 21
237.0
 31
0.0
  0
LINE
  5
C58
  8
FRAME_050
 10
589.0
 20
260.0
 30
0.0
 11
584.0
 21
260.0
 31
0.0
  0
TEXT
  5
C59
  8
FRAME_050
 10
585.19319805153395
 20
285.0
 30
0.0
 40
4.0
  1
C
  7
ISO_PROPORTIONAL
 72
     4
 11
586.5
 21
287.0
 31
0.0
  0
LINE
  5
C5A
  8
FRAME_050
 10
589.0
 20
310.0
 30
0.0
 11
584.0
 21
310.0
 31
0.0
  0
TEXT
  5
C5B
  8
FRAME_050
 10
584.89999999999998
 20
335.0
 30
0.0
 40
4.0
  1
B
  7
ISO_PROPORTIONAL
 72
     4
 11
586.5
 21
337.0
 31
0.0
  0
TEXT
  5
C5C
  8
FRAME_025
 10
571.08299391850551
 20
405.75
 30
0.0
 40
2.5
  1
Checked
  7
ISO_PROPORTIONAL
 11
571.08299391850551
 21
407.0
 31
0.0
 73
     2
  0
TEXT
  5
C5D
  8
FRAME_025
 10
555.36099797283532
 20
405.75
 30
0.0
 40
2.5
  1
Signature
  7
ISO_PROPORTIONAL
 11
555.36099797283532
 21
407.0
 31
0.0
 73
     2
  0
TEXT
  5
C5E
  8
FRAME_025
 10
537.0
 20
405.75
 30
0.0
 40
2.5
  1
Date
  7
ISO_PROPORTIONAL
 11
537.0
 21
407.0
 31
0.0
 73
     2
  0
LINE
  5
C5F
  8
FRAME_070
 10
570.0
 20
404.0
 30
0.0
 11
570.0
 21
410.0
 31
0.0
  0
LINE
  5
C60
  8
FRAME_070
 10
555.0
 20
404.0
 30
0.0
 11
555.0
 21
410.0
 31
0.0
  0
LINE
  5
C61
  8
FRAME_070
 10
535.0
 20
404.0
 30
0.0
 11
535.0
 21
410.0
 31
0.0
  0
LINE
  5
C62
  8
FRAME_050
 10
512.25
 20
410.0
 30
0.0
 11
512.25
 21
415.0
 31
0.0
  0
TEXT
  5
C63
  8
FRAME_050
 10
546.72499999999991
 20
410.5
 30
0.0
 40
4.0
  1
8
  7
ISO_PROPORTIONAL
 72
     4
 11
548.125
 21
412.5
 31
0.0
  0
LINE
  5
C64
  8
FRAME_050
 10
589.0
 20
360.0
 30
0.0
 11
584.0
 21
360.0
 31
0.0
  0
TEXT
  5
C65
  8
FRAME_050
 10
584.70000000000005
 20
385.0
 30
0.0
 40
4.0
  1
A
  7
ISO_PROPORTIONAL
 72
     4
 11
586.5
 21
387.0
 31
0.0
  0
LINE
  5
C66
  8
FRAME_200
 10
594.0
 20
420.0
 30
0.0
 11
584.0
 21
420.0
 31
0.0
  0
LINE
  5
C67
  8
FRAME_200
 10
594.0
 20
410.0
 30
0.0
 11
594.0
 21
420.0
 31
0.0
  0
ENDBLK
  5
C69
  8
0
  0
BLOCK
  8
0
  2
WOBB001END
 70
     0
 10
0.0
 20
0.0
 30
0.0
  3
WOBB001END
  1

  0
LINE
  5
4D66
  8
0
  6
CONTINUOUS
 10
0.0
 20
0.0
 30
0.0
 11
0.8749999999999998
 21
0.0
 31
0.0
  0
ARC
  5
4D67
  8
0
  6
CONTINUOUS
 10
0.0331648379439287
 20
-0.5087238935900232
 30
0.0
 40
0.8790130605592325
 50
284.06490243660443
 51
312.19222981924361
  0
ARC
  5
4D68
  8
0
  6
CONTINUOUS
 10
0.2841534338796767
 20
-1.510548310625538
 30
0.0
 40
0.1537731892806598
 50
104.0649024366044
 51
179.4721730735024
  0
LINE
  5
4D69
  8
0
  6
CONTINUOUS
 10
0.0
 20
0.0
 30
0.0
 11
-0.0000000000000003
 21
-1.7501564476661919
 31
0.0
  0
ARC
  5
4D6A
  8
0
  6
CONTINUOUS
 10
0.1404622019506122
 20
-1.6303137183546199
 30
0.0
 40
0.1198427293115722
 50
275.0
 51
85.000000000000057
  0
LINE
  5
4D6B
  8
0
  6
CONTINUOUS
 10
-0.0000000000000003
 20
-1.7501564476661919
 30
0.0
 11
0.1456946485130855
 21
-1.7501564476661919
 31
0.0
  0
LINE
  5
4D6C
  8
0
  6
CONTINUOUS
 10
0.1377603739254348
 20
-1.7508506067459131
 30
0.0
 11
0.150907184036669
 21
-1.749700409899652
 31
0.0
  0
LINE
  5
4D6D
  8
0
  6
CONTINUOUS
 10
0.1303867696719884
 20
-1.5091317231818231
 30
0.0
 11
0.1509071840366689
 21
-1.5109270268095869
 31
0.0
  0
LINE
  5
4D6E
  8
0
  6
CONTINUOUS
 10
0.8749999999999998
 20
0.0
 30
0.0
 11
0.8749999999999996
 21
-0.8649327026588228
 31
0.0
  0
LINE
  5
4D6F
  8
0
  6
CONTINUOUS
 10
0.727014513830997
 20
-0.8726882933550612
 30
0.0
 11
0.727014513830997
 21
-0.9264923397184784
 31
0.0
  0
ARC
  5
4D70
  8
0
  6
CONTINUOUS
 10
0.41187090827646
 20
-0.9264923397184784
 30
0.0
 40
0.315143605554537
 50
312.19222981924361
 51
0.0
  0
LINE
  5
4D71
  8
0
  6
CONTINUOUS
 10
0.727014513830997
 20
-0.8726882933550612
 30
0.0
 11
0.8749999999999996
 21
-0.8649327026588228
 31
0.0
  0
ENDBLK
  5
4D72
  8
0
  0
BLOCK
  8
0
  2
A$C0A61123B
 70
     0
 10
0.0
 20
0.0
 30
0.0
  3
A$C0A61123B
  1

  0
LINE
  5
C0AD
  8
PROF
  6
CONTINUOUS
 10
4.9012016798694162
 20
13.325025853350891
 30
0.0000000000000002
 11
4.9012016798694162
 21
12.88585218805485
 31
0.0000000000000003
  0
INSERT
  5
C0AE
  8
0
  2
*U8
 10
0.0
 20
0.0
 30
0.0
  0
LINE
  5
C0AF
  8
PROF
 10
4.5198575031869259
 20
12.72227734589444
 30
0.0000000000000001
 11
4.5198575031869259
 21
12.88585218805485
 31
0.0000000000000001
  0
LINE
  5
C0B0
  8
PROF
  6
CONTINUOUS
 10
3.6306271195888371
 20
13.325025853350891
 30
0.0000000000000002
 11
4.9012016798694162
 21
13.325025853350891
 31
0.0000000000000002
  0
LINE
  5
C0B1
  8
PROF
 10
1.9750295148747341
 20
10.37671325491794
 30
0.0000000000000002
 11
1.9750295148747341
 21
10.11391186758919
 31
0.0000000000000002
  0
LINE
  5
C0B2
  8
PROF
 10
1.607967335755631
 20
10.11391186758919
 30
0.0000000000000001
 11
1.9750295148747341
 21
10.11391186758919
 31
0.0000000000000001
  0
LINE
  5
C0B3
  8
PROF
 10
1.9750295148747341
 20
10.11391186758919
 30
0.0000000000000001
 11
1.944958486898144
 21
10.11391186758919
 31
0.0000000000000001
  0
LINE
  5
C0B4
  8
PROF
 10
1.9750295148747341
 20
10.11391186758919
 30
0.0000000000000001
 11
1.944958486898144
 21
10.11391186758919
 31
0.0000000000000001
  0
LINE
  5
C0B5
  8
PROF
 10
0.3222605517169654
 20
7.5247473351056442
 30
-0.0000000000000002
 11
-0.0000008570117416
 21
7.5247473351056442
 31
0.0
  0
LINE
  5
C0B6
  8
PROF
 10
-0.0000008570117416
 20
7.5247473351056442
 30
0.0
 11
-0.0000008570117416
 21
9.1943336957369866
 31
0.0
  0
POLYLINE
  5
C0B7
  8
PROF
 66
     1
 10
0.0
 20
0.0
 30
0.0000000000000001
 70
     4
 75
     6
  0
VERTEX
  5
C0B8
  8
PROF
 10
1.607967335755631
 20
10.11391186758919
 30
0.0000000000000001
 70
    16
  0
VERTEX
  5
C0B9
  8
PROF
 10
1.607967335755631
 20
10.11391186758919
 30
0.0000000000000001
 70
     8
  0
VERTEX
  5
C0BA
  8
PROF
 10
1.646813232648582
 20
10.02198069336111
 30
0.0000000000000001
 70
     8
  0
VERTEX
  5
C0BB
  8
PROF
 10
1.67335966680929
 20
9.9344134163010267
 30
0.0000000000000001
 70
     8
  0
VERTEX
  5
C0BC
  8
PROF
 10
1.689008640046324
 20
9.8512576644480987
 30
0.0000000000000001
 70
     8
  0
VERTEX
  5
C0BD
  8
PROF
 10
1.695162154168258
 20
9.7725610658417281
 30
0.0000000000000001
 70
     8
  0
VERTEX
  5
C0BE
  8
PROF
 10
1.6932222109836059
 20
9.6983712485214255
 30
0.0000000000000001
 70
     8
  0
VERTEX
  5
C0BF
  8
PROF
 10
1.6845908123009961
 20
9.6287358405263603
 30
0.0000000000000001
 70
     8
  0
VERTEX
  5
C0C0
  8
PROF
 10
1.6706699599288859
 20
9.5637024698960431
 30
0.0000000000000001
 70
     8
  0
VERTEX
  5
C0C1
  8
PROF
 10
1.6528616556759621
 20
9.503318764669757
 30
0.0000000000000001
 70
     8
  0
VERTEX
  5
C0C2
  8
PROF
 10
1.6323562992730549
 20
9.4475843259650674
 30
0.0000000000000001
 70
     8
  0
VERTEX
  5
C0C3
  8
PROF
 10
1.609497882140658
 20
9.3963066472123273
 30
0.0000000000000001
 70
     8
  0
VERTEX
  5
C0C4
  8
PROF
 10
1.584418793621637
 20
9.3492451949202842
 30
0.0000000000000001
 70
     8
  0
VERTEX
  5
C0C5
  8
PROF
 10
1.557251423058744
 20
9.3061594355972375
 30
0.0000000000000001
 70
     8
  0
VERTEX
  5
C0C6
  8
PROF
 10
1.5281281597949601
 20
9.2668088357519292
 30
0.0000000000000001
 70
     8
  0
VERTEX
  5
C0C7
  8
PROF
 10
1.4971813931729789
 20
9.2309528618930017
 30
0.0000000000000001
 70
     8
  0
VERTEX
  5
C0C8
  8
PROF
 10
1.464543512535726
 20
9.1983509805288577
 30
0.0000000000000001
 70
     8
  0
VERTEX
  5
C0C9
  8
PROF
 10
1.4303469072260091
 20
9.1687626581682462
 30
0.0000000000000001
 70
     8
  0
VERTEX
  5
C0CA
  8
PROF
 10
1.3947360332574019
 20
9.1419547918675335
 30
0.0000000000000001
 70
     8
  0
VERTEX
  5
C0CB
  8
PROF
 10
1.3579036133264131
 20
9.1177240008747731
 30
0.0000000000000001
 70
     8
  0
VERTEX
  5
C0CC
  8
PROF
 10
1.3200544368004321
 20
9.0958743349860924
 30
0.0000000000000001
 70
     8
  0
VERTEX
  5
C0CD
  8
PROF
 10
1.281393293046676
 20
9.0762098439975034
 30
0.0000000000000001
 70
     8
  0
VERTEX
  5
C0CE
  8
PROF
 10
1.242124971432417
 20
9.0585345777049042
 30
0.0000000000000001
 70
     8
  0
VERTEX
  5
C0CF
  8
PROF
 10
1.2024542613249869
 20
9.0426525859044204
 30
0.0000000000000001
 70
     8
  0
VERTEX
  5
C0D0
  8
PROF
 10
1.1625859520916599
 20
9.0283679183919503
 30
0.0000000000000001
 70
     8
  0
VERTEX
  5
C0D1
  8
PROF
 10
1.1227248330997091
 20
9.0154846249635057
 30
0.0000000000000001
 70
     8
  0
VERTEX
  5
C0D2
  8
PROF
 10
1.0829726247361
 20
9.0034643862466055
 30
0.0000000000000001
 70
     8
  0
VERTEX
  5
C0D3
  8
PROF
 10
1.043018771466222
 20
8.9903994061946833
 30
0.0000000000000001
 70
     8
  0
VERTEX
  5
C0D4
  8
PROF
 10
1.002449648775211
 20
8.9740395195925657
 30
0.0000000000000001
 70
     8
  0
VERTEX
  5
C0D5
  8
PROF
 10
0.9608516321480919
 20
8.9521345612251935
 30
0.0000000000000001
 70
     8
  0
VERTEX
  5
C0D6
  8
PROF
 10
0.9178110970699435
 20
8.9224343658775052
 30
0.0000000000000001
 70
     8
  0
VERTEX
  5
C0D7
  8
PROF
 10
0.8729144190259034
 20
8.8826887683343312
 30
0.0000000000000001
 70
     8
  0
VERTEX
  5
C0D8
  8
PROF
 10
0.8257479735009951
 20
8.8306476033806121
 30
0.0000000000000001
 70
     8
  0
VERTEX
  5
C0D9
  8
PROF
 10
0.7758981359802988
 20
8.764060705801171
 30
0.0000000000000001
 70
     8
  0
VERTEX
  5
C0DA
  8
PROF
 10
1.729201901609656
 20
9.8629858761255491
 30
0.0000000000000001
 70
    16
  0
VERTEX
  5
C0DB
  8
PROF
 10
1.6793731231140889
 20
9.4532143012734196
 30
0.0000000000000001
 70
    16
  0
VERTEX
  5
C0DC
  8
PROF
 10
1.4455611507419801
 20
9.1391837193732481
 30
0.0000000000000001
 70
    16
  0
VERTEX
  5
C0DD
  8
PROF
 10
1.120463717273821
 20
9.0026267702428413
 30
0.0000000000000001
 70
    16
  0
VERTEX
  5
C0DE
  8
PROF
 10
0.9127765582653638
 20
8.9630202230383702
 30
0.0000000000000001
 70
    16
  0
VERTEX
  5
C0DF
  8
PROF
 10
0.7758981359802988
 20
8.764060705801171
 30
0.0000000000000001
 70
    16
  0
SEQEND
  5
C0E0
  8
PROF
  0
ARC
  5
C0E1
  8
PROF
 10
0.733429816733235
 20
8.4849506952165257
 30
0.0000000000000001
 40
0.2823224329524727
 50
269.73652020831901
 51
81.348449993176914
  0
LINE
  5
C0E2
  8
PROF
  6
CONTINUOUS
 10
-0.0000008570117416
 20
9.1943336957369866
 30
-0.0000000000000001
 11
3.6306271195888371
 21
13.325025853350891
 31
0.0000000000000002
  0
POLYLINE
  5
C0E3
  8
PROF
 66
     1
 10
0.0
 20
0.0
 30
0.0000000000000001
 70
     4
 75
     6
  0
VERTEX
  5
C0E4
  8
PROF
 10
4.5198575031869259
 20
12.72227734589444
 30
0.0000000000000001
 70
    16
  0
VERTEX
  5
C0E5
  8
PROF
 10
4.5198575031869259
 20
12.72227734589444
 30
0.0000000000000001
 70
     8
  0
VERTEX
  5
C0E6
  8
PROF
 10
4.4467035366886298
 20
12.741128108778071
 30
0.0000000000000001
 70
     8
  0
VERTEX
  5
C0E7
  8
PROF
 10
4.3786645761268801
 20
12.754675269913941
 30
0.0000000000000001
 70
     8
  0
VERTEX
  5
C0E8
  8
PROF
 10
4.3154364111440477
 20
12.76334314092332
 30
0.0000000000000001
 70
     8
  0
VERTEX
  5
C0E9
  8
PROF
 10
4.256714831382566
 20
12.76755603342724
 30
0.0000000000000001
 70
     8
  0
VERTEX
  5
C0EA
  8
PROF
 10
4.2021956264849791
 20
12.76773825904672
 30
0.0000000000000001
 70
     8
  0
VERTEX
  5
C0EB
  8
PROF
 10
4.1515745860935453
 20
12.764314129403139
 30
0.0000000000000001
 70
     8
  0
VERTEX
  5
C0EC
  8
PROF
 10
4.1045474998508658
 20
12.75770795611743
 30
0.0000000000000001
 70
     8
  0
VERTEX
  5
C0ED
  8
PROF
 10
4.0608101573993158
 20
12.748344050810831
 30
0.0000000000000001
 70
     8
  0
VERTEX
  5
C0EE
  8
PROF
 10
4.0200583483813261
 20
12.736646725104491
 30
0.0000000000000001
 70
     8
  0
VERTEX
  5
C0EF
  8
PROF
 10
3.9819878624393819
 20
12.72304029061945
 30
0.0000000000000001
 70
     8
  0
VERTEX
  5
C0F0
  8
PROF
 10
3.946294489215858
 20
12.707949058976959
 30
0.0000000000000001
 70
     8
  0
VERTEX
  5
C0F1
  8
PROF
 10
3.9126740183532429
 20
12.691797341798059
 30
0.0000000000000001
 70
     8
  0
VERTEX
  5
C0F2
  8
PROF
 10
3.8808638350742508
 20
12.67494295718654
 30
0.0000000000000001
 70
     8
  0
VERTEX
  5
C0F3
  8
PROF
 10
3.850767706922738
 20
12.65747774917668
 30
0.0000000000000001
 70
     8
  0
VERTEX
  5
C0F4
  8
PROF
 10
3.8223309970228452
 20
12.639427068285499
 30
0.0000000000000001
 70
     8
  0
VERTEX
  5
C0F5
  8
PROF
 10
3.7954990684987129
 20
12.62081626503004
 30
0.0000000000000001
 70
     8
  0
VERTEX
  5
C0F6
  8
PROF
 10
3.7702172844744828
 20
12.601670689926999
 30
0.0000000000000001
 70
     8
  0
VERTEX
  5
C0F7
  8
PROF
 10
3.746431008074353
 20
12.58201569349364
 30
0.0000000000000001
 70
     8
  0
VERTEX
  5
C0F8
  8
PROF
 10
3.7240856024224618
 20
12.56187662624666
 30
0.0000000000000001
 70
     8
  0
VERTEX
  5
C0F9
  8
PROF
 10
3.7031264306428961
 20
12.541278838703191
 30
0.0000000000000001
 70
     8
  0
VERTEX
  5
C0FA
  8
PROF
 10
3.6834988558599089
 20
12.520247681380051
 30
0.0000000000000001
 70
     8
  0
VERTEX
  5
C0FB
  8
PROF
 10
3.665148241197528
 20
12.49880850479428
 30
0.0000000000000001
 70
     8
  0
VERTEX
  5
C0FC
  8
PROF
 10
3.6480199497799499
 20
12.47698665946279
 30
0.0000000000000001
 70
     8
  0
VERTEX
  5
C0FD
  8
PROF
 10
3.6320593447313172
 20
12.45480749590263
 30
0.0000000000000001
 70
     8
  0
VERTEX
  5
C0FE
  8
PROF
 10
3.6171895848866589
 20
12.43223790353807
 30
0.0000000000000001
 70
     8
  0
VERTEX
  5
C0FF
  8
PROF
 10
3.6032450119242858
 20
12.40901092742285
 30
0.0000000000000001
 70
     8
  0
VERTEX
  5
C100
  8
PROF
 10
3.590037763233453
 20
12.38480115151844
 30
0.0000000000000001
 70
     8
  0
VERTEX
  5
C101
  8
PROF
 10
3.5773799762033032
 20
12.35928315978594
 30
0.0000000000000001
 70
     8
  0
VERTEX
  5
C102
  8
PROF
 10
3.5650837882230908
 20
12.33213153618658
 30
0.0000000000000001
 70
     8
  0
VERTEX
  5
C103
  8
PROF
 10
3.5529613366819599
 20
12.303020864681571
 30
0.0000000000000001
 70
     8
  0
VERTEX
  5
C104
  8
PROF
 10
3.540824758969165
 20
12.271625729232371
 30
0.0000000000000001
 70
     8
  0
VERTEX
  5
C105
  8
PROF
 10
3.5284861924738489
 20
12.23762071379997
 30
0.0000000000000001
 70
     8
  0
VERTEX
  5
C106
  8
PROF
 10
3.5157577745852668
 20
12.200680402345711
 30
0.0000000000000001
 70
     8
  0
VERTEX
  5
C107
  8
PROF
 10
3.5024516426926189
 20
12.16047937883093
 30
0.0000000000000001
 70
     8
  0
VERTEX
  5
C108
  8
PROF
 10
3.4883799341851041
 20
12.116692227216619
 30
0.0000000000000001
 70
     8
  0
VERTEX
  5
C109
  8
PROF
 10
3.4733547864519201
 20
12.06899353146423
 30
0.0000000000000001
 70
     8
  0
VERTEX
  5
C10A
  8
PROF
 10
3.45723654619428
 20
12.0172095445447
 30
0.0000000000000001
 70
     8
  0
VERTEX
  5
C10B
  8
PROF
 10
3.4400783973613889
 20
11.961773195467799
 30
0.0000000000000001
 70
     8
  0
VERTEX
  5
C10C
  8
PROF
 10
3.421981733214579
 20
11.90326908225302
 30
0.0000000000000001
 70
     8
  0
VERTEX
  5
C10D
  8
PROF
 10
3.4030479470150108
 20
11.842281802919951
 30
0.0000000000000001
 70
     8
  0
VERTEX
  5
C10E
  8
PROF
 10
3.383378432024017
 20
11.779395955487979
 30
0.0000000000000001
 70
     8
  0
VERTEX
  5
C10F
  8
PROF
 10
3.3630745815028709
 20
11.715196137976809
 30
0.0000000000000001
 70
     8
  0
VERTEX
  5
C110
  8
PROF
 10
3.3422377887127359
 20
11.650266948405831
 30
0.0000000000000001
 70
     8
  0
VERTEX
  5
C111
  8
PROF
 10
3.320969446915
 20
11.58519298479461
 30
0.0000000000000001
 70
     8
  0
VERTEX
  5
C112
  8
PROF
 10
3.2993709493707679
 20
11.520558845162549
 30
0.0000000000000001
 70
     8
  0
VERTEX
  5
C113
  8
PROF
 10
3.277543689341428
 20
11.456949127529469
 30
0.0000000000000001
 70
     8
  0
VERTEX
  5
C114
  8
PROF
 10
3.2555890600881412
 20
11.3949484299145
 30
0.0000000000000001
 70
     8
  0
VERTEX
  5
C115
  8
PROF
 10
3.233608454872182
 20
11.335141350337491
 30
0.0000000000000001
 70
     8
  0
VERTEX
  5
C116
  8
PROF
 10
3.2116715641212181
 20
11.27799544797778
 30
0.0000000000000001
 70
     8
  0
VERTEX
  5
C117
  8
PROF
 10
3.189721266927847
 20
11.22351012665467
 30
0.0000000000000001
 70
     8
  0
VERTEX
  5
C118
  8
PROF
 10
3.1676687395512881
 20
11.17156775134765
 30
0.0000000000000001
 70
     8
  0
VERTEX
  5
C119
  8
PROF
 10
3.1454251582505321
 20
11.12205068703588
 30
0.0000000000000001
 70
     8
  0
VERTEX
  5
C11A
  8
PROF
 10
3.122901699284625
 20
11.07484129869874
 30
0.0000000000000001
 70
     8
  0
VERTEX
  5
C11B
  8
PROF
 10
3.1000095389127291
 20
11.02982195131551
 30
0.0000000000000001
 70
     8
  0
VERTEX
  5
C11C
  8
PROF
 10
3.0766598533938909
 20
10.986875009865679
 30
0.0000000000000001
 70
     8
  0
VERTEX
  5
C11D
  8
PROF
 10
3.0527638189871591
 20
10.9458828393283
 30
0.0000000000000001
 70
     8
  0
VERTEX
  5
C11E
  8
PROF
 10
3.0282326119516361
 20
10.90672780468298
 30
0.0000000000000001
 70
     8
  0
VERTEX
  5
C11F
  8
PROF
 10
3.002977408546371
 20
10.869292270908771
 30
0.0000000000000001
 70
     8
  0
VERTEX
  5
C120
  8
PROF
 10
2.9769093850304098
 20
10.833458602985161
 30
0.0000000000000001
 70
     8
  0
VERTEX
  5
C121
  8
PROF
 10
2.9499397176628568
 20
10.799109165891419
 30
0.0000000000000001
 70
     8
  0
VERTEX
  5
C122
  8
PROF
 10
2.9220006098404379
 20
10.76614363969508
 30
0.0000000000000001
 70
     8
  0
VERTEX
  5
C123
  8
PROF
 10
2.8931083735103011
 20
10.7345309648158
 30
0.0000000000000001
 70
     8
  0
VERTEX
  5
C124
  8
PROF
 10
2.8633003477572738
 20
10.70425739676193
 30
0.0000000000000001
 70
     8
  0
VERTEX
  5
C125
  8
PROF
 10
2.8326138716660689
 20
10.67530919104115
 30
0.0000000000000001
 70
     8
  0
VERTEX
  5
C126
  8
PROF
 10
2.8010862843216269
 20
10.647672603161711
 30
0.0000000000000001
 70
     8
  0
VERTEX
  5
C127
  8
PROF
 10
2.7687549248087171
 20
10.62133388863162
 30
0.0000000000000001
 70
     8
  0
VERTEX
  5
C128
  8
PROF
 10
2.735657132212054
 20
10.5962793029588
 30
0.0000000000000001
 70
     8
  0
VERTEX
  5
C129
  8
PROF
 10
2.7018302456165202
 20
10.572495101651381
 30
0.0000000000000001
 70
     8
  0
VERTEX
  5
C12A
  8
PROF
 10
2.6673116041068852
 20
10.54996754021726
 30
0.0000000000000001
 70
     8
  0
VERTEX
  5
C12B
  8
PROF
 10
2.6321385467680321
 20
10.528682874164581
 30
0.0000000000000001
 70
     8
  0
VERTEX
  5
C12C
  8
PROF
 10
2.5963484126846188
 20
10.508627359001251
 30
0.0000000000000001
 70
     8
  0
VERTEX
  5
C12D
  8
PROF
 10
2.5599785409415849
 20
10.489787250235279
 30
0.0000000000000001
 70
     8
  0
VERTEX
  5
C12E
  8
PROF
 10
2.522998630314361
 20
10.472162234281081
 30
0.0000000000000001
 70
     8
  0
VERTEX
  5
C12F
  8
PROF
 10
2.4851078183409072
 20
10.455805721177621
 30
0.0000000000000001
 70
     8
  0
VERTEX
  5
C130
  8
PROF
 10
2.4459376022498982
 20
10.44078455187036
 30
0.0000000000000001
 70
     8
  0
VERTEX
  5
C131
  8
PROF
 10
2.4051194792701258
 20
10.42716556730465
 30
0.0000000000000001
 70
     8
  0
VERTEX
  5
C132
  8
PROF
 10
2.3622849466301541
 20
10.415015608425851
 30
0.0000000000000001
 70
     8
  0
VERTEX
  5
C133
  8
PROF
 10
2.3170655015587149
 20
10.40440151617929
 30
0.0000000000000001
 70
     8
  0
VERTEX
  5
C134
  8
PROF
 10
2.2690926412844301
 20
10.395390131510339
 30
0.0000000000000001
 70
     8
  0
VERTEX
  5
C135
  8
PROF
 10
2.2179978630360888
 20
10.388048295364451
 30
0.0000000000000001
 70
     8
  0
VERTEX
  5
C136
  8
PROF
 10
2.1634126640422551
 20
10.38244284868688
 30
0.0000000000000001
 70
     8
  0
VERTEX
  5
C137
  8
PROF
 10
2.104968541531604
 20
10.37864063242295
 30
0.0000000000000001
 70
     8
  0
VERTEX
  5
C138
  8
PROF
 10
2.0422969927328718
 20
10.37670848751816
 30
0.0000000000000001
 70
     8
  0
VERTEX
  5
C139
  8
PROF
 10
1.9750295148747341
 20
10.37671325491794
 30
0.0000000000000001
 70
     8
  0
VERTEX
  5
C13A
  8
PROF
 10
4.2166060115107484
 20
12.80885334975255
 30
0.0000000000000001
 70
    16
  0
VERTEX
  5
C13B
  8
PROF
 10
3.8702254102732918
 20
12.707065515763929
 30
0.0000000000000001
 70
    16
  0
VERTEX
  5
C13C
  8
PROF
 10
3.605346156896871
 20
12.46277472098552
 30
0.0000000000000001
 70
    16
  0
VERTEX
  5
C13D
  8
PROF
 10
3.500746030527238
 20
12.170680575709749
 30
0.0000000000000001
 70
    16
  0
VERTEX
  5
C13E
  8
PROF
 10
3.231798439705698
 20
11.26846416496107
 30
0.0000000000000001
 70
    16
  0
VERTEX
  5
C13F
  8
PROF
 10
2.9737109398832891
 20
10.76631086647069
 30
0.0000000000000001
 70
    16
  0
VERTEX
  5
C140
  8
PROF
 10
2.5729961067384011
 20
10.460947364504699
 30
0.0000000000000001
 70
    16
  0
VERTEX
  5
C141
  8
PROF
 10
2.253782621454604
 20
10.372731239449759
 30
0.0000000000000001
 70
    16
  0
VERTEX
  5
C142
  8
PROF
 10
1.9750295148747341
 20
10.37671325491794
 30
0.0000000000000001
 70
    16
  0
SEQEND
  5
C143
  8
PROF
  0
LINE
  5
C144
  8
PROF
 10
4.9012016798694162
 20
12.88585218805485
 30
0.0000000000000003
 11
4.5198575031869259
 21
12.88585218805485
 31
0.0000000000000003
  0
LINE
  5
C145
  8
PROF
 10
0.7321315362267457
 20
8.2026312473991538
 30
0.0000000000000006
 11
0.7321315362267457
 21
8.0511853963434987
 31
0.0000000000000006
  0
ARC
  5
C146
  8
PROF
 10
0.7977322214551919
 20
7.5773339332026799
 30
0.0000000000000006
 40
0.4783708383912012
 50
97.882010168942529
 51
186.31119505698649
  0
LINE
  5
C147
  8
FRAME_050
 10
7.8016377197432121
 20
17.99371054969447
 30
0.0
 11
7.8016377197432121
 21
0.0000000000002274
 31
0.0
  0
ENDBLK
  5
C149
  8
0
  0
BLOCK
  8
0
  2
A$C3A7C6791
 70
     0
 10
0.0
 20
0.0
 30
0.0
  3
A$C3A7C6791
  1

  0
ARC
  5
1A561
  8
0
 10
1.0342682520551421
 20
11.169869575314801
 30
0.0
 40
0.3900479059662017
 50
183.5871702804647
 51
250.12003892297869
  0
ARC
  5
1A562
  8
0
 10
0.3331235273064408
 20
14.96835148878222
 30
0.0
 40
0.279776987736341
 50
290.26301102890392
 51
72.509116341854423
  0
ARC
  5
1A563
  8
0
 10
0.7948887850711232
 20
10.60700392177659
 30
0.0
 40
0.2232361910347119
 50
300.2914142988875
 51
61.434469032044603
  0
LINE
  5
1A564
  8
0
 10
-0.0000015027120526
 20
9.7351929270671462
 30
0.0
 11
1.0332573394856579
 21
9.7351929270671462
 31
0.0
  0
LINE
  5
1A565
  8
0
 10
1.0332573394856579
 20
10.377304601683591
 30
0.0
 11
0.9074887268004658
 21
10.377304601683591
 31
0.0
  0
LINE
  5
1A566
  8
0
 10
0.6449845421777241
 20
11.145465432783791
 30
0.0
 11
0.5554296092705046
 21
11.181249222917581
 31
0.0
  0
LINE
  5
1A567
  8
0
 10
0.5554296092705046
 20
14.67010534946894
 30
0.0
 11
0.430018718777319
 21
14.67010534946894
 31
0.0
  0
LINE
  5
1A568
  8
0
 10
0.4172116339615855
 20
15.235192927067139
 30
0.0
 11
-0.0000015027120526
 21
15.235192927067139
 31
0.0
  0
LINE
  5
1A569
  8
0
 10
-0.0000015027120526
 20
15.235192927067139
 30
0.0
 11
-0.0000015027120526
 21
9.7351929270671462
 31
0.0
  0
LINE
  5
1A56A
  8
0
 10
1.0332573394856579
 20
9.7351929270671462
 30
0.0
 11
1.0332573394856579
 21
10.377304601683591
 31
0.0
  0
LINE
  5
1A56B
  8
0
 10
0.9074887268004658
 20
10.377304601683591
 30
0.0
 11
0.9074887268003521
 21
10.414245912577821
 31
0.0
  0
LINE
  5
1A56C
  8
0
 10
0.5554296092705046
 20
11.181249222917581
 30
0.0
 11
0.5554296092705046
 21
14.67010534946894
 31
0.0
  0
LINE
  5
1A56D
  8
0
 10
0.430018718777319
 20
14.67010534946894
 30
0.0
 11
0.4300187187771485
 21
14.705889139602959
 31
0.0
  0
INSERT
  5
1A56E
  8
0
  2
*U9
 10
0.0
 20
0.0
 30
0.0
  0
LINE
  5
1A56F
  8
FRAME_050
 10
5.1382720395286006
 20
17.993710579095019
 30
0.0
 11
5.1382720395286006
 21
0.0000000294007805
 31
0.0
  0
ENDBLK
  5
1A571
  8
0
  0
BLOCK
  8
0
  2
A$C212248C0
 70
     0
 10
0.0
 20
0.0
 30
0.0
  3
A$C212248C0
  1

  0
LINE
  5
2846E
  8
0
 10
-0.0000002092490945
 20
10.41741894345523
 30
0.0
 11
-0.000000218823061
 21
12.91741894345523
 31
0.0
  0
LINE
  5
2846F
  8
0
 10
0.8061752779508424
 20
10.41741894654251
 30
0.0
 11
0.80617527442746
 21
11.337459194522349
 31
0.0
  0
LINE
  5
28470
  8
0
 10
-0.0000002092490945
 20
10.41741894345523
 30
0.0
 11
0.8061752779508424
 21
10.41741894654251
 31
0.0
  0
LINE
  5
28471
  8
0
 10
-0.000000218823061
 20
12.91741894345523
 30
0.0
 11
0.1835338022692099
 21
12.91741894415804
 31
0.0
  0
LINE
  5
28472
  8
0
 10
0.5432593756756888
 20
11.33745919351543
 30
0.0
 11
0.8061752744275167
 21
11.337459194522349
 31
0.0
  0
LINE
  5
28473
  8
0
 10
0.5432593756756888
 20
11.33745919351543
 30
0.0
 11
0.54325937522907
 21
11.454074799268589
 31
0.0
  0
ARC
  5
28474
  8
0
 10
0.5406585726453841
 20
11.69407225899795
 30
0.0
 40
0.2400115514942006
 50
270.62087814899439
 51
10.065567101317541
  0
ARC
  5
28475
  8
0
 10
0.3766221072655185
 20
12.57830290724473
 30
0.0
 40
0.1204493443528103
 50
92.075522465847911
 51
186.90606997904499
  0
ARC
  5
28476
  8
0
 10
0.3522648873053527
 20
11.66572609276443
 30
0.0
 40
0.4304889887359197
 50
9.3978639632316945
 51
32.979139282634932
  0
ARC
  5
28477
  8
0
 10
-3.1652042745943159
 20
9.0577862235478506
 30
0.0
 40
4.8085319198703189
 50
36.234313076985558
 51
42.402692063571678
  0
LINE
  5
28478
  8
0
 10
0.1835338022692099
 20
12.91741894415804
 30
0.0
 11
0.3722598200128004
 21
12.698673231681139
 31
0.0
  0
ARC
  5
28479
  8
0
 10
0.9319226152692294
 20
12.72987725098619
 30
0.0
 40
0.6950054723870779
 50
193.8233761419454
 51
218.1708864341492
  0
LINE
  5
2847A
  8
0
 10
-0.0000002092490945
 20
10.41741894345523
 30
0.0
 11
-0.0000002092490945
 21
12.91741894345523
 31
0.0
  0
INSERT
  5
2847B
  8
0
  2
*U10
 10
0.0
 20
0.0
 30
0.0
  0
LINE
  5
2847C
  8
FRAME_050
 10
6.2588202718825414
 20
17.993710579095019
 30
0.0
 11
6.2588202718825414
 21
0.0000000294007805
 31
0.0
  0
ENDBLK
  5
2847E
  8
0
  0
BLOCK
  8
0
  2
A$C52DE5D80
 70
     0
 10
0.0
 20
0.0
 30
0.0
  3
A$C52DE5D80
  1

  0
INSERT
  5
2B89A
  8
0
  2
*U11
 10
0.0
 20
0.0
 30
0.0
  0
LINE
  5
2B89B
  8
0
 10
0.0000014767382481
 20
7.878552666495465
 30
0.0
 11
1.5240062297528421
 21
7.8785526664953522
 31
0.0
  0
LINE
  5
2B89C
  8
0
 10
1.5240062297528421
 20
8.3261365866769665
 30
0.0
 11
1.5240062297528421
 21
7.8785526664953522
 31
0.0
  0
LINE
  5
2B89D
  8
0
 10
1.394539806559862
 20
8.3261365866769665
 30
0.0
 11
1.5240062297528421
 21
8.3261365866769665
 31
0.0
  0
LINE
  5
2B89E
  8
0
 10
0.7472076905950758
 20
9.2582948336663549
 30
0.0
 11
0.8951693171012493
 21
9.2582948336665822
 31
0.0
  0
POLYLINE
  8
0
  5
2FC84
  62
7
  66
     1
 10
0.000000
 20
0.000000
 30
0.000000
  70
     8
  0
VERTEX
  8
0
  5
2FC85
 10
1.39454
 20
8.32614
 30
0.000000
  70
    32
  0
VERTEX
  8
0
  5
2FC86
 10
1.39468
 20
8.33131
 30
0.000000
  70
    32
  0
VERTEX
  8
0
  5
2FC87
 10
1.39482
 20
8.33649
 30
0.000000
  70
    32
  0
VERTEX
  8
0
  5
2FC88
 10
1.39495
 20
8.34167
 30
0.000000
  70
    32
  0
VERTEX
  8
0
  5
2FC89
 10
1.39508
 20
8.34684
 30
0.000000
  70
    32
  0
VERTEX
  8
0
  5
2FC8A
 10
1.39521
 20
8.35201
 30
0.000000
  70
    32
  0
VERTEX
  8
0
  5
2FC8B
 10
1.39532
 20
8.35718
 30
0.000000
  70
    32
  0
VERTEX
  8
0
  5
2FC8C
 10
1.39542
 20
8.36234
 30
0.000000
  70
    32
  0
VERTEX
  8
0
  5
2FC8D
 10
1.39552
 20
8.36749
 30
0.000000
  70
    32
  0
VERTEX
  8
0
  5
2FC8E
 10
1.39559
 20
8.37264
 30
0.000000
  70
    32
  0
VERTEX
  8
0
  5
2FC8F
 10
1.39566
 20
8.37779
 30
0.000000
  70
    32
  0
VERTEX
  8
0
  5
2FC90
 10
1.39570
 20
8.38292
 30
0.000000
  70
    32
  0
VERTEX
  8
0
  5
2FC91
 10
1.39573
 20
8.38805
 30
0.000000
  70
    32
  0
VERTEX
  8
0
  5
2FC92
 10
1.39574
 20
8.39316
 30
0.000000
  70
    32
  0
VERTEX
  8
0
  5
2FC93
 10
1.39572
 20
8.39827
 30
0.000000
  70
    32
  0
VERTEX
  8
0
  5
2FC94
 10
1.39569
 20
8.40337
 30
0.000000
  70
    32
  0
VERTEX
  8
0
  5
2FC95
 10
1.39562
 20
8.40845
 30
0.000000
  70
    32
  0
VERTEX
  8
0
  5
2FC96
 10
1.39553
 20
8.41352
 30
0.000000
  70
    32
  0
VERTEX
  8
0
  5
2FC97
 10
1.39541
 20
8.41858
 30
0.000000
  70
    32
  0
VERTEX
  8
0
  5
2FC98
 10
1.39526
 20
8.42363
 30
0.000000
  70
    32
  0
VERTEX
  8
0
  5
2FC99
 10
1.39507
 20
8.42866
 30
0.000000
  70
    32
  0
VERTEX
  8
0
  5
2FC9A
 10
1.39486
 20
8.43367
 30
0.000000
  70
    32
  0
VERTEX
  8
0
  5
2FC9B
 10
1.39460
 20
8.43867
 30
0.000000
  70
    32
  0
VERTEX
  8
0
  5
2FC9C
 10
1.39431
 20
8.44365
 30
0.000000
  70
    32
  0
VERTEX
  8
0
  5
2FC9D
 10
1.39398
 20
8.44862
 30
0.000000
  70
    32
  0
VERTEX
  8
0
  5
2FC9E
 10
1.39361
 20
8.45356
 30
0.000000
  70
    32
  0
VERTEX
  8
0
  5
2FC9F
 10
1.39320
 20
8.45849
 30
0.000000
  70
    32
  0
VERTEX
  8
0
  5
2FCA0
 10
1.39274
 20
8.46339
 30
0.000000
  70
    32
  0
VERTEX
  8
0
  5
2FCA1
 10
1.39224
 20
8.46828
 30
0.000000
  70
    32
  0
VERTEX
  8
0
  5
2FCA2
 10
1.39168
 20
8.47314
 30
0.000000
  70
    32
  0
VERTEX
  8
0
  5
2FCA3
 10
1.39108
 20
8.47798
 30
0.000000
  70
    32
  0
VERTEX
  8
0
  5
2FCA4
 10
1.39043
 20
8.48280
 30
0.000000
  70
    32
  0
VERTEX
  8
0
  5
2FCA5
 10
1.38973
 20
8.48759
 30
0.000000
  70
    32
  0
VERTEX
  8
0
  5
2FCA6
 10
1.38897
 20
8.49236
 30
0.000000
  70
    32
  0
VERTEX
  8
0
  5
2FCA7
 10
1.38815
 20
8.49711
 30
0.000000
  70
    32
  0
VERTEX
  8
0
  5
2FCA8
 10
1.38728
 20
8.50182
 30
0.000000
  70
    32
  0
VERTEX
  8
0
  5
2FCA9
 10
1.38635
 20
8.50651
 30
0.000000
  70
    32
  0
VERTEX
  8
0
  5
2FCAA
 10
1.38535
 20
8.51117
 30
0.000000
  70
    32
  0
VERTEX
  8
0
  5
2FCAB
 10
1.38429
 20
8.51581
 30
0.000000
  70
    32
  0
VERTEX
  8
0
  5
2FCAC
 10
1.38317
 20
8.52041
 30
0.000000
  70
    32
  0
VERTEX
  8
0
  5
2FCAD
 10
1.38198
 20
8.52498
 30
0.000000
  70
    32
  0
VERTEX
  8
0
  5
2FCAE
 10
1.38073
 20
8.52953
 30
0.000000
  70
    32
  0
VERTEX
  8
0
  5
2FCAF
 10
1.37940
 20
8.53404
 30
0.000000
  70
    32
  0
VERTEX
  8
0
  5
2FCB0
 10
1.37800
 20
8.53851
 30
0.000000
  70
    32
  0
VERTEX
  8
0
  5
2FCB1
 10
1.37653
 20
8.54296
 30
0.000000
  70
    32
  0
VERTEX
  8
0
  5
2FCB2
 10
1.37499
 20
8.54737
 30
0.000000
  70
    32
  0
VERTEX
  8
0
  5
2FCB3
 10
1.37337
 20
8.55175
 30
0.000000
  70
    32
  0
VERTEX
  8
0
  5
2FCB4
 10
1.37167
 20
8.55609
 30
0.000000
  70
    32
  0
VERTEX
  8
0
  5
2FCB5
 10
1.36991
 20
8.56040
 30
0.000000
  70
    32
  0
VERTEX
  8
0
  5
2FCB6
 10
1.36807
 20
8.56468
 30
0.000000
  70
    32
  0
VERTEX
  8
0
  5
2FCB7
 10
1.36616
 20
8.56893
 30
0.000000
  70
    32
  0
VERTEX
  8
0
  5
2FCB8
 10
1.36418
 20
8.57314
 30
0.000000
  70
    32
  0
VERTEX
  8
0
  5
2FCB9
 10
1.36214
 20
8.57733
 30
0.000000
  70
    32
  0
VERTEX
  8
0
  5
2FCBA
 10
1.36003
 20
8.58148
 30
0.000000
  70
    32
  0
VERTEX
  8
0
  5
2FCBB
 10
1.35785
 20
8.58560
 30
0.000000
  70
    32
  0
VERTEX
  8
0
  5
2FCBC
 10
1.35561
 20
8.58970
 30
0.000000
  70
    32
  0
VERTEX
  8
0
  5
2FCBD
 10
1.35330
 20
8.59377
 30
0.000000
  70
    32
  0
VERTEX
  8
0
  5
2FCBE
 10
1.35093
 20
8.59781
 30
0.000000
  70
    32
  0
VERTEX
  8
0
  5
2FCBF
 10
1.34851
 20
8.60182
 30
0.000000
  70
    32
  0
VERTEX
  8
0
  5
2FCC0
 10
1.34602
 20
8.60581
 30
0.000000
  70
    32
  0
VERTEX
  8
0
  5
2FCC1
 10
1.34347
 20
8.60976
 30
0.000000
  70
    32
  0
VERTEX
  8
0
  5
2FCC2
 10
1.34086
 20
8.61370
 30
0.000000
  70
    32
  0
VERTEX
  8
0
  5
2FCC3
 10
1.33820
 20
8.61761
 30
0.000000
  70
    32
  0
VERTEX
  8
0
  5
2FCC4
 10
1.33549
 20
8.62149
 30
0.000000
  70
    32
  0
VERTEX
  8
0
  5
2FCC5
 10
1.33271
 20
8.62535
 30
0.000000
  70
    32
  0
VERTEX
  8
0
  5
2FCC6
 10
1.32989
 20
8.62919
 30
0.000000
  70
    32
  0
VERTEX
  8
0
  5
2FCC7
 10
1.32701
 20
8.63300
 30
0.000000
  70
    32
  0
VERTEX
  8
0
  5
2FCC8
 10
1.32408
 20
8.63679
 30
0.000000
  70
    32
  0
VERTEX
  8
0
  5
2FCC9
 10
1.32111
 20
8.64056
 30
0.000000
  70
    32
  0
VERTEX
  8
0
  5
2FCCA
 10
1.31808
 20
8.64431
 30
0.000000
  70
    32
  0
VERTEX
  8
0
  5
2FCCB
 10
1.31501
 20
8.64803
 30
0.000000
  70
    32
  0
VERTEX
  8
0
  5
2FCCC
 10
1.31189
 20
8.65174
 30
0.000000
  70
    32
  0
VERTEX
  8
0
  5
2FCCD
 10
1.30872
 20
8.65543
 30
0.000000
  70
    32
  0
VERTEX
  8
0
  5
2FCCE
 10
1.30551
 20
8.65910
 30
0.000000
  70
    32
  0
VERTEX
  8
0
  5
2FCCF
 10
1.30226
 20
8.66275
 30
0.000000
  70
    32
  0
VERTEX
  8
0
  5
2FCD0
 10
1.29896
 20
8.66638
 30
0.000000
  70
    32
  0
VERTEX
  8
0
  5
2FCD1
 10
1.29563
 20
8.66999
 30
0.000000
  70
    32
  0
VERTEX
  8
0
  5
2FCD2
 10
1.29225
 20
8.67359
 30
0.000000
  70
    32
  0
VERTEX
  8
0
  5
2FCD3
 10
1.28884
 20
8.67717
 30
0.000000
  70
    32
  0
VERTEX
  8
0
  5
2FCD4
 10
1.28539
 20
8.68074
 30
0.000000
  70
    32
  0
VERTEX
  8
0
  5
2FCD5
 10
1.28190
 20
8.68429
 30
0.000000
  70
    32
  0
VERTEX
  8
0
  5
2FCD6
 10
1.27838
 20
8.68782
 30
0.000000
  70
    32
  0
VERTEX
  8
0
  5
2FCD7
 10
1.27482
 20
8.69134
 30
0.000000
  70
    32
  0
VERTEX
  8
0
  5
2FCD8
 10
1.27123
 20
8.69485
 30
0.000000
  70
    32
  0
VERTEX
  8
0
  5
2FCD9
 10
1.26761
 20
8.69835
 30
0.000000
  70
    32
  0
VERTEX
  8
0
  5
2FCDA
 10
1.26396
 20
8.70183
 30
0.000000
  70
    32
  0
VERTEX
  8
0
  5
2FCDB
 10
1.26028
 20
8.70530
 30
0.000000
  70
    32
  0
VERTEX
  8
0
  5
2FCDC
 10
1.25657
 20
8.70876
 30
0.000000
  70
    32
  0
VERTEX
  8
0
  5
2FCDD
 10
1.25283
 20
8.71220
 30
0.000000
  70
    32
  0
VERTEX
  8
0
  5
2FCDE
 10
1.24907
 20
8.71564
 30
0.000000
  70
    32
  0
VERTEX
  8
0
  5
2FCDF
 10
1.24528
 20
8.71907
 30
0.000000
  70
    32
  0
VERTEX
  8
0
  5
2FCE0
 10
1.24147
 20
8.72249
 30
0.000000
  70
    32
  0
VERTEX
  8
0
  5
2FCE1
 10
1.23764
 20
8.72590
 30
0.000000
  70
    32
  0
VERTEX
  8
0
  5
2FCE2
 10
1.23379
 20
8.72930
 30
0.000000
  70
    32
  0
VERTEX
  8
0
  5
2FCE3
 10
1.22991
 20
8.73270
 30
0.000000
  70
    32
  0
VERTEX
  8
0
  5
2FCE4
 10
1.22601
 20
8.73609
 30
0.000000
  70
    32
  0
VERTEX
  8
0
  5
2FCE5
 10
1.22210
 20
8.73947
 30
0.000000
  70
    32
  0
VERTEX
  8
0
  5
2FCE6
 10
1.21817
 20
8.74284
 30
0.000000
  70
    32
  0
VERTEX
  8
0
  5
2FCE7
 10
1.21423
 20
8.74621
 30
0.000000
  70
    32
  0
VERTEX
  8
0
  5
2FCE8
 10
1.21027
 20
8.74958
 30
0.000000
  70
    32
  0
VERTEX
  8
0
  5
2FCE9
 10
1.20629
 20
8.75294
 30
0.000000
  70
    32
  0
VERTEX
  8
0
  5
2FCEA
 10
1.20230
 20
8.75630
 30
0.000000
  70
    32
  0
VERTEX
  8
0
  5
2FCEB
 10
1.19831
 20
8.75965
 30
0.000000
  70
    32
  0
VERTEX
  8
0
  5
2FCEC
 10
1.19430
 20
8.76300
 30
0.000000
  70
    32
  0
VERTEX
  8
0
  5
2FCED
 10
1.19028
 20
8.76636
 30
0.000000
  70
    32
  0
VERTEX
  8
0
  5
2FCEE
 10
1.18626
 20
8.76970
 30
0.000000
  70
    32
  0
VERTEX
  8
0
  5
2FCEF
 10
1.18222
 20
8.77305
 30
0.000000
  70
    32
  0
VERTEX
  8
0
  5
2FCF0
 10
1.17819
 20
8.77640
 30
0.000000
  70
    32
  0
VERTEX
  8
0
  5
2FCF1
 10
1.17414
 20
8.77975
 30
0.000000
  70
    32
  0
VERTEX
  8
0
  5
2FCF2
 10
1.17010
 20
8.78310
 30
0.000000
  70
    32
  0
VERTEX
  8
0
  5
2FCF3
 10
1.16605
 20
8.78645
 30
0.000000
  70
    32
  0
VERTEX
  8
0
  5
2FCF4
 10
1.16200
 20
8.78980
 30
0.000000
  70
    32
  0
VERTEX
  8
0
  5
2FCF5
 10
1.15795
 20
8.79315
 30
0.000000
  70
    32
  0
VERTEX
  8
0
  5
2FCF6
 10
1.15390
 20
8.79651
 30
0.000000
  70
    32
  0
VERTEX
  8
0
  5
2FCF7
 10
1.14986
 20
8.79987
 30
0.000000
  70
    32
  0
VERTEX
  8
0
  5
2FCF8
 10
1.14582
 20
8.80323
 30
0.000000
  70
    32
  0
VERTEX
  8
0
  5
2FCF9
 10
1.14178
 20
8.80660
 30
0.000000
  70
    32
  0
VERTEX
  8
0
  5
2FCFA
 10
1.13775
 20
8.80998
 30
0.000000
  70
    32
  0
VERTEX
  8
0
  5
2FCFB
 10
1.13372
 20
8.81336
 30
0.000000
  70
    32
  0
VERTEX
  8
0
  5
2FCFC
 10
1.12970
 20
8.81674
 30
0.000000
  70
    32
  0
VERTEX
  8
0
  5
2FCFD
 10
1.12569
 20
8.82014
 30
0.000000
  70
    32
  0
VERTEX
  8
0
  5
2FCFE
 10
1.12170
 20
8.82354
 30
0.000000
  70
    32
  0
VERTEX
  8
0
  5
2FCFF
 10
1.11771
 20
8.82695
 30
0.000000
  70
    32
  0
VERTEX
  8
0
  5
2FD00
 10
1.11373
 20
8.83036
 30
0.000000
  70
    32
  0
VERTEX
  8
0
  5
2FD01
 10
1.10977
 20
8.83379
 30
0.000000
  70
    32
  0
VERTEX
  8
0
  5
2FD02
 10
1.10583
 20
8.83723
 30
0.000000
  70
    32
  0
VERTEX
  8
0
  5
2FD03
 10
1.10190
 20
8.84067
 30
0.000000
  70
    32
  0
VERTEX
  8
0
  5
2FD04
 10
1.09798
 20
8.84413
 30
0.000000
  70
    32
  0
VERTEX
  8
0
  5
2FD05
 10
1.09409
 20
8.84760
 30
0.000000
  70
    32
  0
VERTEX
  8
0
  5
2FD06
 10
1.09021
 20
8.85107
 30
0.000000
  70
    32
  0
VERTEX
  8
0
  5
2FD07
 10
1.08635
 20
8.85457
 30
0.000000
  70
    32
  0
VERTEX
  8
0
  5
2FD08
 10
1.08251
 20
8.85807
 30
0.000000
  70
    32
  0
VERTEX
  8
0
  5
2FD09
 10
1.07870
 20
8.86158
 30
0.000000
  70
    32
  0
VERTEX
  8
0
  5
2FD0A
 10
1.07490
 20
8.86511
 30
0.000000
  70
    32
  0
VERTEX
  8
0
  5
2FD0B
 10
1.07113
 20
8.86865
 30
0.000000
  70
    32
  0
VERTEX
  8
0
  5
2FD0C
 10
1.06738
 20
8.87220
 30
0.000000
  70
    32
  0
VERTEX
  8
0
  5
2FD0D
 10
1.06365
 20
8.87576
 30
0.000000
  70
    32
  0
VERTEX
  8
0
  5
2FD0E
 10
1.05995
 20
8.87934
 30
0.000000
  70
    32
  0
VERTEX
  8
0
  5
2FD0F
 10
1.05628
 20
8.88294
 30
0.000000
  70
    32
  0
VERTEX
  8
0
  5
2FD10
 10
1.05263
 20
8.88654
 30
0.000000
  70
    32
  0
VERTEX
  8
0
  5
2FD11
 10
1.04900
 20
8.89016
 30
0.000000
  70
    32
  0
VERTEX
  8
0
  5
2FD12
 10
1.04541
 20
8.89380
 30
0.000000
  70
    32
  0
VERTEX
  8
0
  5
2FD13
 10
1.04185
 20
8.89745
 30
0.000000
  70
    32
  0
VERTEX
  8
0
  5
2FD14
 10
1.03831
 20
8.90112
 30
0.000000
  70
    32
  0
VERTEX
  8
0
  5
2FD15
 10
1.03481
 20
8.90480
 30
0.000000
  70
    32
  0
VERTEX
  8
0
  5
2FD16
 10
1.03133
 20
8.90850
 30
0.000000
  70
    32
  0
VERTEX
  8
0
  5
2FD17
 10
1.02789
 20
8.91221
 30
0.000000
  70
    32
  0
VERTEX
  8
0
  5
2FD18
 10
1.02448
 20
8.91594
 30
0.000000
  70
    32
  0
VERTEX
  8
0
  5
2FD19
 10
1.02111
 20
8.91969
 30
0.000000
  70
    32
  0
VERTEX
  8
0
  5
2FD1A
 10
1.01777
 20
8.92345
 30
0.000000
  70
    32
  0
VERTEX
  8
0
  5
2FD1B
 10
1.01446
 20
8.92723
 30
0.000000
  70
    32
  0
VERTEX
  8
0
  5
2FD1C
 10
1.01119
 20
8.93103
 30
0.000000
  70
    32
  0
VERTEX
  8
0
  5
2FD1D
 10
1.00796
 20
8.93484
 30
0.000000
  70
    32
  0
VERTEX
  8
0
  5
2FD1E
 10
1.00476
 20
8.93868
 30
0.000000
  70
    32
  0
VERTEX
  8
0
  5
2FD1F
 10
1.00160
 20
8.94253
 30
0.000000
  70
    32
  0
VERTEX
  8
0
  5
2FD20
 10
0.998485
 20
8.94640
 30
0.000000
  70
    32
  0
VERTEX
  8
0
  5
2FD21
 10
0.995407
 20
8.95029
 30
0.000000
  70
    32
  0
VERTEX
  8
0
  5
2FD22
 10
0.992369
 20
8.95420
 30
0.000000
  70
    32
  0
VERTEX
  8
0
  5
2FD23
 10
0.989373
 20
8.95813
 30
0.000000
  70
    32
  0
VERTEX
  8
0
  5
2FD24
 10
0.986419
 20
8.96208
 30
0.000000
  70
    32
  0
VERTEX
  8
0
  5
2FD25
 10
0.983508
 20
8.96605
 30
0.000000
  70
    32
  0
VERTEX
  8
0
  5
2FD26
 10
0.980642
 20
8.97004
 30
0.000000
  70
    32
  0
VERTEX
  8
0
  5
2FD27
 10
0.977819
 20
8.97405
 30
0.000000
  70
    32
  0
VERTEX
  8
0
  5
2FD28
 10
0.975042
 20
8.97808
 30
0.000000
  70
    32
  0
VERTEX
  8
0
  5
2FD29
 10
0.972312
 20
8.98213
 30
0.000000
  70
    32
  0
VERTEX
  8
0
  5
2FD2A
 10
0.969628
 20
8.98621
 30
0.000000
  70
    32
  0
VERTEX
  8
0
  5
2FD2B
 10
0.966993
 20
8.99030
 30
0.000000
  70
    32
  0
VERTEX
  8
0
  5
2FD2C
 10
0.964406
 20
8.99442
 30
0.000000
  70
    32
  0
VERTEX
  8
0
  5
2FD2D
 10
0.961868
 20
8.99856
 30
0.000000
  70
    32
  0
VERTEX
  8
0
  5
2FD2E
 10
0.959381
 20
9.00272
 30
0.000000
  70
    32
  0
VERTEX
  8
0
  5
2FD2F
 10
0.956944
 20
9.00691
 30
0.000000
  70
    32
  0
VERTEX
  8
0
  5
2FD30
 10
0.954559
 20
9.01112
 30
0.000000
  70
    32
  0
VERTEX
  8
0
  5
2FD31
 10
0.952227
 20
9.01535
 30
0.000000
  70
    32
  0
VERTEX
  8
0
  5
2FD32
 10
0.949949
 20
9.01960
 30
0.000000
  70
    32
  0
VERTEX
  8
0
  5
2FD33
 10
0.947724
 20
9.02388
 30
0.000000
  70
    32
  0
VERTEX
  8
0
  5
2FD34
 10
0.945555
 20
9.02819
 30
0.000000
  70
    32
  0
VERTEX
  8
0
  5
2FD35
 10
0.943441
 20
9.03252
 30
0.000000
  70
    32
  0
VERTEX
  8
0
  5
2FD36
 10
0.941383
 20
9.03687
 30
0.000000
  70
    32
  0
VERTEX
  8
0
  5
2FD37
 10
0.939384
 20
9.04125
 30
0.000000
  70
    32
  0
VERTEX
  8
0
  5
2FD38
 10
0.937442
 20
9.04566
 30
0.000000
  70
    32
  0
VERTEX
  8
0
  5
2FD39
 10
0.935559
 20
9.05009
 30
0.000000
  70
    32
  0
VERTEX
  8
0
  5
2FD3A
 10
0.933736
 20
9.05455
 30
0.000000
  70
    32
  0
VERTEX
  8
0
  5
2FD3B
 10
0.931973
 20
9.05903
 30
0.000000
  70
    32
  0
VERTEX
  8
0
  5
2FD3C
 10
0.930271
 20
9.06354
 30
0.000000
  70
    32
  0
VERTEX
  8
0
  5
2FD3D
 10
0.928629
 20
9.06808
 30
0.000000
  70
    32
  0
VERTEX
  8
0
  5
2FD3E
 10
0.927045
 20
9.07264
 30
0.000000
  70
    32
  0
VERTEX
  8
0
  5
2FD3F
 10
0.925517
 20
9.07722
 30
0.000000
  70
    32
  0
VERTEX
  8
0
  5
2FD40
 10
0.924045
 20
9.08183
 30
0.000000
  70
    32
  0
VERTEX
  8
0
  5
2FD41
 10
0.922626
 20
9.08647
 30
0.000000
  70
    32
  0
VERTEX
  8
0
  5
2FD42
 10
0.921259
 20
9.09112
 30
0.000000
  70
    32
  0
VERTEX
  8
0
  5
2FD43
 10
0.919943
 20
9.09580
 30
0.000000
  70
    32
  0
VERTEX
  8
0
  5
2FD44
 10
0.918676
 20
9.10050
 30
0.000000
  70
    32
  0
VERTEX
  8
0
  5
2FD45
 10
0.917457
 20
9.10522
 30
0.000000
  70
    32
  0
VERTEX
  8
0
  5
2FD46
 10
0.916283
 20
9.10996
 30
0.000000
  70
    32
  0
VERTEX
  8
0
  5
2FD47
 10
0.915155
 20
9.11472
 30
0.000000
  70
    32
  0
VERTEX
  8
0
  5
2FD48
 10
0.914070
 20
9.11950
 30
0.000000
  70
    32
  0
VERTEX
  8
0
  5
2FD49
 10
0.913026
 20
9.12429
 30
0.000000
  70
    32
  0
VERTEX
  8
0
  5
2FD4A
 10
0.912023
 20
9.12911
 30
0.000000
  70
    32
  0
VERTEX
  8
0
  5
2FD4B
 10
0.911058
 20
9.13394
 30
0.000000
  70
    32
  0
VERTEX
  8
0
  5
2FD4C
 10
0.910131
 20
9.13879
 30
0.000000
  70
    32
  0
VERTEX
  8
0
  5
2FD4D
 10
0.909239
 20
9.14365
 30
0.000000
  70
    32
  0
VERTEX
  8
0
  5
2FD4E
 10
0.908381
 20
9.14853
 30
0.000000
  70
    32
  0
VERTEX
  8
0
  5
2FD4F
 10
0.907557
 20
9.15342
 30
0.000000
  70
    32
  0
VERTEX
  8
0
  5
2FD50
 10
0.906763
 20
9.15832
 30
0.000000
  70
    32
  0
VERTEX
  8
0
  5
2FD51
 10
0.906000
 20
9.16324
 30
0.000000
  70
    32
  0
VERTEX
  8
0
  5
2FD52
 10
0.905264
 20
9.16817
 30
0.000000
  70
    32
  0
VERTEX
  8
0
  5
2FD53
 10
0.904556
 20
9.17312
 30
0.000000
  70
    32
  0
VERTEX
  8
0
  5
2FD54
 10
0.903873
 20
9.17807
 30
0.000000
  70
    32
  0
VERTEX
  8
0
  5
2FD55
 10
0.903213
 20
9.18303
 30
0.000000
  70
    32
  0
VERTEX
  8
0
  5
2FD56
 10
0.902576
 20
9.18801
 30
0.000000
  70
    32
  0
VERTEX
  8
0
  5
2FD57
 10
0.901960
 20
9.19299
 30
0.000000
  70
    32
  0
VERTEX
  8
0
  5
2FD58
 10
0.901363
 20
9.19798
 30
0.000000
  70
    32
  0
VERTEX
  8
0
  5
2FD59
 10
0.900784
 20
9.20298
 30
0.000000
  70
    32
  0
VERTEX
  8
0
  5
2FD5A
 10
0.900222
 20
9.20799
 30
0.000000
  70
    32
  0
VERTEX
  8
0
  5
2FD5B
 10
0.899674
 20
9.21300
 30
0.000000
  70
    32
  0
VERTEX
  8
0
  5
2FD5C
 10
0.899140
 20
9.21802
 30
0.000000
  70
    32
  0
VERTEX
  8
0
  5
2FD5D
 10
0.898617
 20
9.22304
 30
0.000000
  70
    32
  0
VERTEX
  8
0
  5
2FD5E
 10
0.898105
 20
9.22807
 30
0.000000
  70
    32
  0
VERTEX
  8
0
  5
2FD5F
 10
0.897602
 20
9.23310
 30
0.000000
  70
    32
  0
VERTEX
  8
0
  5
2FD60
 10
0.897107
 20
9.23813
 30
0.000000
  70
    32
  0
VERTEX
  8
0
  5
2FD61
 10
0.896617
 20
9.24317
 30
0.000000
  70
    32
  0
VERTEX
  8
0
  5
2FD62
 10
0.896132
 20
9.24821
 30
0.000000
  70
    32
  0
VERTEX
  8
0
  5
2FD63
 10
0.895650
 20
9.25325
 30
0.000000
  70
    32
  0
VERTEX
  8
0
  5
2FD64
 10
0.895169
 20
9.25829
 30
0.000000
  70
    32
  0
SEQEND
  8
0
  5
2FD65
  0
LINE
  5
2B8A0
  8
0
  6
CONTINUOUS
 62
     7
 10
0.7472076905950758
 20
9.2582948336663549
 30
0.0
 11
0.7472076905949621
 21
11.826520277942111
 31
0.0
  0
LINE
  5
2B8A1
  8
0
  6
CONTINUOUS
 62
     7
 10
0.4997076905949598
 20
12.389020277942111
 30
0.0
 11
0.000001476738305
 21
12.389020277942111
 31
0.0
  0
ARC
  5
2B8A2
  8
0
 10
0.4997076905949598
 20
12.139020277942111
 30
0.0
 40
0.2500000000000009
 50
269.42703265506509
 51
90.0
  0
LINE
  5
2B8A3
  8
0
  6
CONTINUOUS
 62
     7
 10
0.7472076905949621
 20
11.826520277942111
 30
0.0
 11
0.5597076905949621
 21
11.826520277942111
 31
0.0
  0
LINE
  5
2B8A4
  8
0
  6
CONTINUOUS
 62
     7
 10
0.4972076905949621
 20
11.826520277942111
 30
0.0
 11
0.4972076905949621
 21
11.88903277828603
 31
0.0
  0
LINE
  5
2B8A5
  8
0
 10
0.0000014767382481
 20
7.878552666495465
 30
0.0
 11
0.000001476738305
 21
12.389020277942111
 31
0.0
  0
LINE
  5
2B8A6
  8
0
 10
0.7472076905949621
 20
11.826520277942111
 30
0.0
 11
0.4972076905949621
 21
11.826520277942111
 31
0.0
  0
LINE
  5
2B8A7
  8
FRAME_050
 10
6.5744546621590407
 20
17.993710579095019
 30
0.0
 11
6.5744546621590407
 21
0.0000000294007805
 31
0.0
  0
ENDBLK
  5
2B8A9
  8
0
  0
BLOCK
  8
0
  2
*U8
 70
     1
 10
0.0
 20
0.0
 30
0.0
  3
*U8
  1

  0
TEXT
  5
2FC62
  8
0
 10
3.5177832928899071
 20
10.38601584255777
 30
0.0
 40
0.125
  1
Crown Moulding
  0
TEXT
  5
2FC63
  8
0
 10
3.5223876585106431
 20
10.17717091304435
 30
0.0
 40
0.125
  1
TL-AB509
  0
TEXT
  5
2FC64
  8
0
 10
3.5074661032582561
 20
9.9667059289606801
 30
0.0
 40
0.125
  1
1-5/16" x 7-9/16"
  0
TEXT
  5
2FC65
  8
0
 10
3.519403347460166
 20
9.7562409448770051
 30
0.0
 40
0.125
  1
800.66.TAGUE
  0
ENDBLK
  5
2FC67
  8
0
  0
BLOCK
  8
0
  2
*U9
 70
     1
 10
0.0
 20
0.0
 30
0.0
  3
*U9
  1

  0
TEXT
  5
2FC69
  8
0
 10
1.4086740032724709
 20
13.04264108713495
 30
0.0
 40
0.125
  1
Casing
  0
TEXT
  5
2FC6A
  8
0
 10
1.4132783688932069
 20
12.83379615762154
 30
0.0
 40
0.125
  1
TL-2019
  0
TEXT
  5
2FC6B
  8
0
 10
1.39835681364082
 20
12.62333117353786
 30
0.0
 40
0.125
  1
1-1/16" x 5-1/2"
  0
TEXT
  5
2FC6C
  8
0
 10
1.4102940578427301
 20
12.41286618945419
 30
0.0
 40
0.125
  1
800.66.TAGUE
  0
ENDBLK
  5
2FC6E
  8
0
  0
BLOCK
  8
0
  2
*U10
 70
     1
 10
0.0
 20
0.0
 30
0.0
  3
*U10
  1

  0
TEXT
  5
2FC70
  8
0
 10
1.9061884295105971
 20
11.78127341408482
 30
0.0
 40
0.125
  1
Casing
  0
TEXT
  5
2FC71
  8
0
 10
1.9107927951313339
 20
11.572428484571409
 30
0.0
 40
0.125
  1
TL-2318
  0
TEXT
  5
2FC72
  8
0
 10
1.8958712398789459
 20
11.361963500487731
 30
0.0
 40
0.125
  1
13/16" x 2-1/2"
  0
TEXT
  5
2FC73
  8
0
 10
1.907808484080856
 20
11.151498516404059
 30
0.0
 40
0.125
  1
800.66.TAGUE
  0
ENDBLK
  5
2FC75
  8
0
  0
BLOCK
  8
0
  2
*U11
 70
     1
 10
0.0
 20
0.0
 30
0.0
  3
*U11
  1

  0
TEXT
  5
2FC77
  8
0
 10
2.2380648505203782
 20
10.70752122569969
 30
0.0
 40
0.125
  1
Casing Assembly
  0
TEXT
  5
2FC78
  8
0
 10
2.242669216141115
 20
10.498676296186281
 30
0.0
 40
0.125
  1
TL-2225
  0
TEXT
  5
2FC79
  8
0
 10
2.2277476608887281
 20
10.2882113121026
 30
0.0
 40
0.125
  1
1-9/16" x 4-1/2"
  0
TEXT
  5
2FC7A
  8
0
 10
2.239684905090638
 20
10.077746328018931
 30
0.0
 40
0.125
  1
800.66.TAGUE
  0
ENDBLK
  5
2FC7C
  8
0
  0
BLOCK
  8
0
  2
*U12
 70
     1
 10
0.0
 20
0.0
 30
0.0
  3
*U12
  1

  0
TEXT
  5
2FC7E
  8
0
 10
-378.05050470325381
 20
846.10034627428411
 30
0.0
 40
0.125
  1
Chair Rail
  0
TEXT
  5
2FC7F
  8
0
 10
-378.04590033763299
 20
845.89150134477075
 30
0.0
 40
0.125
  1
TL-2163
  0
TEXT
  5
2FC80
  8
0
 10
-378.04914044677349
 20
845.6810363606869
 30
0.0
 40
0.125
  1
3/4" x 2-3/8"
  0
TEXT
  5
2FC81
  8
0
 10
-378.0488846486835
 20
845.47057137660329
 30
0.0
 40
0.125
  1
800.66.TAGUE
  0
ENDBLK
  5
2FC83
  8
0
  0
ENDSEC
  0
SECTION
  2
ENTITIES
  0
INSERT
  5
2FBAD
  8
0
  2
*U12
 10
0.0
 20
0.0
 30
0.0
  0
POLYLINE
  8
0
  5
2FD66
  66
     1
 10
0.000000
 20
0.000000
 30
0.000000
  70
     8
  0
VERTEX
  8
0
  5
2FD67
 10
-379.054
 20
844.906
 30
0.000000
  70
    32
  0
VERTEX
  8
0
  5
2FD68
 10
-379.056
 20
844.906
 30
0.000000
  70
    32
  0
VERTEX
  8
0
  5
2FD69
 10
-379.058
 20
844.905
 30
0.000000
  70
    32
  0
VERTEX
  8
0
  5
2FD6A
 10
-379.060
 20
844.905
 30
0.000000
  70
    32
  0
VERTEX
  8
0
  5
2FD6B
 10
-379.061
 20
844.904
 30
0.000000
  70
    32
  0
VERTEX
  8
0
  5
2FD6C
 10
-379.063
 20
844.903
 30
0.000000
  70
    32
  0
VERTEX
  8
0
  5
2FD6D
 10
-379.065
 20
844.903
 30
0.000000
  70
    32
  0
VERTEX
  8
0
  5
2FD6E
 10
-379.066
 20
844.902
 30
0.000000
  70
    32
  0
VERTEX
  8
0
  5
2FD6F
 10
-379.068
 20
844.901
 30
0.000000
  70
    32
  0
VERTEX
  8
0
  5
2FD70
 10
-379.070
 20
844.900
 30
0.000000
  70
    32
  0
VERTEX
  8
0
  5
2FD71
 10
-379.071
 20
844.900
 30
0.000000
  70
    32
  0
VERTEX
  8
0
  5
2FD72
 10
-379.073
 20
844.899
 30
0.000000
  70
    32
  0
VERTEX
  8
0
  5
2FD73
 10
-379.075
 20
844.898
 30
0.000000
  70
    32
  0
VERTEX
  8
0
  5
2FD74
 10
-379.076
 20
844.897
 30
0.000000
  70
    32
  0
VERTEX
  8
0
  5
2FD75
 10
-379.078
 20
844.896
 30
0.000000
  70
    32
  0
VERTEX
  8
0
  5
2FD76
 10
-379.079
 20
844.895
 30
0.000000
  70
    32
  0
VERTEX
  8
0
  5
2FD77
 10
-379.081
 20
844.894
 30
0.000000
  70
    32
  0
VERTEX
  8
0
  5
2FD78
 10
-379.083
 20
844.894
 30
0.000000
  70
    32
  0
VERTEX
  8
0
  5
2FD79
 10
-379.084
 20
844.893
 30
0.000000
  70
    32
  0
VERTEX
  8
0
  5
2FD7A
 10
-379.086
 20
844.892
 30
0.000000
  70
    32
  0
VERTEX
  8
0
  5
2FD7B
 10
-379.087
 20
844.891
 30
0.000000
  70
    32
  0
VERTEX
  8
0
  5
2FD7C
 10
-379.089
 20
844.889
 30
0.000000
  70
    32
  0
VERTEX
  8
0
  5
2FD7D
 10
-379.090
 20
844.888
 30
0.000000
  70
    32
  0
VERTEX
  8
0
  5
2FD7E
 10
-379.092
 20
844.887
 30
0.000000
  70
    32
  0
VERTEX
  8
0
  5
2FD7F
 10
-379.093
 20
844.886
 30
0.000000
  70
    32
  0
VERTEX
  8
0
  5
2FD80
 10
-379.094
 20
844.885
 30
0.000000
  70
    32
  0
VERTEX
  8
0
  5
2FD81
 10
-379.096
 20
844.884
 30
0.000000
  70
    32
  0
VERTEX
  8
0
  5
2FD82
 10
-379.097
 20
844.883
 30
0.000000
  70
    32
  0
VERTEX
  8
0
  5
2FD83
 10
-379.098
 20
844.882
 30
0.000000
  70
    32
  0
VERTEX
  8
0
  5
2FD84
 10
-379.100
 20
844.880
 30
0.000000
  70
    32
  0
VERTEX
  8
0
  5
2FD85
 10
-379.101
 20
844.879
 30
0.000000
  70
    32
  0
VERTEX
  8
0
  5
2FD86
 10
-379.102
 20
844.878
 30
0.000000
  70
    32
  0
VERTEX
  8
0
  5
2FD87
 10
-379.103
 20
844.877
 30
0.000000
  70
    32
  0
VERTEX
  8
0
  5
2FD88
 10
-379.104
 20
844.875
 30
0.000000
  70
    32
  0
VERTEX
  8
0
  5
2FD89
 10
-379.106
 20
844.874
 30
0.000000
  70
    32
  0
VERTEX
  8
0
  5
2FD8A
 10
-379.107
 20
844.873
 30
0.000000
  70
    32
  0
VERTEX
  8
0
  5
2FD8B
 10
-379.108
 20
844.871
 30
0.000000
  70
    32
  0
VERTEX
  8
0
  5
2FD8C
 10
-379.109
 20
844.870
 30
0.000000
  70
    32
  0
VERTEX
  8
0
  5
2FD8D
 10
-379.110
 20
844.868
 30
0.000000
  70
    32
  0
VERTEX
  8
0
  5
2FD8E
 10
-379.111
 20
844.867
 30
0.000000
  70
    32
  0
VERTEX
  8
0
  5
2FD8F
 10
-379.112
 20
844.866
 30
0.000000
  70
    32
  0
VERTEX
  8
0
  5
2FD90
 10
-379.112
 20
844.864
 30
0.000000
  70
    32
  0
VERTEX
  8
0
  5
2FD91
 10
-379.113
 20
844.863
 30
0.000000
  70
    32
  0
VERTEX
  8
0
  5
2FD92
 10
-379.114
 20
844.861
 30
0.000000
  70
    32
  0
VERTEX
  8
0
  5
2FD93
 10
-379.115
 20
844.860
 30
0.000000
  70
    32
  0
VERTEX
  8
0
  5
2FD94
 10
-379.116
 20
844.858
 30
0.000000
  70
    32
  0
VERTEX
  8
0
  5
2FD95
 10
-379.116
 20
844.857
 30
0.000000
  70
    32
  0
VERTEX
  8
0
  5
2FD96
 10
-379.117
 20
844.855
 30
0.000000
  70
    32
  0
VERTEX
  8
0
  5
2FD97
 10
-379.118
 20
844.853
 30
0.000000
  70
    32
  0
VERTEX
  8
0
  5
2FD98
 10
-379.119
 20
844.852
 30
0.000000
  70
    32
  0
VERTEX
  8
0
  5
2FD99
 10
-379.119
 20
844.850
 30
0.000000
  70
    32
  0
VERTEX
  8
0
  5
2FD9A
 10
-379.120
 20
844.849
 30
0.000000
  70
    32
  0
VERTEX
  8
0
  5
2FD9B
 10
-379.121
 20
844.847
 30
0.000000
  70
    32
  0
VERTEX
  8
0
  5
2FD9C
 10
-379.121
 20
844.845
 30
0.000000
  70
    32
  0
VERTEX
  8
0
  5
2FD9D
 10
-379.122
 20
844.844
 30
0.000000
  70
    32
  0
VERTEX
  8
0
  5
2FD9E
 10
-379.122
 20
844.842
 30
0.000000
  70
    32
  0
VERTEX
  8
0
  5
2FD9F
 10
-379.123
 20
844.840
 30
0.000000
  70
    32
  0
VERTEX
  8
0
  5
2FDA0
 10
-379.123
 20
844.839
 30
0.000000
  70
    32
  0
VERTEX
  8
0
  5
2FDA1
 10
-379.124
 20
844.837
 30
0.000000
  70
    32
  0
VERTEX
  8
0
  5
2FDA2
 10
-379.125
 20
844.835
 30
0.000000
  70
    32
  0
VERTEX
  8
0
  5
2FDA3
 10
-379.125
 20
844.834
 30
0.000000
  70
    32
  0
VERTEX
  8
0
  5
2FDA4
 10
-379.125
 20
844.832
 30
0.000000
  70
    32
  0
VERTEX
  8
0
  5
2FDA5
 10
-379.126
 20
844.830
 30
0.000000
  70
    32
  0
VERTEX
  8
0
  5
2FDA6
 10
-379.126
 20
844.828
 30
0.000000
  70
    32
  0
VERTEX
  8
0
  5
2FDA7
 10
-379.127
 20
844.827
 30
0.000000
  70
    32
  0
VERTEX
  8
0
  5
2FDA8
 10
-379.127
 20
844.825
 30
0.000000
  70
    32
  0
VERTEX
  8
0
  5
2FDA9
 10
-379.128
 20
844.823
 30
0.000000
  70
    32
  0
VERTEX
  8
0
  5
2FDAA
 10
-379.128
 20
844.821
 30
0.000000
  70
    32
  0
VERTEX
  8
0
  5
2FDAB
 10
-379.129
 20
844.819
 30
0.000000
  70
    32
  0
VERTEX
  8
0
  5
2FDAC
 10
-379.129
 20
844.818
 30
0.000000
  70
    32
  0
VERTEX
  8
0
  5
2FDAD
 10
-379.129
 20
844.816
 30
0.000000
  70
    32
  0
VERTEX
  8
0
  5
2FDAE
 10
-379.130
 20
844.814
 30
0.000000
  70
    32
  0
VERTEX
  8
0
  5
2FDAF
 10
-379.130
 20
844.812
 30
0.000000
  70
    32
  0
VERTEX
  8
0
  5
2FDB0
 10
-379.131
 20
844.810
 30
0.000000
  70
    32
  0
VERTEX
  8
0
  5
2FDB1
 10
-379.131
 20
844.809
 30
0.000000
  70
    32
  0
VERTEX
  8
0
  5
2FDB2
 10
-379.131
 20
844.807
 30
0.000000
  70
    32
  0
VERTEX
  8
0
  5
2FDB3
 10
-379.132
 20
844.805
 30
0.000000
  70
    32
  0
VERTEX
  8
0
  5
2FDB4
 10
-379.132
 20
844.803
 30
0.000000
  70
    32
  0
VERTEX
  8
0
  5
2FDB5
 10
-379.133
 20
844.801
 30
0.000000
  70
    32
  0
VERTEX
  8
0
  5
2FDB6
 10
-379.133
 20
844.799
 30
0.000000
  70
    32
  0
VERTEX
  8
0
  5
2FDB7
 10
-379.133
 20
844.798
 30
0.000000
  70
    32
  0
VERTEX
  8
0
  5
2FDB8
 10
-379.134
 20
844.796
 30
0.000000
  70
    32
  0
VERTEX
  8
0
  5
2FDB9
 10
-379.134
 20
844.794
 30
0.000000
  70
    32
  0
VERTEX
  8
0
  5
2FDBA
 10
-379.135
 20
844.792
 30
0.000000
  70
    32
  0
VERTEX
  8
0
  5
2FDBB
 10
-379.135
 20
844.790
 30
0.000000
  70
    32
  0
VERTEX
  8
0
  5
2FDBC
 10
-379.135
 20
844.788
 30
0.000000
  70
    32
  0
VERTEX
  8
0
  5
2FDBD
 10
-379.136
 20
844.787
 30
0.000000
  70
    32
  0
VERTEX
  8
0
  5
2FDBE
 10
-379.136
 20
844.785
 30
0.000000
  70
    32
  0
VERTEX
  8
0
  5
2FDBF
 10
-379.137
 20
844.783
 30
0.000000
  70
    32
  0
VERTEX
  8
0
  5
2FDC0
 10
-379.137
 20
844.781
 30
0.000000
  70
    32
  0
VERTEX
  8
0
  5
2FDC1
 10
-379.138
 20
844.779
 30
0.000000
  70
    32
  0
VERTEX
  8
0
  5
2FDC2
 10
-379.138
 20
844.777
 30
0.000000
  70
    32
  0
VERTEX
  8
0
  5
2FDC3
 10
-379.139
 20
844.776
 30
0.000000
  70
    32
  0
VERTEX
  8
0
  5
2FDC4
 10
-379.139
 20
844.774
 30
0.000000
  70
    32
  0
VERTEX
  8
0
  5
2FDC5
 10
-379.140
 20
844.772
 30
0.000000
  70
    32
  0
VERTEX
  8
0
  5
2FDC6
 10
-379.140
 20
844.770
 30
0.000000
  70
    32
  0
VERTEX
  8
0
  5
2FDC7
 10
-379.141
 20
844.768
 30
0.000000
  70
    32
  0
VERTEX
  8
0
  5
2FDC8
 10
-379.141
 20
844.767
 30
0.000000
  70
    32
  0
VERTEX
  8
0
  5
2FDC9
 10
-379.142
 20
844.765
 30
0.000000
  70
    32
  0
VERTEX
  8
0
  5
2FDCA
 10
-379.143
 20
844.763
 30
0.000000
  70
    32
  0
VERTEX
  8
0
  5
2FDCB
 10
-379.143
 20
844.761
 30
0.000000
  70
    32
  0
VERTEX
  8
0
  5
2FDCC
 10
-379.144
 20
844.759
 30
0.000000
  70
    32
  0
VERTEX
  8
0
  5
2FDCD
 10
-379.144
 20
844.758
 30
0.000000
  70
    32
  0
VERTEX
  8
0
  5
2FDCE
 10
-379.145
 20
844.756
 30
0.000000
  70
    32
  0
VERTEX
  8
0
  5
2FDCF
 10
-379.146
 20
844.754
 30
0.000000
  70
    32
  0
VERTEX
  8
0
  5
2FDD0
 10
-379.146
 20
844.752
 30
0.000000
  70
    32
  0
VERTEX
  8
0
  5
2FDD1
 10
-379.147
 20
844.751
 30
0.000000
  70
    32
  0
VERTEX
  8
0
  5
2FDD2
 10
-379.148
 20
844.749
 30
0.000000
  70
    32
  0
VERTEX
  8
0
  5
2FDD3
 10
-379.149
 20
844.747
 30
0.000000
  70
    32
  0
VERTEX
  8
0
  5
2FDD4
 10
-379.149
 20
844.745
 30
0.000000
  70
    32
  0
VERTEX
  8
0
  5
2FDD5
 10
-379.150
 20
844.744
 30
0.000000
  70
    32
  0
VERTEX
  8
0
  5
2FDD6
 10
-379.151
 20
844.742
 30
0.000000
  70
    32
  0
VERTEX
  8
0
  5
2FDD7
 10
-379.152
 20
844.740
 30
0.000000
  70
    32
  0
VERTEX
  8
0
  5
2FDD8
 10
-379.153
 20
844.738
 30
0.000000
  70
    32
  0
VERTEX
  8
0
  5
2FDD9
 10
-379.153
 20
844.737
 30
0.000000
  70
    32
  0
VERTEX
  8
0
  5
2FDDA
 10
-379.154
 20
844.735
 30
0.000000
  70
    32
  0
VERTEX
  8
0
  5
2FDDB
 10
-379.155
 20
844.733
 30
0.000000
  70
    32
  0
VERTEX
  8
0
  5
2FDDC
 10
-379.156
 20
844.732
 30
0.000000
  70
    32
  0
VERTEX
  8
0
  5
2FDDD
 10
-379.157
 20
844.730
 30
0.000000
  70
    32
  0
VERTEX
  8
0
  5
2FDDE
 10
-379.158
 20
844.728
 30
0.000000
  70
    32
  0
VERTEX
  8
0
  5
2FDDF
 10
-379.159
 20
844.727
 30
0.000000
  70
    32
  0
VERTEX
  8
0
  5
2FDE0
 10
-379.160
 20
844.725
 30
0.000000
  70
    32
  0
VERTEX
  8
0
  5
2FDE1
 10
-379.161
 20
844.724
 30
0.000000
  70
    32
  0
VERTEX
  8
0
  5
2FDE2
 10
-379.162
 20
844.722
 30
0.000000
  70
    32
  0
VERTEX
  8
0
  5
2FDE3
 10
-379.163
 20
844.720
 30
0.000000
  70
    32
  0
VERTEX
  8
0
  5
2FDE4
 10
-379.164
 20
844.719
 30
0.000000
  70
    32
  0
VERTEX
  8
0
  5
2FDE5
 10
-379.165
 20
844.717
 30
0.000000
  70
    32
  0
VERTEX
  8
0
  5
2FDE6
 10
-379.166
 20
844.716
 30
0.000000
  70
    32
  0
VERTEX
  8
0
  5
2FDE7
 10
-379.167
 20
844.714
 30
0.000000
  70
    32
  0
VERTEX
  8
0
  5
2FDE8
 10
-379.168
 20
844.712
 30
0.000000
  70
    32
  0
VERTEX
  8
0
  5
2FDE9
 10
-379.169
 20
844.711
 30
0.000000
  70
    32
  0
VERTEX
  8
0
  5
2FDEA
 10
-379.170
 20
844.709
 30
0.000000
  70
    32
  0
VERTEX
  8
0
  5
2FDEB
 10
-379.171
 20
844.708
 30
0.000000
  70
    32
  0
VERTEX
  8
0
  5
2FDEC
 10
-379.172
 20
844.706
 30
0.000000
  70
    32
  0
VERTEX
  8
0
  5
2FDED
 10
-379.173
 20
844.705
 30
0.000000
  70
    32
  0
VERTEX
  8
0
  5
2FDEE
 10
-379.174
 20
844.703
 30
0.000000
  70
    32
  0
VERTEX
  8
0
  5
2FDEF
 10
-379.175
 20
844.702
 30
0.000000
  70
    32
  0
VERTEX
  8
0
  5
2FDF0
 10
-379.177
 20
844.701
 30
0.000000
  70
    32
  0
VERTEX
  8
0
  5
2FDF1
 10
-379.178
 20
844.699
 30
0.000000
  70
    32
  0
VERTEX
  8
0
  5
2FDF2
 10
-379.179
 20
844.698
 30
0.000000
  70
    32
  0
VERTEX
  8
0
  5
2FDF3
 10
-379.180
 20
844.696
 30
0.000000
  70
    32
  0
VERTEX
  8
0
  5
2FDF4
 10
-379.181
 20
844.695
 30
0.000000
  70
    32
  0
VERTEX
  8
0
  5
2FDF5
 10
-379.182
 20
844.694
 30
0.000000
  70
    32
  0
VERTEX
  8
0
  5
2FDF6
 10
-379.184
 20
844.692
 30
0.000000
  70
    32
  0
VERTEX
  8
0
  5
2FDF7
 10
-379.185
 20
844.691
 30
0.000000
  70
    32
  0
VERTEX
  8
0
  5
2FDF8
 10
-379.186
 20
844.689
 30
0.000000
  70
    32
  0
VERTEX
  8
0
  5
2FDF9
 10
-379.187
 20
844.688
 30
0.000000
  70
    32
  0
VERTEX
  8
0
  5
2FDFA
 10
-379.189
 20
844.687
 30
0.000000
  70
    32
  0
VERTEX
  8
0
  5
2FDFB
 10
-379.190
 20
844.686
 30
0.000000
  70
    32
  0
VERTEX
  8
0
  5
2FDFC
 10
-379.191
 20
844.684
 30
0.000000
  70
    32
  0
VERTEX
  8
0
  5
2FDFD
 10
-379.193
 20
844.683
 30
0.000000
  70
    32
  0
VERTEX
  8
0
  5
2FDFE
 10
-379.194
 20
844.682
 30
0.000000
  70
    32
  0
VERTEX
  8
0
  5
2FDFF
 10
-379.195
 20
844.681
 30
0.000000
  70
    32
  0
VERTEX
  8
0
  5
2FE00
 10
-379.197
 20
844.679
 30
0.000000
  70
    32
  0
VERTEX
  8
0
  5
2FE01
 10
-379.198
 20
844.678
 30
0.000000
  70
    32
  0
VERTEX
  8
0
  5
2FE02
 10
-379.199
 20
844.677
 30
0.000000
  70
    32
  0
VERTEX
  8
0
  5
2FE03
 10
-379.201
 20
844.676
 30
0.000000
  70
    32
  0
VERTEX
  8
0
  5
2FE04
 10
-379.202
 20
844.675
 30
0.000000
  70
    32
  0
VERTEX
  8
0
  5
2FE05
 10
-379.204
 20
844.673
 30
0.000000
  70
    32
  0
VERTEX
  8
0
  5
2FE06
 10
-379.205
 20
844.672
 30
0.000000
  70
    32
  0
VERTEX
  8
0
  5
2FE07
 10
-379.206
 20
844.671
 30
0.000000
  70
    32
  0
VERTEX
  8
0
  5
2FE08
 10
-379.208
 20
844.670
 30
0.000000
  70
    32
  0
VERTEX
  8
0
  5
2FE09
 10
-379.209
 20
844.669
 30
0.000000
  70
    32
  0
VERTEX
  8
0
  5
2FE0A
 10
-379.211
 20
844.668
 30
0.000000
  70
    32
  0
VERTEX
  8
0
  5
2FE0B
 10
-379.212
 20
844.667
 30
0.000000
  70
    32
  0
VERTEX
  8
0
  5
2FE0C
 10
-379.214
 20
844.666
 30
0.000000
  70
    32
  0
VERTEX
  8
0
  5
2FE0D
 10
-379.215
 20
844.665
 30
0.000000
  70
    32
  0
VERTEX
  8
0
  5
2FE0E
 10
-379.217
 20
844.664
 30
0.000000
  70
    32
  0
VERTEX
  8
0
  5
2FE0F
 10
-379.218
 20
844.663
 30
0.000000
  70
    32
  0
VERTEX
  8
0
  5
2FE10
 10
-379.220
 20
844.662
 30
0.000000
  70
    32
  0
VERTEX
  8
0
  5
2FE11
 10
-379.221
 20
844.661
 30
0.000000
  70
    32
  0
VERTEX
  8
0
  5
2FE12
 10
-379.223
 20
844.660
 30
0.000000
  70
    32
  0
VERTEX
  8
0
  5
2FE13
 10
-379.224
 20
844.659
 30
0.000000
  70
    32
  0
VERTEX
  8
0
  5
2FE14
 10
-379.226
 20
844.659
 30
0.000000
  70
    32
  0
VERTEX
  8
0
  5
2FE15
 10
-379.228
 20
844.658
 30
0.000000
  70
    32
  0
VERTEX
  8
0
  5
2FE16
 10
-379.229
 20
844.657
 30
0.000000
  70
    32
  0
VERTEX
  8
0
  5
2FE17
 10
-379.231
 20
844.656
 30
0.000000
  70
    32
  0
VERTEX
  8
0
  5
2FE18
 10
-379.232
 20
844.655
 30
0.000000
  70
    32
  0
VERTEX
  8
0
  5
2FE19
 10
-379.234
 20
844.655
 30
0.000000
  70
    32
  0
VERTEX
  8
0
  5
2FE1A
 10
-379.236
 20
844.654
 30
0.000000
  70
    32
  0
VERTEX
  8
0
  5
2FE1B
 10
-379.237
 20
844.653
 30
0.000000
  70
    32
  0
VERTEX
  8
0
  5
2FE1C
 10
-379.239
 20
844.653
 30
0.000000
  70
    32
  0
VERTEX
  8
0
  5
2FE1D
 10
-379.241
 20
844.652
 30
0.000000
  70
    32
  0
VERTEX
  8
0
  5
2FE1E
 10
-379.242
 20
844.651
 30
0.000000
  70
    32
  0
VERTEX
  8
0
  5
2FE1F
 10
-379.244
 20
844.651
 30
0.000000
  70
    32
  0
VERTEX
  8
0
  5
2FE20
 10
-379.246
 20
844.650
 30
0.000000
  70
    32
  0
VERTEX
  8
0
  5
2FE21
 10
-379.247
 20
844.649
 30
0.000000
  70
    32
  0
VERTEX
  8
0
  5
2FE22
 10
-379.249
 20
844.649
 30
0.000000
  70
    32
  0
VERTEX
  8
0
  5
2FE23
 10
-379.251
 20
844.648
 30
0.000000
  70
    32
  0
VERTEX
  8
0
  5
2FE24
 10
-379.252
 20
844.648
 30
0.000000
  70
    32
  0
VERTEX
  8
0
  5
2FE25
 10
-379.254
 20
844.647
 30
0.000000
  70
    32
  0
VERTEX
  8
0
  5
2FE26
 10
-379.256
 20
844.647
 30
0.000000
  70
    32
  0
VERTEX
  8
0
  5
2FE27
 10
-379.257
 20
844.646
 30
0.000000
  70
    32
  0
VERTEX
  8
0
  5
2FE28
 10
-379.259
 20
844.646
 30
0.000000
  70
    32
  0
VERTEX
  8
0
  5
2FE29
 10
-379.261
 20
844.645
 30
0.000000
  70
    32
  0
VERTEX
  8
0
  5
2FE2A
 10
-379.263
 20
844.645
 30
0.000000
  70
    32
  0
VERTEX
  8
0
  5
2FE2B
 10
-379.264
 20
844.644
 30
0.000000
  70
    32
  0
VERTEX
  8
0
  5
2FE2C
 10
-379.266
 20
844.644
 30
0.000000
  70
    32
  0
VERTEX
  8
0
  5
2FE2D
 10
-379.268
 20
844.643
 30
0.000000
  70
    32
  0
VERTEX
  8
0
  5
2FE2E
 10
-379.270
 20
844.643
 30
0.000000
  70
    32
  0
VERTEX
  8
0
  5
2FE2F
 10
-379.271
 20
844.643
 30
0.000000
  70
    32
  0
VERTEX
  8
0
  5
2FE30
 10
-379.273
 20
844.642
 30
0.000000
  70
    32
  0
VERTEX
  8
0
  5
2FE31
 10
-379.275
 20
844.642
 30
0.000000
  70
    32
  0
VERTEX
  8
0
  5
2FE32
 10
-379.277
 20
844.641
 30
0.000000
  70
    32
  0
VERTEX
  8
0
  5
2FE33
 10
-379.278
 20
844.641
 30
0.000000
  70
    32
  0
VERTEX
  8
0
  5
2FE34
 10
-379.280
 20
844.641
 30
0.000000
  70
    32
  0
VERTEX
  8
0
  5
2FE35
 10
-379.282
 20
844.640
 30
0.000000
  70
    32
  0
VERTEX
  8
0
  5
2FE36
 10
-379.284
 20
844.640
 30
0.000000
  70
    32
  0
VERTEX
  8
0
  5
2FE37
 10
-379.285
 20
844.640
 30
0.000000
  70
    32
  0
VERTEX
  8
0
  5
2FE38
 10
-379.287
 20
844.639
 30
0.000000
  70
    32
  0
VERTEX
  8
0
  5
2FE39
 10
-379.289
 20
844.639
 30
0.000000
  70
    32
  0
VERTEX
  8
0
  5
2FE3A
 10
-379.291
 20
844.639
 30
0.000000
  70
    32
  0
VERTEX
  8
0
  5
2FE3B
 10
-379.293
 20
844.638
 30
0.000000
  70
    32
  0
VERTEX
  8
0
  5
2FE3C
 10
-379.294
 20
844.638
 30
0.000000
  70
    32
  0
VERTEX
  8
0
  5
2FE3D
 10
-379.296
 20
844.638
 30
0.000000
  70
    32
  0
VERTEX
  8
0
  5
2FE3E
 10
-379.298
 20
844.637
 30
0.000000
  70
    32
  0
VERTEX
  8
0
  5
2FE3F
 10
-379.300
 20
844.637
 30
0.000000
  70
    32
  0
VERTEX
  8
0
  5
2FE40
 10
-379.301
 20
844.637
 30
0.000000
  70
    32
  0
VERTEX
  8
0
  5
2FE41
 10
-379.303
 20
844.636
 30
0.000000
  70
    32
  0
VERTEX
  8
0
  5
2FE42
 10
-379.305
 20
844.636
 30
0.000000
  70
    32
  0
VERTEX
  8
0
  5
2FE43
 10
-379.307
 20
844.636
 30
0.000000
  70
    32
  0
VERTEX
  8
0
  5
2FE44
 10
-379.308
 20
844.635
 30
0.000000
  70
    32
  0
VERTEX
  8
0
  5
2FE45
 10
-379.310
 20
844.635
 30
0.000000
  70
    32
  0
VERTEX
  8
0
  5
2FE46
 10
-379.312
 20
844.635
 30
0.000000
  70
    32
  0
SEQEND
  8
0
  5
2FE47
  0
ARC
  5
2FBAF
  8
0
 10
-379.09993195047912
 20
845.0470812937757
 30
0.0
 40
0.1477949264799754
 50
287.94601047989471
 51
94.596348864287407
  0
POLYLINE
  8
0
  5
2FE48
  66
     1
 10
0.000000
 20
0.000000
 30
0.000000
  70
     8
  0
VERTEX
  8
0
  5
2FE49
 10
-379.105
 20
845.913
 30
0.000000
  70
    32
  0
VERTEX
  8
0
  5
2FE4A
 10
-379.106
 20
845.911
 30
0.000000
  70
    32
  0
VERTEX
  8
0
  5
2FE4B
 10
-379.107
 20
845.908
 30
0.000000
  70
    32
  0
VERTEX
  8
0
  5
2FE4C
 10
-379.108
 20
845.906
 30
0.000000
  70
    32
  0
VERTEX
  8
0
  5
2FE4D
 10
-379.109
 20
845.903
 30
0.000000
  70
    32
  0
VERTEX
  8
0
  5
2FE4E
 10
-379.109
 20
845.900
 30
0.000000
  70
    32
  0
VERTEX
  8
0
  5
2FE4F
 10
-379.110
 20
845.898
 30
0.000000
  70
    32
  0
VERTEX
  8
0
  5
2FE50
 10
-379.110
 20
845.895
 30
0.000000
  70
    32
  0
VERTEX
  8
0
  5
2FE51
 10
-379.110
 20
845.892
 30
0.000000
  70
    32
  0
VERTEX
  8
0
  5
2FE52
 10
-379.111
 20
845.890
 30
0.000000
  70
    32
  0
VERTEX
  8
0
  5
2FE53
 10
-379.111
 20
845.887
 30
0.000000
  70
    32
  0
VERTEX
  8
0
  5
2FE54
 10
-379.111
 20
845.884
 30
0.000000
  70
    32
  0
VERTEX
  8
0
  5
2FE55
 10
-379.111
 20
845.881
 30
0.000000
  70
    32
  0
VERTEX
  8
0
  5
2FE56
 10
-379.112
 20
845.879
 30
0.000000
  70
    32
  0
VERTEX
  8
0
  5
2FE57
 10
-379.112
 20
845.876
 30
0.000000
  70
    32
  0
VERTEX
  8
0
  5
2FE58
 10
-379.113
 20
845.874
 30
0.000000
  70
    32
  0
VERTEX
  8
0
  5
2FE59
 10
-379.113
 20
845.871
 30
0.000000
  70
    32
  0
VERTEX
  8
0
  5
2FE5A
 10
-379.114
 20
845.869
 30
0.000000
  70
    32
  0
VERTEX
  8
0
  5
2FE5B
 10
-379.114
 20
845.866
 30
0.000000
  70
    32
  0
VERTEX
  8
0
  5
2FE5C
 10
-379.115
 20
845.864
 30
0.000000
  70
    32
  0
VERTEX
  8
0
  5
2FE5D
 10
-379.116
 20
845.862
 30
0.000000
  70
    32
  0
VERTEX
  8
0
  5
2FE5E
 10
-379.118
 20
845.860
 30
0.000000
  70
    32
  0
VERTEX
  8
0
  5
2FE5F
 10
-379.119
 20
845.858
 30
0.000000
  70
    32
  0
VERTEX
  8
0
  5
2FE60
 10
-379.120
 20
845.856
 30
0.000000
  70
    32
  0
VERTEX
  8
0
  5
2FE61
 10
-379.122
 20
845.854
 30
0.000000
  70
    32
  0
VERTEX
  8
0
  5
2FE62
 10
-379.124
 20
845.852
 30
0.000000
  70
    32
  0
VERTEX
  8
0
  5
2FE63
 10
-379.125
 20
845.850
 30
0.000000
  70
    32
  0
VERTEX
  8
0
  5
2FE64
 10
-379.127
 20
845.849
 30
0.000000
  70
    32
  0
VERTEX
  8
0
  5
2FE65
 10
-379.129
 20
845.847
 30
0.000000
  70
    32
  0
VERTEX
  8
0
  5
2FE66
 10
-379.131
 20
845.846
 30
0.000000
  70
    32
  0
VERTEX
  8
0
  5
2FE67
 10
-379.134
 20
845.844
 30
0.000000
  70
    32
  0
VERTEX
  8
0
  5
2FE68
 10
-379.136
 20
845.843
 30
0.000000
  70
    32
  0
VERTEX
  8
0
  5
2FE69
 10
-379.138
 20
845.841
 30
0.000000
  70
    32
  0
VERTEX
  8
0
  5
2FE6A
 10
-379.140
 20
845.840
 30
0.000000
  70
    32
  0
VERTEX
  8
0
  5
2FE6B
 10
-379.143
 20
845.839
 30
0.000000
  70
    32
  0
VERTEX
  8
0
  5
2FE6C
 10
-379.145
 20
845.837
 30
0.000000
  70
    32
  0
VERTEX
  8
0
  5
2FE6D
 10
-379.148
 20
845.836
 30
0.000000
  70
    32
  0
VERTEX
  8
0
  5
2FE6E
 10
-379.150
 20
845.835
 30
0.000000
  70
    32
  0
VERTEX
  8
0
  5
2FE6F
 10
-379.153
 20
845.833
 30
0.000000
  70
    32
  0
VERTEX
  8
0
  5
2FE70
 10
-379.156
 20
845.832
 30
0.000000
  70
    32
  0
VERTEX
  8
0
  5
2FE71
 10
-379.158
 20
845.831
 30
0.000000
  70
    32
  0
VERTEX
  8
0
  5
2FE72
 10
-379.161
 20
845.830
 30
0.000000
  70
    32
  0
VERTEX
  8
0
  5
2FE73
 10
-379.164
 20
845.828
 30
0.000000
  70
    32
  0
VERTEX
  8
0
  5
2FE74
 10
-379.166
 20
845.827
 30
0.000000
  70
    32
  0
VERTEX
  8
0
  5
2FE75
 10
-379.169
 20
845.826
 30
0.000000
  70
    32
  0
VERTEX
  8
0
  5
2FE76
 10
-379.171
 20
845.824
 30
0.000000
  70
    32
  0
VERTEX
  8
0
  5
2FE77
 10
-379.174
 20
845.823
 30
0.000000
  70
    32
  0
VERTEX
  8
0
  5
2FE78
 10
-379.176
 20
845.822
 30
0.000000
  70
    32
  0
VERTEX
  8
0
  5
2FE79
 10
-379.179
 20
845.820
 30
0.000000
  70
    32
  0
VERTEX
  8
0
  5
2FE7A
 10
-379.181
 20
845.819
 30
0.000000
  70
    32
  0
VERTEX
  8
0
  5
2FE7B
 10
-379.184
 20
845.817
 30
0.000000
  70
    32
  0
VERTEX
  8
0
  5
2FE7C
 10
-379.186
 20
845.816
 30
0.000000
  70
    32
  0
VERTEX
  8
0
  5
2FE7D
 10
-379.188
 20
845.814
 30
0.000000
  70
    32
  0
VERTEX
  8
0
  5
2FE7E
 10
-379.191
 20
845.813
 30
0.000000
  70
    32
  0
VERTEX
  8
0
  5
2FE7F
 10
-379.193
 20
845.811
 30
0.000000
  70
    32
  0
VERTEX
  8
0
  5
2FE80
 10
-379.195
 20
845.809
 30
0.000000
  70
    32
  0
VERTEX
  8
0
  5
2FE81
 10
-379.197
 20
845.807
 30
0.000000
  70
    32
  0
VERTEX
  8
0
  5
2FE82
 10
-379.199
 20
845.806
 30
0.000000
  70
    32
  0
VERTEX
  8
0
  5
2FE83
 10
-379.201
 20
845.804
 30
0.000000
  70
    32
  0
VERTEX
  8
0
  5
2FE84
 10
-379.203
 20
845.802
 30
0.000000
  70
    32
  0
VERTEX
  8
0
  5
2FE85
 10
-379.205
 20
845.800
 30
0.000000
  70
    32
  0
VERTEX
  8
0
  5
2FE86
 10
-379.207
 20
845.798
 30
0.000000
  70
    32
  0
VERTEX
  8
0
  5
2FE87
 10
-379.209
 20
845.796
 30
0.000000
  70
    32
  0
VERTEX
  8
0
  5
2FE88
 10
-379.211
 20
845.794
 30
0.000000
  70
    32
  0
VERTEX
  8
0
  5
2FE89
 10
-379.213
 20
845.792
 30
0.000000
  70
    32
  0
VERTEX
  8
0
  5
2FE8A
 10
-379.215
 20
845.790
 30
0.000000
  70
    32
  0
VERTEX
  8
0
  5
2FE8B
 10
-379.216
 20
845.788
 30
0.000000
  70
    32
  0
VERTEX
  8
0
  5
2FE8C
 10
-379.218
 20
845.786
 30
0.000000
  70
    32
  0
VERTEX
  8
0
  5
2FE8D
 10
-379.220
 20
845.784
 30
0.000000
  70
    32
  0
VERTEX
  8
0
  5
2FE8E
 10
-379.221
 20
845.782
 30
0.000000
  70
    32
  0
VERTEX
  8
0
  5
2FE8F
 10
-379.223
 20
845.780
 30
0.000000
  70
    32
  0
VERTEX
  8
0
  5
2FE90
 10
-379.224
 20
845.778
 30
0.000000
  70
    32
  0
VERTEX
  8
0
  5
2FE91
 10
-379.226
 20
845.776
 30
0.000000
  70
    32
  0
VERTEX
  8
0
  5
2FE92
 10
-379.227
 20
845.773
 30
0.000000
  70
    32
  0
VERTEX
  8
0
  5
2FE93
 10
-379.229
 20
845.771
 30
0.000000
  70
    32
  0
VERTEX
  8
0
  5
2FE94
 10
-379.230
 20
845.769
 30
0.000000
  70
    32
  0
VERTEX
  8
0
  5
2FE95
 10
-379.232
 20
845.766
 30
0.000000
  70
    32
  0
VERTEX
  8
0
  5
2FE96
 10
-379.233
 20
845.764
 30
0.000000
  70
    32
  0
VERTEX
  8
0
  5
2FE97
 10
-379.234
 20
845.762
 30
0.000000
  70
    32
  0
VERTEX
  8
0
  5
2FE98
 10
-379.236
 20
845.759
 30
0.000000
  70
    32
  0
VERTEX
  8
0
  5
2FE99
 10
-379.237
 20
845.757
 30
0.000000
  70
    32
  0
VERTEX
  8
0
  5
2FE9A
 10
-379.238
 20
845.755
 30
0.000000
  70
    32
  0
VERTEX
  8
0
  5
2FE9B
 10
-379.239
 20
845.752
 30
0.000000
  70
    32
  0
VERTEX
  8
0
  5
2FE9C
 10
-379.241
 20
845.750
 30
0.000000
  70
    32
  0
VERTEX
  8
0
  5
2FE9D
 10
-379.242
 20
845.747
 30
0.000000
  70
    32
  0
VERTEX
  8
0
  5
2FE9E
 10
-379.243
 20
845.745
 30
0.000000
  70
    32
  0
VERTEX
  8
0
  5
2FE9F
 10
-379.244
 20
845.742
 30
0.000000
  70
    32
  0
VERTEX
  8
0
  5
2FEA0
 10
-379.245
 20
845.740
 30
0.000000
  70
    32
  0
VERTEX
  8
0
  5
2FEA1
 10
-379.246
 20
845.737
 30
0.000000
  70
    32
  0
VERTEX
  8
0
  5
2FEA2
 10
-379.247
 20
845.735
 30
0.000000
  70
    32
  0
VERTEX
  8
0
  5
2FEA3
 10
-379.248
 20
845.732
 30
0.000000
  70
    32
  0
VERTEX
  8
0
  5
2FEA4
 10
-379.249
 20
845.729
 30
0.000000
  70
    32
  0
VERTEX
  8
0
  5
2FEA5
 10
-379.250
 20
845.727
 30
0.000000
  70
    32
  0
VERTEX
  8
0
  5
2FEA6
 10
-379.251
 20
845.724
 30
0.000000
  70
    32
  0
VERTEX
  8
0
  5
2FEA7
 10
-379.251
 20
845.722
 30
0.000000
  70
    32
  0
VERTEX
  8
0
  5
2FEA8
 10
-379.252
 20
845.719
 30
0.000000
  70
    32
  0
VERTEX
  8
0
  5
2FEA9
 10
-379.253
 20
845.716
 30
0.000000
  70
    32
  0
VERTEX
  8
0
  5
2FEAA
 10
-379.254
 20
845.714
 30
0.000000
  70
    32
  0
VERTEX
  8
0
  5
2FEAB
 10
-379.255
 20
845.711
 30
0.000000
  70
    32
  0
VERTEX
  8
0
  5
2FEAC
 10
-379.255
 20
845.708
 30
0.000000
  70
    32
  0
VERTEX
  8
0
  5
2FEAD
 10
-379.256
 20
845.706
 30
0.000000
  70
    32
  0
VERTEX
  8
0
  5
2FEAE
 10
-379.257
 20
845.703
 30
0.000000
  70
    32
  0
VERTEX
  8
0
  5
2FEAF
 10
-379.257
 20
845.700
 30
0.000000
  70
    32
  0
VERTEX
  8
0
  5
2FEB0
 10
-379.258
 20
845.698
 30
0.000000
  70
    32
  0
VERTEX
  8
0
  5
2FEB1
 10
-379.259
 20
845.695
 30
0.000000
  70
    32
  0
VERTEX
  8
0
  5
2FEB2
 10
-379.259
 20
845.692
 30
0.000000
  70
    32
  0
VERTEX
  8
0
  5
2FEB3
 10
-379.260
 20
845.689
 30
0.000000
  70
    32
  0
VERTEX
  8
0
  5
2FEB4
 10
-379.261
 20
845.687
 30
0.000000
  70
    32
  0
VERTEX
  8
0
  5
2FEB5
 10
-379.261
 20
845.684
 30
0.000000
  70
    32
  0
VERTEX
  8
0
  5
2FEB6
 10
-379.262
 20
845.681
 30
0.000000
  70
    32
  0
VERTEX
  8
0
  5
2FEB7
 10
-379.262
 20
845.678
 30
0.000000
  70
    32
  0
VERTEX
  8
0
  5
2FEB8
 10
-379.263
 20
845.676
 30
0.000000
  70
    32
  0
VERTEX
  8
0
  5
2FEB9
 10
-379.263
 20
845.673
 30
0.000000
  70
    32
  0
VERTEX
  8
0
  5
2FEBA
 10
-379.264
 20
845.670
 30
0.000000
  70
    32
  0
VERTEX
  8
0
  5
2FEBB
 10
-379.264
 20
845.668
 30
0.000000
  70
    32
  0
VERTEX
  8
0
  5
2FEBC
 10
-379.265
 20
845.665
 30
0.000000
  70
    32
  0
VERTEX
  8
0
  5
2FEBD
 10
-379.265
 20
845.662
 30
0.000000
  70
    32
  0
VERTEX
  8
0
  5
2FEBE
 10
-379.265
 20
845.659
 30
0.000000
  70
    32
  0
VERTEX
  8
0
  5
2FEBF
 10
-379.266
 20
845.657
 30
0.000000
  70
    32
  0
VERTEX
  8
0
  5
2FEC0
 10
-379.266
 20
845.654
 30
0.000000
  70
    32
  0
VERTEX
  8
0
  5
2FEC1
 10
-379.267
 20
845.651
 30
0.000000
  70
    32
  0
VERTEX
  8
0
  5
2FEC2
 10
-379.267
 20
845.648
 30
0.000000
  70
    32
  0
VERTEX
  8
0
  5
2FEC3
 10
-379.267
 20
845.646
 30
0.000000
  70
    32
  0
VERTEX
  8
0
  5
2FEC4
 10
-379.268
 20
845.643
 30
0.000000
  70
    32
  0
VERTEX
  8
0
  5
2FEC5
 10
-379.268
 20
845.640
 30
0.000000
  70
    32
  0
VERTEX
  8
0
  5
2FEC6
 10
-379.268
 20
845.638
 30
0.000000
  70
    32
  0
VERTEX
  8
0
  5
2FEC7
 10
-379.269
 20
845.635
 30
0.000000
  70
    32
  0
VERTEX
  8
0
  5
2FEC8
 10
-379.269
 20
845.632
 30
0.000000
  70
    32
  0
VERTEX
  8
0
  5
2FEC9
 10
-379.269
 20
845.629
 30
0.000000
  70
    32
  0
VERTEX
  8
0
  5
2FECA
 10
-379.270
 20
845.627
 30
0.000000
  70
    32
  0
VERTEX
  8
0
  5
2FECB
 10
-379.270
 20
845.624
 30
0.000000
  70
    32
  0
VERTEX
  8
0
  5
2FECC
 10
-379.270
 20
845.621
 30
0.000000
  70
    32
  0
VERTEX
  8
0
  5
2FECD
 10
-379.270
 20
845.619
 30
0.000000
  70
    32
  0
VERTEX
  8
0
  5
2FECE
 10
-379.270
 20
845.616
 30
0.000000
  70
    32
  0
VERTEX
  8
0
  5
2FECF
 10
-379.271
 20
845.613
 30
0.000000
  70
    32
  0
VERTEX
  8
0
  5
2FED0
 10
-379.271
 20
845.611
 30
0.000000
  70
    32
  0
VERTEX
  8
0
  5
2FED1
 10
-379.271
 20
845.608
 30
0.000000
  70
    32
  0
VERTEX
  8
0
  5
2FED2
 10
-379.271
 20
845.605
 30
0.000000
  70
    32
  0
VERTEX
  8
0
  5
2FED3
 10
-379.271
 20
845.603
 30
0.000000
  70
    32
  0
VERTEX
  8
0
  5
2FED4
 10
-379.271
 20
845.600
 30
0.000000
  70
    32
  0
VERTEX
  8
0
  5
2FED5
 10
-379.271
 20
845.597
 30
0.000000
  70
    32
  0
VERTEX
  8
0
  5
2FED6
 10
-379.272
 20
845.595
 30
0.000000
  70
    32
  0
VERTEX
  8
0
  5
2FED7
 10
-379.272
 20
845.592
 30
0.000000
  70
    32
  0
VERTEX
  8
0
  5
2FED8
 10
-379.272
 20
845.589
 30
0.000000
  70
    32
  0
VERTEX
  8
0
  5
2FED9
 10
-379.272
 20
845.587
 30
0.000000
  70
    32
  0
VERTEX
  8
0
  5
2FEDA
 10
-379.272
 20
845.584
 30
0.000000
  70
    32
  0
VERTEX
  8
0
  5
2FEDB
 10
-379.272
 20
845.581
 30
0.000000
  70
    32
  0
VERTEX
  8
0
  5
2FEDC
 10
-379.272
 20
845.579
 30
0.000000
  70
    32
  0
VERTEX
  8
0
  5
2FEDD
 10
-379.272
 20
845.576
 30
0.000000
  70
    32
  0
VERTEX
  8
0
  5
2FEDE
 10
-379.272
 20
845.573
 30
0.000000
  70
    32
  0
VERTEX
  8
0
  5
2FEDF
 10
-379.272
 20
845.571
 30
0.000000
  70
    32
  0
VERTEX
  8
0
  5
2FEE0
 10
-379.272
 20
845.568
 30
0.000000
  70
    32
  0
VERTEX
  8
0
  5
2FEE1
 10
-379.272
 20
845.565
 30
0.000000
  70
    32
  0
VERTEX
  8
0
  5
2FEE2
 10
-379.272
 20
845.563
 30
0.000000
  70
    32
  0
VERTEX
  8
0
  5
2FEE3
 10
-379.272
 20
845.560
 30
0.000000
  70
    32
  0
VERTEX
  8
0
  5
2FEE4
 10
-379.271
 20
845.557
 30
0.000000
  70
    32
  0
VERTEX
  8
0
  5
2FEE5
 10
-379.271
 20
845.555
 30
0.000000
  70
    32
  0
VERTEX
  8
0
  5
2FEE6
 10
-379.271
 20
845.552
 30
0.000000
  70
    32
  0
VERTEX
  8
0
  5
2FEE7
 10
-379.271
 20
845.550
 30
0.000000
  70
    32
  0
VERTEX
  8
0
  5
2FEE8
 10
-379.271
 20
845.547
 30
0.000000
  70
    32
  0
VERTEX
  8
0
  5
2FEE9
 10
-379.271
 20
845.544
 30
0.000000
  70
    32
  0
VERTEX
  8
0
  5
2FEEA
 10
-379.271
 20
845.542
 30
0.000000
  70
    32
  0
VERTEX
  8
0
  5
2FEEB
 10
-379.270
 20
845.539
 30
0.000000
  70
    32
  0
VERTEX
  8
0
  5
2FEEC
 10
-379.270
 20
845.536
 30
0.000000
  70
    32
  0
VERTEX
  8
0
  5
2FEED
 10
-379.270
 20
845.534
 30
0.000000
  70
    32
  0
VERTEX
  8
0
  5
2FEEE
 10
-379.270
 20
845.531
 30
0.000000
  70
    32
  0
VERTEX
  8
0
  5
2FEEF
 10
-379.269
 20
845.529
 30
0.000000
  70
    32
  0
VERTEX
  8
0
  5
2FEF0
 10
-379.269
 20
845.526
 30
0.000000
  70
    32
  0
VERTEX
  8
0
  5
2FEF1
 10
-379.269
 20
845.523
 30
0.000000
  70
    32
  0
VERTEX
  8
0
  5
2FEF2
 10
-379.269
 20
845.521
 30
0.000000
  70
    32
  0
VERTEX
  8
0
  5
2FEF3
 10
-379.268
 20
845.518
 30
0.000000
  70
    32
  0
VERTEX
  8
0
  5
2FEF4
 10
-379.268
 20
845.515
 30
0.000000
  70
    32
  0
VERTEX
  8
0
  5
2FEF5
 10
-379.268
 20
845.513
 30
0.000000
  70
    32
  0
VERTEX
  8
0
  5
2FEF6
 10
-379.267
 20
845.510
 30
0.000000
  70
    32
  0
VERTEX
  8
0
  5
2FEF7
 10
-379.267
 20
845.508
 30
0.000000
  70
    32
  0
VERTEX
  8
0
  5
2FEF8
 10
-379.267
 20
845.505
 30
0.000000
  70
    32
  0
VERTEX
  8
0
  5
2FEF9
 10
-379.266
 20
845.502
 30
0.000000
  70
    32
  0
VERTEX
  8
0
  5
2FEFA
 10
-379.266
 20
845.500
 30
0.000000
  70
    32
  0
VERTEX
  8
0
  5
2FEFB
 10
-379.265
 20
845.497
 30
0.000000
  70
    32
  0
VERTEX
  8
0
  5
2FEFC
 10
-379.265
 20
845.495
 30
0.000000
  70
    32
  0
VERTEX
  8
0
  5
2FEFD
 10
-379.264
 20
845.492
 30
0.000000
  70
    32
  0
VERTEX
  8
0
  5
2FEFE
 10
-379.264
 20
845.489
 30
0.000000
  70
    32
  0
VERTEX
  8
0
  5
2FEFF
 10
-379.263
 20
845.487
 30
0.000000
  70
    32
  0
VERTEX
  8
0
  5
2FF00
 10
-379.263
 20
845.484
 30
0.000000
  70
    32
  0
VERTEX
  8
0
  5
2FF01
 10
-379.262
 20
845.482
 30
0.000000
  70
    32
  0
VERTEX
  8
0
  5
2FF02
 10
-379.262
 20
845.479
 30
0.000000
  70
    32
  0
VERTEX
  8
0
  5
2FF03
 10
-379.261
 20
845.476
 30
0.000000
  70
    32
  0
VERTEX
  8
0
  5
2FF04
 10
-379.261
 20
845.474
 30
0.000000
  70
    32
  0
VERTEX
  8
0
  5
2FF05
 10
-379.260
 20
845.471
 30
0.000000
  70
    32
  0
VERTEX
  8
0
  5
2FF06
 10
-379.260
 20
845.469
 30
0.000000
  70
    32
  0
VERTEX
  8
0
  5
2FF07
 10
-379.259
 20
845.466
 30
0.000000
  70
    32
  0
VERTEX
  8
0
  5
2FF08
 10
-379.258
 20
845.463
 30
0.000000
  70
    32
  0
VERTEX
  8
0
  5
2FF09
 10
-379.258
 20
845.461
 30
0.000000
  70
    32
  0
VERTEX
  8
0
  5
2FF0A
 10
-379.257
 20
845.458
 30
0.000000
  70
    32
  0
VERTEX
  8
0
  5
2FF0B
 10
-379.256
 20
845.456
 30
0.000000
  70
    32
  0
VERTEX
  8
0
  5
2FF0C
 10
-379.256
 20
845.453
 30
0.000000
  70
    32
  0
VERTEX
  8
0
  5
2FF0D
 10
-379.255
 20
845.451
 30
0.000000
  70
    32
  0
VERTEX
  8
0
  5
2FF0E
 10
-379.254
 20
845.448
 30
0.000000
  70
    32
  0
VERTEX
  8
0
  5
2FF0F
 10
-379.254
 20
845.445
 30
0.000000
  70
    32
  0
VERTEX
  8
0
  5
2FF10
 10
-379.253
 20
845.443
 30
0.000000
  70
    32
  0
VERTEX
  8
0
  5
2FF11
 10
-379.252
 20
845.440
 30
0.000000
  70
    32
  0
VERTEX
  8
0
  5
2FF12
 10
-379.251
 20
845.438
 30
0.000000
  70
    32
  0
VERTEX
  8
0
  5
2FF13
 10
-379.251
 20
845.435
 30
0.000000
  70
    32
  0
VERTEX
  8
0
  5
2FF14
 10
-379.250
 20
845.433
 30
0.000000
  70
    32
  0
VERTEX
  8
0
  5
2FF15
 10
-379.249
 20
845.430
 30
0.000000
  70
    32
  0
VERTEX
  8
0
  5
2FF16
 10
-379.248
 20
845.427
 30
0.000000
  70
    32
  0
VERTEX
  8
0
  5
2FF17
 10
-379.247
 20
845.425
 30
0.000000
  70
    32
  0
VERTEX
  8
0
  5
2FF18
 10
-379.246
 20
845.422
 30
0.000000
  70
    32
  0
VERTEX
  8
0
  5
2FF19
 10
-379.246
 20
845.420
 30
0.000000
  70
    32
  0
VERTEX
  8
0
  5
2FF1A
 10
-379.245
 20
845.417
 30
0.000000
  70
    32
  0
VERTEX
  8
0
  5
2FF1B
 10
-379.244
 20
845.415
 30
0.000000
  70
    32
  0
VERTEX
  8
0
  5
2FF1C
 10
-379.243
 20
845.412
 30
0.000000
  70
    32
  0
VERTEX
  8
0
  5
2FF1D
 10
-379.242
 20
845.410
 30
0.000000
  70
    32
  0
VERTEX
  8
0
  5
2FF1E
 10
-379.241
 20
845.407
 30
0.000000
  70
    32
  0
VERTEX
  8
0
  5
2FF1F
 10
-379.240
 20
845.405
 30
0.000000
  70
    32
  0
VERTEX
  8
0
  5
2FF20
 10
-379.239
 20
845.402
 30
0.000000
  70
    32
  0
VERTEX
  8
0
  5
2FF21
 10
-379.238
 20
845.400
 30
0.000000
  70
    32
  0
VERTEX
  8
0
  5
2FF22
 10
-379.237
 20
845.397
 30
0.000000
  70
    32
  0
VERTEX
  8
0
  5
2FF23
 10
-379.236
 20
845.395
 30
0.000000
  70
    32
  0
VERTEX
  8
0
  5
2FF24
 10
-379.235
 20
845.393
 30
0.000000
  70
    32
  0
VERTEX
  8
0
  5
2FF25
 10
-379.233
 20
845.390
 30
0.000000
  70
    32
  0
VERTEX
  8
0
  5
2FF26
 10
-379.232
 20
845.388
 30
0.000000
  70
    32
  0
VERTEX
  8
0
  5
2FF27
 10
-379.231
 20
845.385
 30
0.000000
  70
    32
  0
VERTEX
  8
0
  5
2FF28
 10
-379.230
 20
845.383
 30
0.000000
  70
    32
  0
VERTEX
  8
0
  5
2FF29
 10
-379.229
 20
845.381
 30
0.000000
  70
    32
  0
VERTEX
  8
0
  5
2FF2A
 10
-379.227
 20
845.378
 30
0.000000
  70
    32
  0
VERTEX
  8
0
  5
2FF2B
 10
-379.226
 20
845.376
 30
0.000000
  70
    32
  0
VERTEX
  8
0
  5
2FF2C
 10
-379.225
 20
845.373
 30
0.000000
  70
    32
  0
VERTEX
  8
0
  5
2FF2D
 10
-379.224
 20
845.371
 30
0.000000
  70
    32
  0
VERTEX
  8
0
  5
2FF2E
 10
-379.222
 20
845.369
 30
0.000000
  70
    32
  0
VERTEX
  8
0
  5
2FF2F
 10
-379.221
 20
845.367
 30
0.000000
  70
    32
  0
VERTEX
  8
0
  5
2FF30
 10
-379.220
 20
845.364
 30
0.000000
  70
    32
  0
VERTEX
  8
0
  5
2FF31
 10
-379.218
 20
845.362
 30
0.000000
  70
    32
  0
VERTEX
  8
0
  5
2FF32
 10
-379.217
 20
845.360
 30
0.000000
  70
    32
  0
VERTEX
  8
0
  5
2FF33
 10
-379.216
 20
845.357
 30
0.000000
  70
    32
  0
VERTEX
  8
0
  5
2FF34
 10
-379.214
 20
845.355
 30
0.000000
  70
    32
  0
VERTEX
  8
0
  5
2FF35
 10
-379.213
 20
845.353
 30
0.000000
  70
    32
  0
VERTEX
  8
0
  5
2FF36
 10
-379.211
 20
845.351
 30
0.000000
  70
    32
  0
VERTEX
  8
0
  5
2FF37
 10
-379.210
 20
845.349
 30
0.000000
  70
    32
  0
VERTEX
  8
0
  5
2FF38
 10
-379.208
 20
845.347
 30
0.000000
  70
    32
  0
VERTEX
  8
0
  5
2FF39
 10
-379.206
 20
845.344
 30
0.000000
  70
    32
  0
VERTEX
  8
0
  5
2FF3A
 10
-379.205
 20
845.342
 30
0.000000
  70
    32
  0
VERTEX
  8
0
  5
2FF3B
 10
-379.203
 20
845.340
 30
0.000000
  70
    32
  0
VERTEX
  8
0
  5
2FF3C
 10
-379.202
 20
845.338
 30
0.000000
  70
    32
  0
VERTEX
  8
0
  5
2FF3D
 10
-379.200
 20
845.336
 30
0.000000
  70
    32
  0
VERTEX
  8
0
  5
2FF3E
 10
-379.198
 20
845.334
 30
0.000000
  70
    32
  0
VERTEX
  8
0
  5
2FF3F
 10
-379.197
 20
845.332
 30
0.000000
  70
    32
  0
VERTEX
  8
0
  5
2FF40
 10
-379.195
 20
845.330
 30
0.000000
  70
    32
  0
VERTEX
  8
0
  5
2FF41
 10
-379.193
 20
845.328
 30
0.000000
  70
    32
  0
VERTEX
  8
0
  5
2FF42
 10
-379.191
 20
845.326
 30
0.000000
  70
    32
  0
VERTEX
  8
0
  5
2FF43
 10
-379.190
 20
845.324
 30
0.000000
  70
    32
  0
VERTEX
  8
0
  5
2FF44
 10
-379.188
 20
845.322
 30
0.000000
  70
    32
  0
VERTEX
  8
0
  5
2FF45
 10
-379.186
 20
845.320
 30
0.000000
  70
    32
  0
VERTEX
  8
0
  5
2FF46
 10
-379.184
 20
845.318
 30
0.000000
  70
    32
  0
VERTEX
  8
0
  5
2FF47
 10
-379.182
 20
845.316
 30
0.000000
  70
    32
  0
VERTEX
  8
0
  5
2FF48
 10
-379.180
 20
845.315
 30
0.000000
  70
    32
  0
VERTEX
  8
0
  5
2FF49
 10
-379.178
 20
845.313
 30
0.000000
  70
    32
  0
VERTEX
  8
0
  5
2FF4A
 10
-379.176
 20
845.311
 30
0.000000
  70
    32
  0
VERTEX
  8
0
  5
2FF4B
 10
-379.174
 20
845.309
 30
0.000000
  70
    32
  0
VERTEX
  8
0
  5
2FF4C
 10
-379.172
 20
845.307
 30
0.000000
  70
    32
  0
VERTEX
  8
0
  5
2FF4D
 10
-379.170
 20
845.306
 30
0.000000
  70
    32
  0
VERTEX
  8
0
  5
2FF4E
 10
-379.168
 20
845.304
 30
0.000000
  70
    32
  0
VERTEX
  8
0
  5
2FF4F
 10
-379.166
 20
845.302
 30
0.000000
  70
    32
  0
VERTEX
  8
0
  5
2FF50
 10
-379.164
 20
845.300
 30
0.000000
  70
    32
  0
VERTEX
  8
0
  5
2FF51
 10
-379.162
 20
845.299
 30
0.000000
  70
    32
  0
VERTEX
  8
0
  5
2FF52
 10
-379.160
 20
845.297
 30
0.000000
  70
    32
  0
VERTEX
  8
0
  5
2FF53
 10
-379.158
 20
845.295
 30
0.000000
  70
    32
  0
VERTEX
  8
0
  5
2FF54
 10
-379.156
 20
845.294
 30
0.000000
  70
    32
  0
VERTEX
  8
0
  5
2FF55
 10
-379.154
 20
845.292
 30
0.000000
  70
    32
  0
VERTEX
  8
0
  5
2FF56
 10
-379.152
 20
845.290
 30
0.000000
  70
    32
  0
VERTEX
  8
0
  5
2FF57
 10
-379.150
 20
845.289
 30
0.000000
  70
    32
  0
VERTEX
  8
0
  5
2FF58
 10
-379.148
 20
845.287
 30
0.000000
  70
    32
  0
VERTEX
  8
0
  5
2FF59
 10
-379.145
 20
845.286
 30
0.000000
  70
    32
  0
VERTEX
  8
0
  5
2FF5A
 10
-379.143
 20
845.284
 30
0.000000
  70
    32
  0
VERTEX
  8
0
  5
2FF5B
 10
-379.141
 20
845.283
 30
0.000000
  70
    32
  0
VERTEX
  8
0
  5
2FF5C
 10
-379.139
 20
845.281
 30
0.000000
  70
    32
  0
VERTEX
  8
0
  5
2FF5D
 10
-379.137
 20
845.279
 30
0.000000
  70
    32
  0
VERTEX
  8
0
  5
2FF5E
 10
-379.134
 20
845.278
 30
0.000000
  70
    32
  0
VERTEX
  8
0
  5
2FF5F
 10
-379.132
 20
845.277
 30
0.000000
  70
    32
  0
VERTEX
  8
0
  5
2FF60
 10
-379.130
 20
845.275
 30
0.000000
  70
    32
  0
VERTEX
  8
0
  5
2FF61
 10
-379.128
 20
845.274
 30
0.000000
  70
    32
  0
VERTEX
  8
0
  5
2FF62
 10
-379.125
 20
845.272
 30
0.000000
  70
    32
  0
VERTEX
  8
0
  5
2FF63
 10
-379.123
 20
845.271
 30
0.000000
  70
    32
  0
VERTEX
  8
0
  5
2FF64
 10
-379.121
 20
845.269
 30
0.000000
  70
    32
  0
VERTEX
  8
0
  5
2FF65
 10
-379.119
 20
845.268
 30
0.000000
  70
    32
  0
VERTEX
  8
0
  5
2FF66
 10
-379.116
 20
845.267
 30
0.000000
  70
    32
  0
VERTEX
  8
0
  5
2FF67
 10
-379.114
 20
845.265
 30
0.000000
  70
    32
  0
VERTEX
  8
0
  5
2FF68
 10
-379.112
 20
845.264
 30
0.000000
  70
    32
  0
SEQEND
  8
0
  5
2FF69
  0
ARC
  5
2FBB1
  8
0
 10
-379.34423332188283
 20
846.33126959060257
 30
0.0
 40
0.391098607220092
 50
307.74675682061343
 51
64.930996315188693
  0
LINE
  5
2FBB2
  8
0
 10
-379.17852114257772
 20
846.76903493516454
 30
0.0
 11
-379.17852114257772
 21
846.68552598673296
 31
0.0
  0
ARC
  5
2FBB3
  8
0
 10
-379.2635024769798
 20
846.76903493516454
 30
0.0
 40
0.0849813344021557
 50
359.35609004684579
 51
97.46060180460718
  0
ARC
  5
2FBB4
  8
0
 10
-379.06759362066902
 20
847.04295112300031
 30
0.0
 40
0.280703107662775
 50
186.4051296214605
 51
222.50387665522041
  0
LINE
  5
2FBB5
  8
0
 10
-379.404457718282
 20
847.01163647305816
 30
0.0
 11
-379.3465445614284
 21
847.01163647305816
 31
0.0
  0
LINE
  5
2FBB6
  8
0
 10
-379.11177555678279
 20
845.26398163672195
 30
0.0
 11
-379.11177555678279
 21
845.19440090985916
 31
0.0
  0
LINE
  5
2FBB7
  8
0
 10
-379.10481350086241
 20
846.02201844691501
 30
0.0
 11
-379.10481350086241
 21
845.91300864194125
 31
0.0
  0
LINE
  5
2FBB8
  8
0
 10
-379.6986561853895
 20
847.01163647305816
 30
0.0
 11
-379.404457718282
 21
847.01163647305816
 31
0.0
  0
LINE
  5
2FBB9
  8
0
 10
-379.6986561853895
 20
844.6345319776359
 30
0.0
 11
-379.6986561853895
 21
847.01163647305816
 31
0.0
  0
LINE
  5
2FBBA
  8
0
 10
-379.31199796803452
 20
844.6345319776359
 30
0.0
 11
-379.6986561853895
 21
844.6345319776359
 31
0.0
  0
VIEWPORT
  5
BADA
 67
     1
  8
0
 10
5.249999665167536
 20
5.3214848691578043
 30
0.0
 40
16.023543186357209
 41
10.621019601785591
 68
     2
 69
     1
1001
ACAD
1000
MVIEW
1002
{
1070
    16
1010
0.0
1020
0.0
1030
0.0
1010
0.0
1020
0.0
1030
1.0
1040
0.0
1040
10.621019601785591
1040
5.249999665167536
1040
5.3214848691578043
1040
50.0
1040
0.0
1040
0.0
1070
     0
1070
   100
1070
     1
1070
     1
1070
     0
1070
     0
1070
     0
1070
     0
1040
0.0
1040
0.0
1040
0.0
1040
0.5
1040
0.5
1040
0.5
1040
0.5
1070
     0
1002
{
1002
}
1002
}
  0
VIEWPORT
  5
BADD
 67
     1
  8
0
 10
5.2499996294871929
 20
4.0166741807634683
 30
0.0
 40
10.44245679893058
 41
7.8813805131999892
 68
     1
 69
     2
1001
ACAD
1000
MVIEW
1002
{
1070
    16
1010
0.0
1020
0.0
1030
0.0
1010
0.0
1020
0.0
1030
1.0
1040
0.0
1040
7.881380497231941
1040
-378.73136398702479
1040
846.0324883747013
1040
50.0
1040
0.0
1040
0.0
1070
     0
1070
   100
1070
     1
1070
     2
1070
     0
1070
     0
1070
     0
1070
     0
1040
0.0
1040
0.0
1040
0.0
1040
0.5
1040
0.5
1040
0.5
1040
0.5
1070
     0
1002
{
1002
}
1002
}
  0
ENDSEC
  0
EOF
