  0
SECTION
  2
HEADER
  9
$ACADVER
  1
AC1009
  9
$INSBASE
 10
0.0
 20
0.0
 30
0.0
  9
$EXTMIN
 10
-388.87063786151009
 20
837.33435899099265
 30
0.0
  9
$EXTMAX
 10
-384.2056968319925
 20
1675.6228048180369
 30
0.0
  9
$LIMMIN
 10
0.0
 20
0.0
  9
$LIMMAX
 10
1500.0
 20
1500.0
  9
$ORTHOMODE
 70
     1
  9
$REGENMODE
 70
     1
  9
$FILLMODE
 70
     1
  9
$QTEXTMODE
 70
     0
  9
$MIRRTEXT
 70
     1
  9
$DRAGMODE
 70
     2
  9
$LTSCALE
 40
1.0
  9
$OSMODE
 70
    63
  9
$ATTMODE
 70
     1
  9
$TEXTSIZE
 40
1.5
  9
$TRACEWID
 40
0.05
  9
$TEXTSTYLE
  7
STANDARD
  9
$CLAYER
  8
0
  9
$CELTYPE
  6
BYLAYER
  9
$CECOLOR
 62
   256
  9
$DIMSCALE
 40
1.0
  9
$DIMASZ
 40
0.75
  9
$DIMEXO
 40
1.5
  9
$DIMDLI
 40
2.0
  9
$DIMRND
 40
0.0
  9
$DIMDLE
 40
0.0
  9
$DIMEXE
 40
1.0
  9
$DIMTP
 40
0.0
  9
$DIMTM
 40
0.0
  9
$DIMTXT
 40
1.5
  9
$DIMCEN
 40
2.0
  9
$DIMTSZ
 40
0.0
  9
$DIMTOL
 70
     0
  9
$DIMLIM
 70
     0
  9
$DIMTIH
 70
     0
  9
$DIMTOH
 70
     0
  9
$DIMSE1
 70
     0
  9
$DIMSE2
 70
     0
  9
$DIMTAD
 70
     1
  9
$DIMZIN
 70
     0
  9
$DIMBLK
  1
ARCHTICK
  9
$DIMASO
 70
     1
  9
$DIMSHO
 70
     1
  9
$DIMPOST
  1
"
  9
$DIMAPOST
  1

  9
$DIMALT
 70
     0
  9
$DIMALTD
 70
     2
  9
$DIMALTF
 40
25.399999999999999
  9
$DIMLFAC
 40
1.0
  9
$DIMTOFL
 70
     0
  9
$DIMTVP
 40
0.0
  9
$DIMTIX
 70
     1
  9
$DIMSOXD
 70
     0
  9
$DIMSAH
 70
     0
  9
$DIMBLK1
  1

  9
$DIMBLK2
  1

  9
$DIMSTYLE
  2
THREE_QUARTER_INCH_SCALE
  9
$DIMCLRD
 70
     0
  9
$DIMCLRE
 70
     0
  9
$DIMCLRT
 70
     0
  9
$DIMTFAC
 40
1.0
  9
$DIMGAP
 40
1.0
  9
$LUNITS
 70
     2
  9
$LUPREC
 70
     4
  9
$SKETCHINC
 40
0.1
  9
$FILLETRAD
 40
0.0
  9
$AUNITS
 70
     0
  9
$AUPREC
 70
     0
  9
$MENU
  1
.
  9
$ELEVATION
 40
0.0
  9
$PELEVATION
 40
0.0
  9
$THICKNESS
 40
0.0
  9
$LIMCHECK
 70
     0
  9
$BLIPMODE
 70
     0
  9
$CHAMFERA
 40
0.5
  9
$CHAMFERB
 40
0.5
  9
$SKPOLY
 70
     0
  9
$TDCREATE
 40
2452089.395738773
  9
$TDUPDATE
 40
2453621.5131285298
  9
$TDINDWG
 40
0.9814294676000001
  9
$TDUSRTIMER
 40
0.9814291088
  9
$USRTIMER
 70
     1
  9
$ANGBASE
 50
0.0
  9
$ANGDIR
 70
     0
  9
$PDMODE
 70
     0
  9
$PDSIZE
 40
10.0
  9
$PLINEWID
 40
0.0
  9
$COORDS
 70
     0
  9
$SPLFRAME
 70
     0
  9
$SPLINETYPE
 70
     6
  9
$SPLINESEGS
 70
     8
  9
$ATTDIA
 70
     0
  9
$ATTREQ
 70
     1
  9
$HANDLING
 70
     1
  9
$HANDSEED
  5
CCC4
  9
$SURFTAB1
 70
     6
  9
$SURFTAB2
 70
     6
  9
$SURFTYPE
 70
     6
  9
$SURFU
 70
     6
  9
$SURFV
 70
     6
  9
$UCSNAME
  2

  9
$UCSORG
 10
0.0
 20
0.0
 30
0.0
  9
$UCSXDIR
 10
1.0
 20
0.0
 30
0.0
  9
$UCSYDIR
 10
0.0
 20
1.0
 30
0.0
  9
$PUCSNAME
  2

  9
$PUCSORG
 10
0.0
 20
0.0
 30
0.0
  9
$PUCSXDIR
 10
1.0
 20
0.0
 30
0.0
  9
$PUCSYDIR
 10
0.0
 20
1.0
 30
0.0
  9
$USERI1
 70
     0
  9
$USERI2
 70
     0
  9
$USERI3
 70
     0
  9
$USERI4
 70
     0
  9
$USERI5
 70
     0
  9
$USERR1
 40
0.0
  9
$USERR2
 40
0.0
  9
$USERR3
 40
0.0
  9
$USERR4
 40
0.0
  9
$USERR5
 40
0.0
  9
$WORLDVIEW
 70
     1
  9
$SHADEDGE
 70
     3
  9
$SHADEDIF
 70
    70
  9
$TILEMODE
 70
     0
  9
$MAXACTVP
 70
    64
  9
$PLIMCHECK
 70
     0
  9
$PEXTMIN
 10
0.0287712300219028
 20
0.0759839241634737
 30
0.0
  9
$PEXTMAX
 10
10.47122802895248
 20
7.957364437363462
 30
0.0
  9
$PLIMMIN
 10
-0.1682389550263349
 20
-0.2033427855578579
  9
$PLIMMAX
 10
10.754640548407011
 20
8.2370640492290015
  9
$UNITMODE
 70
     0
  9
$VISRETAIN
 70
     1
  9
$PLINEGEN
 70
     0
  9
$PSLTSCALE
 70
     1
  0
ENDSEC
  0
SECTION
  2
TABLES
  0
TABLE
  2
VPORT
 70
     1
  0
VPORT
  2
*ACTIVE
 70
     0
 10
0.0
 20
0.0
 11
1.0
 21
1.0
 12
-386.52380251144001
 22
838.09204166179234
 13
0.0
 23
0.0
 14
0.5
 24
0.5
 15
0.5
 25
0.5
 16
0.0
 26
0.0
 36
1.0
 17
0.0
 27
0.0
 37
0.0
 40
3.930952126162941
 41
2.0226628895184122
 42
50.0
 43
0.0
 44
0.0
 50
0.0
 51
0.0
 71
     0
 72
   100
 73
     1
 74
     2
 75
     0
 76
     0
 77
     0
 78
     0
  0
ENDTAB
  0
TABLE
  2
LTYPE
 70
     1
  0
LTYPE
  2
CONTINUOUS
 70
     0
  3
Solid line
 72
    65
 73
     0
 40
0.0
  0
ENDTAB
  0
TABLE
  2
LAYER
 70
    10
  0
LAYER
  2
0
 70
     0
 62
     7
  6
CONTINUOUS
  0
LAYER
  2
DEFPOINTS
 70
     0
 62
     7
  6
CONTINUOUS
  0
LAYER
  2
FRAME_200
 70
     0
 62
     8
  6
CONTINUOUS
  0
LAYER
  2
FRAME_070
 70
     0
 62
     5
  6
CONTINUOUS
  0
LAYER
  2
FRAME_050
 70
     0
 62
     6
  6
CONTINUOUS
  0
LAYER
  2
TITLE_BLOCK
 70
     0
 62
     7
  6
CONTINUOUS
  0
LAYER
  2
FRAME_025
 70
     0
 62
     7
  6
CONTINUOUS
  0
LAYER
  2
VIEWPORT
 70
     0
 62
     7
  6
CONTINUOUS
  0
LAYER
  2
PROF
 70
     0
 62
     7
  6
CONTINUOUS
  0
LAYER
  2
PROFILE
 70
     0
 62
     7
  6
CONTINUOUS
  0
ENDTAB
  0
TABLE
  2
STYLE
 70
     2
  0
STYLE
  2
STANDARD
 70
     0
 40
0.0
 41
1.0
 50
0.0
 71
     0
 42
1.5
  3
txt
  4

  0
STYLE
  2
ISO_PROPORTIONAL
 70
     0
 40
0.0
 41
1.0
 50
0.0
 71
     0
 42
2.5
  3
isocp.shx
  4

  0
ENDTAB
  0
TABLE
  2
VIEW
 70
     1
  0
ENDTAB
  0
TABLE
  2
UCS
 70
     0
  0
ENDTAB
  0
TABLE
  2
APPID
 70
     6
  0
APPID
  2
ACAD
 70
     0
  0
APPID
  2
DCO15
 70
     0
  0
APPID
  2
ACAD_EXEMPT_FROM_CAD_STANDARDS
 70
     0
  0
APPID
  2
ACAD_PSEXT
 70
     0
  0
APPID
  2
CONTENTBLOCKDESCRIPTION
 70
     0
  0
APPID
  2
CONTENTBLOCKICON
 70
     0
  0
ENDTAB
  0
TABLE
  2
DIMSTYLE
 70
    10
  0
DIMSTYLE
  2
FULL_SCALE
 70
     0
  3
"
  4

  5

  6

  7

 40
1.0
 41
0.046875
 42
0.09375
 43
0.125
 44
0.0625
 45
0.0
 46
0.0
 47
0.0
 48
0.0
140
0.125
141
0.125
142
0.0
143
25.399999999999999
144
1.0
145
0.0
146
1.0
147
0.0625
 71
     0
 72
     0
 73
     0
 74
     0
 75
     0
 76
     0
 77
     1
 78
     0
170
     0
171
     2
172
     0
173
     0
174
     1
175
     0
176
     0
177
     0
178
     0
  0
DIMSTYLE
  2
HALF_SCALE
 70
     0
  3
"
  4

  5

  6

  7

 40
1.0
 41
0.09375
 42
0.1875
 43
0.25
 44
0.125
 45
0.0
 46
0.0
 47
0.0
 48
0.0
140
0.25
141
0.25
142
0.0
143
25.399999999999999
144
1.0
145
0.0
146
1.0
147
0.125
 71
     0
 72
     0
 73
     0
 74
     0
 75
     0
 76
     0
 77
     1
 78
     0
170
     0
171
     2
172
     0
173
     0
174
     1
175
     0
176
     0
177
     0
178
     0
  0
DIMSTYLE
  2
INCH_SCALE
 70
     0
  3
"
  4

  5

  6

  7

 40
1.0
 41
0.5625
 42
1.125
 43
1.5
 44
0.75
 45
0.0
 46
0.0
 47
0.0
 48
0.0
140
1.125
141
1.5
142
0.0
143
25.399999999999999
144
1.0
145
0.0
146
1.0
147
0.75
 71
     0
 72
     0
 73
     0
 74
     0
 75
     0
 76
     0
 77
     1
 78
     0
170
     0
171
     2
172
     0
173
     0
174
     1
175
     0
176
     0
177
     0
178
     0
  0
DIMSTYLE
  2
THREE_QUARTER_INCH_SCALE
 70
     0
  3
"
  4

  5

  6

  7

 40
1.0
 41
0.75
 42
1.5
 43
2.0
 44
1.0
 45
0.0
 46
0.0
 47
0.0
 48
0.0
140
1.5
141
2.0
142
0.0
143
25.399999999999999
144
1.0
145
0.0
146
1.0
147
1.0
 71
     0
 72
     0
 73
     0
 74
     0
 75
     0
 76
     0
 77
     1
 78
     0
170
     0
171
     2
172
     0
173
     0
174
     1
175
     0
176
     0
177
     0
178
     0
  0
DIMSTYLE
  2
ZHALF_INCH_SCALE
 70
     0
  3
"
  4

  5

  6

  7

 40
1.0
 41
1.125
 42
2.25
 43
3.0
 44
1.5
 45
0.0
 46
0.0
 47
0.0
 48
0.0
140
2.25
141
3.0
142
0.0
143
25.399999999999999
144
1.0
145
0.0
146
1.0
147
1.5
 71
     0
 72
     0
 73
     0
 74
     0
 75
     0
 76
     0
 77
     1
 78
     0
170
     0
171
     2
172
     0
173
     0
174
     1
175
     0
176
     0
177
     0
178
     0
  0
DIMSTYLE
  2
FULL_SCALE0
 70
     0
  3
"
  4

  5
ARCHTICK
  6

  7

 40
1.0
 41
0.046875
 42
0.09375
 43
0.125
 44
0.0625
 45
0.0
 46
0.0
 47
0.0
 48
0.0
140
0.125
141
0.125
142
0.0
143
25.399999999999999
144
1.0
145
0.0
146
1.0
147
0.0625
 71
     0
 72
     0
 73
     0
 74
     0
 75
     0
 76
     0
 77
     1
 78
     0
170
     0
171
     2
172
     0
173
     0
174
     1
175
     0
176
     0
177
     0
178
     0
  0
DIMSTYLE
  2
HALF_SCALE0
 70
     0
  3
"
  4

  5
ARCHTICK
  6

  7

 40
1.0
 41
0.09375
 42
0.1875
 43
0.25
 44
0.125
 45
0.0
 46
0.0
 47
0.0
 48
0.0
140
0.25
141
0.25
142
0.0
143
25.399999999999999
144
1.0
145
0.0
146
1.0
147
0.125
 71
     0
 72
     0
 73
     0
 74
     0
 75
     0
 76
     0
 77
     1
 78
     0
170
     0
171
     2
172
     0
173
     0
174
     1
175
     0
176
     0
177
     0
178
     0
  0
DIMSTYLE
  2
INCH_SCALE0
 70
     0
  3
"
  4

  5
ARCHTICK
  6

  7

 40
1.0
 41
0.5625
 42
1.125
 43
1.5
 44
0.75
 45
0.0
 46
0.0
 47
0.0
 48
0.0
140
1.125
141
1.5
142
0.0
143
25.399999999999999
144
1.0
145
0.0
146
1.0
147
0.75
 71
     0
 72
     0
 73
     0
 74
     0
 75
     0
 76
     0
 77
     1
 78
     0
170
     0
171
     2
172
     0
173
     0
174
     1
175
     0
176
     0
177
     0
178
     0
  0
DIMSTYLE
  2
THREE_QUARTER_INCH_SCALE0
 70
     0
  3
"
  4

  5
ARCHTICK
  6

  7

 40
1.0
 41
0.75
 42
1.5
 43
2.0
 44
1.0
 45
0.0
 46
0.0
 47
0.0
 48
0.0
140
1.5
141
2.0
142
0.0
143
25.399999999999999
144
1.0
145
0.0
146
1.0
147
1.0
 71
     0
 72
     0
 73
     0
 74
     0
 75
     0
 76
     0
 77
     1
 78
     0
170
     0
171
     2
172
     0
173
     0
174
     1
175
     0
176
     0
177
     0
178
     0
  0
DIMSTYLE
  2
ZHALF_INCH_SCALE0
 70
     0
  3
"
  4

  5
ARCHTICK
  6

  7

 40
1.0
 41
1.125
 42
2.25
 43
3.0
 44
1.5
 45
0.0
 46
0.0
 47
0.0
 48
0.0
140
2.25
141
3.0
142
0.0
143
25.399999999999999
144
1.0
145
0.0
146
1.0
147
1.5
 71
     0
 72
     0
 73
     0
 74
     0
 75
     0
 76
     0
 77
     1
 78
     0
170
     0
171
     2
172
     0
173
     0
174
     1
175
     0
176
     0
177
     0
178
     0
  0
ENDTAB
  0
ENDSEC
  0
SECTION
  2
BLOCKS
  0
BLOCK
  8
0
  2
$MODEL_SPACE
 70
     0
 10
0.0
 20
0.0
 30
0.0
  3
$MODEL_SPACE
  1

  0
ENDBLK
  5
C9DC
  8
0
  0
BLOCK
 67
     1
  8
0
  2
$PAPER_SPACE
 70
     0
 10
0.0
 20
0.0
 30
0.0
  3
$PAPER_SPACE
  1

  0
ENDBLK
  5
C9D8
 67
     1
  8
0
  0
BLOCK
  8
0
  2
_ARCHTICK
 70
     0
 10
0.0
 20
0.0
 30
0.0
  3
_ARCHTICK
  1

  0
POLYLINE
  5
158
  8
0
  6
BYBLOCK
 62
     0
 66
     1
 10
0.0
 20
0.0
 30
0.0
 40
0.15
 41
0.15
  0
VERTEX
  5
CB4D
  8
0
  6
BYBLOCK
 62
     0
 10
-0.5
 20
-0.5
 30
0.0
  0
VERTEX
  5
CB4E
  8
0
  6
BYBLOCK
 62
     0
 10
0.5
 20
0.5
 30
0.0
  0
SEQEND
  5
CB4F
  8
0
  6
BYBLOCK
 62
     0
  0
ENDBLK
  5
15A
  8
0
  0
BLOCK
  8
0
  2
_OPEN30
 70
     0
 10
0.0
 20
0.0
 30
0.0
  3
_OPEN30
  1

  0
LINE
  5
15C
  8
0
  6
BYBLOCK
 62
     0
 10
-1.0
 20
0.26794919
 30
0.0
 11
0.0
 21
0.0
 31
0.0
  0
LINE
  5
15D
  8
0
  6
BYBLOCK
 62
     0
 10
0.0
 20
0.0
 30
0.0
 11
-1.0
 21
-0.26794919
 31
0.0
  0
LINE
  5
15E
  8
0
  6
BYBLOCK
 62
     0
 10
0.0
 20
0.0
 30
0.0
 11
-1.0
 21
0.0
 31
0.0
  0
ENDBLK
  5
160
  8
0
  0
BLOCK
  8
0
  2
ISO_A2_TITLE_BLOCK
 70
     2
 10
0.0
 20
0.0
 30
0.0
  3
ISO_A2_TITLE_BLOCK
  1

  0
LINE
  5
BDD
  8
FRAME_050
 10
299.5
 20
12.5
 30
0.0
 11
297.0
 21
7.5
 31
0.0
  0
LINE
  5
BDE
  8
FRAME_050
 10
294.5
 20
12.5
 30
0.0
 11
299.5
 21
12.5
 31
0.0
  0
LINE
  5
BDF
  8
FRAME_050
 10
247.0
 20
5.0
 30
0.0
 11
347.0
 21
5.0
 31
0.0
  0
LINE
  5
BE0
  8
FRAME_070
 10
584.0
 20
410.0
 30
0.0
 11
10.0
 21
410.0
 31
0.0
  0
LINE
  5
BE1
  8
FRAME_070
 10
10.0
 20
10.0
 30
0.0
 11
584.0
 21
10.0
 31
0.0
  0
LINE
  5
BE2
  8
FRAME_050
 10
12.5
 20
207.5
 30
0.0
 11
7.5
 21
210.0
 31
0.0
  0
LINE
  5
BE3
  8
FRAME_050
 10
12.5
 20
212.5
 30
0.0
 11
12.5
 21
207.5
 31
0.0
  0
LINE
  5
BE4
  8
FRAME_070
 10
10.0
 20
410.0
 30
0.0
 11
10.0
 21
10.0
 31
0.0
  0
LINE
  5
BE5
  8
FRAME_200
 10
0.0
 20
0.0
 30
0.0
 11
0.0
 21
10.0
 31
0.0
  0
LINE
  5
BE6
  8
FRAME_200
 10
0.0
 20
0.0
 30
0.0
 11
10.0
 21
0.0
 31
0.0
  0
TEXT
  5
BE7
  8
FRAME_050
 10
5.9000000000000004
 20
35.0
 30
0.0
 40
4.0
  1
H
  7
ISO_PROPORTIONAL
 72
     4
 11
7.5
 21
37.0
 31
0.0
  0
LINE
  5
BE8
  8
FRAME_050
 10
10.0
 20
60.0
 30
0.0
 11
5.0
 21
60.0
 31
0.0
  0
LINE
  5
BE9
  8
FRAME_050
 10
81.75
 20
5.0
 30
0.0
 11
81.75
 21
10.0
 31
0.0
  0
TEXT
  5
BEA
  8
FRAME_050
 10
44.874999999999993
 20
5.5
 30
0.0
 40
4.0
  1
1
  7
ISO_PROPORTIONAL
 72
     4
 11
45.875
 21
7.5
 31
0.0
  0
TEXT
  5
BEB
  8
FRAME_050
 10
6.0035533905932743
 20
85.0
 30
0.0
 40
4.0
  1
G
  7
ISO_PROPORTIONAL
 72
     4
 11
7.5
 21
87.0
 31
0.0
  0
LINE
  5
BEC
  8
FRAME_050
 10
10.0
 20
110.0
 30
0.0
 11
5.0
 21
110.0
 31
0.0
  0
TEXT
  5
BED
  8
FRAME_050
 10
6.0999999999999988
 20
135.0
 30
0.0
 40
4.0
  1
F
  7
ISO_PROPORTIONAL
 72
     4
 11
7.5
 21
137.0
 31
0.0
  0
LINE
  5
BEE
  8
FRAME_050
 10
10.0
 20
160.0
 30
0.0
 11
5.0
 21
160.0
 31
0.0
  0
TEXT
  5
BEF
  8
FRAME_050
 10
6.0999999999999988
 20
185.0
 30
0.0
 40
4.0
  1
E
  7
ISO_PROPORTIONAL
 72
     4
 11
7.5
 21
187.0
 31
0.0
  0
LINE
  5
BF0
  8
FRAME_050
 10
153.5
 20
5.0
 30
0.0
 11
153.5
 21
10.0
 31
0.0
  0
TEXT
  5
BF1
  8
FRAME_050
 10
116.1556692913386
 20
5.3996062992125982
 30
0.0
 40
4.0
  1
2
  7
ISO_PROPORTIONAL
 72
     4
 11
117.625
 21
7.5
 31
0.0
  0
TEXT
  5
BF2
  8
FRAME_050
 10
187.89215728752529
 20
5.5828427124746138
 30
0.0
 40
4.0
  1
3
  7
ISO_PROPORTIONAL
 72
     4
 11
189.375
 21
7.5
 31
0.0
  0
LINE
  5
BF3
  8
FRAME_050
 10
225.25
 20
5.0
 30
0.0
 11
225.25
 21
10.0
 31
0.0
  0
LINE
  5
BF4
  8
FRAME_050
 10
297.0
 20
7.5
 30
0.0
 11
294.5
 21
12.5
 31
0.0
  0
LINE
  5
BF5
  8
FRAME_050
 10
287.0
 20
5.0
 30
0.0
 11
287.0
 21
10.0
 31
0.0
  0
LINE
  5
BF6
  8
FRAME_050
 10
277.0
 20
5.0
 30
0.0
 11
277.0
 21
10.0
 31
0.0
  0
LINE
  5
BF7
  8
FRAME_050
 10
267.0
 20
5.0
 30
0.0
 11
267.0
 21
10.0
 31
0.0
  0
LINE
  5
BF8
  8
FRAME_050
 10
257.0
 20
5.0
 30
0.0
 11
257.0
 21
10.0
 31
0.0
  0
LINE
  5
BF9
  8
FRAME_050
 10
247.0
 20
5.0
 30
0.0
 11
247.0
 21
10.0
 31
0.0
  0
LINE
  5
BFA
  8
FRAME_050
 10
297.0
 20
10.0
 30
0.0
 11
297.0
 21
5.0
 31
0.0
  0
LINE
  5
BFB
  8
FRAME_050
 10
297.0
 20
10.0
 30
0.0
 11
297.0
 21
15.0
 31
0.0
  0
LINE
  5
BFC
  8
FRAME_050
 10
5.0
 20
210.0
 30
0.0
 11
15.0
 21
210.0
 31
0.0
  0
LINE
  5
BFD
  8
FRAME_050
 10
7.5
 20
210.0
 30
0.0
 11
12.5
 21
212.5
 31
0.0
  0
TEXT
  5
BFE
  8
FRAME_050
 10
5.7860912703473977
 20
235.0
 30
0.0
 40
4.0
  1
D
  7
ISO_PROPORTIONAL
 72
     4
 11
7.5
 21
237.0
 31
0.0
  0
LINE
  5
BFF
  8
FRAME_050
 10
10.0
 20
260.0
 30
0.0
 11
5.0
 21
260.0
 31
0.0
  0
TEXT
  5
C00
  8
FRAME_050
 10
6.1931980515339466
 20
285.0
 30
0.0
 40
4.0
  1
C
  7
ISO_PROPORTIONAL
 72
     4
 11
7.5
 21
287.0
 31
0.0
  0
LINE
  5
C01
  8
FRAME_050
 10
10.0
 20
310.0
 30
0.0
 11
5.0
 21
310.0
 31
0.0
  0
TEXT
  5
C02
  8
FRAME_050
 10
5.8999999999999959
 20
335.0
 30
0.0
 40
4.0
  1
B
  7
ISO_PROPORTIONAL
 72
     4
 11
7.5
 21
337.0
 31
0.0
  0
LINE
  5
C03
  8
FRAME_050
 10
10.0
 20
360.0
 30
0.0
 11
5.0
 21
360.0
 31
0.0
  0
TEXT
  5
C04
  8
FRAME_050
 10
5.6999999999999993
 20
385.0
 30
0.0
 40
4.0
  1
A
  7
ISO_PROPORTIONAL
 72
     4
 11
7.5
 21
387.0
 31
0.0
  0
LINE
  5
C05
  8
FRAME_200
 10
10.0
 20
420.0
 30
0.0
 11
0.0
 21
420.0
 31
0.0
  0
LINE
  5
C06
  8
FRAME_200
 10
0.0
 20
420.0
 30
0.0
 11
0.0
 21
410.0
 31
0.0
  0
TEXT
  5
C07
  8
FRAME_050
 10
44.874999999999993
 20
410.5
 30
0.0
 40
4.0
  1
1
  7
ISO_PROPORTIONAL
 72
     4
 11
45.875
 21
412.5
 31
0.0
  0
LINE
  5
C08
  8
FRAME_050
 10
81.75
 20
410.0
 30
0.0
 11
81.75
 21
415.0
 31
0.0
  0
TEXT
  5
C09
  8
FRAME_050
 10
116.1556692913386
 20
410.39960629921262
 30
0.0
 40
4.0
  1
2
  7
ISO_PROPORTIONAL
 72
     4
 11
117.625
 21
412.5
 31
0.0
  0
LINE
  5
C0A
  8
FRAME_050
 10
153.5
 20
410.0
 30
0.0
 11
153.5
 21
415.0
 31
0.0
  0
TEXT
  5
C0B
  8
FRAME_050
 10
187.89215728752529
 20
410.58284271247459
 30
0.0
 40
4.0
  1
3
  7
ISO_PROPORTIONAL
 72
     4
 11
189.375
 21
412.5
 31
0.0
  0
LINE
  5
C0C
  8
FRAME_050
 10
297.0
 20
405.0
 30
0.0
 11
297.0
 21
415.0
 31
0.0
  0
LINE
  5
C0D
  8
FRAME_050
 10
225.25
 20
410.0
 30
0.0
 11
225.25
 21
415.0
 31
0.0
  0
TEXT
  5
C0E
  8
FRAME_050
 10
259.52499999999998
 20
410.5
 30
0.0
 40
4.0
  1
4
  7
ISO_PROPORTIONAL
 72
     4
 11
261.125
 21
412.5
 31
0.0
  0
LINE
  5
C0F
  8
FRAME_070
 10
584.0
 20
10.0
 30
0.0
 11
584.0
 21
410.0
 31
0.0
  0
ATTDEF
  5
C10
  8
FRAME_025
 10
473.0
 20
31.75
 30
0.0
 40
2.5
  1
XXX - 00/00/00
  7
ISO_PROPORTIONAL
 11
473.0
 21
33.0
 31
0.0
  3
Approved by - Date
  2
APPROVED_BY_DATE
 70
     8
 74
     2
  0
TEXT
  5
C11
  8
FRAME_025
 10
448.0
 20
41.749999999999993
 30
0.0
 40
2.5
  1
Title/Name, designation, material, dimension etc
  7
ISO_PROPORTIONAL
 11
448.0
 21
43.0
 31
0.0
 73
     2
  0
TEXT
  5
C12
  8
FRAME_025
 10
473.0
 20
35.75
 30
0.0
 40
2.5
  1
Approved by - date
  7
ISO_PROPORTIONAL
 11
473.0
 21
37.0
 31
0.0
 73
     2
  0
LINE
  5
C13
  8
FRAME_070
 10
414.0
 20
46.0
 30
0.0
 11
584.0
 21
46.0
 31
0.0
  0
LINE
  5
C14
  8
FRAME_070
 10
414.0
 20
40.0
 30
0.0
 11
584.0
 21
40.0
 31
0.0
  0
LINE
  5
C15
  8
FRAME_070
 10
414.0
 20
30.0
 30
0.0
 11
584.0
 21
30.0
 31
0.0
  0
LINE
  5
C16
  8
FRAME_050
 10
368.75
 20
5.0
 30
0.0
 11
368.75
 21
10.0
 31
0.0
  0
LINE
  5
C17
  8
FRAME_050
 10
337.0
 20
5.0
 30
0.0
 11
337.0
 21
10.0
 31
0.0
  0
LINE
  5
C18
  8
FRAME_050
 10
327.0
 20
5.0
 30
0.0
 11
327.0
 21
10.0
 31
0.0
  0
LINE
  5
C19
  8
FRAME_050
 10
317.0
 20
5.0
 30
0.0
 11
317.0
 21
10.0
 31
0.0
  0
LINE
  5
C1A
  8
FRAME_050
 10
307.0
 20
5.0
 30
0.0
 11
307.0
 21
10.0
 31
0.0
  0
LINE
  5
C1B
  8
FRAME_050
 10
347.0
 20
5.0
 30
0.0
 11
347.0
 21
10.0
 31
0.0
  0
LINE
  5
C1C
  8
FRAME_050
 10
440.5
 20
5.0
 30
0.0
 11
440.5
 21
10.0
 31
0.0
  0
TEXT
  5
C1D
  8
FRAME_050
 10
403.24547244094481
 20
5.4102362204724406
 30
0.0
 40
4.0
  1
6
  7
ISO_PROPORTIONAL
 72
     4
 11
404.62499999999989
 21
7.5
 31
0.0
  0
TEXT
  5
C1E
  8
FRAME_050
 10
474.97499999999991
 20
5.5
 30
0.0
 40
4.0
  1
7
  7
ISO_PROPORTIONAL
 72
     4
 11
476.37499999999989
 21
7.5
 31
0.0
  0
TEXT
  5
C1F
  8
FRAME_025
 10
431.0
 20
41.749999999999993
 30
0.0
 40
2.5
  1
Quantity
  7
ISO_PROPORTIONAL
 11
431.0
 21
43.0
 31
0.0
 73
     2
  0
TEXT
  5
C20
  8
FRAME_025
 10
416.0
 20
41.749999999999993
 30
0.0
 40
2.5
  1
Itemref
  7
ISO_PROPORTIONAL
 11
416.0
 21
43.0
 31
0.0
 73
     2
  0
LINE
  5
C21
  8
FRAME_070
 10
414.0
 20
40.0
 30
0.0
 11
414.0
 21
46.0
 31
0.0
  0
LINE
  5
C22
  8
FRAME_070
 10
429.0
 20
40.0
 30
0.0
 11
429.0
 21
46.0
 31
0.0
  0
LINE
  5
C23
  8
FRAME_070
 10
414.0
 20
10.0
 30
0.0
 11
414.0
 21
40.0
 31
0.0
  0
ATTDEF
  5
C24
  8
FRAME_025
 10
416.0
 20
31.75
 30
0.0
 40
2.5
  1
XXX
  7
ISO_PROPORTIONAL
 11
416.0
 21
33.0
 31
0.0
  3
Designed by
  2
DESIGNED_BY
 70
     8
 74
     2
  0
TEXT
  5
C25
  8
FRAME_025
 10
416.0
 20
35.75
 30
0.0
 40
2.5
  1
Designed by
  7
ISO_PROPORTIONAL
 11
416.0
 21
37.0
 31
0.0
 73
     2
  0
LINE
  5
C26
  8
FRAME_070
 10
446.0
 20
40.0
 30
0.0
 11
446.0
 21
46.0
 31
0.0
  0
ATTDEF
  5
C27
  8
FRAME_025
 10
448.0
 20
31.75
 30
0.0
 40
2.5
  1
XXX
  7
ISO_PROPORTIONAL
 11
448.0
 21
33.0
 31
0.0
  3
Checked by
  2
CHECKED_BY
 70
     8
 74
     2
  0
TEXT
  5
C28
  8
FRAME_025
 10
448.0
 20
35.75
 30
0.0
 40
2.5
  1
Checked by
  7
ISO_PROPORTIONAL
 11
448.0
 21
37.0
 31
0.0
 73
     2
  0
ATTDEF
  5
C29
  8
FRAME_050
 10
444.74999999999989
 20
17.5
 30
0.0
 40
5.0
  1
XXX
  7
ISO_PROPORTIONAL
 72
     4
 11
451.49999999999989
 21
20.0
 31
0.0
  3
Owner
  2
OWNER
 70
     8
  0
LINE
  5
C2A
  8
FRAME_070
 10
446.0
 20
30.0
 30
0.0
 11
446.0
 21
40.0
 31
0.0
  0
LINE
  5
C2B
  8
FRAME_070
 10
471.0
 20
30.0
 30
0.0
 11
471.0
 21
40.0
 31
0.0
  0
LINE
  5
C2C
  8
FRAME_070
 10
489.0
 20
20.0
 30
0.0
 11
584.0
 21
20.0
 31
0.0
  0
LINE
  5
C2D
  8
FRAME_050
 10
512.25
 20
5.0
 30
0.0
 11
512.25
 21
10.0
 31
0.0
  0
TEXT
  5
C2E
  8
FRAME_050
 10
546.72499999999991
 20
5.5
 30
0.0
 40
4.0
  1
8
  7
ISO_PROPORTIONAL
 72
     4
 11
548.125
 21
7.5
 31
0.0
  0
ATTDEF
  5
C2F
  8
FRAME_050
 10
517.64999999999986
 20
13.5
 30
0.0
 40
3.0
  1
X
  7
ISO_PROPORTIONAL
 72
     4
 11
519.0
 21
15.0
 31
0.0
  3
Drawing number
  2
DRAWING_NUMBER
 70
     8
  0
ATTDEF
  5
C30
  8
FRAME_050
 10
529.75
 20
22.5
 30
0.0
 40
5.0
  1
XXX
  7
ISO_PROPORTIONAL
 72
     4
 11
536.5
 21
25.0
 31
0.0
  3
Title / Name
  2
TITLE
 70
     8
  0
LINE
  5
C31
  8
FRAME_070
 10
489.0
 20
10.0
 30
0.0
 11
489.0
 21
30.0
 31
0.0
  0
ATTDEF
  5
C32
  8
FRAME_025
 10
511.0
 20
31.75
 30
0.0
 40
2.5
  1
XXX
  7
ISO_PROPORTIONAL
 11
511.0
 21
33.0
 31
0.0
  3
Filename
  2
FILENAME
 70
     8
 74
     2
  0
TEXT
  5
C33
  8
FRAME_025
 10
511.0
 20
35.75
 30
0.0
 40
2.5
  1
Filename
  7
ISO_PROPORTIONAL
 11
511.0
 21
37.0
 31
0.0
 73
     2
  0
LINE
  5
C34
  8
FRAME_070
 10
509.0
 20
30.0
 30
0.0
 11
509.0
 21
40.0
 31
0.0
  0
TEXT
  5
C35
  8
FRAME_025
 10
536.0
 20
41.749999999999993
 30
0.0
 40
2.5
  1
Article No./Reference
  7
ISO_PROPORTIONAL
 11
536.0
 21
43.0
 31
0.0
 73
     2
  0
LINE
  5
C36
  8
FRAME_070
 10
534.0
 20
40.0
 30
0.0
 11
534.0
 21
46.0
 31
0.0
  0
ATTDEF
  5
C37
  8
FRAME_025
 10
551.0
 20
11.75
 30
0.0
 40
2.5
  1
0
  7
ISO_PROPORTIONAL
 11
551.0
 21
13.0
 31
0.0
  3
Edition
  2
EDITION
 70
     8
 74
     2
  0
TEXT
  5
C38
  8
FRAME_025
 10
551.0
 20
15.75
 30
0.0
 40
2.5
  1
Edition
  7
ISO_PROPORTIONAL
 11
551.0
 21
17.0
 31
0.0
 73
     2
  0
LINE
  5
C39
  8
FRAME_070
 10
549.0
 20
10.0
 30
0.0
 11
549.0
 21
20.0
 31
0.0
  0
ATTDEF
  5
C3A
  8
FRAME_025
 10
536.0
 20
31.75
 30
0.0
 40
2.5
  1
00/00/00
  7
ISO_PROPORTIONAL
 11
536.0
 21
33.0
 31
0.0
  3
Date
  2
DATE
 70
     8
 74
     2
  0
TEXT
  5
C3B
  8
FRAME_025
 10
536.0
 20
35.75
 30
0.0
 40
2.5
  1
Date
  7
ISO_PROPORTIONAL
 11
536.0
 21
37.0
 31
0.0
 73
     2
  0
LINE
  5
C3C
  8
FRAME_070
 10
534.0
 20
30.0
 30
0.0
 11
534.0
 21
40.0
 31
0.0
  0
ATTDEF
  5
C3D
  8
FRAME_025
 10
566.0
 20
11.75
 30
0.0
 40
2.5
  1
1/1
  7
ISO_PROPORTIONAL
 11
566.0
 21
13.0
 31
0.0
  3
Sheet
  2
SHEET
 70
     8
 74
     2
  0
TEXT
  5
C3E
  8
FRAME_025
 10
566.0
 20
15.75
 30
0.0
 40
2.5
  1
Sheet
  7
ISO_PROPORTIONAL
 11
566.0
 21
17.0
 31
0.0
 73
     2
  0
LINE
  5
C3F
  8
FRAME_070
 10
564.0
 20
10.0
 30
0.0
 11
564.0
 21
20.0
 31
0.0
  0
ATTDEF
  5
C40
  8
FRAME_025
 10
566.0
 20
31.75
 30
0.0
 40
2.5
  1
1:1
  7
ISO_PROPORTIONAL
 11
566.0
 21
33.0
 31
0.0
  3
Scale
  2
SCALE
 70
     8
 74
     2
  0
TEXT
  5
C41
  8
FRAME_025
 10
566.0
 20
35.75
 30
0.0
 40
2.5
  1
Scale
  7
ISO_PROPORTIONAL
 11
566.0
 21
37.0
 31
0.0
 73
     2
  0
LINE
  5
C42
  8
FRAME_070
 10
564.0
 20
30.0
 30
0.0
 11
564.0
 21
40.0
 31
0.0
  0
LINE
  5
C43
  8
FRAME_200
 10
594.0
 20
0.0
 30
0.0
 11
594.0
 21
10.0
 31
0.0
  0
LINE
  5
C44
  8
FRAME_200
 10
594.0
 20
0.0
 30
0.0
 11
584.0
 21
0.0
 31
0.0
  0
TEXT
  5
C45
  8
FRAME_050
 10
584.89999999999998
 20
35.0
 30
0.0
 40
4.0
  1
H
  7
ISO_PROPORTIONAL
 72
     4
 11
586.5
 21
37.0
 31
0.0
  0
LINE
  5
C46
  8
FRAME_050
 10
589.0
 20
60.0
 30
0.0
 11
584.0
 21
60.0
 31
0.0
  0
TEXT
  5
C47
  8
FRAME_050
 10
585.0035533905932
 20
85.0
 30
0.0
 40
4.0
  1
G
  7
ISO_PROPORTIONAL
 72
     4
 11
586.5
 21
87.0
 31
0.0
  0
LINE
  5
C48
  8
FRAME_050
 10
589.0
 20
110.0
 30
0.0
 11
584.0
 21
110.0
 31
0.0
  0
TEXT
  5
C49
  8
FRAME_050
 10
585.09999999999991
 20
135.0
 30
0.0
 40
4.0
  1
F
  7
ISO_PROPORTIONAL
 72
     4
 11
586.5
 21
137.0
 31
0.0
  0
LINE
  5
C4A
  8
FRAME_050
 10
589.0
 20
160.0
 30
0.0
 11
584.0
 21
160.0
 31
0.0
  0
TEXT
  5
C4B
  8
FRAME_050
 10
585.09999999999991
 20
185.0
 30
0.0
 40
4.0
  1
E
  7
ISO_PROPORTIONAL
 72
     4
 11
586.5
 21
187.0
 31
0.0
  0
LINE
  5
C4C
  8
FRAME_070
 10
414.0
 20
404.0
 30
0.0
 11
584.0
 21
404.0
 31
0.0
  0
TEXT
  5
C4D
  8
FRAME_050
 10
331.39215728752538
 20
410.58284271247459
 30
0.0
 40
4.0
  1
5
  7
ISO_PROPORTIONAL
 72
     4
 11
332.875
 21
412.5
 31
0.0
  0
LINE
  5
C4E
  8
FRAME_050
 10
368.75
 20
410.0
 30
0.0
 11
368.75
 21
415.0
 31
0.0
  0
TEXT
  5
C4F
  8
FRAME_025
 10
428.0
 20
405.75
 30
0.0
 40
2.5
  1
Revision note
  7
ISO_PROPORTIONAL
 11
428.0
 21
407.0
 31
0.0
 73
     2
  0
TEXT
  5
C50
  8
FRAME_025
 10
416.0
 20
405.75
 30
0.0
 40
2.5
  1
RevNo
  7
ISO_PROPORTIONAL
 11
416.0
 21
407.0
 31
0.0
 73
     2
  0
LINE
  5
C51
  8
FRAME_070
 10
426.0
 20
404.0
 30
0.0
 11
426.0
 21
410.0
 31
0.0
  0
LINE
  5
C52
  8
FRAME_070
 10
414.0
 20
404.0
 30
0.0
 11
414.0
 21
410.0
 31
0.0
  0
TEXT
  5
C53
  8
FRAME_050
 10
403.24547244094481
 20
410.41023622047243
 30
0.0
 40
4.0
  1
6
  7
ISO_PROPORTIONAL
 72
     4
 11
404.62499999999989
 21
412.5
 31
0.0
  0
LINE
  5
C54
  8
FRAME_050
 10
440.5
 20
410.0
 30
0.0
 11
440.5
 21
415.0
 31
0.0
  0
TEXT
  5
C55
  8
FRAME_050
 10
474.97499999999991
 20
410.5
 30
0.0
 40
4.0
  1
7
  7
ISO_PROPORTIONAL
 72
     4
 11
476.37499999999989
 21
412.5
 31
0.0
  0
LINE
  5
C56
  8
FRAME_050
 10
579.0
 20
210.0
 30
0.0
 11
589.0
 21
210.0
 31
0.0
  0
TEXT
  5
C57
  8
FRAME_050
 10
584.78609127034736
 20
235.0
 30
0.0
 40
4.0
  1
D
  7
ISO_PROPORTIONAL
 72
     4
 11
586.5
 21
237.0
 31
0.0
  0
LINE
  5
C58
  8
FRAME_050
 10
589.0
 20
260.0
 30
0.0
 11
584.0
 21
260.0
 31
0.0
  0
TEXT
  5
C59
  8
FRAME_050
 10
585.19319805153395
 20
285.0
 30
0.0
 40
4.0
  1
C
  7
ISO_PROPORTIONAL
 72
     4
 11
586.5
 21
287.0
 31
0.0
  0
LINE
  5
C5A
  8
FRAME_050
 10
589.0
 20
310.0
 30
0.0
 11
584.0
 21
310.0
 31
0.0
  0
TEXT
  5
C5B
  8
FRAME_050
 10
584.89999999999998
 20
335.0
 30
0.0
 40
4.0
  1
B
  7
ISO_PROPORTIONAL
 72
     4
 11
586.5
 21
337.0
 31
0.0
  0
TEXT
  5
C5C
  8
FRAME_025
 10
571.08299391850551
 20
405.75
 30
0.0
 40
2.5
  1
Checked
  7
ISO_PROPORTIONAL
 11
571.08299391850551
 21
407.0
 31
0.0
 73
     2
  0
TEXT
  5
C5D
  8
FRAME_025
 10
555.36099797283521
 20
405.75
 30
0.0
 40
2.5
  1
Signature
  7
ISO_PROPORTIONAL
 11
555.36099797283521
 21
407.0
 31
0.0
 73
     2
  0
TEXT
  5
C5E
  8
FRAME_025
 10
537.0
 20
405.75
 30
0.0
 40
2.5
  1
Date
  7
ISO_PROPORTIONAL
 11
537.0
 21
407.0
 31
0.0
 73
     2
  0
LINE
  5
C5F
  8
FRAME_070
 10
570.0
 20
404.0
 30
0.0
 11
570.0
 21
410.0
 31
0.0
  0
LINE
  5
C60
  8
FRAME_070
 10
555.0
 20
404.0
 30
0.0
 11
555.0
 21
410.0
 31
0.0
  0
LINE
  5
C61
  8
FRAME_070
 10
535.0
 20
404.0
 30
0.0
 11
535.0
 21
410.0
 31
0.0
  0
LINE
  5
C62
  8
FRAME_050
 10
512.25
 20
410.0
 30
0.0
 11
512.25
 21
415.0
 31
0.0
  0
TEXT
  5
C63
  8
FRAME_050
 10
546.72499999999991
 20
410.5
 30
0.0
 40
4.0
  1
8
  7
ISO_PROPORTIONAL
 72
     4
 11
548.125
 21
412.5
 31
0.0
  0
LINE
  5
C64
  8
FRAME_050
 10
589.0
 20
360.0
 30
0.0
 11
584.0
 21
360.0
 31
0.0
  0
TEXT
  5
C65
  8
FRAME_050
 10
584.70000000000005
 20
385.0
 30
0.0
 40
4.0
  1
A
  7
ISO_PROPORTIONAL
 72
     4
 11
586.5
 21
387.0
 31
0.0
  0
LINE
  5
C66
  8
FRAME_200
 10
594.0
 20
420.0
 30
0.0
 11
584.0
 21
420.0
 31
0.0
  0
LINE
  5
C67
  8
FRAME_200
 10
594.0
 20
410.0
 30
0.0
 11
594.0
 21
420.0
 31
0.0
  0
ENDBLK
  5
C69
  8
0
  0
BLOCK
  8
0
  2
WOBB001END
 70
     0
 10
0.0
 20
0.0
 30
0.0
  3
WOBB001END
  1

  0
LINE
  5
4D66
  8
0
  6
CONTINUOUS
 10
0.0
 20
0.0
 30
0.0
 11
0.8749999999999998
 21
0.0
 31
0.0
  0
ARC
  5
4D67
  8
0
  6
CONTINUOUS
 10
0.0331648379439287
 20
-0.5087238935900234
 30
0.0
 40
0.8790130605592325
 50
284.06490243660443
 51
312.19222981924361
  0
ARC
  5
4D68
  8
0
  6
CONTINUOUS
 10
0.2841534338796767
 20
-1.510548310625538
 30
0.0
 40
0.1537731892806598
 50
104.0649024366044
 51
179.4721730735024
  0
LINE
  5
4D69
  8
0
  6
CONTINUOUS
 10
0.0
 20
0.0
 30
0.0
 11
-0.0000000000000003
 21
-1.7501564476661911
 31
0.0
  0
ARC
  5
4D6A
  8
0
  6
CONTINUOUS
 10
0.1404622019506122
 20
-1.630313718354619
 30
0.0
 40
0.1198427293115722
 50
275.0
 51
85.000000000000057
  0
LINE
  5
4D6B
  8
0
  6
CONTINUOUS
 10
-0.0000000000000003
 20
-1.7501564476661911
 30
0.0
 11
0.1456946485130855
 21
-1.7501564476661911
 31
0.0
  0
LINE
  5
4D6C
  8
0
  6
CONTINUOUS
 10
0.1377603739254348
 20
-1.7508506067459131
 30
0.0
 11
0.150907184036669
 21
-1.7497004098996509
 31
0.0
  0
LINE
  5
4D6D
  8
0
  6
CONTINUOUS
 10
0.1303867696719884
 20
-1.5091317231818231
 30
0.0
 11
0.1509071840366689
 21
-1.510927026809586
 31
0.0
  0
LINE
  5
4D6E
  8
0
  6
CONTINUOUS
 10
0.8749999999999998
 20
0.0
 30
0.0
 11
0.8749999999999996
 21
-0.8649327026588228
 31
0.0
  0
LINE
  5
4D6F
  8
0
  6
CONTINUOUS
 10
0.727014513830997
 20
-0.872688293355061
 30
0.0
 11
0.727014513830997
 21
-0.9264923397184784
 31
0.0
  0
ARC
  5
4D70
  8
0
  6
CONTINUOUS
 10
0.41187090827646
 20
-0.9264923397184784
 30
0.0
 40
0.3151436055545369
 50
312.19222981924361
 51
0.0
  0
LINE
  5
4D71
  8
0
  6
CONTINUOUS
 10
0.727014513830997
 20
-0.872688293355061
 30
0.0
 11
0.8749999999999996
 21
-0.8649327026588228
 31
0.0
  0
ENDBLK
  5
4D72
  8
0
  0
BLOCK
  8
0
  2
A$C0A61123B
 70
     0
 10
0.0
 20
0.0
 30
0.0
  3
A$C0A61123B
  1

  0
LINE
  5
C0AD
  8
PROF
  6
CONTINUOUS
 10
4.9012016798694162
 20
13.325025853350891
 30
0.0000000000000002
 11
4.9012016798694162
 21
12.88585218805485
 31
0.0000000000000003
  0
INSERT
  5
C0AE
  8
0
  2
*U7
 10
0.0
 20
0.0
 30
0.0
  0
LINE
  5
C0AF
  8
PROF
 10
4.519857503186925
 20
12.72227734589444
 30
0.0000000000000001
 11
4.519857503186925
 21
12.88585218805485
 31
0.0000000000000001
  0
LINE
  5
C0B0
  8
PROF
  6
CONTINUOUS
 10
3.6306271195888362
 20
13.325025853350891
 30
0.0000000000000002
 11
4.9012016798694162
 21
13.325025853350891
 31
0.0000000000000002
  0
LINE
  5
C0B1
  8
PROF
 10
1.9750295148747341
 20
10.37671325491794
 30
0.0000000000000002
 11
1.9750295148747341
 21
10.11391186758919
 31
0.0000000000000002
  0
LINE
  5
C0B2
  8
PROF
 10
1.6079673357556299
 20
10.11391186758919
 30
0.0000000000000001
 11
1.9750295148747341
 21
10.11391186758919
 31
0.0000000000000001
  0
LINE
  5
C0B3
  8
PROF
 10
1.9750295148747341
 20
10.11391186758919
 30
0.0000000000000001
 11
1.944958486898144
 21
10.11391186758919
 31
0.0000000000000001
  0
LINE
  5
C0B4
  8
PROF
 10
1.9750295148747341
 20
10.11391186758919
 30
0.0000000000000001
 11
1.944958486898144
 21
10.11391186758919
 31
0.0000000000000001
  0
LINE
  5
C0B5
  8
PROF
 10
0.3222605517169654
 20
7.5247473351056451
 30
-0.0000000000000002
 11
-0.0000008570117416
 21
7.5247473351056451
 31
0.0
  0
LINE
  5
C0B6
  8
PROF
 10
-0.0000008570117416
 20
7.5247473351056451
 30
0.0
 11
-0.0000008570117416
 21
9.1943336957369848
 31
0.0
  0
POLYLINE
  5
C0B7
  8
PROF
 66
     1
 10
0.0
 20
0.0
 30
0.0000000000000001
 70
     4
 75
     6
  0
VERTEX
  5
C0B8
  8
PROF
 10
1.6079673357556299
 20
10.11391186758919
 30
0.0000000000000001
 70
    16
  0
VERTEX
  5
C0B9
  8
PROF
 10
1.6079673357556299
 20
10.11391186758919
 30
0.0000000000000001
 70
     8
  0
VERTEX
  5
C0BA
  8
PROF
 10
1.6468132326485809
 20
10.02198069336111
 30
0.0000000000000001
 70
     8
  0
VERTEX
  5
C0BB
  8
PROF
 10
1.67335966680929
 20
9.9344134163010231
 30
0.0000000000000001
 70
     8
  0
VERTEX
  5
C0BC
  8
PROF
 10
1.6890086400463229
 20
9.8512576644480951
 30
0.0000000000000001
 70
     8
  0
VERTEX
  5
C0BD
  8
PROF
 10
1.6951621541682571
 20
9.7725610658417281
 30
0.0000000000000001
 70
     8
  0
VERTEX
  5
C0BE
  8
PROF
 10
1.693222210983605
 20
9.6983712485214237
 30
0.0000000000000001
 70
     8
  0
VERTEX
  5
C0BF
  8
PROF
 10
1.6845908123009961
 20
9.6287358405263603
 30
0.0000000000000001
 70
     8
  0
VERTEX
  5
C0C0
  8
PROF
 10
1.670669959928885
 20
9.5637024698960431
 30
0.0000000000000001
 70
     8
  0
VERTEX
  5
C0C1
  8
PROF
 10
1.6528616556759621
 20
9.5033187646697552
 30
0.0000000000000001
 70
     8
  0
VERTEX
  5
C0C2
  8
PROF
 10
1.632356299273054
 20
9.4475843259650691
 30
0.0000000000000001
 70
     8
  0
VERTEX
  5
C0C3
  8
PROF
 10
1.609497882140658
 20
9.3963066472123273
 30
0.0000000000000001
 70
     8
  0
VERTEX
  5
C0C4
  8
PROF
 10
1.584418793621637
 20
9.3492451949202842
 30
0.0000000000000001
 70
     8
  0
VERTEX
  5
C0C5
  8
PROF
 10
1.5572514230587431
 20
9.3061594355972357
 30
0.0000000000000001
 70
     8
  0
VERTEX
  5
C0C6
  8
PROF
 10
1.5281281597949601
 20
9.2668088357519274
 30
0.0000000000000001
 70
     8
  0
VERTEX
  5
C0C7
  8
PROF
 10
1.497181393172978
 20
9.2309528618929981
 30
0.0000000000000001
 70
     8
  0
VERTEX
  5
C0C8
  8
PROF
 10
1.4645435125357249
 20
9.1983509805288541
 30
0.0000000000000001
 70
     8
  0
VERTEX
  5
C0C9
  8
PROF
 10
1.4303469072260091
 20
9.1687626581682462
 30
0.0000000000000001
 70
     8
  0
VERTEX
  5
C0CA
  8
PROF
 10
1.394736033257401
 20
9.1419547918675335
 30
0.0000000000000001
 70
     8
  0
VERTEX
  5
C0CB
  8
PROF
 10
1.3579036133264131
 20
9.1177240008747713
 30
0.0000000000000001
 70
     8
  0
VERTEX
  5
C0CC
  8
PROF
 10
1.3200544368004321
 20
9.0958743349860924
 30
0.0000000000000001
 70
     8
  0
VERTEX
  5
C0CD
  8
PROF
 10
1.281393293046676
 20
9.0762098439975034
 30
0.0000000000000001
 70
     8
  0
VERTEX
  5
C0CE
  8
PROF
 10
1.2421249714324161
 20
9.0585345777049042
 30
0.0000000000000001
 70
     8
  0
VERTEX
  5
C0CF
  8
PROF
 10
1.202454261324986
 20
9.0426525859044187
 30
0.0000000000000001
 70
     8
  0
VERTEX
  5
C0D0
  8
PROF
 10
1.162585952091659
 20
9.0283679183919503
 30
0.0000000000000001
 70
     8
  0
VERTEX
  5
C0D1
  8
PROF
 10
1.1227248330997091
 20
9.0154846249635021
 30
0.0000000000000001
 70
     8
  0
VERTEX
  5
C0D2
  8
PROF
 10
1.0829726247361
 20
9.0034643862466055
 30
0.0000000000000001
 70
     8
  0
VERTEX
  5
C0D3
  8
PROF
 10
1.043018771466222
 20
8.9903994061946833
 30
0.0000000000000001
 70
     8
  0
VERTEX
  5
C0D4
  8
PROF
 10
1.002449648775211
 20
8.9740395195925622
 30
0.0000000000000001
 70
     8
  0
VERTEX
  5
C0D5
  8
PROF
 10
0.9608516321480919
 20
8.9521345612251935
 30
0.0000000000000001
 70
     8
  0
VERTEX
  5
C0D6
  8
PROF
 10
0.9178110970699435
 20
8.9224343658775052
 30
0.0000000000000001
 70
     8
  0
VERTEX
  5
C0D7
  8
PROF
 10
0.8729144190259033
 20
8.8826887683343312
 30
0.0000000000000001
 70
     8
  0
VERTEX
  5
C0D8
  8
PROF
 10
0.8257479735009949
 20
8.8306476033806121
 30
0.0000000000000001
 70
     8
  0
VERTEX
  5
C0D9
  8
PROF
 10
0.7758981359802988
 20
8.764060705801171
 30
0.0000000000000001
 70
     8
  0
VERTEX
  5
C0DA
  8
PROF
 10
1.7292019016096549
 20
9.8629858761255491
 30
0.0000000000000001
 70
    16
  0
VERTEX
  5
C0DB
  8
PROF
 10
1.679373123114088
 20
9.4532143012734213
 30
0.0000000000000001
 70
    16
  0
VERTEX
  5
C0DC
  8
PROF
 10
1.4455611507419801
 20
9.1391837193732481
 30
0.0000000000000001
 70
    16
  0
VERTEX
  5
C0DD
  8
PROF
 10
1.1204637172738201
 20
9.0026267702428413
 30
0.0000000000000001
 70
    16
  0
VERTEX
  5
C0DE
  8
PROF
 10
0.9127765582653638
 20
8.9630202230383702
 30
0.0000000000000001
 70
    16
  0
VERTEX
  5
C0DF
  8
PROF
 10
0.7758981359802988
 20
8.764060705801171
 30
0.0000000000000001
 70
    16
  0
SEQEND
  5
C0E0
  8
PROF
  0
ARC
  5
C0E1
  8
PROF
 10
0.733429816733235
 20
8.4849506952165257
 30
0.0000000000000001
 40
0.2823224329524727
 50
269.73652020831901
 51
81.348449993176914
  0
LINE
  5
C0E2
  8
PROF
  6
CONTINUOUS
 10
-0.0000008570117416
 20
9.1943336957369848
 30
-0.0000000000000001
 11
3.6306271195888362
 21
13.325025853350891
 31
0.0000000000000002
  0
POLYLINE
  5
C0E3
  8
PROF
 66
     1
 10
0.0
 20
0.0
 30
0.0000000000000001
 70
     4
 75
     6
  0
VERTEX
  5
C0E4
  8
PROF
 10
4.519857503186925
 20
12.72227734589444
 30
0.0000000000000001
 70
    16
  0
VERTEX
  5
C0E5
  8
PROF
 10
4.519857503186925
 20
12.72227734589444
 30
0.0000000000000001
 70
     8
  0
VERTEX
  5
C0E6
  8
PROF
 10
4.4467035366886289
 20
12.741128108778071
 30
0.0000000000000001
 70
     8
  0
VERTEX
  5
C0E7
  8
PROF
 10
4.3786645761268801
 20
12.754675269913941
 30
0.0000000000000001
 70
     8
  0
VERTEX
  5
C0E8
  8
PROF
 10
4.3154364111440469
 20
12.76334314092332
 30
0.0000000000000001
 70
     8
  0
VERTEX
  5
C0E9
  8
PROF
 10
4.256714831382566
 20
12.76755603342724
 30
0.0000000000000001
 70
     8
  0
VERTEX
  5
C0EA
  8
PROF
 10
4.2021956264849791
 20
12.76773825904672
 30
0.0000000000000001
 70
     8
  0
VERTEX
  5
C0EB
  8
PROF
 10
4.1515745860935436
 20
12.764314129403139
 30
0.0000000000000001
 70
     8
  0
VERTEX
  5
C0EC
  8
PROF
 10
4.1045474998508649
 20
12.75770795611743
 30
0.0000000000000001
 70
     8
  0
VERTEX
  5
C0ED
  8
PROF
 10
4.0608101573993149
 20
12.748344050810831
 30
0.0000000000000001
 70
     8
  0
VERTEX
  5
C0EE
  8
PROF
 10
4.0200583483813261
 20
12.736646725104491
 30
0.0000000000000001
 70
     8
  0
VERTEX
  5
C0EF
  8
PROF
 10
3.981987862439381
 20
12.72304029061945
 30
0.0000000000000001
 70
     8
  0
VERTEX
  5
C0F0
  8
PROF
 10
3.946294489215858
 20
12.707949058976959
 30
0.0000000000000001
 70
     8
  0
VERTEX
  5
C0F1
  8
PROF
 10
3.912674018353242
 20
12.691797341798059
 30
0.0000000000000001
 70
     8
  0
VERTEX
  5
C0F2
  8
PROF
 10
3.8808638350742499
 20
12.67494295718654
 30
0.0000000000000001
 70
     8
  0
VERTEX
  5
C0F3
  8
PROF
 10
3.850767706922738
 20
12.65747774917668
 30
0.0000000000000001
 70
     8
  0
VERTEX
  5
C0F4
  8
PROF
 10
3.8223309970228438
 20
12.639427068285499
 30
0.0000000000000001
 70
     8
  0
VERTEX
  5
C0F5
  8
PROF
 10
3.795499068498712
 20
12.62081626503004
 30
0.0000000000000001
 70
     8
  0
VERTEX
  5
C0F6
  8
PROF
 10
3.7702172844744819
 20
12.601670689926999
 30
0.0000000000000001
 70
     8
  0
VERTEX
  5
C0F7
  8
PROF
 10
3.7464310080743521
 20
12.58201569349364
 30
0.0000000000000001
 70
     8
  0
VERTEX
  5
C0F8
  8
PROF
 10
3.7240856024224609
 20
12.56187662624666
 30
0.0000000000000001
 70
     8
  0
VERTEX
  5
C0F9
  8
PROF
 10
3.7031264306428961
 20
12.541278838703191
 30
0.0000000000000001
 70
     8
  0
VERTEX
  5
C0FA
  8
PROF
 10
3.683498855859908
 20
12.520247681380051
 30
0.0000000000000001
 70
     8
  0
VERTEX
  5
C0FB
  8
PROF
 10
3.665148241197528
 20
12.49880850479428
 30
0.0000000000000001
 70
     8
  0
VERTEX
  5
C0FC
  8
PROF
 10
3.648019949779949
 20
12.47698665946279
 30
0.0000000000000001
 70
     8
  0
VERTEX
  5
C0FD
  8
PROF
 10
3.6320593447313159
 20
12.45480749590263
 30
0.0000000000000001
 70
     8
  0
VERTEX
  5
C0FE
  8
PROF
 10
3.617189584886658
 20
12.43223790353807
 30
0.0000000000000001
 70
     8
  0
VERTEX
  5
C0FF
  8
PROF
 10
3.6032450119242849
 20
12.40901092742285
 30
0.0000000000000001
 70
     8
  0
VERTEX
  5
C100
  8
PROF
 10
3.590037763233453
 20
12.38480115151844
 30
0.0000000000000001
 70
     8
  0
VERTEX
  5
C101
  8
PROF
 10
3.5773799762033032
 20
12.35928315978594
 30
0.0000000000000001
 70
     8
  0
VERTEX
  5
C102
  8
PROF
 10
3.5650837882230899
 20
12.33213153618658
 30
0.0000000000000001
 70
     8
  0
VERTEX
  5
C103
  8
PROF
 10
3.552961336681959
 20
12.303020864681571
 30
0.0000000000000001
 70
     8
  0
VERTEX
  5
C104
  8
PROF
 10
3.540824758969165
 20
12.271625729232371
 30
0.0000000000000001
 70
     8
  0
VERTEX
  5
C105
  8
PROF
 10
3.528486192473848
 20
12.23762071379997
 30
0.0000000000000001
 70
     8
  0
VERTEX
  5
C106
  8
PROF
 10
3.5157577745852659
 20
12.200680402345711
 30
0.0000000000000001
 70
     8
  0
VERTEX
  5
C107
  8
PROF
 10
3.502451642692618
 20
12.16047937883093
 30
0.0000000000000001
 70
     8
  0
VERTEX
  5
C108
  8
PROF
 10
3.4883799341851041
 20
12.116692227216619
 30
0.0000000000000001
 70
     8
  0
VERTEX
  5
C109
  8
PROF
 10
3.4733547864519201
 20
12.06899353146423
 30
0.0000000000000001
 70
     8
  0
VERTEX
  5
C10A
  8
PROF
 10
3.45723654619428
 20
12.0172095445447
 30
0.0000000000000001
 70
     8
  0
VERTEX
  5
C10B
  8
PROF
 10
3.440078397361388
 20
11.961773195467799
 30
0.0000000000000001
 70
     8
  0
VERTEX
  5
C10C
  8
PROF
 10
3.4219817332145781
 20
11.90326908225302
 30
0.0000000000000001
 70
     8
  0
VERTEX
  5
C10D
  8
PROF
 10
3.4030479470150099
 20
11.842281802919951
 30
0.0000000000000001
 70
     8
  0
VERTEX
  5
C10E
  8
PROF
 10
3.383378432024017
 20
11.779395955487979
 30
0.0000000000000001
 70
     8
  0
VERTEX
  5
C10F
  8
PROF
 10
3.36307458150287
 20
11.7151961379768
 30
0.0000000000000001
 70
     8
  0
VERTEX
  5
C110
  8
PROF
 10
3.342237788712735
 20
11.650266948405831
 30
0.0000000000000001
 70
     8
  0
VERTEX
  5
C111
  8
PROF
 10
3.3209694469149991
 20
11.58519298479461
 30
0.0000000000000001
 70
     8
  0
VERTEX
  5
C112
  8
PROF
 10
3.299370949370767
 20
11.52055884516254
 30
0.0000000000000001
 70
     8
  0
VERTEX
  5
C113
  8
PROF
 10
3.277543689341428
 20
11.456949127529461
 30
0.0000000000000001
 70
     8
  0
VERTEX
  5
C114
  8
PROF
 10
3.2555890600881399
 20
11.3949484299145
 30
0.0000000000000001
 70
     8
  0
VERTEX
  5
C115
  8
PROF
 10
3.2336084548721811
 20
11.335141350337491
 30
0.0000000000000001
 70
     8
  0
VERTEX
  5
C116
  8
PROF
 10
3.2116715641212181
 20
11.277995447977769
 30
0.0000000000000001
 70
     8
  0
VERTEX
  5
C117
  8
PROF
 10
3.1897212669278461
 20
11.22351012665467
 30
0.0000000000000001
 70
     8
  0
VERTEX
  5
C118
  8
PROF
 10
3.1676687395512881
 20
11.17156775134765
 30
0.0000000000000001
 70
     8
  0
VERTEX
  5
C119
  8
PROF
 10
3.1454251582505321
 20
11.12205068703588
 30
0.0000000000000001
 70
     8
  0
VERTEX
  5
C11A
  8
PROF
 10
3.122901699284625
 20
11.07484129869874
 30
0.0000000000000001
 70
     8
  0
VERTEX
  5
C11B
  8
PROF
 10
3.1000095389127278
 20
11.02982195131551
 30
0.0000000000000001
 70
     8
  0
VERTEX
  5
C11C
  8
PROF
 10
3.07665985339389
 20
10.986875009865679
 30
0.0000000000000001
 70
     8
  0
VERTEX
  5
C11D
  8
PROF
 10
3.0527638189871591
 20
10.9458828393283
 30
0.0000000000000001
 70
     8
  0
VERTEX
  5
C11E
  8
PROF
 10
3.0282326119516361
 20
10.90672780468298
 30
0.0000000000000001
 70
     8
  0
VERTEX
  5
C11F
  8
PROF
 10
3.0029774085463701
 20
10.869292270908771
 30
0.0000000000000001
 70
     8
  0
VERTEX
  5
C120
  8
PROF
 10
2.9769093850304089
 20
10.833458602985161
 30
0.0000000000000001
 70
     8
  0
VERTEX
  5
C121
  8
PROF
 10
2.9499397176628559
 20
10.799109165891419
 30
0.0000000000000001
 70
     8
  0
VERTEX
  5
C122
  8
PROF
 10
2.922000609840437
 20
10.76614363969508
 30
0.0000000000000001
 70
     8
  0
VERTEX
  5
C123
  8
PROF
 10
2.8931083735102998
 20
10.7345309648158
 30
0.0000000000000001
 70
     8
  0
VERTEX
  5
C124
  8
PROF
 10
2.8633003477572729
 20
10.70425739676193
 30
0.0000000000000001
 70
     8
  0
VERTEX
  5
C125
  8
PROF
 10
2.8326138716660689
 20
10.67530919104115
 30
0.0000000000000001
 70
     8
  0
VERTEX
  5
C126
  8
PROF
 10
2.801086284321626
 20
10.647672603161711
 30
0.0000000000000001
 70
     8
  0
VERTEX
  5
C127
  8
PROF
 10
2.7687549248087162
 20
10.62133388863162
 30
0.0000000000000001
 70
     8
  0
VERTEX
  5
C128
  8
PROF
 10
2.7356571322120531
 20
10.5962793029588
 30
0.0000000000000001
 70
     8
  0
VERTEX
  5
C129
  8
PROF
 10
2.7018302456165202
 20
10.572495101651381
 30
0.0000000000000001
 70
     8
  0
VERTEX
  5
C12A
  8
PROF
 10
2.6673116041068838
 20
10.54996754021726
 30
0.0000000000000001
 70
     8
  0
VERTEX
  5
C12B
  8
PROF
 10
2.6321385467680321
 20
10.528682874164581
 30
0.0000000000000001
 70
     8
  0
VERTEX
  5
C12C
  8
PROF
 10
2.5963484126846179
 20
10.508627359001251
 30
0.0000000000000001
 70
     8
  0
VERTEX
  5
C12D
  8
PROF
 10
2.5599785409415841
 20
10.489787250235279
 30
0.0000000000000001
 70
     8
  0
VERTEX
  5
C12E
  8
PROF
 10
2.522998630314361
 20
10.472162234281081
 30
0.0000000000000001
 70
     8
  0
VERTEX
  5
C12F
  8
PROF
 10
2.4851078183409072
 20
10.455805721177621
 30
0.0000000000000001
 70
     8
  0
VERTEX
  5
C130
  8
PROF
 10
2.4459376022498982
 20
10.44078455187036
 30
0.0000000000000001
 70
     8
  0
VERTEX
  5
C131
  8
PROF
 10
2.4051194792701249
 20
10.42716556730465
 30
0.0000000000000001
 70
     8
  0
VERTEX
  5
C132
  8
PROF
 10
2.3622849466301541
 20
10.415015608425851
 30
0.0000000000000001
 70
     8
  0
VERTEX
  5
C133
  8
PROF
 10
2.317065501558714
 20
10.40440151617929
 30
0.0000000000000001
 70
     8
  0
VERTEX
  5
C134
  8
PROF
 10
2.2690926412844301
 20
10.395390131510339
 30
0.0000000000000001
 70
     8
  0
VERTEX
  5
C135
  8
PROF
 10
2.2179978630360879
 20
10.388048295364451
 30
0.0000000000000001
 70
     8
  0
VERTEX
  5
C136
  8
PROF
 10
2.1634126640422551
 20
10.38244284868688
 30
0.0000000000000001
 70
     8
  0
VERTEX
  5
C137
  8
PROF
 10
2.1049685415316031
 20
10.37864063242295
 30
0.0000000000000001
 70
     8
  0
VERTEX
  5
C138
  8
PROF
 10
2.0422969927328709
 20
10.37670848751816
 30
0.0000000000000001
 70
     8
  0
VERTEX
  5
C139
  8
PROF
 10
1.9750295148747341
 20
10.37671325491794
 30
0.0000000000000001
 70
     8
  0
VERTEX
  5
C13A
  8
PROF
 10
4.2166060115107484
 20
12.80885334975255
 30
0.0000000000000001
 70
    16
  0
VERTEX
  5
C13B
  8
PROF
 10
3.8702254102732909
 20
12.707065515763929
 30
0.0000000000000001
 70
    16
  0
VERTEX
  5
C13C
  8
PROF
 10
3.605346156896871
 20
12.46277472098552
 30
0.0000000000000001
 70
    16
  0
VERTEX
  5
C13D
  8
PROF
 10
3.500746030527238
 20
12.170680575709749
 30
0.0000000000000001
 70
    16
  0
VERTEX
  5
C13E
  8
PROF
 10
3.231798439705698
 20
11.26846416496107
 30
0.0000000000000001
 70
    16
  0
VERTEX
  5
C13F
  8
PROF
 10
2.9737109398832882
 20
10.76631086647069
 30
0.0000000000000001
 70
    16
  0
VERTEX
  5
C140
  8
PROF
 10
2.5729961067384002
 20
10.460947364504699
 30
0.0000000000000001
 70
    16
  0
VERTEX
  5
C141
  8
PROF
 10
2.2537826214546031
 20
10.372731239449759
 30
0.0000000000000001
 70
    16
  0
VERTEX
  5
C142
  8
PROF
 10
1.9750295148747341
 20
10.37671325491794
 30
0.0000000000000001
 70
    16
  0
SEQEND
  5
C143
  8
PROF
  0
LINE
  5
C144
  8
PROF
 10
4.9012016798694162
 20
12.88585218805485
 30
0.0000000000000003
 11
4.519857503186925
 21
12.88585218805485
 31
0.0000000000000003
  0
LINE
  5
C145
  8
PROF
 10
0.7321315362267457
 20
8.2026312473991556
 30
0.0000000000000006
 11
0.7321315362267457
 21
8.0511853963434952
 31
0.0000000000000006
  0
ARC
  5
C146
  8
PROF
 10
0.7977322214551919
 20
7.577333933202679
 30
0.0000000000000006
 40
0.4783708383912013
 50
97.882010168942557
 51
186.31119505698641
  0
LINE
  5
C147
  8
FRAME_050
 10
7.8016377197432121
 20
17.99371054969447
 30
0.0
 11
7.8016377197432121
 21
0.0000000000002274
 31
0.0
  0
ENDBLK
  5
C149
  8
0
  0
BLOCK
  8
0
  2
*U7
 70
     1
 10
0.0
 20
0.0
 30
0.0
  3
*U7
  1

  0
TEXT
  5
C8C3
  8
0
 10
3.5177832928899071
 20
10.38601584255777
 30
0.0
 40
0.125
  1
Crown Moulding
  0
TEXT
  5
C8C4
  8
0
 10
3.5223876585106431
 20
10.17717091304435
 30
0.0
 40
0.125
  1
TL-AB509
  0
TEXT
  5
C8C5
  8
0
 10
3.5074661032582561
 20
9.9667059289606801
 30
0.0
 40
0.125
  1
1-5/16" x 7-9/16"
  0
TEXT
  5
C8C6
  8
0
 10
3.519403347460166
 20
9.7562409448770051
 30
0.0
 40
0.125
  1
800.66.TAGUE
  0
ENDBLK
  5
C8C8
  8
0
  0
BLOCK
  8
0
  2
*U10
 70
     1
 10
0.0
 20
0.0
 30
0.0
  3
*U10
  1

  0
TEXT
  5
CB5C
  8
0
 10
-386.59673830236471
 20
838.18423576007422
 30
0.0
 40
0.125
  1
Exterior Casing
  0
TEXT
  5
CB5D
  8
0
 10
-386.59673830236471
 20
837.97590242674084
 30
0.0
 40
0.125
  1
TL-2158
  0
TEXT
  5
CB5E
  8
0
 10
-386.59673830236471
 20
837.76756909340759
 30
0.0
 40
0.125
  1
1-1/16" x 1-5/16"
  0
TEXT
  5
CB5F
  8
0
 10
-386.59673830236471
 20
837.55923576007422
 30
0.0
 40
0.125
  1
800.66.TAGUE
  0
ENDBLK
  5
CB61
  8
0
  0
ENDSEC
  0
SECTION
  2
ENTITIES
  0
INSERT
  5
CAFE
  8
0
  2
*U10
 10
0.0
 20
0.0
 30
0.0
  0
POLYLINE
  8
0
  5
CB62
  66
     1
 10
0.000000
 20
0.000000
 30
0.000000
  70
     8
  0
VERTEX
  8
0
  5
CB63
 10
-388.185
 20
837.523
 30
0.000000
  70
    32
  0
VERTEX
  8
0
  5
CB64
 10
-388.183
 20
837.519
 30
0.000000
  70
    32
  0
VERTEX
  8
0
  5
CB65
 10
-388.181
 20
837.515
 30
0.000000
  70
    32
  0
VERTEX
  8
0
  5
CB66
 10
-388.179
 20
837.512
 30
0.000000
  70
    32
  0
VERTEX
  8
0
  5
CB67
 10
-388.177
 20
837.508
 30
0.000000
  70
    32
  0
VERTEX
  8
0
  5
CB68
 10
-388.176
 20
837.504
 30
0.000000
  70
    32
  0
VERTEX
  8
0
  5
CB69
 10
-388.174
 20
837.500
 30
0.000000
  70
    32
  0
VERTEX
  8
0
  5
CB6A
 10
-388.172
 20
837.496
 30
0.000000
  70
    32
  0
VERTEX
  8
0
  5
CB6B
 10
-388.170
 20
837.492
 30
0.000000
  70
    32
  0
VERTEX
  8
0
  5
CB6C
 10
-388.168
 20
837.488
 30
0.000000
  70
    32
  0
VERTEX
  8
0
  5
CB6D
 10
-388.166
 20
837.484
 30
0.000000
  70
    32
  0
VERTEX
  8
0
  5
CB6E
 10
-388.164
 20
837.481
 30
0.000000
  70
    32
  0
VERTEX
  8
0
  5
CB6F
 10
-388.162
 20
837.477
 30
0.000000
  70
    32
  0
VERTEX
  8
0
  5
CB70
 10
-388.160
 20
837.473
 30
0.000000
  70
    32
  0
VERTEX
  8
0
  5
CB71
 10
-388.158
 20
837.469
 30
0.000000
  70
    32
  0
VERTEX
  8
0
  5
CB72
 10
-388.156
 20
837.465
 30
0.000000
  70
    32
  0
VERTEX
  8
0
  5
CB73
 10
-388.154
 20
837.461
 30
0.000000
  70
    32
  0
VERTEX
  8
0
  5
CB74
 10
-388.152
 20
837.458
 30
0.000000
  70
    32
  0
VERTEX
  8
0
  5
CB75
 10
-388.150
 20
837.454
 30
0.000000
  70
    32
  0
VERTEX
  8
0
  5
CB76
 10
-388.148
 20
837.450
 30
0.000000
  70
    32
  0
VERTEX
  8
0
  5
CB77
 10
-388.145
 20
837.446
 30
0.000000
  70
    32
  0
VERTEX
  8
0
  5
CB78
 10
-388.143
 20
837.443
 30
0.000000
  70
    32
  0
VERTEX
  8
0
  5
CB79
 10
-388.141
 20
837.439
 30
0.000000
  70
    32
  0
VERTEX
  8
0
  5
CB7A
 10
-388.139
 20
837.435
 30
0.000000
  70
    32
  0
VERTEX
  8
0
  5
CB7B
 10
-388.136
 20
837.432
 30
0.000000
  70
    32
  0
VERTEX
  8
0
  5
CB7C
 10
-388.134
 20
837.428
 30
0.000000
  70
    32
  0
VERTEX
  8
0
  5
CB7D
 10
-388.132
 20
837.425
 30
0.000000
  70
    32
  0
VERTEX
  8
0
  5
CB7E
 10
-388.129
 20
837.421
 30
0.000000
  70
    32
  0
VERTEX
  8
0
  5
CB7F
 10
-388.127
 20
837.418
 30
0.000000
  70
    32
  0
VERTEX
  8
0
  5
CB80
 10
-388.124
 20
837.414
 30
0.000000
  70
    32
  0
VERTEX
  8
0
  5
CB81
 10
-388.121
 20
837.411
 30
0.000000
  70
    32
  0
VERTEX
  8
0
  5
CB82
 10
-388.119
 20
837.408
 30
0.000000
  70
    32
  0
VERTEX
  8
0
  5
CB83
 10
-388.116
 20
837.405
 30
0.000000
  70
    32
  0
VERTEX
  8
0
  5
CB84
 10
-388.113
 20
837.402
 30
0.000000
  70
    32
  0
VERTEX
  8
0
  5
CB85
 10
-388.110
 20
837.399
 30
0.000000
  70
    32
  0
VERTEX
  8
0
  5
CB86
 10
-388.107
 20
837.395
 30
0.000000
  70
    32
  0
VERTEX
  8
0
  5
CB87
 10
-388.104
 20
837.393
 30
0.000000
  70
    32
  0
VERTEX
  8
0
  5
CB88
 10
-388.101
 20
837.390
 30
0.000000
  70
    32
  0
VERTEX
  8
0
  5
CB89
 10
-388.098
 20
837.387
 30
0.000000
  70
    32
  0
VERTEX
  8
0
  5
CB8A
 10
-388.095
 20
837.384
 30
0.000000
  70
    32
  0
VERTEX
  8
0
  5
CB8B
 10
-388.091
 20
837.381
 30
0.000000
  70
    32
  0
VERTEX
  8
0
  5
CB8C
 10
-388.088
 20
837.379
 30
0.000000
  70
    32
  0
VERTEX
  8
0
  5
CB8D
 10
-388.085
 20
837.376
 30
0.000000
  70
    32
  0
VERTEX
  8
0
  5
CB8E
 10
-388.081
 20
837.374
 30
0.000000
  70
    32
  0
VERTEX
  8
0
  5
CB8F
 10
-388.078
 20
837.371
 30
0.000000
  70
    32
  0
VERTEX
  8
0
  5
CB90
 10
-388.074
 20
837.369
 30
0.000000
  70
    32
  0
VERTEX
  8
0
  5
CB91
 10
-388.070
 20
837.367
 30
0.000000
  70
    32
  0
VERTEX
  8
0
  5
CB92
 10
-388.067
 20
837.365
 30
0.000000
  70
    32
  0
VERTEX
  8
0
  5
CB93
 10
-388.063
 20
837.363
 30
0.000000
  70
    32
  0
VERTEX
  8
0
  5
CB94
 10
-388.059
 20
837.360
 30
0.000000
  70
    32
  0
VERTEX
  8
0
  5
CB95
 10
-388.055
 20
837.358
 30
0.000000
  70
    32
  0
VERTEX
  8
0
  5
CB96
 10
-388.051
 20
837.357
 30
0.000000
  70
    32
  0
VERTEX
  8
0
  5
CB97
 10
-388.048
 20
837.355
 30
0.000000
  70
    32
  0
VERTEX
  8
0
  5
CB98
 10
-388.044
 20
837.353
 30
0.000000
  70
    32
  0
VERTEX
  8
0
  5
CB99
 10
-388.040
 20
837.351
 30
0.000000
  70
    32
  0
VERTEX
  8
0
  5
CB9A
 10
-388.035
 20
837.350
 30
0.000000
  70
    32
  0
VERTEX
  8
0
  5
CB9B
 10
-388.031
 20
837.348
 30
0.000000
  70
    32
  0
VERTEX
  8
0
  5
CB9C
 10
-388.027
 20
837.347
 30
0.000000
  70
    32
  0
VERTEX
  8
0
  5
CB9D
 10
-388.023
 20
837.345
 30
0.000000
  70
    32
  0
VERTEX
  8
0
  5
CB9E
 10
-388.019
 20
837.344
 30
0.000000
  70
    32
  0
VERTEX
  8
0
  5
CB9F
 10
-388.015
 20
837.343
 30
0.000000
  70
    32
  0
VERTEX
  8
0
  5
CBA0
 10
-388.010
 20
837.341
 30
0.000000
  70
    32
  0
VERTEX
  8
0
  5
CBA1
 10
-388.006
 20
837.340
 30
0.000000
  70
    32
  0
VERTEX
  8
0
  5
CBA2
 10
-388.002
 20
837.339
 30
0.000000
  70
    32
  0
VERTEX
  8
0
  5
CBA3
 10
-387.998
 20
837.338
 30
0.000000
  70
    32
  0
VERTEX
  8
0
  5
CBA4
 10
-387.993
 20
837.337
 30
0.000000
  70
    32
  0
VERTEX
  8
0
  5
CBA5
 10
-387.989
 20
837.336
 30
0.000000
  70
    32
  0
VERTEX
  8
0
  5
CBA6
 10
-387.985
 20
837.335
 30
0.000000
  70
    32
  0
VERTEX
  8
0
  5
CBA7
 10
-387.980
 20
837.335
 30
0.000000
  70
    32
  0
VERTEX
  8
0
  5
CBA8
 10
-387.976
 20
837.334
 30
0.000000
  70
    32
  0
VERTEX
  8
0
  5
CBA9
 10
-387.971
 20
837.333
 30
0.000000
  70
    32
  0
VERTEX
  8
0
  5
CBAA
 10
-387.967
 20
837.333
 30
0.000000
  70
    32
  0
VERTEX
  8
0
  5
CBAB
 10
-387.963
 20
837.332
 30
0.000000
  70
    32
  0
VERTEX
  8
0
  5
CBAC
 10
-387.958
 20
837.332
 30
0.000000
  70
    32
  0
VERTEX
  8
0
  5
CBAD
 10
-387.954
 20
837.332
 30
0.000000
  70
    32
  0
VERTEX
  8
0
  5
CBAE
 10
-387.949
 20
837.332
 30
0.000000
  70
    32
  0
VERTEX
  8
0
  5
CBAF
 10
-387.945
 20
837.331
 30
0.000000
  70
    32
  0
VERTEX
  8
0
  5
CBB0
 10
-387.941
 20
837.331
 30
0.000000
  70
    32
  0
VERTEX
  8
0
  5
CBB1
 10
-387.936
 20
837.331
 30
0.000000
  70
    32
  0
VERTEX
  8
0
  5
CBB2
 10
-387.932
 20
837.331
 30
0.000000
  70
    32
  0
VERTEX
  8
0
  5
CBB3
 10
-387.928
 20
837.331
 30
0.000000
  70
    32
  0
VERTEX
  8
0
  5
CBB4
 10
-387.923
 20
837.332
 30
0.000000
  70
    32
  0
VERTEX
  8
0
  5
CBB5
 10
-387.919
 20
837.332
 30
0.000000
  70
    32
  0
VERTEX
  8
0
  5
CBB6
 10
-387.915
 20
837.332
 30
0.000000
  70
    32
  0
VERTEX
  8
0
  5
CBB7
 10
-387.910
 20
837.332
 30
0.000000
  70
    32
  0
VERTEX
  8
0
  5
CBB8
 10
-387.906
 20
837.333
 30
0.000000
  70
    32
  0
VERTEX
  8
0
  5
CBB9
 10
-387.902
 20
837.333
 30
0.000000
  70
    32
  0
VERTEX
  8
0
  5
CBBA
 10
-387.897
 20
837.334
 30
0.000000
  70
    32
  0
VERTEX
  8
0
  5
CBBB
 10
-387.893
 20
837.335
 30
0.000000
  70
    32
  0
VERTEX
  8
0
  5
CBBC
 10
-387.889
 20
837.335
 30
0.000000
  70
    32
  0
VERTEX
  8
0
  5
CBBD
 10
-387.884
 20
837.336
 30
0.000000
  70
    32
  0
VERTEX
  8
0
  5
CBBE
 10
-387.880
 20
837.337
 30
0.000000
  70
    32
  0
VERTEX
  8
0
  5
CBBF
 10
-387.876
 20
837.338
 30
0.000000
  70
    32
  0
VERTEX
  8
0
  5
CBC0
 10
-387.872
 20
837.339
 30
0.000000
  70
    32
  0
VERTEX
  8
0
  5
CBC1
 10
-387.867
 20
837.339
 30
0.000000
  70
    32
  0
VERTEX
  8
0
  5
CBC2
 10
-387.863
 20
837.341
 30
0.000000
  70
    32
  0
VERTEX
  8
0
  5
CBC3
 10
-387.859
 20
837.342
 30
0.000000
  70
    32
  0
VERTEX
  8
0
  5
CBC4
 10
-387.855
 20
837.343
 30
0.000000
  70
    32
  0
VERTEX
  8
0
  5
CBC5
 10
-387.851
 20
837.344
 30
0.000000
  70
    32
  0
VERTEX
  8
0
  5
CBC6
 10
-387.847
 20
837.345
 30
0.000000
  70
    32
  0
VERTEX
  8
0
  5
CBC7
 10
-387.842
 20
837.347
 30
0.000000
  70
    32
  0
VERTEX
  8
0
  5
CBC8
 10
-387.838
 20
837.348
 30
0.000000
  70
    32
  0
VERTEX
  8
0
  5
CBC9
 10
-387.834
 20
837.349
 30
0.000000
  70
    32
  0
VERTEX
  8
0
  5
CBCA
 10
-387.830
 20
837.351
 30
0.000000
  70
    32
  0
VERTEX
  8
0
  5
CBCB
 10
-387.826
 20
837.352
 30
0.000000
  70
    32
  0
VERTEX
  8
0
  5
CBCC
 10
-387.822
 20
837.354
 30
0.000000
  70
    32
  0
VERTEX
  8
0
  5
CBCD
 10
-387.818
 20
837.356
 30
0.000000
  70
    32
  0
VERTEX
  8
0
  5
CBCE
 10
-387.814
 20
837.357
 30
0.000000
  70
    32
  0
VERTEX
  8
0
  5
CBCF
 10
-387.810
 20
837.359
 30
0.000000
  70
    32
  0
VERTEX
  8
0
  5
CBD0
 10
-387.806
 20
837.361
 30
0.000000
  70
    32
  0
VERTEX
  8
0
  5
CBD1
 10
-387.802
 20
837.363
 30
0.000000
  70
    32
  0
VERTEX
  8
0
  5
CBD2
 10
-387.799
 20
837.364
 30
0.000000
  70
    32
  0
VERTEX
  8
0
  5
CBD3
 10
-387.795
 20
837.366
 30
0.000000
  70
    32
  0
VERTEX
  8
0
  5
CBD4
 10
-387.791
 20
837.368
 30
0.000000
  70
    32
  0
VERTEX
  8
0
  5
CBD5
 10
-387.787
 20
837.370
 30
0.000000
  70
    32
  0
VERTEX
  8
0
  5
CBD6
 10
-387.783
 20
837.372
 30
0.000000
  70
    32
  0
VERTEX
  8
0
  5
CBD7
 10
-387.780
 20
837.375
 30
0.000000
  70
    32
  0
VERTEX
  8
0
  5
CBD8
 10
-387.776
 20
837.377
 30
0.000000
  70
    32
  0
VERTEX
  8
0
  5
CBD9
 10
-387.772
 20
837.379
 30
0.000000
  70
    32
  0
VERTEX
  8
0
  5
CBDA
 10
-387.769
 20
837.381
 30
0.000000
  70
    32
  0
VERTEX
  8
0
  5
CBDB
 10
-387.765
 20
837.383
 30
0.000000
  70
    32
  0
VERTEX
  8
0
  5
CBDC
 10
-387.762
 20
837.386
 30
0.000000
  70
    32
  0
VERTEX
  8
0
  5
CBDD
 10
-387.758
 20
837.388
 30
0.000000
  70
    32
  0
VERTEX
  8
0
  5
CBDE
 10
-387.754
 20
837.391
 30
0.000000
  70
    32
  0
VERTEX
  8
0
  5
CBDF
 10
-387.751
 20
837.393
 30
0.000000
  70
    32
  0
VERTEX
  8
0
  5
CBE0
 10
-387.747
 20
837.396
 30
0.000000
  70
    32
  0
VERTEX
  8
0
  5
CBE1
 10
-387.744
 20
837.398
 30
0.000000
  70
    32
  0
VERTEX
  8
0
  5
CBE2
 10
-387.741
 20
837.401
 30
0.000000
  70
    32
  0
VERTEX
  8
0
  5
CBE3
 10
-387.737
 20
837.403
 30
0.000000
  70
    32
  0
VERTEX
  8
0
  5
CBE4
 10
-387.734
 20
837.406
 30
0.000000
  70
    32
  0
VERTEX
  8
0
  5
CBE5
 10
-387.731
 20
837.409
 30
0.000000
  70
    32
  0
VERTEX
  8
0
  5
CBE6
 10
-387.727
 20
837.411
 30
0.000000
  70
    32
  0
VERTEX
  8
0
  5
CBE7
 10
-387.724
 20
837.414
 30
0.000000
  70
    32
  0
VERTEX
  8
0
  5
CBE8
 10
-387.721
 20
837.417
 30
0.000000
  70
    32
  0
VERTEX
  8
0
  5
CBE9
 10
-387.718
 20
837.420
 30
0.000000
  70
    32
  0
VERTEX
  8
0
  5
CBEA
 10
-387.714
 20
837.422
 30
0.000000
  70
    32
  0
VERTEX
  8
0
  5
CBEB
 10
-387.711
 20
837.425
 30
0.000000
  70
    32
  0
VERTEX
  8
0
  5
CBEC
 10
-387.708
 20
837.428
 30
0.000000
  70
    32
  0
VERTEX
  8
0
  5
CBED
 10
-387.705
 20
837.431
 30
0.000000
  70
    32
  0
VERTEX
  8
0
  5
CBEE
 10
-387.702
 20
837.434
 30
0.000000
  70
    32
  0
VERTEX
  8
0
  5
CBEF
 10
-387.699
 20
837.437
 30
0.000000
  70
    32
  0
VERTEX
  8
0
  5
CBF0
 10
-387.696
 20
837.440
 30
0.000000
  70
    32
  0
VERTEX
  8
0
  5
CBF1
 10
-387.692
 20
837.443
 30
0.000000
  70
    32
  0
VERTEX
  8
0
  5
CBF2
 10
-387.689
 20
837.446
 30
0.000000
  70
    32
  0
VERTEX
  8
0
  5
CBF3
 10
-387.686
 20
837.449
 30
0.000000
  70
    32
  0
VERTEX
  8
0
  5
CBF4
 10
-387.683
 20
837.452
 30
0.000000
  70
    32
  0
VERTEX
  8
0
  5
CBF5
 10
-387.680
 20
837.455
 30
0.000000
  70
    32
  0
VERTEX
  8
0
  5
CBF6
 10
-387.678
 20
837.458
 30
0.000000
  70
    32
  0
VERTEX
  8
0
  5
CBF7
 10
-387.675
 20
837.461
 30
0.000000
  70
    32
  0
VERTEX
  8
0
  5
CBF8
 10
-387.672
 20
837.465
 30
0.000000
  70
    32
  0
VERTEX
  8
0
  5
CBF9
 10
-387.669
 20
837.468
 30
0.000000
  70
    32
  0
VERTEX
  8
0
  5
CBFA
 10
-387.666
 20
837.471
 30
0.000000
  70
    32
  0
VERTEX
  8
0
  5
CBFB
 10
-387.663
 20
837.474
 30
0.000000
  70
    32
  0
VERTEX
  8
0
  5
CBFC
 10
-387.660
 20
837.477
 30
0.000000
  70
    32
  0
VERTEX
  8
0
  5
CBFD
 10
-387.657
 20
837.481
 30
0.000000
  70
    32
  0
VERTEX
  8
0
  5
CBFE
 10
-387.654
 20
837.484
 30
0.000000
  70
    32
  0
VERTEX
  8
0
  5
CBFF
 10
-387.652
 20
837.487
 30
0.000000
  70
    32
  0
VERTEX
  8
0
  5
CC00
 10
-387.649
 20
837.490
 30
0.000000
  70
    32
  0
VERTEX
  8
0
  5
CC01
 10
-387.646
 20
837.494
 30
0.000000
  70
    32
  0
VERTEX
  8
0
  5
CC02
 10
-387.643
 20
837.497
 30
0.000000
  70
    32
  0
VERTEX
  8
0
  5
CC03
 10
-387.641
 20
837.500
 30
0.000000
  70
    32
  0
VERTEX
  8
0
  5
CC04
 10
-387.638
 20
837.504
 30
0.000000
  70
    32
  0
VERTEX
  8
0
  5
CC05
 10
-387.635
 20
837.507
 30
0.000000
  70
    32
  0
VERTEX
  8
0
  5
CC06
 10
-387.632
 20
837.510
 30
0.000000
  70
    32
  0
VERTEX
  8
0
  5
CC07
 10
-387.630
 20
837.514
 30
0.000000
  70
    32
  0
VERTEX
  8
0
  5
CC08
 10
-387.627
 20
837.517
 30
0.000000
  70
    32
  0
VERTEX
  8
0
  5
CC09
 10
-387.624
 20
837.520
 30
0.000000
  70
    32
  0
VERTEX
  8
0
  5
CC0A
 10
-387.622
 20
837.524
 30
0.000000
  70
    32
  0
VERTEX
  8
0
  5
CC0B
 10
-387.619
 20
837.527
 30
0.000000
  70
    32
  0
VERTEX
  8
0
  5
CC0C
 10
-387.616
 20
837.530
 30
0.000000
  70
    32
  0
VERTEX
  8
0
  5
CC0D
 10
-387.614
 20
837.534
 30
0.000000
  70
    32
  0
VERTEX
  8
0
  5
CC0E
 10
-387.611
 20
837.537
 30
0.000000
  70
    32
  0
VERTEX
  8
0
  5
CC0F
 10
-387.608
 20
837.540
 30
0.000000
  70
    32
  0
VERTEX
  8
0
  5
CC10
 10
-387.606
 20
837.544
 30
0.000000
  70
    32
  0
VERTEX
  8
0
  5
CC11
 10
-387.603
 20
837.547
 30
0.000000
  70
    32
  0
VERTEX
  8
0
  5
CC12
 10
-387.601
 20
837.551
 30
0.000000
  70
    32
  0
VERTEX
  8
0
  5
CC13
 10
-387.598
 20
837.554
 30
0.000000
  70
    32
  0
VERTEX
  8
0
  5
CC14
 10
-387.595
 20
837.557
 30
0.000000
  70
    32
  0
VERTEX
  8
0
  5
CC15
 10
-387.593
 20
837.561
 30
0.000000
  70
    32
  0
VERTEX
  8
0
  5
CC16
 10
-387.590
 20
837.564
 30
0.000000
  70
    32
  0
VERTEX
  8
0
  5
CC17
 10
-387.588
 20
837.568
 30
0.000000
  70
    32
  0
VERTEX
  8
0
  5
CC18
 10
-387.585
 20
837.571
 30
0.000000
  70
    32
  0
VERTEX
  8
0
  5
CC19
 10
-387.583
 20
837.575
 30
0.000000
  70
    32
  0
VERTEX
  8
0
  5
CC1A
 10
-387.580
 20
837.578
 30
0.000000
  70
    32
  0
VERTEX
  8
0
  5
CC1B
 10
-387.578
 20
837.582
 30
0.000000
  70
    32
  0
VERTEX
  8
0
  5
CC1C
 10
-387.575
 20
837.585
 30
0.000000
  70
    32
  0
VERTEX
  8
0
  5
CC1D
 10
-387.573
 20
837.588
 30
0.000000
  70
    32
  0
VERTEX
  8
0
  5
CC1E
 10
-387.570
 20
837.592
 30
0.000000
  70
    32
  0
VERTEX
  8
0
  5
CC1F
 10
-387.568
 20
837.595
 30
0.000000
  70
    32
  0
VERTEX
  8
0
  5
CC20
 10
-387.565
 20
837.599
 30
0.000000
  70
    32
  0
VERTEX
  8
0
  5
CC21
 10
-387.563
 20
837.602
 30
0.000000
  70
    32
  0
VERTEX
  8
0
  5
CC22
 10
-387.560
 20
837.606
 30
0.000000
  70
    32
  0
VERTEX
  8
0
  5
CC23
 10
-387.558
 20
837.609
 30
0.000000
  70
    32
  0
VERTEX
  8
0
  5
CC24
 10
-387.556
 20
837.613
 30
0.000000
  70
    32
  0
VERTEX
  8
0
  5
CC25
 10
-387.553
 20
837.616
 30
0.000000
  70
    32
  0
VERTEX
  8
0
  5
CC26
 10
-387.551
 20
837.620
 30
0.000000
  70
    32
  0
VERTEX
  8
0
  5
CC27
 10
-387.548
 20
837.623
 30
0.000000
  70
    32
  0
VERTEX
  8
0
  5
CC28
 10
-387.546
 20
837.627
 30
0.000000
  70
    32
  0
VERTEX
  8
0
  5
CC29
 10
-387.544
 20
837.631
 30
0.000000
  70
    32
  0
VERTEX
  8
0
  5
CC2A
 10
-387.541
 20
837.634
 30
0.000000
  70
    32
  0
VERTEX
  8
0
  5
CC2B
 10
-387.539
 20
837.638
 30
0.000000
  70
    32
  0
VERTEX
  8
0
  5
CC2C
 10
-387.537
 20
837.641
 30
0.000000
  70
    32
  0
VERTEX
  8
0
  5
CC2D
 10
-387.534
 20
837.645
 30
0.000000
  70
    32
  0
VERTEX
  8
0
  5
CC2E
 10
-387.532
 20
837.648
 30
0.000000
  70
    32
  0
VERTEX
  8
0
  5
CC2F
 10
-387.530
 20
837.652
 30
0.000000
  70
    32
  0
VERTEX
  8
0
  5
CC30
 10
-387.527
 20
837.656
 30
0.000000
  70
    32
  0
VERTEX
  8
0
  5
CC31
 10
-387.525
 20
837.659
 30
0.000000
  70
    32
  0
VERTEX
  8
0
  5
CC32
 10
-387.523
 20
837.663
 30
0.000000
  70
    32
  0
VERTEX
  8
0
  5
CC33
 10
-387.521
 20
837.666
 30
0.000000
  70
    32
  0
VERTEX
  8
0
  5
CC34
 10
-387.518
 20
837.670
 30
0.000000
  70
    32
  0
VERTEX
  8
0
  5
CC35
 10
-387.516
 20
837.674
 30
0.000000
  70
    32
  0
VERTEX
  8
0
  5
CC36
 10
-387.514
 20
837.677
 30
0.000000
  70
    32
  0
VERTEX
  8
0
  5
CC37
 10
-387.512
 20
837.681
 30
0.000000
  70
    32
  0
VERTEX
  8
0
  5
CC38
 10
-387.509
 20
837.684
 30
0.000000
  70
    32
  0
VERTEX
  8
0
  5
CC39
 10
-387.507
 20
837.688
 30
0.000000
  70
    32
  0
VERTEX
  8
0
  5
CC3A
 10
-387.505
 20
837.692
 30
0.000000
  70
    32
  0
VERTEX
  8
0
  5
CC3B
 10
-387.503
 20
837.695
 30
0.000000
  70
    32
  0
VERTEX
  8
0
  5
CC3C
 10
-387.501
 20
837.699
 30
0.000000
  70
    32
  0
VERTEX
  8
0
  5
CC3D
 10
-387.498
 20
837.703
 30
0.000000
  70
    32
  0
VERTEX
  8
0
  5
CC3E
 10
-387.496
 20
837.706
 30
0.000000
  70
    32
  0
VERTEX
  8
0
  5
CC3F
 10
-387.494
 20
837.710
 30
0.000000
  70
    32
  0
VERTEX
  8
0
  5
CC40
 10
-387.492
 20
837.714
 30
0.000000
  70
    32
  0
VERTEX
  8
0
  5
CC41
 10
-387.490
 20
837.718
 30
0.000000
  70
    32
  0
VERTEX
  8
0
  5
CC42
 10
-387.488
 20
837.721
 30
0.000000
  70
    32
  0
VERTEX
  8
0
  5
CC43
 10
-387.485
 20
837.725
 30
0.000000
  70
    32
  0
VERTEX
  8
0
  5
CC44
 10
-387.483
 20
837.729
 30
0.000000
  70
    32
  0
VERTEX
  8
0
  5
CC45
 10
-387.481
 20
837.732
 30
0.000000
  70
    32
  0
VERTEX
  8
0
  5
CC46
 10
-387.479
 20
837.736
 30
0.000000
  70
    32
  0
VERTEX
  8
0
  5
CC47
 10
-387.477
 20
837.740
 30
0.000000
  70
    32
  0
VERTEX
  8
0
  5
CC48
 10
-387.475
 20
837.744
 30
0.000000
  70
    32
  0
VERTEX
  8
0
  5
CC49
 10
-387.473
 20
837.747
 30
0.000000
  70
    32
  0
VERTEX
  8
0
  5
CC4A
 10
-387.471
 20
837.751
 30
0.000000
  70
    32
  0
VERTEX
  8
0
  5
CC4B
 10
-387.469
 20
837.755
 30
0.000000
  70
    32
  0
VERTEX
  8
0
  5
CC4C
 10
-387.467
 20
837.759
 30
0.000000
  70
    32
  0
VERTEX
  8
0
  5
CC4D
 10
-387.465
 20
837.762
 30
0.000000
  70
    32
  0
VERTEX
  8
0
  5
CC4E
 10
-387.463
 20
837.766
 30
0.000000
  70
    32
  0
VERTEX
  8
0
  5
CC4F
 10
-387.461
 20
837.770
 30
0.000000
  70
    32
  0
VERTEX
  8
0
  5
CC50
 10
-387.459
 20
837.774
 30
0.000000
  70
    32
  0
VERTEX
  8
0
  5
CC51
 10
-387.457
 20
837.778
 30
0.000000
  70
    32
  0
VERTEX
  8
0
  5
CC52
 10
-387.455
 20
837.781
 30
0.000000
  70
    32
  0
VERTEX
  8
0
  5
CC53
 10
-387.453
 20
837.785
 30
0.000000
  70
    32
  0
VERTEX
  8
0
  5
CC54
 10
-387.451
 20
837.789
 30
0.000000
  70
    32
  0
VERTEX
  8
0
  5
CC55
 10
-387.449
 20
837.793
 30
0.000000
  70
    32
  0
VERTEX
  8
0
  5
CC56
 10
-387.448
 20
837.797
 30
0.000000
  70
    32
  0
VERTEX
  8
0
  5
CC57
 10
-387.446
 20
837.801
 30
0.000000
  70
    32
  0
VERTEX
  8
0
  5
CC58
 10
-387.444
 20
837.804
 30
0.000000
  70
    32
  0
VERTEX
  8
0
  5
CC59
 10
-387.442
 20
837.808
 30
0.000000
  70
    32
  0
VERTEX
  8
0
  5
CC5A
 10
-387.440
 20
837.812
 30
0.000000
  70
    32
  0
VERTEX
  8
0
  5
CC5B
 10
-387.438
 20
837.816
 30
0.000000
  70
    32
  0
VERTEX
  8
0
  5
CC5C
 10
-387.437
 20
837.820
 30
0.000000
  70
    32
  0
VERTEX
  8
0
  5
CC5D
 10
-387.435
 20
837.824
 30
0.000000
  70
    32
  0
VERTEX
  8
0
  5
CC5E
 10
-387.433
 20
837.828
 30
0.000000
  70
    32
  0
VERTEX
  8
0
  5
CC5F
 10
-387.431
 20
837.832
 30
0.000000
  70
    32
  0
VERTEX
  8
0
  5
CC60
 10
-387.430
 20
837.835
 30
0.000000
  70
    32
  0
VERTEX
  8
0
  5
CC61
 10
-387.428
 20
837.839
 30
0.000000
  70
    32
  0
VERTEX
  8
0
  5
CC62
 10
-387.426
 20
837.843
 30
0.000000
  70
    32
  0
VERTEX
  8
0
  5
CC63
 10
-387.424
 20
837.847
 30
0.000000
  70
    32
  0
VERTEX
  8
0
  5
CC64
 10
-387.423
 20
837.851
 30
0.000000
  70
    32
  0
VERTEX
  8
0
  5
CC65
 10
-387.421
 20
837.855
 30
0.000000
  70
    32
  0
VERTEX
  8
0
  5
CC66
 10
-387.419
 20
837.859
 30
0.000000
  70
    32
  0
VERTEX
  8
0
  5
CC67
 10
-387.418
 20
837.863
 30
0.000000
  70
    32
  0
VERTEX
  8
0
  5
CC68
 10
-387.416
 20
837.867
 30
0.000000
  70
    32
  0
VERTEX
  8
0
  5
CC69
 10
-387.415
 20
837.871
 30
0.000000
  70
    32
  0
VERTEX
  8
0
  5
CC6A
 10
-387.413
 20
837.875
 30
0.000000
  70
    32
  0
VERTEX
  8
0
  5
CC6B
 10
-387.412
 20
837.879
 30
0.000000
  70
    32
  0
VERTEX
  8
0
  5
CC6C
 10
-387.410
 20
837.883
 30
0.000000
  70
    32
  0
VERTEX
  8
0
  5
CC6D
 10
-387.409
 20
837.887
 30
0.000000
  70
    32
  0
VERTEX
  8
0
  5
CC6E
 10
-387.407
 20
837.891
 30
0.000000
  70
    32
  0
VERTEX
  8
0
  5
CC6F
 10
-387.406
 20
837.895
 30
0.000000
  70
    32
  0
VERTEX
  8
0
  5
CC70
 10
-387.404
 20
837.899
 30
0.000000
  70
    32
  0
VERTEX
  8
0
  5
CC71
 10
-387.403
 20
837.903
 30
0.000000
  70
    32
  0
VERTEX
  8
0
  5
CC72
 10
-387.401
 20
837.907
 30
0.000000
  70
    32
  0
VERTEX
  8
0
  5
CC73
 10
-387.400
 20
837.911
 30
0.000000
  70
    32
  0
VERTEX
  8
0
  5
CC74
 10
-387.398
 20
837.915
 30
0.000000
  70
    32
  0
VERTEX
  8
0
  5
CC75
 10
-387.397
 20
837.919
 30
0.000000
  70
    32
  0
VERTEX
  8
0
  5
CC76
 10
-387.396
 20
837.923
 30
0.000000
  70
    32
  0
VERTEX
  8
0
  5
CC77
 10
-387.394
 20
837.927
 30
0.000000
  70
    32
  0
VERTEX
  8
0
  5
CC78
 10
-387.393
 20
837.931
 30
0.000000
  70
    32
  0
VERTEX
  8
0
  5
CC79
 10
-387.392
 20
837.935
 30
0.000000
  70
    32
  0
VERTEX
  8
0
  5
CC7A
 10
-387.390
 20
837.939
 30
0.000000
  70
    32
  0
VERTEX
  8
0
  5
CC7B
 10
-387.389
 20
837.943
 30
0.000000
  70
    32
  0
VERTEX
  8
0
  5
CC7C
 10
-387.388
 20
837.947
 30
0.000000
  70
    32
  0
VERTEX
  8
0
  5
CC7D
 10
-387.387
 20
837.952
 30
0.000000
  70
    32
  0
VERTEX
  8
0
  5
CC7E
 10
-387.385
 20
837.956
 30
0.000000
  70
    32
  0
VERTEX
  8
0
  5
CC7F
 10
-387.384
 20
837.960
 30
0.000000
  70
    32
  0
VERTEX
  8
0
  5
CC80
 10
-387.383
 20
837.964
 30
0.000000
  70
    32
  0
VERTEX
  8
0
  5
CC81
 10
-387.382
 20
837.968
 30
0.000000
  70
    32
  0
VERTEX
  8
0
  5
CC82
 10
-387.381
 20
837.972
 30
0.000000
  70
    32
  0
VERTEX
  8
0
  5
CC83
 10
-387.380
 20
837.976
 30
0.000000
  70
    32
  0
VERTEX
  8
0
  5
CC84
 10
-387.379
 20
837.980
 30
0.000000
  70
    32
  0
VERTEX
  8
0
  5
CC85
 10
-387.377
 20
837.984
 30
0.000000
  70
    32
  0
VERTEX
  8
0
  5
CC86
 10
-387.376
 20
837.989
 30
0.000000
  70
    32
  0
VERTEX
  8
0
  5
CC87
 10
-387.375
 20
837.993
 30
0.000000
  70
    32
  0
VERTEX
  8
0
  5
CC88
 10
-387.374
 20
837.997
 30
0.000000
  70
    32
  0
VERTEX
  8
0
  5
CC89
 10
-387.373
 20
838.001
 30
0.000000
  70
    32
  0
VERTEX
  8
0
  5
CC8A
 10
-387.372
 20
838.005
 30
0.000000
  70
    32
  0
VERTEX
  8
0
  5
CC8B
 10
-387.371
 20
838.009
 30
0.000000
  70
    32
  0
VERTEX
  8
0
  5
CC8C
 10
-387.370
 20
838.013
 30
0.000000
  70
    32
  0
VERTEX
  8
0
  5
CC8D
 10
-387.369
 20
838.018
 30
0.000000
  70
    32
  0
VERTEX
  8
0
  5
CC8E
 10
-387.369
 20
838.022
 30
0.000000
  70
    32
  0
VERTEX
  8
0
  5
CC8F
 10
-387.368
 20
838.026
 30
0.000000
  70
    32
  0
VERTEX
  8
0
  5
CC90
 10
-387.367
 20
838.030
 30
0.000000
  70
    32
  0
VERTEX
  8
0
  5
CC91
 10
-387.366
 20
838.034
 30
0.000000
  70
    32
  0
VERTEX
  8
0
  5
CC92
 10
-387.365
 20
838.039
 30
0.000000
  70
    32
  0
VERTEX
  8
0
  5
CC93
 10
-387.364
 20
838.043
 30
0.000000
  70
    32
  0
VERTEX
  8
0
  5
CC94
 10
-387.363
 20
838.047
 30
0.000000
  70
    32
  0
VERTEX
  8
0
  5
CC95
 10
-387.363
 20
838.051
 30
0.000000
  70
    32
  0
VERTEX
  8
0
  5
CC96
 10
-387.362
 20
838.055
 30
0.000000
  70
    32
  0
VERTEX
  8
0
  5
CC97
 10
-387.361
 20
838.059
 30
0.000000
  70
    32
  0
VERTEX
  8
0
  5
CC98
 10
-387.360
 20
838.064
 30
0.000000
  70
    32
  0
VERTEX
  8
0
  5
CC99
 10
-387.360
 20
838.068
 30
0.000000
  70
    32
  0
VERTEX
  8
0
  5
CC9A
 10
-387.359
 20
838.072
 30
0.000000
  70
    32
  0
VERTEX
  8
0
  5
CC9B
 10
-387.358
 20
838.076
 30
0.000000
  70
    32
  0
VERTEX
  8
0
  5
CC9C
 10
-387.358
 20
838.080
 30
0.000000
  70
    32
  0
VERTEX
  8
0
  5
CC9D
 10
-387.357
 20
838.085
 30
0.000000
  70
    32
  0
VERTEX
  8
0
  5
CC9E
 10
-387.356
 20
838.089
 30
0.000000
  70
    32
  0
VERTEX
  8
0
  5
CC9F
 10
-387.356
 20
838.093
 30
0.000000
  70
    32
  0
VERTEX
  8
0
  5
CCA0
 10
-387.355
 20
838.097
 30
0.000000
  70
    32
  0
VERTEX
  8
0
  5
CCA1
 10
-387.354
 20
838.102
 30
0.000000
  70
    32
  0
VERTEX
  8
0
  5
CCA2
 10
-387.354
 20
838.106
 30
0.000000
  70
    32
  0
VERTEX
  8
0
  5
CCA3
 10
-387.353
 20
838.110
 30
0.000000
  70
    32
  0
VERTEX
  8
0
  5
CCA4
 10
-387.353
 20
838.114
 30
0.000000
  70
    32
  0
VERTEX
  8
0
  5
CCA5
 10
-387.352
 20
838.119
 30
0.000000
  70
    32
  0
VERTEX
  8
0
  5
CCA6
 10
-387.352
 20
838.123
 30
0.000000
  70
    32
  0
VERTEX
  8
0
  5
CCA7
 10
-387.351
 20
838.127
 30
0.000000
  70
    32
  0
VERTEX
  8
0
  5
CCA8
 10
-387.350
 20
838.131
 30
0.000000
  70
    32
  0
VERTEX
  8
0
  5
CCA9
 10
-387.350
 20
838.135
 30
0.000000
  70
    32
  0
VERTEX
  8
0
  5
CCAA
 10
-387.349
 20
838.140
 30
0.000000
  70
    32
  0
VERTEX
  8
0
  5
CCAB
 10
-387.349
 20
838.144
 30
0.000000
  70
    32
  0
VERTEX
  8
0
  5
CCAC
 10
-387.348
 20
838.148
 30
0.000000
  70
    32
  0
VERTEX
  8
0
  5
CCAD
 10
-387.348
 20
838.152
 30
0.000000
  70
    32
  0
VERTEX
  8
0
  5
CCAE
 10
-387.348
 20
838.157
 30
0.000000
  70
    32
  0
VERTEX
  8
0
  5
CCAF
 10
-387.347
 20
838.161
 30
0.000000
  70
    32
  0
VERTEX
  8
0
  5
CCB0
 10
-387.347
 20
838.165
 30
0.000000
  70
    32
  0
VERTEX
  8
0
  5
CCB1
 10
-387.346
 20
838.169
 30
0.000000
  70
    32
  0
VERTEX
  8
0
  5
CCB2
 10
-387.346
 20
838.174
 30
0.000000
  70
    32
  0
VERTEX
  8
0
  5
CCB3
 10
-387.345
 20
838.178
 30
0.000000
  70
    32
  0
VERTEX
  8
0
  5
CCB4
 10
-387.345
 20
838.182
 30
0.000000
  70
    32
  0
VERTEX
  8
0
  5
CCB5
 10
-387.344
 20
838.186
 30
0.000000
  70
    32
  0
VERTEX
  8
0
  5
CCB6
 10
-387.344
 20
838.191
 30
0.000000
  70
    32
  0
VERTEX
  8
0
  5
CCB7
 10
-387.344
 20
838.195
 30
0.000000
  70
    32
  0
VERTEX
  8
0
  5
CCB8
 10
-387.343
 20
838.199
 30
0.000000
  70
    32
  0
VERTEX
  8
0
  5
CCB9
 10
-387.343
 20
838.203
 30
0.000000
  70
    32
  0
VERTEX
  8
0
  5
CCBA
 10
-387.342
 20
838.208
 30
0.000000
  70
    32
  0
VERTEX
  8
0
  5
CCBB
 10
-387.342
 20
838.212
 30
0.000000
  70
    32
  0
VERTEX
  8
0
  5
CCBC
 10
-387.342
 20
838.216
 30
0.000000
  70
    32
  0
VERTEX
  8
0
  5
CCBD
 10
-387.341
 20
838.220
 30
0.000000
  70
    32
  0
VERTEX
  8
0
  5
CCBE
 10
-387.341
 20
838.225
 30
0.000000
  70
    32
  0
VERTEX
  8
0
  5
CCBF
 10
-387.340
 20
838.229
 30
0.000000
  70
    32
  0
VERTEX
  8
0
  5
CCC0
 10
-387.340
 20
838.233
 30
0.000000
  70
    32
  0
VERTEX
  8
0
  5
CCC1
 10
-387.340
 20
838.237
 30
0.000000
  70
    32
  0
VERTEX
  8
0
  5
CCC2
 10
-387.339
 20
838.242
 30
0.000000
  70
    32
  0
SEQEND
  8
0
  5
CCC3
  0
LINE
  5
CB00
  8
0
 10
-388.25046663909052
 20
837.5230911966346
 30
0.0
 11
-388.18510237677128
 21
837.5230911966346
 31
0.0
  0
LINE
  5
CB01
  8
0
 10
-388.25046663909052
 20
838.63166373006175
 30
0.0
 11
-388.25046663909052
 21
837.5230911966346
 31
0.0
  0
LINE
  5
CB02
  8
0
 10
-387.18796663909052
 20
838.63166373006175
 30
0.0
 11
-388.25046663909052
 21
838.63166373006175
 31
0.0
  0
LINE
  5
CB03
  8
0
 10
-387.18796663909052
 20
838.2416561673549
 30
0.0
 11
-387.18796663909052
 21
838.63166373006175
 31
0.0
  0
LINE
  5
CB04
  8
0
 10
-387.33928948238139
 20
838.2416561673549
 30
0.0
 11
-387.18796663909052
 21
838.2416561673549
 31
0.0
  0
VIEWPORT
  5
BADA
 67
     1
  8
0
 10
5.249999665167528
 20
5.3976156192433988
 30
0.0
 40
16.259362384438411
 41
10.777329619873861
 68
     2
 69
     1
1001
ACAD
1000
MVIEW
1002
{
1070
    16
1010
0.0
1020
0.0
1030
0.0
1010
0.0
1020
0.0
1030
1.0
1040
0.0
1040
10.777329619873861
1040
5.249999665167528
1040
5.3976156192433988
1040
50.0
1040
0.0
1040
0.0
1070
     0
1070
   100
1070
     1
1070
     1
1070
     0
1070
     0
1070
     0
1070
     0
1040
0.0
1040
0.0
1040
0.0
1040
0.5
1040
0.5
1040
0.5
1040
0.5
1070
     0
1002
{
1002
}
1002
}
  0
VIEWPORT
  5
BADD
 67
     1
  8
0
 10
5.249999629487192
 20
4.0166741807634683
 30
0.0
 40
10.44245679893058
 41
7.8813805131999892
 68
     1
 69
     2
1001
ACAD
1000
MVIEW
1002
{
1070
    16
1010
0.0
1020
0.0
1030
0.0
1010
0.0
1020
0.0
1030
1.0
1040
0.0
1040
7.8813805190370463
1040
-387.20985136692838
1040
838.2226040800208
1040
50.0
1040
0.0
1040
0.0
1070
     0
1070
   100
1070
     1
1070
     2
1070
     0
1070
     0
1070
     0
1070
     0
1040
0.0
1040
0.0
1040
0.0
1040
0.5
1040
0.5
1040
0.5
1040
0.5
1070
     0
1002
{
1002
}
1002
}
  0
ENDSEC
  0
EOF
