  0
SECTION
  2
HEADER
  9
$ACADVER
  1
AC1009
  9
$INSBASE
 10
0.0
 20
0.0
 30
0.0
  9
$EXTMIN
 10
-390.21280206415412
 20
834.65667183693085
 30
0.0
  9
$EXTMAX
 10
-380.21353317307199
 20
845.38586254496488
 30
0.0
  9
$LIMMIN
 10
0.0
 20
0.0
  9
$LIMMAX
 10
1500.0
 20
1500.0
  9
$ORTHOMODE
 70
     0
  9
$REGENMODE
 70
     1
  9
$FILLMODE
 70
     1
  9
$QTEXTMODE
 70
     0
  9
$MIRRTEXT
 70
     1
  9
$DRAGMODE
 70
     2
  9
$LTSCALE
 40
1.0
  9
$OSMODE
 70
    37
  9
$ATTMODE
 70
     1
  9
$TEXTSIZE
 40
1.5
  9
$TRACEWID
 40
0.05
  9
$TEXTSTYLE
  7
STANDARD
  9
$CLAYER
  8
0
  9
$CELTYPE
  6
BYLAYER
  9
$CECOLOR
 62
   256
  9
$DIMSCALE
 40
1.0
  9
$DIMASZ
 40
0.75
  9
$DIMEXO
 40
1.5
  9
$DIMDLI
 40
2.0
  9
$DIMRND
 40
0.0
  9
$DIMDLE
 40
0.0
  9
$DIMEXE
 40
1.0
  9
$DIMTP
 40
0.0
  9
$DIMTM
 40
0.0
  9
$DIMTXT
 40
1.5
  9
$DIMCEN
 40
2.0
  9
$DIMTSZ
 40
0.0
  9
$DIMTOL
 70
     0
  9
$DIMLIM
 70
     0
  9
$DIMTIH
 70
     0
  9
$DIMTOH
 70
     0
  9
$DIMSE1
 70
     0
  9
$DIMSE2
 70
     0
  9
$DIMTAD
 70
     1
  9
$DIMZIN
 70
     0
  9
$DIMBLK
  1
ARCHTICK
  9
$DIMASO
 70
     1
  9
$DIMSHO
 70
     1
  9
$DIMPOST
  1
"
  9
$DIMAPOST
  1

  9
$DIMALT
 70
     0
  9
$DIMALTD
 70
     2
  9
$DIMALTF
 40
25.399999999999999
  9
$DIMLFAC
 40
1.0
  9
$DIMTOFL
 70
     0
  9
$DIMTVP
 40
0.0
  9
$DIMTIX
 70
     1
  9
$DIMSOXD
 70
     0
  9
$DIMSAH
 70
     0
  9
$DIMBLK1
  1

  9
$DIMBLK2
  1

  9
$DIMSTYLE
  2
THREE_QUARTER_INCH_SCALE
  9
$DIMCLRD
 70
     0
  9
$DIMCLRE
 70
     0
  9
$DIMCLRT
 70
     0
  9
$DIMTFAC
 40
1.0
  9
$DIMGAP
 40
1.0
  9
$LUNITS
 70
     2
  9
$LUPREC
 70
     4
  9
$SKETCHINC
 40
0.1
  9
$FILLETRAD
 40
0.0
  9
$AUNITS
 70
     0
  9
$AUPREC
 70
     0
  9
$MENU
  1
.
  9
$ELEVATION
 40
0.0
  9
$PELEVATION
 40
0.0
  9
$THICKNESS
 40
0.0
  9
$LIMCHECK
 70
     0
  9
$BLIPMODE
 70
     0
  9
$CHAMFERA
 40
0.5
  9
$CHAMFERB
 40
0.5
  9
$SKPOLY
 70
     0
  9
$TDCREATE
 40
2452089.395738773
  9
$TDUPDATE
 40
2453612.472774514
  9
$TDINDWG
 40
1.1541473843000001
  9
$TDUSRTIMER
 40
1.1541470254999999
  9
$USRTIMER
 70
     1
  9
$ANGBASE
 50
0.0
  9
$ANGDIR
 70
     0
  9
$PDMODE
 70
     0
  9
$PDSIZE
 40
10.0
  9
$PLINEWID
 40
0.0
  9
$COORDS
 70
     1
  9
$SPLFRAME
 70
     0
  9
$SPLINETYPE
 70
     6
  9
$SPLINESEGS
 70
     8
  9
$ATTDIA
 70
     0
  9
$ATTREQ
 70
     1
  9
$HANDLING
 70
     1
  9
$HANDSEED
  5
259C8
  9
$SURFTAB1
 70
     6
  9
$SURFTAB2
 70
     6
  9
$SURFTYPE
 70
     6
  9
$SURFU
 70
     6
  9
$SURFV
 70
     6
  9
$UCSNAME
  2

  9
$UCSORG
 10
0.0
 20
0.0
 30
0.0
  9
$UCSXDIR
 10
1.0
 20
0.0
 30
0.0
  9
$UCSYDIR
 10
0.0
 20
1.0
 30
0.0
  9
$PUCSNAME
  2

  9
$PUCSORG
 10
0.0
 20
0.0
 30
0.0
  9
$PUCSXDIR
 10
1.0
 20
0.0
 30
0.0
  9
$PUCSYDIR
 10
0.0
 20
1.0
 30
0.0
  9
$USERI1
 70
     0
  9
$USERI2
 70
     0
  9
$USERI3
 70
     0
  9
$USERI4
 70
     0
  9
$USERI5
 70
     0
  9
$USERR1
 40
0.0
  9
$USERR2
 40
0.0
  9
$USERR3
 40
0.0
  9
$USERR4
 40
0.0
  9
$USERR5
 40
0.0
  9
$WORLDVIEW
 70
     1
  9
$SHADEDGE
 70
     3
  9
$SHADEDIF
 70
    70
  9
$TILEMODE
 70
     0
  9
$MAXACTVP
 70
    64
  9
$PLIMCHECK
 70
     0
  9
$PEXTMIN
 10
0.0280982296770773
 20
0.0758747945053777
 30
-0.0000000000000058
  9
$PEXTMAX
 10
10.47163505903136
 20
7.9578465084694647
 30
0.0000000000000104
  9
$PLIMMIN
 10
-0.1682389550263349
 20
-0.2033427855578579
  9
$PLIMMAX
 10
10.754640548407011
 20
8.2370640492290015
  9
$UNITMODE
 70
     0
  9
$VISRETAIN
 70
     1
  9
$PLINEGEN
 70
     0
  9
$PSLTSCALE
 70
     1
  0
ENDSEC
  0
SECTION
  2
TABLES
  0
TABLE
  2
VPORT
 70
     1
  0
VPORT
  2
*ACTIVE
 70
     0
 10
0.0
 20
0.0
 11
1.0
 21
1.0
 12
-386.52380251144001
 22
838.09204166179234
 13
0.0
 23
0.0
 14
0.5
 24
0.5
 15
0.5
 25
0.5
 16
0.0
 26
0.0
 36
1.0
 17
0.0
 27
0.0
 37
0.0
 40
3.930952126162941
 41
2.0226628895184122
 42
50.0
 43
0.0
 44
0.0
 50
0.0
 51
0.0
 71
     0
 72
   100
 73
     1
 74
     2
 75
     0
 76
     0
 77
     0
 78
     0
  0
ENDTAB
  0
TABLE
  2
LTYPE
 70
     2
  0
LTYPE
  2
CONTINUOUS
 70
     0
  3
Solid line
 72
    65
 73
     0
 40
0.0
  0
ENDTAB
  0
TABLE
  2
LAYER
 70
    10
  0
LAYER
  2
0
 70
     0
 62
     7
  6
CONTINUOUS
  0
LAYER
  2
DEFPOINTS
 70
     0
 62
     7
  6
CONTINUOUS
  0
LAYER
  2
FRAME_200
 70
     0
 62
     8
  6
CONTINUOUS
  0
LAYER
  2
FRAME_070
 70
     0
 62
     5
  6
CONTINUOUS
  0
LAYER
  2
FRAME_050
 70
     0
 62
     6
  6
CONTINUOUS
  0
LAYER
  2
TITLE_BLOCK
 70
     0
 62
     7
  6
CONTINUOUS
  0
LAYER
  2
FRAME_025
 70
     0
 62
     7
  6
CONTINUOUS
  0
LAYER
  2
VIEWPORT
 70
     0
 62
     7
  6
CONTINUOUS
  0
LAYER
  2
PROF
 70
     0
 62
     7
  6
CONTINUOUS
  0
LAYER
  2
PROFILE
 70
     0
 62
     7
  6
CONTINUOUS
  0
ENDTAB
  0
TABLE
  2
STYLE
 70
     2
  0
STYLE
  2
STANDARD
 70
     0
 40
0.0
 41
1.0
 50
0.0
 71
     0
 42
1.5
  3
txt
  4

  0
STYLE
  2
ISO_PROPORTIONAL
 70
     0
 40
0.0
 41
1.0
 50
0.0
 71
     0
 42
2.5
  3
isocp.shx
  4

  0
ENDTAB
  0
TABLE
  2
VIEW
 70
     3
  0
ENDTAB
  0
TABLE
  2
UCS
 70
     0
  0
ENDTAB
  0
TABLE
  2
APPID
 70
     6
  0
APPID
  2
ACAD
 70
     0
  0
APPID
  2
DCO15
 70
     0
  0
APPID
  2
ACAD_EXEMPT_FROM_CAD_STANDARDS
 70
     0
  0
APPID
  2
ACAD_PSEXT
 70
     0
  0
APPID
  2
CONTENTBLOCKDESCRIPTION
 70
     0
  0
APPID
  2
CONTENTBLOCKICON
 70
     0
  0
ENDTAB
  0
TABLE
  2
DIMSTYLE
 70
    11
  0
DIMSTYLE
  2
FULL_SCALE
 70
     0
  3
"
  4

  5

  6

  7

 40
1.0
 41
0.046875
 42
0.09375
 43
0.125
 44
0.0625
 45
0.0
 46
0.0
 47
0.0
 48
0.0
140
0.125
141
0.125
142
0.0
143
25.399999999999999
144
1.0
145
0.0
146
1.0
147
0.0625
 71
     0
 72
     0
 73
     0
 74
     0
 75
     0
 76
     0
 77
     1
 78
     0
170
     0
171
     2
172
     0
173
     0
174
     1
175
     0
176
     0
177
     0
178
     0
  0
DIMSTYLE
  2
HALF_SCALE
 70
     0
  3
"
  4

  5

  6

  7

 40
1.0
 41
0.09375
 42
0.1875
 43
0.25
 44
0.125
 45
0.0
 46
0.0
 47
0.0
 48
0.0
140
0.25
141
0.25
142
0.0
143
25.399999999999999
144
1.0
145
0.0
146
1.0
147
0.125
 71
     0
 72
     0
 73
     0
 74
     0
 75
     0
 76
     0
 77
     1
 78
     0
170
     0
171
     2
172
     0
173
     0
174
     1
175
     0
176
     0
177
     0
178
     0
  0
DIMSTYLE
  2
INCH_SCALE
 70
     0
  3
"
  4

  5

  6

  7

 40
1.0
 41
0.5625
 42
1.125
 43
1.5
 44
0.75
 45
0.0
 46
0.0
 47
0.0
 48
0.0
140
1.125
141
1.5
142
0.0
143
25.399999999999999
144
1.0
145
0.0
146
1.0
147
0.75
 71
     0
 72
     0
 73
     0
 74
     0
 75
     0
 76
     0
 77
     1
 78
     0
170
     0
171
     2
172
     0
173
     0
174
     1
175
     0
176
     0
177
     0
178
     0
  0
DIMSTYLE
  2
THREE_QUARTER_INCH_SCALE
 70
     0
  3
"
  4

  5

  6

  7

 40
1.0
 41
0.75
 42
1.5
 43
2.0
 44
1.0
 45
0.0
 46
0.0
 47
0.0
 48
0.0
140
1.5
141
2.0
142
0.0
143
25.399999999999999
144
1.0
145
0.0
146
1.0
147
1.0
 71
     0
 72
     0
 73
     0
 74
     0
 75
     0
 76
     0
 77
     1
 78
     0
170
     0
171
     2
172
     0
173
     0
174
     1
175
     0
176
     0
177
     0
178
     0
  0
DIMSTYLE
  2
ZHALF_INCH_SCALE
 70
     0
  3
"
  4

  5

  6

  7

 40
1.0
 41
1.125
 42
2.25
 43
3.0
 44
1.5
 45
0.0
 46
0.0
 47
0.0
 48
0.0
140
2.25
141
3.0
142
0.0
143
25.399999999999999
144
1.0
145
0.0
146
1.0
147
1.5
 71
     0
 72
     0
 73
     0
 74
     0
 75
     0
 76
     0
 77
     1
 78
     0
170
     0
171
     2
172
     0
173
     0
174
     1
175
     0
176
     0
177
     0
178
     0
  0
DIMSTYLE
  2
FULL_SCALE0
 70
     0
  3
"
  4

  5
ARCHTICK
  6

  7

 40
1.0
 41
0.046875
 42
0.09375
 43
0.125
 44
0.0625
 45
0.0
 46
0.0
 47
0.0
 48
0.0
140
0.125
141
0.125
142
0.0
143
25.399999999999999
144
1.0
145
0.0
146
1.0
147
0.0625
 71
     0
 72
     0
 73
     0
 74
     0
 75
     0
 76
     0
 77
     1
 78
     0
170
     0
171
     2
172
     0
173
     0
174
     1
175
     0
176
     0
177
     0
178
     0
  0
DIMSTYLE
  2
HALF_SCALE0
 70
     0
  3
"
  4

  5
ARCHTICK
  6

  7

 40
1.0
 41
0.09375
 42
0.1875
 43
0.25
 44
0.125
 45
0.0
 46
0.0
 47
0.0
 48
0.0
140
0.25
141
0.25
142
0.0
143
25.399999999999999
144
1.0
145
0.0
146
1.0
147
0.125
 71
     0
 72
     0
 73
     0
 74
     0
 75
     0
 76
     0
 77
     1
 78
     0
170
     0
171
     2
172
     0
173
     0
174
     1
175
     0
176
     0
177
     0
178
     0
  0
DIMSTYLE
  2
INCH_SCALE0
 70
     0
  3
"
  4

  5
ARCHTICK
  6

  7

 40
1.0
 41
0.5625
 42
1.125
 43
1.5
 44
0.75
 45
0.0
 46
0.0
 47
0.0
 48
0.0
140
1.125
141
1.5
142
0.0
143
25.399999999999999
144
1.0
145
0.0
146
1.0
147
0.75
 71
     0
 72
     0
 73
     0
 74
     0
 75
     0
 76
     0
 77
     1
 78
     0
170
     0
171
     2
172
     0
173
     0
174
     1
175
     0
176
     0
177
     0
178
     0
  0
DIMSTYLE
  2
THREE_QUARTER_INCH_SCALE0
 70
     0
  3
"
  4

  5
ARCHTICK
  6

  7

 40
1.0
 41
0.75
 42
1.5
 43
2.0
 44
1.0
 45
0.0
 46
0.0
 47
0.0
 48
0.0
140
1.5
141
2.0
142
0.0
143
25.399999999999999
144
1.0
145
0.0
146
1.0
147
1.0
 71
     0
 72
     0
 73
     0
 74
     0
 75
     0
 76
     0
 77
     1
 78
     0
170
     0
171
     2
172
     0
173
     0
174
     1
175
     0
176
     0
177
     0
178
     0
  0
DIMSTYLE
  2
ZHALF_INCH_SCALE0
 70
     0
  3
"
  4

  5
ARCHTICK
  6

  7

 40
1.0
 41
1.125
 42
2.25
 43
3.0
 44
1.5
 45
0.0
 46
0.0
 47
0.0
 48
0.0
140
2.25
141
3.0
142
0.0
143
25.399999999999999
144
1.0
145
0.0
146
1.0
147
1.5
 71
     0
 72
     0
 73
     0
 74
     0
 75
     0
 76
     0
 77
     1
 78
     0
170
     0
171
     2
172
     0
173
     0
174
     1
175
     0
176
     0
177
     0
178
     0
  0
ENDTAB
  0
ENDSEC
  0
SECTION
  2
BLOCKS
  0
BLOCK
  8
0
  2
$MODEL_SPACE
 70
     0
 10
0.0
 20
0.0
 30
0.0
  3
$MODEL_SPACE
  1

  0
ENDBLK
  5
C9DC
  8
0
  0
BLOCK
 67
     1
  8
0
  2
$PAPER_SPACE
 70
     0
 10
0.0
 20
0.0
 30
0.0
  3
$PAPER_SPACE
  1

  0
ENDBLK
  5
C9D8
 67
     1
  8
0
  0
BLOCK
  8
0
  2
_ARCHTICK
 70
     0
 10
0.0
 20
0.0
 30
0.0
  3
_ARCHTICK
  1

  0
POLYLINE
  5
158
  8
0
  6
BYBLOCK
 62
     0
 66
     1
 10
0.0
 20
0.0
 30
0.0
 40
0.15
 41
0.15
  0
VERTEX
  5
24E70
  8
0
  6
BYBLOCK
 62
     0
 10
-0.5
 20
-0.5
 30
0.0
  0
VERTEX
  5
24E71
  8
0
  6
BYBLOCK
 62
     0
 10
0.5
 20
0.5
 30
0.0
  0
SEQEND
  5
24E72
  8
0
  6
BYBLOCK
 62
     0
  0
ENDBLK
  5
15A
  8
0
  0
BLOCK
  8
0
  2
_OPEN30
 70
     0
 10
0.0
 20
0.0
 30
0.0
  3
_OPEN30
  1

  0
LINE
  5
15C
  8
0
  6
BYBLOCK
 62
     0
 10
-1.0
 20
0.26794919
 30
0.0
 11
0.0
 21
0.0
 31
0.0
  0
LINE
  5
15D
  8
0
  6
BYBLOCK
 62
     0
 10
0.0
 20
0.0
 30
0.0
 11
-1.0
 21
-0.26794919
 31
0.0
  0
LINE
  5
15E
  8
0
  6
BYBLOCK
 62
     0
 10
0.0
 20
0.0
 30
0.0
 11
-1.0
 21
0.0
 31
0.0
  0
ENDBLK
  5
160
  8
0
  0
BLOCK
  8
0
  2
ISO_A2_TITLE_BLOCK
 70
     2
 10
0.0
 20
0.0
 30
0.0
  3
ISO_A2_TITLE_BLOCK
  1

  0
LINE
  5
BDD
  8
FRAME_050
 10
299.5
 20
12.5
 30
0.0
 11
297.0
 21
7.5
 31
0.0
  0
LINE
  5
BDE
  8
FRAME_050
 10
294.5
 20
12.5
 30
0.0
 11
299.5
 21
12.5
 31
0.0
  0
LINE
  5
BDF
  8
FRAME_050
 10
247.0
 20
5.0
 30
0.0
 11
347.0
 21
5.0
 31
0.0
  0
LINE
  5
BE0
  8
FRAME_070
 10
584.0
 20
410.0
 30
0.0
 11
10.0
 21
410.0
 31
0.0
  0
LINE
  5
BE1
  8
FRAME_070
 10
10.0
 20
10.0
 30
0.0
 11
584.0
 21
10.0
 31
0.0
  0
LINE
  5
BE2
  8
FRAME_050
 10
12.5
 20
207.5
 30
0.0
 11
7.5
 21
210.0
 31
0.0
  0
LINE
  5
BE3
  8
FRAME_050
 10
12.5
 20
212.5
 30
0.0
 11
12.5
 21
207.5
 31
0.0
  0
LINE
  5
BE4
  8
FRAME_070
 10
10.0
 20
410.0
 30
0.0
 11
10.0
 21
10.0
 31
0.0
  0
LINE
  5
BE5
  8
FRAME_200
 10
0.0
 20
0.0
 30
0.0
 11
0.0
 21
10.0
 31
0.0
  0
LINE
  5
BE6
  8
FRAME_200
 10
0.0
 20
0.0
 30
0.0
 11
10.0
 21
0.0
 31
0.0
  0
TEXT
  5
BE7
  8
FRAME_050
 10
5.9000000000000004
 20
35.0
 30
0.0
 40
4.0
  1
H
  7
ISO_PROPORTIONAL
 72
     4
 11
7.5
 21
37.0
 31
0.0
  0
LINE
  5
BE8
  8
FRAME_050
 10
10.0
 20
60.0
 30
0.0
 11
5.0
 21
60.0
 31
0.0
  0
LINE
  5
BE9
  8
FRAME_050
 10
81.75
 20
5.0
 30
0.0
 11
81.75
 21
10.0
 31
0.0
  0
TEXT
  5
BEA
  8
FRAME_050
 10
44.874999999999993
 20
5.5
 30
0.0
 40
4.0
  1
1
  7
ISO_PROPORTIONAL
 72
     4
 11
45.875
 21
7.5
 31
0.0
  0
TEXT
  5
BEB
  8
FRAME_050
 10
6.0035533905932743
 20
85.0
 30
0.0
 40
4.0
  1
G
  7
ISO_PROPORTIONAL
 72
     4
 11
7.5
 21
87.0
 31
0.0
  0
LINE
  5
BEC
  8
FRAME_050
 10
10.0
 20
110.0
 30
0.0
 11
5.0
 21
110.0
 31
0.0
  0
TEXT
  5
BED
  8
FRAME_050
 10
6.0999999999999988
 20
135.0
 30
0.0
 40
4.0
  1
F
  7
ISO_PROPORTIONAL
 72
     4
 11
7.5
 21
137.0
 31
0.0
  0
LINE
  5
BEE
  8
FRAME_050
 10
10.0
 20
160.0
 30
0.0
 11
5.0
 21
160.0
 31
0.0
  0
TEXT
  5
BEF
  8
FRAME_050
 10
6.0999999999999988
 20
185.0
 30
0.0
 40
4.0
  1
E
  7
ISO_PROPORTIONAL
 72
     4
 11
7.5
 21
187.0
 31
0.0
  0
LINE
  5
BF0
  8
FRAME_050
 10
153.5
 20
5.0
 30
0.0
 11
153.5
 21
10.0
 31
0.0
  0
TEXT
  5
BF1
  8
FRAME_050
 10
116.1556692913386
 20
5.3996062992125982
 30
0.0
 40
4.0
  1
2
  7
ISO_PROPORTIONAL
 72
     4
 11
117.625
 21
7.5
 31
0.0
  0
TEXT
  5
BF2
  8
FRAME_050
 10
187.89215728752529
 20
5.5828427124746138
 30
0.0
 40
4.0
  1
3
  7
ISO_PROPORTIONAL
 72
     4
 11
189.375
 21
7.5
 31
0.0
  0
LINE
  5
BF3
  8
FRAME_050
 10
225.25
 20
5.0
 30
0.0
 11
225.25
 21
10.0
 31
0.0
  0
LINE
  5
BF4
  8
FRAME_050
 10
297.0
 20
7.5
 30
0.0
 11
294.5
 21
12.5
 31
0.0
  0
LINE
  5
BF5
  8
FRAME_050
 10
287.0
 20
5.0
 30
0.0
 11
287.0
 21
10.0
 31
0.0
  0
LINE
  5
BF6
  8
FRAME_050
 10
277.0
 20
5.0
 30
0.0
 11
277.0
 21
10.0
 31
0.0
  0
LINE
  5
BF7
  8
FRAME_050
 10
267.0
 20
5.0
 30
0.0
 11
267.0
 21
10.0
 31
0.0
  0
LINE
  5
BF8
  8
FRAME_050
 10
257.0
 20
5.0
 30
0.0
 11
257.0
 21
10.0
 31
0.0
  0
LINE
  5
BF9
  8
FRAME_050
 10
247.0
 20
5.0
 30
0.0
 11
247.0
 21
10.0
 31
0.0
  0
LINE
  5
BFA
  8
FRAME_050
 10
297.0
 20
10.0
 30
0.0
 11
297.0
 21
5.0
 31
0.0
  0
LINE
  5
BFB
  8
FRAME_050
 10
297.0
 20
10.0
 30
0.0
 11
297.0
 21
15.0
 31
0.0
  0
LINE
  5
BFC
  8
FRAME_050
 10
5.0
 20
210.0
 30
0.0
 11
15.0
 21
210.0
 31
0.0
  0
LINE
  5
BFD
  8
FRAME_050
 10
7.5
 20
210.0
 30
0.0
 11
12.5
 21
212.5
 31
0.0
  0
TEXT
  5
BFE
  8
FRAME_050
 10
5.7860912703473977
 20
235.0
 30
0.0
 40
4.0
  1
D
  7
ISO_PROPORTIONAL
 72
     4
 11
7.5
 21
237.0
 31
0.0
  0
LINE
  5
BFF
  8
FRAME_050
 10
10.0
 20
260.0
 30
0.0
 11
5.0
 21
260.0
 31
0.0
  0
TEXT
  5
C00
  8
FRAME_050
 10
6.1931980515339466
 20
285.0
 30
0.0
 40
4.0
  1
C
  7
ISO_PROPORTIONAL
 72
     4
 11
7.5
 21
287.0
 31
0.0
  0
LINE
  5
C01
  8
FRAME_050
 10
10.0
 20
310.0
 30
0.0
 11
5.0
 21
310.0
 31
0.0
  0
TEXT
  5
C02
  8
FRAME_050
 10
5.8999999999999959
 20
335.0
 30
0.0
 40
4.0
  1
B
  7
ISO_PROPORTIONAL
 72
     4
 11
7.5
 21
337.0
 31
0.0
  0
LINE
  5
C03
  8
FRAME_050
 10
10.0
 20
360.0
 30
0.0
 11
5.0
 21
360.0
 31
0.0
  0
TEXT
  5
C04
  8
FRAME_050
 10
5.6999999999999993
 20
385.0
 30
0.0
 40
4.0
  1
A
  7
ISO_PROPORTIONAL
 72
     4
 11
7.5
 21
387.0
 31
0.0
  0
LINE
  5
C05
  8
FRAME_200
 10
10.0
 20
420.0
 30
0.0
 11
0.0
 21
420.0
 31
0.0
  0
LINE
  5
C06
  8
FRAME_200
 10
0.0
 20
420.0
 30
0.0
 11
0.0
 21
410.0
 31
0.0
  0
TEXT
  5
C07
  8
FRAME_050
 10
44.874999999999993
 20
410.5
 30
0.0
 40
4.0
  1
1
  7
ISO_PROPORTIONAL
 72
     4
 11
45.875
 21
412.5
 31
0.0
  0
LINE
  5
C08
  8
FRAME_050
 10
81.75
 20
410.0
 30
0.0
 11
81.75
 21
415.0
 31
0.0
  0
TEXT
  5
C09
  8
FRAME_050
 10
116.1556692913386
 20
410.39960629921262
 30
0.0
 40
4.0
  1
2
  7
ISO_PROPORTIONAL
 72
     4
 11
117.625
 21
412.5
 31
0.0
  0
LINE
  5
C0A
  8
FRAME_050
 10
153.5
 20
410.0
 30
0.0
 11
153.5
 21
415.0
 31
0.0
  0
TEXT
  5
C0B
  8
FRAME_050
 10
187.89215728752529
 20
410.58284271247459
 30
0.0
 40
4.0
  1
3
  7
ISO_PROPORTIONAL
 72
     4
 11
189.375
 21
412.5
 31
0.0
  0
LINE
  5
C0C
  8
FRAME_050
 10
297.0
 20
405.0
 30
0.0
 11
297.0
 21
415.0
 31
0.0
  0
LINE
  5
C0D
  8
FRAME_050
 10
225.25
 20
410.0
 30
0.0
 11
225.25
 21
415.0
 31
0.0
  0
TEXT
  5
C0E
  8
FRAME_050
 10
259.52499999999998
 20
410.5
 30
0.0
 40
4.0
  1
4
  7
ISO_PROPORTIONAL
 72
     4
 11
261.125
 21
412.5
 31
0.0
  0
LINE
  5
C0F
  8
FRAME_070
 10
584.0
 20
10.0
 30
0.0
 11
584.0
 21
410.0
 31
0.0
  0
ATTDEF
  5
C10
  8
FRAME_025
 10
473.0
 20
31.75
 30
0.0
 40
2.5
  1
XXX - 00/00/00
  7
ISO_PROPORTIONAL
 11
473.0
 21
33.0
 31
0.0
  3
Approved by - Date
  2
APPROVED_BY_DATE
 70
     8
 74
     2
  0
TEXT
  5
C11
  8
FRAME_025
 10
448.0
 20
41.749999999999993
 30
0.0
 40
2.5
  1
Title/Name, designation, material, dimension etc
  7
ISO_PROPORTIONAL
 11
448.0
 21
43.0
 31
0.0
 73
     2
  0
TEXT
  5
C12
  8
FRAME_025
 10
473.0
 20
35.75
 30
0.0
 40
2.5
  1
Approved by - date
  7
ISO_PROPORTIONAL
 11
473.0
 21
37.0
 31
0.0
 73
     2
  0
LINE
  5
C13
  8
FRAME_070
 10
414.0
 20
46.0
 30
0.0
 11
584.0
 21
46.0
 31
0.0
  0
LINE
  5
C14
  8
FRAME_070
 10
414.0
 20
40.0
 30
0.0
 11
584.0
 21
40.0
 31
0.0
  0
LINE
  5
C15
  8
FRAME_070
 10
414.0
 20
30.0
 30
0.0
 11
584.0
 21
30.0
 31
0.0
  0
LINE
  5
C16
  8
FRAME_050
 10
368.75
 20
5.0
 30
0.0
 11
368.75
 21
10.0
 31
0.0
  0
LINE
  5
C17
  8
FRAME_050
 10
337.0
 20
5.0
 30
0.0
 11
337.0
 21
10.0
 31
0.0
  0
LINE
  5
C18
  8
FRAME_050
 10
327.0
 20
5.0
 30
0.0
 11
327.0
 21
10.0
 31
0.0
  0
LINE
  5
C19
  8
FRAME_050
 10
317.0
 20
5.0
 30
0.0
 11
317.0
 21
10.0
 31
0.0
  0
LINE
  5
C1A
  8
FRAME_050
 10
307.0
 20
5.0
 30
0.0
 11
307.0
 21
10.0
 31
0.0
  0
LINE
  5
C1B
  8
FRAME_050
 10
347.0
 20
5.0
 30
0.0
 11
347.0
 21
10.0
 31
0.0
  0
LINE
  5
C1C
  8
FRAME_050
 10
440.5
 20
5.0
 30
0.0
 11
440.5
 21
10.0
 31
0.0
  0
TEXT
  5
C1D
  8
FRAME_050
 10
403.24547244094481
 20
5.4102362204724406
 30
0.0
 40
4.0
  1
6
  7
ISO_PROPORTIONAL
 72
     4
 11
404.62499999999989
 21
7.5
 31
0.0
  0
TEXT
  5
C1E
  8
FRAME_050
 10
474.97499999999991
 20
5.5
 30
0.0
 40
4.0
  1
7
  7
ISO_PROPORTIONAL
 72
     4
 11
476.37499999999989
 21
7.5
 31
0.0
  0
TEXT
  5
C1F
  8
FRAME_025
 10
431.0
 20
41.749999999999993
 30
0.0
 40
2.5
  1
Quantity
  7
ISO_PROPORTIONAL
 11
431.0
 21
43.0
 31
0.0
 73
     2
  0
TEXT
  5
C20
  8
FRAME_025
 10
416.0
 20
41.749999999999993
 30
0.0
 40
2.5
  1
Itemref
  7
ISO_PROPORTIONAL
 11
416.0
 21
43.0
 31
0.0
 73
     2
  0
LINE
  5
C21
  8
FRAME_070
 10
414.0
 20
40.0
 30
0.0
 11
414.0
 21
46.0
 31
0.0
  0
LINE
  5
C22
  8
FRAME_070
 10
429.0
 20
40.0
 30
0.0
 11
429.0
 21
46.0
 31
0.0
  0
LINE
  5
C23
  8
FRAME_070
 10
414.0
 20
10.0
 30
0.0
 11
414.0
 21
40.0
 31
0.0
  0
ATTDEF
  5
C24
  8
FRAME_025
 10
416.0
 20
31.75
 30
0.0
 40
2.5
  1
XXX
  7
ISO_PROPORTIONAL
 11
416.0
 21
33.0
 31
0.0
  3
Designed by
  2
DESIGNED_BY
 70
     8
 74
     2
  0
TEXT
  5
C25
  8
FRAME_025
 10
416.0
 20
35.75
 30
0.0
 40
2.5
  1
Designed by
  7
ISO_PROPORTIONAL
 11
416.0
 21
37.0
 31
0.0
 73
     2
  0
LINE
  5
C26
  8
FRAME_070
 10
446.0
 20
40.0
 30
0.0
 11
446.0
 21
46.0
 31
0.0
  0
ATTDEF
  5
C27
  8
FRAME_025
 10
448.0
 20
31.75
 30
0.0
 40
2.5
  1
XXX
  7
ISO_PROPORTIONAL
 11
448.0
 21
33.0
 31
0.0
  3
Checked by
  2
CHECKED_BY
 70
     8
 74
     2
  0
TEXT
  5
C28
  8
FRAME_025
 10
448.0
 20
35.75
 30
0.0
 40
2.5
  1
Checked by
  7
ISO_PROPORTIONAL
 11
448.0
 21
37.0
 31
0.0
 73
     2
  0
ATTDEF
  5
C29
  8
FRAME_050
 10
444.74999999999989
 20
17.5
 30
0.0
 40
5.0
  1
XXX
  7
ISO_PROPORTIONAL
 72
     4
 11
451.49999999999989
 21
20.0
 31
0.0
  3
Owner
  2
OWNER
 70
     8
  0
LINE
  5
C2A
  8
FRAME_070
 10
446.0
 20
30.0
 30
0.0
 11
446.0
 21
40.0
 31
0.0
  0
LINE
  5
C2B
  8
FRAME_070
 10
471.0
 20
30.0
 30
0.0
 11
471.0
 21
40.0
 31
0.0
  0
LINE
  5
C2C
  8
FRAME_070
 10
489.0
 20
20.0
 30
0.0
 11
584.0
 21
20.0
 31
0.0
  0
LINE
  5
C2D
  8
FRAME_050
 10
512.25
 20
5.0
 30
0.0
 11
512.25
 21
10.0
 31
0.0
  0
TEXT
  5
C2E
  8
FRAME_050
 10
546.72499999999991
 20
5.5
 30
0.0
 40
4.0
  1
8
  7
ISO_PROPORTIONAL
 72
     4
 11
548.125
 21
7.5
 31
0.0
  0
ATTDEF
  5
C2F
  8
FRAME_050
 10
517.64999999999986
 20
13.5
 30
0.0
 40
3.0
  1
X
  7
ISO_PROPORTIONAL
 72
     4
 11
519.0
 21
15.0
 31
0.0
  3
Drawing number
  2
DRAWING_NUMBER
 70
     8
  0
ATTDEF
  5
C30
  8
FRAME_050
 10
529.75
 20
22.5
 30
0.0
 40
5.0
  1
XXX
  7
ISO_PROPORTIONAL
 72
     4
 11
536.5
 21
25.0
 31
0.0
  3
Title / Name
  2
TITLE
 70
     8
  0
LINE
  5
C31
  8
FRAME_070
 10
489.0
 20
10.0
 30
0.0
 11
489.0
 21
30.0
 31
0.0
  0
ATTDEF
  5
C32
  8
FRAME_025
 10
511.0
 20
31.75
 30
0.0
 40
2.5
  1
XXX
  7
ISO_PROPORTIONAL
 11
511.0
 21
33.0
 31
0.0
  3
Filename
  2
FILENAME
 70
     8
 74
     2
  0
TEXT
  5
C33
  8
FRAME_025
 10
511.0
 20
35.75
 30
0.0
 40
2.5
  1
Filename
  7
ISO_PROPORTIONAL
 11
511.0
 21
37.0
 31
0.0
 73
     2
  0
LINE
  5
C34
  8
FRAME_070
 10
509.0
 20
30.0
 30
0.0
 11
509.0
 21
40.0
 31
0.0
  0
TEXT
  5
C35
  8
FRAME_025
 10
536.0
 20
41.749999999999993
 30
0.0
 40
2.5
  1
Article No./Reference
  7
ISO_PROPORTIONAL
 11
536.0
 21
43.0
 31
0.0
 73
     2
  0
LINE
  5
C36
  8
FRAME_070
 10
534.0
 20
40.0
 30
0.0
 11
534.0
 21
46.0
 31
0.0
  0
ATTDEF
  5
C37
  8
FRAME_025
 10
551.0
 20
11.75
 30
0.0
 40
2.5
  1
0
  7
ISO_PROPORTIONAL
 11
551.0
 21
13.0
 31
0.0
  3
Edition
  2
EDITION
 70
     8
 74
     2
  0
TEXT
  5
C38
  8
FRAME_025
 10
551.0
 20
15.75
 30
0.0
 40
2.5
  1
Edition
  7
ISO_PROPORTIONAL
 11
551.0
 21
17.0
 31
0.0
 73
     2
  0
LINE
  5
C39
  8
FRAME_070
 10
549.0
 20
10.0
 30
0.0
 11
549.0
 21
20.0
 31
0.0
  0
ATTDEF
  5
C3A
  8
FRAME_025
 10
536.0
 20
31.75
 30
0.0
 40
2.5
  1
00/00/00
  7
ISO_PROPORTIONAL
 11
536.0
 21
33.0
 31
0.0
  3
Date
  2
DATE
 70
     8
 74
     2
  0
TEXT
  5
C3B
  8
FRAME_025
 10
536.0
 20
35.75
 30
0.0
 40
2.5
  1
Date
  7
ISO_PROPORTIONAL
 11
536.0
 21
37.0
 31
0.0
 73
     2
  0
LINE
  5
C3C
  8
FRAME_070
 10
534.0
 20
30.0
 30
0.0
 11
534.0
 21
40.0
 31
0.0
  0
ATTDEF
  5
C3D
  8
FRAME_025
 10
566.0
 20
11.75
 30
0.0
 40
2.5
  1
1/1
  7
ISO_PROPORTIONAL
 11
566.0
 21
13.0
 31
0.0
  3
Sheet
  2
SHEET
 70
     8
 74
     2
  0
TEXT
  5
C3E
  8
FRAME_025
 10
566.0
 20
15.75
 30
0.0
 40
2.5
  1
Sheet
  7
ISO_PROPORTIONAL
 11
566.0
 21
17.0
 31
0.0
 73
     2
  0
LINE
  5
C3F
  8
FRAME_070
 10
564.0
 20
10.0
 30
0.0
 11
564.0
 21
20.0
 31
0.0
  0
ATTDEF
  5
C40
  8
FRAME_025
 10
566.0
 20
31.75
 30
0.0
 40
2.5
  1
1:1
  7
ISO_PROPORTIONAL
 11
566.0
 21
33.0
 31
0.0
  3
Scale
  2
SCALE
 70
     8
 74
     2
  0
TEXT
  5
C41
  8
FRAME_025
 10
566.0
 20
35.75
 30
0.0
 40
2.5
  1
Scale
  7
ISO_PROPORTIONAL
 11
566.0
 21
37.0
 31
0.0
 73
     2
  0
LINE
  5
C42
  8
FRAME_070
 10
564.0
 20
30.0
 30
0.0
 11
564.0
 21
40.0
 31
0.0
  0
LINE
  5
C43
  8
FRAME_200
 10
594.0
 20
0.0
 30
0.0
 11
594.0
 21
10.0
 31
0.0
  0
LINE
  5
C44
  8
FRAME_200
 10
594.0
 20
0.0
 30
0.0
 11
584.0
 21
0.0
 31
0.0
  0
TEXT
  5
C45
  8
FRAME_050
 10
584.89999999999998
 20
35.0
 30
0.0
 40
4.0
  1
H
  7
ISO_PROPORTIONAL
 72
     4
 11
586.5
 21
37.0
 31
0.0
  0
LINE
  5
C46
  8
FRAME_050
 10
589.0
 20
60.0
 30
0.0
 11
584.0
 21
60.0
 31
0.0
  0
TEXT
  5
C47
  8
FRAME_050
 10
585.0035533905932
 20
85.0
 30
0.0
 40
4.0
  1
G
  7
ISO_PROPORTIONAL
 72
     4
 11
586.5
 21
87.0
 31
0.0
  0
LINE
  5
C48
  8
FRAME_050
 10
589.0
 20
110.0
 30
0.0
 11
584.0
 21
110.0
 31
0.0
  0
TEXT
  5
C49
  8
FRAME_050
 10
585.09999999999991
 20
135.0
 30
0.0
 40
4.0
  1
F
  7
ISO_PROPORTIONAL
 72
     4
 11
586.5
 21
137.0
 31
0.0
  0
LINE
  5
C4A
  8
FRAME_050
 10
589.0
 20
160.0
 30
0.0
 11
584.0
 21
160.0
 31
0.0
  0
TEXT
  5
C4B
  8
FRAME_050
 10
585.09999999999991
 20
185.0
 30
0.0
 40
4.0
  1
E
  7
ISO_PROPORTIONAL
 72
     4
 11
586.5
 21
187.0
 31
0.0
  0
LINE
  5
C4C
  8
FRAME_070
 10
414.0
 20
404.0
 30
0.0
 11
584.0
 21
404.0
 31
0.0
  0
TEXT
  5
C4D
  8
FRAME_050
 10
331.39215728752538
 20
410.58284271247459
 30
0.0
 40
4.0
  1
5
  7
ISO_PROPORTIONAL
 72
     4
 11
332.875
 21
412.5
 31
0.0
  0
LINE
  5
C4E
  8
FRAME_050
 10
368.75
 20
410.0
 30
0.0
 11
368.75
 21
415.0
 31
0.0
  0
TEXT
  5
C4F
  8
FRAME_025
 10
428.0
 20
405.75
 30
0.0
 40
2.5
  1
Revision note
  7
ISO_PROPORTIONAL
 11
428.0
 21
407.0
 31
0.0
 73
     2
  0
TEXT
  5
C50
  8
FRAME_025
 10
416.0
 20
405.75
 30
0.0
 40
2.5
  1
RevNo
  7
ISO_PROPORTIONAL
 11
416.0
 21
407.0
 31
0.0
 73
     2
  0
LINE
  5
C51
  8
FRAME_070
 10
426.0
 20
404.0
 30
0.0
 11
426.0
 21
410.0
 31
0.0
  0
LINE
  5
C52
  8
FRAME_070
 10
414.0
 20
404.0
 30
0.0
 11
414.0
 21
410.0
 31
0.0
  0
TEXT
  5
C53
  8
FRAME_050
 10
403.24547244094481
 20
410.41023622047243
 30
0.0
 40
4.0
  1
6
  7
ISO_PROPORTIONAL
 72
     4
 11
404.62499999999989
 21
412.5
 31
0.0
  0
LINE
  5
C54
  8
FRAME_050
 10
440.5
 20
410.0
 30
0.0
 11
440.5
 21
415.0
 31
0.0
  0
TEXT
  5
C55
  8
FRAME_050
 10
474.97499999999991
 20
410.5
 30
0.0
 40
4.0
  1
7
  7
ISO_PROPORTIONAL
 72
     4
 11
476.37499999999989
 21
412.5
 31
0.0
  0
LINE
  5
C56
  8
FRAME_050
 10
579.0
 20
210.0
 30
0.0
 11
589.0
 21
210.0
 31
0.0
  0
TEXT
  5
C57
  8
FRAME_050
 10
584.78609127034736
 20
235.0
 30
0.0
 40
4.0
  1
D
  7
ISO_PROPORTIONAL
 72
     4
 11
586.5
 21
237.0
 31
0.0
  0
LINE
  5
C58
  8
FRAME_050
 10
589.0
 20
260.0
 30
0.0
 11
584.0
 21
260.0
 31
0.0
  0
TEXT
  5
C59
  8
FRAME_050
 10
585.19319805153395
 20
285.0
 30
0.0
 40
4.0
  1
C
  7
ISO_PROPORTIONAL
 72
     4
 11
586.5
 21
287.0
 31
0.0
  0
LINE
  5
C5A
  8
FRAME_050
 10
589.0
 20
310.0
 30
0.0
 11
584.0
 21
310.0
 31
0.0
  0
TEXT
  5
C5B
  8
FRAME_050
 10
584.89999999999998
 20
335.0
 30
0.0
 40
4.0
  1
B
  7
ISO_PROPORTIONAL
 72
     4
 11
586.5
 21
337.0
 31
0.0
  0
TEXT
  5
C5C
  8
FRAME_025
 10
571.08299391850551
 20
405.75
 30
0.0
 40
2.5
  1
Checked
  7
ISO_PROPORTIONAL
 11
571.08299391850551
 21
407.0
 31
0.0
 73
     2
  0
TEXT
  5
C5D
  8
FRAME_025
 10
555.36099797283521
 20
405.75
 30
0.0
 40
2.5
  1
Signature
  7
ISO_PROPORTIONAL
 11
555.36099797283521
 21
407.0
 31
0.0
 73
     2
  0
TEXT
  5
C5E
  8
FRAME_025
 10
537.0
 20
405.75
 30
0.0
 40
2.5
  1
Date
  7
ISO_PROPORTIONAL
 11
537.0
 21
407.0
 31
0.0
 73
     2
  0
LINE
  5
C5F
  8
FRAME_070
 10
570.0
 20
404.0
 30
0.0
 11
570.0
 21
410.0
 31
0.0
  0
LINE
  5
C60
  8
FRAME_070
 10
555.0
 20
404.0
 30
0.0
 11
555.0
 21
410.0
 31
0.0
  0
LINE
  5
C61
  8
FRAME_070
 10
535.0
 20
404.0
 30
0.0
 11
535.0
 21
410.0
 31
0.0
  0
LINE
  5
C62
  8
FRAME_050
 10
512.25
 20
410.0
 30
0.0
 11
512.25
 21
415.0
 31
0.0
  0
TEXT
  5
C63
  8
FRAME_050
 10
546.72499999999991
 20
410.5
 30
0.0
 40
4.0
  1
8
  7
ISO_PROPORTIONAL
 72
     4
 11
548.125
 21
412.5
 31
0.0
  0
LINE
  5
C64
  8
FRAME_050
 10
589.0
 20
360.0
 30
0.0
 11
584.0
 21
360.0
 31
0.0
  0
TEXT
  5
C65
  8
FRAME_050
 10
584.70000000000005
 20
385.0
 30
0.0
 40
4.0
  1
A
  7
ISO_PROPORTIONAL
 72
     4
 11
586.5
 21
387.0
 31
0.0
  0
LINE
  5
C66
  8
FRAME_200
 10
594.0
 20
420.0
 30
0.0
 11
584.0
 21
420.0
 31
0.0
  0
LINE
  5
C67
  8
FRAME_200
 10
594.0
 20
410.0
 30
0.0
 11
594.0
 21
420.0
 31
0.0
  0
ENDBLK
  5
C69
  8
0
  0
BLOCK
  8
0
  2
WOBB001END
 70
     0
 10
0.0
 20
0.0
 30
0.0
  3
WOBB001END
  1

  0
LINE
  5
4D66
  8
0
  6
CONTINUOUS
 10
0.0
 20
0.0
 30
0.0
 11
0.8749999999999998
 21
0.0
 31
0.0
  0
ARC
  5
4D67
  8
0
  6
CONTINUOUS
 10
0.0331648379439287
 20
-0.5087238935900234
 30
0.0
 40
0.8790130605592325
 50
284.06490243660443
 51
312.19222981924361
  0
ARC
  5
4D68
  8
0
  6
CONTINUOUS
 10
0.2841534338796767
 20
-1.510548310625538
 30
0.0
 40
0.1537731892806598
 50
104.0649024366044
 51
179.4721730735024
  0
LINE
  5
4D69
  8
0
  6
CONTINUOUS
 10
0.0
 20
0.0
 30
0.0
 11
-0.0000000000000003
 21
-1.7501564476661911
 31
0.0
  0
ARC
  5
4D6A
  8
0
  6
CONTINUOUS
 10
0.1404622019506122
 20
-1.630313718354619
 30
0.0
 40
0.1198427293115722
 50
275.0
 51
85.000000000000057
  0
LINE
  5
4D6B
  8
0
  6
CONTINUOUS
 10
-0.0000000000000003
 20
-1.7501564476661911
 30
0.0
 11
0.1456946485130855
 21
-1.7501564476661911
 31
0.0
  0
LINE
  5
4D6C
  8
0
  6
CONTINUOUS
 10
0.1377603739254348
 20
-1.7508506067459131
 30
0.0
 11
0.150907184036669
 21
-1.7497004098996509
 31
0.0
  0
LINE
  5
4D6D
  8
0
  6
CONTINUOUS
 10
0.1303867696719884
 20
-1.5091317231818231
 30
0.0
 11
0.1509071840366689
 21
-1.510927026809586
 31
0.0
  0
LINE
  5
4D6E
  8
0
  6
CONTINUOUS
 10
0.8749999999999998
 20
0.0
 30
0.0
 11
0.8749999999999996
 21
-0.8649327026588228
 31
0.0
  0
LINE
  5
4D6F
  8
0
  6
CONTINUOUS
 10
0.727014513830997
 20
-0.872688293355061
 30
0.0
 11
0.727014513830997
 21
-0.9264923397184784
 31
0.0
  0
ARC
  5
4D70
  8
0
  6
CONTINUOUS
 10
0.41187090827646
 20
-0.9264923397184784
 30
0.0
 40
0.3151436055545369
 50
312.19222981924361
 51
0.0
  0
LINE
  5
4D71
  8
0
  6
CONTINUOUS
 10
0.727014513830997
 20
-0.872688293355061
 30
0.0
 11
0.8749999999999996
 21
-0.8649327026588228
 31
0.0
  0
ENDBLK
  5
4D72
  8
0
  0
BLOCK
  8
0
  2
A$C0A61123B
 70
     0
 10
0.0
 20
0.0
 30
0.0
  3
A$C0A61123B
  1

  0
LINE
  5
C0AD
  8
PROF
  6
CONTINUOUS
 10
4.9012016798694162
 20
13.325025853350891
 30
0.0000000000000002
 11
4.9012016798694162
 21
12.88585218805485
 31
0.0000000000000003
  0
INSERT
  5
C0AE
  8
0
  2
*U7
 10
0.0
 20
0.0
 30
0.0
  0
LINE
  5
C0AF
  8
PROF
 10
4.519857503186925
 20
12.72227734589444
 30
0.0000000000000001
 11
4.519857503186925
 21
12.88585218805485
 31
0.0000000000000001
  0
LINE
  5
C0B0
  8
PROF
  6
CONTINUOUS
 10
3.6306271195888362
 20
13.325025853350891
 30
0.0000000000000002
 11
4.9012016798694162
 21
13.325025853350891
 31
0.0000000000000002
  0
LINE
  5
C0B1
  8
PROF
 10
1.9750295148747341
 20
10.37671325491794
 30
0.0000000000000002
 11
1.9750295148747341
 21
10.11391186758919
 31
0.0000000000000002
  0
LINE
  5
C0B2
  8
PROF
 10
1.6079673357556299
 20
10.11391186758919
 30
0.0000000000000001
 11
1.9750295148747341
 21
10.11391186758919
 31
0.0000000000000001
  0
LINE
  5
C0B3
  8
PROF
 10
1.9750295148747341
 20
10.11391186758919
 30
0.0000000000000001
 11
1.944958486898144
 21
10.11391186758919
 31
0.0000000000000001
  0
LINE
  5
C0B4
  8
PROF
 10
1.9750295148747341
 20
10.11391186758919
 30
0.0000000000000001
 11
1.944958486898144
 21
10.11391186758919
 31
0.0000000000000001
  0
LINE
  5
C0B5
  8
PROF
 10
0.3222605517169654
 20
7.5247473351056451
 30
-0.0000000000000002
 11
-0.0000008570117416
 21
7.5247473351056451
 31
0.0
  0
LINE
  5
C0B6
  8
PROF
 10
-0.0000008570117416
 20
7.5247473351056451
 30
0.0
 11
-0.0000008570117416
 21
9.1943336957369848
 31
0.0
  0
POLYLINE
  5
C0B7
  8
PROF
 66
     1
 10
0.0
 20
0.0
 30
0.0000000000000001
 70
     4
 75
     6
  0
VERTEX
  5
C0B8
  8
PROF
 10
1.6079673357556299
 20
10.11391186758919
 30
0.0000000000000001
 70
    16
  0
VERTEX
  5
C0B9
  8
PROF
 10
1.6079673357556299
 20
10.11391186758919
 30
0.0000000000000001
 70
     8
  0
VERTEX
  5
C0BA
  8
PROF
 10
1.6468132326485809
 20
10.02198069336111
 30
0.0000000000000001
 70
     8
  0
VERTEX
  5
C0BB
  8
PROF
 10
1.67335966680929
 20
9.9344134163010231
 30
0.0000000000000001
 70
     8
  0
VERTEX
  5
C0BC
  8
PROF
 10
1.6890086400463229
 20
9.8512576644480951
 30
0.0000000000000001
 70
     8
  0
VERTEX
  5
C0BD
  8
PROF
 10
1.6951621541682571
 20
9.7725610658417281
 30
0.0000000000000001
 70
     8
  0
VERTEX
  5
C0BE
  8
PROF
 10
1.693222210983605
 20
9.6983712485214237
 30
0.0000000000000001
 70
     8
  0
VERTEX
  5
C0BF
  8
PROF
 10
1.6845908123009961
 20
9.6287358405263603
 30
0.0000000000000001
 70
     8
  0
VERTEX
  5
C0C0
  8
PROF
 10
1.670669959928885
 20
9.5637024698960431
 30
0.0000000000000001
 70
     8
  0
VERTEX
  5
C0C1
  8
PROF
 10
1.6528616556759621
 20
9.5033187646697552
 30
0.0000000000000001
 70
     8
  0
VERTEX
  5
C0C2
  8
PROF
 10
1.632356299273054
 20
9.4475843259650691
 30
0.0000000000000001
 70
     8
  0
VERTEX
  5
C0C3
  8
PROF
 10
1.609497882140658
 20
9.3963066472123273
 30
0.0000000000000001
 70
     8
  0
VERTEX
  5
C0C4
  8
PROF
 10
1.584418793621637
 20
9.3492451949202842
 30
0.0000000000000001
 70
     8
  0
VERTEX
  5
C0C5
  8
PROF
 10
1.5572514230587431
 20
9.3061594355972357
 30
0.0000000000000001
 70
     8
  0
VERTEX
  5
C0C6
  8
PROF
 10
1.5281281597949601
 20
9.2668088357519274
 30
0.0000000000000001
 70
     8
  0
VERTEX
  5
C0C7
  8
PROF
 10
1.497181393172978
 20
9.2309528618929981
 30
0.0000000000000001
 70
     8
  0
VERTEX
  5
C0C8
  8
PROF
 10
1.4645435125357249
 20
9.1983509805288541
 30
0.0000000000000001
 70
     8
  0
VERTEX
  5
C0C9
  8
PROF
 10
1.4303469072260091
 20
9.1687626581682462
 30
0.0000000000000001
 70
     8
  0
VERTEX
  5
C0CA
  8
PROF
 10
1.394736033257401
 20
9.1419547918675335
 30
0.0000000000000001
 70
     8
  0
VERTEX
  5
C0CB
  8
PROF
 10
1.3579036133264131
 20
9.1177240008747713
 30
0.0000000000000001
 70
     8
  0
VERTEX
  5
C0CC
  8
PROF
 10
1.3200544368004321
 20
9.0958743349860924
 30
0.0000000000000001
 70
     8
  0
VERTEX
  5
C0CD
  8
PROF
 10
1.281393293046676
 20
9.0762098439975034
 30
0.0000000000000001
 70
     8
  0
VERTEX
  5
C0CE
  8
PROF
 10
1.2421249714324161
 20
9.0585345777049042
 30
0.0000000000000001
 70
     8
  0
VERTEX
  5
C0CF
  8
PROF
 10
1.202454261324986
 20
9.0426525859044187
 30
0.0000000000000001
 70
     8
  0
VERTEX
  5
C0D0
  8
PROF
 10
1.162585952091659
 20
9.0283679183919503
 30
0.0000000000000001
 70
     8
  0
VERTEX
  5
C0D1
  8
PROF
 10
1.1227248330997091
 20
9.0154846249635021
 30
0.0000000000000001
 70
     8
  0
VERTEX
  5
C0D2
  8
PROF
 10
1.0829726247361
 20
9.0034643862466055
 30
0.0000000000000001
 70
     8
  0
VERTEX
  5
C0D3
  8
PROF
 10
1.043018771466222
 20
8.9903994061946833
 30
0.0000000000000001
 70
     8
  0
VERTEX
  5
C0D4
  8
PROF
 10
1.002449648775211
 20
8.9740395195925622
 30
0.0000000000000001
 70
     8
  0
VERTEX
  5
C0D5
  8
PROF
 10
0.9608516321480919
 20
8.9521345612251935
 30
0.0000000000000001
 70
     8
  0
VERTEX
  5
C0D6
  8
PROF
 10
0.9178110970699435
 20
8.9224343658775052
 30
0.0000000000000001
 70
     8
  0
VERTEX
  5
C0D7
  8
PROF
 10
0.8729144190259033
 20
8.8826887683343312
 30
0.0000000000000001
 70
     8
  0
VERTEX
  5
C0D8
  8
PROF
 10
0.8257479735009949
 20
8.8306476033806121
 30
0.0000000000000001
 70
     8
  0
VERTEX
  5
C0D9
  8
PROF
 10
0.7758981359802988
 20
8.764060705801171
 30
0.0000000000000001
 70
     8
  0
VERTEX
  5
C0DA
  8
PROF
 10
1.7292019016096549
 20
9.8629858761255491
 30
0.0000000000000001
 70
    16
  0
VERTEX
  5
C0DB
  8
PROF
 10
1.679373123114088
 20
9.4532143012734213
 30
0.0000000000000001
 70
    16
  0
VERTEX
  5
C0DC
  8
PROF
 10
1.4455611507419801
 20
9.1391837193732481
 30
0.0000000000000001
 70
    16
  0
VERTEX
  5
C0DD
  8
PROF
 10
1.1204637172738201
 20
9.0026267702428413
 30
0.0000000000000001
 70
    16
  0
VERTEX
  5
C0DE
  8
PROF
 10
0.9127765582653638
 20
8.9630202230383702
 30
0.0000000000000001
 70
    16
  0
VERTEX
  5
C0DF
  8
PROF
 10
0.7758981359802988
 20
8.764060705801171
 30
0.0000000000000001
 70
    16
  0
SEQEND
  5
C0E0
  8
PROF
  0
ARC
  5
C0E1
  8
PROF
 10
0.733429816733235
 20
8.4849506952165257
 30
0.0000000000000001
 40
0.2823224329524727
 50
269.73652020831901
 51
81.348449993176914
  0
LINE
  5
C0E2
  8
PROF
  6
CONTINUOUS
 10
-0.0000008570117416
 20
9.1943336957369848
 30
-0.0000000000000001
 11
3.6306271195888362
 21
13.325025853350891
 31
0.0000000000000002
  0
POLYLINE
  5
C0E3
  8
PROF
 66
     1
 10
0.0
 20
0.0
 30
0.0000000000000001
 70
     4
 75
     6
  0
VERTEX
  5
C0E4
  8
PROF
 10
4.519857503186925
 20
12.72227734589444
 30
0.0000000000000001
 70
    16
  0
VERTEX
  5
C0E5
  8
PROF
 10
4.519857503186925
 20
12.72227734589444
 30
0.0000000000000001
 70
     8
  0
VERTEX
  5
C0E6
  8
PROF
 10
4.4467035366886289
 20
12.741128108778071
 30
0.0000000000000001
 70
     8
  0
VERTEX
  5
C0E7
  8
PROF
 10
4.3786645761268801
 20
12.754675269913941
 30
0.0000000000000001
 70
     8
  0
VERTEX
  5
C0E8
  8
PROF
 10
4.3154364111440469
 20
12.76334314092332
 30
0.0000000000000001
 70
     8
  0
VERTEX
  5
C0E9
  8
PROF
 10
4.256714831382566
 20
12.76755603342724
 30
0.0000000000000001
 70
     8
  0
VERTEX
  5
C0EA
  8
PROF
 10
4.2021956264849791
 20
12.76773825904672
 30
0.0000000000000001
 70
     8
  0
VERTEX
  5
C0EB
  8
PROF
 10
4.1515745860935436
 20
12.764314129403139
 30
0.0000000000000001
 70
     8
  0
VERTEX
  5
C0EC
  8
PROF
 10
4.1045474998508649
 20
12.75770795611743
 30
0.0000000000000001
 70
     8
  0
VERTEX
  5
C0ED
  8
PROF
 10
4.0608101573993149
 20
12.748344050810831
 30
0.0000000000000001
 70
     8
  0
VERTEX
  5
C0EE
  8
PROF
 10
4.0200583483813261
 20
12.736646725104491
 30
0.0000000000000001
 70
     8
  0
VERTEX
  5
C0EF
  8
PROF
 10
3.981987862439381
 20
12.72304029061945
 30
0.0000000000000001
 70
     8
  0
VERTEX
  5
C0F0
  8
PROF
 10
3.946294489215858
 20
12.707949058976959
 30
0.0000000000000001
 70
     8
  0
VERTEX
  5
C0F1
  8
PROF
 10
3.912674018353242
 20
12.691797341798059
 30
0.0000000000000001
 70
     8
  0
VERTEX
  5
C0F2
  8
PROF
 10
3.8808638350742499
 20
12.67494295718654
 30
0.0000000000000001
 70
     8
  0
VERTEX
  5
C0F3
  8
PROF
 10
3.850767706922738
 20
12.65747774917668
 30
0.0000000000000001
 70
     8
  0
VERTEX
  5
C0F4
  8
PROF
 10
3.8223309970228438
 20
12.639427068285499
 30
0.0000000000000001
 70
     8
  0
VERTEX
  5
C0F5
  8
PROF
 10
3.795499068498712
 20
12.62081626503004
 30
0.0000000000000001
 70
     8
  0
VERTEX
  5
C0F6
  8
PROF
 10
3.7702172844744819
 20
12.601670689926999
 30
0.0000000000000001
 70
     8
  0
VERTEX
  5
C0F7
  8
PROF
 10
3.7464310080743521
 20
12.58201569349364
 30
0.0000000000000001
 70
     8
  0
VERTEX
  5
C0F8
  8
PROF
 10
3.7240856024224609
 20
12.56187662624666
 30
0.0000000000000001
 70
     8
  0
VERTEX
  5
C0F9
  8
PROF
 10
3.7031264306428961
 20
12.541278838703191
 30
0.0000000000000001
 70
     8
  0
VERTEX
  5
C0FA
  8
PROF
 10
3.683498855859908
 20
12.520247681380051
 30
0.0000000000000001
 70
     8
  0
VERTEX
  5
C0FB
  8
PROF
 10
3.665148241197528
 20
12.49880850479428
 30
0.0000000000000001
 70
     8
  0
VERTEX
  5
C0FC
  8
PROF
 10
3.648019949779949
 20
12.47698665946279
 30
0.0000000000000001
 70
     8
  0
VERTEX
  5
C0FD
  8
PROF
 10
3.6320593447313159
 20
12.45480749590263
 30
0.0000000000000001
 70
     8
  0
VERTEX
  5
C0FE
  8
PROF
 10
3.617189584886658
 20
12.43223790353807
 30
0.0000000000000001
 70
     8
  0
VERTEX
  5
C0FF
  8
PROF
 10
3.6032450119242849
 20
12.40901092742285
 30
0.0000000000000001
 70
     8
  0
VERTEX
  5
C100
  8
PROF
 10
3.590037763233453
 20
12.38480115151844
 30
0.0000000000000001
 70
     8
  0
VERTEX
  5
C101
  8
PROF
 10
3.5773799762033032
 20
12.35928315978594
 30
0.0000000000000001
 70
     8
  0
VERTEX
  5
C102
  8
PROF
 10
3.5650837882230899
 20
12.33213153618658
 30
0.0000000000000001
 70
     8
  0
VERTEX
  5
C103
  8
PROF
 10
3.552961336681959
 20
12.303020864681571
 30
0.0000000000000001
 70
     8
  0
VERTEX
  5
C104
  8
PROF
 10
3.540824758969165
 20
12.271625729232371
 30
0.0000000000000001
 70
     8
  0
VERTEX
  5
C105
  8
PROF
 10
3.528486192473848
 20
12.23762071379997
 30
0.0000000000000001
 70
     8
  0
VERTEX
  5
C106
  8
PROF
 10
3.5157577745852659
 20
12.200680402345711
 30
0.0000000000000001
 70
     8
  0
VERTEX
  5
C107
  8
PROF
 10
3.502451642692618
 20
12.16047937883093
 30
0.0000000000000001
 70
     8
  0
VERTEX
  5
C108
  8
PROF
 10
3.4883799341851041
 20
12.116692227216619
 30
0.0000000000000001
 70
     8
  0
VERTEX
  5
C109
  8
PROF
 10
3.4733547864519201
 20
12.06899353146423
 30
0.0000000000000001
 70
     8
  0
VERTEX
  5
C10A
  8
PROF
 10
3.45723654619428
 20
12.0172095445447
 30
0.0000000000000001
 70
     8
  0
VERTEX
  5
C10B
  8
PROF
 10
3.440078397361388
 20
11.961773195467799
 30
0.0000000000000001
 70
     8
  0
VERTEX
  5
C10C
  8
PROF
 10
3.4219817332145781
 20
11.90326908225302
 30
0.0000000000000001
 70
     8
  0
VERTEX
  5
C10D
  8
PROF
 10
3.4030479470150099
 20
11.842281802919951
 30
0.0000000000000001
 70
     8
  0
VERTEX
  5
C10E
  8
PROF
 10
3.383378432024017
 20
11.779395955487979
 30
0.0000000000000001
 70
     8
  0
VERTEX
  5
C10F
  8
PROF
 10
3.36307458150287
 20
11.7151961379768
 30
0.0000000000000001
 70
     8
  0
VERTEX
  5
C110
  8
PROF
 10
3.342237788712735
 20
11.650266948405831
 30
0.0000000000000001
 70
     8
  0
VERTEX
  5
C111
  8
PROF
 10
3.3209694469149991
 20
11.58519298479461
 30
0.0000000000000001
 70
     8
  0
VERTEX
  5
C112
  8
PROF
 10
3.299370949370767
 20
11.52055884516254
 30
0.0000000000000001
 70
     8
  0
VERTEX
  5
C113
  8
PROF
 10
3.277543689341428
 20
11.456949127529461
 30
0.0000000000000001
 70
     8
  0
VERTEX
  5
C114
  8
PROF
 10
3.2555890600881399
 20
11.3949484299145
 30
0.0000000000000001
 70
     8
  0
VERTEX
  5
C115
  8
PROF
 10
3.2336084548721811
 20
11.335141350337491
 30
0.0000000000000001
 70
     8
  0
VERTEX
  5
C116
  8
PROF
 10
3.2116715641212181
 20
11.277995447977769
 30
0.0000000000000001
 70
     8
  0
VERTEX
  5
C117
  8
PROF
 10
3.1897212669278461
 20
11.22351012665467
 30
0.0000000000000001
 70
     8
  0
VERTEX
  5
C118
  8
PROF
 10
3.1676687395512881
 20
11.17156775134765
 30
0.0000000000000001
 70
     8
  0
VERTEX
  5
C119
  8
PROF
 10
3.1454251582505321
 20
11.12205068703588
 30
0.0000000000000001
 70
     8
  0
VERTEX
  5
C11A
  8
PROF
 10
3.122901699284625
 20
11.07484129869874
 30
0.0000000000000001
 70
     8
  0
VERTEX
  5
C11B
  8
PROF
 10
3.1000095389127278
 20
11.02982195131551
 30
0.0000000000000001
 70
     8
  0
VERTEX
  5
C11C
  8
PROF
 10
3.07665985339389
 20
10.986875009865679
 30
0.0000000000000001
 70
     8
  0
VERTEX
  5
C11D
  8
PROF
 10
3.0527638189871591
 20
10.9458828393283
 30
0.0000000000000001
 70
     8
  0
VERTEX
  5
C11E
  8
PROF
 10
3.0282326119516361
 20
10.90672780468298
 30
0.0000000000000001
 70
     8
  0
VERTEX
  5
C11F
  8
PROF
 10
3.0029774085463701
 20
10.869292270908771
 30
0.0000000000000001
 70
     8
  0
VERTEX
  5
C120
  8
PROF
 10
2.9769093850304089
 20
10.833458602985161
 30
0.0000000000000001
 70
     8
  0
VERTEX
  5
C121
  8
PROF
 10
2.9499397176628559
 20
10.799109165891419
 30
0.0000000000000001
 70
     8
  0
VERTEX
  5
C122
  8
PROF
 10
2.922000609840437
 20
10.76614363969508
 30
0.0000000000000001
 70
     8
  0
VERTEX
  5
C123
  8
PROF
 10
2.8931083735102998
 20
10.7345309648158
 30
0.0000000000000001
 70
     8
  0
VERTEX
  5
C124
  8
PROF
 10
2.8633003477572729
 20
10.70425739676193
 30
0.0000000000000001
 70
     8
  0
VERTEX
  5
C125
  8
PROF
 10
2.8326138716660689
 20
10.67530919104115
 30
0.0000000000000001
 70
     8
  0
VERTEX
  5
C126
  8
PROF
 10
2.801086284321626
 20
10.647672603161711
 30
0.0000000000000001
 70
     8
  0
VERTEX
  5
C127
  8
PROF
 10
2.7687549248087162
 20
10.62133388863162
 30
0.0000000000000001
 70
     8
  0
VERTEX
  5
C128
  8
PROF
 10
2.7356571322120531
 20
10.5962793029588
 30
0.0000000000000001
 70
     8
  0
VERTEX
  5
C129
  8
PROF
 10
2.7018302456165202
 20
10.572495101651381
 30
0.0000000000000001
 70
     8
  0
VERTEX
  5
C12A
  8
PROF
 10
2.6673116041068838
 20
10.54996754021726
 30
0.0000000000000001
 70
     8
  0
VERTEX
  5
C12B
  8
PROF
 10
2.6321385467680321
 20
10.528682874164581
 30
0.0000000000000001
 70
     8
  0
VERTEX
  5
C12C
  8
PROF
 10
2.5963484126846179
 20
10.508627359001251
 30
0.0000000000000001
 70
     8
  0
VERTEX
  5
C12D
  8
PROF
 10
2.5599785409415841
 20
10.489787250235279
 30
0.0000000000000001
 70
     8
  0
VERTEX
  5
C12E
  8
PROF
 10
2.522998630314361
 20
10.472162234281081
 30
0.0000000000000001
 70
     8
  0
VERTEX
  5
C12F
  8
PROF
 10
2.4851078183409072
 20
10.455805721177621
 30
0.0000000000000001
 70
     8
  0
VERTEX
  5
C130
  8
PROF
 10
2.4459376022498982
 20
10.44078455187036
 30
0.0000000000000001
 70
     8
  0
VERTEX
  5
C131
  8
PROF
 10
2.4051194792701249
 20
10.42716556730465
 30
0.0000000000000001
 70
     8
  0
VERTEX
  5
C132
  8
PROF
 10
2.3622849466301541
 20
10.415015608425851
 30
0.0000000000000001
 70
     8
  0
VERTEX
  5
C133
  8
PROF
 10
2.317065501558714
 20
10.40440151617929
 30
0.0000000000000001
 70
     8
  0
VERTEX
  5
C134
  8
PROF
 10
2.2690926412844301
 20
10.395390131510339
 30
0.0000000000000001
 70
     8
  0
VERTEX
  5
C135
  8
PROF
 10
2.2179978630360879
 20
10.388048295364451
 30
0.0000000000000001
 70
     8
  0
VERTEX
  5
C136
  8
PROF
 10
2.1634126640422551
 20
10.38244284868688
 30
0.0000000000000001
 70
     8
  0
VERTEX
  5
C137
  8
PROF
 10
2.1049685415316031
 20
10.37864063242295
 30
0.0000000000000001
 70
     8
  0
VERTEX
  5
C138
  8
PROF
 10
2.0422969927328709
 20
10.37670848751816
 30
0.0000000000000001
 70
     8
  0
VERTEX
  5
C139
  8
PROF
 10
1.9750295148747341
 20
10.37671325491794
 30
0.0000000000000001
 70
     8
  0
VERTEX
  5
C13A
  8
PROF
 10
4.2166060115107484
 20
12.80885334975255
 30
0.0000000000000001
 70
    16
  0
VERTEX
  5
C13B
  8
PROF
 10
3.8702254102732909
 20
12.707065515763929
 30
0.0000000000000001
 70
    16
  0
VERTEX
  5
C13C
  8
PROF
 10
3.605346156896871
 20
12.46277472098552
 30
0.0000000000000001
 70
    16
  0
VERTEX
  5
C13D
  8
PROF
 10
3.500746030527238
 20
12.170680575709749
 30
0.0000000000000001
 70
    16
  0
VERTEX
  5
C13E
  8
PROF
 10
3.231798439705698
 20
11.26846416496107
 30
0.0000000000000001
 70
    16
  0
VERTEX
  5
C13F
  8
PROF
 10
2.9737109398832882
 20
10.76631086647069
 30
0.0000000000000001
 70
    16
  0
VERTEX
  5
C140
  8
PROF
 10
2.5729961067384002
 20
10.460947364504699
 30
0.0000000000000001
 70
    16
  0
VERTEX
  5
C141
  8
PROF
 10
2.2537826214546031
 20
10.372731239449759
 30
0.0000000000000001
 70
    16
  0
VERTEX
  5
C142
  8
PROF
 10
1.9750295148747341
 20
10.37671325491794
 30
0.0000000000000001
 70
    16
  0
SEQEND
  5
C143
  8
PROF
  0
LINE
  5
C144
  8
PROF
 10
4.9012016798694162
 20
12.88585218805485
 30
0.0000000000000003
 11
4.519857503186925
 21
12.88585218805485
 31
0.0000000000000003
  0
LINE
  5
C145
  8
PROF
 10
0.7321315362267457
 20
8.2026312473991556
 30
0.0000000000000006
 11
0.7321315362267457
 21
8.0511853963434952
 31
0.0000000000000006
  0
ARC
  5
C146
  8
PROF
 10
0.7977322214551919
 20
7.577333933202679
 30
0.0000000000000006
 40
0.4783708383912013
 50
97.882010168942557
 51
186.31119505698641
  0
LINE
  5
C147
  8
FRAME_050
 10
7.8016377197432121
 20
17.99371054969447
 30
0.0
 11
7.8016377197432121
 21
0.0000000000002274
 31
0.0
  0
ENDBLK
  5
C149
  8
0
  0
BLOCK
  8
0
  2
*U7
 70
     1
 10
0.0
 20
0.0
 30
0.0
  3
*U7
  1

  0
TEXT
  5
C8C3
  8
0
 10
3.5177832928899071
 20
10.38601584255777
 30
0.0
 40
0.125
  1
Crown Moulding
  0
TEXT
  5
C8C4
  8
0
 10
3.5223876585106431
 20
10.17717091304435
 30
0.0
 40
0.125
  1
TL-AB509
  0
TEXT
  5
C8C5
  8
0
 10
3.5074661032582561
 20
9.9667059289606801
 30
0.0
 40
0.125
  1
1-5/16" x 7-9/16"
  0
TEXT
  5
C8C6
  8
0
 10
3.519403347460166
 20
9.7562409448770051
 30
0.0
 40
0.125
  1
800.66.TAGUE
  0
ENDBLK
  5
C8C8
  8
0
  0
BLOCK
  8
0
  2
*U8
 70
     1
 10
0.0
 20
0.0
 30
0.0
  3
*U8
  1

  0
TEXT
  5
C8CA
  8
0
 10
5.3066868277875692
 20
1.767659498411035
 30
0.0
 40
0.125
  1
Back Band
  0
TEXT
  5
C8CB
  8
0
 10
5.3153839628489603
 20
1.55881456889762
 30
0.0
 40
0.125
  1
TL-1
  0
TEXT
  5
C8CC
  8
0
 10
5.3004624075965721
 20
1.3483495848139451
 30
0.0
 40
0.125
  1
1-3/8" x 1-9/16"
  0
TEXT
  5
C8CD
  8
0
 10
5.3123996517984811
 20
1.1378846007302701
 30
0.0
 40
0.125
  1
800.66.TAGUE
  0
ENDBLK
  5
C8CF
  8
0
  0
BLOCK
  8
0
  2
*U9
 70
     1
 10
0.0
 20
0.0
 30
0.0
  3
*U9
  1

  0
TEXT
  5
C8D1
  8
0
 10
-385.7580743253551
 20
838.2627455404056
 30
0.0
 40
0.125
  1
Back Band
  0
TEXT
  5
C8D2
  8
0
 10
-385.74937719029373
 20
838.05390061089247
 30
0.0
 40
0.125
  1
TL-1
  0
TEXT
  5
C8D3
  8
0
 10
-385.76429874554611
 20
837.84343562680851
 30
0.0
 40
0.125
  1
1-3/8" x 1-9/16"
  0
TEXT
  5
C8D4
  8
0
 10
-385.75236150134418
 20
837.63297064272513
 30
0.0
 40
0.125
  1
800.66.TAGUE
  0
ENDBLK
  5
C8D6
  8
0
  0
BLOCK
  8
0
  2
*D21
 70
     1
 10
0.0
 20
0.0
 30
0.0
  3
*D21
  1

  0
LINE
  5
CDAB
  8
0
 62
     0
 10
-346.64573732984462
 20
509.42191863586828
 30
0.0
 11
-346.03266106471222
 21
509.42191863586828
 31
0.0
  0
LINE
  5
CDAC
  8
0
 62
     0
 10
-347.59461414974379
 20
507.61166709199199
 30
0.0
 11
-346.03266106471222
 21
507.61166709199199
 31
0.0
  0
LINE
  5
CDAD
  8
0
 62
     0
 10
-346.09516106471222
 20
509.42191863586828
 30
0.0
 11
-346.09516106471222
 21
507.61166709199199
 31
0.0
  0
INSERT
  5
CDAE
  8
0
 62
     0
  2
_ARCHTICK
 10
-346.09516106471222
 20
509.42191863586828
 30
0.0
 41
0.046875
 42
0.046875
 43
0.046875
 50
90.0
  0
INSERT
  5
CDAF
  8
0
 62
     0
  2
_ARCHTICK
 10
-346.09516106471222
 20
507.61166709199199
 30
0.0
 41
0.046875
 42
0.046875
 43
0.046875
 50
270.0
  0
INSERT
  5
CDB0
  8
0
  2
*U199
 10
0.0
 20
0.0
 30
0.0
  0
POINT
  5
CDB1
  8
DEFPOINTS
 62
     0
 10
-346.73948732984462
 20
509.42191863586828
 30
0.0
  0
POINT
  5
CDB2
  8
DEFPOINTS
 62
     0
 10
-347.68836414974379
 20
507.61166709199199
 30
0.0
  0
POINT
  5
CDB3
  8
DEFPOINTS
 62
     0
 10
-346.09516106471222
 20
507.61166709199199
 30
0.0
  0
ENDBLK
  5
CDB4
  8
0
  0
BLOCK
  8
0
  2
*D23
 70
     1
 10
0.0
 20
0.0
 30
0.0
  3
*D23
  1

  0
LINE
  5
CDEB
  8
0
 62
     0
 10
-387.02714157709249
 20
839.57969957928674
 30
0.0
 11
-386.41406531196009
 21
839.57969957928674
 31
0.0
  0
LINE
  5
CDEC
  8
0
 62
     0
 10
-387.97601839699172
 20
837.76944803541039
 30
0.0
 11
-386.41406531196009
 21
837.76944803541039
 31
0.0
  0
LINE
  5
CDED
  8
0
 62
     0
 10
-386.47656531196009
 20
839.57969957928674
 30
0.0
 11
-386.47656531196009
 21
837.76944803541039
 31
0.0
  0
INSERT
  5
CDEE
  8
0
 62
     0
  2
_ARCHTICK
 10
-386.47656531196009
 20
839.57969957928674
 30
0.0
 41
0.046875
 42
0.046875
 43
0.046875
 50
90.0
  0
INSERT
  5
CDEF
  8
0
 62
     0
  2
_ARCHTICK
 10
-386.47656531196009
 20
837.76944803541039
 30
0.0
 41
0.046875
 42
0.046875
 43
0.046875
 50
270.0
  0
INSERT
  5
CDF0
  8
0
  2
*U201
 10
0.0
 20
0.0
 30
0.0
  0
POINT
  5
CDF1
  8
DEFPOINTS
 62
     0
 10
-387.12089157709249
 20
839.57969957928674
 30
0.0
  0
POINT
  5
CDF2
  8
DEFPOINTS
 62
     0
 10
-388.06976839699172
 20
837.76944803541039
 30
0.0
  0
POINT
  5
CDF3
  8
DEFPOINTS
 62
     0
 10
-386.47656531196009
 20
837.76944803541039
 30
0.0
  0
ENDBLK
  5
CDEA
  8
0
  0
BLOCK
  8
0
  2
*D79
 70
     1
 10
0.0
 20
0.0
 30
0.0
  3
*D79
  1

  0
LINE
  5
11681
  8
0
 62
     0
 10
-365.81818307486373
 20
427.35429858331162
 30
0.0
 11
-366.93955544547038
 21
427.35429858331162
 31
0.0
  0
LINE
  5
11682
  8
0
 62
     0
 10
-365.81818307486373
 20
425.60429858331167
 30
0.0
 11
-366.93955544547038
 21
425.60429858331167
 31
0.0
  0
LINE
  5
11683
  8
0
 62
     0
 10
-366.87705544547038
 20
427.35429858331162
 30
0.0
 11
-366.87705544547038
 21
425.60429858331167
 31
0.0
  0
INSERT
  5
11684
  8
0
 62
     0
  2
_ARCHTICK
 10
-366.87705544547038
 20
427.35429858331162
 30
0.0
 41
0.046875
 42
0.046875
 43
0.046875
 50
90.0
  0
INSERT
  5
11685
  8
0
 62
     0
  2
_ARCHTICK
 10
-366.87705544547038
 20
425.60429858331167
 30
0.0
 41
0.046875
 42
0.046875
 43
0.046875
 50
270.0
  0
INSERT
  5
11686
  8
0
  2
*U250
 10
0.0
 20
0.0
 30
0.0
  0
POINT
  5
11687
  8
DEFPOINTS
 62
     0
 10
-365.72443307486373
 20
427.35429858331162
 30
0.0
  0
POINT
  5
11688
  8
DEFPOINTS
 62
     0
 10
-365.72443307486373
 20
425.60429858331167
 30
0.0
  0
POINT
  5
11689
  8
DEFPOINTS
 62
     0
 10
-366.87705544547038
 20
425.60429858331167
 30
0.0
  0
ENDBLK
  5
1168A
  8
0
  0
BLOCK
  8
0
  2
*D80
 70
     1
 10
0.0
 20
0.0
 30
0.0
  3
*D80
  1

  0
LINE
  5
1168D
  8
0
 62
     0
 10
-364.54417472031452
 20
426.21180552517308
 30
0.0
 11
-364.54417472031452
 21
424.99659347863422
 31
0.0
  0
LINE
  5
1168E
  8
0
 62
     0
 10
-363.66917472031452
 20
426.21180552517308
 30
0.0
 11
-363.66917472031452
 21
424.99659347863422
 31
0.0
  0
LINE
  5
1168F
  8
0
 62
     0
 10
-364.54417472031452
 20
425.05909347863428
 30
0.0
 11
-363.66917472031452
 21
425.05909347863428
 31
0.0
  0
INSERT
  5
11690
  8
0
 62
     0
  2
_ARCHTICK
 10
-364.54417472031452
 20
425.05909347863428
 30
0.0
 41
0.046875
 42
0.046875
 43
0.046875
 50
180.0
  0
INSERT
  5
11691
  8
0
 62
     0
  2
_ARCHTICK
 10
-363.66917472031452
 20
425.05909347863428
 30
0.0
 41
0.046875
 42
0.046875
 43
0.046875
  0
INSERT
  5
11692
  8
0
  2
*U251
 10
0.0
 20
0.0
 30
0.0
  0
POINT
  5
11693
  8
DEFPOINTS
 62
     0
 10
-364.54417472031452
 20
426.30555552517302
 30
0.0
  0
POINT
  5
11694
  8
DEFPOINTS
 62
     0
 10
-363.66917472031452
 20
426.30555552517302
 30
0.0
  0
POINT
  5
11695
  8
DEFPOINTS
 62
     0
 10
-363.66917472031452
 20
425.05909347863428
 30
0.0
  0
ENDBLK
  5
11696
  8
0
  0
BLOCK
  8
0
  2
*D81
 70
     1
 10
0.0
 20
0.0
 30
0.0
  3
*D81
  1

  0
LINE
  5
11699
  8
0
 62
     0
 10
-363.88792472031452
 20
427.24305552517302
 30
0.0
 11
-362.93745003010213
 21
427.24305552517302
 31
0.0
  0
LINE
  5
1169A
  8
0
 62
     0
 10
-364.0129247203148
 20
425.72929858331162
 30
0.0
 11
-362.93745003010213
 21
425.72929858331162
 31
0.0
  0
LINE
  5
1169B
  8
0
 62
     0
 10
-362.99995003010213
 20
427.24305552517302
 30
0.0
 11
-362.99995003010213
 21
425.72929858331162
 31
0.0
  0
INSERT
  5
1169C
  8
0
 62
     0
  2
_ARCHTICK
 10
-362.99995003010213
 20
427.24305552517302
 30
0.0
 41
0.046875
 42
0.046875
 43
0.046875
 50
90.0
  0
INSERT
  5
1169D
  8
0
 62
     0
  2
_ARCHTICK
 10
-362.99995003010213
 20
425.72929858331162
 30
0.0
 41
0.046875
 42
0.046875
 43
0.046875
 50
270.0
  0
INSERT
  5
1169E
  8
0
  2
*U252
 10
0.0
 20
0.0
 30
0.0
  0
POINT
  5
1169F
  8
DEFPOINTS
 62
     0
 10
-363.98167472031452
 20
427.24305552517302
 30
0.0
  0
POINT
  5
116A0
  8
DEFPOINTS
 62
     0
 10
-364.1066747203148
 20
425.72929858331162
 30
0.0
  0
POINT
  5
116A1
  8
DEFPOINTS
 62
     0
 10
-362.99995003010213
 20
425.72929858331162
 30
0.0
  0
ENDBLK
  5
116A2
  8
0
  0
BLOCK
  8
0
  2
*D83
 70
     1
 10
0.0
 20
0.0
 30
0.0
  3
*D83
  1

  0
LINE
  5
11701
  8
0
 62
     0
 10
-386.76054169220339
 20
839.74518098663441
 30
0.0
 11
-387.88191406281021
 21
839.74518098663441
 31
0.0
  0
LINE
  5
11702
  8
0
 62
     0
 10
-386.76054169220339
 20
837.99518098663441
 30
0.0
 11
-387.88191406281021
 21
837.99518098663441
 31
0.0
  0
LINE
  5
11703
  8
0
 62
     0
 10
-387.81941406281021
 20
839.74518098663441
 30
0.0
 11
-387.81941406281021
 21
837.99518098663441
 31
0.0
  0
INSERT
  5
11704
  8
0
 62
     0
  2
_ARCHTICK
 10
-387.81941406281021
 20
839.74518098663441
 30
0.0
 41
0.046875
 42
0.046875
 43
0.046875
 50
90.0
  0
INSERT
  5
11705
  8
0
 62
     0
  2
_ARCHTICK
 10
-387.81941406281021
 20
837.99518098663441
 30
0.0
 41
0.046875
 42
0.046875
 43
0.046875
 50
270.0
  0
INSERT
  5
11706
  8
0
  2
*U253
 10
0.0
 20
0.0
 30
0.0
  0
POINT
  5
11707
  8
DEFPOINTS
 62
     0
 10
-386.66679169220339
 20
839.74518098663441
 30
0.0
  0
POINT
  5
11708
  8
DEFPOINTS
 62
     0
 10
-386.66679169220339
 20
837.99518098663441
 30
0.0
  0
POINT
  5
11709
  8
DEFPOINTS
 62
     0
 10
-387.81941406281021
 20
837.99518098663441
 30
0.0
  0
ENDBLK
  5
116E8
  8
0
  0
BLOCK
  8
0
  2
*D84
 70
     1
 10
0.0
 20
0.0
 30
0.0
  3
*D84
  1

  0
LINE
  5
1170A
  8
0
 62
     0
 10
-385.48653333765429
 20
838.60268792849581
 30
0.0
 11
-385.48653333765429
 21
837.3874758819569
 31
0.0
  0
LINE
  5
1170B
  8
0
 62
     0
 10
-384.61153333765429
 20
838.60268792849581
 30
0.0
 11
-384.61153333765429
 21
837.3874758819569
 31
0.0
  0
LINE
  5
1170C
  8
0
 62
     0
 10
-385.48653333765429
 20
837.44997588195702
 30
0.0
 11
-384.61153333765429
 21
837.44997588195702
 31
0.0
  0
INSERT
  5
1170D
  8
0
 62
     0
  2
_ARCHTICK
 10
-385.48653333765429
 20
837.44997588195702
 30
0.0
 41
0.046875
 42
0.046875
 43
0.046875
 50
180.0
  0
INSERT
  5
1170E
  8
0
 62
     0
  2
_ARCHTICK
 10
-384.61153333765429
 20
837.44997588195702
 30
0.0
 41
0.046875
 42
0.046875
 43
0.046875
  0
INSERT
  5
1170F
  8
0
  2
*U254
 10
0.0
 20
0.0
 30
0.0
  0
POINT
  5
11710
  8
DEFPOINTS
 62
     0
 10
-385.48653333765429
 20
838.6964379284957
 30
0.0
  0
POINT
  5
11711
  8
DEFPOINTS
 62
     0
 10
-384.61153333765429
 20
838.6964379284957
 30
0.0
  0
POINT
  5
11712
  8
DEFPOINTS
 62
     0
 10
-384.61153333765429
 20
837.44997588195702
 30
0.0
  0
ENDBLK
  5
116F4
  8
0
  0
BLOCK
  8
0
  2
*D85
 70
     1
 10
0.0
 20
0.0
 30
0.0
  3
*D85
  1

  0
LINE
  5
11713
  8
0
 62
     0
 10
-384.83028333765429
 20
839.63393792849581
 30
0.0
 11
-383.87980864744191
 21
839.63393792849581
 31
0.0
  0
LINE
  5
11714
  8
0
 62
     0
 10
-384.95528333765452
 20
838.1201809866343
 30
0.0
 11
-383.87980864744191
 21
838.1201809866343
 31
0.0
  0
LINE
  5
11715
  8
0
 62
     0
 10
-383.94230864744191
 20
839.63393792849581
 30
0.0
 11
-383.94230864744191
 21
838.1201809866343
 31
0.0
  0
INSERT
  5
11716
  8
0
 62
     0
  2
_ARCHTICK
 10
-383.94230864744191
 20
839.63393792849581
 30
0.0
 41
0.046875
 42
0.046875
 43
0.046875
 50
90.0
  0
INSERT
  5
11717
  8
0
 62
     0
  2
_ARCHTICK
 10
-383.94230864744191
 20
838.1201809866343
 30
0.0
 41
0.046875
 42
0.046875
 43
0.046875
 50
270.0
  0
INSERT
  5
11718
  8
0
  2
*U255
 10
0.0
 20
0.0
 30
0.0
  0
POINT
  5
11719
  8
DEFPOINTS
 62
     0
 10
-384.92403333765429
 20
839.63393792849581
 30
0.0
  0
POINT
  5
1171A
  8
DEFPOINTS
 62
     0
 10
-385.04903333765452
 20
838.1201809866343
 30
0.0
  0
POINT
  5
1171B
  8
DEFPOINTS
 62
     0
 10
-383.94230864744191
 20
838.1201809866343
 30
0.0
  0
ENDBLK
  5
11700
  8
0
  0
BLOCK
  8
0
  2
*D87
 70
     1
 10
0.0
 20
0.0
 30
0.0
  3
*D87
  1

  0
LINE
  5
11B0C
  8
0
 62
     0
 10
-321.4967715029747
 20
426.11559169813472
 30
0.0
 11
-323.04650060770268
 21
426.11559169813472
 31
0.0
  0
LINE
  5
11B0D
  8
0
 62
     0
 10
-321.4967715029747
 20
424.36559169813472
 30
0.0
 11
-323.04650060770268
 21
424.36559169813472
 31
0.0
  0
LINE
  5
11B0E
  8
0
 62
     0
 10
-322.98400060770268
 20
426.11559169813472
 30
0.0
 11
-322.98400060770268
 21
424.36559169813472
 31
0.0
  0
INSERT
  5
11B0F
  8
0
 62
     0
  2
_ARCHTICK
 10
-322.98400060770268
 20
426.11559169813472
 30
0.0
 41
0.046875
 42
0.046875
 43
0.046875
 50
90.0
  0
INSERT
  5
11B10
  8
0
 62
     0
  2
_ARCHTICK
 10
-322.98400060770268
 20
424.36559169813472
 30
0.0
 41
0.046875
 42
0.046875
 43
0.046875
 50
270.0
  0
INSERT
  5
11B11
  8
0
  2
*U256
 10
0.0
 20
0.0
 30
0.0
  0
POINT
  5
11B12
  8
DEFPOINTS
 62
     0
 10
-321.4030215029747
 20
426.11559169813472
 30
0.0
  0
POINT
  5
11B13
  8
DEFPOINTS
 62
     0
 10
-321.4030215029747
 20
424.36559169813472
 30
0.0
  0
POINT
  5
11B14
  8
DEFPOINTS
 62
     0
 10
-322.98400060770268
 20
424.36559169813472
 30
0.0
  0
ENDBLK
  5
11B15
  8
0
  0
BLOCK
  8
0
  2
*D88
 70
     1
 10
0.0
 20
0.0
 30
0.0
  3
*D88
  1

  0
LINE
  5
11B18
  8
0
 62
     0
 10
-319.28256169396042
 20
425.92809169813472
 30
0.0
 11
-318.41048055355549
 21
425.92809169813472
 31
0.0
  0
LINE
  5
11B19
  8
0
 62
     0
 10
-319.28256169396042
 20
424.55309169813472
 30
0.0
 11
-318.41048055355549
 21
424.55309169813472
 31
0.0
  0
LINE
  5
11B1A
  8
0
 62
     0
 10
-318.47298055355549
 20
425.92809169813472
 30
0.0
 11
-318.47298055355549
 21
424.55309169813472
 31
0.0
  0
INSERT
  5
11B1B
  8
0
 62
     0
  2
_ARCHTICK
 10
-318.47298055355549
 20
425.92809169813472
 30
0.0
 41
0.046875
 42
0.046875
 43
0.046875
 50
90.0
  0
INSERT
  5
11B1C
  8
0
 62
     0
  2
_ARCHTICK
 10
-318.47298055355549
 20
424.55309169813472
 30
0.0
 41
0.046875
 42
0.046875
 43
0.046875
 50
270.0
  0
INSERT
  5
11B1D
  8
0
  2
*U257
 10
0.0
 20
0.0
 30
0.0
  0
POINT
  5
11B1E
  8
DEFPOINTS
 62
     0
 10
-319.37631169396042
 20
425.92809169813472
 30
0.0
  0
POINT
  5
11B1F
  8
DEFPOINTS
 62
     0
 10
-319.37631169396042
 20
424.55309169813472
 30
0.0
  0
POINT
  5
11B20
  8
DEFPOINTS
 62
     0
 10
-318.47298055355549
 20
424.55309169813472
 30
0.0
  0
ENDBLK
  5
11B21
  8
0
  0
BLOCK
  8
0
  2
*D90
 70
     1
 10
0.0
 20
0.0
 30
0.0
  3
*D90
  1

  0
LINE
  5
11B82
  8
0
 62
     0
 10
-385.93155206415412
 20
839.89288512488679
 30
0.0
 11
-387.48128116888211
 21
839.89288512488679
 31
0.0
  0
LINE
  5
11B83
  8
0
 62
     0
 10
-385.93155206415412
 20
838.14288512488679
 30
0.0
 11
-387.48128116888211
 21
838.14288512488679
 31
0.0
  0
LINE
  5
11B84
  8
0
 62
     0
 10
-387.41878116888211
 20
839.89288512488679
 30
0.0
 11
-387.41878116888211
 21
838.14288512488679
 31
0.0
  0
INSERT
  5
11B85
  8
0
 62
     0
  2
_ARCHTICK
 10
-387.41878116888211
 20
839.89288512488679
 30
0.0
 41
0.046875
 42
0.046875
 43
0.046875
 50
90.0
  0
INSERT
  5
11B86
  8
0
 62
     0
  2
_ARCHTICK
 10
-387.41878116888211
 20
838.14288512488679
 30
0.0
 41
0.046875
 42
0.046875
 43
0.046875
 50
270.0
  0
INSERT
  5
11B87
  8
0
  2
*U258
 10
0.0
 20
0.0
 30
0.0
  0
POINT
  5
11B88
  8
DEFPOINTS
 62
     0
 10
-385.83780206415412
 20
839.89288512488679
 30
0.0
  0
POINT
  5
11B89
  8
DEFPOINTS
 62
     0
 10
-385.83780206415412
 20
838.14288512488679
 30
0.0
  0
POINT
  5
11B8A
  8
DEFPOINTS
 62
     0
 10
-387.41878116888211
 20
838.14288512488679
 30
0.0
  0
ENDBLK
  5
11B75
  8
0
  0
BLOCK
  8
0
  2
*D91
 70
     1
 10
0.0
 20
0.0
 30
0.0
  3
*D91
  1

  0
LINE
  5
11B8B
  8
0
 62
     0
 10
-383.71734225513978
 20
839.70538512488679
 30
0.0
 11
-382.84526111473491
 21
839.70538512488679
 31
0.0
  0
LINE
  5
11B8C
  8
0
 62
     0
 10
-383.71734225513978
 20
838.33038512488679
 30
0.0
 11
-382.84526111473491
 21
838.33038512488679
 31
0.0
  0
LINE
  5
11B8D
  8
0
 62
     0
 10
-382.90776111473491
 20
839.70538512488679
 30
0.0
 11
-382.90776111473491
 21
838.33038512488679
 31
0.0
  0
INSERT
  5
11B8E
  8
0
 62
     0
  2
_ARCHTICK
 10
-382.90776111473491
 20
839.70538512488679
 30
0.0
 41
0.046875
 42
0.046875
 43
0.046875
 50
90.0
  0
INSERT
  5
11B8F
  8
0
 62
     0
  2
_ARCHTICK
 10
-382.90776111473491
 20
838.33038512488679
 30
0.0
 41
0.046875
 42
0.046875
 43
0.046875
 50
270.0
  0
INSERT
  5
11B90
  8
0
  2
*U259
 10
0.0
 20
0.0
 30
0.0
  0
POINT
  5
11B91
  8
DEFPOINTS
 62
     0
 10
-383.81109225513978
 20
839.70538512488679
 30
0.0
  0
POINT
  5
11B92
  8
DEFPOINTS
 62
     0
 10
-383.81109225513978
 20
838.33038512488679
 30
0.0
  0
POINT
  5
11B93
  8
DEFPOINTS
 62
     0
 10
-382.90776111473491
 20
838.33038512488679
 30
0.0
  0
ENDBLK
  5
11B81
  8
0
  0
BLOCK
  8
0
  2
*D128
 70
     1
 10
0.0
 20
0.0
 30
0.0
  3
*D128
  1

  0
LINE
  5
17AED
  8
0
 62
     0
 10
-265.85715049456587
 20
274.42038345687388
 30
0.0
 11
-266.22047975343469
 21
274.42038345687388
 31
0.0
  0
LINE
  5
17AEE
  8
0
 62
     0
 10
-265.52696349978612
 20
273.09820699771632
 30
0.0
 11
-266.22047975343469
 21
273.09820699771632
 31
0.0
  0
LINE
  5
17AEF
  8
0
 62
     0
 10
-266.15797975343457
 20
274.42038345687388
 30
0.0
 11
-266.15797975343457
 21
273.09820699771632
 31
0.0
  0
INSERT
  5
17AF0
  8
0
 62
     0
  2
_ARCHTICK
 10
-266.15797975343457
 20
274.42038345687388
 30
0.0
 41
0.046875
 42
0.046875
 43
0.046875
 50
90.0
  0
INSERT
  5
17AF1
  8
0
 62
     0
  2
_ARCHTICK
 10
-266.15797975343457
 20
273.09820699771632
 30
0.0
 41
0.046875
 42
0.046875
 43
0.046875
 50
270.0
  0
INSERT
  5
17AF2
  8
0
  2
*U294
 10
0.0
 20
0.0
 30
0.0
  0
POINT
  5
17AF3
  8
DEFPOINTS
 62
     0
 10
-265.76340049456587
 20
274.42038345687388
 30
0.0
  0
POINT
  5
17AF4
  8
DEFPOINTS
 62
     0
 10
-265.43321349978612
 20
273.09820699771632
 30
0.0
  0
POINT
  5
17AF5
  8
DEFPOINTS
 62
     0
 10
-266.15797975343457
 20
273.09820699771632
 30
0.0
  0
ENDBLK
  5
17AF6
  8
0
  0
BLOCK
  8
0
  2
*D129
 70
     1
 10
0.0
 20
0.0
 30
0.0
  3
*D129
  1

  0
LINE
  5
17AF9
  8
0
 62
     0
 10
-265.76340049456587
 20
274.32663345687388
 30
0.0
 11
-265.76340049456587
 21
273.69679522729513
 31
0.0
  0
LINE
  5
17AFA
  8
0
 62
     0
 10
-265.43321349978612
 20
274.32663345687388
 30
0.0
 11
-265.43321349978612
 21
273.69679522729513
 31
0.0
  0
LINE
  5
17AFB
  8
0
 62
     0
 10
-265.76340049456587
 20
273.75929522729513
 30
0.0
 11
-265.81027549456587
 21
273.75929522729513
 31
0.0
  0
LINE
  5
17AFC
  8
0
 62
     0
 10
-265.43321349978612
 20
273.75929522729513
 30
0.0
 11
-265.38633849978612
 21
273.75929522729513
 31
0.0
  0
INSERT
  5
17AFD
  8
0
 62
     0
  2
_ARCHTICK
 10
-265.76340049456587
 20
273.75929522729513
 30
0.0
 41
0.046875
 42
0.046875
 43
0.046875
  0
INSERT
  5
17AFE
  8
0
 62
     0
  2
_ARCHTICK
 10
-265.43321349978612
 20
273.75929522729513
 30
0.0
 41
0.046875
 42
0.046875
 43
0.046875
 50
180.0
  0
INSERT
  5
17AFF
  8
0
  2
*U295
 10
0.0
 20
0.0
 30
0.0
  0
POINT
  5
17B00
  8
DEFPOINTS
 62
     0
 10
-265.76340049456587
 20
274.42038345687388
 30
0.0
  0
POINT
  5
17B01
  8
DEFPOINTS
 62
     0
 10
-265.43321349978612
 20
274.42038345687388
 30
0.0
  0
POINT
  5
17B02
  8
DEFPOINTS
 62
     0
 10
-265.43321349978612
 20
273.75929522729513
 30
0.0
  0
ENDBLK
  5
17B03
  8
0
  0
BLOCK
  8
0
  2
*D131
 70
     1
 10
0.0
 20
0.0
 30
0.0
  3
*D131
  1

  0
LINE
  5
17B39
  8
0
 62
     0
 10
-387.65429506319202
 20
839.30724886751887
 30
0.0
 11
-388.01762432206078
 21
839.30724886751887
 31
0.0
  0
LINE
  5
17B3A
  8
0
 62
     0
 10
-387.32410806841222
 20
837.98507240836125
 30
0.0
 11
-388.01762432206078
 21
837.98507240836125
 31
0.0
  0
LINE
  5
17B3B
  8
0
 62
     0
 10
-387.95512432206078
 20
839.30724886751887
 30
0.0
 11
-387.95512432206078
 21
837.98507240836125
 31
0.0
  0
INSERT
  5
17B3C
  8
0
 62
     0
  2
_ARCHTICK
 10
-387.95512432206078
 20
839.30724886751887
 30
0.0
 41
0.046875
 42
0.046875
 43
0.046875
 50
90.0
  0
INSERT
  5
17B3D
  8
0
 62
     0
  2
_ARCHTICK
 10
-387.95512432206078
 20
837.98507240836125
 30
0.0
 41
0.046875
 42
0.046875
 43
0.046875
 50
270.0
  0
INSERT
  5
17B3E
  8
0
  2
*U297
 10
0.0
 20
0.0
 30
0.0
  0
POINT
  5
17B3F
  8
DEFPOINTS
 62
     0
 10
-387.56054506319202
 20
839.30724886751887
 30
0.0
  0
POINT
  5
17B40
  8
DEFPOINTS
 62
     0
 10
-387.23035806841222
 20
837.98507240836125
 30
0.0
  0
POINT
  5
17B41
  8
DEFPOINTS
 62
     0
 10
-387.95512432206078
 20
837.98507240836125
 30
0.0
  0
ENDBLK
  5
17B2B
  8
0
  0
BLOCK
  8
0
  2
*D132
 70
     1
 10
0.0
 20
0.0
 30
0.0
  3
*D132
  1

  0
LINE
  5
17B42
  8
0
 62
     0
 10
-387.56054506319202
 20
839.21349886751898
 30
0.0
 11
-387.56054506319202
 21
838.58366063794006
 31
0.0
  0
LINE
  5
17B43
  8
0
 62
     0
 10
-387.23035806841222
 20
839.21349886751898
 30
0.0
 11
-387.23035806841222
 21
838.58366063794006
 31
0.0
  0
LINE
  5
17B44
  8
0
 62
     0
 10
-387.56054506319202
 20
838.64616063794017
 30
0.0
 11
-387.60742006319202
 21
838.64616063794017
 31
0.0
  0
LINE
  5
17B45
  8
0
 62
     0
 10
-387.23035806841222
 20
838.64616063794017
 30
0.0
 11
-387.18348306841222
 21
838.64616063794017
 31
0.0
  0
INSERT
  5
17B46
  8
0
 62
     0
  2
_ARCHTICK
 10
-387.56054506319202
 20
838.64616063794017
 30
0.0
 41
0.046875
 42
0.046875
 43
0.046875
  0
INSERT
  5
17B47
  8
0
 62
     0
  2
_ARCHTICK
 10
-387.23035806841222
 20
838.64616063794017
 30
0.0
 41
0.046875
 42
0.046875
 43
0.046875
 50
180.0
  0
INSERT
  5
17B48
  8
0
  2
*U298
 10
0.0
 20
0.0
 30
0.0
  0
POINT
  5
17B49
  8
DEFPOINTS
 62
     0
 10
-387.56054506319202
 20
839.30724886751887
 30
0.0
  0
POINT
  5
17B4A
  8
DEFPOINTS
 62
     0
 10
-387.23035806841222
 20
839.30724886751887
 30
0.0
  0
POINT
  5
17B4B
  8
DEFPOINTS
 62
     0
 10
-387.23035806841222
 20
838.64616063794017
 30
0.0
  0
ENDBLK
  5
17B38
  8
0
  0
BLOCK
  8
0
  2
A$C1CC21CB1
 70
     0
 10
0.0
 20
0.0
 30
0.0
  3
A$C1CC21CB1
  1

  0
INSERT
  5
1E519
  8
0
  2
*U327
 10
0.0
 20
0.0
 30
0.0
  0
LINE
  5
1E51A
  8
0
 10
3.7500010114733291
 20
5.3952929104353577
 30
0.0
 11
3.7500010114733291
 21
4.3952929104353577
 31
0.0
  0
LINE
  5
1E51B
  8
0
 10
2.9518088400019451
 20
5.2313952928747929
 30
0.0
 11
3.1320282060082709
 21
5.3952929104353577
 31
0.0
  0
LINE
  5
1E51C
  8
0
 10
0.6179738169383882
 20
5.3952929104353577
 30
0.0
 11
0.7981931829447149
 21
5.2313952928747929
 31
0.0
  0
LINE
  5
1E51D
  8
0
 10
0.00000101147333
 20
4.3952929104353577
 30
0.0
 11
0.00000101147333
 21
5.3952929104353577
 31
0.0
  0
LINE
  5
1E51E
  8
0
 10
3.7500010114733291
 20
3.7500004431210239
 30
0.0
 11
3.7500010114733291
 21
0.0000004431210243
 31
0.0
  0
LINE
  5
1E51F
  8
0
 10
0.00000101147333
 20
0.0000004431210243
 30
0.0
 11
0.00000101147333
 21
3.7500004431210239
 31
0.0
  0
LINE
  5
1E520
  8
0
 10
2.0845209646054168
 20
5.2620610554768907
 30
0.0
 11
2.1726683896605432
 21
5.2620610554768907
 31
0.0
  0
LINE
  5
1E521
  8
0
 10
1.6654810583412989
 20
5.2620610554768907
 30
0.0
 11
1.5773336332861161
 21
5.2620610554768907
 31
0.0
  0
LINE
  5
1E522
  8
0
 10
0.6179738169383882
 20
5.3952929104353577
 30
0.0
 11
0.00000101147333
 21
5.3952929104353577
 31
0.0
  0
LINE
  5
1E523
  8
0
 10
3.7500010114733291
 20
5.3952929104353577
 30
0.0
 11
3.1320282060082709
 21
5.3952929104353577
 31
0.0
  0
LINE
  5
1E524
  8
0
 10
0.00000101147333
 20
4.3952929104353577
 30
0.0
 11
3.7500010114733291
 21
4.3952929104353577
 31
0.0
  0
LINE
  5
1E525
  8
0
 10
3.7500010114733291
 20
3.7500004431210239
 30
0.0
 11
0.00000101147333
 21
3.7500004431210239
 31
0.0
  0
LINE
  5
1E526
  8
0
 10
0.00000101147333
 20
0.0000004431210243
 30
0.0
 11
3.7500010114733291
 21
0.0000004431210243
 31
0.0
  0
ARC
  5
1E527
  8
0
  6
CONTINUOUS
 10
1.8514532601610649
 20
5.1591324902699114
 30
0.0
 40
0.2125557559448135
 50
83.639495236247939
 51
151.0371343670412
  0
POLYLINE
  8
0
  5
25340
  66
     1
 10
0.000000
 20
0.000000
 30
0.000000
  70
     8
  0
VERTEX
  8
0
  5
25341
 10
1.57733
 20
5.26206
 30
0.000000
  70
    32
  0
VERTEX
  8
0
  5
25342
 10
1.57610
 20
5.26009
 30
0.000000
  70
    32
  0
VERTEX
  8
0
  5
25343
 10
1.57484
 20
5.25813
 30
0.000000
  70
    32
  0
VERTEX
  8
0
  5
25344
 10
1.57356
 20
5.25618
 30
0.000000
  70
    32
  0
VERTEX
  8
0
  5
25345
 10
1.57226
 20
5.25425
 30
0.000000
  70
    32
  0
VERTEX
  8
0
  5
25346
 10
1.57095
 20
5.25233
 30
0.000000
  70
    32
  0
VERTEX
  8
0
  5
25347
 10
1.56961
 20
5.25043
 30
0.000000
  70
    32
  0
VERTEX
  8
0
  5
25348
 10
1.56826
 20
5.24854
 30
0.000000
  70
    32
  0
VERTEX
  8
0
  5
25349
 10
1.56689
 20
5.24666
 30
0.000000
  70
    32
  0
VERTEX
  8
0
  5
2534A
 10
1.56550
 20
5.24479
 30
0.000000
  70
    32
  0
VERTEX
  8
0
  5
2534B
 10
1.56409
 20
5.24294
 30
0.000000
  70
    32
  0
VERTEX
  8
0
  5
2534C
 10
1.56267
 20
5.24110
 30
0.000000
  70
    32
  0
VERTEX
  8
0
  5
2534D
 10
1.56122
 20
5.23927
 30
0.000000
  70
    32
  0
VERTEX
  8
0
  5
2534E
 10
1.55977
 20
5.23745
 30
0.000000
  70
    32
  0
VERTEX
  8
0
  5
2534F
 10
1.55829
 20
5.23565
 30
0.000000
  70
    32
  0
VERTEX
  8
0
  5
25350
 10
1.55680
 20
5.23386
 30
0.000000
  70
    32
  0
VERTEX
  8
0
  5
25351
 10
1.55529
 20
5.23208
 30
0.000000
  70
    32
  0
VERTEX
  8
0
  5
25352
 10
1.55377
 20
5.23031
 30
0.000000
  70
    32
  0
VERTEX
  8
0
  5
25353
 10
1.55223
 20
5.22855
 30
0.000000
  70
    32
  0
VERTEX
  8
0
  5
25354
 10
1.55068
 20
5.22680
 30
0.000000
  70
    32
  0
VERTEX
  8
0
  5
25355
 10
1.54911
 20
5.22506
 30
0.000000
  70
    32
  0
VERTEX
  8
0
  5
25356
 10
1.54753
 20
5.22333
 30
0.000000
  70
    32
  0
VERTEX
  8
0
  5
25357
 10
1.54593
 20
5.22162
 30
0.000000
  70
    32
  0
VERTEX
  8
0
  5
25358
 10
1.54432
 20
5.21991
 30
0.000000
  70
    32
  0
VERTEX
  8
0
  5
25359
 10
1.54270
 20
5.21822
 30
0.000000
  70
    32
  0
VERTEX
  8
0
  5
2535A
 10
1.54106
 20
5.21653
 30
0.000000
  70
    32
  0
VERTEX
  8
0
  5
2535B
 10
1.53941
 20
5.21485
 30
0.000000
  70
    32
  0
VERTEX
  8
0
  5
2535C
 10
1.53775
 20
5.21319
 30
0.000000
  70
    32
  0
VERTEX
  8
0
  5
2535D
 10
1.53607
 20
5.21153
 30
0.000000
  70
    32
  0
VERTEX
  8
0
  5
2535E
 10
1.53438
 20
5.20988
 30
0.000000
  70
    32
  0
VERTEX
  8
0
  5
2535F
 10
1.53268
 20
5.20824
 30
0.000000
  70
    32
  0
VERTEX
  8
0
  5
25360
 10
1.53097
 20
5.20661
 30
0.000000
  70
    32
  0
VERTEX
  8
0
  5
25361
 10
1.52925
 20
5.20499
 30
0.000000
  70
    32
  0
VERTEX
  8
0
  5
25362
 10
1.52751
 20
5.20338
 30
0.000000
  70
    32
  0
VERTEX
  8
0
  5
25363
 10
1.52576
 20
5.20178
 30
0.000000
  70
    32
  0
VERTEX
  8
0
  5
25364
 10
1.52400
 20
5.20020
 30
0.000000
  70
    32
  0
VERTEX
  8
0
  5
25365
 10
1.52223
 20
5.19862
 30
0.000000
  70
    32
  0
VERTEX
  8
0
  5
25366
 10
1.52045
 20
5.19706
 30
0.000000
  70
    32
  0
VERTEX
  8
0
  5
25367
 10
1.51865
 20
5.19552
 30
0.000000
  70
    32
  0
VERTEX
  8
0
  5
25368
 10
1.51684
 20
5.19399
 30
0.000000
  70
    32
  0
VERTEX
  8
0
  5
25369
 10
1.51502
 20
5.19248
 30
0.000000
  70
    32
  0
VERTEX
  8
0
  5
2536A
 10
1.51318
 20
5.19098
 30
0.000000
  70
    32
  0
VERTEX
  8
0
  5
2536B
 10
1.51134
 20
5.18950
 30
0.000000
  70
    32
  0
VERTEX
  8
0
  5
2536C
 10
1.50948
 20
5.18804
 30
0.000000
  70
    32
  0
VERTEX
  8
0
  5
2536D
 10
1.50761
 20
5.18659
 30
0.000000
  70
    32
  0
VERTEX
  8
0
  5
2536E
 10
1.50572
 20
5.18517
 30
0.000000
  70
    32
  0
VERTEX
  8
0
  5
2536F
 10
1.50383
 20
5.18376
 30
0.000000
  70
    32
  0
VERTEX
  8
0
  5
25370
 10
1.50192
 20
5.18238
 30
0.000000
  70
    32
  0
VERTEX
  8
0
  5
25371
 10
1.50000
 20
5.18102
 30
0.000000
  70
    32
  0
VERTEX
  8
0
  5
25372
 10
1.49806
 20
5.17968
 30
0.000000
  70
    32
  0
VERTEX
  8
0
  5
25373
 10
1.49612
 20
5.17836
 30
0.000000
  70
    32
  0
VERTEX
  8
0
  5
25374
 10
1.49416
 20
5.17706
 30
0.000000
  70
    32
  0
VERTEX
  8
0
  5
25375
 10
1.49219
 20
5.17579
 30
0.000000
  70
    32
  0
VERTEX
  8
0
  5
25376
 10
1.49020
 20
5.17454
 30
0.000000
  70
    32
  0
VERTEX
  8
0
  5
25377
 10
1.48821
 20
5.17332
 30
0.000000
  70
    32
  0
VERTEX
  8
0
  5
25378
 10
1.48620
 20
5.17213
 30
0.000000
  70
    32
  0
VERTEX
  8
0
  5
25379
 10
1.48417
 20
5.17096
 30
0.000000
  70
    32
  0
VERTEX
  8
0
  5
2537A
 10
1.48214
 20
5.16982
 30
0.000000
  70
    32
  0
VERTEX
  8
0
  5
2537B
 10
1.48009
 20
5.16871
 30
0.000000
  70
    32
  0
VERTEX
  8
0
  5
2537C
 10
1.47803
 20
5.16762
 30
0.000000
  70
    32
  0
VERTEX
  8
0
  5
2537D
 10
1.47595
 20
5.16657
 30
0.000000
  70
    32
  0
VERTEX
  8
0
  5
2537E
 10
1.47387
 20
5.16554
 30
0.000000
  70
    32
  0
VERTEX
  8
0
  5
2537F
 10
1.47177
 20
5.16455
 30
0.000000
  70
    32
  0
VERTEX
  8
0
  5
25380
 10
1.46965
 20
5.16359
 30
0.000000
  70
    32
  0
VERTEX
  8
0
  5
25381
 10
1.46753
 20
5.16266
 30
0.000000
  70
    32
  0
VERTEX
  8
0
  5
25382
 10
1.46539
 20
5.16176
 30
0.000000
  70
    32
  0
VERTEX
  8
0
  5
25383
 10
1.46323
 20
5.16090
 30
0.000000
  70
    32
  0
VERTEX
  8
0
  5
25384
 10
1.46107
 20
5.16007
 30
0.000000
  70
    32
  0
VERTEX
  8
0
  5
25385
 10
1.45889
 20
5.15927
 30
0.000000
  70
    32
  0
VERTEX
  8
0
  5
25386
 10
1.45670
 20
5.15851
 30
0.000000
  70
    32
  0
VERTEX
  8
0
  5
25387
 10
1.45449
 20
5.15779
 30
0.000000
  70
    32
  0
VERTEX
  8
0
  5
25388
 10
1.45227
 20
5.15710
 30
0.000000
  70
    32
  0
VERTEX
  8
0
  5
25389
 10
1.45004
 20
5.15645
 30
0.000000
  70
    32
  0
VERTEX
  8
0
  5
2538A
 10
1.44780
 20
5.15583
 30
0.000000
  70
    32
  0
VERTEX
  8
0
  5
2538B
 10
1.44555
 20
5.15525
 30
0.000000
  70
    32
  0
VERTEX
  8
0
  5
2538C
 10
1.44329
 20
5.15470
 30
0.000000
  70
    32
  0
VERTEX
  8
0
  5
2538D
 10
1.44102
 20
5.15418
 30
0.000000
  70
    32
  0
VERTEX
  8
0
  5
2538E
 10
1.43874
 20
5.15370
 30
0.000000
  70
    32
  0
VERTEX
  8
0
  5
2538F
 10
1.43645
 20
5.15325
 30
0.000000
  70
    32
  0
VERTEX
  8
0
  5
25390
 10
1.43415
 20
5.15284
 30
0.000000
  70
    32
  0
VERTEX
  8
0
  5
25391
 10
1.43184
 20
5.15245
 30
0.000000
  70
    32
  0
VERTEX
  8
0
  5
25392
 10
1.42953
 20
5.15211
 30
0.000000
  70
    32
  0
VERTEX
  8
0
  5
25393
 10
1.42720
 20
5.15179
 30
0.000000
  70
    32
  0
VERTEX
  8
0
  5
25394
 10
1.42487
 20
5.15150
 30
0.000000
  70
    32
  0
VERTEX
  8
0
  5
25395
 10
1.42254
 20
5.15125
 30
0.000000
  70
    32
  0
VERTEX
  8
0
  5
25396
 10
1.42020
 20
5.15103
 30
0.000000
  70
    32
  0
VERTEX
  8
0
  5
25397
 10
1.41785
 20
5.15084
 30
0.000000
  70
    32
  0
VERTEX
  8
0
  5
25398
 10
1.41550
 20
5.15068
 30
0.000000
  70
    32
  0
VERTEX
  8
0
  5
25399
 10
1.41314
 20
5.15056
 30
0.000000
  70
    32
  0
VERTEX
  8
0
  5
2539A
 10
1.41078
 20
5.15046
 30
0.000000
  70
    32
  0
VERTEX
  8
0
  5
2539B
 10
1.40842
 20
5.15040
 30
0.000000
  70
    32
  0
VERTEX
  8
0
  5
2539C
 10
1.40606
 20
5.15036
 30
0.000000
  70
    32
  0
VERTEX
  8
0
  5
2539D
 10
1.40369
 20
5.15036
 30
0.000000
  70
    32
  0
VERTEX
  8
0
  5
2539E
 10
1.40132
 20
5.15038
 30
0.000000
  70
    32
  0
VERTEX
  8
0
  5
2539F
 10
1.39894
 20
5.15044
 30
0.000000
  70
    32
  0
VERTEX
  8
0
  5
253A0
 10
1.39657
 20
5.15052
 30
0.000000
  70
    32
  0
VERTEX
  8
0
  5
253A1
 10
1.39420
 20
5.15064
 30
0.000000
  70
    32
  0
VERTEX
  8
0
  5
253A2
 10
1.39182
 20
5.15078
 30
0.000000
  70
    32
  0
VERTEX
  8
0
  5
253A3
 10
1.38945
 20
5.15095
 30
0.000000
  70
    32
  0
VERTEX
  8
0
  5
253A4
 10
1.38707
 20
5.15115
 30
0.000000
  70
    32
  0
VERTEX
  8
0
  5
253A5
 10
1.38470
 20
5.15138
 30
0.000000
  70
    32
  0
VERTEX
  8
0
  5
253A6
 10
1.38233
 20
5.15164
 30
0.000000
  70
    32
  0
VERTEX
  8
0
  5
253A7
 10
1.37996
 20
5.15192
 30
0.000000
  70
    32
  0
VERTEX
  8
0
  5
253A8
 10
1.37759
 20
5.15224
 30
0.000000
  70
    32
  0
VERTEX
  8
0
  5
253A9
 10
1.37523
 20
5.15258
 30
0.000000
  70
    32
  0
VERTEX
  8
0
  5
253AA
 10
1.37287
 20
5.15294
 30
0.000000
  70
    32
  0
VERTEX
  8
0
  5
253AB
 10
1.37051
 20
5.15334
 30
0.000000
  70
    32
  0
VERTEX
  8
0
  5
253AC
 10
1.36816
 20
5.15376
 30
0.000000
  70
    32
  0
VERTEX
  8
0
  5
253AD
 10
1.36581
 20
5.15420
 30
0.000000
  70
    32
  0
VERTEX
  8
0
  5
253AE
 10
1.36347
 20
5.15467
 30
0.000000
  70
    32
  0
VERTEX
  8
0
  5
253AF
 10
1.36114
 20
5.15517
 30
0.000000
  70
    32
  0
VERTEX
  8
0
  5
253B0
 10
1.35881
 20
5.15570
 30
0.000000
  70
    32
  0
VERTEX
  8
0
  5
253B1
 10
1.35648
 20
5.15625
 30
0.000000
  70
    32
  0
VERTEX
  8
0
  5
253B2
 10
1.35417
 20
5.15682
 30
0.000000
  70
    32
  0
VERTEX
  8
0
  5
253B3
 10
1.35186
 20
5.15743
 30
0.000000
  70
    32
  0
VERTEX
  8
0
  5
253B4
 10
1.34955
 20
5.15806
 30
0.000000
  70
    32
  0
VERTEX
  8
0
  5
253B5
 10
1.34726
 20
5.15871
 30
0.000000
  70
    32
  0
VERTEX
  8
0
  5
253B6
 10
1.34497
 20
5.15939
 30
0.000000
  70
    32
  0
VERTEX
  8
0
  5
253B7
 10
1.34270
 20
5.16009
 30
0.000000
  70
    32
  0
VERTEX
  8
0
  5
253B8
 10
1.34043
 20
5.16082
 30
0.000000
  70
    32
  0
VERTEX
  8
0
  5
253B9
 10
1.33817
 20
5.16158
 30
0.000000
  70
    32
  0
VERTEX
  8
0
  5
253BA
 10
1.33592
 20
5.16236
 30
0.000000
  70
    32
  0
VERTEX
  8
0
  5
253BB
 10
1.33368
 20
5.16316
 30
0.000000
  70
    32
  0
VERTEX
  8
0
  5
253BC
 10
1.33146
 20
5.16399
 30
0.000000
  70
    32
  0
VERTEX
  8
0
  5
253BD
 10
1.32924
 20
5.16485
 30
0.000000
  70
    32
  0
VERTEX
  8
0
  5
253BE
 10
1.32704
 20
5.16573
 30
0.000000
  70
    32
  0
VERTEX
  8
0
  5
253BF
 10
1.32484
 20
5.16663
 30
0.000000
  70
    32
  0
VERTEX
  8
0
  5
253C0
 10
1.32266
 20
5.16756
 30
0.000000
  70
    32
  0
VERTEX
  8
0
  5
253C1
 10
1.32049
 20
5.16851
 30
0.000000
  70
    32
  0
VERTEX
  8
0
  5
253C2
 10
1.31834
 20
5.16949
 30
0.000000
  70
    32
  0
VERTEX
  8
0
  5
253C3
 10
1.31620
 20
5.17049
 30
0.000000
  70
    32
  0
VERTEX
  8
0
  5
253C4
 10
1.31407
 20
5.17151
 30
0.000000
  70
    32
  0
VERTEX
  8
0
  5
253C5
 10
1.31195
 20
5.17256
 30
0.000000
  70
    32
  0
VERTEX
  8
0
  5
253C6
 10
1.30986
 20
5.17364
 30
0.000000
  70
    32
  0
VERTEX
  8
0
  5
253C7
 10
1.30777
 20
5.17473
 30
0.000000
  70
    32
  0
VERTEX
  8
0
  5
253C8
 10
1.30570
 20
5.17586
 30
0.000000
  70
    32
  0
VERTEX
  8
0
  5
253C9
 10
1.30365
 20
5.17700
 30
0.000000
  70
    32
  0
VERTEX
  8
0
  5
253CA
 10
1.30161
 20
5.17817
 30
0.000000
  70
    32
  0
VERTEX
  8
0
  5
253CB
 10
1.29959
 20
5.17936
 30
0.000000
  70
    32
  0
VERTEX
  8
0
  5
253CC
 10
1.29759
 20
5.18057
 30
0.000000
  70
    32
  0
VERTEX
  8
0
  5
253CD
 10
1.29560
 20
5.18181
 30
0.000000
  70
    32
  0
VERTEX
  8
0
  5
253CE
 10
1.29363
 20
5.18307
 30
0.000000
  70
    32
  0
VERTEX
  8
0
  5
253CF
 10
1.29168
 20
5.18436
 30
0.000000
  70
    32
  0
VERTEX
  8
0
  5
253D0
 10
1.28975
 20
5.18567
 30
0.000000
  70
    32
  0
VERTEX
  8
0
  5
253D1
 10
1.28783
 20
5.18700
 30
0.000000
  70
    32
  0
VERTEX
  8
0
  5
253D2
 10
1.28594
 20
5.18835
 30
0.000000
  70
    32
  0
VERTEX
  8
0
  5
253D3
 10
1.28406
 20
5.18973
 30
0.000000
  70
    32
  0
VERTEX
  8
0
  5
253D4
 10
1.28221
 20
5.19112
 30
0.000000
  70
    32
  0
VERTEX
  8
0
  5
253D5
 10
1.28037
 20
5.19255
 30
0.000000
  70
    32
  0
VERTEX
  8
0
  5
253D6
 10
1.27856
 20
5.19399
 30
0.000000
  70
    32
  0
VERTEX
  8
0
  5
253D7
 10
1.27677
 20
5.19545
 30
0.000000
  70
    32
  0
VERTEX
  8
0
  5
253D8
 10
1.27500
 20
5.19694
 30
0.000000
  70
    32
  0
VERTEX
  8
0
  5
253D9
 10
1.27325
 20
5.19845
 30
0.000000
  70
    32
  0
VERTEX
  8
0
  5
253DA
 10
1.27152
 20
5.19998
 30
0.000000
  70
    32
  0
VERTEX
  8
0
  5
253DB
 10
1.26981
 20
5.20154
 30
0.000000
  70
    32
  0
VERTEX
  8
0
  5
253DC
 10
1.26813
 20
5.20311
 30
0.000000
  70
    32
  0
VERTEX
  8
0
  5
253DD
 10
1.26647
 20
5.20471
 30
0.000000
  70
    32
  0
VERTEX
  8
0
  5
253DE
 10
1.26483
 20
5.20632
 30
0.000000
  70
    32
  0
VERTEX
  8
0
  5
253DF
 10
1.26320
 20
5.20796
 30
0.000000
  70
    32
  0
VERTEX
  8
0
  5
253E0
 10
1.26160
 20
5.20961
 30
0.000000
  70
    32
  0
VERTEX
  8
0
  5
253E1
 10
1.26001
 20
5.21128
 30
0.000000
  70
    32
  0
VERTEX
  8
0
  5
253E2
 10
1.25844
 20
5.21297
 30
0.000000
  70
    32
  0
VERTEX
  8
0
  5
253E3
 10
1.25689
 20
5.21467
 30
0.000000
  70
    32
  0
VERTEX
  8
0
  5
253E4
 10
1.25535
 20
5.21639
 30
0.000000
  70
    32
  0
VERTEX
  8
0
  5
253E5
 10
1.25383
 20
5.21813
 30
0.000000
  70
    32
  0
VERTEX
  8
0
  5
253E6
 10
1.25232
 20
5.21988
 30
0.000000
  70
    32
  0
VERTEX
  8
0
  5
253E7
 10
1.25083
 20
5.22164
 30
0.000000
  70
    32
  0
VERTEX
  8
0
  5
253E8
 10
1.24935
 20
5.22342
 30
0.000000
  70
    32
  0
VERTEX
  8
0
  5
253E9
 10
1.24788
 20
5.22521
 30
0.000000
  70
    32
  0
VERTEX
  8
0
  5
253EA
 10
1.24642
 20
5.22702
 30
0.000000
  70
    32
  0
VERTEX
  8
0
  5
253EB
 10
1.24498
 20
5.22883
 30
0.000000
  70
    32
  0
VERTEX
  8
0
  5
253EC
 10
1.24354
 20
5.23066
 30
0.000000
  70
    32
  0
VERTEX
  8
0
  5
253ED
 10
1.24212
 20
5.23249
 30
0.000000
  70
    32
  0
VERTEX
  8
0
  5
253EE
 10
1.24070
 20
5.23434
 30
0.000000
  70
    32
  0
VERTEX
  8
0
  5
253EF
 10
1.23930
 20
5.23620
 30
0.000000
  70
    32
  0
VERTEX
  8
0
  5
253F0
 10
1.23790
 20
5.23806
 30
0.000000
  70
    32
  0
VERTEX
  8
0
  5
253F1
 10
1.23651
 20
5.23993
 30
0.000000
  70
    32
  0
VERTEX
  8
0
  5
253F2
 10
1.23512
 20
5.24181
 30
0.000000
  70
    32
  0
VERTEX
  8
0
  5
253F3
 10
1.23374
 20
5.24370
 30
0.000000
  70
    32
  0
VERTEX
  8
0
  5
253F4
 10
1.23237
 20
5.24559
 30
0.000000
  70
    32
  0
VERTEX
  8
0
  5
253F5
 10
1.23099
 20
5.24749
 30
0.000000
  70
    32
  0
VERTEX
  8
0
  5
253F6
 10
1.22963
 20
5.24940
 30
0.000000
  70
    32
  0
VERTEX
  8
0
  5
253F7
 10
1.22826
 20
5.25130
 30
0.000000
  70
    32
  0
VERTEX
  8
0
  5
253F8
 10
1.22690
 20
5.25322
 30
0.000000
  70
    32
  0
VERTEX
  8
0
  5
253F9
 10
1.22554
 20
5.25513
 30
0.000000
  70
    32
  0
VERTEX
  8
0
  5
253FA
 10
1.22418
 20
5.25705
 30
0.000000
  70
    32
  0
VERTEX
  8
0
  5
253FB
 10
1.22282
 20
5.25896
 30
0.000000
  70
    32
  0
VERTEX
  8
0
  5
253FC
 10
1.22146
 20
5.26088
 30
0.000000
  70
    32
  0
VERTEX
  8
0
  5
253FD
 10
1.22010
 20
5.26281
 30
0.000000
  70
    32
  0
VERTEX
  8
0
  5
253FE
 10
1.21874
 20
5.26473
 30
0.000000
  70
    32
  0
VERTEX
  8
0
  5
253FF
 10
1.21738
 20
5.26665
 30
0.000000
  70
    32
  0
VERTEX
  8
0
  5
25400
 10
1.21601
 20
5.26856
 30
0.000000
  70
    32
  0
VERTEX
  8
0
  5
25401
 10
1.21464
 20
5.27048
 30
0.000000
  70
    32
  0
VERTEX
  8
0
  5
25402
 10
1.21326
 20
5.27239
 30
0.000000
  70
    32
  0
VERTEX
  8
0
  5
25403
 10
1.21188
 20
5.27431
 30
0.000000
  70
    32
  0
VERTEX
  8
0
  5
25404
 10
1.21049
 20
5.27621
 30
0.000000
  70
    32
  0
VERTEX
  8
0
  5
25405
 10
1.20910
 20
5.27812
 30
0.000000
  70
    32
  0
VERTEX
  8
0
  5
25406
 10
1.20770
 20
5.28001
 30
0.000000
  70
    32
  0
VERTEX
  8
0
  5
25407
 10
1.20629
 20
5.28190
 30
0.000000
  70
    32
  0
VERTEX
  8
0
  5
25408
 10
1.20487
 20
5.28379
 30
0.000000
  70
    32
  0
VERTEX
  8
0
  5
25409
 10
1.20344
 20
5.28567
 30
0.000000
  70
    32
  0
VERTEX
  8
0
  5
2540A
 10
1.20201
 20
5.28754
 30
0.000000
  70
    32
  0
VERTEX
  8
0
  5
2540B
 10
1.20056
 20
5.28940
 30
0.000000
  70
    32
  0
VERTEX
  8
0
  5
2540C
 10
1.19910
 20
5.29126
 30
0.000000
  70
    32
  0
VERTEX
  8
0
  5
2540D
 10
1.19763
 20
5.29311
 30
0.000000
  70
    32
  0
VERTEX
  8
0
  5
2540E
 10
1.19614
 20
5.29494
 30
0.000000
  70
    32
  0
VERTEX
  8
0
  5
2540F
 10
1.19465
 20
5.29677
 30
0.000000
  70
    32
  0
VERTEX
  8
0
  5
25410
 10
1.19314
 20
5.29858
 30
0.000000
  70
    32
  0
VERTEX
  8
0
  5
25411
 10
1.19161
 20
5.30038
 30
0.000000
  70
    32
  0
VERTEX
  8
0
  5
25412
 10
1.19008
 20
5.30218
 30
0.000000
  70
    32
  0
VERTEX
  8
0
  5
25413
 10
1.18853
 20
5.30396
 30
0.000000
  70
    32
  0
VERTEX
  8
0
  5
25414
 10
1.18697
 20
5.30573
 30
0.000000
  70
    32
  0
VERTEX
  8
0
  5
25415
 10
1.18539
 20
5.30748
 30
0.000000
  70
    32
  0
VERTEX
  8
0
  5
25416
 10
1.18381
 20
5.30923
 30
0.000000
  70
    32
  0
VERTEX
  8
0
  5
25417
 10
1.18221
 20
5.31096
 30
0.000000
  70
    32
  0
VERTEX
  8
0
  5
25418
 10
1.18059
 20
5.31268
 30
0.000000
  70
    32
  0
VERTEX
  8
0
  5
25419
 10
1.17897
 20
5.31439
 30
0.000000
  70
    32
  0
VERTEX
  8
0
  5
2541A
 10
1.17733
 20
5.31608
 30
0.000000
  70
    32
  0
VERTEX
  8
0
  5
2541B
 10
1.17568
 20
5.31776
 30
0.000000
  70
    32
  0
VERTEX
  8
0
  5
2541C
 10
1.17401
 20
5.31943
 30
0.000000
  70
    32
  0
VERTEX
  8
0
  5
2541D
 10
1.17234
 20
5.32108
 30
0.000000
  70
    32
  0
VERTEX
  8
0
  5
2541E
 10
1.17064
 20
5.32272
 30
0.000000
  70
    32
  0
VERTEX
  8
0
  5
2541F
 10
1.16894
 20
5.32434
 30
0.000000
  70
    32
  0
VERTEX
  8
0
  5
25420
 10
1.16723
 20
5.32595
 30
0.000000
  70
    32
  0
VERTEX
  8
0
  5
25421
 10
1.16550
 20
5.32754
 30
0.000000
  70
    32
  0
VERTEX
  8
0
  5
25422
 10
1.16375
 20
5.32912
 30
0.000000
  70
    32
  0
VERTEX
  8
0
  5
25423
 10
1.16200
 20
5.33068
 30
0.000000
  70
    32
  0
VERTEX
  8
0
  5
25424
 10
1.16023
 20
5.33222
 30
0.000000
  70
    32
  0
VERTEX
  8
0
  5
25425
 10
1.15845
 20
5.33375
 30
0.000000
  70
    32
  0
VERTEX
  8
0
  5
25426
 10
1.15666
 20
5.33527
 30
0.000000
  70
    32
  0
VERTEX
  8
0
  5
25427
 10
1.15485
 20
5.33676
 30
0.000000
  70
    32
  0
VERTEX
  8
0
  5
25428
 10
1.15303
 20
5.33824
 30
0.000000
  70
    32
  0
VERTEX
  8
0
  5
25429
 10
1.15120
 20
5.33970
 30
0.000000
  70
    32
  0
VERTEX
  8
0
  5
2542A
 10
1.14936
 20
5.34114
 30
0.000000
  70
    32
  0
VERTEX
  8
0
  5
2542B
 10
1.14750
 20
5.34257
 30
0.000000
  70
    32
  0
VERTEX
  8
0
  5
2542C
 10
1.14563
 20
5.34398
 30
0.000000
  70
    32
  0
VERTEX
  8
0
  5
2542D
 10
1.14375
 20
5.34536
 30
0.000000
  70
    32
  0
VERTEX
  8
0
  5
2542E
 10
1.14185
 20
5.34673
 30
0.000000
  70
    32
  0
VERTEX
  8
0
  5
2542F
 10
1.13994
 20
5.34809
 30
0.000000
  70
    32
  0
VERTEX
  8
0
  5
25430
 10
1.13802
 20
5.34942
 30
0.000000
  70
    32
  0
VERTEX
  8
0
  5
25431
 10
1.13609
 20
5.35073
 30
0.000000
  70
    32
  0
VERTEX
  8
0
  5
25432
 10
1.13414
 20
5.35202
 30
0.000000
  70
    32
  0
VERTEX
  8
0
  5
25433
 10
1.13218
 20
5.35329
 30
0.000000
  70
    32
  0
VERTEX
  8
0
  5
25434
 10
1.13021
 20
5.35454
 30
0.000000
  70
    32
  0
VERTEX
  8
0
  5
25435
 10
1.12822
 20
5.35578
 30
0.000000
  70
    32
  0
VERTEX
  8
0
  5
25436
 10
1.12622
 20
5.35699
 30
0.000000
  70
    32
  0
VERTEX
  8
0
  5
25437
 10
1.12421
 20
5.35817
 30
0.000000
  70
    32
  0
VERTEX
  8
0
  5
25438
 10
1.12219
 20
5.35934
 30
0.000000
  70
    32
  0
VERTEX
  8
0
  5
25439
 10
1.12015
 20
5.36049
 30
0.000000
  70
    32
  0
VERTEX
  8
0
  5
2543A
 10
1.11810
 20
5.36161
 30
0.000000
  70
    32
  0
VERTEX
  8
0
  5
2543B
 10
1.11604
 20
5.36271
 30
0.000000
  70
    32
  0
VERTEX
  8
0
  5
2543C
 10
1.11397
 20
5.36379
 30
0.000000
  70
    32
  0
VERTEX
  8
0
  5
2543D
 10
1.11188
 20
5.36485
 30
0.000000
  70
    32
  0
VERTEX
  8
0
  5
2543E
 10
1.10978
 20
5.36588
 30
0.000000
  70
    32
  0
VERTEX
  8
0
  5
2543F
 10
1.10767
 20
5.36689
 30
0.000000
  70
    32
  0
VERTEX
  8
0
  5
25440
 10
1.10554
 20
5.36788
 30
0.000000
  70
    32
  0
VERTEX
  8
0
  5
25441
 10
1.10341
 20
5.36884
 30
0.000000
  70
    32
  0
VERTEX
  8
0
  5
25442
 10
1.10126
 20
5.36978
 30
0.000000
  70
    32
  0
VERTEX
  8
0
  5
25443
 10
1.09910
 20
5.37070
 30
0.000000
  70
    32
  0
VERTEX
  8
0
  5
25444
 10
1.09694
 20
5.37159
 30
0.000000
  70
    32
  0
VERTEX
  8
0
  5
25445
 10
1.09476
 20
5.37246
 30
0.000000
  70
    32
  0
VERTEX
  8
0
  5
25446
 10
1.09257
 20
5.37331
 30
0.000000
  70
    32
  0
VERTEX
  8
0
  5
25447
 10
1.09037
 20
5.37414
 30
0.000000
  70
    32
  0
VERTEX
  8
0
  5
25448
 10
1.08816
 20
5.37494
 30
0.000000
  70
    32
  0
VERTEX
  8
0
  5
25449
 10
1.08594
 20
5.37571
 30
0.000000
  70
    32
  0
VERTEX
  8
0
  5
2544A
 10
1.08372
 20
5.37647
 30
0.000000
  70
    32
  0
VERTEX
  8
0
  5
2544B
 10
1.08148
 20
5.37720
 30
0.000000
  70
    32
  0
VERTEX
  8
0
  5
2544C
 10
1.07924
 20
5.37790
 30
0.000000
  70
    32
  0
VERTEX
  8
0
  5
2544D
 10
1.07699
 20
5.37858
 30
0.000000
  70
    32
  0
VERTEX
  8
0
  5
2544E
 10
1.07473
 20
5.37924
 30
0.000000
  70
    32
  0
VERTEX
  8
0
  5
2544F
 10
1.07246
 20
5.37987
 30
0.000000
  70
    32
  0
VERTEX
  8
0
  5
25450
 10
1.07019
 20
5.38048
 30
0.000000
  70
    32
  0
VERTEX
  8
0
  5
25451
 10
1.06790
 20
5.38107
 30
0.000000
  70
    32
  0
VERTEX
  8
0
  5
25452
 10
1.06562
 20
5.38163
 30
0.000000
  70
    32
  0
VERTEX
  8
0
  5
25453
 10
1.06332
 20
5.38217
 30
0.000000
  70
    32
  0
VERTEX
  8
0
  5
25454
 10
1.06102
 20
5.38268
 30
0.000000
  70
    32
  0
VERTEX
  8
0
  5
25455
 10
1.05872
 20
5.38317
 30
0.000000
  70
    32
  0
VERTEX
  8
0
  5
25456
 10
1.05640
 20
5.38363
 30
0.000000
  70
    32
  0
VERTEX
  8
0
  5
25457
 10
1.05409
 20
5.38407
 30
0.000000
  70
    32
  0
VERTEX
  8
0
  5
25458
 10
1.05176
 20
5.38449
 30
0.000000
  70
    32
  0
VERTEX
  8
0
  5
25459
 10
1.04944
 20
5.38488
 30
0.000000
  70
    32
  0
VERTEX
  8
0
  5
2545A
 10
1.04711
 20
5.38525
 30
0.000000
  70
    32
  0
VERTEX
  8
0
  5
2545B
 10
1.04477
 20
5.38559
 30
0.000000
  70
    32
  0
VERTEX
  8
0
  5
2545C
 10
1.04243
 20
5.38590
 30
0.000000
  70
    32
  0
VERTEX
  8
0
  5
2545D
 10
1.04009
 20
5.38619
 30
0.000000
  70
    32
  0
VERTEX
  8
0
  5
2545E
 10
1.03774
 20
5.38646
 30
0.000000
  70
    32
  0
VERTEX
  8
0
  5
2545F
 10
1.03540
 20
5.38670
 30
0.000000
  70
    32
  0
VERTEX
  8
0
  5
25460
 10
1.03304
 20
5.38692
 30
0.000000
  70
    32
  0
VERTEX
  8
0
  5
25461
 10
1.03069
 20
5.38711
 30
0.000000
  70
    32
  0
VERTEX
  8
0
  5
25462
 10
1.02833
 20
5.38727
 30
0.000000
  70
    32
  0
VERTEX
  8
0
  5
25463
 10
1.02598
 20
5.38741
 30
0.000000
  70
    32
  0
VERTEX
  8
0
  5
25464
 10
1.02362
 20
5.38753
 30
0.000000
  70
    32
  0
VERTEX
  8
0
  5
25465
 10
1.02126
 20
5.38762
 30
0.000000
  70
    32
  0
VERTEX
  8
0
  5
25466
 10
1.01890
 20
5.38768
 30
0.000000
  70
    32
  0
VERTEX
  8
0
  5
25467
 10
1.01653
 20
5.38772
 30
0.000000
  70
    32
  0
VERTEX
  8
0
  5
25468
 10
1.01417
 20
5.38773
 30
0.000000
  70
    32
  0
VERTEX
  8
0
  5
25469
 10
1.01181
 20
5.38772
 30
0.000000
  70
    32
  0
VERTEX
  8
0
  5
2546A
 10
1.00945
 20
5.38768
 30
0.000000
  70
    32
  0
VERTEX
  8
0
  5
2546B
 10
1.00708
 20
5.38761
 30
0.000000
  70
    32
  0
VERTEX
  8
0
  5
2546C
 10
1.00472
 20
5.38752
 30
0.000000
  70
    32
  0
VERTEX
  8
0
  5
2546D
 10
1.00236
 20
5.38741
 30
0.000000
  70
    32
  0
VERTEX
  8
0
  5
2546E
 10
1.00001
 20
5.38727
 30
0.000000
  70
    32
  0
VERTEX
  8
0
  5
2546F
 10
0.997649
 20
5.38710
 30
0.000000
  70
    32
  0
VERTEX
  8
0
  5
25470
 10
0.995295
 20
5.38690
 30
0.000000
  70
    32
  0
VERTEX
  8
0
  5
25471
 10
0.992943
 20
5.38668
 30
0.000000
  70
    32
  0
VERTEX
  8
0
  5
25472
 10
0.990594
 20
5.38644
 30
0.000000
  70
    32
  0
VERTEX
  8
0
  5
25473
 10
0.988249
 20
5.38617
 30
0.000000
  70
    32
  0
VERTEX
  8
0
  5
25474
 10
0.985907
 20
5.38587
 30
0.000000
  70
    32
  0
VERTEX
  8
0
  5
25475
 10
0.983569
 20
5.38554
 30
0.000000
  70
    32
  0
VERTEX
  8
0
  5
25476
 10
0.981235
 20
5.38520
 30
0.000000
  70
    32
  0
VERTEX
  8
0
  5
25477
 10
0.978906
 20
5.38482
 30
0.000000
  70
    32
  0
VERTEX
  8
0
  5
25478
 10
0.976581
 20
5.38442
 30
0.000000
  70
    32
  0
VERTEX
  8
0
  5
25479
 10
0.974263
 20
5.38399
 30
0.000000
  70
    32
  0
VERTEX
  8
0
  5
2547A
 10
0.971949
 20
5.38354
 30
0.000000
  70
    32
  0
VERTEX
  8
0
  5
2547B
 10
0.969642
 20
5.38306
 30
0.000000
  70
    32
  0
VERTEX
  8
0
  5
2547C
 10
0.967341
 20
5.38255
 30
0.000000
  70
    32
  0
VERTEX
  8
0
  5
2547D
 10
0.965047
 20
5.38202
 30
0.000000
  70
    32
  0
VERTEX
  8
0
  5
2547E
 10
0.962760
 20
5.38147
 30
0.000000
  70
    32
  0
VERTEX
  8
0
  5
2547F
 10
0.960480
 20
5.38088
 30
0.000000
  70
    32
  0
VERTEX
  8
0
  5
25480
 10
0.958208
 20
5.38027
 30
0.000000
  70
    32
  0
VERTEX
  8
0
  5
25481
 10
0.955943
 20
5.37964
 30
0.000000
  70
    32
  0
VERTEX
  8
0
  5
25482
 10
0.953688
 20
5.37898
 30
0.000000
  70
    32
  0
VERTEX
  8
0
  5
25483
 10
0.951441
 20
5.37829
 30
0.000000
  70
    32
  0
VERTEX
  8
0
  5
25484
 10
0.949203
 20
5.37758
 30
0.000000
  70
    32
  0
VERTEX
  8
0
  5
25485
 10
0.946974
 20
5.37684
 30
0.000000
  70
    32
  0
VERTEX
  8
0
  5
25486
 10
0.944756
 20
5.37607
 30
0.000000
  70
    32
  0
VERTEX
  8
0
  5
25487
 10
0.942547
 20
5.37528
 30
0.000000
  70
    32
  0
VERTEX
  8
0
  5
25488
 10
0.940349
 20
5.37446
 30
0.000000
  70
    32
  0
VERTEX
  8
0
  5
25489
 10
0.938162
 20
5.37362
 30
0.000000
  70
    32
  0
VERTEX
  8
0
  5
2548A
 10
0.935986
 20
5.37275
 30
0.000000
  70
    32
  0
VERTEX
  8
0
  5
2548B
 10
0.933821
 20
5.37186
 30
0.000000
  70
    32
  0
VERTEX
  8
0
  5
2548C
 10
0.931669
 20
5.37093
 30
0.000000
  70
    32
  0
VERTEX
  8
0
  5
2548D
 10
0.929528
 20
5.36999
 30
0.000000
  70
    32
  0
VERTEX
  8
0
  5
2548E
 10
0.927400
 20
5.36901
 30
0.000000
  70
    32
  0
VERTEX
  8
0
  5
2548F
 10
0.925285
 20
5.36801
 30
0.000000
  70
    32
  0
VERTEX
  8
0
  5
25490
 10
0.923183
 20
5.36699
 30
0.000000
  70
    32
  0
VERTEX
  8
0
  5
25491
 10
0.921095
 20
5.36594
 30
0.000000
  70
    32
  0
VERTEX
  8
0
  5
25492
 10
0.919021
 20
5.36486
 30
0.000000
  70
    32
  0
VERTEX
  8
0
  5
25493
 10
0.916960
 20
5.36375
 30
0.000000
  70
    32
  0
VERTEX
  8
0
  5
25494
 10
0.914915
 20
5.36262
 30
0.000000
  70
    32
  0
VERTEX
  8
0
  5
25495
 10
0.912884
 20
5.36147
 30
0.000000
  70
    32
  0
VERTEX
  8
0
  5
25496
 10
0.910867
 20
5.36028
 30
0.000000
  70
    32
  0
VERTEX
  8
0
  5
25497
 10
0.908865
 20
5.35908
 30
0.000000
  70
    32
  0
VERTEX
  8
0
  5
25498
 10
0.906878
 20
5.35785
 30
0.000000
  70
    32
  0
VERTEX
  8
0
  5
25499
 10
0.904905
 20
5.35659
 30
0.000000
  70
    32
  0
VERTEX
  8
0
  5
2549A
 10
0.902947
 20
5.35532
 30
0.000000
  70
    32
  0
VERTEX
  8
0
  5
2549B
 10
0.901003
 20
5.35402
 30
0.000000
  70
    32
  0
VERTEX
  8
0
  5
2549C
 10
0.899074
 20
5.35269
 30
0.000000
  70
    32
  0
VERTEX
  8
0
  5
2549D
 10
0.897160
 20
5.35135
 30
0.000000
  70
    32
  0
VERTEX
  8
0
  5
2549E
 10
0.895260
 20
5.34998
 30
0.000000
  70
    32
  0
VERTEX
  8
0
  5
2549F
 10
0.893375
 20
5.34859
 30
0.000000
  70
    32
  0
VERTEX
  8
0
  5
254A0
 10
0.891505
 20
5.34718
 30
0.000000
  70
    32
  0
VERTEX
  8
0
  5
254A1
 10
0.889649
 20
5.34575
 30
0.000000
  70
    32
  0
VERTEX
  8
0
  5
254A2
 10
0.887808
 20
5.34430
 30
0.000000
  70
    32
  0
VERTEX
  8
0
  5
254A3
 10
0.885982
 20
5.34283
 30
0.000000
  70
    32
  0
VERTEX
  8
0
  5
254A4
 10
0.884170
 20
5.34134
 30
0.000000
  70
    32
  0
VERTEX
  8
0
  5
254A5
 10
0.882373
 20
5.33983
 30
0.000000
  70
    32
  0
VERTEX
  8
0
  5
254A6
 10
0.880591
 20
5.33831
 30
0.000000
  70
    32
  0
VERTEX
  8
0
  5
254A7
 10
0.878824
 20
5.33676
 30
0.000000
  70
    32
  0
VERTEX
  8
0
  5
254A8
 10
0.877071
 20
5.33520
 30
0.000000
  70
    32
  0
VERTEX
  8
0
  5
254A9
 10
0.875334
 20
5.33362
 30
0.000000
  70
    32
  0
VERTEX
  8
0
  5
254AA
 10
0.873611
 20
5.33203
 30
0.000000
  70
    32
  0
VERTEX
  8
0
  5
254AB
 10
0.871902
 20
5.33042
 30
0.000000
  70
    32
  0
VERTEX
  8
0
  5
254AC
 10
0.870209
 20
5.32879
 30
0.000000
  70
    32
  0
VERTEX
  8
0
  5
254AD
 10
0.868530
 20
5.32715
 30
0.000000
  70
    32
  0
VERTEX
  8
0
  5
254AE
 10
0.866866
 20
5.32549
 30
0.000000
  70
    32
  0
VERTEX
  8
0
  5
254AF
 10
0.865217
 20
5.32382
 30
0.000000
  70
    32
  0
VERTEX
  8
0
  5
254B0
 10
0.863583
 20
5.32213
 30
0.000000
  70
    32
  0
VERTEX
  8
0
  5
254B1
 10
0.861964
 20
5.32043
 30
0.000000
  70
    32
  0
VERTEX
  8
0
  5
254B2
 10
0.860360
 20
5.31872
 30
0.000000
  70
    32
  0
VERTEX
  8
0
  5
254B3
 10
0.858770
 20
5.31699
 30
0.000000
  70
    32
  0
VERTEX
  8
0
  5
254B4
 10
0.857196
 20
5.31525
 30
0.000000
  70
    32
  0
VERTEX
  8
0
  5
254B5
 10
0.855636
 20
5.31350
 30
0.000000
  70
    32
  0
VERTEX
  8
0
  5
254B6
 10
0.854091
 20
5.31174
 30
0.000000
  70
    32
  0
VERTEX
  8
0
  5
254B7
 10
0.852561
 20
5.30997
 30
0.000000
  70
    32
  0
VERTEX
  8
0
  5
254B8
 10
0.851046
 20
5.30819
 30
0.000000
  70
    32
  0
VERTEX
  8
0
  5
254B9
 10
0.849546
 20
5.30639
 30
0.000000
  70
    32
  0
VERTEX
  8
0
  5
254BA
 10
0.848060
 20
5.30459
 30
0.000000
  70
    32
  0
VERTEX
  8
0
  5
254BB
 10
0.846587
 20
5.30277
 30
0.000000
  70
    32
  0
VERTEX
  8
0
  5
254BC
 10
0.845128
 20
5.30095
 30
0.000000
  70
    32
  0
VERTEX
  8
0
  5
254BD
 10
0.843681
 20
5.29912
 30
0.000000
  70
    32
  0
VERTEX
  8
0
  5
254BE
 10
0.842247
 20
5.29728
 30
0.000000
  70
    32
  0
VERTEX
  8
0
  5
254BF
 10
0.840826
 20
5.29543
 30
0.000000
  70
    32
  0
VERTEX
  8
0
  5
254C0
 10
0.839416
 20
5.29357
 30
0.000000
  70
    32
  0
VERTEX
  8
0
  5
254C1
 10
0.838018
 20
5.29170
 30
0.000000
  70
    32
  0
VERTEX
  8
0
  5
254C2
 10
0.836630
 20
5.28983
 30
0.000000
  70
    32
  0
VERTEX
  8
0
  5
254C3
 10
0.835253
 20
5.28795
 30
0.000000
  70
    32
  0
VERTEX
  8
0
  5
254C4
 10
0.833887
 20
5.28606
 30
0.000000
  70
    32
  0
VERTEX
  8
0
  5
254C5
 10
0.832530
 20
5.28416
 30
0.000000
  70
    32
  0
VERTEX
  8
0
  5
254C6
 10
0.831182
 20
5.28226
 30
0.000000
  70
    32
  0
VERTEX
  8
0
  5
254C7
 10
0.829844
 20
5.28035
 30
0.000000
  70
    32
  0
VERTEX
  8
0
  5
254C8
 10
0.828515
 20
5.27843
 30
0.000000
  70
    32
  0
VERTEX
  8
0
  5
254C9
 10
0.827193
 20
5.27651
 30
0.000000
  70
    32
  0
VERTEX
  8
0
  5
254CA
 10
0.825880
 20
5.27459
 30
0.000000
  70
    32
  0
VERTEX
  8
0
  5
254CB
 10
0.824574
 20
5.27265
 30
0.000000
  70
    32
  0
VERTEX
  8
0
  5
254CC
 10
0.823275
 20
5.27072
 30
0.000000
  70
    32
  0
VERTEX
  8
0
  5
254CD
 10
0.821983
 20
5.26878
 30
0.000000
  70
    32
  0
VERTEX
  8
0
  5
254CE
 10
0.820697
 20
5.26683
 30
0.000000
  70
    32
  0
VERTEX
  8
0
  5
254CF
 10
0.819417
 20
5.26488
 30
0.000000
  70
    32
  0
VERTEX
  8
0
  5
254D0
 10
0.818143
 20
5.26293
 30
0.000000
  70
    32
  0
VERTEX
  8
0
  5
254D1
 10
0.816874
 20
5.26097
 30
0.000000
  70
    32
  0
VERTEX
  8
0
  5
254D2
 10
0.815610
 20
5.25901
 30
0.000000
  70
    32
  0
VERTEX
  8
0
  5
254D3
 10
0.814350
 20
5.25705
 30
0.000000
  70
    32
  0
VERTEX
  8
0
  5
254D4
 10
0.813094
 20
5.25508
 30
0.000000
  70
    32
  0
VERTEX
  8
0
  5
254D5
 10
0.811841
 20
5.25311
 30
0.000000
  70
    32
  0
VERTEX
  8
0
  5
254D6
 10
0.810592
 20
5.25114
 30
0.000000
  70
    32
  0
VERTEX
  8
0
  5
254D7
 10
0.809346
 20
5.24917
 30
0.000000
  70
    32
  0
VERTEX
  8
0
  5
254D8
 10
0.808102
 20
5.24720
 30
0.000000
  70
    32
  0
VERTEX
  8
0
  5
254D9
 10
0.806861
 20
5.24522
 30
0.000000
  70
    32
  0
VERTEX
  8
0
  5
254DA
 10
0.805620
 20
5.24325
 30
0.000000
  70
    32
  0
VERTEX
  8
0
  5
254DB
 10
0.804382
 20
5.24127
 30
0.000000
  70
    32
  0
VERTEX
  8
0
  5
254DC
 10
0.803144
 20
5.23930
 30
0.000000
  70
    32
  0
VERTEX
  8
0
  5
254DD
 10
0.801906
 20
5.23732
 30
0.000000
  70
    32
  0
VERTEX
  8
0
  5
254DE
 10
0.800669
 20
5.23535
 30
0.000000
  70
    32
  0
VERTEX
  8
0
  5
254DF
 10
0.799431
 20
5.23337
 30
0.000000
  70
    32
  0
VERTEX
  8
0
  5
254E0
 10
0.798193
 20
5.23140
 30
0.000000
  70
    32
  0
SEQEND
  8
0
  5
254E1
  0
ARC
  5
1E529
  8
0
  6
CONTINUOUS
 10
1.898548762785651
 20
5.1591324902699114
 30
0.0
 40
0.2125557559448135
 50
28.962865632958739
 51
96.360504763752061
  0
CIRCLE
  5
1E52A
  8
0
  6
CONTINUOUS
 10
1.8750010114733291
 20
1.8750004431210241
 30
0.0
 40
0.2095199531320588
  0
CIRCLE
  5
1E52B
  8
0
  6
CONTINUOUS
 10
1.8750010114733291
 20
1.8750004431210241
 30
0.0
 40
0.2976673781872137
  0
POLYLINE
  8
0
  5
254E2
  66
     1
 10
0.000000
 20
0.000000
 30
0.000000
  70
     8
  0
VERTEX
  8
0
  5
254E3
 10
2.17267
 20
5.26206
 30
0.000000
  70
    32
  0
VERTEX
  8
0
  5
254E4
 10
2.17391
 20
5.26009
 30
0.000000
  70
    32
  0
VERTEX
  8
0
  5
254E5
 10
2.17516
 20
5.25813
 30
0.000000
  70
    32
  0
VERTEX
  8
0
  5
254E6
 10
2.17644
 20
5.25618
 30
0.000000
  70
    32
  0
VERTEX
  8
0
  5
254E7
 10
2.17774
 20
5.25425
 30
0.000000
  70
    32
  0
VERTEX
  8
0
  5
254E8
 10
2.17906
 20
5.25233
 30
0.000000
  70
    32
  0
VERTEX
  8
0
  5
254E9
 10
2.18039
 20
5.25043
 30
0.000000
  70
    32
  0
VERTEX
  8
0
  5
254EA
 10
2.18174
 20
5.24854
 30
0.000000
  70
    32
  0
VERTEX
  8
0
  5
254EB
 10
2.18312
 20
5.24666
 30
0.000000
  70
    32
  0
VERTEX
  8
0
  5
254EC
 10
2.18451
 20
5.24479
 30
0.000000
  70
    32
  0
VERTEX
  8
0
  5
254ED
 10
2.18591
 20
5.24294
 30
0.000000
  70
    32
  0
VERTEX
  8
0
  5
254EE
 10
2.18734
 20
5.24110
 30
0.000000
  70
    32
  0
VERTEX
  8
0
  5
254EF
 10
2.18878
 20
5.23927
 30
0.000000
  70
    32
  0
VERTEX
  8
0
  5
254F0
 10
2.19024
 20
5.23745
 30
0.000000
  70
    32
  0
VERTEX
  8
0
  5
254F1
 10
2.19171
 20
5.23565
 30
0.000000
  70
    32
  0
VERTEX
  8
0
  5
254F2
 10
2.19320
 20
5.23386
 30
0.000000
  70
    32
  0
VERTEX
  8
0
  5
254F3
 10
2.19471
 20
5.23208
 30
0.000000
  70
    32
  0
VERTEX
  8
0
  5
254F4
 10
2.19623
 20
5.23031
 30
0.000000
  70
    32
  0
VERTEX
  8
0
  5
254F5
 10
2.19777
 20
5.22855
 30
0.000000
  70
    32
  0
VERTEX
  8
0
  5
254F6
 10
2.19932
 20
5.22680
 30
0.000000
  70
    32
  0
VERTEX
  8
0
  5
254F7
 10
2.20089
 20
5.22506
 30
0.000000
  70
    32
  0
VERTEX
  8
0
  5
254F8
 10
2.20247
 20
5.22333
 30
0.000000
  70
    32
  0
VERTEX
  8
0
  5
254F9
 10
2.20407
 20
5.22162
 30
0.000000
  70
    32
  0
VERTEX
  8
0
  5
254FA
 10
2.20568
 20
5.21991
 30
0.000000
  70
    32
  0
VERTEX
  8
0
  5
254FB
 10
2.20730
 20
5.21822
 30
0.000000
  70
    32
  0
VERTEX
  8
0
  5
254FC
 10
2.20894
 20
5.21653
 30
0.000000
  70
    32
  0
VERTEX
  8
0
  5
254FD
 10
2.21059
 20
5.21485
 30
0.000000
  70
    32
  0
VERTEX
  8
0
  5
254FE
 10
2.21225
 20
5.21319
 30
0.000000
  70
    32
  0
VERTEX
  8
0
  5
254FF
 10
2.21393
 20
5.21153
 30
0.000000
  70
    32
  0
VERTEX
  8
0
  5
25500
 10
2.21562
 20
5.20988
 30
0.000000
  70
    32
  0
VERTEX
  8
0
  5
25501
 10
2.21732
 20
5.20824
 30
0.000000
  70
    32
  0
VERTEX
  8
0
  5
25502
 10
2.21903
 20
5.20661
 30
0.000000
  70
    32
  0
VERTEX
  8
0
  5
25503
 10
2.22075
 20
5.20499
 30
0.000000
  70
    32
  0
VERTEX
  8
0
  5
25504
 10
2.22249
 20
5.20338
 30
0.000000
  70
    32
  0
VERTEX
  8
0
  5
25505
 10
2.22424
 20
5.20178
 30
0.000000
  70
    32
  0
VERTEX
  8
0
  5
25506
 10
2.22600
 20
5.20020
 30
0.000000
  70
    32
  0
VERTEX
  8
0
  5
25507
 10
2.22777
 20
5.19862
 30
0.000000
  70
    32
  0
VERTEX
  8
0
  5
25508
 10
2.22956
 20
5.19706
 30
0.000000
  70
    32
  0
VERTEX
  8
0
  5
25509
 10
2.23135
 20
5.19552
 30
0.000000
  70
    32
  0
VERTEX
  8
0
  5
2550A
 10
2.23316
 20
5.19399
 30
0.000000
  70
    32
  0
VERTEX
  8
0
  5
2550B
 10
2.23498
 20
5.19248
 30
0.000000
  70
    32
  0
VERTEX
  8
0
  5
2550C
 10
2.23682
 20
5.19098
 30
0.000000
  70
    32
  0
VERTEX
  8
0
  5
2550D
 10
2.23866
 20
5.18950
 30
0.000000
  70
    32
  0
VERTEX
  8
0
  5
2550E
 10
2.24052
 20
5.18804
 30
0.000000
  70
    32
  0
VERTEX
  8
0
  5
2550F
 10
2.24239
 20
5.18659
 30
0.000000
  70
    32
  0
VERTEX
  8
0
  5
25510
 10
2.24428
 20
5.18517
 30
0.000000
  70
    32
  0
VERTEX
  8
0
  5
25511
 10
2.24617
 20
5.18376
 30
0.000000
  70
    32
  0
VERTEX
  8
0
  5
25512
 10
2.24808
 20
5.18238
 30
0.000000
  70
    32
  0
VERTEX
  8
0
  5
25513
 10
2.25000
 20
5.18102
 30
0.000000
  70
    32
  0
VERTEX
  8
0
  5
25514
 10
2.25194
 20
5.17968
 30
0.000000
  70
    32
  0
VERTEX
  8
0
  5
25515
 10
2.25388
 20
5.17836
 30
0.000000
  70
    32
  0
VERTEX
  8
0
  5
25516
 10
2.25584
 20
5.17706
 30
0.000000
  70
    32
  0
VERTEX
  8
0
  5
25517
 10
2.25781
 20
5.17579
 30
0.000000
  70
    32
  0
VERTEX
  8
0
  5
25518
 10
2.25980
 20
5.17454
 30
0.000000
  70
    32
  0
VERTEX
  8
0
  5
25519
 10
2.26180
 20
5.17332
 30
0.000000
  70
    32
  0
VERTEX
  8
0
  5
2551A
 10
2.26381
 20
5.17213
 30
0.000000
  70
    32
  0
VERTEX
  8
0
  5
2551B
 10
2.26583
 20
5.17096
 30
0.000000
  70
    32
  0
VERTEX
  8
0
  5
2551C
 10
2.26786
 20
5.16982
 30
0.000000
  70
    32
  0
VERTEX
  8
0
  5
2551D
 10
2.26991
 20
5.16871
 30
0.000000
  70
    32
  0
VERTEX
  8
0
  5
2551E
 10
2.27197
 20
5.16762
 30
0.000000
  70
    32
  0
VERTEX
  8
0
  5
2551F
 10
2.27405
 20
5.16657
 30
0.000000
  70
    32
  0
VERTEX
  8
0
  5
25520
 10
2.27614
 20
5.16554
 30
0.000000
  70
    32
  0
VERTEX
  8
0
  5
25521
 10
2.27824
 20
5.16455
 30
0.000000
  70
    32
  0
VERTEX
  8
0
  5
25522
 10
2.28035
 20
5.16359
 30
0.000000
  70
    32
  0
VERTEX
  8
0
  5
25523
 10
2.28248
 20
5.16266
 30
0.000000
  70
    32
  0
VERTEX
  8
0
  5
25524
 10
2.28462
 20
5.16176
 30
0.000000
  70
    32
  0
VERTEX
  8
0
  5
25525
 10
2.28677
 20
5.16090
 30
0.000000
  70
    32
  0
VERTEX
  8
0
  5
25526
 10
2.28893
 20
5.16007
 30
0.000000
  70
    32
  0
VERTEX
  8
0
  5
25527
 10
2.29111
 20
5.15927
 30
0.000000
  70
    32
  0
VERTEX
  8
0
  5
25528
 10
2.29331
 20
5.15851
 30
0.000000
  70
    32
  0
VERTEX
  8
0
  5
25529
 10
2.29551
 20
5.15779
 30
0.000000
  70
    32
  0
VERTEX
  8
0
  5
2552A
 10
2.29773
 20
5.15710
 30
0.000000
  70
    32
  0
VERTEX
  8
0
  5
2552B
 10
2.29996
 20
5.15645
 30
0.000000
  70
    32
  0
VERTEX
  8
0
  5
2552C
 10
2.30220
 20
5.15583
 30
0.000000
  70
    32
  0
VERTEX
  8
0
  5
2552D
 10
2.30445
 20
5.15525
 30
0.000000
  70
    32
  0
VERTEX
  8
0
  5
2552E
 10
2.30671
 20
5.15470
 30
0.000000
  70
    32
  0
VERTEX
  8
0
  5
2552F
 10
2.30898
 20
5.15418
 30
0.000000
  70
    32
  0
VERTEX
  8
0
  5
25530
 10
2.31126
 20
5.15370
 30
0.000000
  70
    32
  0
VERTEX
  8
0
  5
25531
 10
2.31356
 20
5.15325
 30
0.000000
  70
    32
  0
VERTEX
  8
0
  5
25532
 10
2.31585
 20
5.15284
 30
0.000000
  70
    32
  0
VERTEX
  8
0
  5
25533
 10
2.31816
 20
5.15245
 30
0.000000
  70
    32
  0
VERTEX
  8
0
  5
25534
 10
2.32048
 20
5.15211
 30
0.000000
  70
    32
  0
VERTEX
  8
0
  5
25535
 10
2.32280
 20
5.15179
 30
0.000000
  70
    32
  0
VERTEX
  8
0
  5
25536
 10
2.32513
 20
5.15150
 30
0.000000
  70
    32
  0
VERTEX
  8
0
  5
25537
 10
2.32746
 20
5.15125
 30
0.000000
  70
    32
  0
VERTEX
  8
0
  5
25538
 10
2.32980
 20
5.15103
 30
0.000000
  70
    32
  0
VERTEX
  8
0
  5
25539
 10
2.33215
 20
5.15084
 30
0.000000
  70
    32
  0
VERTEX
  8
0
  5
2553A
 10
2.33450
 20
5.15068
 30
0.000000
  70
    32
  0
VERTEX
  8
0
  5
2553B
 10
2.33686
 20
5.15056
 30
0.000000
  70
    32
  0
VERTEX
  8
0
  5
2553C
 10
2.33922
 20
5.15046
 30
0.000000
  70
    32
  0
VERTEX
  8
0
  5
2553D
 10
2.34158
 20
5.15040
 30
0.000000
  70
    32
  0
VERTEX
  8
0
  5
2553E
 10
2.34395
 20
5.15036
 30
0.000000
  70
    32
  0
VERTEX
  8
0
  5
2553F
 10
2.34632
 20
5.15036
 30
0.000000
  70
    32
  0
VERTEX
  8
0
  5
25540
 10
2.34869
 20
5.15038
 30
0.000000
  70
    32
  0
VERTEX
  8
0
  5
25541
 10
2.35106
 20
5.15044
 30
0.000000
  70
    32
  0
VERTEX
  8
0
  5
25542
 10
2.35343
 20
5.15052
 30
0.000000
  70
    32
  0
VERTEX
  8
0
  5
25543
 10
2.35581
 20
5.15064
 30
0.000000
  70
    32
  0
VERTEX
  8
0
  5
25544
 10
2.35818
 20
5.15078
 30
0.000000
  70
    32
  0
VERTEX
  8
0
  5
25545
 10
2.36056
 20
5.15095
 30
0.000000
  70
    32
  0
VERTEX
  8
0
  5
25546
 10
2.36293
 20
5.15115
 30
0.000000
  70
    32
  0
VERTEX
  8
0
  5
25547
 10
2.36530
 20
5.15138
 30
0.000000
  70
    32
  0
VERTEX
  8
0
  5
25548
 10
2.36767
 20
5.15164
 30
0.000000
  70
    32
  0
VERTEX
  8
0
  5
25549
 10
2.37004
 20
5.15192
 30
0.000000
  70
    32
  0
VERTEX
  8
0
  5
2554A
 10
2.37241
 20
5.15224
 30
0.000000
  70
    32
  0
VERTEX
  8
0
  5
2554B
 10
2.37477
 20
5.15258
 30
0.000000
  70
    32
  0
VERTEX
  8
0
  5
2554C
 10
2.37713
 20
5.15294
 30
0.000000
  70
    32
  0
VERTEX
  8
0
  5
2554D
 10
2.37949
 20
5.15334
 30
0.000000
  70
    32
  0
VERTEX
  8
0
  5
2554E
 10
2.38184
 20
5.15376
 30
0.000000
  70
    32
  0
VERTEX
  8
0
  5
2554F
 10
2.38419
 20
5.15420
 30
0.000000
  70
    32
  0
VERTEX
  8
0
  5
25550
 10
2.38653
 20
5.15467
 30
0.000000
  70
    32
  0
VERTEX
  8
0
  5
25551
 10
2.38887
 20
5.15517
 30
0.000000
  70
    32
  0
VERTEX
  8
0
  5
25552
 10
2.39120
 20
5.15570
 30
0.000000
  70
    32
  0
VERTEX
  8
0
  5
25553
 10
2.39352
 20
5.15625
 30
0.000000
  70
    32
  0
VERTEX
  8
0
  5
25554
 10
2.39584
 20
5.15682
 30
0.000000
  70
    32
  0
VERTEX
  8
0
  5
25555
 10
2.39815
 20
5.15743
 30
0.000000
  70
    32
  0
VERTEX
  8
0
  5
25556
 10
2.40045
 20
5.15806
 30
0.000000
  70
    32
  0
VERTEX
  8
0
  5
25557
 10
2.40274
 20
5.15871
 30
0.000000
  70
    32
  0
VERTEX
  8
0
  5
25558
 10
2.40503
 20
5.15939
 30
0.000000
  70
    32
  0
VERTEX
  8
0
  5
25559
 10
2.40730
 20
5.16009
 30
0.000000
  70
    32
  0
VERTEX
  8
0
  5
2555A
 10
2.40957
 20
5.16082
 30
0.000000
  70
    32
  0
VERTEX
  8
0
  5
2555B
 10
2.41183
 20
5.16158
 30
0.000000
  70
    32
  0
VERTEX
  8
0
  5
2555C
 10
2.41408
 20
5.16236
 30
0.000000
  70
    32
  0
VERTEX
  8
0
  5
2555D
 10
2.41632
 20
5.16316
 30
0.000000
  70
    32
  0
VERTEX
  8
0
  5
2555E
 10
2.41854
 20
5.16399
 30
0.000000
  70
    32
  0
VERTEX
  8
0
  5
2555F
 10
2.42076
 20
5.16485
 30
0.000000
  70
    32
  0
VERTEX
  8
0
  5
25560
 10
2.42297
 20
5.16573
 30
0.000000
  70
    32
  0
VERTEX
  8
0
  5
25561
 10
2.42516
 20
5.16663
 30
0.000000
  70
    32
  0
VERTEX
  8
0
  5
25562
 10
2.42734
 20
5.16756
 30
0.000000
  70
    32
  0
VERTEX
  8
0
  5
25563
 10
2.42951
 20
5.16851
 30
0.000000
  70
    32
  0
VERTEX
  8
0
  5
25564
 10
2.43166
 20
5.16949
 30
0.000000
  70
    32
  0
VERTEX
  8
0
  5
25565
 10
2.43381
 20
5.17049
 30
0.000000
  70
    32
  0
VERTEX
  8
0
  5
25566
 10
2.43593
 20
5.17151
 30
0.000000
  70
    32
  0
VERTEX
  8
0
  5
25567
 10
2.43805
 20
5.17256
 30
0.000000
  70
    32
  0
VERTEX
  8
0
  5
25568
 10
2.44015
 20
5.17364
 30
0.000000
  70
    32
  0
VERTEX
  8
0
  5
25569
 10
2.44223
 20
5.17473
 30
0.000000
  70
    32
  0
VERTEX
  8
0
  5
2556A
 10
2.44430
 20
5.17586
 30
0.000000
  70
    32
  0
VERTEX
  8
0
  5
2556B
 10
2.44635
 20
5.17700
 30
0.000000
  70
    32
  0
VERTEX
  8
0
  5
2556C
 10
2.44839
 20
5.17817
 30
0.000000
  70
    32
  0
VERTEX
  8
0
  5
2556D
 10
2.45041
 20
5.17936
 30
0.000000
  70
    32
  0
VERTEX
  8
0
  5
2556E
 10
2.45242
 20
5.18057
 30
0.000000
  70
    32
  0
VERTEX
  8
0
  5
2556F
 10
2.45440
 20
5.18181
 30
0.000000
  70
    32
  0
VERTEX
  8
0
  5
25570
 10
2.45637
 20
5.18307
 30
0.000000
  70
    32
  0
VERTEX
  8
0
  5
25571
 10
2.45832
 20
5.18436
 30
0.000000
  70
    32
  0
VERTEX
  8
0
  5
25572
 10
2.46025
 20
5.18567
 30
0.000000
  70
    32
  0
VERTEX
  8
0
  5
25573
 10
2.46217
 20
5.18700
 30
0.000000
  70
    32
  0
VERTEX
  8
0
  5
25574
 10
2.46406
 20
5.18835
 30
0.000000
  70
    32
  0
VERTEX
  8
0
  5
25575
 10
2.46594
 20
5.18973
 30
0.000000
  70
    32
  0
VERTEX
  8
0
  5
25576
 10
2.46779
 20
5.19112
 30
0.000000
  70
    32
  0
VERTEX
  8
0
  5
25577
 10
2.46963
 20
5.19255
 30
0.000000
  70
    32
  0
VERTEX
  8
0
  5
25578
 10
2.47144
 20
5.19399
 30
0.000000
  70
    32
  0
VERTEX
  8
0
  5
25579
 10
2.47323
 20
5.19545
 30
0.000000
  70
    32
  0
VERTEX
  8
0
  5
2557A
 10
2.47501
 20
5.19694
 30
0.000000
  70
    32
  0
VERTEX
  8
0
  5
2557B
 10
2.47675
 20
5.19845
 30
0.000000
  70
    32
  0
VERTEX
  8
0
  5
2557C
 10
2.47848
 20
5.19998
 30
0.000000
  70
    32
  0
VERTEX
  8
0
  5
2557D
 10
2.48019
 20
5.20154
 30
0.000000
  70
    32
  0
VERTEX
  8
0
  5
2557E
 10
2.48187
 20
5.20311
 30
0.000000
  70
    32
  0
VERTEX
  8
0
  5
2557F
 10
2.48353
 20
5.20471
 30
0.000000
  70
    32
  0
VERTEX
  8
0
  5
25580
 10
2.48518
 20
5.20632
 30
0.000000
  70
    32
  0
VERTEX
  8
0
  5
25581
 10
2.48680
 20
5.20796
 30
0.000000
  70
    32
  0
VERTEX
  8
0
  5
25582
 10
2.48841
 20
5.20961
 30
0.000000
  70
    32
  0
VERTEX
  8
0
  5
25583
 10
2.48999
 20
5.21128
 30
0.000000
  70
    32
  0
VERTEX
  8
0
  5
25584
 10
2.49156
 20
5.21297
 30
0.000000
  70
    32
  0
VERTEX
  8
0
  5
25585
 10
2.49311
 20
5.21467
 30
0.000000
  70
    32
  0
VERTEX
  8
0
  5
25586
 10
2.49465
 20
5.21639
 30
0.000000
  70
    32
  0
VERTEX
  8
0
  5
25587
 10
2.49617
 20
5.21813
 30
0.000000
  70
    32
  0
VERTEX
  8
0
  5
25588
 10
2.49768
 20
5.21988
 30
0.000000
  70
    32
  0
VERTEX
  8
0
  5
25589
 10
2.49917
 20
5.22164
 30
0.000000
  70
    32
  0
VERTEX
  8
0
  5
2558A
 10
2.50066
 20
5.22342
 30
0.000000
  70
    32
  0
VERTEX
  8
0
  5
2558B
 10
2.50212
 20
5.22521
 30
0.000000
  70
    32
  0
VERTEX
  8
0
  5
2558C
 10
2.50358
 20
5.22702
 30
0.000000
  70
    32
  0
VERTEX
  8
0
  5
2558D
 10
2.50502
 20
5.22883
 30
0.000000
  70
    32
  0
VERTEX
  8
0
  5
2558E
 10
2.50646
 20
5.23066
 30
0.000000
  70
    32
  0
VERTEX
  8
0
  5
2558F
 10
2.50788
 20
5.23249
 30
0.000000
  70
    32
  0
VERTEX
  8
0
  5
25590
 10
2.50930
 20
5.23434
 30
0.000000
  70
    32
  0
VERTEX
  8
0
  5
25591
 10
2.51070
 20
5.23620
 30
0.000000
  70
    32
  0
VERTEX
  8
0
  5
25592
 10
2.51210
 20
5.23806
 30
0.000000
  70
    32
  0
VERTEX
  8
0
  5
25593
 10
2.51350
 20
5.23993
 30
0.000000
  70
    32
  0
VERTEX
  8
0
  5
25594
 10
2.51488
 20
5.24181
 30
0.000000
  70
    32
  0
VERTEX
  8
0
  5
25595
 10
2.51626
 20
5.24370
 30
0.000000
  70
    32
  0
VERTEX
  8
0
  5
25596
 10
2.51764
 20
5.24559
 30
0.000000
  70
    32
  0
VERTEX
  8
0
  5
25597
 10
2.51901
 20
5.24749
 30
0.000000
  70
    32
  0
VERTEX
  8
0
  5
25598
 10
2.52037
 20
5.24940
 30
0.000000
  70
    32
  0
VERTEX
  8
0
  5
25599
 10
2.52174
 20
5.25130
 30
0.000000
  70
    32
  0
VERTEX
  8
0
  5
2559A
 10
2.52310
 20
5.25322
 30
0.000000
  70
    32
  0
VERTEX
  8
0
  5
2559B
 10
2.52446
 20
5.25513
 30
0.000000
  70
    32
  0
VERTEX
  8
0
  5
2559C
 10
2.52582
 20
5.25705
 30
0.000000
  70
    32
  0
VERTEX
  8
0
  5
2559D
 10
2.52718
 20
5.25896
 30
0.000000
  70
    32
  0
VERTEX
  8
0
  5
2559E
 10
2.52854
 20
5.26088
 30
0.000000
  70
    32
  0
VERTEX
  8
0
  5
2559F
 10
2.52990
 20
5.26281
 30
0.000000
  70
    32
  0
VERTEX
  8
0
  5
255A0
 10
2.53126
 20
5.26473
 30
0.000000
  70
    32
  0
VERTEX
  8
0
  5
255A1
 10
2.53263
 20
5.26665
 30
0.000000
  70
    32
  0
VERTEX
  8
0
  5
255A2
 10
2.53399
 20
5.26856
 30
0.000000
  70
    32
  0
VERTEX
  8
0
  5
255A3
 10
2.53537
 20
5.27048
 30
0.000000
  70
    32
  0
VERTEX
  8
0
  5
255A4
 10
2.53674
 20
5.27239
 30
0.000000
  70
    32
  0
VERTEX
  8
0
  5
255A5
 10
2.53812
 20
5.27431
 30
0.000000
  70
    32
  0
VERTEX
  8
0
  5
255A6
 10
2.53951
 20
5.27621
 30
0.000000
  70
    32
  0
VERTEX
  8
0
  5
255A7
 10
2.54090
 20
5.27812
 30
0.000000
  70
    32
  0
VERTEX
  8
0
  5
255A8
 10
2.54231
 20
5.28001
 30
0.000000
  70
    32
  0
VERTEX
  8
0
  5
255A9
 10
2.54371
 20
5.28190
 30
0.000000
  70
    32
  0
VERTEX
  8
0
  5
255AA
 10
2.54513
 20
5.28379
 30
0.000000
  70
    32
  0
VERTEX
  8
0
  5
255AB
 10
2.54656
 20
5.28567
 30
0.000000
  70
    32
  0
VERTEX
  8
0
  5
255AC
 10
2.54800
 20
5.28754
 30
0.000000
  70
    32
  0
VERTEX
  8
0
  5
255AD
 10
2.54944
 20
5.28940
 30
0.000000
  70
    32
  0
VERTEX
  8
0
  5
255AE
 10
2.55090
 20
5.29126
 30
0.000000
  70
    32
  0
VERTEX
  8
0
  5
255AF
 10
2.55237
 20
5.29311
 30
0.000000
  70
    32
  0
VERTEX
  8
0
  5
255B0
 10
2.55386
 20
5.29494
 30
0.000000
  70
    32
  0
VERTEX
  8
0
  5
255B1
 10
2.55536
 20
5.29677
 30
0.000000
  70
    32
  0
VERTEX
  8
0
  5
255B2
 10
2.55686
 20
5.29858
 30
0.000000
  70
    32
  0
VERTEX
  8
0
  5
255B3
 10
2.55839
 20
5.30038
 30
0.000000
  70
    32
  0
VERTEX
  8
0
  5
255B4
 10
2.55992
 20
5.30218
 30
0.000000
  70
    32
  0
VERTEX
  8
0
  5
255B5
 10
2.56147
 20
5.30396
 30
0.000000
  70
    32
  0
VERTEX
  8
0
  5
255B6
 10
2.56303
 20
5.30573
 30
0.000000
  70
    32
  0
VERTEX
  8
0
  5
255B7
 10
2.56461
 20
5.30748
 30
0.000000
  70
    32
  0
VERTEX
  8
0
  5
255B8
 10
2.56619
 20
5.30923
 30
0.000000
  70
    32
  0
VERTEX
  8
0
  5
255B9
 10
2.56779
 20
5.31096
 30
0.000000
  70
    32
  0
VERTEX
  8
0
  5
255BA
 10
2.56941
 20
5.31268
 30
0.000000
  70
    32
  0
VERTEX
  8
0
  5
255BB
 10
2.57103
 20
5.31439
 30
0.000000
  70
    32
  0
VERTEX
  8
0
  5
255BC
 10
2.57267
 20
5.31608
 30
0.000000
  70
    32
  0
VERTEX
  8
0
  5
255BD
 10
2.57432
 20
5.31776
 30
0.000000
  70
    32
  0
VERTEX
  8
0
  5
255BE
 10
2.57599
 20
5.31943
 30
0.000000
  70
    32
  0
VERTEX
  8
0
  5
255BF
 10
2.57767
 20
5.32108
 30
0.000000
  70
    32
  0
VERTEX
  8
0
  5
255C0
 10
2.57936
 20
5.32272
 30
0.000000
  70
    32
  0
VERTEX
  8
0
  5
255C1
 10
2.58106
 20
5.32434
 30
0.000000
  70
    32
  0
VERTEX
  8
0
  5
255C2
 10
2.58278
 20
5.32595
 30
0.000000
  70
    32
  0
VERTEX
  8
0
  5
255C3
 10
2.58451
 20
5.32754
 30
0.000000
  70
    32
  0
VERTEX
  8
0
  5
255C4
 10
2.58625
 20
5.32912
 30
0.000000
  70
    32
  0
VERTEX
  8
0
  5
255C5
 10
2.58800
 20
5.33068
 30
0.000000
  70
    32
  0
VERTEX
  8
0
  5
255C6
 10
2.58977
 20
5.33222
 30
0.000000
  70
    32
  0
VERTEX
  8
0
  5
255C7
 10
2.59155
 20
5.33375
 30
0.000000
  70
    32
  0
VERTEX
  8
0
  5
255C8
 10
2.59334
 20
5.33527
 30
0.000000
  70
    32
  0
VERTEX
  8
0
  5
255C9
 10
2.59515
 20
5.33676
 30
0.000000
  70
    32
  0
VERTEX
  8
0
  5
255CA
 10
2.59697
 20
5.33824
 30
0.000000
  70
    32
  0
VERTEX
  8
0
  5
255CB
 10
2.59880
 20
5.33970
 30
0.000000
  70
    32
  0
VERTEX
  8
0
  5
255CC
 10
2.60065
 20
5.34114
 30
0.000000
  70
    32
  0
VERTEX
  8
0
  5
255CD
 10
2.60250
 20
5.34257
 30
0.000000
  70
    32
  0
VERTEX
  8
0
  5
255CE
 10
2.60437
 20
5.34398
 30
0.000000
  70
    32
  0
VERTEX
  8
0
  5
255CF
 10
2.60626
 20
5.34536
 30
0.000000
  70
    32
  0
VERTEX
  8
0
  5
255D0
 10
2.60815
 20
5.34673
 30
0.000000
  70
    32
  0
VERTEX
  8
0
  5
255D1
 10
2.61006
 20
5.34809
 30
0.000000
  70
    32
  0
VERTEX
  8
0
  5
255D2
 10
2.61198
 20
5.34942
 30
0.000000
  70
    32
  0
VERTEX
  8
0
  5
255D3
 10
2.61392
 20
5.35073
 30
0.000000
  70
    32
  0
VERTEX
  8
0
  5
255D4
 10
2.61586
 20
5.35202
 30
0.000000
  70
    32
  0
VERTEX
  8
0
  5
255D5
 10
2.61782
 20
5.35329
 30
0.000000
  70
    32
  0
VERTEX
  8
0
  5
255D6
 10
2.61980
 20
5.35454
 30
0.000000
  70
    32
  0
VERTEX
  8
0
  5
255D7
 10
2.62178
 20
5.35578
 30
0.000000
  70
    32
  0
VERTEX
  8
0
  5
255D8
 10
2.62378
 20
5.35699
 30
0.000000
  70
    32
  0
VERTEX
  8
0
  5
255D9
 10
2.62579
 20
5.35817
 30
0.000000
  70
    32
  0
VERTEX
  8
0
  5
255DA
 10
2.62781
 20
5.35934
 30
0.000000
  70
    32
  0
VERTEX
  8
0
  5
255DB
 10
2.62985
 20
5.36049
 30
0.000000
  70
    32
  0
VERTEX
  8
0
  5
255DC
 10
2.63190
 20
5.36161
 30
0.000000
  70
    32
  0
VERTEX
  8
0
  5
255DD
 10
2.63396
 20
5.36271
 30
0.000000
  70
    32
  0
VERTEX
  8
0
  5
255DE
 10
2.63604
 20
5.36379
 30
0.000000
  70
    32
  0
VERTEX
  8
0
  5
255DF
 10
2.63812
 20
5.36485
 30
0.000000
  70
    32
  0
VERTEX
  8
0
  5
255E0
 10
2.64022
 20
5.36588
 30
0.000000
  70
    32
  0
VERTEX
  8
0
  5
255E1
 10
2.64234
 20
5.36689
 30
0.000000
  70
    32
  0
VERTEX
  8
0
  5
255E2
 10
2.64446
 20
5.36788
 30
0.000000
  70
    32
  0
VERTEX
  8
0
  5
255E3
 10
2.64659
 20
5.36884
 30
0.000000
  70
    32
  0
VERTEX
  8
0
  5
255E4
 10
2.64874
 20
5.36978
 30
0.000000
  70
    32
  0
VERTEX
  8
0
  5
255E5
 10
2.65090
 20
5.37070
 30
0.000000
  70
    32
  0
VERTEX
  8
0
  5
255E6
 10
2.65307
 20
5.37159
 30
0.000000
  70
    32
  0
VERTEX
  8
0
  5
255E7
 10
2.65525
 20
5.37246
 30
0.000000
  70
    32
  0
VERTEX
  8
0
  5
255E8
 10
2.65743
 20
5.37331
 30
0.000000
  70
    32
  0
VERTEX
  8
0
  5
255E9
 10
2.65963
 20
5.37414
 30
0.000000
  70
    32
  0
VERTEX
  8
0
  5
255EA
 10
2.66184
 20
5.37494
 30
0.000000
  70
    32
  0
VERTEX
  8
0
  5
255EB
 10
2.66406
 20
5.37571
 30
0.000000
  70
    32
  0
VERTEX
  8
0
  5
255EC
 10
2.66628
 20
5.37647
 30
0.000000
  70
    32
  0
VERTEX
  8
0
  5
255ED
 10
2.66852
 20
5.37720
 30
0.000000
  70
    32
  0
VERTEX
  8
0
  5
255EE
 10
2.67076
 20
5.37790
 30
0.000000
  70
    32
  0
VERTEX
  8
0
  5
255EF
 10
2.67302
 20
5.37858
 30
0.000000
  70
    32
  0
VERTEX
  8
0
  5
255F0
 10
2.67527
 20
5.37924
 30
0.000000
  70
    32
  0
VERTEX
  8
0
  5
255F1
 10
2.67754
 20
5.37987
 30
0.000000
  70
    32
  0
VERTEX
  8
0
  5
255F2
 10
2.67982
 20
5.38048
 30
0.000000
  70
    32
  0
VERTEX
  8
0
  5
255F3
 10
2.68210
 20
5.38107
 30
0.000000
  70
    32
  0
VERTEX
  8
0
  5
255F4
 10
2.68439
 20
5.38163
 30
0.000000
  70
    32
  0
VERTEX
  8
0
  5
255F5
 10
2.68668
 20
5.38217
 30
0.000000
  70
    32
  0
VERTEX
  8
0
  5
255F6
 10
2.68898
 20
5.38268
 30
0.000000
  70
    32
  0
VERTEX
  8
0
  5
255F7
 10
2.69129
 20
5.38317
 30
0.000000
  70
    32
  0
VERTEX
  8
0
  5
255F8
 10
2.69360
 20
5.38363
 30
0.000000
  70
    32
  0
VERTEX
  8
0
  5
255F9
 10
2.69592
 20
5.38407
 30
0.000000
  70
    32
  0
VERTEX
  8
0
  5
255FA
 10
2.69824
 20
5.38449
 30
0.000000
  70
    32
  0
VERTEX
  8
0
  5
255FB
 10
2.70056
 20
5.38488
 30
0.000000
  70
    32
  0
VERTEX
  8
0
  5
255FC
 10
2.70290
 20
5.38525
 30
0.000000
  70
    32
  0
VERTEX
  8
0
  5
255FD
 10
2.70523
 20
5.38559
 30
0.000000
  70
    32
  0
VERTEX
  8
0
  5
255FE
 10
2.70757
 20
5.38590
 30
0.000000
  70
    32
  0
VERTEX
  8
0
  5
255FF
 10
2.70991
 20
5.38619
 30
0.000000
  70
    32
  0
VERTEX
  8
0
  5
25600
 10
2.71226
 20
5.38646
 30
0.000000
  70
    32
  0
VERTEX
  8
0
  5
25601
 10
2.71461
 20
5.38670
 30
0.000000
  70
    32
  0
VERTEX
  8
0
  5
25602
 10
2.71696
 20
5.38692
 30
0.000000
  70
    32
  0
VERTEX
  8
0
  5
25603
 10
2.71931
 20
5.38711
 30
0.000000
  70
    32
  0
VERTEX
  8
0
  5
25604
 10
2.72167
 20
5.38727
 30
0.000000
  70
    32
  0
VERTEX
  8
0
  5
25605
 10
2.72403
 20
5.38741
 30
0.000000
  70
    32
  0
VERTEX
  8
0
  5
25606
 10
2.72638
 20
5.38753
 30
0.000000
  70
    32
  0
VERTEX
  8
0
  5
25607
 10
2.72874
 20
5.38762
 30
0.000000
  70
    32
  0
VERTEX
  8
0
  5
25608
 10
2.73111
 20
5.38768
 30
0.000000
  70
    32
  0
VERTEX
  8
0
  5
25609
 10
2.73347
 20
5.38772
 30
0.000000
  70
    32
  0
VERTEX
  8
0
  5
2560A
 10
2.73583
 20
5.38773
 30
0.000000
  70
    32
  0
VERTEX
  8
0
  5
2560B
 10
2.73819
 20
5.38772
 30
0.000000
  70
    32
  0
VERTEX
  8
0
  5
2560C
 10
2.74056
 20
5.38768
 30
0.000000
  70
    32
  0
VERTEX
  8
0
  5
2560D
 10
2.74292
 20
5.38761
 30
0.000000
  70
    32
  0
VERTEX
  8
0
  5
2560E
 10
2.74528
 20
5.38752
 30
0.000000
  70
    32
  0
VERTEX
  8
0
  5
2560F
 10
2.74764
 20
5.38741
 30
0.000000
  70
    32
  0
VERTEX
  8
0
  5
25610
 10
2.75000
 20
5.38727
 30
0.000000
  70
    32
  0
VERTEX
  8
0
  5
25611
 10
2.75235
 20
5.38710
 30
0.000000
  70
    32
  0
VERTEX
  8
0
  5
25612
 10
2.75471
 20
5.38690
 30
0.000000
  70
    32
  0
VERTEX
  8
0
  5
25613
 10
2.75706
 20
5.38668
 30
0.000000
  70
    32
  0
VERTEX
  8
0
  5
25614
 10
2.75941
 20
5.38644
 30
0.000000
  70
    32
  0
VERTEX
  8
0
  5
25615
 10
2.76175
 20
5.38617
 30
0.000000
  70
    32
  0
VERTEX
  8
0
  5
25616
 10
2.76410
 20
5.38587
 30
0.000000
  70
    32
  0
VERTEX
  8
0
  5
25617
 10
2.76643
 20
5.38554
 30
0.000000
  70
    32
  0
VERTEX
  8
0
  5
25618
 10
2.76877
 20
5.38520
 30
0.000000
  70
    32
  0
VERTEX
  8
0
  5
25619
 10
2.77110
 20
5.38482
 30
0.000000
  70
    32
  0
VERTEX
  8
0
  5
2561A
 10
2.77342
 20
5.38442
 30
0.000000
  70
    32
  0
VERTEX
  8
0
  5
2561B
 10
2.77574
 20
5.38399
 30
0.000000
  70
    32
  0
VERTEX
  8
0
  5
2561C
 10
2.77805
 20
5.38354
 30
0.000000
  70
    32
  0
VERTEX
  8
0
  5
2561D
 10
2.78036
 20
5.38306
 30
0.000000
  70
    32
  0
VERTEX
  8
0
  5
2561E
 10
2.78266
 20
5.38255
 30
0.000000
  70
    32
  0
VERTEX
  8
0
  5
2561F
 10
2.78496
 20
5.38202
 30
0.000000
  70
    32
  0
VERTEX
  8
0
  5
25620
 10
2.78724
 20
5.38147
 30
0.000000
  70
    32
  0
VERTEX
  8
0
  5
25621
 10
2.78952
 20
5.38088
 30
0.000000
  70
    32
  0
VERTEX
  8
0
  5
25622
 10
2.79179
 20
5.38027
 30
0.000000
  70
    32
  0
VERTEX
  8
0
  5
25623
 10
2.79406
 20
5.37964
 30
0.000000
  70
    32
  0
VERTEX
  8
0
  5
25624
 10
2.79631
 20
5.37898
 30
0.000000
  70
    32
  0
VERTEX
  8
0
  5
25625
 10
2.79856
 20
5.37829
 30
0.000000
  70
    32
  0
VERTEX
  8
0
  5
25626
 10
2.80080
 20
5.37758
 30
0.000000
  70
    32
  0
VERTEX
  8
0
  5
25627
 10
2.80303
 20
5.37684
 30
0.000000
  70
    32
  0
VERTEX
  8
0
  5
25628
 10
2.80525
 20
5.37607
 30
0.000000
  70
    32
  0
VERTEX
  8
0
  5
25629
 10
2.80745
 20
5.37528
 30
0.000000
  70
    32
  0
VERTEX
  8
0
  5
2562A
 10
2.80965
 20
5.37446
 30
0.000000
  70
    32
  0
VERTEX
  8
0
  5
2562B
 10
2.81184
 20
5.37362
 30
0.000000
  70
    32
  0
VERTEX
  8
0
  5
2562C
 10
2.81402
 20
5.37275
 30
0.000000
  70
    32
  0
VERTEX
  8
0
  5
2562D
 10
2.81618
 20
5.37186
 30
0.000000
  70
    32
  0
VERTEX
  8
0
  5
2562E
 10
2.81833
 20
5.37093
 30
0.000000
  70
    32
  0
VERTEX
  8
0
  5
2562F
 10
2.82047
 20
5.36999
 30
0.000000
  70
    32
  0
VERTEX
  8
0
  5
25630
 10
2.82260
 20
5.36901
 30
0.000000
  70
    32
  0
VERTEX
  8
0
  5
25631
 10
2.82472
 20
5.36801
 30
0.000000
  70
    32
  0
VERTEX
  8
0
  5
25632
 10
2.82682
 20
5.36699
 30
0.000000
  70
    32
  0
VERTEX
  8
0
  5
25633
 10
2.82891
 20
5.36594
 30
0.000000
  70
    32
  0
VERTEX
  8
0
  5
25634
 10
2.83098
 20
5.36486
 30
0.000000
  70
    32
  0
VERTEX
  8
0
  5
25635
 10
2.83304
 20
5.36375
 30
0.000000
  70
    32
  0
VERTEX
  8
0
  5
25636
 10
2.83509
 20
5.36262
 30
0.000000
  70
    32
  0
VERTEX
  8
0
  5
25637
 10
2.83712
 20
5.36147
 30
0.000000
  70
    32
  0
VERTEX
  8
0
  5
25638
 10
2.83913
 20
5.36028
 30
0.000000
  70
    32
  0
VERTEX
  8
0
  5
25639
 10
2.84114
 20
5.35908
 30
0.000000
  70
    32
  0
VERTEX
  8
0
  5
2563A
 10
2.84312
 20
5.35785
 30
0.000000
  70
    32
  0
VERTEX
  8
0
  5
2563B
 10
2.84510
 20
5.35659
 30
0.000000
  70
    32
  0
VERTEX
  8
0
  5
2563C
 10
2.84706
 20
5.35532
 30
0.000000
  70
    32
  0
VERTEX
  8
0
  5
2563D
 10
2.84900
 20
5.35402
 30
0.000000
  70
    32
  0
VERTEX
  8
0
  5
2563E
 10
2.85093
 20
5.35269
 30
0.000000
  70
    32
  0
VERTEX
  8
0
  5
2563F
 10
2.85284
 20
5.35135
 30
0.000000
  70
    32
  0
VERTEX
  8
0
  5
25640
 10
2.85474
 20
5.34998
 30
0.000000
  70
    32
  0
VERTEX
  8
0
  5
25641
 10
2.85663
 20
5.34859
 30
0.000000
  70
    32
  0
VERTEX
  8
0
  5
25642
 10
2.85850
 20
5.34718
 30
0.000000
  70
    32
  0
VERTEX
  8
0
  5
25643
 10
2.86035
 20
5.34575
 30
0.000000
  70
    32
  0
VERTEX
  8
0
  5
25644
 10
2.86219
 20
5.34430
 30
0.000000
  70
    32
  0
VERTEX
  8
0
  5
25645
 10
2.86402
 20
5.34283
 30
0.000000
  70
    32
  0
VERTEX
  8
0
  5
25646
 10
2.86583
 20
5.34134
 30
0.000000
  70
    32
  0
VERTEX
  8
0
  5
25647
 10
2.86763
 20
5.33983
 30
0.000000
  70
    32
  0
VERTEX
  8
0
  5
25648
 10
2.86941
 20
5.33831
 30
0.000000
  70
    32
  0
VERTEX
  8
0
  5
25649
 10
2.87118
 20
5.33676
 30
0.000000
  70
    32
  0
VERTEX
  8
0
  5
2564A
 10
2.87293
 20
5.33520
 30
0.000000
  70
    32
  0
VERTEX
  8
0
  5
2564B
 10
2.87467
 20
5.33362
 30
0.000000
  70
    32
  0
VERTEX
  8
0
  5
2564C
 10
2.87639
 20
5.33203
 30
0.000000
  70
    32
  0
VERTEX
  8
0
  5
2564D
 10
2.87810
 20
5.33042
 30
0.000000
  70
    32
  0
VERTEX
  8
0
  5
2564E
 10
2.87979
 20
5.32879
 30
0.000000
  70
    32
  0
VERTEX
  8
0
  5
2564F
 10
2.88147
 20
5.32715
 30
0.000000
  70
    32
  0
VERTEX
  8
0
  5
25650
 10
2.88314
 20
5.32549
 30
0.000000
  70
    32
  0
VERTEX
  8
0
  5
25651
 10
2.88478
 20
5.32382
 30
0.000000
  70
    32
  0
VERTEX
  8
0
  5
25652
 10
2.88642
 20
5.32213
 30
0.000000
  70
    32
  0
VERTEX
  8
0
  5
25653
 10
2.88804
 20
5.32043
 30
0.000000
  70
    32
  0
VERTEX
  8
0
  5
25654
 10
2.88964
 20
5.31872
 30
0.000000
  70
    32
  0
VERTEX
  8
0
  5
25655
 10
2.89123
 20
5.31699
 30
0.000000
  70
    32
  0
VERTEX
  8
0
  5
25656
 10
2.89281
 20
5.31525
 30
0.000000
  70
    32
  0
VERTEX
  8
0
  5
25657
 10
2.89437
 20
5.31350
 30
0.000000
  70
    32
  0
VERTEX
  8
0
  5
25658
 10
2.89591
 20
5.31174
 30
0.000000
  70
    32
  0
VERTEX
  8
0
  5
25659
 10
2.89744
 20
5.30997
 30
0.000000
  70
    32
  0
VERTEX
  8
0
  5
2565A
 10
2.89896
 20
5.30819
 30
0.000000
  70
    32
  0
VERTEX
  8
0
  5
2565B
 10
2.90046
 20
5.30639
 30
0.000000
  70
    32
  0
VERTEX
  8
0
  5
2565C
 10
2.90194
 20
5.30459
 30
0.000000
  70
    32
  0
VERTEX
  8
0
  5
2565D
 10
2.90342
 20
5.30277
 30
0.000000
  70
    32
  0
VERTEX
  8
0
  5
2565E
 10
2.90487
 20
5.30095
 30
0.000000
  70
    32
  0
VERTEX
  8
0
  5
2565F
 10
2.90632
 20
5.29912
 30
0.000000
  70
    32
  0
VERTEX
  8
0
  5
25660
 10
2.90775
 20
5.29728
 30
0.000000
  70
    32
  0
VERTEX
  8
0
  5
25661
 10
2.90918
 20
5.29543
 30
0.000000
  70
    32
  0
VERTEX
  8
0
  5
25662
 10
2.91059
 20
5.29357
 30
0.000000
  70
    32
  0
VERTEX
  8
0
  5
25663
 10
2.91198
 20
5.29170
 30
0.000000
  70
    32
  0
VERTEX
  8
0
  5
25664
 10
2.91337
 20
5.28983
 30
0.000000
  70
    32
  0
VERTEX
  8
0
  5
25665
 10
2.91475
 20
5.28795
 30
0.000000
  70
    32
  0
VERTEX
  8
0
  5
25666
 10
2.91612
 20
5.28606
 30
0.000000
  70
    32
  0
VERTEX
  8
0
  5
25667
 10
2.91747
 20
5.28416
 30
0.000000
  70
    32
  0
VERTEX
  8
0
  5
25668
 10
2.91882
 20
5.28226
 30
0.000000
  70
    32
  0
VERTEX
  8
0
  5
25669
 10
2.92016
 20
5.28035
 30
0.000000
  70
    32
  0
VERTEX
  8
0
  5
2566A
 10
2.92149
 20
5.27843
 30
0.000000
  70
    32
  0
VERTEX
  8
0
  5
2566B
 10
2.92281
 20
5.27651
 30
0.000000
  70
    32
  0
VERTEX
  8
0
  5
2566C
 10
2.92412
 20
5.27459
 30
0.000000
  70
    32
  0
VERTEX
  8
0
  5
2566D
 10
2.92543
 20
5.27265
 30
0.000000
  70
    32
  0
VERTEX
  8
0
  5
2566E
 10
2.92673
 20
5.27072
 30
0.000000
  70
    32
  0
VERTEX
  8
0
  5
2566F
 10
2.92802
 20
5.26878
 30
0.000000
  70
    32
  0
VERTEX
  8
0
  5
25670
 10
2.92930
 20
5.26683
 30
0.000000
  70
    32
  0
VERTEX
  8
0
  5
25671
 10
2.93058
 20
5.26488
 30
0.000000
  70
    32
  0
VERTEX
  8
0
  5
25672
 10
2.93186
 20
5.26293
 30
0.000000
  70
    32
  0
VERTEX
  8
0
  5
25673
 10
2.93313
 20
5.26097
 30
0.000000
  70
    32
  0
VERTEX
  8
0
  5
25674
 10
2.93439
 20
5.25901
 30
0.000000
  70
    32
  0
VERTEX
  8
0
  5
25675
 10
2.93565
 20
5.25705
 30
0.000000
  70
    32
  0
VERTEX
  8
0
  5
25676
 10
2.93691
 20
5.25508
 30
0.000000
  70
    32
  0
VERTEX
  8
0
  5
25677
 10
2.93816
 20
5.25311
 30
0.000000
  70
    32
  0
VERTEX
  8
0
  5
25678
 10
2.93941
 20
5.25114
 30
0.000000
  70
    32
  0
VERTEX
  8
0
  5
25679
 10
2.94066
 20
5.24917
 30
0.000000
  70
    32
  0
VERTEX
  8
0
  5
2567A
 10
2.94190
 20
5.24720
 30
0.000000
  70
    32
  0
VERTEX
  8
0
  5
2567B
 10
2.94314
 20
5.24522
 30
0.000000
  70
    32
  0
VERTEX
  8
0
  5
2567C
 10
2.94438
 20
5.24325
 30
0.000000
  70
    32
  0
VERTEX
  8
0
  5
2567D
 10
2.94562
 20
5.24127
 30
0.000000
  70
    32
  0
VERTEX
  8
0
  5
2567E
 10
2.94686
 20
5.23930
 30
0.000000
  70
    32
  0
VERTEX
  8
0
  5
2567F
 10
2.94810
 20
5.23732
 30
0.000000
  70
    32
  0
VERTEX
  8
0
  5
25680
 10
2.94933
 20
5.23535
 30
0.000000
  70
    32
  0
VERTEX
  8
0
  5
25681
 10
2.95057
 20
5.23337
 30
0.000000
  70
    32
  0
VERTEX
  8
0
  5
25682
 10
2.95181
 20
5.23140
 30
0.000000
  70
    32
  0
SEQEND
  8
0
  5
25683
  0
CIRCLE
  5
1E52D
  8
0
  6
CONTINUOUS
 10
1.8750010114733291
 20
1.8750004431210241
 30
0.0
 40
1.0772443959364579
  0
CIRCLE
  5
1E52E
  8
0
  6
CONTINUOUS
 10
1.8750010114733291
 20
1.8750004431210241
 30
0.0
 40
1.264068073711244
  0
ENDBLK
  5
1E530
  8
0
  0
BLOCK
  8
0
  2
A$C29D16843
 70
     0
 10
0.0
 20
0.0
 30
0.0
  3
A$C29D16843
  1

  0
INSERT
  5
21EC1
  8
0
  2
*U341
 10
0.0
 20
0.0
 30
0.0
  0
LINE
  5
21EC2
  8
0
 10
2.874677533607894
 20
0.5321649452647819
 30
0.0
 11
2.961024944995529
 21
0.5321649452647819
 31
0.0
  0
LINE
  5
21EC3
  8
0
 10
2.87467753360795
 20
0.3749997669987408
 30
0.0
 11
2.874677533607894
 21
0.5321649452647819
 31
0.0
  0
LINE
  5
21EC4
  8
0
 10
0.0000001380173558
 20
-0.0000002330012592
 30
0.0
 11
0.0000001380173558
 21
1.8697641788479871
 31
0.0
  0
LINE
  5
21EC5
  8
0
 10
2.437677533607939
 20
-0.0000002330012592
 30
0.0
 11
0.0000001380173558
 21
-0.0000002330012592
 31
0.0
  0
LINE
  5
21EC6
  8
0
 10
0.0000001380173558
 20
1.8697641788479871
 30
0.0
 11
3.0473723563831072
 21
1.6031536561971791
 31
0.0
  0
ARC
  5
21EC7
  8
0
  6
CONTINUOUS
 62
     7
 10
2.8436775336079441
 20
-0.0310002330012083
 30
0.0
 40
0.4071817775883397
 50
85.633671235746462
 51
175.63367123574321
  0
ARC
  5
21EC8
  8
0
  6
CONTINUOUS
 10
2.961024944995529
 20
1.0711401382865511
 30
0.0
 40
0.5389751930218452
 50
270.0
 51
80.781108736766626
  0
ENDBLK
  5
21ECA
  8
0
  0
BLOCK
  8
0
  2
*U188
 70
     1
 10
0.0
 20
0.0
 30
0.0
  3
*U188
  1

  0
TEXT
  5
24E7F
  8
0
 10
2.0520856342580478
 20
1.4053520973297959
 30
0.0
 40
0.125
  1
Exterior Casing
  0
TEXT
  5
24E80
  8
0
 10
2.0520856342580478
 20
1.1970187639964629
 30
0.0
 40
0.125
  1
TL-180
  0
TEXT
  5
24E81
  8
0
 10
2.0520856342580478
 20
0.9886854306631298
 30
0.0
 40
0.125
  1
1-1/4" x 2"
  0
TEXT
  5
24E82
  8
0
 10
2.0520856342580478
 20
0.7803520973297964
 30
0.0
 40
0.125
  1
800.66.TAGUE
  0
ENDBLK
  5
24E84
  8
0
  0
BLOCK
  8
0
  2
*U189
 70
     1
 10
0.0
 20
0.0
 30
0.0
  3
*U189
  1

  0
TEXT
  5
24E86
  8
0
 10
1.875832532300876
 20
1.1538771312937111
 30
0.0
 40
0.125
  1
Exterior Casing
  0
TEXT
  5
24E87
  8
0
 10
1.875832532300876
 20
0.9455437979603782
 30
0.0
 40
0.125
  1
TL-544
  0
TEXT
  5
24E88
  8
0
 10
1.875832532300876
 20
0.7372104646270449
 30
0.0
 40
0.125
  1
1-1/8" x 1-9/16"
  0
TEXT
  5
24E89
  8
0
 10
1.875832532300876
 20
0.5288771312937115
 30
0.0
 40
0.125
  1
800.66.TAGUE
  0
ENDBLK
  5
24E8B
  8
0
  0
BLOCK
  8
0
  2
*U190
 70
     1
 10
0.0
 20
0.0
 30
0.0
  3
*U190
  1

  0
TEXT
  5
24E8D
  8
0
 10
2.2653468102219558
 20
1.612015904330746
 30
0.0
 40
0.125
  1
Exterior Casing
  0
TEXT
  5
24E8E
  8
0
 10
2.2653468102219558
 20
1.403682570997413
 30
0.0
 40
0.125
  1
TL-2023
  0
TEXT
  5
24E8F
  8
0
 10
2.2653468102219558
 20
1.19534923766408
 30
0.0
 40
0.125
  1
1-13/16" x 3" 
  0
TEXT
  5
24E90
  8
0
 10
2.2653468102219558
 20
0.9870159043307467
 30
0.0
 40
0.125
  1
800.66.TAGUE
  0
ENDBLK
  5
24E92
  8
0
  0
BLOCK
  8
0
  2
*U191
 70
     1
 10
0.0
 20
0.0
 30
0.0
  3
*U191
  1

  0
TEXT
  5
24E94
  8
0
 10
2.0898675486657221
 20
0.9145072342178082
 30
0.0
 40
0.125
  1
Exterior Casing
  0
TEXT
  5
24E95
  8
0
 10
2.0898675486657221
 20
0.706173900884475
 30
0.0
 40
0.125
  1
TL-2087
  0
TEXT
  5
24E96
  8
0
 10
2.0898675486657221
 20
0.4978405675511416
 30
0.0
 40
0.125
  1
7/8" x 1-7/16"
  0
TEXT
  5
24E97
  8
0
 10
2.0898675486657221
 20
0.2895072342178082
 30
0.0
 40
0.125
  1
800.66.TAGUE
  0
ENDBLK
  5
24E99
  8
0
  0
BLOCK
  8
0
  2
*U192
 70
     1
 10
0.0
 20
0.0
 30
0.0
  3
*U192
  1

  0
TEXT
  5
24E9B
  8
0
 10
2.1806631076311191
 20
0.8419101546792263
 30
0.0
 40
0.125
  1
Exterior Casing
  0
TEXT
  5
24E9C
  8
0
 10
2.1806631076311191
 20
0.6335768213458931
 30
0.0
 40
0.125
  1
TL-2158
  0
TEXT
  5
24E9D
  8
0
 10
2.1806631076311191
 20
0.4252434880125597
 30
0.0
 40
0.125
  1
1-1/16" x 1-5/16"
  0
TEXT
  5
24E9E
  8
0
 10
2.1806631076311191
 20
0.2169101546792262
 30
0.0
 40
0.125
  1
800.66.TAGUE
  0
ENDBLK
  5
24EA0
  8
0
  0
BLOCK
  8
0
  2
*U193
 70
     1
 10
0.0
 20
0.0
 30
0.0
  3
*U193
  1

  0
TEXT
  5
24EA2
  8
0
 10
2.2408536425556909
 20
1.2992247915469759
 30
0.0
 40
0.125
  1
Exterior Casing
  0
TEXT
  5
24EA3
  8
0
 10
2.2408536425556909
 20
1.090891458213642
 30
0.0
 40
0.125
  1
TL-2174
  0
TEXT
  5
24EA4
  8
0
 10
2.2408536425556909
 20
0.8825581248803095
 30
0.0
 40
0.125
  1
1-3/8" x 1-7/16"
  0
TEXT
  5
24EA5
  8
0
 10
2.2408536425556909
 20
0.6742247915469762
 30
0.0
 40
0.125
  1
800.66.TAGUE
  0
ENDBLK
  5
24EA7
  8
0
  0
BLOCK
  8
0
  2
*U194
 70
     1
 10
0.0
 20
0.0
 30
0.0
  3
*U194
  1

  0
TEXT
  5
24EA9
  8
0
 10
2.8048346441314029
 20
1.129982283289336
 30
0.0
 40
0.125
  1
Exterior Casing
  0
TEXT
  5
24EAA
  8
0
 10
2.8048346441314029
 20
0.9216489499560037
 30
0.0
 40
0.125
  1
TL-2175
  0
TEXT
  5
24EAB
  8
0
 10
2.8048346441314029
 20
0.7133156166226704
 30
0.0
 40
0.125
  1
1-9/32" x 1-29/32"
  0
TEXT
  5
24EAC
  8
0
 10
2.8048346441314029
 20
0.504982283289337
 30
0.0
 40
0.125
  1
800.66.TAGUE
  0
ENDBLK
  5
24EAE
  8
0
  0
BLOCK
  8
0
  2
*U195
 70
     1
 10
0.0
 20
0.0
 30
0.0
  3
*U195
  1

  0
TEXT
  5
24EB0
  8
0
 10
2.5484960182450891
 20
0.679430053902138
 30
0.0
 40
0.125
  1
Exterior Casing
  0
TEXT
  5
24EB1
  8
0
 10
2.5484960182450891
 20
0.4710967205688046
 30
0.0
 40
0.125
  1
TL-2176
  0
TEXT
  5
24EB2
  8
0
 10
2.5484960182450891
 20
0.2627633872354712
 30
0.0
 40
0.125
  1
19/32" x 1-5/8"
  0
TEXT
  5
24EB3
  8
0
 10
2.5484960182450891
 20
0.0544300539021379
 30
0.0
 40
0.125
  1
800.66.TAGUE
  0
ENDBLK
  5
24EB5
  8
0
  0
BLOCK
  8
0
  2
*U196
 70
     1
 10
0.0
 20
0.0
 30
0.0
  3
*U196
  1

  0
TEXT
  5
24EB7
  8
0
 10
2.105732231568993
 20
0.7255830389262883
 30
0.0
 40
0.125
  1
Exterior Casing
  0
TEXT
  5
24EB8
  8
0
 10
2.105732231568993
 20
0.5172497055929551
 30
0.0
 40
0.125
  1
TL-2108
  0
TEXT
  5
24EB9
  8
0
 10
2.105732231568993
 20
0.3089163722596217
 30
0.0
 40
0.125
  1
15/16" x 1-1/16"
  0
TEXT
  5
24EBA
  8
0
 10
2.105732231568993
 20
0.1005830389262883
 30
0.0
 40
0.125
  1
800.66.TAGUE
  0
ENDBLK
  5
24EBC
  8
0
  0
BLOCK
  8
0
  2
*U197
 70
     1
 10
0.0
 20
0.0
 30
0.0
  3
*U197
  1

  0
TEXT
  5
24EBE
  8
0
 10
0.0469294570366401
 20
0.67943073463357
 30
0.0
 40
0.125
  1
Exterior Casing
  0
TEXT
  5
24EBF
  8
0
 10
0.0469294570366401
 20
0.4710974013002366
 30
0.0
 40
0.125
  1
TL-2206
  0
TEXT
  5
24EC0
  8
0
 10
0.0469294570366401
 20
0.2627640679669033
 30
0.0
 40
0.125
  1
1-3/32" x 1-23/32"
  0
TEXT
  5
24EC1
  8
0
 10
0.0469294570366401
 20
0.05443073463357
 30
0.0
 40
0.125
  1
800.66.TAGUE
  0
ENDBLK
  5
24EC3
  8
0
  0
BLOCK
  8
0
  2
*U198
 70
     1
 10
0.0
 20
0.0
 30
0.0
  3
*U198
  1

  0
TEXT
  5
24EC5
  8
0
 10
0.0449853036485593
 20
0.6794309447934666
 30
0.0
 40
0.125
  1
Exterior Casing
  0
TEXT
  5
24EC6
  8
0
 10
0.0449853036485593
 20
0.4710976114601333
 30
0.0
 40
0.125
  1
TL-2207
  0
TEXT
  5
24EC7
  8
0
 10
0.0449853036485593
 20
0.2627642781267999
 30
0.0
 40
0.125
  1
1-1/8" x 2-15/16"
  0
TEXT
  5
24EC8
  8
0
 10
0.0449853036485593
 20
0.0544309447934666
 30
0.0
 40
0.125
  1
800.66.TAGUE
  0
ENDBLK
  5
24ECA
  8
0
  0
BLOCK
  8
0
  2
*U199
 70
     1
 10
0.0
 20
0.0
 30
0.0
  3
*U199
  1

  0
TEXT
  5
24ECC
  8
0
 62
     0
 10
-346.15979271546257
 20
508.16262619726342
 30
0.0
 40
0.125
  1
Cutter
 50
90.0
  0
ENDBLK
  5
24ECE
  8
0
  0
BLOCK
  8
0
  2
*U200
 70
     1
 10
0.0
 20
0.0
 30
0.0
  3
*U200
  1

  0
TEXT
  5
24ED0
  8
0
 10
3.5112004937425918
 20
2.3236705000861089
 30
0.0
 40
0.125
  1
Exterior Casing
  0
TEXT
  5
24ED1
  8
0
 10
3.5112004937425918
 20
2.1153371667527749
 30
0.0
 40
0.125
  1
TL-2242
  0
TEXT
  5
24ED2
  8
0
 10
3.5112004937425918
 20
1.9070038334194419
 30
0.0
 40
0.125
  1
2" x 4-1/2"
  0
TEXT
  5
24ED3
  8
0
 10
3.5112004937425918
 20
1.6986705000861091
 30
0.0
 40
0.125
  1
800.66.TAGUE
  0
ENDBLK
  5
24ED5
  8
0
  0
BLOCK
  8
0
  2
*U201
 70
     1
 10
0.0
 20
0.0
 30
0.0
  3
*U201
  1

  0
TEXT
  5
24ED7
  8
0
 62
     0
 10
-386.5390653119602
 20
838.32040714068194
 30
0.0
 40
0.125
  1
Cutter
 50
90.0
  0
ENDBLK
  5
24ED9
  8
0
  0
BLOCK
  8
0
  2
*U202
 70
     1
 10
0.0
 20
0.0
 30
0.0
  3
*U202
  1

  0
TEXT
  5
24EDB
  8
0
 10
1.983241637717696
 20
1.2297917133489591
 30
0.0
 40
0.125
  1
Exterior Casing
  0
TEXT
  5
24EDC
  8
0
 10
1.983241637717696
 20
1.0214583800156249
 30
0.0
 40
0.125
  1
TL-2254
  0
TEXT
  5
24EDD
  8
0
 10
1.983241637717696
 20
0.8131250466822924
 30
0.0
 40
0.125
  1
1-1/4" x 1-3/4"
  0
TEXT
  5
24EDE
  8
0
 10
1.983241637717696
 20
0.6047917133489591
 30
0.0
 40
0.125
  1
800.66.TAGUE
  0
ENDBLK
  5
24EE0
  8
0
  0
BLOCK
  8
0
  2
*U203
 70
     1
 10
0.0
 20
0.0
 30
0.0
  3
*U203
  1

  0
TEXT
  5
24EE2
  8
0
 10
2.2285402119240412
 20
3.7215677387475798
 30
0.0
 40
0.125
  1
Exterior Jamb
  0
TEXT
  5
24EE3
  8
0
 10
2.2285402119240412
 20
3.5132344054142468
 30
0.0
 40
0.125
  1
TL-2126
  0
TEXT
  5
24EE4
  8
0
 10
2.2285402119240412
 20
3.3049010720809142
 30
0.0
 40
0.125
  1
1-1/4" x 6-5/8"
  0
TEXT
  5
24EE5
  8
0
 10
2.2285402119240412
 20
3.0965677387475798
 30
0.0
 40
0.125
  1
800.66.TAGUE
  0
ENDBLK
  5
24EE7
  8
0
  0
BLOCK
  8
0
  2
*U204
 70
     1
 10
0.0
 20
0.0
 30
0.0
  3
*U204
  1

  0
TEXT
  5
24EE9
  8
0
 10
2.025590122046196
 20
3.8877018206065941
 30
0.0
 40
0.125
  1
Exterior Jamb
  0
TEXT
  5
24EEA
  8
0
 10
2.025590122046196
 20
3.6793684872732602
 30
0.0
 40
0.125
  1
TL-2127
  0
TEXT
  5
24EEB
  8
0
 10
2.025590122046196
 20
3.4710351539399271
 30
0.0
 40
0.125
  1
1-1/4" x 6-5/8"
  0
TEXT
  5
24EEC
  8
0
 10
2.025590122046196
 20
3.2627018206065941
 30
0.0
 40
0.125
  1
800.66.TAGUE
  0
ENDBLK
  5
24EEE
  8
0
  0
BLOCK
  8
0
  2
*U205
 70
     1
 10
0.0
 20
0.0
 30
0.0
  3
*U205
  1

  0
TEXT
  5
24EF0
  8
0
 10
1.8279899277385421
 20
2.0085009357213721
 30
0.0
 40
0.125
  1
Fluting
  0
TEXT
  5
24EF1
  8
0
 10
1.8279899277385421
 20
1.800167602388038
 30
0.0
 40
0.125
  1
TL-123
  0
TEXT
  5
24EF2
  8
0
 10
1.8279899277385421
 20
1.5918342690547049
 30
0.0
 40
0.125
  1
3/4" x 3-1/2"
  0
TEXT
  5
24EF3
  8
0
 10
1.8279899277385421
 20
1.3835009357213719
 30
0.0
 40
0.125
  1
800.66.TAGUE
  0
ENDBLK
  5
24EF5
  8
0
  0
BLOCK
  8
0
  2
*U206
 70
     1
 10
0.0
 20
0.0
 30
0.0
  3
*U206
  1

  0
TEXT
  5
24EF7
  8
0
 10
1.9710461263608181
 20
3.9608870512416838
 30
0.0
 40
0.125
  1
Fluting
  0
TEXT
  5
24EF8
  8
0
 10
1.9710461263608181
 20
3.7525537179083499
 30
0.0
 40
0.125
  1
TL-343
  0
TEXT
  5
24EF9
  8
0
 10
1.9710461263608181
 20
3.5442203845750169
 30
0.0
 40
0.125
  1
7/8" x 7-3/16"
  0
TEXT
  5
24EFA
  8
0
 10
1.9710461263608181
 20
3.3358870512416838
 30
0.0
 40
0.125
  1
800.66.TAGUE
  0
ENDBLK
  5
24EFC
  8
0
  0
BLOCK
  8
0
  2
*U207
 70
     1
 10
0.0
 20
0.0
 30
0.0
  3
*U207
  1

  0
TEXT
  5
24EFE
  8
0
 10
1.4662897697170929
 20
3.8395028676267202
 30
0.0
 40
0.125
  1
Fluting
  0
TEXT
  5
24EFF
  8
0
 10
1.4662897697170929
 20
3.6311695342933858
 30
0.0
 40
0.125
  1
TL-2183
  0
TEXT
  5
24F00
  8
0
 10
1.4662897697170929
 20
3.4228362009600528
 30
0.0
 40
0.125
  1
3/4" x 7-1/4"
  0
TEXT
  5
24F01
  8
0
 10
1.4662897697170929
 20
3.2145028676267202
 30
0.0
 40
0.125
  1
800.66.TAGUE
  0
ENDBLK
  5
24F03
  8
0
  0
BLOCK
  8
0
  2
*U208
 70
     1
 10
0.0
 20
0.0
 30
0.0
  3
*U208
  1

  0
TEXT
  5
24F05
  8
0
 10
2.0951853732560148
 20
2.6676693683394879
 30
0.0
 40
0.125
  1
Fluting
  0
TEXT
  5
24F06
  8
0
 10
2.0951853732560148
 20
2.4593360350061548
 30
0.0
 40
0.125
  1
TL-2276
  0
TEXT
  5
24F07
  8
0
 10
2.0951853732560148
 20
2.2510027016728218
 30
0.0
 40
0.125
  1
11/16" x 3"
  0
TEXT
  5
24F08
  8
0
 10
2.0951853732560148
 20
2.0426693683394879
 30
0.0
 40
0.125
  1
800.66.TAGUE
  0
ENDBLK
  5
24F0A
  8
0
  0
BLOCK
  8
0
  2
*U209
 70
     1
 10
0.0
 20
0.0
 30
0.0
  3
*U209
  1

  0
TEXT
  5
24F0C
  8
0
 10
2.4586482925877808
 20
1.0775582798773931
 30
0.0
 40
0.125
  1
Full Round
  0
TEXT
  5
24F0D
  8
0
 10
2.4586482925877808
 20
0.8692249465440607
 30
0.0
 40
0.125
  1
TL-232
  0
TEXT
  5
24F0E
  8
0
 10
2.4586482925877808
 20
0.6608916132107274
 30
0.0
 40
0.125
  1
1-7/16" x 1-7/16"
  0
TEXT
  5
24F0F
  8
0
 10
2.4586482925877808
 20
0.452558279877394
 30
0.0
 40
0.125
  1
800.66.TAGUE
  0
ENDBLK
  5
24F11
  8
0
  0
BLOCK
  8
0
  2
*U210
 70
     1
 10
0.0
 20
0.0
 30
0.0
  3
*U210
  1

  0
TEXT
  5
24F13
  8
0
 10
2.339763263951113
 20
0.912090443150646
 30
0.0
 40
0.125
  1
Full Round
  0
TEXT
  5
24F14
  8
0
 10
2.339763263951113
 20
0.7037571098173128
 30
0.0
 40
0.125
  1
TL-233
  0
TEXT
  5
24F15
  8
0
 10
2.339763263951113
 20
0.4954237764839795
 30
0.0
 40
0.125
  1
1-3/16" x 1-3/16"
  0
TEXT
  5
24F16
  8
0
 10
2.339763263951113
 20
0.287090443150646
 30
0.0
 40
0.125
  1
800.66.TAGUE
  0
ENDBLK
  5
24F18
  8
0
  0
BLOCK
  8
0
  2
*U211
 70
     1
 10
0.0
 20
0.0
 30
0.0
  3
*U211
  1

  0
TEXT
  5
24F1A
  8
0
 10
2.2927598682417729
 20
0.8643692839127652
 30
0.0
 40
0.125
  1
Full Round
  0
TEXT
  5
24F1B
  8
0
 10
2.2927598682417729
 20
0.6560359505794321
 30
0.0
 40
0.125
  1
TL-234
  0
TEXT
  5
24F1C
  8
0
 10
2.2927598682417729
 20
0.4477026172460987
 30
0.0
 40
0.125
  1
1-1/16" x 1-1/16"
  0
TEXT
  5
24F1D
  8
0
 10
2.2927598682417729
 20
0.2393692839127652
 30
0.0
 40
0.125
  1
800.66.TAGUE
  0
ENDBLK
  5
24F1F
  8
0
  0
BLOCK
  8
0
  2
*U212
 70
     1
 10
0.0
 20
0.0
 30
0.0
  3
*U212
  1

  0
TEXT
  5
24F21
  8
0
 10
2.0765905058337921
 20
1.0252762384561711
 30
0.0
 40
0.125
  1
Glass Bead
  0
TEXT
  5
24F22
  8
0
 10
2.0765905058337921
 20
0.8169429051228387
 30
0.0
 40
0.125
  1
TL-145
  0
TEXT
  5
24F23
  8
0
 10
2.0765905058337921
 20
0.6086095717895054
 30
0.0
 40
0.125
  1
11/16" x 3/4"
  0
TEXT
  5
24F24
  8
0
 10
2.0765905058337921
 20
0.400276238456172
 30
0.0
 40
0.125
  1
800.66.TAGUE
  0
ENDBLK
  5
24F26
  8
0
  0
BLOCK
  8
0
  2
*U213
 70
     1
 10
0.0
 20
0.0
 30
0.0
  3
*U213
  1

  0
TEXT
  5
24F28
  8
0
 10
1.468683703905185
 20
0.7455079879047162
 30
0.0
 40
0.125
  1
Glass Bead
  0
TEXT
  5
24F29
  8
0
 10
1.468683703905185
 20
0.537174654571383
 30
0.0
 40
0.125
  1
TL-147
  0
TEXT
  5
24F2A
  8
0
 10
1.468683703905185
 20
0.3288413212380496
 30
0.0
 40
0.125
  1
1/2" x 9/16"
  0
TEXT
  5
24F2B
  8
0
 10
1.468683703905185
 20
0.1205079879047162
 30
0.0
 40
0.125
  1
800.66.TAGUE
  0
ENDBLK
  5
24F2D
  8
0
  0
BLOCK
  8
0
  2
*U214
 70
     1
 10
0.0
 20
0.0
 30
0.0
  3
*U214
  1

  0
TEXT
  5
24F2F
  8
0
 10
1.584020839760341
 20
0.6794303041602916
 30
0.0
 40
0.125
  1
Glass Bead
  0
TEXT
  5
24F30
  8
0
 10
1.584020839760341
 20
0.4710969708269583
 30
0.0
 40
0.125
  1
TL-152
  0
TEXT
  5
24F31
  8
0
 10
1.584020839760341
 20
0.262763637493625
 30
0.0
 40
0.125
  1
3/8" x 11/16"
  0
TEXT
  5
24F32
  8
0
 10
1.584020839760341
 20
0.0544303041602916
 30
0.0
 40
0.125
  1
800.66.TAGUE
  0
ENDBLK
  5
24F34
  8
0
  0
BLOCK
  8
0
  2
*U215
 70
     1
 10
0.0
 20
0.0
 30
0.0
  3
*U215
  1

  0
TEXT
  5
24F36
  8
0
 10
1.3526095965341931
 20
0.7381811042487243
 30
0.0
 40
0.125
  1
Glass Bead
  0
TEXT
  5
24F37
  8
0
 10
1.3526095965341931
 20
0.5298477709153912
 30
0.0
 40
0.125
  1
TL-2142
  0
TEXT
  5
24F38
  8
0
 10
1.3526095965341931
 20
0.3215144375820577
 30
0.0
 40
0.125
  1
11/32" x 29/32"
  0
TEXT
  5
24F39
  8
0
 10
1.3526095965341931
 20
0.1131811042487243
 30
0.0
 40
0.125
  1
800.66.TAGUE
  0
ENDBLK
  5
24F3B
  8
0
  0
BLOCK
  8
0
  2
*U216
 70
     1
 10
0.0
 20
0.0
 30
0.0
  3
*U216
  1

  0
TEXT
  5
24F3D
  8
0
 10
1.3435544091540801
 20
0.6794309539541246
 30
0.0
 40
0.125
  1
Glass Bead
  0
TEXT
  5
24F3E
  8
0
 10
1.3435544091540801
 20
0.4710976206207913
 30
0.0
 40
0.125
  1
TL-2149
  0
TEXT
  5
24F3F
  8
0
 10
1.3435544091540801
 20
0.2627642872874579
 30
0.0
 40
0.125
  1
3/8" x 1/2"
  0
TEXT
  5
24F40
  8
0
 10
1.3435544091540801
 20
0.0544309539541246
 30
0.0
 40
0.125
  1
800.66.TAGUE
  0
ENDBLK
  5
24F42
  8
0
  0
BLOCK
  8
0
  2
*U217
 70
     1
 10
0.0
 20
0.0
 30
0.0
  3
*U217
  1

  0
TEXT
  5
24F44
  8
0
 10
1.488844305553698
 20
0.6807937379744545
 30
0.0
 40
0.125
  1
Glass Bead
  0
TEXT
  5
24F45
  8
0
 10
1.488844305553698
 20
0.4724604046411212
 30
0.0
 40
0.125
  1
TL-2155
  0
TEXT
  5
24F46
  8
0
 10
1.488844305553698
 20
0.2641270713077878
 30
0.0
 40
0.125
  1
1/2" x 13/16"
  0
TEXT
  5
24F47
  8
0
 10
1.488844305553698
 20
0.0557937379744544
 30
0.0
 40
0.125
  1
800.66.TAGUE
  0
ENDBLK
  5
24F49
  8
0
  0
BLOCK
  8
0
  2
*U218
 70
     1
 10
0.0
 20
0.0
 30
0.0
  3
*U218
  1

  0
TEXT
  5
24F4B
  8
0
 10
1.52304343587059
 20
0.6794307504626432
 30
0.0
 40
0.125
  1
Glass Bead
  0
TEXT
  5
24F4C
  8
0
 10
1.52304343587059
 20
0.4710974171293099
 30
0.0
 40
0.125
  1
TL-2218
  0
TEXT
  5
24F4D
  8
0
 10
1.52304343587059
 20
0.2627640837959765
 30
0.0
 40
0.125
  1
1/4" x 5/8"
  0
TEXT
  5
24F4E
  8
0
 10
1.52304343587059
 20
0.0544307504626431
 30
0.0
 40
0.125
  1
800.66.TAGUE
  0
ENDBLK
  5
24F50
  8
0
  0
BLOCK
  8
0
  2
*U219
 70
     1
 10
0.0
 20
0.0
 30
0.0
  3
*U219
  1

  0
TEXT
  5
24F52
  8
0
 10
2.8235364504146778
 20
0.7161662597191026
 30
0.0
 40
0.125
  1
Half Round
  0
TEXT
  5
24F53
  8
0
 10
2.8235364504146778
 20
0.5078329263857692
 30
0.0
 40
0.125
  1
TL-6
  0
TEXT
  5
24F54
  8
0
 10
2.8235364504146778
 20
0.2994995930524358
 30
0.0
 40
0.125
  1
7/8" x 1-3/4"
  0
TEXT
  5
24F55
  8
0
 10
2.8235364504146778
 20
0.0911662597191025
 30
0.0
 40
0.125
  1
800.66.TAGUE
  0
ENDBLK
  5
24F57
  8
0
  0
BLOCK
  8
0
  2
*U220
 70
     1
 10
0.0
 20
0.0
 30
0.0
  3
*U220
  1

  0
TEXT
  5
24F59
  8
0
 10
2.8316039409763221
 20
0.7222806133900122
 30
0.0
 40
0.125
  1
Half Round
  0
TEXT
  5
24F5A
  8
0
 10
2.8316039409763221
 20
0.5139472800566788
 30
0.0
 40
0.125
  1
TL-7
  0
TEXT
  5
24F5B
  8
0
 10
2.8316039409763221
 20
0.3056139467233454
 30
0.0
 40
0.125
  1
1" x 2"
  0
TEXT
  5
24F5C
  8
0
 10
2.8316039409763221
 20
0.0972806133900122
 30
0.0
 40
0.125
  1
800.66.TAGUE
  0
ENDBLK
  5
24F5E
  8
0
  0
BLOCK
  8
0
  2
*U221
 70
     1
 10
0.0
 20
0.0
 30
0.0
  3
*U221
  1

  0
TEXT
  5
24F60
  8
0
 10
4.3092556456276148
 20
0.8292621657587915
 30
0.0
 40
0.125
  1
Half Round
  0
TEXT
  5
24F61
  8
0
 10
4.3092556456276148
 20
0.6209288324254582
 30
0.0
 40
0.125
  1
TL-8
  0
TEXT
  5
24F62
  8
0
 10
4.3092556456276148
 20
0.4125954990921248
 30
0.0
 40
0.125
  1
1-1/2" x 3"
  0
TEXT
  5
24F63
  8
0
 10
4.3092556456276148
 20
0.2042621657587915
 30
0.0
 40
0.125
  1
800.66.TAGUE
  0
ENDBLK
  5
24F65
  8
0
  0
BLOCK
  8
0
  2
*U222
 70
     1
 10
0.0
 20
0.0
 30
0.0
  3
*U222
  1

  0
TEXT
  5
24F67
  8
0
 10
2.524104426630799
 20
0.6794299200373644
 30
0.0
 40
0.125
  1
Half Round
  0
TEXT
  5
24F68
  8
0
 10
2.524104426630799
 20
0.471096586704031
 30
0.0
 40
0.125
  1
TL-116
  0
TEXT
  5
24F69
  8
0
 10
2.524104426630799
 20
0.2627632533706976
 30
0.0
 40
0.125
  1
3/4" x 1-1/2"
  0
TEXT
  5
24F6A
  8
0
 10
2.524104426630799
 20
0.0544299200373644
 30
0.0
 40
0.125
  1
800.66.TAGUE
  0
ENDBLK
  5
24F6C
  8
0
  0
BLOCK
  8
0
  2
*U223
 70
     1
 10
0.0
 20
0.0
 30
0.0
  3
*U223
  1

  0
TEXT
  5
24F6E
  8
0
 10
2.4691699319003528
 20
0.6794301275302815
 30
0.0
 40
0.125
  1
Half Round
  0
TEXT
  5
24F6F
  8
0
 10
2.4691699319003528
 20
0.4710967941969481
 30
0.0
 40
0.125
  1
TL-119
  0
TEXT
  5
24F70
  8
0
 10
2.4691699319003528
 20
0.2627634608636147
 30
0.0
 40
0.125
  1
5/8" x 1-1/4"
  0
TEXT
  5
24F71
  8
0
 10
2.4691699319003528
 20
0.0544301275302814
 30
0.0
 40
0.125
  1
800.66.TAGUE
  0
ENDBLK
  5
24F73
  8
0
  0
BLOCK
  8
0
  2
*U224
 70
     1
 10
0.0
 20
0.0
 30
0.0
  3
*U224
  1

  0
TEXT
  5
24F75
  8
0
 10
1.96218194837894
 20
0.679429735423696
 30
0.0
 40
0.125
  1
Half Round
  0
TEXT
  5
24F76
  8
0
 10
1.96218194837894
 20
0.4710964020903626
 30
0.0
 40
0.125
  1
TL-120
  0
TEXT
  5
24F77
  8
0
 10
1.96218194837894
 20
0.2627630687570293
 30
0.0
 40
0.125
  1
1/2" x 1"
  0
TEXT
  5
24F78
  8
0
 10
1.96218194837894
 20
0.054429735423696
 30
0.0
 40
0.125
  1
800.66.TAGUE
  0
ENDBLK
  5
24F7A
  8
0
  0
BLOCK
  8
0
  2
*U225
 70
     1
 10
0.0
 20
0.0
 30
0.0
  3
*U225
  1

  0
TEXT
  5
24F7C
  8
0
 10
1.51989036816559
 20
0.679429754589819
 30
0.0
 40
0.125
  1
Half Round
  0
TEXT
  5
24F7D
  8
0
 10
1.51989036816559
 20
0.4710964212564856
 30
0.0
 40
0.125
  1
TL-122
  0
TEXT
  5
24F7E
  8
0
 10
1.51989036816559
 20
0.2627630879231522
 30
0.0
 40
0.125
  1
11/32" x 11/16"
  0
TEXT
  5
24F7F
  8
0
 10
1.51989036816559
 20
0.0544297545898189
 30
0.0
 40
0.125
  1
800.66.TAGUE
  0
ENDBLK
  5
24F81
  8
0
  0
BLOCK
  8
0
  2
*U226
 70
     1
 10
0.0
 20
0.0
 30
0.0
  3
*U226
  1

  0
TEXT
  5
24F83
  8
0
 10
1.332760358760481
 20
0.6794306489528026
 30
0.0
 40
0.125
  1
Half Round
  0
TEXT
  5
24F84
  8
0
 10
1.332760358760481
 20
0.4710973156194692
 30
0.0
 40
0.125
  1
TL-124
  0
TEXT
  5
24F85
  8
0
 10
1.332760358760481
 20
0.2627639822861358
 30
0.0
 40
0.125
  1
1/4" x 1/2"
  0
TEXT
  5
24F86
  8
0
 10
1.332760358760481
 20
0.0544306489528026
 30
0.0
 40
0.125
  1
800.66.TAGUE
  0
ENDBLK
  5
24F88
  8
0
  0
BLOCK
  8
0
  2
*U227
 70
     1
 10
0.0
 20
0.0
 30
0.0
  3
*U227
  1

  0
TEXT
  5
24F8A
  8
0
 10
2.6263646070054838
 20
2.827461056571678
 30
0.0
 40
0.125
  1
Hand Rail
  0
TEXT
  5
24F8B
  8
0
 10
2.6263646070054838
 20
2.6191277232383441
 30
0.0
 40
0.125
  1
TL-14
  0
TEXT
  5
24F8C
  8
0
 10
2.6263646070054838
 20
2.410794389905011
 30
0.0
 40
0.125
  1
1-5/8" x 5-1/4"
  0
TEXT
  5
24F8D
  8
0
 10
2.6263646070054838
 20
2.202461056571678
 30
0.0
 40
0.125
  1
800.66.TAGUE
  0
ENDBLK
  5
24F8F
  8
0
  0
BLOCK
  8
0
  2
*U228
 70
     1
 10
0.0
 20
0.0
 30
0.0
  3
*U228
  1

  0
TEXT
  5
24F91
  8
0
 10
2.2830209502855041
 20
2.755934710444194
 30
0.0
 40
0.125
  1
Hand Rail
  0
TEXT
  5
24F92
  8
0
 10
2.2830209502855041
 20
2.5476013771108601
 30
0.0
 40
0.125
  1
TL-15
  0
TEXT
  5
24F93
  8
0
 10
2.2830209502855041
 20
2.3392680437775271
 30
0.0
 40
0.125
  1
1-3/8" x 5-1/2"
  0
TEXT
  5
24F94
  8
0
 10
2.2830209502855041
 20
2.130934710444194
 30
0.0
 40
0.125
  1
800.66.TAGUE
  0
ENDBLK
  5
24F96
  8
0
  0
BLOCK
  8
0
  2
*U229
 70
     1
 10
0.0
 20
0.0
 30
0.0
  3
*U229
  1

  0
TEXT
  5
24F98
  8
0
 10
3.5100871080940119
 20
1.046126857764647
 30
0.0
 40
0.125
  1
Hand Rail
  0
TEXT
  5
24F99
  8
0
 10
3.5100871080940119
 20
0.8377935244313146
 30
0.0
 40
0.125
  1
TL-96
  0
TEXT
  5
24F9A
  8
0
 10
3.5100871080940119
 20
0.6294601910979814
 30
0.0
 40
0.125
  1
1-1/4" x 2-1/4"
  0
TEXT
  5
24F9B
  8
0
 10
3.5100871080940119
 20
0.4211268577646479
 30
0.0
 40
0.125
  1
800.66.TAGUE
  0
ENDBLK
  5
24F9D
  8
0
  0
BLOCK
  8
0
  2
*U230
 70
     1
 10
0.0
 20
0.0
 30
0.0
  3
*U230
  1

  0
TEXT
  5
24F9F
  8
0
 10
2.3417636350062589
 20
4.2171919217870482
 30
0.0
 40
0.125
  1
Hand Rail
  0
TEXT
  5
24FA0
  8
0
 10
2.3417636350062589
 20
4.0088585884537151
 30
0.0
 40
0.125
  1
TL-117
  0
TEXT
  5
24FA1
  8
0
 10
2.3417636350062589
 20
3.8005252551203812
 30
0.0
 40
0.125
  1
1-1/4" x 8-1/8"
  0
TEXT
  5
24FA2
  8
0
 10
2.3417636350062589
 20
3.5921919217870482
 30
0.0
 40
0.125
  1
800.66.TAGUE
  0
ENDBLK
  5
24FA4
  8
0
  0
BLOCK
  8
0
  2
*U231
 70
     1
 10
0.0
 20
0.0
 30
0.0
  3
*U231
  1

  0
TEXT
  5
24FA6
  8
0
 10
2.7125232555794119
 20
1.098442957172892
 30
0.0
 40
0.125
  1
Hand Rail
  0
TEXT
  5
24FA7
  8
0
 10
2.7125232555794119
 20
0.8901096238395592
 30
0.0
 40
0.125
  1
TL-231
  0
TEXT
  5
24FA8
  8
0
 10
2.7125232555794119
 20
0.6817762905062259
 30
0.0
 40
0.125
  1
1-1/2" x 1-11/16"
  0
TEXT
  5
24FA9
  8
0
 10
2.7125232555794119
 20
0.4734429571728925
 30
0.0
 40
0.125
  1
800.66.TAGUE
  0
ENDBLK
  5
24FAB
  8
0
  0
BLOCK
  8
0
  2
*U232
 70
     1
 10
0.0
 20
0.0
 30
0.0
  3
*U232
  1

  0
TEXT
  5
24FAD
  8
0
 10
2.960252587020249
 20
0.6772989443436474
 30
0.0
 40
0.125
  1
Lattice
  0
TEXT
  5
24FAE
  8
0
 10
2.960252587020249
 20
0.468965611010314
 30
0.0
 40
0.125
  1
TL-266
  0
TEXT
  5
24FAF
  8
0
 10
2.960252587020249
 20
0.2606322776769806
 30
0.0
 40
0.125
  1
1/4" x 1-5/8"
  0
TEXT
  5
24FB0
  8
0
 10
2.960252587020249
 20
0.0522989443436472
 30
0.0
 40
0.125
  1
800.66.TAGUE
  0
ENDBLK
  5
24FB2
  8
0
  0
BLOCK
  8
0
  2
*U233
 70
     1
 10
0.0
 20
0.0
 30
0.0
  3
*U233
  1

  0
TEXT
  5
24FB4
  8
0
 10
2.5177643903332401
 20
0.6772985360157691
 30
0.0
 40
0.125
  1
Lattice
  0
TEXT
  5
24FB5
  8
0
 10
2.5177643903332401
 20
0.4689652026824358
 30
0.0
 40
0.125
  1
TL-267
  0
TEXT
  5
24FB6
  8
0
 10
2.5177643903332401
 20
0.2606318693491024
 30
0.0
 40
0.125
  1
1/4" x 1-3/8"
  0
TEXT
  5
24FB7
  8
0
 10
2.5177643903332401
 20
0.0522985360157691
 30
0.0
 40
0.125
  1
800.66.TAGUE
  0
ENDBLK
  5
24FB9
  8
0
  0
BLOCK
  8
0
  2
*U234
 70
     1
 10
0.0
 20
0.0
 30
0.0
  3
*U234
  1

  0
TEXT
  5
24FBB
  8
0
 10
2.3872073702682419
 20
0.6772987437404936
 30
0.0
 40
0.125
  1
Lattice
  0
TEXT
  5
24FBC
  8
0
 10
2.3872073702682419
 20
0.4689654104071603
 30
0.0
 40
0.125
  1
TL-268
  0
TEXT
  5
24FBD
  8
0
 10
2.3872073702682419
 20
0.260632077073827
 30
0.0
 40
0.125
  1
1/4" x 1-1/8"
  0
TEXT
  5
24FBE
  8
0
 10
2.3872073702682419
 20
0.0522987437404936
 30
0.0
 40
0.125
  1
800.66.TAGUE
  0
ENDBLK
  5
24FC0
  8
0
  0
BLOCK
  8
0
  2
*U235
 70
     1
 10
0.0
 20
0.0
 30
0.0
  3
*U235
  1

  0
TEXT
  5
24FC2
  8
0
 10
1.7198452767448771
 20
0.6772982915522335
 30
0.0
 40
0.125
  1
Lattice
  0
TEXT
  5
24FC3
  8
0
 10
1.7198452767448771
 20
0.4689649582189002
 30
0.0
 40
0.125
  1
TL-269
  0
TEXT
  5
24FC4
  8
0
 10
1.7198452767448771
 20
0.2606316248855668
 30
0.0
 40
0.125
  1
1/4" x 3/4"
  0
TEXT
  5
24FC5
  8
0
 10
1.7198452767448771
 20
0.0522982915522334
 30
0.0
 40
0.125
  1
800.66.TAGUE
  0
ENDBLK
  5
24FC7
  8
0
  0
BLOCK
  8
0
  2
*U236
 70
     1
 10
0.0
 20
0.0
 30
0.0
  3
*U236
  1

  0
TEXT
  5
24FC9
  8
0
 10
2.0085733028087129
 20
0.6772989387914095
 30
0.0
 40
0.125
  1
Lattice
  0
TEXT
  5
24FCA
  8
0
 10
2.0085733028087129
 20
0.4689656054580762
 30
0.0
 40
0.125
  1
TL-270
  0
TEXT
  5
24FCB
  8
0
 10
2.0085733028087129
 20
0.2606322721247428
 30
0.0
 40
0.125
  1
1/4" x 7/8"
  0
TEXT
  5
24FCC
  8
0
 10
2.0085733028087129
 20
0.0522989387914095
 30
0.0
 40
0.125
  1
800.66.TAGUE
  0
ENDBLK
  5
24FCE
  8
0
  0
BLOCK
  8
0
  2
*U237
 70
     1
 10
0.0
 20
0.0
 30
0.0
  3
*U237
  1

  0
TEXT
  5
24FD0
  8
0
 10
2.940701223973178
 20
0.6772980715210224
 30
0.0
 40
0.125
  1
Lattice
  0
TEXT
  5
24FD1
  8
0
 10
2.940701223973178
 20
0.4689647381876891
 30
0.0
 40
0.125
  1
TL-962
  0
TEXT
  5
24FD2
  8
0
 10
2.940701223973178
 20
0.2606314048543558
 30
0.0
 40
0.125
  1
1/4" x 2"
  0
TEXT
  5
24FD3
  8
0
 10
2.940701223973178
 20
0.0522980715210224
 30
0.0
 40
0.125
  1
800.66.TAGUE
  0
ENDBLK
  5
24FD5
  8
0
  0
BLOCK
  8
0
  2
*U238
 70
     1
 10
0.0
 20
0.0
 30
0.0
  3
*U238
  1

  0
TEXT
  5
24FD7
  8
0
 10
1.983768624240724
 20
1.1498699559202801
 30
0.0
 40
0.125
  1
Lip Moulding
  0
TEXT
  5
24FD8
  8
0
 10
1.983768624240724
 20
0.9415366225869473
 30
0.0
 40
0.125
  1
TL-18
  0
TEXT
  5
24FD9
  8
0
 10
1.983768624240724
 20
0.7332032892536139
 30
0.0
 40
0.125
  1
3/4" x 1-15/16"
  0
TEXT
  5
24FDA
  8
0
 10
1.983768624240724
 20
0.5248699559202806
 30
0.0
 40
0.125
  1
800.66.TAGUE
  0
ENDBLK
  5
24FDC
  8
0
  0
BLOCK
  8
0
  2
*U239
 70
     1
 10
0.0
 20
0.0
 30
0.0
  3
*U239
  1

  0
TEXT
  5
24FDE
  8
0
 10
2.2853728967398861
 20
1.2855052394233999
 30
0.0
 40
0.125
  1
Lip Moulding
  0
TEXT
  5
24FDF
  8
0
 10
2.2853728967398861
 20
1.0771719060900671
 30
0.0
 40
0.125
  1
TL-530
  0
TEXT
  5
24FE0
  8
0
 10
2.2853728967398861
 20
0.8688385727567342
 30
0.0
 40
0.125
  1
5/8" x 1-5/8"
  0
TEXT
  5
24FE1
  8
0
 10
2.2853728967398861
 20
0.6605052394234008
 30
0.0
 40
0.125
  1
800.66.TAGUE
  0
ENDBLK
  5
24FE3
  8
0
  0
BLOCK
  8
0
  2
*U240
 70
     1
 10
0.0
 20
0.0
 30
0.0
  3
*U240
  1

  0
TEXT
  5
24FE5
  8
0
 10
2.269200201813987
 20
1.1997502285778401
 30
0.0
 40
0.125
  1
Lip Moulding
  0
TEXT
  5
24FE6
  8
0
 10
2.269200201813987
 20
0.9914168952445077
 30
0.0
 40
0.125
  1
TL-532
  0
TEXT
  5
24FE7
  8
0
 10
2.269200201813987
 20
0.7830835619111745
 30
0.0
 40
0.125
  1
3/4" x 1-3/4"
  0
TEXT
  5
24FE8
  8
0
 10
2.269200201813987
 20
0.574750228577841
 30
0.0
 40
0.125
  1
800.66.TAGUE
  0
ENDBLK
  5
24FEA
  8
0
  0
BLOCK
  8
0
  2
*U241
 70
     1
 10
0.0
 20
0.0
 30
0.0
  3
*U241
  1

  0
TEXT
  5
24FEC
  8
0
 10
1.8892783014391621
 20
1.241449235052527
 30
0.0
 40
0.125
  1
Lip Moulding
  0
TEXT
  5
24FED
  8
0
 10
1.8892783014391621
 20
1.033115901719194
 30
0.0
 40
0.125
  1
TL-2169
  0
TEXT
  5
24FEE
  8
0
 10
1.8892783014391621
 20
0.8247825683858613
 30
0.0
 40
0.125
  1
11/16" x 1-7/8"
  0
TEXT
  5
24FEF
  8
0
 10
1.8892783014391621
 20
0.6164492350525279
 30
0.0
 40
0.125
  1
800.66.TAGUE
  0
ENDBLK
  5
24FF1
  8
0
  0
BLOCK
  8
0
  2
*U242
 70
     1
 10
0.0
 20
0.0
 30
0.0
  3
*U242
  1

  0
TEXT
  5
24FF3
  8
0
 10
1.620143794977025
 20
1.0038028284741349
 30
0.0
 40
0.125
  1
Lip Moulding
  0
TEXT
  5
24FF4
  8
0
 10
1.620143794977025
 20
0.7954694951408026
 30
0.0
 40
0.125
  1
TL-2179
  0
TEXT
  5
24FF5
  8
0
 10
1.620143794977025
 20
0.5871361618074693
 30
0.0
 40
0.125
  1
3/4" x 1-1/4"
  0
TEXT
  5
24FF6
  8
0
 10
1.620143794977025
 20
0.3788028284741358
 30
0.0
 40
0.125
  1
800.66.TAGUE
  0
ENDBLK
  5
24FF8
  8
0
  0
BLOCK
  8
0
  2
*U243
 70
     1
 10
0.0
 20
0.0
 30
0.0
  3
*U243
  1

  0
TEXT
  5
24FFA
  8
0
 10
1.9163743563030939
 20
1.019442403193352
 30
0.0
 40
0.125
  1
Lip Moulding
  0
TEXT
  5
24FFB
  8
0
 10
1.9163743563030939
 20
0.811109069860019
 30
0.0
 40
0.125
  1
TL-2181
  0
TEXT
  5
24FFC
  8
0
 10
1.9163743563030939
 20
0.6027757365266857
 30
0.0
 40
0.125
  1
3/4" x 1-11/16"
  0
TEXT
  5
24FFD
  8
0
 10
1.9163743563030939
 20
0.3944424031933522
 30
0.0
 40
0.125
  1
800.66.TAGUE
  0
ENDBLK
  5
24FFF
  8
0
  0
BLOCK
  8
0
  2
*U244
 70
     1
 10
0.0
 20
0.0
 30
0.0
  3
*U244
  1

  0
TEXT
  5
25001
  8
0
 10
2.0010341316657332
 20
0.9876257387668374
 30
0.0
 40
0.125
  1
Lip Moulding
  0
TEXT
  5
25002
  8
0
 10
2.0010341316657332
 20
0.7792924054335043
 30
0.0
 40
0.125
  1
TL-2211
  0
TEXT
  5
25003
  8
0
 10
2.0010341316657332
 20
0.5709590721001709
 30
0.0
 40
0.125
  1
1" x 1-15/32"
  0
TEXT
  5
25004
  8
0
 10
2.0010341316657332
 20
0.3626257387668375
 30
0.0
 40
0.125
  1
800.66.TAGUE
  0
ENDBLK
  5
25006
  8
0
  0
BLOCK
  8
0
  2
*U245
 70
     1
 10
0.0
 20
0.0
 30
0.0
  3
*U245
  1

  0
TEXT
  5
25008
  8
0
 10
1.9547841412725111
 20
1.2443911534714971
 30
0.0
 40
0.125
  1
Lip Mldg
  0
TEXT
  5
25009
  8
0
 10
1.9547841412725111
 20
1.0360578201381629
 30
0.0
 40
0.125
  1
TL-2302
  0
TEXT
  5
2500A
  8
0
 10
1.9547841412725111
 20
0.8277244868048304
 30
0.0
 40
0.125
  1
13/16" x 1-3/4"
  0
TEXT
  5
2500B
  8
0
 10
1.9547841412725111
 20
0.6193911534714971
 30
0.0
 40
0.125
  1
800.66.TAGUE
  0
ENDBLK
  5
2500D
  8
0
  0
BLOCK
  8
0
  2
*U246
 70
     1
 10
0.0
 20
0.0
 30
0.0
  3
*U246
  1

  0
TEXT
  5
2500F
  8
0
 10
1.971391504344296
 20
2.3593485866246051
 30
0.0
 40
0.125
  1
Mantle Moulding
  0
TEXT
  5
25010
  8
0
 10
1.971391504344296
 20
2.1510152532912721
 30
0.0
 40
0.125
  1
TL-9
  0
TEXT
  5
25011
  8
0
 10
1.971391504344296
 20
1.942681919957939
 30
0.0
 40
0.125
  1
1-5/8" x 5-1/8"
  0
TEXT
  5
25012
  8
0
 10
1.971391504344296
 20
1.7343485866246049
 30
0.0
 40
0.125
  1
800.66.TAGUE
  0
ENDBLK
  5
25014
  8
0
  0
BLOCK
  8
0
  2
*U247
 70
     1
 10
0.0
 20
0.0
 30
0.0
  3
*U247
  1

  0
TEXT
  5
25016
  8
0
 10
1.824484143033146
 20
2.7467482000251939
 30
0.0
 40
0.125
  1
Mantle Moulding
  0
TEXT
  5
25017
  8
0
 10
1.824484143033146
 20
2.5384148666918609
 30
0.0
 40
0.125
  1
TL-10
  0
TEXT
  5
25018
  8
0
 10
1.824484143033146
 20
2.3300815333585279
 30
0.0
 40
0.125
  1
1-3/8" x 5"
  0
TEXT
  5
25019
  8
0
 10
1.824484143033146
 20
2.1217482000251939
 30
0.0
 40
0.125
  1
800.66.TAGUE
  0
ENDBLK
  5
2501B
  8
0
  0
BLOCK
  8
0
  2
*U248
 70
     1
 10
0.0
 20
0.0
 30
0.0
  3
*U248
  1

  0
TEXT
  5
2501D
  8
0
 10
1.778440342841463
 20
0.6794305349126262
 30
0.0
 40
0.125
  1
Mantle Shelf
  0
TEXT
  5
2501E
  8
0
 10
1.778440342841463
 20
0.4710972015792928
 30
0.0
 40
0.125
  1
TL-2184
  0
TEXT
  5
2501F
  8
0
 10
1.778440342841463
 20
0.2627638682459594
 30
0.0
 40
0.125
  1
1-1/4" x 5-1/2"
  0
TEXT
  5
25020
  8
0
 10
1.778440342841463
 20
0.0544305349126262
 30
0.0
 40
0.125
  1
800.66.TAGUE
  0
ENDBLK
  5
25022
  8
0
  0
BLOCK
  8
0
  2
*U249
 70
     1
 10
0.0
 20
0.0
 30
0.0
  3
*U249
  1

  0
TEXT
  5
25024
  8
0
 10
2.009611089016857
 20
0.679430549910876
 30
0.0
 40
0.125
  1
Mantle Shelf
  0
TEXT
  5
25025
  8
0
 10
2.009611089016857
 20
0.4710972165775426
 30
0.0
 40
0.125
  1
TL-2185
  0
TEXT
  5
25026
  8
0
 10
2.009611089016857
 20
0.2627638832442092
 30
0.0
 40
0.125
  1
1-1/2" x 5-1/2"
  0
TEXT
  5
25027
  8
0
 10
2.009611089016857
 20
0.0544305499108759
 30
0.0
 40
0.125
  1
800.66.TAGUE
  0
ENDBLK
  5
25029
  8
0
  0
BLOCK
  8
0
  2
*U250
 70
     1
 10
0.0
 20
0.0
 30
0.0
  3
*U250
  1

  0
TEXT
  5
2502B
  8
0
 62
     0
 10
-367.02425303528412
 20
426.35429858331162
 30
0.0
 40
0.125
  1
1
 50
90.0
  0
TEXT
  5
2502C
  8
0
 62
     0
 10
-367.10758636861738
 20
426.43763191664488
 30
0.0
 40
0.125
  1
3
 50
90.0
  0
LINE
  5
2502D
  8
0
 62
     0
 10
-367.08675303528412
 20
426.43763191664488
 30
0.0
 11
-367.08675303528412
 21
426.52096524997819
 31
0.0
  0
TEXT
  5
2502E
  8
0
 62
     0
 10
-366.9409197019508
 20
426.43763191664488
 30
0.0
 40
0.125
  1
4
 50
90.0
  0
TEXT
  5
2502F
  8
0
 62
     0
 10
-367.02425303528412
 20
426.56263191664482
 30
0.0
 40
0.125
  1
"
 50
90.0
  0
ENDBLK
  5
25031
  8
0
  0
BLOCK
  8
0
  2
*U251
 70
     1
 10
0.0
 20
0.0
 30
0.0
  3
*U251
  1

  0
TEXT
  5
25033
  8
0
 62
     0
 10
-364.19000805364777
 20
425.28877174148101
 30
0.0
 40
0.125
  1
7
  0
LINE
  5
25034
  8
0
 62
     0
 10
-364.19000805364777
 20
425.2679384081477
 30
0.0
 11
-364.10667472031452
 21
425.2679384081477
 31
0.0
  0
TEXT
  5
25035
  8
0
 62
     0
 10
-364.19000805364777
 20
425.12210507481433
 30
0.0
 40
0.125
  1
8
  0
TEXT
  5
25036
  8
0
 62
     0
 10
-364.06500805364777
 20
425.2054384081477
 30
0.0
 40
0.125
  1
"
  0
ENDBLK
  5
25038
  8
0
  0
BLOCK
  8
0
  2
*U252
 70
     1
 10
0.0
 20
0.0
 30
0.0
  3
*U252
  1

  0
TEXT
  5
2503A
  8
0
 62
     0
 10
-363.14629495961572
 20
426.36117705424232
 30
0.0
 40
0.125
  1
1
 50
90.0
  0
TEXT
  5
2503B
  8
0
 62
     0
 10
-363.22962829294897
 20
426.46534372090889
 30
0.0
 40
0.125
  1
1
 50
90.0
  0
LINE
  5
2503C
  8
0
 62
     0
 10
-363.20879495961572
 20
426.44451038757558
 30
0.0
 11
-363.20879495961572
 21
426.52784372090889
 31
0.0
  0
TEXT
  5
2503D
  8
0
 62
     0
 10
-363.06296162628229
 20
426.44451038757558
 30
0.0
 40
0.125
  1
2
 50
90.0
  0
TEXT
  5
2503E
  8
0
 62
     0
 10
-363.14629495961572
 20
426.56951038757558
 30
0.0
 40
0.125
  1
"
 50
90.0
  0
ENDBLK
  5
25040
  8
0
  0
BLOCK
  8
0
  2
*U253
 70
     1
 10
0.0
 20
0.0
 30
0.0
  3
*U253
  1

  0
TEXT
  5
25042
  8
0
 62
     0
 10
-387.96524739614358
 20
838.7451809866343
 30
0.0
 40
0.125
  1
1
 50
90.0
  0
TEXT
  5
25043
  8
0
 62
     0
 10
-388.0485807294769
 20
838.82851431996767
 30
0.0
 40
0.125
  1
3
 50
90.0
  0
LINE
  5
25044
  8
0
 62
     0
 10
-388.02774739614358
 20
838.82851431996767
 30
0.0
 11
-388.02774739614358
 21
838.91184765330104
 31
0.0
  0
TEXT
  5
25045
  8
0
 62
     0
 10
-387.88191406281032
 20
838.82851431996767
 30
0.0
 40
0.125
  1
4
 50
90.0
  0
TEXT
  5
25046
  8
0
 62
     0
 10
-387.96524739614358
 20
838.95351431996755
 30
0.0
 40
0.125
  1
"
 50
90.0
  0
ENDBLK
  5
25048
  8
0
  0
BLOCK
  8
0
  2
*U254
 70
     1
 10
0.0
 20
0.0
 30
0.0
  3
*U254
  1

  0
TEXT
  5
2504A
  8
0
 62
     0
 10
-385.13236667098761
 20
837.67914254862364
 30
0.0
 40
0.125
  1
7
  0
LINE
  5
2504B
  8
0
 62
     0
 10
-385.13236667098761
 20
837.65830921529016
 30
0.0
 11
-385.04903333765429
 21
837.65830921529016
 31
0.0
  0
TEXT
  5
2504C
  8
0
 62
     0
 10
-385.13236667098761
 20
837.51247588195702
 30
0.0
 40
0.125
  1
8
  0
TEXT
  5
2504D
  8
0
 62
     0
 10
-385.00736667098761
 20
837.59580921529039
 30
0.0
 40
0.125
  1
"
  0
ENDBLK
  5
2504F
  8
0
  0
BLOCK
  8
0
  2
*U255
 70
     1
 10
0.0
 20
0.0
 30
0.0
  3
*U255
  1

  0
TEXT
  5
25051
  8
0
 62
     0
 10
-384.08814198077528
 20
838.75205945756488
 30
0.0
 40
0.125
  1
1
 50
90.0
  0
TEXT
  5
25052
  8
0
 62
     0
 10
-384.1714753141087
 20
838.85622612423163
 30
0.0
 40
0.125
  1
1
 50
90.0
  0
LINE
  5
25053
  8
0
 62
     0
 10
-384.15064198077539
 20
838.83539279089825
 30
0.0
 11
-384.15064198077539
 21
838.91872612423185
 31
0.0
  0
TEXT
  5
25054
  8
0
 62
     0
 10
-384.00480864744202
 20
838.83539279089825
 30
0.0
 40
0.125
  1
2
 50
90.0
  0
TEXT
  5
25055
  8
0
 62
     0
 10
-384.08814198077528
 20
838.96039279089837
 30
0.0
 40
0.125
  1
"
 50
90.0
  0
ENDBLK
  5
25057
  8
0
  0
BLOCK
  8
0
  2
*U256
 70
     1
 10
0.0
 20
0.0
 30
0.0
  3
*U256
  1

  0
TEXT
  5
25059
  8
0
 62
     0
 10
-323.13119819751643
 20
425.11559169813461
 30
0.0
 40
0.125
  1
1
 50
90.0
  0
TEXT
  5
2505A
  8
0
 62
     0
 10
-323.2145315308498
 20
425.19892503146798
 30
0.0
 40
0.125
  1
3
 50
90.0
  0
LINE
  5
2505B
  8
0
 62
     0
 10
-323.19369819751643
 20
425.19892503146798
 30
0.0
 11
-323.19369819751643
 21
425.28225836480118
 31
0.0
  0
TEXT
  5
2505C
  8
0
 62
     0
 10
-323.04786486418311
 20
425.19892503146798
 30
0.0
 40
0.125
  1
4
 50
90.0
  0
TEXT
  5
2505D
  8
0
 62
     0
 10
-323.13119819751643
 20
425.32392503146792
 30
0.0
 40
0.125
  1
"
 50
90.0
  0
ENDBLK
  5
2505F
  8
0
  0
BLOCK
  8
0
  2
*U257
 70
     1
 10
0.0
 20
0.0
 30
0.0
  3
*U257
  1

  0
TEXT
  5
25061
  8
0
 62
     0
 10
-318.6214997668344
 20
425.11559169813461
 30
0.0
 40
0.125
  1
1
 50
90.0
  0
TEXT
  5
25062
  8
0
 62
     0
 10
-318.70483310016772
 20
425.19892503146798
 30
0.0
 40
0.125
  1
3
 50
90.0
  0
LINE
  5
25063
  8
0
 62
     0
 10
-318.6839997668344
 20
425.19892503146798
 30
0.0
 11
-318.6839997668344
 21
425.28225836480118
 31
0.0
  0
TEXT
  5
25064
  8
0
 62
     0
 10
-318.53816643350109
 20
425.19892503146798
 30
0.0
 40
0.125
  1
8
 50
90.0
  0
TEXT
  5
25065
  8
0
 62
     0
 10
-318.6214997668344
 20
425.32392503146792
 30
0.0
 40
0.125
  1
"
 50
90.0
  0
ENDBLK
  5
25067
  8
0
  0
BLOCK
  8
0
  2
*U258
 70
     1
 10
0.0
 20
0.0
 30
0.0
  3
*U258
  1

  0
TEXT
  5
25069
  8
0
 62
     0
 10
-387.56461450221548
 20
838.89288512488679
 30
0.0
 40
0.125
  1
1
 50
90.0
  0
TEXT
  5
2506A
  8
0
 62
     0
 10
-387.64794783554891
 20
838.97621845822005
 30
0.0
 40
0.125
  1
3
 50
90.0
  0
LINE
  5
2506B
  8
0
 62
     0
 10
-387.62711450221559
 20
838.97621845822005
 30
0.0
 11
-387.62711450221559
 21
839.05955179155353
 31
0.0
  0
TEXT
  5
2506C
  8
0
 62
     0
 10
-387.48128116888222
 20
838.97621845822005
 30
0.0
 40
0.125
  1
4
 50
90.0
  0
TEXT
  5
2506D
  8
0
 62
     0
 10
-387.56461450221548
 20
839.10121845822005
 30
0.0
 40
0.125
  1
"
 50
90.0
  0
ENDBLK
  5
2506F
  8
0
  0
BLOCK
  8
0
  2
*U259
 70
     1
 10
0.0
 20
0.0
 30
0.0
  3
*U259
  1

  0
TEXT
  5
25071
  8
0
 62
     0
 10
-383.05359444806828
 20
838.89288512488679
 30
0.0
 40
0.125
  1
1
 50
90.0
  0
TEXT
  5
25072
  8
0
 62
     0
 10
-383.13692778140171
 20
838.97621845822005
 30
0.0
 40
0.125
  1
3
 50
90.0
  0
LINE
  5
25073
  8
0
 62
     0
 10
-383.1160944480684
 20
838.97621845822005
 30
0.0
 11
-383.1160944480684
 21
839.05955179155353
 31
0.0
  0
TEXT
  5
25074
  8
0
 62
     0
 10
-382.97026111473502
 20
838.97621845822005
 30
0.0
 40
0.125
  1
8
 50
90.0
  0
TEXT
  5
25075
  8
0
 62
     0
 10
-383.05359444806828
 20
839.10121845822005
 30
0.0
 40
0.125
  1
"
 50
90.0
  0
ENDBLK
  5
25077
  8
0
  0
BLOCK
  8
0
  2
*U260
 70
     1
 10
0.0
 20
0.0
 30
0.0
  3
*U260
  1

  0
TEXT
  5
25079
  8
0
 10
1.872123119890716
 20
0.7588046473348414
 30
0.0
 40
0.125
  1
Nosing & Cove
  0
TEXT
  5
2507A
  8
0
 10
1.872123119890716
 20
0.5504713140015081
 30
0.0
 40
0.125
  1
TL-20
  0
TEXT
  5
2507B
  8
0
 10
1.872123119890716
 20
0.3421379806681747
 30
0.0
 40
0.125
  1
3/4" x 1-5/16"
  0
TEXT
  5
2507C
  8
0
 10
1.872123119890716
 20
0.1338046473348413
 30
0.0
 40
0.125
  1
800.66.TAGUE
  0
ENDBLK
  5
2507E
  8
0
  0
BLOCK
  8
0
  2
*U261
 70
     1
 10
0.0
 20
0.0
 30
0.0
  3
*U261
  1

  0
TEXT
  5
25080
  8
0
 10
1.914126813415123
 20
0.8585704022782466
 30
0.0
 40
0.125
  1
Nosing & Cove
  0
TEXT
  5
25081
  8
0
 10
1.914126813415123
 20
0.6502370689449134
 30
0.0
 40
0.125
  1
TL-21
  0
TEXT
  5
25082
  8
0
 10
1.914126813415123
 20
0.44190373561158
 30
0.0
 40
0.125
  1
1-1/8" x 1-3/4"
  0
TEXT
  5
25083
  8
0
 10
1.914126813415123
 20
0.2335704022782465
 30
0.0
 40
0.125
  1
800.66.TAGUE
  0
ENDBLK
  5
25085
  8
0
  0
BLOCK
  8
0
  2
*U262
 70
     1
 10
0.0
 20
0.0
 30
0.0
  3
*U262
  1

  0
TEXT
  5
25087
  8
0
 10
2.1633643582791811
 20
1.2559710060997979
 30
0.0
 40
0.125
  1
Nosing & Cove
  0
TEXT
  5
25088
  8
0
 10
2.1633643582791811
 20
1.0476376727664649
 30
0.0
 40
0.125
  1
TL-22
  0
TEXT
  5
25089
  8
0
 10
2.1633643582791811
 20
0.839304339433132
 30
0.0
 40
0.125
  1
1-5/16" x 2-1/4"
  0
TEXT
  5
2508A
  8
0
 10
2.1633643582791811
 20
0.6309710060997987
 30
0.0
 40
0.125
  1
800.66.TAGUE
  0
ENDBLK
  5
2508C
  8
0
  0
BLOCK
  8
0
  2
*U263
 70
     1
 10
0.0
 20
0.0
 30
0.0
  3
*U263
  1

  0
TEXT
  5
2508E
  8
0
 10
1.1386258441601731
 20
1.192489029325315
 30
0.0
 40
0.125
  1
Nosing & Cove
  0
TEXT
  5
2508F
  8
0
 10
1.1386258441601731
 20
0.9841556959919824
 30
0.0
 40
0.125
  1
TL-2256
  0
TEXT
  5
25090
  8
0
 10
1.1386258441601731
 20
0.7758223626586491
 30
0.0
 40
0.125
  1
5/8" x 1-1/2"
  0
TEXT
  5
25091
  8
0
 10
1.1386258441601731
 20
0.5674890293253158
 30
0.0
 40
0.125
  1
800.66.TAGUE
  0
ENDBLK
  5
25093
  8
0
  0
BLOCK
  8
0
  2
*U264
 70
     1
 10
0.0
 20
0.0
 30
0.0
  3
*U264
  1

  0
TEXT
  5
25095
  8
0
 10
0.8465252202594228
 20
0.679429976342135
 30
0.0
 40
0.125
  1
Nosing & Cove
  0
TEXT
  5
25096
  8
0
 10
0.8465252202594228
 20
0.4710966430088017
 30
0.0
 40
0.125
  1
TL-2257
  0
TEXT
  5
25097
  8
0
 10
0.8465252202594228
 20
0.2627633096754684
 30
0.0
 40
0.125
  1
5/16" x 1/2"
  0
TEXT
  5
25098
  8
0
 10
0.8465252202594228
 20
0.054429976342135
 30
0.0
 40
0.125
  1
800.66.TAGUE
  0
ENDBLK
  5
2509A
  8
0
  0
BLOCK
  8
0
  2
*U265
 70
     1
 10
0.0
 20
0.0
 30
0.0
  3
*U265
  1

  0
TEXT
  5
2509C
  8
0
 10
2.3806405474079488
 20
1.3133539302667709
 30
0.0
 40
0.125
  1
Ogee
  0
TEXT
  5
2509D
  8
0
 10
2.3806405474079488
 20
1.1050205969334379
 30
0.0
 40
0.125
  1
TL-16
  0
TEXT
  5
2509E
  8
0
 10
2.3806405474079488
 20
0.8966872636001046
 30
0.0
 40
0.125
  1
1-3/8" x 2"
  0
TEXT
  5
2509F
  8
0
 10
2.3806405474079488
 20
0.6883539302667714
 30
0.0
 40
0.125
  1
800.66.TAGUE
  0
ENDBLK
  5
250A1
  8
0
  0
BLOCK
  8
0
  2
*U266
 70
     1
 10
0.0
 20
0.0
 30
0.0
  3
*U266
  1

  0
TEXT
  5
250B4
  8
0
 10
2.7261344289668719
 20
1.6601320963039821
 30
0.0
 40
0.125
  1
Ogee
  0
TEXT
  5
250B5
  8
0
 10
2.7261344289668719
 20
1.451798762970649
 30
0.0
 40
0.125
  1
TL-17
  0
TEXT
  5
250B6
  8
0
 10
2.7261344289668719
 20
1.2434654296373151
 30
0.0
 40
0.125
  1
2-5/16" x 1-7/8"
  0
TEXT
  5
250B7
  8
0
 10
2.7261344289668719
 20
1.0351320963039821
 30
0.0
 40
0.125
  1
800.66.TAGUE
  0
ENDBLK
  5
250B9
  8
0
  0
BLOCK
  8
0
  2
*U267
 70
     1
 10
0.0
 20
0.0
 30
0.0
  3
*U267
  1

  0
TEXT
  5
250BB
  8
0
 10
1.8303727118446309
 20
0.9120296408366357
 30
0.0
 40
0.125
  1
Ogee
  0
TEXT
  5
250BC
  8
0
 10
1.8303727118446309
 20
0.7036963075033026
 30
0.0
 40
0.125
  1
TL-166
  0
TEXT
  5
250BD
  8
0
 10
1.8303727118446309
 20
0.4953629741699692
 30
0.0
 40
0.125
  1
11/16" x 1-1/4"
  0
TEXT
  5
250BE
  8
0
 10
1.8303727118446309
 20
0.2870296408366357
 30
0.0
 40
0.125
  1
800.66.TAGUE
  0
ENDBLK
  5
250C0
  8
0
  0
BLOCK
  8
0
  2
*U268
 70
     1
 10
0.0
 20
0.0
 30
0.0
  3
*U268
  1

  0
TEXT
  5
250C2
  8
0
 10
1.573032674973148
 20
0.835411988577448
 30
0.0
 40
0.125
  1
Ogee
  0
TEXT
  5
250C3
  8
0
 10
1.573032674973148
 20
0.6270786552441149
 30
0.0
 40
0.125
  1
TL-167
  0
TEXT
  5
250C4
  8
0
 10
1.573032674973148
 20
0.4187453219107815
 30
0.0
 40
0.125
  1
11/16" x 7/8"
  0
TEXT
  5
250C5
  8
0
 10
1.573032674973148
 20
0.210411988577448
 30
0.0
 40
0.125
  1
800.66.TAGUE
  0
ENDBLK
  5
250C7
  8
0
  0
BLOCK
  8
0
  2
*U269
 70
     1
 10
0.0
 20
0.0
 30
0.0
  3
*U269
  1

  0
TEXT
  5
250C9
  8
0
 10
1.814825501310565
 20
1.0878383681827011
 30
0.0
 40
0.125
  1
Ogee Moulding
  0
TEXT
  5
250CA
  8
0
 10
1.814825501310565
 20
0.8795050348493685
 30
0.0
 40
0.125
  1
TL-2240
  0
TEXT
  5
250CB
  8
0
 10
1.814825501310565
 20
0.6711717015160352
 30
0.0
 40
0.125
  1
25/32" x 13/16"
  0
TEXT
  5
250CC
  8
0
 10
1.814825501310565
 20
0.4628383681827018
 30
0.0
 40
0.125
  1
800.66.TAGUE
  0
ENDBLK
  5
250CE
  8
0
  0
BLOCK
  8
0
  2
*U270
 70
     1
 10
0.0
 20
0.0
 30
0.0
  3
*U270
  1

  0
TEXT
  5
250D0
  8
0
 10
2.966704883543116
 20
1.2733224952305591
 30
0.0
 40
0.125
  1
Ogee Moulding
  0
TEXT
  5
250D1
  8
0
 10
2.966704883543116
 20
1.0649891618972249
 30
0.0
 40
0.125
  1
TL-2255
  0
TEXT
  5
250D2
  8
0
 10
2.966704883543116
 20
0.8566558285638924
 30
0.0
 40
0.125
  1
1-1/2" x 2-1/8"
  0
TEXT
  5
250D3
  8
0
 10
2.966704883543116
 20
0.6483224952305591
 30
0.0
 40
0.125
  1
800.66.TAGUE
  0
ENDBLK
  5
250D5
  8
0
  0
BLOCK
  8
0
  2
*U271
 70
     1
 10
0.0
 20
0.0
 30
0.0
  3
*U271
  1

  0
TEXT
  5
250D7
  8
0
 10
1.767740232165522
 20
0.6795164786933583
 30
0.0
 40
0.125
  1
Ogee
  0
TEXT
  5
250D8
  8
0
 10
1.767740232165522
 20
0.471183145360025
 30
0.0
 40
0.125
  1
TL-2280
  0
TEXT
  5
250D9
  8
0
 10
1.767740232165522
 20
0.2628498120266917
 30
0.0
 40
0.125
  1
1/2"  x 5/8"
  0
TEXT
  5
250DA
  8
0
 10
1.767740232165522
 20
0.0545164786933583
 30
0.0
 40
0.125
  1
800.66.TAGUE
  0
ENDBLK
  5
250DC
  8
0
  0
BLOCK
  8
0
  2
*U272
 70
     1
 10
0.0
 20
0.0
 30
0.0
  3
*U272
  1

  0
TEXT
  5
250DE
  8
0
 10
2.5765420776576198
 20
0.9513347006069352
 30
0.0
 40
0.125
  1
Ogee
  0
TEXT
  5
250DF
  8
0
 10
2.5765420776576198
 20
0.7430013672736021
 30
0.0
 40
0.125
  1
TL-2326
  0
TEXT
  5
250E0
  8
0
 10
2.5765420776576198
 20
0.5346680339402687
 30
0.0
 40
0.125
  1
1-3/4" x 1-13/32"
  0
TEXT
  5
250E1
  8
0
 10
2.5765420776576198
 20
0.3263347006069353
 30
0.0
 40
0.125
  1
800.66.TAGUE
  0
ENDBLK
  5
250E3
  8
0
  0
BLOCK
  8
0
  2
*U273
 70
     1
 10
0.0
 20
0.0
 30
0.0
  3
*U273
  1

  0
TEXT
  5
250E5
  8
0
 10
1.8232672208571321
 20
1.0097170300313101
 30
0.0
 40
0.125
  1
Panel Moulding
  0
TEXT
  5
250E6
  8
0
 10
1.8232672208571321
 20
0.8013836966979775
 30
0.0
 40
0.125
  1
TL-54
  0
TEXT
  5
250E7
  8
0
 10
1.8232672208571321
 20
0.5930503633646445
 30
0.0
 40
0.125
  1
5/8" x 1-3/8"
  0
TEXT
  5
250E8
  8
0
 10
1.8232672208571321
 20
0.384717030031311
 30
0.0
 40
0.125
  1
800.66.TAGUE
  0
ENDBLK
  5
250EA
  8
0
  0
BLOCK
  8
0
  2
*U274
 70
     1
 10
0.0
 20
0.0
 30
0.0
  3
*U274
  1

  0
TEXT
  5
250EC
  8
0
 10
1.6082414945508381
 20
0.8848429445537249
 30
0.0
 40
0.125
  1
Panel Moulding
  0
TEXT
  5
250ED
  8
0
 10
1.6082414945508381
 20
0.6765096112203916
 30
0.0
 40
0.125
  1
TL-56
  0
TEXT
  5
250EE
  8
0
 10
1.6082414945508381
 20
0.4681762778870584
 30
0.0
 40
0.125
  1
3/4" x 1-1/2"
  0
TEXT
  5
250EF
  8
0
 10
1.6082414945508381
 20
0.2598429445537249
 30
0.0
 40
0.125
  1
800.66.TAGUE
  0
ENDBLK
  5
250F1
  8
0
  0
BLOCK
  8
0
  2
*U275
 70
     1
 10
0.0
 20
0.0
 30
0.0
  3
*U275
  1

  0
TEXT
  5
250F3
  8
0
 10
1.430001145945198
 20
1.055442987142782
 30
0.0
 40
0.125
  1
Panel Moulding
  0
TEXT
  5
250F4
  8
0
 10
1.430001145945198
 20
0.8471096538094494
 30
0.0
 40
0.125
  1
TL-57
  0
TEXT
  5
250F5
  8
0
 10
1.430001145945198
 20
0.6387763204761163
 30
0.0
 40
0.125
  1
9/16" x 1-15/16"
  0
TEXT
  5
250F6
  8
0
 10
1.430001145945198
 20
0.4304429871427829
 30
0.0
 40
0.125
  1
800.66.TAGUE
  0
ENDBLK
  5
250F8
  8
0
  0
BLOCK
  8
0
  2
*U276
 70
     1
 10
0.0
 20
0.0
 30
0.0
  3
*U276
  1

  0
TEXT
  5
250FA
  8
0
 10
1.681303805809534
 20
1.2026941795735411
 30
0.0
 40
0.125
  1
Panel Moulding
  0
TEXT
  5
250FB
  8
0
 10
1.681303805809534
 20
0.9943608462402076
 30
0.0
 40
0.125
  1
TL-62
  0
TEXT
  5
250FC
  8
0
 10
1.681303805809534
 20
0.7860275129068745
 30
0.0
 40
0.125
  1
1" x 1-3/4"
  0
TEXT
  5
250FD
  8
0
 10
1.681303805809534
 20
0.5776941795735411
 30
0.0
 40
0.125
  1
800.66.TAGUE
  0
ENDBLK
  5
250FF
  8
0
  0
BLOCK
  8
0
  2
*U277
 70
     1
 10
0.0
 20
0.0
 30
0.0
  3
*U277
  1

  0
TEXT
  5
25101
  8
0
 10
2.133056331073703
 20
1.437235578786044
 30
0.0
 40
0.125
  1
Panel Moulding
  0
TEXT
  5
25102
  8
0
 10
2.133056331073703
 20
1.2289022454527101
 30
0.0
 40
0.125
  1
TL-64
  0
TEXT
  5
25103
  8
0
 10
2.133056331073703
 20
1.0205689121193771
 30
0.0
 40
0.125
  1
1-1/4" x 1-15/16"
  0
TEXT
  5
25104
  8
0
 10
2.133056331073703
 20
0.8122355787860442
 30
0.0
 40
0.125
  1
800.66.TAGUE
  0
ENDBLK
  5
25106
  8
0
  0
BLOCK
  8
0
  2
*U278
 70
     1
 10
0.0
 20
0.0
 30
0.0
  3
*U278
  1

  0
TEXT
  5
25108
  8
0
 10
1.6378445869512459
 20
1.1242484052883119
 30
0.0
 40
0.125
  1
Panel Moulding
  0
TEXT
  5
25109
  8
0
 10
1.6378445869512459
 20
0.9159150719549795
 30
0.0
 40
0.125
  1
TL-314
  0
TEXT
  5
2510A
  8
0
 10
1.6378445869512459
 20
0.7075817386216463
 30
0.0
 40
0.125
  1
3/4" x 1-3/8"
  0
TEXT
  5
2510B
  8
0
 10
1.6378445869512459
 20
0.4992484052883129
 30
0.0
 40
0.125
  1
800.66.TAGUE
  0
ENDBLK
  5
2510D
  8
0
  0
BLOCK
  8
0
  2
*U279
 70
     1
 10
0.0
 20
0.0
 30
0.0
  3
*U279
  1

  0
TEXT
  5
2510F
  8
0
 10
1.793042575215281
 20
1.3157146661659449
 30
0.0
 40
0.125
  1
Panel Moulding
  0
TEXT
  5
25110
  8
0
 10
1.793042575215281
 20
1.107381332832611
 30
0.0
 40
0.125
  1
TL-2032
  0
TEXT
  5
25111
  8
0
 10
1.793042575215281
 20
0.8990479994992785
 30
0.0
 40
0.125
  1
3/4" x 2"
  0
TEXT
  5
25112
  8
0
 10
1.793042575215281
 20
0.6907146661659454
 30
0.0
 40
0.125
  1
800.66.TAGUE
  0
ENDBLK
  5
25114
  8
0
  0
BLOCK
  8
0
  2
*U280
 70
     1
 10
0.0
 20
0.0
 30
0.0
  3
*U280
  1

  0
TEXT
  5
25116
  8
0
 10
1.8141185831191251
 20
0.8182814091084082
 30
0.0
 40
0.125
  1
Panel Moulding
  0
TEXT
  5
25117
  8
0
 10
1.8141185831191251
 20
0.6099480757750749
 30
0.0
 40
0.125
  1
TL-2016
  0
TEXT
  5
25118
  8
0
 10
1.8141185831191251
 20
0.4016147424417417
 30
0.0
 40
0.125
  1
15/16" x 1-11/16"
  0
TEXT
  5
25119
  8
0
 10
1.8141185831191251
 20
0.1932814091084083
 30
0.0
 40
0.125
  1
800.66.TAGUE
  0
ENDBLK
  5
2511B
  8
0
  0
BLOCK
  8
0
  2
*U281
 70
     1
 10
0.0
 20
0.0
 30
0.0
  3
*U281
  1

  0
TEXT
  5
2511D
  8
0
 10
1.6323248967152031
 20
0.9094451817165918
 30
0.0
 40
0.125
  1
Panel Moulding
  0
TEXT
  5
2511E
  8
0
 10
1.6323248967152031
 20
0.7011118483832585
 30
0.0
 40
0.125
  1
TL-2136
  0
TEXT
  5
2511F
  8
0
 10
1.6323248967152031
 20
0.4927785150499253
 30
0.0
 40
0.125
  1
21/32" x 1"
  0
TEXT
  5
25120
  8
0
 10
1.6323248967152031
 20
0.2844451817165918
 30
0.0
 40
0.125
  1
800.66.TAGUE
  0
ENDBLK
  5
25122
  8
0
  0
BLOCK
  8
0
  2
*U282
 70
     1
 10
0.0
 20
0.0
 30
0.0
  3
*U282
  1

  0
TEXT
  5
25124
  8
0
 10
1.417623633629318
 20
0.9199699342109398
 30
0.0
 40
0.125
  1
Panel Moulding
  0
TEXT
  5
25125
  8
0
 10
1.417623633629318
 20
0.7116366008776064
 30
0.0
 40
0.125
  1
TL-2198
  0
TEXT
  5
25126
  8
0
 10
1.417623633629318
 20
0.5033032675442732
 30
0.0
 40
0.125
  1
3/8" x 15/16"
  0
TEXT
  5
25127
  8
0
 10
1.417623633629318
 20
0.2949699342109397
 30
0.0
 40
0.125
  1
800.66.TAGUE
  0
ENDBLK
  5
25129
  8
0
  0
BLOCK
  8
0
  2
*U283
 70
     1
 10
0.0
 20
0.0
 30
0.0
  3
*U283
  1

  0
TEXT
  5
2512B
  8
0
 10
1.152367654636123
 20
0.6934204479599658
 30
0.0
 40
0.125
  1
Panel Moulding
  0
TEXT
  5
2512C
  8
0
 10
1.152367654636123
 20
0.4850871146266324
 30
0.0
 40
0.125
  1
TL-2068
  0
TEXT
  5
2512D
  8
0
 10
1.152367654636123
 20
0.276753781293299
 30
0.0
 40
0.125
  1
3/8" x 3/4"
  0
TEXT
  5
2512E
  8
0
 10
1.152367654636123
 20
0.0684204479599657
 30
0.0
 40
0.125
  1
800.66.TAGUE
  0
ENDBLK
  5
25130
  8
0
  0
BLOCK
  8
0
  2
*U284
 70
     1
 10
0.0
 20
0.0
 30
0.0
  3
*U284
  1

  0
TEXT
  5
25132
  8
0
 10
1.6525119768826919
 20
0.6772984067825975
 30
0.0
 40
0.125
  1
Panel Moulding
  0
TEXT
  5
25133
  8
0
 10
1.6525119768826919
 20
0.468965073449264
 30
0.0
 40
0.125
  1
TL-2074
  0
TEXT
  5
25134
  8
0
 10
1.6525119768826919
 20
0.2606317401159307
 30
0.0
 40
0.125
  1
1/2" x 17/32"
  0
TEXT
  5
25135
  8
0
 10
1.6525119768826919
 20
0.0522984067825974
 30
0.0
 40
0.125
  1
800.66.TAGUE
  0
ENDBLK
  5
25137
  8
0
  0
BLOCK
  8
0
  2
*U285
 70
     1
 10
0.0
 20
0.0
 30
0.0
  3
*U285
  1

  0
TEXT
  5
25139
  8
0
 10
1.2174996695814571
 20
0.677298529590189
 30
0.0
 40
0.125
  1
Panel Moulding
  0
TEXT
  5
2513A
  8
0
 10
1.2174996695814571
 20
0.4689651962568556
 30
0.0
 40
0.125
  1
TL-2178
  0
TEXT
  5
2513B
  8
0
 10
1.2174996695814571
 20
0.2606318629235224
 30
0.0
 40
0.125
  1
5/16" x 11/16"
  0
TEXT
  5
2513C
  8
0
 10
1.2174996695814571
 20
0.052298529590189
 30
0.0
 40
0.125
  1
800.66.TAGUE
  0
ENDBLK
  5
2513E
  8
0
  0
BLOCK
  8
0
  2
*U286
 70
     1
 10
0.0
 20
0.0
 30
0.0
  3
*U286
  1

  0
TEXT
  5
25140
  8
0
 10
1.621705506624266
 20
1.0164844833981299
 30
0.0
 40
0.125
  1
Panel Moulding
  0
TEXT
  5
25141
  8
0
 10
1.621705506624266
 20
0.8081511500647971
 30
0.0
 40
0.125
  1
TL-2237
  0
TEXT
  5
25142
  8
0
 10
1.621705506624266
 20
0.599817816731464
 30
0.0
 40
0.125
  1
3/4" x 1-1/2"
  0
TEXT
  5
25143
  8
0
 10
1.621705506624266
 20
0.3914844833981306
 30
0.0
 40
0.125
  1
800.66.TAGUE
  0
ENDBLK
  5
25145
  8
0
  0
BLOCK
  8
0
  2
*U287
 70
     1
 10
0.0
 20
0.0
 30
0.0
  3
*U287
  1

  0
TEXT
  5
25147
  8
0
 10
2.0683925889327379
 20
1.262249770558469
 30
0.0
 40
0.125
  1
Panel Moulding
  0
TEXT
  5
25148
  8
0
 10
2.0683925889327379
 20
1.0539164372251351
 30
0.0
 40
0.125
  1
TL-2239
  0
TEXT
  5
25149
  8
0
 10
2.0683925889327379
 20
0.8455831038918026
 30
0.0
 40
0.125
  1
27/32" x 1-7/8"
  0
TEXT
  5
2514A
  8
0
 10
2.0683925889327379
 20
0.6372497705584692
 30
0.0
 40
0.125
  1
800.66.TAGUE
  0
ENDBLK
  5
2514C
  8
0
  0
BLOCK
  8
0
  2
*U288
 70
     1
 10
0.0
 20
0.0
 30
0.0
  3
*U288
  1

  0
TEXT
  5
2514E
  8
0
 10
2.746924783524491
 20
2.4371414641403808
 30
0.0
 40
0.125
  1
Panel Moulding
  0
TEXT
  5
2514F
  8
0
 10
2.746924783524491
 20
2.2288081308070482
 30
0.0
 40
0.125
  1
TL-2241
  0
TEXT
  5
25150
  8
0
 10
2.746924783524491
 20
2.0204747974737152
 30
0.0
 40
0.125
  1
1-5/32" x 3-9/16"
  0
TEXT
  5
25151
  8
0
 10
2.746924783524491
 20
1.812141464140381
 30
0.0
 40
0.125
  1
800.66.TAGUE
  0
ENDBLK
  5
25153
  8
0
  0
BLOCK
  8
0
  2
*U289
 70
     1
 10
0.0
 20
0.0
 30
0.0
  3
*U289
  1

  0
TEXT
  5
25155
  8
0
 10
1.48967271797386
 20
1.0711974611003821
 30
0.0
 40
0.125
  1
Panel Moulding
  0
TEXT
  5
25156
  8
0
 10
1.48967271797386
 20
0.8628641277670491
 30
0.0
 40
0.125
  1
TL-2248
  0
TEXT
  5
25157
  8
0
 10
1.48967271797386
 20
0.6545307944337159
 30
0.0
 40
0.125
  1
7/8" x 1-7/8"
  0
TEXT
  5
25158
  8
0
 10
1.48967271797386
 20
0.4461974611003825
 30
0.0
 40
0.125
  1
800.66.TAGUE
  0
ENDBLK
  5
2515A
  8
0
  0
BLOCK
  8
0
  2
*U290
 70
     1
 10
0.0
 20
0.0
 30
0.0
  3
*U290
  1

  0
TEXT
  5
2515C
  8
0
 10
1.3774554366254961
 20
1.0325907140347681
 30
0.0
 40
0.125
  1
Panel Moulding
  0
TEXT
  5
2515D
  8
0
 10
1.3774554366254961
 20
0.8242573807014347
 30
0.0
 40
0.125
  1
TL-2259
  0
TEXT
  5
2515E
  8
0
 10
1.3774554366254961
 20
0.6159240473681015
 30
0.0
 40
0.125
  1
1/2" x 1-3/16"
  0
TEXT
  5
2515F
  8
0
 10
1.3774554366254961
 20
0.4075907140347681
 30
0.0
 40
0.125
  1
800.66.TAGUE
  0
ENDBLK
  5
25161
  8
0
  0
BLOCK
  8
0
  2
*U291
 70
     1
 10
0.0
 20
0.0
 30
0.0
  3
*U291
  1

  0
TEXT
  5
25163
  8
0
 10
1.4427956644998969
 20
1.4622105465398361
 30
0.0
 40
0.125
  1
Panel Moulding
  0
TEXT
  5
25164
  8
0
 10
1.4427956644998969
 20
1.2538772132065019
 30
0.0
 40
0.125
  1
TL-2260
  0
TEXT
  5
25165
  8
0
 10
1.4427956644998969
 20
1.0455438798731691
 30
0.0
 40
0.125
  1
1/2" x 1-13/16"
  0
TEXT
  5
25166
  8
0
 10
1.4427956644998969
 20
0.8372105465398362
 30
0.0
 40
0.125
  1
800.66.TAGUE
  0
ENDBLK
  5
25168
  8
0
  0
BLOCK
  8
0
  2
*U292
 70
     1
 10
0.0
 20
0.0
 30
0.0
  3
*U292
  1

  0
TEXT
  5
2516A
  8
0
 10
2.4257777135581469
 20
1.4688991231314501
 30
0.0
 40
0.125
  1
Panel Moulding
  0
TEXT
  5
2516B
  8
0
 10
2.4257777135581469
 20
1.260565789798116
 30
0.0
 40
0.125
  1
TL-2261
  0
TEXT
  5
2516C
  8
0
 10
2.4257777135581469
 20
1.0522324564647829
 30
0.0
 40
0.125
  1
13/16" x 2"
  0
TEXT
  5
2516D
  8
0
 10
2.4257777135581469
 20
0.8438991231314503
 30
0.0
 40
0.125
  1
800.66.TAGUE
  0
ENDBLK
  5
2516F
  8
0
  0
BLOCK
  8
0
  2
*U293
 70
     1
 10
0.0
 20
0.0
 30
0.0
  3
*U293
  1

  0
TEXT
  5
25171
  8
0
 10
2.5069500958813928
 20
0.7911043912140486
 30
0.0
 40
0.125
  1
Panel Moulding
  0
TEXT
  5
25172
  8
0
 10
2.5069500958813928
 20
0.5827710578807152
 30
0.0
 40
0.125
  1
TL-2270
  0
TEXT
  5
25173
  8
0
 10
2.5069500958813928
 20
0.3744377245473819
 30
0.0
 40
0.125
  1
11/16" x 15/16"
  0
TEXT
  5
25174
  8
0
 10
2.5069500958813928
 20
0.1661043912140485
 30
0.0
 40
0.125
  1
800.66.TAGUE
  0
ENDBLK
  5
25176
  8
0
  0
BLOCK
  8
0
  2
*U294
 70
     1
 10
0.0
 20
0.0
 30
0.0
  3
*U294
  1

  0
TEXT
  5
25178
  8
0
 62
     0
 10
-266.30534787530831
 20
273.59262856062833
 30
0.0
 40
0.125
  1
1
 50
90.0
  0
TEXT
  5
25179
  8
0
 62
     0
 10
-266.38868120864157
 20
273.71762856062833
 30
0.0
 40
0.125
  1
5
 50
90.0
  0
LINE
  5
2517A
  8
0
 62
     0
 10
-266.36784787530831
 20
273.6759618939617
 30
0.0
 11
-266.36784787530831
 21
273.84262856062833
 31
0.0
  0
TEXT
  5
2517B
  8
0
 62
     0
 10
-266.222014541975
 20
273.6759618939617
 30
0.0
 40
0.125
  1
16
 50
90.0
  0
TEXT
  5
2517C
  8
0
 62
     0
 10
-266.30534787530831
 20
273.88429522729501
 30
0.0
 40
0.125
  1
"
 50
90.0
  0
ENDBLK
  5
2517E
  8
0
  0
BLOCK
  8
0
  2
*U295
 70
     1
 10
0.0
 20
0.0
 30
0.0
  3
*U295
  1

  0
TEXT
  5
25180
  8
0
 62
     0
 10
-265.70247366384262
 20
273.99008194853201
 30
0.0
 40
0.125
  1
11
  0
LINE
  5
25181
  8
0
 62
     0
 10
-265.74414033050931
 20
273.96924861519869
 30
0.0
 11
-265.535806997176
 21
273.96924861519869
 31
0.0
  0
TEXT
  5
25182
  8
0
 62
     0
 10
-265.74414033050931
 20
273.82341528186532
 30
0.0
 40
0.125
  1
32
  0
TEXT
  5
25183
  8
0
 62
     0
 10
-265.49414033050931
 20
273.90674861519869
 30
0.0
 40
0.125
  1
"
  0
ENDBLK
  5
25185
  8
0
  0
BLOCK
  8
0
  2
*U296
 70
     1
 10
0.0
 20
0.0
 30
0.0
  3
*U296
  1

  0
TEXT
  5
25187
  8
0
 10
0.909015082031658
 20
0.6872605440269127
 30
0.0
 40
0.125
  1
Panel Mldg
  0
TEXT
  5
25188
  8
0
 10
0.909015082031658
 20
0.4789272106935793
 30
0.0
 40
0.125
  1
TL-2283
  0
TEXT
  5
25189
  8
0
 10
0.909015082031658
 20
0.3080938773602461
 30
0.0
 40
0.0875
  1
13
  0
LINE
  5
2518A
  8
0
 10
0.9900771438509416
 20
0.2364180734849593
 30
0.0
 11
1.0904530202123739
 21
0.3797696812355328
 31
0.0
  0
TEXT
  5
2518B
  8
0
 10
1.0548484153649911
 20
0.1914272106935794
 30
0.0
 40
0.0875
  1
16
  0
TEXT
  5
2518C
  8
0
 10
1.2006817486983239
 20
0.220593877360246
 30
0.0
 40
0.125
  1
" x 1-
  0
TEXT
  5
2518D
  8
0
 10
1.8673484153649911
 20
0.3080938773602461
 30
0.0
 40
0.0875
  1
3
  0
LINE
  5
2518E
  8
0
 10
1.8900771438509409
 20
0.2364180734849593
 30
0.0
 11
1.990453020212374
 21
0.3797696812355328
 31
0.0
  0
TEXT
  5
2518F
  8
0
 10
1.954848415364991
 20
0.1914272106935794
 30
0.0
 40
0.0875
  1
4
  0
TEXT
  5
25190
  8
0
 10
2.0423484153649909
 20
0.220593877360246
 30
0.0
 40
0.125
  1
"
  0
TEXT
  5
25191
  8
0
 10
0.909015082031658
 20
0.0539272106935793
 30
0.0
 40
0.125
  1
800.66.TAGUE
  0
ENDBLK
  5
25193
  8
0
  0
BLOCK
  8
0
  2
*U297
 70
     1
 10
0.0
 20
0.0
 30
0.0
  3
*U297
  1

  0
TEXT
  5
25195
  8
0
 62
     0
 10
-388.10095765539421
 20
838.47949397127331
 30
0.0
 40
0.125
  1
1
 50
90.0
  0
TEXT
  5
25196
  8
0
 62
     0
 10
-388.18429098872758
 20
838.60449397127343
 30
0.0
 40
0.125
  1
5
 50
90.0
  0
LINE
  5
25197
  8
0
 62
     0
 10
-388.16345765539432
 20
838.5628273046068
 30
0.0
 11
-388.16345765539432
 21
838.72949397127343
 31
0.0
  0
TEXT
  5
25198
  8
0
 62
     0
 10
-388.0176243220609
 20
838.5628273046068
 30
0.0
 40
0.125
  1
16
 50
90.0
  0
TEXT
  5
25199
  8
0
 62
     0
 10
-388.10095765539421
 20
838.77116063794006
 30
0.0
 40
0.125
  1
"
 50
90.0
  0
ENDBLK
  5
2519B
  8
0
  0
BLOCK
  8
0
  2
*U298
 70
     1
 10
0.0
 20
0.0
 30
0.0
  3
*U298
  1

  0
TEXT
  5
2519D
  8
0
 62
     0
 10
-387.49961823246872
 20
838.8753273046068
 30
0.0
 40
0.125
  1
11
  0
LINE
  5
2519E
  8
0
 62
     0
 10
-387.54128489913541
 20
838.85449397127331
 30
0.0
 11
-387.33295156580209
 21
838.85449397127331
 31
0.0
  0
TEXT
  5
2519F
  8
0
 62
     0
 10
-387.54128489913541
 20
838.70866063794006
 30
0.0
 40
0.125
  1
32
  0
TEXT
  5
251A0
  8
0
 62
     0
 10
-387.29128489913541
 20
838.79199397127366
 30
0.0
 40
0.125
  1
"
  0
ENDBLK
  5
251A2
  8
0
  0
BLOCK
  8
0
  2
*U299
 70
     1
 10
0.0
 20
0.0
 30
0.0
  3
*U299
  1

  0
TEXT
  5
251A4
  8
0
 10
2.6345862085493641
 20
1.498411677627927
 30
0.0
 40
0.125
  1
Panel Moulding
  0
TEXT
  5
251A5
  8
0
 10
2.6345862085493641
 20
1.290078344294594
 30
0.0
 40
0.125
  1
TL-2304
  0
TEXT
  5
251A6
  8
0
 10
2.6345862085493641
 20
1.081745010961261
 30
0.0
 40
0.125
  1
1-3/8" x 2"
  0
TEXT
  5
251A7
  8
0
 10
2.6345862085493641
 20
0.8734116776279279
 30
0.0
 40
0.125
  1
800.66.TAGUE
  0
ENDBLK
  5
251A9
  8
0
  0
BLOCK
  8
0
  2
*U300
 70
     1
 10
0.0
 20
0.0
 30
0.0
  3
*U300
  1

  0
TEXT
  5
251AB
  8
0
 10
2.0187131816974211
 20
1.20118096128408
 30
0.0
 40
0.125
  1
Picture Moulding
  0
TEXT
  5
251AC
  8
0
 10
2.0187131816974211
 20
0.9928476279507473
 30
0.0
 40
0.125
  1
TL-276
  0
TEXT
  5
251AD
  8
0
 10
2.0187131816974211
 20
0.7845142946174141
 30
0.0
 40
0.125
  1
3/4" x 1-3/4"
  0
TEXT
  5
251AE
  8
0
 10
2.0187131816974211
 20
0.5761809612840807
 30
0.0
 40
0.125
  1
800.66.TAGUE
  0
ENDBLK
  5
251B0
  8
0
  0
BLOCK
  8
0
  2
*U301
 70
     1
 10
0.0
 20
0.0
 30
0.0
  3
*U301
  1

  0
TEXT
  5
251B2
  8
0
 10
1.49770647708442
 20
1.222690512861845
 30
0.0
 40
0.125
  1
Picture Moulding
  0
TEXT
  5
251B3
  8
0
 10
1.49770647708442
 20
1.014357179528512
 30
0.0
 40
0.125
  1
TL-277
  0
TEXT
  5
251B4
  8
0
 10
1.49770647708442
 20
0.8060238461951788
 30
0.0
 40
0.125
  1
3/4" x 1-3/4"
  0
TEXT
  5
251B5
  8
0
 10
1.49770647708442
 20
0.5976905128618455
 30
0.0
 40
0.125
  1
800.66.TAGUE
  0
ENDBLK
  5
251B7
  8
0
  0
BLOCK
  8
0
  2
*U302
 70
     1
 10
0.0
 20
0.0
 30
0.0
  3
*U302
  1

  0
TEXT
  5
251B9
  8
0
 10
1.606155954235418
 20
0.8433418361508984
 30
0.0
 40
0.125
  1
Picture Moulding
  0
TEXT
  5
251BA
  8
0
 10
1.606155954235418
 20
0.6350085028175651
 30
0.0
 40
0.125
  1
TL-2173
  0
TEXT
  5
251BB
  8
0
 10
1.606155954235418
 20
0.4266751694842318
 30
0.0
 40
0.125
  1
13/16" x 1-1/2"
  0
TEXT
  5
251BC
  8
0
 10
1.606155954235418
 20
0.2183418361508984
 30
0.0
 40
0.125
  1
800.66.TAGUE
  0
ENDBLK
  5
251BE
  8
0
  0
BLOCK
  8
0
  2
*U303
 70
     1
 10
0.0
 20
0.0
 30
0.0
  3
*U303
  1

  0
TEXT
  5
251C0
  8
0
 10
1.771900475170298
 20
1.126578925655167
 30
0.0
 40
0.125
  1
Plank Moulding
  0
TEXT
  5
251C1
  8
0
 10
1.771900475170298
 20
0.9182455923218338
 30
0.0
 40
0.125
  1
TL-211
  0
TEXT
  5
251C2
  8
0
 10
1.771900475170298
 20
0.7099122589885005
 30
0.0
 40
0.125
  1
11/16" x 1-9/16"
  0
TEXT
  5
251C3
  8
0
 10
1.771900475170298
 20
0.5015789256551672
 30
0.0
 40
0.125
  1
800.66.TAGUE
  0
ENDBLK
  5
251C5
  8
0
  0
BLOCK
  8
0
  2
*U304
 70
     1
 10
0.0
 20
0.0
 30
0.0
  3
*U304
  1

  0
TEXT
  5
251C7
  8
0
 10
1.4505245364633761
 20
0.8622422781851356
 30
0.0
 40
0.125
  1
Plank Moulding
  0
TEXT
  5
251C8
  8
0
 10
1.4505245364633761
 20
0.6539089448518024
 30
0.0
 40
0.125
  1
TL-2286
  0
TEXT
  5
251C9
  8
0
 10
1.4505245364633761
 20
0.395575611518469
 30
0.0
 40
0.125
  1
1/2" x 1-
  0
TEXT
  5
251CA
  8
0
 10
2.4505245364633761
 20
0.483075611518469
 30
0.0
 40
0.0875
  1
1
  0
LINE
  5
251CB
  8
0
 10
2.4440865982826598
 20
0.4113998076431822
 30
0.0
 11
2.5444624746440931
 21
0.5547514153937558
 31
0.0
  0
TEXT
  5
251CC
  8
0
 10
2.5088578697967092
 20
0.3664089448518023
 30
0.0
 40
0.0875
  1
8
  0
TEXT
  5
251CD
  8
0
 10
2.5963578697967091
 20
0.395575611518469
 30
0.0
 40
0.125
  1
"
  0
TEXT
  5
251CE
  8
0
 10
1.4505245364633761
 20
0.2289089448518022
 30
0.0
 40
0.125
  1
800.66.TAGUE
  0
ENDBLK
  5
251D0
  8
0
  0
BLOCK
  8
0
  2
*U305
 70
     1
 10
0.0
 20
0.0
 30
0.0
  3
*U305
  1

  0
TEXT
  5
251D2
  8
0
 10
2.1711370769962168
 20
0.7594393410427074
 30
0.0
 40
0.125
  1
Plank Moulding
  0
TEXT
  5
251D3
  8
0
 10
2.1711370769962168
 20
0.5511060077093742
 30
0.0
 40
0.125
  1
TL-2291
  0
TEXT
  5
251D4
  8
0
 10
2.1711370769962168
 20
0.2927726743760408
 30
0.0
 40
0.125
  1
1" x 1-
  0
TEXT
  5
251D5
  8
0
 10
2.9211370769962168
 20
0.3802726743760409
 30
0.0
 40
0.0875
  1
1
  0
LINE
  5
251D6
  8
0
 10
2.914699138815501
 20
0.3085968705007541
 30
0.0
 11
3.015075015176933
 21
0.4519484782513276
 31
0.0
  0
TEXT
  5
251D7
  8
0
 10
2.97947041032955
 20
0.2636060077093742
 30
0.0
 40
0.0875
  1
4
  0
TEXT
  5
251D8
  8
0
 10
3.0669704103295499
 20
0.2927726743760408
 30
0.0
 40
0.125
  1
"
  0
TEXT
  5
251D9
  8
0
 10
2.1711370769962168
 20
0.1261060077093741
 30
0.0
 40
0.125
  1
800.66.TAGUE
  0
ENDBLK
  5
251DB
  8
0
  0
BLOCK
  8
0
  2
*U306
 70
     1
 10
0.0
 20
0.0
 30
0.0
  3
*U306
  1

  0
TEXT
  5
251DD
  8
0
 10
4.8409202131259121
 20
5.087561484758111
 30
0.0
 40
0.125
  1
Plinth Block
  0
TEXT
  5
251DE
  8
0
 10
4.8409202131259121
 20
4.8792281514247779
 30
0.0
 40
0.125
  1
TL-720
  0
TEXT
  5
251DF
  8
0
 10
4.8409202131259121
 20
4.670894818091444
 30
0.0
 40
0.125
  1
1" x 4" x Any Height
  0
TEXT
  5
251E0
  8
0
 10
4.8409202131259121
 20
4.462561484758111
 30
0.0
 40
0.125
  1
For use w/ TL-332 & TL-361 
  0
TEXT
  5
251E1
  8
0
 10
4.8409202131259121
 20
4.2542281514247779
 30
0.0
 40
0.125
  1
Casing
  0
TEXT
  5
251E2
  8
0
 10
4.8409202131259121
 20
4.0458948180914449
 30
0.0
 40
0.125
  1
(1" x 3-3/4" x Any Height is 
  0
TEXT
  5
251E3
  8
0
 10
4.8409202131259121
 20
3.837561484758111
 30
0.0
 40
0.125
  1
also available for use w/ 
  0
TEXT
  5
251E4
  8
0
 10
4.8409202131259121
 20
3.6292281514247779
 30
0.0
 40
0.125
  1
TL-750 Casing)
  0
TEXT
  5
251E5
  8
0
 10
4.8409202131259121
 20
3.420894818091444
 30
0.0
 40
0.125
  1
800.66.TAGUE
  0
ENDBLK
  5
251E7
  8
0
  0
BLOCK
  8
0
  2
*U307
 70
     1
 10
0.0
 20
0.0
 30
0.0
  3
*U307
  1

  0
TEXT
  5
251E9
  8
0
 10
5.0851826815998598
 20
4.9480590124609298
 30
0.0
 40
0.125
  1
Plinth Block
  0
TEXT
  5
251EA
  8
0
 10
5.0851826815998598
 20
4.7397256791275968
 30
0.0
 40
0.125
  1
TL-722
  0
TEXT
  5
251EB
  8
0
 10
5.0851826815998598
 20
4.5313923457942629
 30
0.0
 40
0.125
  1
7/8" x 4" x Any Height
  0
TEXT
  5
251EC
  8
0
 10
5.0851826815998598
 20
4.3230590124609298
 30
0.0
 40
0.125
  1
For use w/ TL-332 & TL-361 
  0
TEXT
  5
251ED
  8
0
 10
5.0851826815998598
 20
4.1147256791275968
 30
0.0
 40
0.125
  1
Casing
  0
TEXT
  5
251EE
  8
0
 10
5.0851826815998598
 20
3.9063923457942642
 30
0.0
 40
0.125
  1
(7/8" x 3-3/4" x Any Height 
  0
TEXT
  5
251EF
  8
0
 10
5.0851826815998598
 20
3.6980590124609298
 30
0.0
 40
0.125
  1
is also available for use w/ 
  0
TEXT
  5
251F0
  8
0
 10
5.0851826815998598
 20
3.4897256791275968
 30
0.0
 40
0.125
  1
TL-445 Casing)
  0
TEXT
  5
251F1
  8
0
 10
5.0851826815998598
 20
3.2813923457942642
 30
0.0
 40
0.125
  1
800.66.TAGUE
  0
ENDBLK
  5
251F3
  8
0
  0
BLOCK
  8
0
  2
*U308
 70
     1
 10
0.0
 20
0.0
 30
0.0
  3
*U308
  1

  0
TEXT
  5
251F5
  8
0
 10
5.4276068026422868
 20
5.2765876151471502
 30
0.0
 40
0.125
  1
Plinth Block
  0
TEXT
  5
251F6
  8
0
 10
5.4276068026422868
 20
5.0682542818138172
 30
0.0
 40
0.125
  1
TL-724
  0
TEXT
  5
251F7
  8
0
 10
5.4276068026422868
 20
4.8599209484804833
 30
0.0
 40
0.125
  1
1-1/4" x 4" x Any Height
  0
TEXT
  5
251F8
  8
0
 10
5.4276068026422868
 20
4.6515876151471502
 30
0.0
 40
0.125
  1
For use w/ TL-310 & TL-311 
  0
TEXT
  5
251F9
  8
0
 10
5.4276068026422868
 20
4.4432542818138172
 30
0.0
 40
0.125
  1
Casing
  0
TEXT
  5
251FA
  8
0
 10
5.4276068026422868
 20
4.2349209484804842
 30
0.0
 40
0.125
  1
800.66.TAGUE
  0
ENDBLK
  5
251FC
  8
0
  0
BLOCK
  8
0
  2
*U309
 70
     1
 10
0.0
 20
0.0
 30
0.0
  3
*U309
  1

  0
TEXT
  5
251FE
  8
0
 10
1.9834761602972431
 20
3.9146888730343781
 30
0.0
 40
0.125
  1
Plinth Block
  0
TEXT
  5
251FF
  8
0
 10
1.9834761602972431
 20
3.706355539701045
 30
0.0
 40
0.125
  1
TL-2269
  0
TEXT
  5
25200
  8
0
 10
1.9834761602972431
 20
3.498022206367712
 30
0.0
 40
0.125
  1
1-3/8" x 7-3/8" x Any 
  0
TEXT
  5
25201
  8
0
 10
1.9834761602972431
 20
3.2896888730343781
 30
0.0
 40
0.125
  1
Height
  0
TEXT
  5
25202
  8
0
 10
1.9834761602972431
 20
3.081355539701045
 30
0.0
 40
0.125
  1
800.66.TAGUE
  0
ENDBLK
  5
25204
  8
0
  0
BLOCK
  8
0
  2
*U310
 70
     1
 10
0.0
 20
0.0
 30
0.0
  3
*U310
  1

  0
TEXT
  5
25206
  8
0
 10
2.5585888631325702
 20
2.655863615564499
 30
0.0
 40
0.125
  1
Plinth Blocks
  0
TEXT
  5
25207
  8
0
 10
2.5585888631325702
 20
2.4475302822311651
 30
0.0
 40
0.125
  1
TL-2328
  0
TEXT
  5
25208
  8
0
 10
2.5585888631325702
 20
2.2391969488978321
 30
0.0
 40
0.125
  1
2-3/32" x 4-1/2" x Any 
  0
TEXT
  5
25209
  8
0
 10
2.5585888631325702
 20
2.030863615564499
 30
0.0
 40
0.125
  1
Height
  0
TEXT
  5
2520A
  8
0
 10
2.5585888631325702
 20
1.8225302822311651
 30
0.0
 40
0.125
  1
800.66.TAGUE
  0
ENDBLK
  5
2520C
  8
0
  0
BLOCK
  8
0
  2
*U311
 70
     1
 10
0.0
 20
0.0
 30
0.0
  3
*U311
  1

  0
TEXT
  5
25211
  8
0
 10
3.673295288944245
 20
1.146820656308591
 30
0.0
 40
0.125
  1
Porch Rail
  0
TEXT
  5
25212
  8
0
 10
3.673295288944245
 20
0.9384873229752581
 30
0.0
 40
0.125
  1
TL-533
  0
TEXT
  5
25213
  8
0
 10
3.673295288944245
 20
0.7301539896419247
 30
0.0
 40
0.125
  1
1-5/8" x 2-5/8"
  0
TEXT
  5
25214
  8
0
 10
3.673295288944245
 20
0.5218206563085915
 30
0.0
 40
0.125
  1
800.66.TAGUE
  0
ENDBLK
  5
25216
  8
0
  0
BLOCK
  8
0
  2
*U312
 70
     1
 10
0.0
 20
0.0
 30
0.0
  3
*U312
  1

  0
TEXT
  5
25218
  8
0
 10
3.647211252831652
 20
0.9654272552400016
 30
0.0
 40
0.125
  1
Porch Rail
  0
TEXT
  5
25219
  8
0
 10
3.647211252831652
 20
0.7570939219066684
 30
0.0
 40
0.125
  1
TL-534
  0
TEXT
  5
2521A
  8
0
 10
3.647211252831652
 20
0.5487605885733349
 30
0.0
 40
0.125
  1
1-5/8" x 2-5/8"
  0
TEXT
  5
2521B
  8
0
 10
3.647211252831652
 20
0.3404272552400016
 30
0.0
 40
0.125
  1
800.66.TAGUE
  0
ENDBLK
  5
2521D
  8
0
  0
BLOCK
  8
0
  2
*U313
 70
     1
 10
0.0
 20
0.0
 30
0.0
  3
*U313
  1

  0
TEXT
  5
2521F
  8
0
 10
3.5326212019666619
 20
1.841797648224087
 30
0.0
 40
0.125
  1
Porch Rail
  0
TEXT
  5
25220
  8
0
 10
3.5326212019666619
 20
1.6334643148907531
 30
0.0
 40
0.125
  1
TL-535
  0
TEXT
  5
25221
  8
0
 10
3.5326212019666619
 20
1.42513098155742
 30
0.0
 40
0.125
  1
2-13/16" x 3-15/16"
  0
TEXT
  5
25222
  8
0
 10
3.5326212019666619
 20
1.216797648224087
 30
0.0
 40
0.125
  1
800.66.TAGUE
  0
ENDBLK
  5
25224
  8
0
  0
BLOCK
  8
0
  2
*U314
 70
     1
 10
0.0
 20
0.0
 30
0.0
  3
*U314
  1

  0
TEXT
  5
25226
  8
0
 10
3.6833274969948202
 20
1.2803413518801099
 30
0.0
 40
0.125
  1
Porch Rail
  0
TEXT
  5
25227
  8
0
 10
3.6833274969948202
 20
1.0720080185467771
 30
0.0
 40
0.125
  1
TL-536
  0
TEXT
  5
25228
  8
0
 10
3.6833274969948202
 20
0.8636746852134439
 30
0.0
 40
0.125
  1
2-13/16" x 2-3/4"
  0
TEXT
  5
25229
  8
0
 10
3.6833274969948202
 20
0.6553413518801108
 30
0.0
 40
0.125
  1
800.66.TAGUE
  0
ENDBLK
  5
2522B
  8
0
  0
BLOCK
  8
0
  2
*U315
 70
     1
 10
0.0
 20
0.0
 30
0.0
  3
*U315
  1

  0
TEXT
  5
2522D
  8
0
 10
3.6069621879840952
 20
2.1489956094399072
 30
0.0
 40
0.125
  1
Porch Rail
  0
TEXT
  5
2522E
  8
0
 10
3.6069621879840952
 20
1.9406622761065739
 30
0.0
 40
0.125
  1
TL-2126
  0
TEXT
  5
2522F
  8
0
 10
3.6069621879840952
 20
1.73232894277324
 30
0.0
 40
0.125
  1
2-11/16" x 4-1/2"
  0
TEXT
  5
25230
  8
0
 10
3.6069621879840952
 20
1.523995609439907
 30
0.0
 40
0.125
  1
800.66.TAGUE
  0
ENDBLK
  5
25232
  8
0
  0
BLOCK
  8
0
  2
*U316
 70
     1
 10
0.0
 20
0.0
 30
0.0
  3
*U316
  1

  0
TEXT
  5
25234
  8
0
 10
3.8069044970130781
 20
1.021502829450696
 30
0.0
 40
0.125
  1
Porch Rail
  0
TEXT
  5
25235
  8
0
 10
3.8069044970130781
 20
0.813169496117363
 30
0.0
 40
0.125
  1
TL-2129
  0
TEXT
  5
25236
  8
0
 10
3.8069044970130781
 20
0.6048361627840297
 30
0.0
 40
0.125
  1
2-11/16" x 1-7/16"
  0
TEXT
  5
25237
  8
0
 10
3.8069044970130781
 20
0.3965028294506965
 30
0.0
 40
0.125
  1
800.66.TAGUE
  0
ENDBLK
  5
25239
  8
0
  0
BLOCK
  8
0
  2
*U317
 70
     1
 10
0.0
 20
0.0
 30
0.0
  3
*U317
  1

  0
TEXT
  5
2523B
  8
0
 10
4.0968280973845594
 20
1.019018154800619
 30
0.0
 40
0.125
  1
Porch Rail
  0
TEXT
  5
2523C
  8
0
 10
4.0968280973845594
 20
0.810684821467286
 30
0.0
 40
0.125
  1
TL-605
  0
TEXT
  5
2523D
  8
0
 10
4.0968280973845594
 20
0.6023514881339527
 30
0.0
 40
0.125
  1
1-3/8" x 3-1/8"
  0
TEXT
  5
2523E
  8
0
 10
4.0968280973845594
 20
0.3940181548006194
 30
0.0
 40
0.125
  1
800.66.TAGUE
  0
ENDBLK
  5
25240
  8
0
  0
BLOCK
  8
0
  2
*U318
 70
     1
 10
0.0
 20
0.0
 30
0.0
  3
*U318
  1

  0
TEXT
  5
25242
  8
0
 10
4.6436762802991893
 20
1.567947324961664
 30
0.0
 40
0.125
  1
Porch Rail
  0
TEXT
  5
25243
  8
0
 10
4.6436762802991893
 20
1.359613991628331
 30
0.0
 40
0.125
  1
TL-2244
  0
TEXT
  5
25244
  8
0
 10
4.6436762802991893
 20
1.1512806582949979
 30
0.0
 40
0.125
  1
2-3/8" x 3-1/8"
  0
TEXT
  5
25245
  8
0
 10
4.6436762802991893
 20
0.9429473249616648
 30
0.0
 40
0.125
  1
800.66.TAGUE
  0
ENDBLK
  5
25247
  8
0
  0
BLOCK
  8
0
  2
*U319
 70
     1
 10
0.0
 20
0.0
 30
0.0
  3
*U319
  1

  0
TEXT
  5
25249
  8
0
 10
2.2959526571365809
 20
0.8020693383100763
 30
0.0
 40
0.125
  1
Quarter Round
  0
TEXT
  5
2524A
  8
0
 10
2.2959526571365809
 20
0.5937360049767431
 30
0.0
 40
0.125
  1
TL-103
  0
TEXT
  5
2524B
  8
0
 10
2.2959526571365809
 20
0.3854026716434097
 30
0.0
 40
0.125
  1
1-1/16" x 1-1/16"
  0
TEXT
  5
2524C
  8
0
 10
2.2959526571365809
 20
0.1770693383100763
 30
0.0
 40
0.125
  1
800.66.TAGUE
  0
ENDBLK
  5
2524E
  8
0
  0
BLOCK
  8
0
  2
*U320
 70
     1
 10
0.0
 20
0.0
 30
0.0
  3
*U320
  1

  0
TEXT
  5
25250
  8
0
 10
2.6265492555164651
 20
1.0389249032068899
 30
0.0
 40
0.125
  1
Quarter Round
  0
TEXT
  5
25251
  8
0
 10
2.6265492555164651
 20
0.8305915698735571
 30
0.0
 40
0.125
  1
TL-104
  0
TEXT
  5
25252
  8
0
 10
2.6265492555164651
 20
0.6222582365402238
 30
0.0
 40
0.125
  1
1-1/2" x 1-1/2"
  0
TEXT
  5
25253
  8
0
 10
2.6265492555164651
 20
0.4139249032068904
 30
0.0
 40
0.125
  1
800.66.TAGUE
  0
ENDBLK
  5
25255
  8
0
  0
BLOCK
  8
0
  2
*U321
 70
     1
 10
0.0
 20
0.0
 30
0.0
  3
*U321
  1

  0
TEXT
  5
25257
  8
0
 10
1.754862706562903
 20
0.8601960421464411
 30
0.0
 40
0.125
  1
Quarter Round
  0
TEXT
  5
25258
  8
0
 10
1.754862706562903
 20
0.651862708813108
 30
0.0
 40
0.125
  1
TL-106
  0
TEXT
  5
25259
  8
0
 10
1.754862706562903
 20
0.4435293754797746
 30
0.0
 40
0.125
  1
11/16" x 11/16"
  0
TEXT
  5
2525A
  8
0
 10
1.754862706562903
 20
0.2351960421464412
 30
0.0
 40
0.125
  1
800.66.TAGUE
  0
ENDBLK
  5
2525C
  8
0
  0
BLOCK
  8
0
  2
*U322
 70
     1
 10
0.0
 20
0.0
 30
0.0
  3
*U322
  1

  0
TEXT
  5
2525E
  8
0
 10
1.838217438367564
 20
0.7107824417724089
 30
0.0
 40
0.125
  1
Quarter Round
  0
TEXT
  5
2525F
  8
0
 10
1.838217438367564
 20
0.5024491084390758
 30
0.0
 40
0.125
  1
TL-107
  0
TEXT
  5
25260
  8
0
 10
1.838217438367564
 20
0.2941157751057423
 30
0.0
 40
0.125
  1
7/8" x 7/8"
  0
TEXT
  5
25261
  8
0
 10
1.838217438367564
 20
0.0857824417724089
 30
0.0
 40
0.125
  1
800.66.TAGUE
  0
ENDBLK
  5
25263
  8
0
  0
BLOCK
  8
0
  2
*U323
 70
     1
 10
0.0
 20
0.0
 30
0.0
  3
*U323
  1

  0
TEXT
  5
25265
  8
0
 10
1.352485397822192
 20
0.6795157652888122
 30
0.0
 40
0.125
  1
Quarter Round
  0
TEXT
  5
25266
  8
0
 10
1.352485397822192
 20
0.4711824319554789
 30
0.0
 40
0.125
  1
TL-108
  0
TEXT
  5
25267
  8
0
 10
1.352485397822192
 20
0.2628490986221456
 30
0.0
 40
0.125
  1
1/2" x 1/2"
  0
TEXT
  5
25268
  8
0
 10
1.352485397822192
 20
0.0545157652888122
 30
0.0
 40
0.125
  1
800.66.TAGUE
  0
ENDBLK
  5
2526A
  8
0
  0
BLOCK
  8
0
  2
*U324
 70
     1
 10
0.0
 20
0.0
 30
0.0
  3
*U324
  1

  0
TEXT
  5
2526C
  8
0
 10
1.5395795649736781
 20
0.6795162946313269
 30
0.0
 40
0.125
  1
Quarter Round
  0
TEXT
  5
2526D
  8
0
 10
1.5395795649736781
 20
0.4711829612979936
 30
0.0
 40
0.125
  1
TL-109
  0
TEXT
  5
2526E
  8
0
 10
1.5395795649736781
 20
0.2628496279646603
 30
0.0
 40
0.125
  1
3/8" x 3/8"
  0
TEXT
  5
2526F
  8
0
 10
1.5395795649736781
 20
0.0545162946313269
 30
0.0
 40
0.125
  1
800.66.TAGUE
  0
ENDBLK
  5
25271
  8
0
  0
BLOCK
  8
0
  2
*U325
 70
     1
 10
0.0
 20
0.0
 30
0.0
  3
*U325
  1

  0
TEXT
  5
25273
  8
0
 10
1.127533430492007
 20
0.716014195759982
 30
0.0
 40
0.125
  1
Quarter Round
  0
TEXT
  5
25274
  8
0
 10
1.127533430492007
 20
0.5076808624266488
 30
0.0
 40
0.125
  1
TL-110
  0
TEXT
  5
25275
  8
0
 10
1.127533430492007
 20
0.2993475290933153
 30
0.0
 40
0.125
  1
1/4" x 1/4"
  0
TEXT
  5
25276
  8
0
 10
1.127533430492007
 20
0.091014195759982
 30
0.0
 40
0.125
  1
800.66.TAGUE
  0
ENDBLK
  5
25278
  8
0
  0
BLOCK
  8
0
  2
*U326
 70
     1
 10
0.0
 20
0.0
 30
0.0
  3
*U326
  1

  0
TEXT
  5
2527A
  8
0
 10
1.8956187639500961
 20
1.9750706814052701
 30
0.0
 40
0.125
  1
Reeding
  0
TEXT
  5
2527B
  8
0
 10
1.8956187639500961
 20
1.7667373480719371
 30
0.0
 40
0.125
  1
TL-750
  0
TEXT
  5
2527C
  8
0
 10
1.8956187639500961
 20
1.558404014738604
 30
0.0
 40
0.125
  1
3/4" x 3-1/4"
  0
TEXT
  5
2527D
  8
0
 10
1.8956187639500961
 20
1.3500706814052701
 30
0.0
 40
0.125
  1
800.66.TAGUE
  0
ENDBLK
  5
2527F
  8
0
  0
BLOCK
  8
0
  2
*U327
 70
     1
 10
0.0
 20
0.0
 30
0.0
  3
*U327
  1

  0
TEXT
  5
25281
  8
0
 10
1.373304977175166
 20
7.0938793499937836
 30
0.0
 40
0.125
  1
Rosette
  0
TEXT
  5
25282
  8
0
 10
1.373304977175166
 20
6.8855460166604514
 30
0.0
 40
0.125
  1
TL-733
  0
TEXT
  5
25283
  8
0
 10
1.373304977175166
 20
6.6772126833271166
 30
0.0
 40
0.125
  1
1" x 3-3/4" x 3-3/4"
  0
TEXT
  5
25284
  8
0
 10
1.373304977175166
 20
6.4688793499937836
 30
0.0
 40
0.125
  1
(Bullseye is 2-9/16")
  0
TEXT
  5
25285
  8
0
 10
1.373304977175166
 20
6.2605460166604514
 30
0.0
 40
0.125
  1
800.66.TAGUE
  0
ENDBLK
  5
25287
  8
0
  0
BLOCK
  8
0
  2
*U328
 70
     1
 10
0.0
 20
0.0
 30
0.0
  3
*U328
  1

  0
TEXT
  5
25289
  8
0
 10
1.373304977175166
 20
7.0938793499937836
 30
0.0
 40
0.125
  1
Rosette
  0
TEXT
  5
2528A
  8
0
 10
1.373304977175166
 20
6.8855460166604514
 30
0.0
 40
0.125
  1
TL-733
  0
TEXT
  5
2528B
  8
0
 10
1.373304977175166
 20
6.6772126833271166
 30
0.0
 40
0.125
  1
1" x 3-3/4" x 3-3/4"
  0
TEXT
  5
2528C
  8
0
 10
1.373304977175166
 20
6.4688793499937836
 30
0.0
 40
0.125
  1
(Bullseye is 2-9/16")
  0
TEXT
  5
2528D
  8
0
 10
1.373304977175166
 20
6.2605460166604514
 30
0.0
 40
0.125
  1
800.66.TAGUE
  0
ENDBLK
  5
2528F
  8
0
  0
BLOCK
  8
0
  2
*U329
 70
     1
 10
0.0
 20
0.0
 30
0.0
  3
*U329
  1

  0
TEXT
  5
25291
  8
0
 10
1.2806627711731831
 20
7.3249591226432074
 30
0.0
 40
0.125
  1
Rosette
  0
TEXT
  5
25292
  8
0
 10
1.2806627711731831
 20
7.1166257893098743
 30
0.0
 40
0.125
  1
TL-736
  0
TEXT
  5
25293
  8
0
 10
1.2806627711731831
 20
6.9082924559765404
 30
0.0
 40
0.125
  1
1" x 3-3/4" x 3-3/4"
  0
TEXT
  5
25294
  8
0
 10
1.2806627711731831
 20
6.6999591226432074
 30
0.0
 40
0.125
  1
(Bullseye is 3-5/16")
  0
TEXT
  5
25295
  8
0
 10
1.2806627711731831
 20
6.4916257893098743
 30
0.0
 40
0.125
  1
800.66.TAGUE
  0
ENDBLK
  5
25297
  8
0
  0
BLOCK
  8
0
  2
*U330
 70
     1
 10
0.0
 20
0.0
 30
0.0
  3
*U330
  1

  0
TEXT
  5
25299
  8
0
 10
1.468200758244393
 20
0.6794297505788336
 30
0.0
 40
0.125
  1
Scotia
  0
TEXT
  5
2529A
  8
0
 10
1.468200758244393
 20
0.4710964172455003
 30
0.0
 40
0.125
  1
TL-43
  0
TEXT
  5
2529B
  8
0
 10
1.468200758244393
 20
0.262763083912167
 30
0.0
 40
0.125
  1
5/8" x 1/2"
  0
TEXT
  5
2529C
  8
0
 10
1.468200758244393
 20
0.0544297505788336
 30
0.0
 40
0.125
  1
800.66.TAGUE
  0
ENDBLK
  5
2529E
  8
0
  0
BLOCK
  8
0
  2
*U331
 70
     1
 10
0.0
 20
0.0
 30
0.0
  3
*U331
  1

  0
TEXT
  5
252A0
  8
0
 10
1.6796567097686641
 20
0.6794312077095697
 30
0.0
 40
0.125
  1
Screen Moulding
  0
TEXT
  5
252A1
  8
0
 10
1.6796567097686641
 20
0.4710978743762364
 30
0.0
 40
0.125
  1
TL-138
  0
TEXT
  5
252A2
  8
0
 10
1.6796567097686641
 20
0.262764541042903
 30
0.0
 40
0.125
  1
5/16" x 5/8"
  0
TEXT
  5
252A3
  8
0
 10
1.6796567097686641
 20
0.0544312077095697
 30
0.0
 40
0.125
  1
800.66.TAGUE
  0
ENDBLK
  5
252A5
  8
0
  0
BLOCK
  8
0
  2
*U332
 70
     1
 10
0.0
 20
0.0
 30
0.0
  3
*U332
  1

  0
TEXT
  5
252A7
  8
0
 10
1.85571357960157
 20
0.6794307426418415
 30
0.0
 40
0.125
  1
Screen Moulding
  0
TEXT
  5
252A8
  8
0
 10
1.85571357960157
 20
0.4710974093085081
 30
0.0
 40
0.125
  1
TL-142
  0
TEXT
  5
252A9
  8
0
 10
1.85571357960157
 20
0.2627640759751747
 30
0.0
 40
0.125
  1
1/4" x 3/4"
  0
TEXT
  5
252AA
  8
0
 10
1.85571357960157
 20
0.0544307426418413
 30
0.0
 40
0.125
  1
800.66.TAGUE
  0
ENDBLK
  5
252AC
  8
0
  0
BLOCK
  8
0
  2
*U333
 70
     1
 10
0.0
 20
0.0
 30
0.0
  3
*U333
  1

  0
TEXT
  5
252AE
  8
0
 10
1.9554039385765229
 20
0.6794310226893572
 30
0.0
 40
0.125
  1
Screen Moulding
  0
TEXT
  5
252AF
  8
0
 10
1.9554039385765229
 20
0.4710976893560239
 30
0.0
 40
0.125
  1
TL-144
  0
TEXT
  5
252B0
  8
0
 10
1.9554039385765229
 20
0.2627643560226906
 30
0.0
 40
0.125
  1
1/4" x 3/4"
  0
TEXT
  5
252B1
  8
0
 10
1.9554039385765229
 20
0.0544310226893572
 30
0.0
 40
0.125
  1
800.66.TAGUE
  0
ENDBLK
  5
252B3
  8
0
  0
BLOCK
  8
0
  2
*U334
 70
     1
 10
0.0
 20
0.0
 30
0.0
  3
*U334
  1

  0
TEXT
  5
252B5
  8
0
 10
1.803800422793074
 20
0.6794303959038075
 30
0.0
 40
0.125
  1
Screen Moulding
  0
TEXT
  5
252B6
  8
0
 10
1.803800422793074
 20
0.4710970625704742
 30
0.0
 40
0.125
  1
TL-525
  0
TEXT
  5
252B7
  8
0
 10
1.803800422793074
 20
0.2627637292371409
 30
0.0
 40
0.125
  1
1/4" x 3/4"
  0
TEXT
  5
252B8
  8
0
 10
1.803800422793074
 20
0.0544303959038075
 30
0.0
 40
0.125
  1
800.66.TAGUE
  0
ENDBLK
  5
252BA
  8
0
  0
BLOCK
  8
0
  2
*U335
 70
     1
 10
0.0
 20
0.0
 30
0.0
  3
*U335
  1

  0
TEXT
  5
252BC
  8
0
 10
1.3492638038874241
 20
0.7907760561204498
 30
0.0
 40
0.125
  1
Shoe Moulding
  0
TEXT
  5
252BD
  8
0
 10
1.3492638038874241
 20
0.5824427227871164
 30
0.0
 40
0.125
  1
TL-126
  0
TEXT
  5
252BE
  8
0
 10
1.3492638038874241
 20
0.3741093894537832
 30
0.0
 40
0.125
  1
1/2" x 3/4"
  0
TEXT
  5
252BF
  8
0
 10
1.3492638038874241
 20
0.1657760561204498
 30
0.0
 40
0.125
  1
800.66.TAGUE
  0
ENDBLK
  5
252C1
  8
0
  0
BLOCK
  8
0
  2
*U336
 70
     1
 10
0.0
 20
0.0
 30
0.0
  3
*U336
  1

  0
TEXT
  5
252C3
  8
0
 10
1.1808870594733201
 20
0.7490361918447946
 30
0.0
 40
0.125
  1
Shoe Moulding
  0
TEXT
  5
252C4
  8
0
 10
1.1808870594733201
 20
0.5407028585114612
 30
0.0
 40
0.125
  1
TL-127
  0
TEXT
  5
252C5
  8
0
 10
1.1808870594733201
 20
0.3323695251781279
 30
0.0
 40
0.125
  1
5/16" x 1-1/4"
  0
TEXT
  5
252C6
  8
0
 10
1.1808870594733201
 20
0.1240361918447945
 30
0.0
 40
0.125
  1
800.66.TAGUE
  0
ENDBLK
  5
252C8
  8
0
  0
BLOCK
  8
0
  2
*U337
 70
     1
 10
0.0
 20
0.0
 30
0.0
  3
*U337
  1

  0
TEXT
  5
252CA
  8
0
 10
1.472319617280049
 20
1.0115530252823239
 30
0.0
 40
0.125
  1
Shoe Moulding
  0
TEXT
  5
252CB
  8
0
 10
1.472319617280049
 20
0.8032196919489915
 30
0.0
 40
0.125
  1
TL-2154
  0
TEXT
  5
252CC
  8
0
 10
1.472319617280049
 20
0.5948863586156583
 30
0.0
 40
0.125
  1
1/2" x 2"
  0
TEXT
  5
252CD
  8
0
 10
1.472319617280049
 20
0.3865530252823248
 30
0.0
 40
0.125
  1
800.66.TAGUE
  0
ENDBLK
  5
252CF
  8
0
  0
BLOCK
  8
0
  2
*U338
 70
     1
 10
0.0
 20
0.0
 30
0.0
  3
*U338
  1

  0
TEXT
  5
252D1
  8
0
 10
1.2158518542730681
 20
0.8270002480021788
 30
0.0
 40
0.125
  1
Shoe Moulding
  0
TEXT
  5
252D2
  8
0
 10
1.2158518542730681
 20
0.6186669146688454
 30
0.0
 40
0.125
  1
TL-2324
  0
TEXT
  5
252D3
  8
0
 10
1.2158518542730681
 20
0.4103335813355122
 30
0.0
 40
0.125
  1
7/16" x 15/16"
  0
TEXT
  5
252D4
  8
0
 10
1.2158518542730681
 20
0.2020002480021787
 30
0.0
 40
0.125
  1
800.66.TAGUE
  0
ENDBLK
  5
252D6
  8
0
  0
BLOCK
  8
0
  2
*U339
 70
     1
 10
0.0
 20
0.0
 30
0.0
  3
*U339
  1

  0
TEXT
  5
252D8
  8
0
 10
4.2566660115631967
 20
1.062506362448999
 30
0.0
 40
0.125
  1
Show Sill
  0
TEXT
  5
252D9
  8
0
 10
4.2566660115631967
 20
0.8541730291156664
 30
0.0
 40
0.125
  1
TL-228
  0
TEXT
  5
252DA
  8
0
 10
4.2566660115631967
 20
0.6458396957823331
 30
0.0
 40
0.125
  1
2-11/16" x 3-1/2"
  0
TEXT
  5
252DB
  8
0
 10
4.2566660115631967
 20
0.4375063624489997
 30
0.0
 40
0.125
  1
800.66.TAGUE
  0
ENDBLK
  5
252DD
  8
0
  0
BLOCK
  8
0
  2
*U340
 70
     1
 10
0.0
 20
0.0
 30
0.0
  3
*U340
  1

  0
TEXT
  5
252DF
  8
0
 10
4.2691178073453102
 20
0.7399378328155138
 30
0.0
 40
0.125
  1
Show Sill
  0
TEXT
  5
252E0
  8
0
 10
4.2691178073453102
 20
0.5316044994821806
 30
0.0
 40
0.125
  1
TL-229
  0
TEXT
  5
252E1
  8
0
 10
4.2691178073453102
 20
0.3232711661488471
 30
0.0
 40
0.125
  1
1-11/16" x 3-1/2"
  0
TEXT
  5
252E2
  8
0
 10
4.2691178073453102
 20
0.1149378328155137
 30
0.0
 40
0.125
  1
800.66.TAGUE
  0
ENDBLK
  5
252E4
  8
0
  0
BLOCK
  8
0
  2
*U341
 70
     1
 10
0.0
 20
0.0
 30
0.0
  3
*U341
  1

  0
TEXT
  5
252E6
  8
0
 10
4.2691178073453102
 20
0.7399378328155138
 30
0.0
 40
0.125
  1
Show Sill
  0
TEXT
  5
252E7
  8
0
 10
4.2691178073453102
 20
0.5316044994821806
 30
0.0
 40
0.125
  1
TL-229
  0
TEXT
  5
252E8
  8
0
 10
4.2691178073453102
 20
0.3232711661488471
 30
0.0
 40
0.125
  1
1-11/16" x 3-1/2"
  0
TEXT
  5
252E9
  8
0
 10
4.2691178073453102
 20
0.1149378328155137
 30
0.0
 40
0.125
  1
800.66.TAGUE
  0
ENDBLK
  5
252EB
  8
0
  0
BLOCK
  8
0
  2
*U342
 70
     1
 10
0.0
 20
0.0
 30
0.0
  3
*U342
  1

  0
TEXT
  5
252ED
  8
0
 10
2.4719841412448309
 20
0.6794303651360281
 30
0.0
 40
0.125
  1
Show Sill
  0
TEXT
  5
252EE
  8
0
 10
2.4719841412448309
 20
0.4710970318026948
 30
0.0
 40
0.125
  1
TL-2205
  0
TEXT
  5
252EF
  8
0
 10
2.4719841412448309
 20
0.2627636984693613
 30
0.0
 40
0.125
  1
1-3/4" x 6-9/16"
  0
TEXT
  5
252F0
  8
0
 10
2.4719841412448309
 20
0.0544303651360281
 30
0.0
 40
0.125
  1
800.66.TAGUE
  0
ENDBLK
  5
252F2
  8
0
  0
BLOCK
  8
0
  2
*U343
 70
     1
 10
0.0
 20
0.0
 30
0.0
  3
*U343
  1

  0
TEXT
  5
252F4
  8
0
 10
1.7030452787688539
 20
0.7191083481852161
 30
0.0
 40
0.125
  1
Solid Crown
  0
TEXT
  5
252F5
  8
0
 10
1.7030452787688539
 20
0.5107750148518829
 30
0.0
 40
0.125
  1
TL-27
  0
TEXT
  5
252F6
  8
0
 10
1.7030452787688539
 20
0.3024416815185495
 30
0.0
 40
0.125
  1
3/4" x 1-1/8"
  0
TEXT
  5
252F7
  8
0
 10
1.7030452787688539
 20
0.0941083481852161
 30
0.0
 40
0.125
  1
800.66.TAGUE
  0
ENDBLK
  5
252F9
  8
0
  0
BLOCK
  8
0
  2
*U344
 70
     1
 10
0.0
 20
0.0
 30
0.0
  3
*U344
  1

  0
TEXT
  5
252FB
  8
0
 10
1.8354044286779749
 20
0.6862743223931034
 30
0.0
 40
0.125
  1
Solid Crown
  0
TEXT
  5
252FC
  8
0
 10
1.8354044286779749
 20
0.4779409890597701
 30
0.0
 40
0.125
  1
TL-28
  0
TEXT
  5
252FD
  8
0
 10
1.8354044286779749
 20
0.2696076557264368
 30
0.0
 40
0.125
  1
1-3/8" x 1-11/16"
  0
TEXT
  5
252FE
  8
0
 10
1.8354044286779749
 20
0.0612743223931034
 30
0.0
 40
0.125
  1
800.66.TAGUE
  0
ENDBLK
  5
25300
  8
0
  0
BLOCK
  8
0
  2
*U345
 70
     1
 10
0.0
 20
0.0
 30
0.0
  3
*U345
  1

  0
TEXT
  5
25302
  8
0
 10
1.609951569799704
 20
1.097237546408848
 30
0.0
 40
0.125
  1
Solid Crown
  0
TEXT
  5
25303
  8
0
 10
1.609951569799704
 20
0.8889042130755154
 30
0.0
 40
0.125
  1
TL-29
  0
TEXT
  5
25304
  8
0
 10
1.609951569799704
 20
0.6805708797421819
 30
0.0
 40
0.125
  1
1-3/8" x 2-3/4"
  0
TEXT
  5
25305
  8
0
 10
1.609951569799704
 20
0.4722375464088487
 30
0.0
 40
0.125
  1
800.66.TAGUE
  0
ENDBLK
  5
25307
  8
0
  0
BLOCK
  8
0
  2
*U346
 70
     1
 10
0.0
 20
0.0
 30
0.0
  3
*U346
  1

  0
TEXT
  5
25309
  8
0
 10
1.5665049495332819
 20
0.9104444566315237
 30
0.0
 40
0.125
  1
Solid Crown
  0
TEXT
  5
2530A
  8
0
 10
1.5665049495332819
 20
0.7021111232981906
 30
0.0
 40
0.125
  1
TL-30
  0
TEXT
  5
2530B
  8
0
 10
1.5665049495332819
 20
0.4937777899648572
 30
0.0
 40
0.125
  1
1-1/8" x 1-3/4"
  0
TEXT
  5
2530C
  8
0
 10
1.5665049495332819
 20
0.2854444566315237
 30
0.0
 40
0.125
  1
800.66.TAGUE
  0
ENDBLK
  5
2530E
  8
0
  0
BLOCK
  8
0
  2
*U347
 70
     1
 10
0.0
 20
0.0
 30
0.0
  3
*U347
  1

  0
TEXT
  5
25310
  8
0
 10
1.741766505169607
 20
1.083818676800262
 30
0.0
 40
0.125
  1
Solid Crown
  0
TEXT
  5
25311
  8
0
 10
1.741766505169607
 20
0.8754853434669296
 30
0.0
 40
0.125
  1
TL-31
  0
TEXT
  5
25312
  8
0
 10
1.741766505169607
 20
0.6671520101335963
 30
0.0
 40
0.125
  1
1" x 2-1/8"
  0
TEXT
  5
25313
  8
0
 10
1.741766505169607
 20
0.4588186768002629
 30
0.0
 40
0.125
  1
800.66.TAGUE
  0
ENDBLK
  5
25315
  8
0
  0
BLOCK
  8
0
  2
*U348
 70
     1
 10
0.0
 20
0.0
 30
0.0
  3
*U348
  1

  0
TEXT
  5
25317
  8
0
 10
3.3201780845119511
 20
0.6778106086991899
 30
0.0
 40
0.125
  1
Solid Crown
  0
TEXT
  5
25318
  8
0
 10
3.3201780845119511
 20
0.4694772753658565
 30
0.0
 40
0.125
  1
TL-35
  0
TEXT
  5
25319
  8
0
 10
3.3201780845119511
 20
0.2611439420325231
 30
0.0
 40
0.125
  1
1" x 2"
  0
TEXT
  5
2531A
  8
0
 10
3.3201780845119511
 20
0.0528106086991898
 30
0.0
 40
0.125
  1
800.66.TAGUE
  0
ENDBLK
  5
2531C
  8
0
  0
BLOCK
  8
0
  2
*U349
 70
     1
 10
0.0
 20
0.0
 30
0.0
  3
*U349
  1

  0
TEXT
  5
2531E
  8
0
 10
2.4140290960319808
 20
1.8965503482651791
 30
0.0
 40
0.125
  1
Solid Crown
  0
TEXT
  5
2531F
  8
0
 10
2.4140290960319808
 20
1.6882170149318461
 30
0.0
 40
0.125
  1
TL-33
  0
TEXT
  5
25320
  8
0
 10
2.4140290960319808
 20
1.479883681598513
 30
0.0
 40
0.125
  1
1-5/8" x 4-1/4"
  0
TEXT
  5
25321
  8
0
 10
2.4140290960319808
 20
1.2715503482651791
 30
0.0
 40
0.125
  1
800.66.TAGUE
  0
ENDBLK
  5
25323
  8
0
  0
BLOCK
  8
0
  2
*U350
 70
     1
 10
0.0
 20
0.0
 30
0.0
  3
*U350
  1

  0
TEXT
  5
25325
  8
0
 10
2.078558607206332
 20
0.9957229797497006
 30
0.0
 40
0.125
  1
Solid Crown
  0
TEXT
  5
25326
  8
0
 10
2.078558607206332
 20
0.7873896464163676
 30
0.0
 40
0.125
  1
TL-2014
  0
TEXT
  5
25327
  8
0
 10
2.078558607206332
 20
0.5790563130830341
 30
0.0
 40
0.125
  1
1-7/32" x 2-1/8"
  0
TEXT
  5
25328
  8
0
 10
2.078558607206332
 20
0.3707229797497007
 30
0.0
 40
0.125
  1
800.66.TAGUE
  0
ENDBLK
  5
2532A
  8
0
  0
BLOCK
  8
0
  2
*U351
 70
     1
 10
0.0
 20
0.0
 30
0.0
  3
*U351
  1

  0
TEXT
  5
2532C
  8
0
 10
2.018297892282134
 20
0.9855457099124009
 30
0.0
 40
0.125
  1
Solid Crown
  0
TEXT
  5
2532D
  8
0
 10
2.018297892282134
 20
0.7772123765790676
 30
0.0
 40
0.125
  1
TL-2069
  0
TEXT
  5
2532E
  8
0
 10
2.018297892282134
 20
0.5688790432457344
 30
0.0
 40
0.125
  1
1-23/32" x 2-1/2"
  0
TEXT
  5
2532F
  8
0
 10
2.018297892282134
 20
0.360545709912401
 30
0.0
 40
0.125
  1
800.66.TAGUE
  0
ENDBLK
  5
25331
  8
0
  0
BLOCK
  8
0
  2
*U352
 70
     1
 10
0.0
 20
0.0
 30
0.0
  3
*U352
  1

  0
TEXT
  5
25333
  8
0
 10
3.5411675771701989
 20
1.022947966023309
 30
0.0
 40
0.125
  1
Solid Crown
  0
TEXT
  5
25334
  8
0
 10
3.5411675771701989
 20
0.8146146326899764
 30
0.0
 40
0.125
  1
TL-2156
  0
TEXT
  5
25335
  8
0
 10
3.5411675771701989
 20
0.606281299356643
 30
0.0
 40
0.125
  1
2-13/16" x 3-1/2"
  0
TEXT
  5
25336
  8
0
 10
3.5411675771701989
 20
0.3979479660233096
 30
0.0
 40
0.125
  1
800.66.TAGUE
  0
ENDBLK
  5
25338
  8
0
  0
BLOCK
  8
0
  2
*U353
 70
     1
 10
0.0
 20
0.0
 30
0.0
  3
*U353
  1

  0
TEXT
  5
2533A
  8
0
 10
-384.15877731744951
 20
840.99982202677063
 30
0.0
 40
0.125
  1
Solid Crown
  0
TEXT
  5
2533B
  8
0
 10
-384.15877731744951
 20
840.79148869343715
 30
0.0
 40
0.125
  1
TL-2156
  0
TEXT
  5
2533C
  8
0
 10
-384.15877731744951
 20
840.58315536010389
 30
0.0
 40
0.125
  1
2-13/16" x 3-1/2"
  0
TEXT
  5
2533D
  8
0
 10
-384.15877731744951
 20
840.3748220267704
 30
0.0
 40
0.125
  1
800.66.TAGUE
  0
ENDBLK
  5
2533F
  8
0
  0
ENDSEC
  0
SECTION
  2
ENTITIES
  0
INSERT
  5
24E69
  8
0
  2
*U353
 10
0.0
 20
0.0
 30
0.0
  0
LINE
  5
24E6A
  8
0
 10
-387.69994642020117
 20
842.78937480781883
 30
0.0
 11
-387.69994642020117
 21
839.97687480781872
 31
0.0
  0
POLYLINE
  8
0
  5
25684
  66
     1
 10
0.000000
 20
0.000000
 30
0.000000
  70
     8
  0
VERTEX
  8
0
  5
25685
 10
-384.386
 20
842.065
 30
0.000000
  70
    32
  0
VERTEX
  8
0
  5
25686
 10
-384.385
 20
842.061
 30
0.000000
  70
    32
  0
VERTEX
  8
0
  5
25687
 10
-384.383
 20
842.057
 30
0.000000
  70
    32
  0
VERTEX
  8
0
  5
25688
 10
-384.382
 20
842.053
 30
0.000000
  70
    32
  0
VERTEX
  8
0
  5
25689
 10
-384.380
 20
842.049
 30
0.000000
  70
    32
  0
VERTEX
  8
0
  5
2568A
 10
-384.379
 20
842.044
 30
0.000000
  70
    32
  0
VERTEX
  8
0
  5
2568B
 10
-384.378
 20
842.040
 30
0.000000
  70
    32
  0
VERTEX
  8
0
  5
2568C
 10
-384.377
 20
842.036
 30
0.000000
  70
    32
  0
VERTEX
  8
0
  5
2568D
 10
-384.376
 20
842.031
 30
0.000000
  70
    32
  0
VERTEX
  8
0
  5
2568E
 10
-384.375
 20
842.027
 30
0.000000
  70
    32
  0
VERTEX
  8
0
  5
2568F
 10
-384.374
 20
842.023
 30
0.000000
  70
    32
  0
VERTEX
  8
0
  5
25690
 10
-384.373
 20
842.018
 30
0.000000
  70
    32
  0
VERTEX
  8
0
  5
25691
 10
-384.372
 20
842.014
 30
0.000000
  70
    32
  0
VERTEX
  8
0
  5
25692
 10
-384.371
 20
842.009
 30
0.000000
  70
    32
  0
VERTEX
  8
0
  5
25693
 10
-384.370
 20
842.005
 30
0.000000
  70
    32
  0
VERTEX
  8
0
  5
25694
 10
-384.370
 20
842.001
 30
0.000000
  70
    32
  0
VERTEX
  8
0
  5
25695
 10
-384.369
 20
841.996
 30
0.000000
  70
    32
  0
VERTEX
  8
0
  5
25696
 10
-384.368
 20
841.992
 30
0.000000
  70
    32
  0
VERTEX
  8
0
  5
25697
 10
-384.367
 20
841.987
 30
0.000000
  70
    32
  0
VERTEX
  8
0
  5
25698
 10
-384.367
 20
841.983
 30
0.000000
  70
    32
  0
VERTEX
  8
0
  5
25699
 10
-384.366
 20
841.978
 30
0.000000
  70
    32
  0
VERTEX
  8
0
  5
2569A
 10
-384.366
 20
841.974
 30
0.000000
  70
    32
  0
VERTEX
  8
0
  5
2569B
 10
-384.366
 20
841.970
 30
0.000000
  70
    32
  0
VERTEX
  8
0
  5
2569C
 10
-384.365
 20
841.965
 30
0.000000
  70
    32
  0
VERTEX
  8
0
  5
2569D
 10
-384.365
 20
841.961
 30
0.000000
  70
    32
  0
VERTEX
  8
0
  5
2569E
 10
-384.365
 20
841.956
 30
0.000000
  70
    32
  0
VERTEX
  8
0
  5
2569F
 10
-384.366
 20
841.952
 30
0.000000
  70
    32
  0
VERTEX
  8
0
  5
256A0
 10
-384.366
 20
841.947
 30
0.000000
  70
    32
  0
VERTEX
  8
0
  5
256A1
 10
-384.367
 20
841.943
 30
0.000000
  70
    32
  0
VERTEX
  8
0
  5
256A2
 10
-384.367
 20
841.939
 30
0.000000
  70
    32
  0
VERTEX
  8
0
  5
256A3
 10
-384.368
 20
841.934
 30
0.000000
  70
    32
  0
VERTEX
  8
0
  5
256A4
 10
-384.369
 20
841.930
 30
0.000000
  70
    32
  0
VERTEX
  8
0
  5
256A5
 10
-384.370
 20
841.925
 30
0.000000
  70
    32
  0
VERTEX
  8
0
  5
256A6
 10
-384.371
 20
841.921
 30
0.000000
  70
    32
  0
VERTEX
  8
0
  5
256A7
 10
-384.373
 20
841.917
 30
0.000000
  70
    32
  0
VERTEX
  8
0
  5
256A8
 10
-384.374
 20
841.912
 30
0.000000
  70
    32
  0
VERTEX
  8
0
  5
256A9
 10
-384.375
 20
841.908
 30
0.000000
  70
    32
  0
VERTEX
  8
0
  5
256AA
 10
-384.377
 20
841.904
 30
0.000000
  70
    32
  0
VERTEX
  8
0
  5
256AB
 10
-384.379
 20
841.900
 30
0.000000
  70
    32
  0
VERTEX
  8
0
  5
256AC
 10
-384.380
 20
841.895
 30
0.000000
  70
    32
  0
VERTEX
  8
0
  5
256AD
 10
-384.382
 20
841.891
 30
0.000000
  70
    32
  0
VERTEX
  8
0
  5
256AE
 10
-384.384
 20
841.887
 30
0.000000
  70
    32
  0
VERTEX
  8
0
  5
256AF
 10
-384.386
 20
841.883
 30
0.000000
  70
    32
  0
VERTEX
  8
0
  5
256B0
 10
-384.388
 20
841.879
 30
0.000000
  70
    32
  0
VERTEX
  8
0
  5
256B1
 10
-384.390
 20
841.875
 30
0.000000
  70
    32
  0
VERTEX
  8
0
  5
256B2
 10
-384.392
 20
841.871
 30
0.000000
  70
    32
  0
VERTEX
  8
0
  5
256B3
 10
-384.394
 20
841.867
 30
0.000000
  70
    32
  0
VERTEX
  8
0
  5
256B4
 10
-384.396
 20
841.863
 30
0.000000
  70
    32
  0
VERTEX
  8
0
  5
256B5
 10
-384.398
 20
841.859
 30
0.000000
  70
    32
  0
VERTEX
  8
0
  5
256B6
 10
-384.401
 20
841.855
 30
0.000000
  70
    32
  0
VERTEX
  8
0
  5
256B7
 10
-384.403
 20
841.851
 30
0.000000
  70
    32
  0
VERTEX
  8
0
  5
256B8
 10
-384.405
 20
841.848
 30
0.000000
  70
    32
  0
VERTEX
  8
0
  5
256B9
 10
-384.408
 20
841.844
 30
0.000000
  70
    32
  0
VERTEX
  8
0
  5
256BA
 10
-384.410
 20
841.840
 30
0.000000
  70
    32
  0
VERTEX
  8
0
  5
256BB
 10
-384.413
 20
841.836
 30
0.000000
  70
    32
  0
VERTEX
  8
0
  5
256BC
 10
-384.415
 20
841.833
 30
0.000000
  70
    32
  0
VERTEX
  8
0
  5
256BD
 10
-384.418
 20
841.829
 30
0.000000
  70
    32
  0
VERTEX
  8
0
  5
256BE
 10
-384.420
 20
841.825
 30
0.000000
  70
    32
  0
VERTEX
  8
0
  5
256BF
 10
-384.423
 20
841.822
 30
0.000000
  70
    32
  0
VERTEX
  8
0
  5
256C0
 10
-384.426
 20
841.818
 30
0.000000
  70
    32
  0
VERTEX
  8
0
  5
256C1
 10
-384.428
 20
841.815
 30
0.000000
  70
    32
  0
VERTEX
  8
0
  5
256C2
 10
-384.431
 20
841.811
 30
0.000000
  70
    32
  0
VERTEX
  8
0
  5
256C3
 10
-384.434
 20
841.808
 30
0.000000
  70
    32
  0
VERTEX
  8
0
  5
256C4
 10
-384.437
 20
841.804
 30
0.000000
  70
    32
  0
VERTEX
  8
0
  5
256C5
 10
-384.439
 20
841.801
 30
0.000000
  70
    32
  0
VERTEX
  8
0
  5
256C6
 10
-384.442
 20
841.797
 30
0.000000
  70
    32
  0
VERTEX
  8
0
  5
256C7
 10
-384.445
 20
841.794
 30
0.000000
  70
    32
  0
VERTEX
  8
0
  5
256C8
 10
-384.448
 20
841.790
 30
0.000000
  70
    32
  0
VERTEX
  8
0
  5
256C9
 10
-384.451
 20
841.787
 30
0.000000
  70
    32
  0
VERTEX
  8
0
  5
256CA
 10
-384.454
 20
841.783
 30
0.000000
  70
    32
  0
VERTEX
  8
0
  5
256CB
 10
-384.457
 20
841.780
 30
0.000000
  70
    32
  0
VERTEX
  8
0
  5
256CC
 10
-384.460
 20
841.777
 30
0.000000
  70
    32
  0
VERTEX
  8
0
  5
256CD
 10
-384.463
 20
841.773
 30
0.000000
  70
    32
  0
VERTEX
  8
0
  5
256CE
 10
-384.466
 20
841.770
 30
0.000000
  70
    32
  0
VERTEX
  8
0
  5
256CF
 10
-384.469
 20
841.767
 30
0.000000
  70
    32
  0
VERTEX
  8
0
  5
256D0
 10
-384.472
 20
841.763
 30
0.000000
  70
    32
  0
VERTEX
  8
0
  5
256D1
 10
-384.475
 20
841.760
 30
0.000000
  70
    32
  0
VERTEX
  8
0
  5
256D2
 10
-384.478
 20
841.757
 30
0.000000
  70
    32
  0
VERTEX
  8
0
  5
256D3
 10
-384.481
 20
841.753
 30
0.000000
  70
    32
  0
VERTEX
  8
0
  5
256D4
 10
-384.484
 20
841.750
 30
0.000000
  70
    32
  0
VERTEX
  8
0
  5
256D5
 10
-384.487
 20
841.747
 30
0.000000
  70
    32
  0
VERTEX
  8
0
  5
256D6
 10
-384.490
 20
841.743
 30
0.000000
  70
    32
  0
VERTEX
  8
0
  5
256D7
 10
-384.493
 20
841.740
 30
0.000000
  70
    32
  0
VERTEX
  8
0
  5
256D8
 10
-384.496
 20
841.737
 30
0.000000
  70
    32
  0
VERTEX
  8
0
  5
256D9
 10
-384.499
 20
841.734
 30
0.000000
  70
    32
  0
VERTEX
  8
0
  5
256DA
 10
-384.502
 20
841.730
 30
0.000000
  70
    32
  0
VERTEX
  8
0
  5
256DB
 10
-384.505
 20
841.727
 30
0.000000
  70
    32
  0
VERTEX
  8
0
  5
256DC
 10
-384.508
 20
841.724
 30
0.000000
  70
    32
  0
VERTEX
  8
0
  5
256DD
 10
-384.511
 20
841.720
 30
0.000000
  70
    32
  0
VERTEX
  8
0
  5
256DE
 10
-384.514
 20
841.717
 30
0.000000
  70
    32
  0
VERTEX
  8
0
  5
256DF
 10
-384.517
 20
841.714
 30
0.000000
  70
    32
  0
VERTEX
  8
0
  5
256E0
 10
-384.520
 20
841.711
 30
0.000000
  70
    32
  0
VERTEX
  8
0
  5
256E1
 10
-384.523
 20
841.707
 30
0.000000
  70
    32
  0
VERTEX
  8
0
  5
256E2
 10
-384.526
 20
841.704
 30
0.000000
  70
    32
  0
VERTEX
  8
0
  5
256E3
 10
-384.529
 20
841.701
 30
0.000000
  70
    32
  0
VERTEX
  8
0
  5
256E4
 10
-384.532
 20
841.697
 30
0.000000
  70
    32
  0
VERTEX
  8
0
  5
256E5
 10
-384.535
 20
841.694
 30
0.000000
  70
    32
  0
VERTEX
  8
0
  5
256E6
 10
-384.538
 20
841.691
 30
0.000000
  70
    32
  0
VERTEX
  8
0
  5
256E7
 10
-384.541
 20
841.687
 30
0.000000
  70
    32
  0
VERTEX
  8
0
  5
256E8
 10
-384.544
 20
841.684
 30
0.000000
  70
    32
  0
VERTEX
  8
0
  5
256E9
 10
-384.547
 20
841.681
 30
0.000000
  70
    32
  0
VERTEX
  8
0
  5
256EA
 10
-384.550
 20
841.677
 30
0.000000
  70
    32
  0
VERTEX
  8
0
  5
256EB
 10
-384.553
 20
841.674
 30
0.000000
  70
    32
  0
VERTEX
  8
0
  5
256EC
 10
-384.556
 20
841.671
 30
0.000000
  70
    32
  0
VERTEX
  8
0
  5
256ED
 10
-384.559
 20
841.667
 30
0.000000
  70
    32
  0
VERTEX
  8
0
  5
256EE
 10
-384.562
 20
841.664
 30
0.000000
  70
    32
  0
VERTEX
  8
0
  5
256EF
 10
-384.565
 20
841.661
 30
0.000000
  70
    32
  0
VERTEX
  8
0
  5
256F0
 10
-384.568
 20
841.657
 30
0.000000
  70
    32
  0
VERTEX
  8
0
  5
256F1
 10
-384.571
 20
841.654
 30
0.000000
  70
    32
  0
VERTEX
  8
0
  5
256F2
 10
-384.573
 20
841.650
 30
0.000000
  70
    32
  0
VERTEX
  8
0
  5
256F3
 10
-384.576
 20
841.647
 30
0.000000
  70
    32
  0
VERTEX
  8
0
  5
256F4
 10
-384.579
 20
841.643
 30
0.000000
  70
    32
  0
VERTEX
  8
0
  5
256F5
 10
-384.582
 20
841.640
 30
0.000000
  70
    32
  0
VERTEX
  8
0
  5
256F6
 10
-384.584
 20
841.636
 30
0.000000
  70
    32
  0
VERTEX
  8
0
  5
256F7
 10
-384.587
 20
841.633
 30
0.000000
  70
    32
  0
VERTEX
  8
0
  5
256F8
 10
-384.590
 20
841.629
 30
0.000000
  70
    32
  0
VERTEX
  8
0
  5
256F9
 10
-384.593
 20
841.626
 30
0.000000
  70
    32
  0
VERTEX
  8
0
  5
256FA
 10
-384.595
 20
841.622
 30
0.000000
  70
    32
  0
VERTEX
  8
0
  5
256FB
 10
-384.598
 20
841.619
 30
0.000000
  70
    32
  0
VERTEX
  8
0
  5
256FC
 10
-384.600
 20
841.615
 30
0.000000
  70
    32
  0
VERTEX
  8
0
  5
256FD
 10
-384.603
 20
841.612
 30
0.000000
  70
    32
  0
VERTEX
  8
0
  5
256FE
 10
-384.606
 20
841.608
 30
0.000000
  70
    32
  0
VERTEX
  8
0
  5
256FF
 10
-384.608
 20
841.604
 30
0.000000
  70
    32
  0
VERTEX
  8
0
  5
25700
 10
-384.611
 20
841.601
 30
0.000000
  70
    32
  0
VERTEX
  8
0
  5
25701
 10
-384.613
 20
841.597
 30
0.000000
  70
    32
  0
VERTEX
  8
0
  5
25702
 10
-384.616
 20
841.593
 30
0.000000
  70
    32
  0
VERTEX
  8
0
  5
25703
 10
-384.618
 20
841.590
 30
0.000000
  70
    32
  0
VERTEX
  8
0
  5
25704
 10
-384.621
 20
841.586
 30
0.000000
  70
    32
  0
VERTEX
  8
0
  5
25705
 10
-384.623
 20
841.582
 30
0.000000
  70
    32
  0
VERTEX
  8
0
  5
25706
 10
-384.626
 20
841.579
 30
0.000000
  70
    32
  0
VERTEX
  8
0
  5
25707
 10
-384.628
 20
841.575
 30
0.000000
  70
    32
  0
VERTEX
  8
0
  5
25708
 10
-384.631
 20
841.571
 30
0.000000
  70
    32
  0
VERTEX
  8
0
  5
25709
 10
-384.633
 20
841.567
 30
0.000000
  70
    32
  0
VERTEX
  8
0
  5
2570A
 10
-384.635
 20
841.564
 30
0.000000
  70
    32
  0
VERTEX
  8
0
  5
2570B
 10
-384.638
 20
841.560
 30
0.000000
  70
    32
  0
VERTEX
  8
0
  5
2570C
 10
-384.640
 20
841.556
 30
0.000000
  70
    32
  0
VERTEX
  8
0
  5
2570D
 10
-384.643
 20
841.552
 30
0.000000
  70
    32
  0
VERTEX
  8
0
  5
2570E
 10
-384.645
 20
841.548
 30
0.000000
  70
    32
  0
VERTEX
  8
0
  5
2570F
 10
-384.647
 20
841.545
 30
0.000000
  70
    32
  0
VERTEX
  8
0
  5
25710
 10
-384.650
 20
841.541
 30
0.000000
  70
    32
  0
VERTEX
  8
0
  5
25711
 10
-384.652
 20
841.537
 30
0.000000
  70
    32
  0
VERTEX
  8
0
  5
25712
 10
-384.654
 20
841.533
 30
0.000000
  70
    32
  0
VERTEX
  8
0
  5
25713
 10
-384.657
 20
841.529
 30
0.000000
  70
    32
  0
VERTEX
  8
0
  5
25714
 10
-384.659
 20
841.526
 30
0.000000
  70
    32
  0
VERTEX
  8
0
  5
25715
 10
-384.661
 20
841.522
 30
0.000000
  70
    32
  0
VERTEX
  8
0
  5
25716
 10
-384.663
 20
841.518
 30
0.000000
  70
    32
  0
VERTEX
  8
0
  5
25717
 10
-384.666
 20
841.514
 30
0.000000
  70
    32
  0
VERTEX
  8
0
  5
25718
 10
-384.668
 20
841.510
 30
0.000000
  70
    32
  0
VERTEX
  8
0
  5
25719
 10
-384.670
 20
841.506
 30
0.000000
  70
    32
  0
VERTEX
  8
0
  5
2571A
 10
-384.672
 20
841.502
 30
0.000000
  70
    32
  0
VERTEX
  8
0
  5
2571B
 10
-384.675
 20
841.498
 30
0.000000
  70
    32
  0
VERTEX
  8
0
  5
2571C
 10
-384.677
 20
841.495
 30
0.000000
  70
    32
  0
VERTEX
  8
0
  5
2571D
 10
-384.679
 20
841.491
 30
0.000000
  70
    32
  0
VERTEX
  8
0
  5
2571E
 10
-384.681
 20
841.487
 30
0.000000
  70
    32
  0
VERTEX
  8
0
  5
2571F
 10
-384.684
 20
841.483
 30
0.000000
  70
    32
  0
VERTEX
  8
0
  5
25720
 10
-384.686
 20
841.479
 30
0.000000
  70
    32
  0
VERTEX
  8
0
  5
25721
 10
-384.688
 20
841.475
 30
0.000000
  70
    32
  0
VERTEX
  8
0
  5
25722
 10
-384.690
 20
841.471
 30
0.000000
  70
    32
  0
VERTEX
  8
0
  5
25723
 10
-384.692
 20
841.467
 30
0.000000
  70
    32
  0
VERTEX
  8
0
  5
25724
 10
-384.695
 20
841.463
 30
0.000000
  70
    32
  0
VERTEX
  8
0
  5
25725
 10
-384.697
 20
841.460
 30
0.000000
  70
    32
  0
VERTEX
  8
0
  5
25726
 10
-384.699
 20
841.456
 30
0.000000
  70
    32
  0
VERTEX
  8
0
  5
25727
 10
-384.701
 20
841.452
 30
0.000000
  70
    32
  0
VERTEX
  8
0
  5
25728
 10
-384.703
 20
841.448
 30
0.000000
  70
    32
  0
VERTEX
  8
0
  5
25729
 10
-384.706
 20
841.444
 30
0.000000
  70
    32
  0
VERTEX
  8
0
  5
2572A
 10
-384.708
 20
841.440
 30
0.000000
  70
    32
  0
VERTEX
  8
0
  5
2572B
 10
-384.710
 20
841.436
 30
0.000000
  70
    32
  0
VERTEX
  8
0
  5
2572C
 10
-384.712
 20
841.432
 30
0.000000
  70
    32
  0
VERTEX
  8
0
  5
2572D
 10
-384.714
 20
841.428
 30
0.000000
  70
    32
  0
VERTEX
  8
0
  5
2572E
 10
-384.717
 20
841.424
 30
0.000000
  70
    32
  0
VERTEX
  8
0
  5
2572F
 10
-384.719
 20
841.420
 30
0.000000
  70
    32
  0
VERTEX
  8
0
  5
25730
 10
-384.721
 20
841.417
 30
0.000000
  70
    32
  0
VERTEX
  8
0
  5
25731
 10
-384.723
 20
841.413
 30
0.000000
  70
    32
  0
VERTEX
  8
0
  5
25732
 10
-384.726
 20
841.409
 30
0.000000
  70
    32
  0
VERTEX
  8
0
  5
25733
 10
-384.728
 20
841.405
 30
0.000000
  70
    32
  0
VERTEX
  8
0
  5
25734
 10
-384.730
 20
841.401
 30
0.000000
  70
    32
  0
VERTEX
  8
0
  5
25735
 10
-384.732
 20
841.397
 30
0.000000
  70
    32
  0
VERTEX
  8
0
  5
25736
 10
-384.734
 20
841.393
 30
0.000000
  70
    32
  0
VERTEX
  8
0
  5
25737
 10
-384.737
 20
841.389
 30
0.000000
  70
    32
  0
VERTEX
  8
0
  5
25738
 10
-384.739
 20
841.385
 30
0.000000
  70
    32
  0
VERTEX
  8
0
  5
25739
 10
-384.741
 20
841.382
 30
0.000000
  70
    32
  0
VERTEX
  8
0
  5
2573A
 10
-384.743
 20
841.378
 30
0.000000
  70
    32
  0
VERTEX
  8
0
  5
2573B
 10
-384.745
 20
841.374
 30
0.000000
  70
    32
  0
VERTEX
  8
0
  5
2573C
 10
-384.748
 20
841.370
 30
0.000000
  70
    32
  0
VERTEX
  8
0
  5
2573D
 10
-384.750
 20
841.366
 30
0.000000
  70
    32
  0
VERTEX
  8
0
  5
2573E
 10
-384.752
 20
841.362
 30
0.000000
  70
    32
  0
VERTEX
  8
0
  5
2573F
 10
-384.754
 20
841.358
 30
0.000000
  70
    32
  0
VERTEX
  8
0
  5
25740
 10
-384.756
 20
841.354
 30
0.000000
  70
    32
  0
VERTEX
  8
0
  5
25741
 10
-384.758
 20
841.350
 30
0.000000
  70
    32
  0
VERTEX
  8
0
  5
25742
 10
-384.761
 20
841.346
 30
0.000000
  70
    32
  0
VERTEX
  8
0
  5
25743
 10
-384.763
 20
841.343
 30
0.000000
  70
    32
  0
VERTEX
  8
0
  5
25744
 10
-384.765
 20
841.339
 30
0.000000
  70
    32
  0
VERTEX
  8
0
  5
25745
 10
-384.767
 20
841.335
 30
0.000000
  70
    32
  0
VERTEX
  8
0
  5
25746
 10
-384.769
 20
841.331
 30
0.000000
  70
    32
  0
VERTEX
  8
0
  5
25747
 10
-384.771
 20
841.327
 30
0.000000
  70
    32
  0
VERTEX
  8
0
  5
25748
 10
-384.773
 20
841.323
 30
0.000000
  70
    32
  0
VERTEX
  8
0
  5
25749
 10
-384.775
 20
841.319
 30
0.000000
  70
    32
  0
VERTEX
  8
0
  5
2574A
 10
-384.777
 20
841.315
 30
0.000000
  70
    32
  0
VERTEX
  8
0
  5
2574B
 10
-384.780
 20
841.311
 30
0.000000
  70
    32
  0
VERTEX
  8
0
  5
2574C
 10
-384.782
 20
841.307
 30
0.000000
  70
    32
  0
VERTEX
  8
0
  5
2574D
 10
-384.784
 20
841.303
 30
0.000000
  70
    32
  0
VERTEX
  8
0
  5
2574E
 10
-384.786
 20
841.299
 30
0.000000
  70
    32
  0
VERTEX
  8
0
  5
2574F
 10
-384.788
 20
841.295
 30
0.000000
  70
    32
  0
VERTEX
  8
0
  5
25750
 10
-384.790
 20
841.291
 30
0.000000
  70
    32
  0
VERTEX
  8
0
  5
25751
 10
-384.792
 20
841.287
 30
0.000000
  70
    32
  0
VERTEX
  8
0
  5
25752
 10
-384.793
 20
841.283
 30
0.000000
  70
    32
  0
VERTEX
  8
0
  5
25753
 10
-384.795
 20
841.279
 30
0.000000
  70
    32
  0
VERTEX
  8
0
  5
25754
 10
-384.797
 20
841.275
 30
0.000000
  70
    32
  0
VERTEX
  8
0
  5
25755
 10
-384.799
 20
841.271
 30
0.000000
  70
    32
  0
VERTEX
  8
0
  5
25756
 10
-384.801
 20
841.267
 30
0.000000
  70
    32
  0
VERTEX
  8
0
  5
25757
 10
-384.803
 20
841.263
 30
0.000000
  70
    32
  0
VERTEX
  8
0
  5
25758
 10
-384.805
 20
841.259
 30
0.000000
  70
    32
  0
VERTEX
  8
0
  5
25759
 10
-384.807
 20
841.255
 30
0.000000
  70
    32
  0
VERTEX
  8
0
  5
2575A
 10
-384.808
 20
841.251
 30
0.000000
  70
    32
  0
VERTEX
  8
0
  5
2575B
 10
-384.810
 20
841.247
 30
0.000000
  70
    32
  0
VERTEX
  8
0
  5
2575C
 10
-384.812
 20
841.243
 30
0.000000
  70
    32
  0
VERTEX
  8
0
  5
2575D
 10
-384.814
 20
841.238
 30
0.000000
  70
    32
  0
VERTEX
  8
0
  5
2575E
 10
-384.815
 20
841.234
 30
0.000000
  70
    32
  0
VERTEX
  8
0
  5
2575F
 10
-384.817
 20
841.230
 30
0.000000
  70
    32
  0
VERTEX
  8
0
  5
25760
 10
-384.819
 20
841.226
 30
0.000000
  70
    32
  0
VERTEX
  8
0
  5
25761
 10
-384.820
 20
841.222
 30
0.000000
  70
    32
  0
VERTEX
  8
0
  5
25762
 10
-384.822
 20
841.218
 30
0.000000
  70
    32
  0
VERTEX
  8
0
  5
25763
 10
-384.824
 20
841.214
 30
0.000000
  70
    32
  0
VERTEX
  8
0
  5
25764
 10
-384.825
 20
841.210
 30
0.000000
  70
    32
  0
VERTEX
  8
0
  5
25765
 10
-384.827
 20
841.205
 30
0.000000
  70
    32
  0
VERTEX
  8
0
  5
25766
 10
-384.829
 20
841.201
 30
0.000000
  70
    32
  0
VERTEX
  8
0
  5
25767
 10
-384.830
 20
841.197
 30
0.000000
  70
    32
  0
VERTEX
  8
0
  5
25768
 10
-384.832
 20
841.193
 30
0.000000
  70
    32
  0
VERTEX
  8
0
  5
25769
 10
-384.833
 20
841.189
 30
0.000000
  70
    32
  0
VERTEX
  8
0
  5
2576A
 10
-384.835
 20
841.185
 30
0.000000
  70
    32
  0
VERTEX
  8
0
  5
2576B
 10
-384.837
 20
841.180
 30
0.000000
  70
    32
  0
VERTEX
  8
0
  5
2576C
 10
-384.838
 20
841.176
 30
0.000000
  70
    32
  0
VERTEX
  8
0
  5
2576D
 10
-384.840
 20
841.172
 30
0.000000
  70
    32
  0
VERTEX
  8
0
  5
2576E
 10
-384.841
 20
841.168
 30
0.000000
  70
    32
  0
VERTEX
  8
0
  5
2576F
 10
-384.843
 20
841.164
 30
0.000000
  70
    32
  0
VERTEX
  8
0
  5
25770
 10
-384.844
 20
841.159
 30
0.000000
  70
    32
  0
VERTEX
  8
0
  5
25771
 10
-384.846
 20
841.155
 30
0.000000
  70
    32
  0
VERTEX
  8
0
  5
25772
 10
-384.848
 20
841.151
 30
0.000000
  70
    32
  0
VERTEX
  8
0
  5
25773
 10
-384.849
 20
841.147
 30
0.000000
  70
    32
  0
VERTEX
  8
0
  5
25774
 10
-384.851
 20
841.143
 30
0.000000
  70
    32
  0
VERTEX
  8
0
  5
25775
 10
-384.852
 20
841.139
 30
0.000000
  70
    32
  0
VERTEX
  8
0
  5
25776
 10
-384.854
 20
841.134
 30
0.000000
  70
    32
  0
VERTEX
  8
0
  5
25777
 10
-384.855
 20
841.130
 30
0.000000
  70
    32
  0
VERTEX
  8
0
  5
25778
 10
-384.857
 20
841.126
 30
0.000000
  70
    32
  0
VERTEX
  8
0
  5
25779
 10
-384.858
 20
841.122
 30
0.000000
  70
    32
  0
VERTEX
  8
0
  5
2577A
 10
-384.860
 20
841.118
 30
0.000000
  70
    32
  0
VERTEX
  8
0
  5
2577B
 10
-384.861
 20
841.113
 30
0.000000
  70
    32
  0
VERTEX
  8
0
  5
2577C
 10
-384.863
 20
841.109
 30
0.000000
  70
    32
  0
VERTEX
  8
0
  5
2577D
 10
-384.865
 20
841.105
 30
0.000000
  70
    32
  0
VERTEX
  8
0
  5
2577E
 10
-384.866
 20
841.101
 30
0.000000
  70
    32
  0
VERTEX
  8
0
  5
2577F
 10
-384.868
 20
841.097
 30
0.000000
  70
    32
  0
VERTEX
  8
0
  5
25780
 10
-384.869
 20
841.092
 30
0.000000
  70
    32
  0
VERTEX
  8
0
  5
25781
 10
-384.871
 20
841.088
 30
0.000000
  70
    32
  0
VERTEX
  8
0
  5
25782
 10
-384.872
 20
841.084
 30
0.000000
  70
    32
  0
VERTEX
  8
0
  5
25783
 10
-384.874
 20
841.080
 30
0.000000
  70
    32
  0
VERTEX
  8
0
  5
25784
 10
-384.876
 20
841.076
 30
0.000000
  70
    32
  0
VERTEX
  8
0
  5
25785
 10
-384.877
 20
841.072
 30
0.000000
  70
    32
  0
VERTEX
  8
0
  5
25786
 10
-384.879
 20
841.067
 30
0.000000
  70
    32
  0
VERTEX
  8
0
  5
25787
 10
-384.880
 20
841.063
 30
0.000000
  70
    32
  0
VERTEX
  8
0
  5
25788
 10
-384.882
 20
841.059
 30
0.000000
  70
    32
  0
VERTEX
  8
0
  5
25789
 10
-384.884
 20
841.055
 30
0.000000
  70
    32
  0
VERTEX
  8
0
  5
2578A
 10
-384.885
 20
841.051
 30
0.000000
  70
    32
  0
VERTEX
  8
0
  5
2578B
 10
-384.887
 20
841.047
 30
0.000000
  70
    32
  0
VERTEX
  8
0
  5
2578C
 10
-384.889
 20
841.042
 30
0.000000
  70
    32
  0
VERTEX
  8
0
  5
2578D
 10
-384.890
 20
841.038
 30
0.000000
  70
    32
  0
VERTEX
  8
0
  5
2578E
 10
-384.892
 20
841.034
 30
0.000000
  70
    32
  0
VERTEX
  8
0
  5
2578F
 10
-384.893
 20
841.030
 30
0.000000
  70
    32
  0
VERTEX
  8
0
  5
25790
 10
-384.895
 20
841.026
 30
0.000000
  70
    32
  0
VERTEX
  8
0
  5
25791
 10
-384.897
 20
841.022
 30
0.000000
  70
    32
  0
VERTEX
  8
0
  5
25792
 10
-384.898
 20
841.018
 30
0.000000
  70
    32
  0
VERTEX
  8
0
  5
25793
 10
-384.900
 20
841.013
 30
0.000000
  70
    32
  0
VERTEX
  8
0
  5
25794
 10
-384.902
 20
841.009
 30
0.000000
  70
    32
  0
VERTEX
  8
0
  5
25795
 10
-384.904
 20
841.005
 30
0.000000
  70
    32
  0
VERTEX
  8
0
  5
25796
 10
-384.905
 20
841.001
 30
0.000000
  70
    32
  0
VERTEX
  8
0
  5
25797
 10
-384.907
 20
840.997
 30
0.000000
  70
    32
  0
VERTEX
  8
0
  5
25798
 10
-384.909
 20
840.993
 30
0.000000
  70
    32
  0
VERTEX
  8
0
  5
25799
 10
-384.910
 20
840.989
 30
0.000000
  70
    32
  0
VERTEX
  8
0
  5
2579A
 10
-384.912
 20
840.985
 30
0.000000
  70
    32
  0
VERTEX
  8
0
  5
2579B
 10
-384.914
 20
840.980
 30
0.000000
  70
    32
  0
VERTEX
  8
0
  5
2579C
 10
-384.915
 20
840.976
 30
0.000000
  70
    32
  0
VERTEX
  8
0
  5
2579D
 10
-384.917
 20
840.972
 30
0.000000
  70
    32
  0
VERTEX
  8
0
  5
2579E
 10
-384.919
 20
840.968
 30
0.000000
  70
    32
  0
VERTEX
  8
0
  5
2579F
 10
-384.921
 20
840.964
 30
0.000000
  70
    32
  0
VERTEX
  8
0
  5
257A0
 10
-384.922
 20
840.960
 30
0.000000
  70
    32
  0
VERTEX
  8
0
  5
257A1
 10
-384.924
 20
840.956
 30
0.000000
  70
    32
  0
VERTEX
  8
0
  5
257A2
 10
-384.926
 20
840.952
 30
0.000000
  70
    32
  0
VERTEX
  8
0
  5
257A3
 10
-384.928
 20
840.948
 30
0.000000
  70
    32
  0
VERTEX
  8
0
  5
257A4
 10
-384.929
 20
840.943
 30
0.000000
  70
    32
  0
VERTEX
  8
0
  5
257A5
 10
-384.931
 20
840.939
 30
0.000000
  70
    32
  0
VERTEX
  8
0
  5
257A6
 10
-384.933
 20
840.935
 30
0.000000
  70
    32
  0
VERTEX
  8
0
  5
257A7
 10
-384.935
 20
840.931
 30
0.000000
  70
    32
  0
VERTEX
  8
0
  5
257A8
 10
-384.936
 20
840.927
 30
0.000000
  70
    32
  0
VERTEX
  8
0
  5
257A9
 10
-384.938
 20
840.923
 30
0.000000
  70
    32
  0
VERTEX
  8
0
  5
257AA
 10
-384.940
 20
840.919
 30
0.000000
  70
    32
  0
VERTEX
  8
0
  5
257AB
 10
-384.942
 20
840.915
 30
0.000000
  70
    32
  0
VERTEX
  8
0
  5
257AC
 10
-384.943
 20
840.911
 30
0.000000
  70
    32
  0
VERTEX
  8
0
  5
257AD
 10
-384.945
 20
840.906
 30
0.000000
  70
    32
  0
VERTEX
  8
0
  5
257AE
 10
-384.947
 20
840.902
 30
0.000000
  70
    32
  0
VERTEX
  8
0
  5
257AF
 10
-384.949
 20
840.898
 30
0.000000
  70
    32
  0
VERTEX
  8
0
  5
257B0
 10
-384.951
 20
840.894
 30
0.000000
  70
    32
  0
VERTEX
  8
0
  5
257B1
 10
-384.952
 20
840.890
 30
0.000000
  70
    32
  0
VERTEX
  8
0
  5
257B2
 10
-384.954
 20
840.886
 30
0.000000
  70
    32
  0
VERTEX
  8
0
  5
257B3
 10
-384.956
 20
840.882
 30
0.000000
  70
    32
  0
VERTEX
  8
0
  5
257B4
 10
-384.958
 20
840.878
 30
0.000000
  70
    32
  0
VERTEX
  8
0
  5
257B5
 10
-384.960
 20
840.874
 30
0.000000
  70
    32
  0
VERTEX
  8
0
  5
257B6
 10
-384.961
 20
840.870
 30
0.000000
  70
    32
  0
VERTEX
  8
0
  5
257B7
 10
-384.963
 20
840.866
 30
0.000000
  70
    32
  0
VERTEX
  8
0
  5
257B8
 10
-384.965
 20
840.861
 30
0.000000
  70
    32
  0
VERTEX
  8
0
  5
257B9
 10
-384.967
 20
840.857
 30
0.000000
  70
    32
  0
VERTEX
  8
0
  5
257BA
 10
-384.969
 20
840.853
 30
0.000000
  70
    32
  0
VERTEX
  8
0
  5
257BB
 10
-384.971
 20
840.849
 30
0.000000
  70
    32
  0
VERTEX
  8
0
  5
257BC
 10
-384.972
 20
840.845
 30
0.000000
  70
    32
  0
VERTEX
  8
0
  5
257BD
 10
-384.974
 20
840.841
 30
0.000000
  70
    32
  0
VERTEX
  8
0
  5
257BE
 10
-384.976
 20
840.837
 30
0.000000
  70
    32
  0
VERTEX
  8
0
  5
257BF
 10
-384.978
 20
840.833
 30
0.000000
  70
    32
  0
VERTEX
  8
0
  5
257C0
 10
-384.980
 20
840.829
 30
0.000000
  70
    32
  0
VERTEX
  8
0
  5
257C1
 10
-384.982
 20
840.825
 30
0.000000
  70
    32
  0
VERTEX
  8
0
  5
257C2
 10
-384.984
 20
840.821
 30
0.000000
  70
    32
  0
VERTEX
  8
0
  5
257C3
 10
-384.986
 20
840.817
 30
0.000000
  70
    32
  0
VERTEX
  8
0
  5
257C4
 10
-384.987
 20
840.813
 30
0.000000
  70
    32
  0
VERTEX
  8
0
  5
257C5
 10
-384.989
 20
840.809
 30
0.000000
  70
    32
  0
VERTEX
  8
0
  5
257C6
 10
-384.991
 20
840.805
 30
0.000000
  70
    32
  0
VERTEX
  8
0
  5
257C7
 10
-384.993
 20
840.801
 30
0.000000
  70
    32
  0
VERTEX
  8
0
  5
257C8
 10
-384.995
 20
840.797
 30
0.000000
  70
    32
  0
VERTEX
  8
0
  5
257C9
 10
-384.997
 20
840.793
 30
0.000000
  70
    32
  0
VERTEX
  8
0
  5
257CA
 10
-384.999
 20
840.789
 30
0.000000
  70
    32
  0
VERTEX
  8
0
  5
257CB
 10
-385.001
 20
840.785
 30
0.000000
  70
    32
  0
VERTEX
  8
0
  5
257CC
 10
-385.003
 20
840.781
 30
0.000000
  70
    32
  0
VERTEX
  8
0
  5
257CD
 10
-385.005
 20
840.777
 30
0.000000
  70
    32
  0
VERTEX
  8
0
  5
257CE
 10
-385.007
 20
840.773
 30
0.000000
  70
    32
  0
VERTEX
  8
0
  5
257CF
 10
-385.009
 20
840.769
 30
0.000000
  70
    32
  0
VERTEX
  8
0
  5
257D0
 10
-385.011
 20
840.765
 30
0.000000
  70
    32
  0
VERTEX
  8
0
  5
257D1
 10
-385.013
 20
840.761
 30
0.000000
  70
    32
  0
VERTEX
  8
0
  5
257D2
 10
-385.015
 20
840.757
 30
0.000000
  70
    32
  0
VERTEX
  8
0
  5
257D3
 10
-385.017
 20
840.753
 30
0.000000
  70
    32
  0
VERTEX
  8
0
  5
257D4
 10
-385.019
 20
840.749
 30
0.000000
  70
    32
  0
VERTEX
  8
0
  5
257D5
 10
-385.022
 20
840.745
 30
0.000000
  70
    32
  0
VERTEX
  8
0
  5
257D6
 10
-385.024
 20
840.741
 30
0.000000
  70
    32
  0
VERTEX
  8
0
  5
257D7
 10
-385.026
 20
840.737
 30
0.000000
  70
    32
  0
VERTEX
  8
0
  5
257D8
 10
-385.028
 20
840.733
 30
0.000000
  70
    32
  0
VERTEX
  8
0
  5
257D9
 10
-385.030
 20
840.729
 30
0.000000
  70
    32
  0
VERTEX
  8
0
  5
257DA
 10
-385.032
 20
840.725
 30
0.000000
  70
    32
  0
VERTEX
  8
0
  5
257DB
 10
-385.035
 20
840.721
 30
0.000000
  70
    32
  0
VERTEX
  8
0
  5
257DC
 10
-385.037
 20
840.718
 30
0.000000
  70
    32
  0
VERTEX
  8
0
  5
257DD
 10
-385.039
 20
840.714
 30
0.000000
  70
    32
  0
VERTEX
  8
0
  5
257DE
 10
-385.041
 20
840.710
 30
0.000000
  70
    32
  0
VERTEX
  8
0
  5
257DF
 10
-385.043
 20
840.706
 30
0.000000
  70
    32
  0
VERTEX
  8
0
  5
257E0
 10
-385.046
 20
840.702
 30
0.000000
  70
    32
  0
VERTEX
  8
0
  5
257E1
 10
-385.048
 20
840.698
 30
0.000000
  70
    32
  0
VERTEX
  8
0
  5
257E2
 10
-385.050
 20
840.694
 30
0.000000
  70
    32
  0
VERTEX
  8
0
  5
257E3
 10
-385.053
 20
840.691
 30
0.000000
  70
    32
  0
VERTEX
  8
0
  5
257E4
 10
-385.055
 20
840.687
 30
0.000000
  70
    32
  0
VERTEX
  8
0
  5
257E5
 10
-385.057
 20
840.683
 30
0.000000
  70
    32
  0
VERTEX
  8
0
  5
257E6
 10
-385.060
 20
840.679
 30
0.000000
  70
    32
  0
VERTEX
  8
0
  5
257E7
 10
-385.062
 20
840.675
 30
0.000000
  70
    32
  0
VERTEX
  8
0
  5
257E8
 10
-385.064
 20
840.672
 30
0.000000
  70
    32
  0
VERTEX
  8
0
  5
257E9
 10
-385.067
 20
840.668
 30
0.000000
  70
    32
  0
VERTEX
  8
0
  5
257EA
 10
-385.069
 20
840.664
 30
0.000000
  70
    32
  0
VERTEX
  8
0
  5
257EB
 10
-385.072
 20
840.661
 30
0.000000
  70
    32
  0
VERTEX
  8
0
  5
257EC
 10
-385.074
 20
840.657
 30
0.000000
  70
    32
  0
VERTEX
  8
0
  5
257ED
 10
-385.077
 20
840.653
 30
0.000000
  70
    32
  0
VERTEX
  8
0
  5
257EE
 10
-385.079
 20
840.649
 30
0.000000
  70
    32
  0
VERTEX
  8
0
  5
257EF
 10
-385.082
 20
840.646
 30
0.000000
  70
    32
  0
VERTEX
  8
0
  5
257F0
 10
-385.084
 20
840.642
 30
0.000000
  70
    32
  0
VERTEX
  8
0
  5
257F1
 10
-385.087
 20
840.638
 30
0.000000
  70
    32
  0
VERTEX
  8
0
  5
257F2
 10
-385.089
 20
840.635
 30
0.000000
  70
    32
  0
VERTEX
  8
0
  5
257F3
 10
-385.092
 20
840.631
 30
0.000000
  70
    32
  0
VERTEX
  8
0
  5
257F4
 10
-385.095
 20
840.627
 30
0.000000
  70
    32
  0
VERTEX
  8
0
  5
257F5
 10
-385.097
 20
840.624
 30
0.000000
  70
    32
  0
VERTEX
  8
0
  5
257F6
 10
-385.100
 20
840.620
 30
0.000000
  70
    32
  0
VERTEX
  8
0
  5
257F7
 10
-385.103
 20
840.617
 30
0.000000
  70
    32
  0
VERTEX
  8
0
  5
257F8
 10
-385.105
 20
840.613
 30
0.000000
  70
    32
  0
VERTEX
  8
0
  5
257F9
 10
-385.108
 20
840.609
 30
0.000000
  70
    32
  0
VERTEX
  8
0
  5
257FA
 10
-385.111
 20
840.606
 30
0.000000
  70
    32
  0
VERTEX
  8
0
  5
257FB
 10
-385.113
 20
840.602
 30
0.000000
  70
    32
  0
VERTEX
  8
0
  5
257FC
 10
-385.116
 20
840.599
 30
0.000000
  70
    32
  0
VERTEX
  8
0
  5
257FD
 10
-385.119
 20
840.595
 30
0.000000
  70
    32
  0
VERTEX
  8
0
  5
257FE
 10
-385.121
 20
840.592
 30
0.000000
  70
    32
  0
VERTEX
  8
0
  5
257FF
 10
-385.124
 20
840.588
 30
0.000000
  70
    32
  0
VERTEX
  8
0
  5
25800
 10
-385.127
 20
840.585
 30
0.000000
  70
    32
  0
VERTEX
  8
0
  5
25801
 10
-385.130
 20
840.581
 30
0.000000
  70
    32
  0
VERTEX
  8
0
  5
25802
 10
-385.132
 20
840.578
 30
0.000000
  70
    32
  0
VERTEX
  8
0
  5
25803
 10
-385.135
 20
840.574
 30
0.000000
  70
    32
  0
VERTEX
  8
0
  5
25804
 10
-385.138
 20
840.571
 30
0.000000
  70
    32
  0
VERTEX
  8
0
  5
25805
 10
-385.141
 20
840.567
 30
0.000000
  70
    32
  0
VERTEX
  8
0
  5
25806
 10
-385.144
 20
840.564
 30
0.000000
  70
    32
  0
VERTEX
  8
0
  5
25807
 10
-385.147
 20
840.560
 30
0.000000
  70
    32
  0
VERTEX
  8
0
  5
25808
 10
-385.149
 20
840.557
 30
0.000000
  70
    32
  0
VERTEX
  8
0
  5
25809
 10
-385.152
 20
840.553
 30
0.000000
  70
    32
  0
VERTEX
  8
0
  5
2580A
 10
-385.155
 20
840.550
 30
0.000000
  70
    32
  0
VERTEX
  8
0
  5
2580B
 10
-385.158
 20
840.546
 30
0.000000
  70
    32
  0
VERTEX
  8
0
  5
2580C
 10
-385.161
 20
840.543
 30
0.000000
  70
    32
  0
VERTEX
  8
0
  5
2580D
 10
-385.164
 20
840.540
 30
0.000000
  70
    32
  0
VERTEX
  8
0
  5
2580E
 10
-385.167
 20
840.536
 30
0.000000
  70
    32
  0
VERTEX
  8
0
  5
2580F
 10
-385.169
 20
840.533
 30
0.000000
  70
    32
  0
VERTEX
  8
0
  5
25810
 10
-385.172
 20
840.529
 30
0.000000
  70
    32
  0
VERTEX
  8
0
  5
25811
 10
-385.175
 20
840.526
 30
0.000000
  70
    32
  0
VERTEX
  8
0
  5
25812
 10
-385.178
 20
840.523
 30
0.000000
  70
    32
  0
VERTEX
  8
0
  5
25813
 10
-385.181
 20
840.519
 30
0.000000
  70
    32
  0
VERTEX
  8
0
  5
25814
 10
-385.184
 20
840.516
 30
0.000000
  70
    32
  0
VERTEX
  8
0
  5
25815
 10
-385.187
 20
840.513
 30
0.000000
  70
    32
  0
VERTEX
  8
0
  5
25816
 10
-385.190
 20
840.509
 30
0.000000
  70
    32
  0
VERTEX
  8
0
  5
25817
 10
-385.193
 20
840.506
 30
0.000000
  70
    32
  0
VERTEX
  8
0
  5
25818
 10
-385.196
 20
840.503
 30
0.000000
  70
    32
  0
VERTEX
  8
0
  5
25819
 10
-385.199
 20
840.499
 30
0.000000
  70
    32
  0
VERTEX
  8
0
  5
2581A
 10
-385.202
 20
840.496
 30
0.000000
  70
    32
  0
VERTEX
  8
0
  5
2581B
 10
-385.205
 20
840.493
 30
0.000000
  70
    32
  0
VERTEX
  8
0
  5
2581C
 10
-385.208
 20
840.489
 30
0.000000
  70
    32
  0
VERTEX
  8
0
  5
2581D
 10
-385.211
 20
840.486
 30
0.000000
  70
    32
  0
VERTEX
  8
0
  5
2581E
 10
-385.214
 20
840.483
 30
0.000000
  70
    32
  0
VERTEX
  8
0
  5
2581F
 10
-385.217
 20
840.479
 30
0.000000
  70
    32
  0
VERTEX
  8
0
  5
25820
 10
-385.220
 20
840.476
 30
0.000000
  70
    32
  0
VERTEX
  8
0
  5
25821
 10
-385.223
 20
840.473
 30
0.000000
  70
    32
  0
VERTEX
  8
0
  5
25822
 10
-385.226
 20
840.470
 30
0.000000
  70
    32
  0
VERTEX
  8
0
  5
25823
 10
-385.229
 20
840.466
 30
0.000000
  70
    32
  0
VERTEX
  8
0
  5
25824
 10
-385.232
 20
840.463
 30
0.000000
  70
    32
  0
VERTEX
  8
0
  5
25825
 10
-385.235
 20
840.460
 30
0.000000
  70
    32
  0
VERTEX
  8
0
  5
25826
 10
-385.238
 20
840.457
 30
0.000000
  70
    32
  0
VERTEX
  8
0
  5
25827
 10
-385.241
 20
840.453
 30
0.000000
  70
    32
  0
VERTEX
  8
0
  5
25828
 10
-385.244
 20
840.450
 30
0.000000
  70
    32
  0
VERTEX
  8
0
  5
25829
 10
-385.247
 20
840.447
 30
0.000000
  70
    32
  0
VERTEX
  8
0
  5
2582A
 10
-385.250
 20
840.444
 30
0.000000
  70
    32
  0
VERTEX
  8
0
  5
2582B
 10
-385.253
 20
840.441
 30
0.000000
  70
    32
  0
VERTEX
  8
0
  5
2582C
 10
-385.256
 20
840.437
 30
0.000000
  70
    32
  0
VERTEX
  8
0
  5
2582D
 10
-385.260
 20
840.434
 30
0.000000
  70
    32
  0
VERTEX
  8
0
  5
2582E
 10
-385.263
 20
840.431
 30
0.000000
  70
    32
  0
VERTEX
  8
0
  5
2582F
 10
-385.266
 20
840.428
 30
0.000000
  70
    32
  0
VERTEX
  8
0
  5
25830
 10
-385.269
 20
840.425
 30
0.000000
  70
    32
  0
VERTEX
  8
0
  5
25831
 10
-385.272
 20
840.422
 30
0.000000
  70
    32
  0
VERTEX
  8
0
  5
25832
 10
-385.275
 20
840.418
 30
0.000000
  70
    32
  0
VERTEX
  8
0
  5
25833
 10
-385.278
 20
840.415
 30
0.000000
  70
    32
  0
VERTEX
  8
0
  5
25834
 10
-385.282
 20
840.412
 30
0.000000
  70
    32
  0
VERTEX
  8
0
  5
25835
 10
-385.285
 20
840.409
 30
0.000000
  70
    32
  0
VERTEX
  8
0
  5
25836
 10
-385.288
 20
840.406
 30
0.000000
  70
    32
  0
VERTEX
  8
0
  5
25837
 10
-385.291
 20
840.403
 30
0.000000
  70
    32
  0
VERTEX
  8
0
  5
25838
 10
-385.294
 20
840.400
 30
0.000000
  70
    32
  0
VERTEX
  8
0
  5
25839
 10
-385.297
 20
840.397
 30
0.000000
  70
    32
  0
VERTEX
  8
0
  5
2583A
 10
-385.301
 20
840.393
 30
0.000000
  70
    32
  0
VERTEX
  8
0
  5
2583B
 10
-385.304
 20
840.390
 30
0.000000
  70
    32
  0
VERTEX
  8
0
  5
2583C
 10
-385.307
 20
840.387
 30
0.000000
  70
    32
  0
VERTEX
  8
0
  5
2583D
 10
-385.310
 20
840.384
 30
0.000000
  70
    32
  0
VERTEX
  8
0
  5
2583E
 10
-385.314
 20
840.381
 30
0.000000
  70
    32
  0
VERTEX
  8
0
  5
2583F
 10
-385.317
 20
840.378
 30
0.000000
  70
    32
  0
VERTEX
  8
0
  5
25840
 10
-385.320
 20
840.375
 30
0.000000
  70
    32
  0
VERTEX
  8
0
  5
25841
 10
-385.323
 20
840.372
 30
0.000000
  70
    32
  0
VERTEX
  8
0
  5
25842
 10
-385.327
 20
840.369
 30
0.000000
  70
    32
  0
VERTEX
  8
0
  5
25843
 10
-385.330
 20
840.366
 30
0.000000
  70
    32
  0
VERTEX
  8
0
  5
25844
 10
-385.333
 20
840.363
 30
0.000000
  70
    32
  0
VERTEX
  8
0
  5
25845
 10
-385.337
 20
840.360
 30
0.000000
  70
    32
  0
VERTEX
  8
0
  5
25846
 10
-385.340
 20
840.357
 30
0.000000
  70
    32
  0
VERTEX
  8
0
  5
25847
 10
-385.343
 20
840.354
 30
0.000000
  70
    32
  0
VERTEX
  8
0
  5
25848
 10
-385.347
 20
840.351
 30
0.000000
  70
    32
  0
VERTEX
  8
0
  5
25849
 10
-385.350
 20
840.348
 30
0.000000
  70
    32
  0
VERTEX
  8
0
  5
2584A
 10
-385.353
 20
840.345
 30
0.000000
  70
    32
  0
VERTEX
  8
0
  5
2584B
 10
-385.357
 20
840.342
 30
0.000000
  70
    32
  0
VERTEX
  8
0
  5
2584C
 10
-385.360
 20
840.339
 30
0.000000
  70
    32
  0
VERTEX
  8
0
  5
2584D
 10
-385.363
 20
840.336
 30
0.000000
  70
    32
  0
VERTEX
  8
0
  5
2584E
 10
-385.367
 20
840.333
 30
0.000000
  70
    32
  0
VERTEX
  8
0
  5
2584F
 10
-385.370
 20
840.330
 30
0.000000
  70
    32
  0
VERTEX
  8
0
  5
25850
 10
-385.374
 20
840.327
 30
0.000000
  70
    32
  0
VERTEX
  8
0
  5
25851
 10
-385.377
 20
840.324
 30
0.000000
  70
    32
  0
VERTEX
  8
0
  5
25852
 10
-385.380
 20
840.321
 30
0.000000
  70
    32
  0
VERTEX
  8
0
  5
25853
 10
-385.384
 20
840.318
 30
0.000000
  70
    32
  0
VERTEX
  8
0
  5
25854
 10
-385.387
 20
840.315
 30
0.000000
  70
    32
  0
VERTEX
  8
0
  5
25855
 10
-385.391
 20
840.312
 30
0.000000
  70
    32
  0
VERTEX
  8
0
  5
25856
 10
-385.394
 20
840.309
 30
0.000000
  70
    32
  0
VERTEX
  8
0
  5
25857
 10
-385.398
 20
840.306
 30
0.000000
  70
    32
  0
VERTEX
  8
0
  5
25858
 10
-385.401
 20
840.303
 30
0.000000
  70
    32
  0
VERTEX
  8
0
  5
25859
 10
-385.405
 20
840.300
 30
0.000000
  70
    32
  0
VERTEX
  8
0
  5
2585A
 10
-385.408
 20
840.297
 30
0.000000
  70
    32
  0
VERTEX
  8
0
  5
2585B
 10
-385.412
 20
840.294
 30
0.000000
  70
    32
  0
VERTEX
  8
0
  5
2585C
 10
-385.415
 20
840.292
 30
0.000000
  70
    32
  0
VERTEX
  8
0
  5
2585D
 10
-385.419
 20
840.289
 30
0.000000
  70
    32
  0
VERTEX
  8
0
  5
2585E
 10
-385.423
 20
840.286
 30
0.000000
  70
    32
  0
VERTEX
  8
0
  5
2585F
 10
-385.426
 20
840.283
 30
0.000000
  70
    32
  0
VERTEX
  8
0
  5
25860
 10
-385.430
 20
840.280
 30
0.000000
  70
    32
  0
VERTEX
  8
0
  5
25861
 10
-385.433
 20
840.278
 30
0.000000
  70
    32
  0
VERTEX
  8
0
  5
25862
 10
-385.437
 20
840.275
 30
0.000000
  70
    32
  0
VERTEX
  8
0
  5
25863
 10
-385.441
 20
840.272
 30
0.000000
  70
    32
  0
VERTEX
  8
0
  5
25864
 10
-385.444
 20
840.270
 30
0.000000
  70
    32
  0
VERTEX
  8
0
  5
25865
 10
-385.448
 20
840.267
 30
0.000000
  70
    32
  0
VERTEX
  8
0
  5
25866
 10
-385.452
 20
840.264
 30
0.000000
  70
    32
  0
VERTEX
  8
0
  5
25867
 10
-385.456
 20
840.262
 30
0.000000
  70
    32
  0
VERTEX
  8
0
  5
25868
 10
-385.459
 20
840.259
 30
0.000000
  70
    32
  0
VERTEX
  8
0
  5
25869
 10
-385.463
 20
840.257
 30
0.000000
  70
    32
  0
VERTEX
  8
0
  5
2586A
 10
-385.467
 20
840.254
 30
0.000000
  70
    32
  0
VERTEX
  8
0
  5
2586B
 10
-385.471
 20
840.252
 30
0.000000
  70
    32
  0
VERTEX
  8
0
  5
2586C
 10
-385.474
 20
840.249
 30
0.000000
  70
    32
  0
VERTEX
  8
0
  5
2586D
 10
-385.478
 20
840.247
 30
0.000000
  70
    32
  0
VERTEX
  8
0
  5
2586E
 10
-385.482
 20
840.245
 30
0.000000
  70
    32
  0
VERTEX
  8
0
  5
2586F
 10
-385.486
 20
840.242
 30
0.000000
  70
    32
  0
VERTEX
  8
0
  5
25870
 10
-385.490
 20
840.240
 30
0.000000
  70
    32
  0
VERTEX
  8
0
  5
25871
 10
-385.494
 20
840.238
 30
0.000000
  70
    32
  0
VERTEX
  8
0
  5
25872
 10
-385.498
 20
840.236
 30
0.000000
  70
    32
  0
VERTEX
  8
0
  5
25873
 10
-385.501
 20
840.234
 30
0.000000
  70
    32
  0
VERTEX
  8
0
  5
25874
 10
-385.505
 20
840.232
 30
0.000000
  70
    32
  0
VERTEX
  8
0
  5
25875
 10
-385.509
 20
840.230
 30
0.000000
  70
    32
  0
VERTEX
  8
0
  5
25876
 10
-385.513
 20
840.228
 30
0.000000
  70
    32
  0
VERTEX
  8
0
  5
25877
 10
-385.517
 20
840.226
 30
0.000000
  70
    32
  0
VERTEX
  8
0
  5
25878
 10
-385.521
 20
840.224
 30
0.000000
  70
    32
  0
VERTEX
  8
0
  5
25879
 10
-385.525
 20
840.222
 30
0.000000
  70
    32
  0
VERTEX
  8
0
  5
2587A
 10
-385.529
 20
840.220
 30
0.000000
  70
    32
  0
VERTEX
  8
0
  5
2587B
 10
-385.534
 20
840.218
 30
0.000000
  70
    32
  0
VERTEX
  8
0
  5
2587C
 10
-385.538
 20
840.217
 30
0.000000
  70
    32
  0
VERTEX
  8
0
  5
2587D
 10
-385.542
 20
840.215
 30
0.000000
  70
    32
  0
VERTEX
  8
0
  5
2587E
 10
-385.546
 20
840.213
 30
0.000000
  70
    32
  0
VERTEX
  8
0
  5
2587F
 10
-385.550
 20
840.212
 30
0.000000
  70
    32
  0
VERTEX
  8
0
  5
25880
 10
-385.554
 20
840.210
 30
0.000000
  70
    32
  0
VERTEX
  8
0
  5
25881
 10
-385.558
 20
840.209
 30
0.000000
  70
    32
  0
VERTEX
  8
0
  5
25882
 10
-385.563
 20
840.208
 30
0.000000
  70
    32
  0
VERTEX
  8
0
  5
25883
 10
-385.567
 20
840.206
 30
0.000000
  70
    32
  0
VERTEX
  8
0
  5
25884
 10
-385.571
 20
840.205
 30
0.000000
  70
    32
  0
SEQEND
  8
0
  5
25885
  0
POLYLINE
  8
0
  5
25886
  66
     1
 10
0.000000
 20
0.000000
 30
0.000000
  70
     8
  0
VERTEX
  8
0
  5
25887
 10
-384.790
 20
842.789
 30
0.000000
  70
    32
  0
VERTEX
  8
0
  5
25888
 10
-384.786
 20
842.789
 30
0.000000
  70
    32
  0
VERTEX
  8
0
  5
25889
 10
-384.783
 20
842.789
 30
0.000000
  70
    32
  0
VERTEX
  8
0
  5
2588A
 10
-384.779
 20
842.789
 30
0.000000
  70
    32
  0
VERTEX
  8
0
  5
2588B
 10
-384.775
 20
842.789
 30
0.000000
  70
    32
  0
VERTEX
  8
0
  5
2588C
 10
-384.772
 20
842.789
 30
0.000000
  70
    32
  0
VERTEX
  8
0
  5
2588D
 10
-384.768
 20
842.788
 30
0.000000
  70
    32
  0
VERTEX
  8
0
  5
2588E
 10
-384.765
 20
842.788
 30
0.000000
  70
    32
  0
VERTEX
  8
0
  5
2588F
 10
-384.761
 20
842.788
 30
0.000000
  70
    32
  0
VERTEX
  8
0
  5
25890
 10
-384.757
 20
842.788
 30
0.000000
  70
    32
  0
VERTEX
  8
0
  5
25891
 10
-384.754
 20
842.787
 30
0.000000
  70
    32
  0
VERTEX
  8
0
  5
25892
 10
-384.750
 20
842.787
 30
0.000000
  70
    32
  0
VERTEX
  8
0
  5
25893
 10
-384.747
 20
842.787
 30
0.000000
  70
    32
  0
VERTEX
  8
0
  5
25894
 10
-384.743
 20
842.786
 30
0.000000
  70
    32
  0
VERTEX
  8
0
  5
25895
 10
-384.739
 20
842.786
 30
0.000000
  70
    32
  0
VERTEX
  8
0
  5
25896
 10
-384.736
 20
842.785
 30
0.000000
  70
    32
  0
VERTEX
  8
0
  5
25897
 10
-384.732
 20
842.785
 30
0.000000
  70
    32
  0
VERTEX
  8
0
  5
25898
 10
-384.729
 20
842.785
 30
0.000000
  70
    32
  0
VERTEX
  8
0
  5
25899
 10
-384.725
 20
842.784
 30
0.000000
  70
    32
  0
VERTEX
  8
0
  5
2589A
 10
-384.721
 20
842.784
 30
0.000000
  70
    32
  0
VERTEX
  8
0
  5
2589B
 10
-384.718
 20
842.783
 30
0.000000
  70
    32
  0
VERTEX
  8
0
  5
2589C
 10
-384.714
 20
842.783
 30
0.000000
  70
    32
  0
VERTEX
  8
0
  5
2589D
 10
-384.711
 20
842.782
 30
0.000000
  70
    32
  0
VERTEX
  8
0
  5
2589E
 10
-384.707
 20
842.782
 30
0.000000
  70
    32
  0
VERTEX
  8
0
  5
2589F
 10
-384.704
 20
842.781
 30
0.000000
  70
    32
  0
VERTEX
  8
0
  5
258A0
 10
-384.700
 20
842.780
 30
0.000000
  70
    32
  0
VERTEX
  8
0
  5
258A1
 10
-384.696
 20
842.780
 30
0.000000
  70
    32
  0
VERTEX
  8
0
  5
258A2
 10
-384.693
 20
842.779
 30
0.000000
  70
    32
  0
VERTEX
  8
0
  5
258A3
 10
-384.689
 20
842.778
 30
0.000000
  70
    32
  0
VERTEX
  8
0
  5
258A4
 10
-384.686
 20
842.778
 30
0.000000
  70
    32
  0
VERTEX
  8
0
  5
258A5
 10
-384.682
 20
842.777
 30
0.000000
  70
    32
  0
VERTEX
  8
0
  5
258A6
 10
-384.679
 20
842.776
 30
0.000000
  70
    32
  0
VERTEX
  8
0
  5
258A7
 10
-384.675
 20
842.776
 30
0.000000
  70
    32
  0
VERTEX
  8
0
  5
258A8
 10
-384.672
 20
842.775
 30
0.000000
  70
    32
  0
VERTEX
  8
0
  5
258A9
 10
-384.668
 20
842.774
 30
0.000000
  70
    32
  0
VERTEX
  8
0
  5
258AA
 10
-384.665
 20
842.773
 30
0.000000
  70
    32
  0
VERTEX
  8
0
  5
258AB
 10
-384.661
 20
842.773
 30
0.000000
  70
    32
  0
VERTEX
  8
0
  5
258AC
 10
-384.657
 20
842.772
 30
0.000000
  70
    32
  0
VERTEX
  8
0
  5
258AD
 10
-384.654
 20
842.771
 30
0.000000
  70
    32
  0
VERTEX
  8
0
  5
258AE
 10
-384.650
 20
842.770
 30
0.000000
  70
    32
  0
VERTEX
  8
0
  5
258AF
 10
-384.647
 20
842.769
 30
0.000000
  70
    32
  0
VERTEX
  8
0
  5
258B0
 10
-384.643
 20
842.768
 30
0.000000
  70
    32
  0
VERTEX
  8
0
  5
258B1
 10
-384.640
 20
842.767
 30
0.000000
  70
    32
  0
VERTEX
  8
0
  5
258B2
 10
-384.636
 20
842.766
 30
0.000000
  70
    32
  0
VERTEX
  8
0
  5
258B3
 10
-384.633
 20
842.765
 30
0.000000
  70
    32
  0
VERTEX
  8
0
  5
258B4
 10
-384.629
 20
842.765
 30
0.000000
  70
    32
  0
VERTEX
  8
0
  5
258B5
 10
-384.626
 20
842.764
 30
0.000000
  70
    32
  0
VERTEX
  8
0
  5
258B6
 10
-384.622
 20
842.763
 30
0.000000
  70
    32
  0
VERTEX
  8
0
  5
258B7
 10
-384.619
 20
842.761
 30
0.000000
  70
    32
  0
VERTEX
  8
0
  5
258B8
 10
-384.616
 20
842.760
 30
0.000000
  70
    32
  0
VERTEX
  8
0
  5
258B9
 10
-384.612
 20
842.759
 30
0.000000
  70
    32
  0
VERTEX
  8
0
  5
258BA
 10
-384.609
 20
842.758
 30
0.000000
  70
    32
  0
VERTEX
  8
0
  5
258BB
 10
-384.605
 20
842.757
 30
0.000000
  70
    32
  0
VERTEX
  8
0
  5
258BC
 10
-384.602
 20
842.756
 30
0.000000
  70
    32
  0
VERTEX
  8
0
  5
258BD
 10
-384.598
 20
842.755
 30
0.000000
  70
    32
  0
VERTEX
  8
0
  5
258BE
 10
-384.595
 20
842.754
 30
0.000000
  70
    32
  0
VERTEX
  8
0
  5
258BF
 10
-384.591
 20
842.753
 30
0.000000
  70
    32
  0
VERTEX
  8
0
  5
258C0
 10
-384.588
 20
842.751
 30
0.000000
  70
    32
  0
VERTEX
  8
0
  5
258C1
 10
-384.585
 20
842.750
 30
0.000000
  70
    32
  0
VERTEX
  8
0
  5
258C2
 10
-384.581
 20
842.749
 30
0.000000
  70
    32
  0
VERTEX
  8
0
  5
258C3
 10
-384.578
 20
842.748
 30
0.000000
  70
    32
  0
VERTEX
  8
0
  5
258C4
 10
-384.574
 20
842.747
 30
0.000000
  70
    32
  0
VERTEX
  8
0
  5
258C5
 10
-384.571
 20
842.745
 30
0.000000
  70
    32
  0
VERTEX
  8
0
  5
258C6
 10
-384.568
 20
842.744
 30
0.000000
  70
    32
  0
VERTEX
  8
0
  5
258C7
 10
-384.564
 20
842.743
 30
0.000000
  70
    32
  0
VERTEX
  8
0
  5
258C8
 10
-384.561
 20
842.741
 30
0.000000
  70
    32
  0
VERTEX
  8
0
  5
258C9
 10
-384.558
 20
842.740
 30
0.000000
  70
    32
  0
VERTEX
  8
0
  5
258CA
 10
-384.554
 20
842.739
 30
0.000000
  70
    32
  0
VERTEX
  8
0
  5
258CB
 10
-384.551
 20
842.737
 30
0.000000
  70
    32
  0
VERTEX
  8
0
  5
258CC
 10
-384.548
 20
842.736
 30
0.000000
  70
    32
  0
VERTEX
  8
0
  5
258CD
 10
-384.544
 20
842.735
 30
0.000000
  70
    32
  0
VERTEX
  8
0
  5
258CE
 10
-384.541
 20
842.733
 30
0.000000
  70
    32
  0
VERTEX
  8
0
  5
258CF
 10
-384.538
 20
842.732
 30
0.000000
  70
    32
  0
VERTEX
  8
0
  5
258D0
 10
-384.534
 20
842.730
 30
0.000000
  70
    32
  0
VERTEX
  8
0
  5
258D1
 10
-384.531
 20
842.729
 30
0.000000
  70
    32
  0
VERTEX
  8
0
  5
258D2
 10
-384.528
 20
842.727
 30
0.000000
  70
    32
  0
VERTEX
  8
0
  5
258D3
 10
-384.524
 20
842.726
 30
0.000000
  70
    32
  0
VERTEX
  8
0
  5
258D4
 10
-384.521
 20
842.724
 30
0.000000
  70
    32
  0
VERTEX
  8
0
  5
258D5
 10
-384.518
 20
842.723
 30
0.000000
  70
    32
  0
VERTEX
  8
0
  5
258D6
 10
-384.514
 20
842.721
 30
0.000000
  70
    32
  0
VERTEX
  8
0
  5
258D7
 10
-384.511
 20
842.720
 30
0.000000
  70
    32
  0
VERTEX
  8
0
  5
258D8
 10
-384.508
 20
842.718
 30
0.000000
  70
    32
  0
VERTEX
  8
0
  5
258D9
 10
-384.505
 20
842.717
 30
0.000000
  70
    32
  0
VERTEX
  8
0
  5
258DA
 10
-384.501
 20
842.715
 30
0.000000
  70
    32
  0
VERTEX
  8
0
  5
258DB
 10
-384.498
 20
842.713
 30
0.000000
  70
    32
  0
VERTEX
  8
0
  5
258DC
 10
-384.495
 20
842.712
 30
0.000000
  70
    32
  0
VERTEX
  8
0
  5
258DD
 10
-384.492
 20
842.710
 30
0.000000
  70
    32
  0
VERTEX
  8
0
  5
258DE
 10
-384.489
 20
842.709
 30
0.000000
  70
    32
  0
VERTEX
  8
0
  5
258DF
 10
-384.485
 20
842.707
 30
0.000000
  70
    32
  0
VERTEX
  8
0
  5
258E0
 10
-384.482
 20
842.705
 30
0.000000
  70
    32
  0
VERTEX
  8
0
  5
258E1
 10
-384.479
 20
842.704
 30
0.000000
  70
    32
  0
VERTEX
  8
0
  5
258E2
 10
-384.476
 20
842.702
 30
0.000000
  70
    32
  0
VERTEX
  8
0
  5
258E3
 10
-384.473
 20
842.700
 30
0.000000
  70
    32
  0
VERTEX
  8
0
  5
258E4
 10
-384.469
 20
842.698
 30
0.000000
  70
    32
  0
VERTEX
  8
0
  5
258E5
 10
-384.466
 20
842.697
 30
0.000000
  70
    32
  0
VERTEX
  8
0
  5
258E6
 10
-384.463
 20
842.695
 30
0.000000
  70
    32
  0
VERTEX
  8
0
  5
258E7
 10
-384.460
 20
842.693
 30
0.000000
  70
    32
  0
VERTEX
  8
0
  5
258E8
 10
-384.457
 20
842.691
 30
0.000000
  70
    32
  0
VERTEX
  8
0
  5
258E9
 10
-384.454
 20
842.690
 30
0.000000
  70
    32
  0
VERTEX
  8
0
  5
258EA
 10
-384.450
 20
842.688
 30
0.000000
  70
    32
  0
VERTEX
  8
0
  5
258EB
 10
-384.447
 20
842.686
 30
0.000000
  70
    32
  0
VERTEX
  8
0
  5
258EC
 10
-384.444
 20
842.684
 30
0.000000
  70
    32
  0
VERTEX
  8
0
  5
258ED
 10
-384.441
 20
842.682
 30
0.000000
  70
    32
  0
VERTEX
  8
0
  5
258EE
 10
-384.438
 20
842.681
 30
0.000000
  70
    32
  0
VERTEX
  8
0
  5
258EF
 10
-384.435
 20
842.679
 30
0.000000
  70
    32
  0
VERTEX
  8
0
  5
258F0
 10
-384.432
 20
842.677
 30
0.000000
  70
    32
  0
VERTEX
  8
0
  5
258F1
 10
-384.429
 20
842.675
 30
0.000000
  70
    32
  0
VERTEX
  8
0
  5
258F2
 10
-384.426
 20
842.673
 30
0.000000
  70
    32
  0
VERTEX
  8
0
  5
258F3
 10
-384.422
 20
842.671
 30
0.000000
  70
    32
  0
VERTEX
  8
0
  5
258F4
 10
-384.419
 20
842.669
 30
0.000000
  70
    32
  0
VERTEX
  8
0
  5
258F5
 10
-384.416
 20
842.667
 30
0.000000
  70
    32
  0
VERTEX
  8
0
  5
258F6
 10
-384.413
 20
842.666
 30
0.000000
  70
    32
  0
VERTEX
  8
0
  5
258F7
 10
-384.410
 20
842.664
 30
0.000000
  70
    32
  0
VERTEX
  8
0
  5
258F8
 10
-384.407
 20
842.662
 30
0.000000
  70
    32
  0
VERTEX
  8
0
  5
258F9
 10
-384.404
 20
842.660
 30
0.000000
  70
    32
  0
VERTEX
  8
0
  5
258FA
 10
-384.401
 20
842.658
 30
0.000000
  70
    32
  0
VERTEX
  8
0
  5
258FB
 10
-384.398
 20
842.656
 30
0.000000
  70
    32
  0
VERTEX
  8
0
  5
258FC
 10
-384.395
 20
842.654
 30
0.000000
  70
    32
  0
VERTEX
  8
0
  5
258FD
 10
-384.392
 20
842.652
 30
0.000000
  70
    32
  0
VERTEX
  8
0
  5
258FE
 10
-384.389
 20
842.650
 30
0.000000
  70
    32
  0
VERTEX
  8
0
  5
258FF
 10
-384.386
 20
842.648
 30
0.000000
  70
    32
  0
VERTEX
  8
0
  5
25900
 10
-384.383
 20
842.646
 30
0.000000
  70
    32
  0
VERTEX
  8
0
  5
25901
 10
-384.380
 20
842.644
 30
0.000000
  70
    32
  0
VERTEX
  8
0
  5
25902
 10
-384.377
 20
842.642
 30
0.000000
  70
    32
  0
VERTEX
  8
0
  5
25903
 10
-384.374
 20
842.639
 30
0.000000
  70
    32
  0
VERTEX
  8
0
  5
25904
 10
-384.371
 20
842.637
 30
0.000000
  70
    32
  0
VERTEX
  8
0
  5
25905
 10
-384.369
 20
842.635
 30
0.000000
  70
    32
  0
VERTEX
  8
0
  5
25906
 10
-384.366
 20
842.633
 30
0.000000
  70
    32
  0
VERTEX
  8
0
  5
25907
 10
-384.363
 20
842.631
 30
0.000000
  70
    32
  0
VERTEX
  8
0
  5
25908
 10
-384.360
 20
842.629
 30
0.000000
  70
    32
  0
VERTEX
  8
0
  5
25909
 10
-384.357
 20
842.627
 30
0.000000
  70
    32
  0
VERTEX
  8
0
  5
2590A
 10
-384.354
 20
842.624
 30
0.000000
  70
    32
  0
VERTEX
  8
0
  5
2590B
 10
-384.351
 20
842.622
 30
0.000000
  70
    32
  0
VERTEX
  8
0
  5
2590C
 10
-384.348
 20
842.620
 30
0.000000
  70
    32
  0
VERTEX
  8
0
  5
2590D
 10
-384.346
 20
842.618
 30
0.000000
  70
    32
  0
VERTEX
  8
0
  5
2590E
 10
-384.343
 20
842.616
 30
0.000000
  70
    32
  0
VERTEX
  8
0
  5
2590F
 10
-384.340
 20
842.613
 30
0.000000
  70
    32
  0
VERTEX
  8
0
  5
25910
 10
-384.337
 20
842.611
 30
0.000000
  70
    32
  0
VERTEX
  8
0
  5
25911
 10
-384.334
 20
842.609
 30
0.000000
  70
    32
  0
VERTEX
  8
0
  5
25912
 10
-384.332
 20
842.606
 30
0.000000
  70
    32
  0
VERTEX
  8
0
  5
25913
 10
-384.329
 20
842.604
 30
0.000000
  70
    32
  0
VERTEX
  8
0
  5
25914
 10
-384.326
 20
842.602
 30
0.000000
  70
    32
  0
VERTEX
  8
0
  5
25915
 10
-384.323
 20
842.599
 30
0.000000
  70
    32
  0
VERTEX
  8
0
  5
25916
 10
-384.320
 20
842.597
 30
0.000000
  70
    32
  0
VERTEX
  8
0
  5
25917
 10
-384.318
 20
842.595
 30
0.000000
  70
    32
  0
VERTEX
  8
0
  5
25918
 10
-384.315
 20
842.592
 30
0.000000
  70
    32
  0
VERTEX
  8
0
  5
25919
 10
-384.312
 20
842.590
 30
0.000000
  70
    32
  0
VERTEX
  8
0
  5
2591A
 10
-384.310
 20
842.587
 30
0.000000
  70
    32
  0
VERTEX
  8
0
  5
2591B
 10
-384.307
 20
842.585
 30
0.000000
  70
    32
  0
VERTEX
  8
0
  5
2591C
 10
-384.304
 20
842.582
 30
0.000000
  70
    32
  0
VERTEX
  8
0
  5
2591D
 10
-384.302
 20
842.580
 30
0.000000
  70
    32
  0
VERTEX
  8
0
  5
2591E
 10
-384.299
 20
842.578
 30
0.000000
  70
    32
  0
VERTEX
  8
0
  5
2591F
 10
-384.296
 20
842.575
 30
0.000000
  70
    32
  0
VERTEX
  8
0
  5
25920
 10
-384.294
 20
842.572
 30
0.000000
  70
    32
  0
VERTEX
  8
0
  5
25921
 10
-384.291
 20
842.570
 30
0.000000
  70
    32
  0
VERTEX
  8
0
  5
25922
 10
-384.289
 20
842.567
 30
0.000000
  70
    32
  0
VERTEX
  8
0
  5
25923
 10
-384.286
 20
842.565
 30
0.000000
  70
    32
  0
VERTEX
  8
0
  5
25924
 10
-384.283
 20
842.562
 30
0.000000
  70
    32
  0
VERTEX
  8
0
  5
25925
 10
-384.281
 20
842.559
 30
0.000000
  70
    32
  0
VERTEX
  8
0
  5
25926
 10
-384.278
 20
842.557
 30
0.000000
  70
    32
  0
VERTEX
  8
0
  5
25927
 10
-384.276
 20
842.554
 30
0.000000
  70
    32
  0
VERTEX
  8
0
  5
25928
 10
-384.273
 20
842.552
 30
0.000000
  70
    32
  0
VERTEX
  8
0
  5
25929
 10
-384.271
 20
842.549
 30
0.000000
  70
    32
  0
VERTEX
  8
0
  5
2592A
 10
-384.268
 20
842.546
 30
0.000000
  70
    32
  0
VERTEX
  8
0
  5
2592B
 10
-384.266
 20
842.543
 30
0.000000
  70
    32
  0
VERTEX
  8
0
  5
2592C
 10
-384.263
 20
842.541
 30
0.000000
  70
    32
  0
VERTEX
  8
0
  5
2592D
 10
-384.261
 20
842.538
 30
0.000000
  70
    32
  0
VERTEX
  8
0
  5
2592E
 10
-384.259
 20
842.535
 30
0.000000
  70
    32
  0
VERTEX
  8
0
  5
2592F
 10
-384.256
 20
842.532
 30
0.000000
  70
    32
  0
VERTEX
  8
0
  5
25930
 10
-384.254
 20
842.529
 30
0.000000
  70
    32
  0
VERTEX
  8
0
  5
25931
 10
-384.252
 20
842.526
 30
0.000000
  70
    32
  0
VERTEX
  8
0
  5
25932
 10
-384.250
 20
842.524
 30
0.000000
  70
    32
  0
VERTEX
  8
0
  5
25933
 10
-384.247
 20
842.521
 30
0.000000
  70
    32
  0
VERTEX
  8
0
  5
25934
 10
-384.245
 20
842.518
 30
0.000000
  70
    32
  0
VERTEX
  8
0
  5
25935
 10
-384.243
 20
842.515
 30
0.000000
  70
    32
  0
VERTEX
  8
0
  5
25936
 10
-384.241
 20
842.512
 30
0.000000
  70
    32
  0
VERTEX
  8
0
  5
25937
 10
-384.239
 20
842.509
 30
0.000000
  70
    32
  0
VERTEX
  8
0
  5
25938
 10
-384.237
 20
842.506
 30
0.000000
  70
    32
  0
VERTEX
  8
0
  5
25939
 10
-384.235
 20
842.503
 30
0.000000
  70
    32
  0
VERTEX
  8
0
  5
2593A
 10
-384.233
 20
842.500
 30
0.000000
  70
    32
  0
VERTEX
  8
0
  5
2593B
 10
-384.231
 20
842.497
 30
0.000000
  70
    32
  0
VERTEX
  8
0
  5
2593C
 10
-384.229
 20
842.494
 30
0.000000
  70
    32
  0
VERTEX
  8
0
  5
2593D
 10
-384.227
 20
842.491
 30
0.000000
  70
    32
  0
VERTEX
  8
0
  5
2593E
 10
-384.225
 20
842.487
 30
0.000000
  70
    32
  0
VERTEX
  8
0
  5
2593F
 10
-384.224
 20
842.484
 30
0.000000
  70
    32
  0
VERTEX
  8
0
  5
25940
 10
-384.222
 20
842.481
 30
0.000000
  70
    32
  0
VERTEX
  8
0
  5
25941
 10
-384.220
 20
842.478
 30
0.000000
  70
    32
  0
VERTEX
  8
0
  5
25942
 10
-384.219
 20
842.475
 30
0.000000
  70
    32
  0
VERTEX
  8
0
  5
25943
 10
-384.217
 20
842.471
 30
0.000000
  70
    32
  0
VERTEX
  8
0
  5
25944
 10
-384.216
 20
842.468
 30
0.000000
  70
    32
  0
VERTEX
  8
0
  5
25945
 10
-384.214
 20
842.465
 30
0.000000
  70
    32
  0
VERTEX
  8
0
  5
25946
 10
-384.213
 20
842.461
 30
0.000000
  70
    32
  0
VERTEX
  8
0
  5
25947
 10
-384.212
 20
842.458
 30
0.000000
  70
    32
  0
VERTEX
  8
0
  5
25948
 10
-384.210
 20
842.455
 30
0.000000
  70
    32
  0
VERTEX
  8
0
  5
25949
 10
-384.209
 20
842.451
 30
0.000000
  70
    32
  0
VERTEX
  8
0
  5
2594A
 10
-384.208
 20
842.448
 30
0.000000
  70
    32
  0
VERTEX
  8
0
  5
2594B
 10
-384.207
 20
842.444
 30
0.000000
  70
    32
  0
VERTEX
  8
0
  5
2594C
 10
-384.206
 20
842.441
 30
0.000000
  70
    32
  0
VERTEX
  8
0
  5
2594D
 10
-384.205
 20
842.438
 30
0.000000
  70
    32
  0
VERTEX
  8
0
  5
2594E
 10
-384.204
 20
842.434
 30
0.000000
  70
    32
  0
VERTEX
  8
0
  5
2594F
 10
-384.203
 20
842.431
 30
0.000000
  70
    32
  0
VERTEX
  8
0
  5
25950
 10
-384.203
 20
842.427
 30
0.000000
  70
    32
  0
VERTEX
  8
0
  5
25951
 10
-384.202
 20
842.423
 30
0.000000
  70
    32
  0
VERTEX
  8
0
  5
25952
 10
-384.201
 20
842.420
 30
0.000000
  70
    32
  0
VERTEX
  8
0
  5
25953
 10
-384.201
 20
842.416
 30
0.000000
  70
    32
  0
VERTEX
  8
0
  5
25954
 10
-384.200
 20
842.413
 30
0.000000
  70
    32
  0
VERTEX
  8
0
  5
25955
 10
-384.200
 20
842.409
 30
0.000000
  70
    32
  0
VERTEX
  8
0
  5
25956
 10
-384.199
 20
842.405
 30
0.000000
  70
    32
  0
VERTEX
  8
0
  5
25957
 10
-384.199
 20
842.402
 30
0.000000
  70
    32
  0
VERTEX
  8
0
  5
25958
 10
-384.199
 20
842.398
 30
0.000000
  70
    32
  0
VERTEX
  8
0
  5
25959
 10
-384.198
 20
842.395
 30
0.000000
  70
    32
  0
VERTEX
  8
0
  5
2595A
 10
-384.198
 20
842.391
 30
0.000000
  70
    32
  0
VERTEX
  8
0
  5
2595B
 10
-384.198
 20
842.387
 30
0.000000
  70
    32
  0
VERTEX
  8
0
  5
2595C
 10
-384.198
 20
842.384
 30
0.000000
  70
    32
  0
VERTEX
  8
0
  5
2595D
 10
-384.198
 20
842.380
 30
0.000000
  70
    32
  0
VERTEX
  8
0
  5
2595E
 10
-384.198
 20
842.376
 30
0.000000
  70
    32
  0
VERTEX
  8
0
  5
2595F
 10
-384.198
 20
842.373
 30
0.000000
  70
    32
  0
VERTEX
  8
0
  5
25960
 10
-384.198
 20
842.369
 30
0.000000
  70
    32
  0
VERTEX
  8
0
  5
25961
 10
-384.198
 20
842.365
 30
0.000000
  70
    32
  0
VERTEX
  8
0
  5
25962
 10
-384.198
 20
842.362
 30
0.000000
  70
    32
  0
VERTEX
  8
0
  5
25963
 10
-384.198
 20
842.358
 30
0.000000
  70
    32
  0
VERTEX
  8
0
  5
25964
 10
-384.199
 20
842.354
 30
0.000000
  70
    32
  0
VERTEX
  8
0
  5
25965
 10
-384.199
 20
842.351
 30
0.000000
  70
    32
  0
VERTEX
  8
0
  5
25966
 10
-384.199
 20
842.347
 30
0.000000
  70
    32
  0
VERTEX
  8
0
  5
25967
 10
-384.200
 20
842.343
 30
0.000000
  70
    32
  0
VERTEX
  8
0
  5
25968
 10
-384.200
 20
842.340
 30
0.000000
  70
    32
  0
VERTEX
  8
0
  5
25969
 10
-384.201
 20
842.336
 30
0.000000
  70
    32
  0
VERTEX
  8
0
  5
2596A
 10
-384.201
 20
842.332
 30
0.000000
  70
    32
  0
VERTEX
  8
0
  5
2596B
 10
-384.202
 20
842.329
 30
0.000000
  70
    32
  0
VERTEX
  8
0
  5
2596C
 10
-384.203
 20
842.325
 30
0.000000
  70
    32
  0
VERTEX
  8
0
  5
2596D
 10
-384.203
 20
842.321
 30
0.000000
  70
    32
  0
VERTEX
  8
0
  5
2596E
 10
-384.204
 20
842.318
 30
0.000000
  70
    32
  0
VERTEX
  8
0
  5
2596F
 10
-384.205
 20
842.314
 30
0.000000
  70
    32
  0
VERTEX
  8
0
  5
25970
 10
-384.205
 20
842.311
 30
0.000000
  70
    32
  0
VERTEX
  8
0
  5
25971
 10
-384.206
 20
842.307
 30
0.000000
  70
    32
  0
VERTEX
  8
0
  5
25972
 10
-384.207
 20
842.304
 30
0.000000
  70
    32
  0
VERTEX
  8
0
  5
25973
 10
-384.208
 20
842.300
 30
0.000000
  70
    32
  0
VERTEX
  8
0
  5
25974
 10
-384.209
 20
842.297
 30
0.000000
  70
    32
  0
VERTEX
  8
0
  5
25975
 10
-384.210
 20
842.293
 30
0.000000
  70
    32
  0
VERTEX
  8
0
  5
25976
 10
-384.211
 20
842.290
 30
0.000000
  70
    32
  0
VERTEX
  8
0
  5
25977
 10
-384.212
 20
842.286
 30
0.000000
  70
    32
  0
VERTEX
  8
0
  5
25978
 10
-384.213
 20
842.283
 30
0.000000
  70
    32
  0
VERTEX
  8
0
  5
25979
 10
-384.214
 20
842.279
 30
0.000000
  70
    32
  0
VERTEX
  8
0
  5
2597A
 10
-384.216
 20
842.276
 30
0.000000
  70
    32
  0
VERTEX
  8
0
  5
2597B
 10
-384.217
 20
842.273
 30
0.000000
  70
    32
  0
VERTEX
  8
0
  5
2597C
 10
-384.218
 20
842.269
 30
0.000000
  70
    32
  0
VERTEX
  8
0
  5
2597D
 10
-384.219
 20
842.266
 30
0.000000
  70
    32
  0
VERTEX
  8
0
  5
2597E
 10
-384.221
 20
842.262
 30
0.000000
  70
    32
  0
VERTEX
  8
0
  5
2597F
 10
-384.222
 20
842.259
 30
0.000000
  70
    32
  0
VERTEX
  8
0
  5
25980
 10
-384.223
 20
842.256
 30
0.000000
  70
    32
  0
VERTEX
  8
0
  5
25981
 10
-384.225
 20
842.252
 30
0.000000
  70
    32
  0
VERTEX
  8
0
  5
25982
 10
-384.226
 20
842.249
 30
0.000000
  70
    32
  0
VERTEX
  8
0
  5
25983
 10
-384.228
 20
842.246
 30
0.000000
  70
    32
  0
VERTEX
  8
0
  5
25984
 10
-384.229
 20
842.243
 30
0.000000
  70
    32
  0
VERTEX
  8
0
  5
25985
 10
-384.231
 20
842.239
 30
0.000000
  70
    32
  0
VERTEX
  8
0
  5
25986
 10
-384.232
 20
842.236
 30
0.000000
  70
    32
  0
VERTEX
  8
0
  5
25987
 10
-384.234
 20
842.233
 30
0.000000
  70
    32
  0
VERTEX
  8
0
  5
25988
 10
-384.236
 20
842.230
 30
0.000000
  70
    32
  0
VERTEX
  8
0
  5
25989
 10
-384.237
 20
842.226
 30
0.000000
  70
    32
  0
VERTEX
  8
0
  5
2598A
 10
-384.239
 20
842.223
 30
0.000000
  70
    32
  0
VERTEX
  8
0
  5
2598B
 10
-384.241
 20
842.220
 30
0.000000
  70
    32
  0
VERTEX
  8
0
  5
2598C
 10
-384.242
 20
842.217
 30
0.000000
  70
    32
  0
VERTEX
  8
0
  5
2598D
 10
-384.244
 20
842.214
 30
0.000000
  70
    32
  0
VERTEX
  8
0
  5
2598E
 10
-384.246
 20
842.210
 30
0.000000
  70
    32
  0
VERTEX
  8
0
  5
2598F
 10
-384.248
 20
842.207
 30
0.000000
  70
    32
  0
VERTEX
  8
0
  5
25990
 10
-384.250
 20
842.204
 30
0.000000
  70
    32
  0
VERTEX
  8
0
  5
25991
 10
-384.252
 20
842.201
 30
0.000000
  70
    32
  0
VERTEX
  8
0
  5
25992
 10
-384.254
 20
842.198
 30
0.000000
  70
    32
  0
VERTEX
  8
0
  5
25993
 10
-384.256
 20
842.195
 30
0.000000
  70
    32
  0
VERTEX
  8
0
  5
25994
 10
-384.257
 20
842.192
 30
0.000000
  70
    32
  0
VERTEX
  8
0
  5
25995
 10
-384.260
 20
842.189
 30
0.000000
  70
    32
  0
VERTEX
  8
0
  5
25996
 10
-384.262
 20
842.186
 30
0.000000
  70
    32
  0
VERTEX
  8
0
  5
25997
 10
-384.264
 20
842.183
 30
0.000000
  70
    32
  0
VERTEX
  8
0
  5
25998
 10
-384.266
 20
842.180
 30
0.000000
  70
    32
  0
VERTEX
  8
0
  5
25999
 10
-384.268
 20
842.177
 30
0.000000
  70
    32
  0
VERTEX
  8
0
  5
2599A
 10
-384.270
 20
842.174
 30
0.000000
  70
    32
  0
VERTEX
  8
0
  5
2599B
 10
-384.272
 20
842.171
 30
0.000000
  70
    32
  0
VERTEX
  8
0
  5
2599C
 10
-384.274
 20
842.168
 30
0.000000
  70
    32
  0
VERTEX
  8
0
  5
2599D
 10
-384.276
 20
842.165
 30
0.000000
  70
    32
  0
VERTEX
  8
0
  5
2599E
 10
-384.279
 20
842.162
 30
0.000000
  70
    32
  0
VERTEX
  8
0
  5
2599F
 10
-384.281
 20
842.159
 30
0.000000
  70
    32
  0
VERTEX
  8
0
  5
259A0
 10
-384.283
 20
842.156
 30
0.000000
  70
    32
  0
VERTEX
  8
0
  5
259A1
 10
-384.286
 20
842.154
 30
0.000000
  70
    32
  0
VERTEX
  8
0
  5
259A2
 10
-384.288
 20
842.151
 30
0.000000
  70
    32
  0
VERTEX
  8
0
  5
259A3
 10
-384.290
 20
842.148
 30
0.000000
  70
    32
  0
VERTEX
  8
0
  5
259A4
 10
-384.293
 20
842.145
 30
0.000000
  70
    32
  0
VERTEX
  8
0
  5
259A5
 10
-384.295
 20
842.142
 30
0.000000
  70
    32
  0
VERTEX
  8
0
  5
259A6
 10
-384.297
 20
842.140
 30
0.000000
  70
    32
  0
VERTEX
  8
0
  5
259A7
 10
-384.300
 20
842.137
 30
0.000000
  70
    32
  0
VERTEX
  8
0
  5
259A8
 10
-384.302
 20
842.134
 30
0.000000
  70
    32
  0
VERTEX
  8
0
  5
259A9
 10
-384.305
 20
842.132
 30
0.000000
  70
    32
  0
VERTEX
  8
0
  5
259AA
 10
-384.307
 20
842.129
 30
0.000000
  70
    32
  0
VERTEX
  8
0
  5
259AB
 10
-384.310
 20
842.126
 30
0.000000
  70
    32
  0
VERTEX
  8
0
  5
259AC
 10
-384.313
 20
842.124
 30
0.000000
  70
    32
  0
VERTEX
  8
0
  5
259AD
 10
-384.315
 20
842.121
 30
0.000000
  70
    32
  0
VERTEX
  8
0
  5
259AE
 10
-384.318
 20
842.119
 30
0.000000
  70
    32
  0
VERTEX
  8
0
  5
259AF
 10
-384.320
 20
842.116
 30
0.000000
  70
    32
  0
VERTEX
  8
0
  5
259B0
 10
-384.323
 20
842.114
 30
0.000000
  70
    32
  0
VERTEX
  8
0
  5
259B1
 10
-384.326
 20
842.111
 30
0.000000
  70
    32
  0
VERTEX
  8
0
  5
259B2
 10
-384.328
 20
842.109
 30
0.000000
  70
    32
  0
VERTEX
  8
0
  5
259B3
 10
-384.331
 20
842.106
 30
0.000000
  70
    32
  0
VERTEX
  8
0
  5
259B4
 10
-384.334
 20
842.104
 30
0.000000
  70
    32
  0
VERTEX
  8
0
  5
259B5
 10
-384.337
 20
842.102
 30
0.000000
  70
    32
  0
VERTEX
  8
0
  5
259B6
 10
-384.339
 20
842.099
 30
0.000000
  70
    32
  0
VERTEX
  8
0
  5
259B7
 10
-384.342
 20
842.097
 30
0.000000
  70
    32
  0
VERTEX
  8
0
  5
259B8
 10
-384.345
 20
842.095
 30
0.000000
  70
    32
  0
VERTEX
  8
0
  5
259B9
 10
-384.348
 20
842.092
 30
0.000000
  70
    32
  0
VERTEX
  8
0
  5
259BA
 10
-384.351
 20
842.090
 30
0.000000
  70
    32
  0
VERTEX
  8
0
  5
259BB
 10
-384.354
 20
842.088
 30
0.000000
  70
    32
  0
VERTEX
  8
0
  5
259BC
 10
-384.356
 20
842.086
 30
0.000000
  70
    32
  0
VERTEX
  8
0
  5
259BD
 10
-384.359
 20
842.083
 30
0.000000
  70
    32
  0
VERTEX
  8
0
  5
259BE
 10
-384.362
 20
842.081
 30
0.000000
  70
    32
  0
VERTEX
  8
0
  5
259BF
 10
-384.365
 20
842.079
 30
0.000000
  70
    32
  0
VERTEX
  8
0
  5
259C0
 10
-384.368
 20
842.077
 30
0.000000
  70
    32
  0
VERTEX
  8
0
  5
259C1
 10
-384.371
 20
842.075
 30
0.000000
  70
    32
  0
VERTEX
  8
0
  5
259C2
 10
-384.374
 20
842.073
 30
0.000000
  70
    32
  0
VERTEX
  8
0
  5
259C3
 10
-384.377
 20
842.071
 30
0.000000
  70
    32
  0
VERTEX
  8
0
  5
259C4
 10
-384.380
 20
842.069
 30
0.000000
  70
    32
  0
VERTEX
  8
0
  5
259C5
 10
-384.383
 20
842.067
 30
0.000000
  70
    32
  0
VERTEX
  8
0
  5
259C6
 10
-384.386
 20
842.065
 30
0.000000
  70
    32
  0
SEQEND
  8
0
  5
259C7
  0
LINE
  5
24E6D
  8
0
 10
-387.69994642020117
 20
842.78937480781883
 30
0.0
 11
-384.78985904521602
 21
842.78937480781883
 31
0.0
  0
LINE
  5
24E6E
  8
0
 10
-385.5712803767575
 20
839.97687480781872
 30
0.0
 11
-385.5712803767575
 21
840.20500306355689
 31
0.0
  0
LINE
  5
24E6F
  8
0
 10
-387.69994642020117
 20
839.97687480781872
 30
0.0
 11
-385.5712803767575
 21
839.97687480781872
 31
0.0
  0
VIEWPORT
  5
BADA
 67
     1
  8
0
 10
5.2498666443542197
 20
4.0168606514874199
 30
0.0
 40
16.259611459837419
 41
8.0159429045697088
 68
     1
 69
     1
1001
ACAD
1000
MVIEW
1002
{
1070
    16
1010
0.0
1020
0.0
1030
0.0
1010
0.0
1020
0.0
1030
1.0
1040
0.0
1040
8.0159429045697088
1040
5.2498666443542197
1040
4.0168606514874199
1040
50.0
1040
0.0
1040
0.0
1070
     0
1070
   100
1070
     1
1070
     1
1070
     0
1070
     0
1070
     0
1070
     0
1040
0.0
1040
0.0
1040
0.0
1040
0.5
1040
0.5
1040
0.5
1040
0.5
1070
     0
1002
{
1002
}
1002
}
  0
VIEWPORT
  5
BADD
 67
     1
  8
0
 10
5.249999629487192
 20
4.0166741807634683
 30
0.0
 40
10.44245679893058
 41
7.8813805131999892
 68
     2
 69
     2
1001
ACAD
1000
MVIEW
1002
{
1070
    16
1010
0.0
1020
0.0
1030
0.0
1010
0.0
1020
0.0
1030
1.0
1040
0.0
1040
7.8813805131999892
1040
-385.35664407640701
1040
841.0898081338986
1040
50.0
1040
0.0
1040
0.0
1070
     0
1070
   100
1070
     1
1070
     2
1070
     0
1070
     0
1070
     0
1070
     0
1040
0.0
1040
0.0
1040
0.0
1040
0.5
1040
0.5
1040
0.5
1040
0.5
1070
     0
1002
{
1002
}
1002
}
  0
ENDSEC
  0
EOF
