  0
SECTION
  2
HEADER
  9
$ACADVER
  1
AC1009
  9
$INSBASE
 10
0.0
 20
0.0
 30
0.0
  9
$EXTMIN
 10
-382.53419390346619
 20
843.22550599210876
 30
0.0
  9
$EXTMAX
 10
-355.03780811453782
 20
866.09975835727096
 30
0.0
  9
$LIMMIN
 10
0.0
 20
0.0
  9
$LIMMAX
 10
1500.0
 20
1500.0
  9
$ORTHOMODE
 70
     0
  9
$REGENMODE
 70
     1
  9
$FILLMODE
 70
     1
  9
$QTEXTMODE
 70
     0
  9
$MIRRTEXT
 70
     1
  9
$DRAGMODE
 70
     2
  9
$LTSCALE
 40
1.0
  9
$OSMODE
 70
    37
  9
$ATTMODE
 70
     1
  9
$TEXTSIZE
 40
1.5
  9
$TRACEWID
 40
0.05
  9
$TEXTSTYLE
  7
STANDARD
  9
$CLAYER
  8
0
  9
$CELTYPE
  6
BYLAYER
  9
$CECOLOR
 62
   256
  9
$DIMSCALE
 40
1.0
  9
$DIMASZ
 40
0.75
  9
$DIMEXO
 40
1.5
  9
$DIMDLI
 40
2.0
  9
$DIMRND
 40
0.0
  9
$DIMDLE
 40
0.0
  9
$DIMEXE
 40
1.0
  9
$DIMTP
 40
0.0
  9
$DIMTM
 40
0.0
  9
$DIMTXT
 40
1.5
  9
$DIMCEN
 40
2.0
  9
$DIMTSZ
 40
0.0
  9
$DIMTOL
 70
     0
  9
$DIMLIM
 70
     0
  9
$DIMTIH
 70
     0
  9
$DIMTOH
 70
     0
  9
$DIMSE1
 70
     0
  9
$DIMSE2
 70
     0
  9
$DIMTAD
 70
     1
  9
$DIMZIN
 70
     0
  9
$DIMBLK
  1
ARCHTICK
  9
$DIMASO
 70
     1
  9
$DIMSHO
 70
     1
  9
$DIMPOST
  1
"
  9
$DIMAPOST
  1

  9
$DIMALT
 70
     0
  9
$DIMALTD
 70
     2
  9
$DIMALTF
 40
25.399999999999999
  9
$DIMLFAC
 40
1.0
  9
$DIMTOFL
 70
     0
  9
$DIMTVP
 40
0.0
  9
$DIMTIX
 70
     1
  9
$DIMSOXD
 70
     0
  9
$DIMSAH
 70
     0
  9
$DIMBLK1
  1

  9
$DIMBLK2
  1

  9
$DIMSTYLE
  2
THREE_QUARTER_INCH_SCALE
  9
$DIMCLRD
 70
     0
  9
$DIMCLRE
 70
     0
  9
$DIMCLRT
 70
     0
  9
$DIMTFAC
 40
1.0
  9
$DIMGAP
 40
1.0
  9
$LUNITS
 70
     2
  9
$LUPREC
 70
     4
  9
$SKETCHINC
 40
0.1
  9
$FILLETRAD
 40
0.0
  9
$AUNITS
 70
     0
  9
$AUPREC
 70
     0
  9
$MENU
  1
.
  9
$ELEVATION
 40
0.0
  9
$PELEVATION
 40
0.0
  9
$THICKNESS
 40
0.0
  9
$LIMCHECK
 70
     0
  9
$BLIPMODE
 70
     0
  9
$CHAMFERA
 40
0.5
  9
$CHAMFERB
 40
0.5
  9
$SKPOLY
 70
     0
  9
$TDCREATE
 40
2452089.395738773
  9
$TDUPDATE
 40
2453608.5730952201
  9
$TDINDWG
 40
1.6005165508999999
  9
$TDUSRTIMER
 40
1.6005165508999999
  9
$USRTIMER
 70
     1
  9
$ANGBASE
 50
0.0
  9
$ANGDIR
 70
     0
  9
$PDMODE
 70
     0
  9
$PDSIZE
 40
10.0
  9
$PLINEWID
 40
0.0
  9
$COORDS
 70
     1
  9
$SPLFRAME
 70
     0
  9
$SPLINETYPE
 70
     6
  9
$SPLINESEGS
 70
     8
  9
$ATTDIA
 70
     0
  9
$ATTREQ
 70
     1
  9
$HANDLING
 70
     1
  9
$HANDSEED
  5
36F3E
  9
$SURFTAB1
 70
     6
  9
$SURFTAB2
 70
     6
  9
$SURFTYPE
 70
     6
  9
$SURFU
 70
     6
  9
$SURFV
 70
     6
  9
$UCSNAME
  2

  9
$UCSORG
 10
0.0
 20
0.0
 30
0.0
  9
$UCSXDIR
 10
1.0
 20
0.0
 30
0.0
  9
$UCSYDIR
 10
0.0
 20
1.0
 30
0.0
  9
$PUCSNAME
  2

  9
$PUCSORG
 10
0.0
 20
0.0
 30
0.0
  9
$PUCSXDIR
 10
1.0
 20
0.0
 30
0.0
  9
$PUCSYDIR
 10
0.0
 20
1.0
 30
0.0
  9
$USERI1
 70
     0
  9
$USERI2
 70
     0
  9
$USERI3
 70
     0
  9
$USERI4
 70
     0
  9
$USERI5
 70
     0
  9
$USERR1
 40
0.0
  9
$USERR2
 40
0.0
  9
$USERR3
 40
0.0
  9
$USERR4
 40
0.0
  9
$USERR5
 40
0.0
  9
$WORLDVIEW
 70
     1
  9
$SHADEDGE
 70
     3
  9
$SHADEDIF
 70
    70
  9
$TILEMODE
 70
     0
  9
$MAXACTVP
 70
    64
  9
$PLIMCHECK
 70
     0
  9
$PEXTMIN
 10
0.0282895744820664
 20
0.0759353784799721
 30
-0.0015258207003583
  9
$PEXTMAX
 10
10.471709755853
 20
7.9577863512286546
 30
0.0000000349246037
  9
$PLIMMIN
 10
-0.2500002402958907
 20
-0.2499999962453767
  9
$PLIMMAX
 10
10.74999951940821
 20
8.2499997634587316
  9
$UNITMODE
 70
     0
  9
$VISRETAIN
 70
     1
  9
$PLINEGEN
 70
     0
  9
$PSLTSCALE
 70
     1
  0
ENDSEC
  0
SECTION
  2
TABLES
  0
TABLE
  2
VPORT
 70
     3
  0
VPORT
  2
*ACTIVE
 70
     0
 10
0.0
 20
0.0
 11
1.0
 21
1.0
 12
-380.70010693656201
 22
845.16779400026962
 13
0.0
 23
0.0
 14
0.5
 24
0.5
 15
0.5
 25
0.5
 16
0.0
 26
0.0
 36
1.0
 17
0.0
 27
0.0
 37
0.0
 40
8.8173627230431642
 41
2.0
 42
50.0
 43
0.0
 44
0.0
 50
0.0
 51
0.0
 71
     0
 72
   100
 73
     1
 74
     2
 75
     0
 76
     0
 77
     0
 78
     0
  0
ENDTAB
  0
TABLE
  2
LTYPE
 70
     1
  0
LTYPE
  2
CONTINUOUS
 70
     0
  3
Solid line
 72
    65
 73
     0
 40
0.0
  0
ENDTAB
  0
TABLE
  2
LAYER
 70
    10
  0
LAYER
  2
0
 70
     0
 62
     7
  6
CONTINUOUS
  0
LAYER
  2
DEFPOINTS
 70
     0
 62
     7
  6
CONTINUOUS
  0
LAYER
  2
FRAME_200
 70
     0
 62
     8
  6
CONTINUOUS
  0
LAYER
  2
FRAME_070
 70
     0
 62
     5
  6
CONTINUOUS
  0
LAYER
  2
FRAME_050
 70
     0
 62
     6
  6
CONTINUOUS
  0
LAYER
  2
TITLE_BLOCK
 70
     0
 62
     7
  6
CONTINUOUS
  0
LAYER
  2
FRAME_025
 70
     0
 62
     7
  6
CONTINUOUS
  0
LAYER
  2
VIEWPORT
 70
     0
 62
     7
  6
CONTINUOUS
  0
LAYER
  2
PROF
 70
     0
 62
     7
  6
CONTINUOUS
  0
LAYER
  2
PROFILE
 70
     0
 62
     7
  6
CONTINUOUS
  0
ENDTAB
  0
TABLE
  2
STYLE
 70
     2
  0
STYLE
  2
STANDARD
 70
     0
 40
0.0
 41
1.0
 50
0.0
 71
     0
 42
1.5
  3
txt
  4

  0
STYLE
  2
ISO_PROPORTIONAL
 70
     0
 40
0.0
 41
1.0
 50
0.0
 71
     0
 42
2.5
  3
isocp.shx
  4

  0
ENDTAB
  0
TABLE
  2
VIEW
 70
     7
  0
ENDTAB
  0
TABLE
  2
UCS
 70
     0
  0
ENDTAB
  0
TABLE
  2
APPID
 70
     6
  0
APPID
  2
ACAD
 70
     0
  0
APPID
  2
DCO15
 70
     0
  0
APPID
  2
ACAD_EXEMPT_FROM_CAD_STANDARDS
 70
     0
  0
APPID
  2
ACAD_PSEXT
 70
     0
  0
APPID
  2
CONTENTBLOCKDESCRIPTION
 70
     0
  0
APPID
  2
CONTENTBLOCKICON
 70
     0
  0
ENDTAB
  0
TABLE
  2
DIMSTYLE
 70
     5
  0
DIMSTYLE
  2
FULL_SCALE
 70
     0
  3
"
  4

  5
ARCHTICK
  6

  7

 40
1.0
 41
0.046875
 42
0.09375
 43
0.125
 44
0.0625
 45
0.0
 46
0.0
 47
0.0
 48
0.0
140
0.125
141
0.125
142
0.0
143
25.399999999999999
144
1.0
145
0.0
146
1.0
147
0.0625
 71
     0
 72
     0
 73
     0
 74
     0
 75
     0
 76
     0
 77
     1
 78
     0
170
     0
171
     2
172
     0
173
     0
174
     1
175
     0
176
     0
177
     0
178
     0
  0
DIMSTYLE
  2
HALF_SCALE
 70
     0
  3
"
  4

  5
ARCHTICK
  6

  7

 40
1.0
 41
0.09375
 42
0.1875
 43
0.25
 44
0.125
 45
0.0
 46
0.0
 47
0.0
 48
0.0
140
0.25
141
0.25
142
0.0
143
25.399999999999999
144
1.0
145
0.0
146
1.0
147
0.125
 71
     0
 72
     0
 73
     0
 74
     0
 75
     0
 76
     0
 77
     1
 78
     0
170
     0
171
     2
172
     0
173
     0
174
     1
175
     0
176
     0
177
     0
178
     0
  0
DIMSTYLE
  2
INCH_SCALE
 70
     0
  3
"
  4

  5
ARCHTICK
  6

  7

 40
1.0
 41
0.5625
 42
1.125
 43
1.5
 44
0.75
 45
0.0
 46
0.0
 47
0.0
 48
0.0
140
1.125
141
1.5
142
0.0
143
25.399999999999999
144
1.0
145
0.0
146
1.0
147
0.75
 71
     0
 72
     0
 73
     0
 74
     0
 75
     0
 76
     0
 77
     1
 78
     0
170
     0
171
     2
172
     0
173
     0
174
     1
175
     0
176
     0
177
     0
178
     0
  0
DIMSTYLE
  2
THREE_QUARTER_INCH_SCALE
 70
     0
  3
"
  4

  5
ARCHTICK
  6

  7

 40
1.0
 41
0.75
 42
1.5
 43
2.0
 44
1.0
 45
0.0
 46
0.0
 47
0.0
 48
0.0
140
1.5
141
2.0
142
0.0
143
25.399999999999999
144
1.0
145
0.0
146
1.0
147
1.0
 71
     0
 72
     0
 73
     0
 74
     0
 75
     0
 76
     0
 77
     1
 78
     0
170
     0
171
     2
172
     0
173
     0
174
     1
175
     0
176
     0
177
     0
178
     0
  0
DIMSTYLE
  2
ZHALF_INCH_SCALE
 70
     0
  3
"
  4

  5
ARCHTICK
  6

  7

 40
1.0
 41
1.125
 42
2.25
 43
3.0
 44
1.5
 45
0.0
 46
0.0
 47
0.0
 48
0.0
140
2.25
141
3.0
142
0.0
143
25.399999999999999
144
1.0
145
0.0
146
1.0
147
1.5
 71
     0
 72
     0
 73
     0
 74
     0
 75
     0
 76
     0
 77
     1
 78
     0
170
     0
171
     2
172
     0
173
     0
174
     1
175
     0
176
     0
177
     0
178
     0
  0
ENDTAB
  0
ENDSEC
  0
SECTION
  2
BLOCKS
  0
BLOCK
  8
0
  2
$MODEL_SPACE
 70
     0
 10
0.0
 20
0.0
 30
0.0
  3
$MODEL_SPACE
  1

  0
ENDBLK
  5
21
  8
0
  0
BLOCK
 67
     1
  8
0
  2
$PAPER_SPACE
 70
     0
 10
0.0
 20
0.0
 30
0.0
  3
$PAPER_SPACE
  1

  0
ENDBLK
  5
BAD5
 67
     1
  8
0
  0
BLOCK
  8
0
  2
_ARCHTICK
 70
     0
 10
0.0
 20
0.0
 30
0.0
  3
_ARCHTICK
  1

  0
POLYLINE
  5
158
  8
0
  6
BYBLOCK
 62
     0
 66
     1
 10
0.0
 20
0.0
 30
0.0
 40
0.15
 41
0.15
  0
VERTEX
  5
368E1
  8
0
  6
BYBLOCK
 62
     0
 10
-0.5
 20
-0.5
 30
0.0
  0
VERTEX
  5
368E2
  8
0
  6
BYBLOCK
 62
     0
 10
0.5
 20
0.5
 30
0.0
  0
SEQEND
  5
368E3
  8
0
  6
BYBLOCK
 62
     0
  0
ENDBLK
  5
15A
  8
0
  0
BLOCK
  8
0
  2
_OPEN30
 70
     0
 10
0.0
 20
0.0
 30
0.0
  3
_OPEN30
  1

  0
LINE
  5
15C
  8
0
  6
BYBLOCK
 62
     0
 10
-1.0
 20
0.26794919
 30
0.0
 11
0.0
 21
0.0
 31
0.0
  0
LINE
  5
15D
  8
0
  6
BYBLOCK
 62
     0
 10
0.0
 20
0.0
 30
0.0
 11
-1.0
 21
-0.26794919
 31
0.0
  0
LINE
  5
15E
  8
0
  6
BYBLOCK
 62
     0
 10
0.0
 20
0.0
 30
0.0
 11
-1.0
 21
0.0
 31
0.0
  0
ENDBLK
  5
160
  8
0
  0
BLOCK
  8
0
  2
ISO_A2_TITLE_BLOCK
 70
     2
 10
0.0
 20
0.0
 30
0.0
  3
ISO_A2_TITLE_BLOCK
  1

  0
LINE
  5
BDD
  8
FRAME_050
 10
299.5
 20
12.5
 30
0.0
 11
297.0
 21
7.5
 31
0.0
  0
LINE
  5
BDE
  8
FRAME_050
 10
294.5
 20
12.5
 30
0.0
 11
299.5
 21
12.5
 31
0.0
  0
LINE
  5
BDF
  8
FRAME_050
 10
247.0
 20
5.0
 30
0.0
 11
347.0
 21
5.0
 31
0.0
  0
LINE
  5
BE0
  8
FRAME_070
 10
584.0
 20
410.0
 30
0.0
 11
10.0
 21
410.0
 31
0.0
  0
LINE
  5
BE1
  8
FRAME_070
 10
10.0
 20
10.0
 30
0.0
 11
584.0
 21
10.0
 31
0.0
  0
LINE
  5
BE2
  8
FRAME_050
 10
12.5
 20
207.5
 30
0.0
 11
7.5
 21
210.0
 31
0.0
  0
LINE
  5
BE3
  8
FRAME_050
 10
12.5
 20
212.5
 30
0.0
 11
12.5
 21
207.5
 31
0.0
  0
LINE
  5
BE4
  8
FRAME_070
 10
10.0
 20
410.0
 30
0.0
 11
10.0
 21
10.0
 31
0.0
  0
LINE
  5
BE5
  8
FRAME_200
 10
0.0
 20
0.0
 30
0.0
 11
0.0
 21
10.0
 31
0.0
  0
LINE
  5
BE6
  8
FRAME_200
 10
0.0
 20
0.0
 30
0.0
 11
10.0
 21
0.0
 31
0.0
  0
TEXT
  5
BE7
  8
FRAME_050
 10
5.9000000000000004
 20
35.0
 30
0.0
 40
4.0
  1
H
  7
ISO_PROPORTIONAL
 72
     4
 11
7.5
 21
37.0
 31
0.0
  0
LINE
  5
BE8
  8
FRAME_050
 10
10.0
 20
60.0
 30
0.0
 11
5.0
 21
60.0
 31
0.0
  0
LINE
  5
BE9
  8
FRAME_050
 10
81.75
 20
5.0
 30
0.0
 11
81.75
 21
10.0
 31
0.0
  0
TEXT
  5
BEA
  8
FRAME_050
 10
44.874999999999993
 20
5.5
 30
0.0
 40
4.0
  1
1
  7
ISO_PROPORTIONAL
 72
     4
 11
45.875
 21
7.5
 31
0.0
  0
TEXT
  5
BEB
  8
FRAME_050
 10
6.0035533905932743
 20
85.0
 30
0.0
 40
4.0
  1
G
  7
ISO_PROPORTIONAL
 72
     4
 11
7.5
 21
87.0
 31
0.0
  0
LINE
  5
BEC
  8
FRAME_050
 10
10.0
 20
110.0
 30
0.0
 11
5.0
 21
110.0
 31
0.0
  0
TEXT
  5
BED
  8
FRAME_050
 10
6.0999999999999988
 20
135.0
 30
0.0
 40
4.0
  1
F
  7
ISO_PROPORTIONAL
 72
     4
 11
7.5
 21
137.0
 31
0.0
  0
LINE
  5
BEE
  8
FRAME_050
 10
10.0
 20
160.0
 30
0.0
 11
5.0
 21
160.0
 31
0.0
  0
TEXT
  5
BEF
  8
FRAME_050
 10
6.0999999999999988
 20
185.0
 30
0.0
 40
4.0
  1
E
  7
ISO_PROPORTIONAL
 72
     4
 11
7.5
 21
187.0
 31
0.0
  0
LINE
  5
BF0
  8
FRAME_050
 10
153.5
 20
5.0
 30
0.0
 11
153.5
 21
10.0
 31
0.0
  0
TEXT
  5
BF1
  8
FRAME_050
 10
116.1556692913386
 20
5.3996062992125982
 30
0.0
 40
4.0
  1
2
  7
ISO_PROPORTIONAL
 72
     4
 11
117.625
 21
7.5
 31
0.0
  0
TEXT
  5
BF2
  8
FRAME_050
 10
187.89215728752529
 20
5.5828427124746138
 30
0.0
 40
4.0
  1
3
  7
ISO_PROPORTIONAL
 72
     4
 11
189.375
 21
7.5
 31
0.0
  0
LINE
  5
BF3
  8
FRAME_050
 10
225.25
 20
5.0
 30
0.0
 11
225.25
 21
10.0
 31
0.0
  0
LINE
  5
BF4
  8
FRAME_050
 10
297.0
 20
7.5
 30
0.0
 11
294.5
 21
12.5
 31
0.0
  0
LINE
  5
BF5
  8
FRAME_050
 10
287.0
 20
5.0
 30
0.0
 11
287.0
 21
10.0
 31
0.0
  0
LINE
  5
BF6
  8
FRAME_050
 10
277.0
 20
5.0
 30
0.0
 11
277.0
 21
10.0
 31
0.0
  0
LINE
  5
BF7
  8
FRAME_050
 10
267.0
 20
5.0
 30
0.0
 11
267.0
 21
10.0
 31
0.0
  0
LINE
  5
BF8
  8
FRAME_050
 10
257.0
 20
5.0
 30
0.0
 11
257.0
 21
10.0
 31
0.0
  0
LINE
  5
BF9
  8
FRAME_050
 10
247.0
 20
5.0
 30
0.0
 11
247.0
 21
10.0
 31
0.0
  0
LINE
  5
BFA
  8
FRAME_050
 10
297.0
 20
10.0
 30
0.0
 11
297.0
 21
5.0
 31
0.0
  0
LINE
  5
BFB
  8
FRAME_050
 10
297.0
 20
10.0
 30
0.0
 11
297.0
 21
15.0
 31
0.0
  0
LINE
  5
BFC
  8
FRAME_050
 10
5.0
 20
210.0
 30
0.0
 11
15.0
 21
210.0
 31
0.0
  0
LINE
  5
BFD
  8
FRAME_050
 10
7.5
 20
210.0
 30
0.0
 11
12.5
 21
212.5
 31
0.0
  0
TEXT
  5
BFE
  8
FRAME_050
 10
5.7860912703473977
 20
235.0
 30
0.0
 40
4.0
  1
D
  7
ISO_PROPORTIONAL
 72
     4
 11
7.5
 21
237.0
 31
0.0
  0
LINE
  5
BFF
  8
FRAME_050
 10
10.0
 20
260.0
 30
0.0
 11
5.0
 21
260.0
 31
0.0
  0
TEXT
  5
C00
  8
FRAME_050
 10
6.1931980515339466
 20
285.0
 30
0.0
 40
4.0
  1
C
  7
ISO_PROPORTIONAL
 72
     4
 11
7.5
 21
287.0
 31
0.0
  0
LINE
  5
C01
  8
FRAME_050
 10
10.0
 20
310.0
 30
0.0
 11
5.0
 21
310.0
 31
0.0
  0
TEXT
  5
C02
  8
FRAME_050
 10
5.8999999999999959
 20
335.0
 30
0.0
 40
4.0
  1
B
  7
ISO_PROPORTIONAL
 72
     4
 11
7.5
 21
337.0
 31
0.0
  0
LINE
  5
C03
  8
FRAME_050
 10
10.0
 20
360.0
 30
0.0
 11
5.0
 21
360.0
 31
0.0
  0
TEXT
  5
C04
  8
FRAME_050
 10
5.6999999999999993
 20
385.0
 30
0.0
 40
4.0
  1
A
  7
ISO_PROPORTIONAL
 72
     4
 11
7.5
 21
387.0
 31
0.0
  0
LINE
  5
C05
  8
FRAME_200
 10
10.0
 20
420.0
 30
0.0
 11
0.0
 21
420.0
 31
0.0
  0
LINE
  5
C06
  8
FRAME_200
 10
0.0
 20
420.0
 30
0.0
 11
0.0
 21
410.0
 31
0.0
  0
TEXT
  5
C07
  8
FRAME_050
 10
44.874999999999993
 20
410.5
 30
0.0
 40
4.0
  1
1
  7
ISO_PROPORTIONAL
 72
     4
 11
45.875
 21
412.5
 31
0.0
  0
LINE
  5
C08
  8
FRAME_050
 10
81.75
 20
410.0
 30
0.0
 11
81.75
 21
415.0
 31
0.0
  0
TEXT
  5
C09
  8
FRAME_050
 10
116.1556692913386
 20
410.39960629921262
 30
0.0
 40
4.0
  1
2
  7
ISO_PROPORTIONAL
 72
     4
 11
117.625
 21
412.5
 31
0.0
  0
LINE
  5
C0A
  8
FRAME_050
 10
153.5
 20
410.0
 30
0.0
 11
153.5
 21
415.0
 31
0.0
  0
TEXT
  5
C0B
  8
FRAME_050
 10
187.89215728752529
 20
410.58284271247459
 30
0.0
 40
4.0
  1
3
  7
ISO_PROPORTIONAL
 72
     4
 11
189.375
 21
412.5
 31
0.0
  0
LINE
  5
C0C
  8
FRAME_050
 10
297.0
 20
405.0
 30
0.0
 11
297.0
 21
415.0
 31
0.0
  0
LINE
  5
C0D
  8
FRAME_050
 10
225.25
 20
410.0
 30
0.0
 11
225.25
 21
415.0
 31
0.0
  0
TEXT
  5
C0E
  8
FRAME_050
 10
259.52499999999998
 20
410.5
 30
0.0
 40
4.0
  1
4
  7
ISO_PROPORTIONAL
 72
     4
 11
261.125
 21
412.5
 31
0.0
  0
LINE
  5
C0F
  8
FRAME_070
 10
584.0
 20
10.0
 30
0.0
 11
584.0
 21
410.0
 31
0.0
  0
ATTDEF
  5
C10
  8
FRAME_025
 10
473.0
 20
31.75
 30
0.0
 40
2.5
  1
XXX - 00/00/00
  7
ISO_PROPORTIONAL
 11
473.0
 21
33.0
 31
0.0
  3
Approved by - Date
  2
APPROVED_BY_DATE
 70
     8
 74
     2
  0
TEXT
  5
C11
  8
FRAME_025
 10
448.0
 20
41.749999999999993
 30
0.0
 40
2.5
  1
Title/Name, designation, material, dimension etc
  7
ISO_PROPORTIONAL
 11
448.0
 21
43.0
 31
0.0
 73
     2
  0
TEXT
  5
C12
  8
FRAME_025
 10
473.0
 20
35.75
 30
0.0
 40
2.5
  1
Approved by - date
  7
ISO_PROPORTIONAL
 11
473.0
 21
37.0
 31
0.0
 73
     2
  0
LINE
  5
C13
  8
FRAME_070
 10
414.0
 20
46.0
 30
0.0
 11
584.0
 21
46.0
 31
0.0
  0
LINE
  5
C14
  8
FRAME_070
 10
414.0
 20
40.0
 30
0.0
 11
584.0
 21
40.0
 31
0.0
  0
LINE
  5
C15
  8
FRAME_070
 10
414.0
 20
30.0
 30
0.0
 11
584.0
 21
30.0
 31
0.0
  0
LINE
  5
C16
  8
FRAME_050
 10
368.75
 20
5.0
 30
0.0
 11
368.75
 21
10.0
 31
0.0
  0
LINE
  5
C17
  8
FRAME_050
 10
337.0
 20
5.0
 30
0.0
 11
337.0
 21
10.0
 31
0.0
  0
LINE
  5
C18
  8
FRAME_050
 10
327.0
 20
5.0
 30
0.0
 11
327.0
 21
10.0
 31
0.0
  0
LINE
  5
C19
  8
FRAME_050
 10
317.0
 20
5.0
 30
0.0
 11
317.0
 21
10.0
 31
0.0
  0
LINE
  5
C1A
  8
FRAME_050
 10
307.0
 20
5.0
 30
0.0
 11
307.0
 21
10.0
 31
0.0
  0
LINE
  5
C1B
  8
FRAME_050
 10
347.0
 20
5.0
 30
0.0
 11
347.0
 21
10.0
 31
0.0
  0
LINE
  5
C1C
  8
FRAME_050
 10
440.5
 20
5.0
 30
0.0
 11
440.5
 21
10.0
 31
0.0
  0
TEXT
  5
C1D
  8
FRAME_050
 10
403.24547244094481
 20
5.4102362204724406
 30
0.0
 40
4.0
  1
6
  7
ISO_PROPORTIONAL
 72
     4
 11
404.62499999999989
 21
7.5
 31
0.0
  0
TEXT
  5
C1E
  8
FRAME_050
 10
474.97500000000002
 20
5.5
 30
0.0
 40
4.0
  1
7
  7
ISO_PROPORTIONAL
 72
     4
 11
476.37499999999989
 21
7.5
 31
0.0
  0
TEXT
  5
C1F
  8
FRAME_025
 10
431.0
 20
41.749999999999993
 30
0.0
 40
2.5
  1
Quantity
  7
ISO_PROPORTIONAL
 11
431.0
 21
43.0
 31
0.0
 73
     2
  0
TEXT
  5
C20
  8
FRAME_025
 10
416.0
 20
41.749999999999993
 30
0.0
 40
2.5
  1
Itemref
  7
ISO_PROPORTIONAL
 11
416.0
 21
43.0
 31
0.0
 73
     2
  0
LINE
  5
C21
  8
FRAME_070
 10
414.0
 20
40.0
 30
0.0
 11
414.0
 21
46.0
 31
0.0
  0
LINE
  5
C22
  8
FRAME_070
 10
429.0
 20
40.0
 30
0.0
 11
429.0
 21
46.0
 31
0.0
  0
LINE
  5
C23
  8
FRAME_070
 10
414.0
 20
10.0
 30
0.0
 11
414.0
 21
40.0
 31
0.0
  0
ATTDEF
  5
C24
  8
FRAME_025
 10
416.0
 20
31.75
 30
0.0
 40
2.5
  1
XXX
  7
ISO_PROPORTIONAL
 11
416.0
 21
33.0
 31
0.0
  3
Designed by
  2
DESIGNED_BY
 70
     8
 74
     2
  0
TEXT
  5
C25
  8
FRAME_025
 10
416.0
 20
35.75
 30
0.0
 40
2.5
  1
Designed by
  7
ISO_PROPORTIONAL
 11
416.0
 21
37.0
 31
0.0
 73
     2
  0
LINE
  5
C26
  8
FRAME_070
 10
446.0
 20
40.0
 30
0.0
 11
446.0
 21
46.0
 31
0.0
  0
ATTDEF
  5
C27
  8
FRAME_025
 10
448.0
 20
31.75
 30
0.0
 40
2.5
  1
XXX
  7
ISO_PROPORTIONAL
 11
448.0
 21
33.0
 31
0.0
  3
Checked by
  2
CHECKED_BY
 70
     8
 74
     2
  0
TEXT
  5
C28
  8
FRAME_025
 10
448.0
 20
35.75
 30
0.0
 40
2.5
  1
Checked by
  7
ISO_PROPORTIONAL
 11
448.0
 21
37.0
 31
0.0
 73
     2
  0
ATTDEF
  5
C29
  8
FRAME_050
 10
444.74999999999989
 20
17.5
 30
0.0
 40
5.0
  1
XXX
  7
ISO_PROPORTIONAL
 72
     4
 11
451.49999999999989
 21
20.0
 31
0.0
  3
Owner
  2
OWNER
 70
     8
  0
LINE
  5
C2A
  8
FRAME_070
 10
446.0
 20
30.0
 30
0.0
 11
446.0
 21
40.0
 31
0.0
  0
LINE
  5
C2B
  8
FRAME_070
 10
471.0
 20
30.0
 30
0.0
 11
471.0
 21
40.0
 31
0.0
  0
LINE
  5
C2C
  8
FRAME_070
 10
489.0
 20
20.0
 30
0.0
 11
584.0
 21
20.0
 31
0.0
  0
LINE
  5
C2D
  8
FRAME_050
 10
512.25
 20
5.0
 30
0.0
 11
512.25
 21
10.0
 31
0.0
  0
TEXT
  5
C2E
  8
FRAME_050
 10
546.72499999999991
 20
5.5
 30
0.0
 40
4.0
  1
8
  7
ISO_PROPORTIONAL
 72
     4
 11
548.125
 21
7.5
 31
0.0
  0
ATTDEF
  5
C2F
  8
FRAME_050
 10
517.64999999999986
 20
13.5
 30
0.0
 40
3.0
  1
X
  7
ISO_PROPORTIONAL
 72
     4
 11
519.0
 21
15.0
 31
0.0
  3
Drawing number
  2
DRAWING_NUMBER
 70
     8
  0
ATTDEF
  5
C30
  8
FRAME_050
 10
529.75
 20
22.5
 30
0.0
 40
5.0
  1
XXX
  7
ISO_PROPORTIONAL
 72
     4
 11
536.5
 21
25.0
 31
0.0
  3
Title / Name
  2
TITLE
 70
     8
  0
LINE
  5
C31
  8
FRAME_070
 10
489.0
 20
10.0
 30
0.0
 11
489.0
 21
30.0
 31
0.0
  0
ATTDEF
  5
C32
  8
FRAME_025
 10
511.0
 20
31.75
 30
0.0
 40
2.5
  1
XXX
  7
ISO_PROPORTIONAL
 11
511.0
 21
33.0
 31
0.0
  3
Filename
  2
FILENAME
 70
     8
 74
     2
  0
TEXT
  5
C33
  8
FRAME_025
 10
511.0
 20
35.75
 30
0.0
 40
2.5
  1
Filename
  7
ISO_PROPORTIONAL
 11
511.0
 21
37.0
 31
0.0
 73
     2
  0
LINE
  5
C34
  8
FRAME_070
 10
509.0
 20
30.0
 30
0.0
 11
509.0
 21
40.0
 31
0.0
  0
TEXT
  5
C35
  8
FRAME_025
 10
536.0
 20
41.749999999999993
 30
0.0
 40
2.5
  1
Article No./Reference
  7
ISO_PROPORTIONAL
 11
536.0
 21
43.0
 31
0.0
 73
     2
  0
LINE
  5
C36
  8
FRAME_070
 10
534.0
 20
40.0
 30
0.0
 11
534.0
 21
46.0
 31
0.0
  0
ATTDEF
  5
C37
  8
FRAME_025
 10
551.0
 20
11.75
 30
0.0
 40
2.5
  1
0
  7
ISO_PROPORTIONAL
 11
551.0
 21
13.0
 31
0.0
  3
Edition
  2
EDITION
 70
     8
 74
     2
  0
TEXT
  5
C38
  8
FRAME_025
 10
551.0
 20
15.75
 30
0.0
 40
2.5
  1
Edition
  7
ISO_PROPORTIONAL
 11
551.0
 21
17.0
 31
0.0
 73
     2
  0
LINE
  5
C39
  8
FRAME_070
 10
549.0
 20
10.0
 30
0.0
 11
549.0
 21
20.0
 31
0.0
  0
ATTDEF
  5
C3A
  8
FRAME_025
 10
536.0
 20
31.75
 30
0.0
 40
2.5
  1
00/00/00
  7
ISO_PROPORTIONAL
 11
536.0
 21
33.0
 31
0.0
  3
Date
  2
DATE
 70
     8
 74
     2
  0
TEXT
  5
C3B
  8
FRAME_025
 10
536.0
 20
35.75
 30
0.0
 40
2.5
  1
Date
  7
ISO_PROPORTIONAL
 11
536.0
 21
37.0
 31
0.0
 73
     2
  0
LINE
  5
C3C
  8
FRAME_070
 10
534.0
 20
30.0
 30
0.0
 11
534.0
 21
40.0
 31
0.0
  0
ATTDEF
  5
C3D
  8
FRAME_025
 10
566.0
 20
11.75
 30
0.0
 40
2.5
  1
1/1
  7
ISO_PROPORTIONAL
 11
566.0
 21
13.0
 31
0.0
  3
Sheet
  2
SHEET
 70
     8
 74
     2
  0
TEXT
  5
C3E
  8
FRAME_025
 10
566.0
 20
15.75
 30
0.0
 40
2.5
  1
Sheet
  7
ISO_PROPORTIONAL
 11
566.0
 21
17.0
 31
0.0
 73
     2
  0
LINE
  5
C3F
  8
FRAME_070
 10
564.0
 20
10.0
 30
0.0
 11
564.0
 21
20.0
 31
0.0
  0
ATTDEF
  5
C40
  8
FRAME_025
 10
566.0
 20
31.75
 30
0.0
 40
2.5
  1
1:1
  7
ISO_PROPORTIONAL
 11
566.0
 21
33.0
 31
0.0
  3
Scale
  2
SCALE
 70
     8
 74
     2
  0
TEXT
  5
C41
  8
FRAME_025
 10
566.0
 20
35.75
 30
0.0
 40
2.5
  1
Scale
  7
ISO_PROPORTIONAL
 11
566.0
 21
37.0
 31
0.0
 73
     2
  0
LINE
  5
C42
  8
FRAME_070
 10
564.0
 20
30.0
 30
0.0
 11
564.0
 21
40.0
 31
0.0
  0
LINE
  5
C43
  8
FRAME_200
 10
594.0
 20
0.0
 30
0.0
 11
594.0
 21
10.0
 31
0.0
  0
LINE
  5
C44
  8
FRAME_200
 10
594.0
 20
0.0
 30
0.0
 11
584.0
 21
0.0
 31
0.0
  0
TEXT
  5
C45
  8
FRAME_050
 10
584.89999999999998
 20
35.0
 30
0.0
 40
4.0
  1
H
  7
ISO_PROPORTIONAL
 72
     4
 11
586.5
 21
37.0
 31
0.0
  0
LINE
  5
C46
  8
FRAME_050
 10
589.0
 20
60.0
 30
0.0
 11
584.0
 21
60.0
 31
0.0
  0
TEXT
  5
C47
  8
FRAME_050
 10
585.0035533905932
 20
85.0
 30
0.0
 40
4.0
  1
G
  7
ISO_PROPORTIONAL
 72
     4
 11
586.5
 21
87.0
 31
0.0
  0
LINE
  5
C48
  8
FRAME_050
 10
589.0
 20
110.0
 30
0.0
 11
584.0
 21
110.0
 31
0.0
  0
TEXT
  5
C49
  8
FRAME_050
 10
585.09999999999991
 20
135.0
 30
0.0
 40
4.0
  1
F
  7
ISO_PROPORTIONAL
 72
     4
 11
586.5
 21
137.0
 31
0.0
  0
LINE
  5
C4A
  8
FRAME_050
 10
589.0
 20
160.0
 30
0.0
 11
584.0
 21
160.0
 31
0.0
  0
TEXT
  5
C4B
  8
FRAME_050
 10
585.09999999999991
 20
185.0
 30
0.0
 40
4.0
  1
E
  7
ISO_PROPORTIONAL
 72
     4
 11
586.5
 21
187.0
 31
0.0
  0
LINE
  5
C4C
  8
FRAME_070
 10
414.0
 20
404.0
 30
0.0
 11
584.0
 21
404.0
 31
0.0
  0
TEXT
  5
C4D
  8
FRAME_050
 10
331.39215728752538
 20
410.58284271247459
 30
0.0
 40
4.0
  1
5
  7
ISO_PROPORTIONAL
 72
     4
 11
332.875
 21
412.5
 31
0.0
  0
LINE
  5
C4E
  8
FRAME_050
 10
368.75
 20
410.0
 30
0.0
 11
368.75
 21
415.0
 31
0.0
  0
TEXT
  5
C4F
  8
FRAME_025
 10
428.0
 20
405.75
 30
0.0
 40
2.5
  1
Revision note
  7
ISO_PROPORTIONAL
 11
428.0
 21
407.0
 31
0.0
 73
     2
  0
TEXT
  5
C50
  8
FRAME_025
 10
416.0
 20
405.75
 30
0.0
 40
2.5
  1
RevNo
  7
ISO_PROPORTIONAL
 11
416.0
 21
407.0
 31
0.0
 73
     2
  0
LINE
  5
C51
  8
FRAME_070
 10
426.0
 20
404.0
 30
0.0
 11
426.0
 21
410.0
 31
0.0
  0
LINE
  5
C52
  8
FRAME_070
 10
414.0
 20
404.0
 30
0.0
 11
414.0
 21
410.0
 31
0.0
  0
TEXT
  5
C53
  8
FRAME_050
 10
403.24547244094481
 20
410.41023622047243
 30
0.0
 40
4.0
  1
6
  7
ISO_PROPORTIONAL
 72
     4
 11
404.62499999999989
 21
412.5
 31
0.0
  0
LINE
  5
C54
  8
FRAME_050
 10
440.5
 20
410.0
 30
0.0
 11
440.5
 21
415.0
 31
0.0
  0
TEXT
  5
C55
  8
FRAME_050
 10
474.97500000000002
 20
410.5
 30
0.0
 40
4.0
  1
7
  7
ISO_PROPORTIONAL
 72
     4
 11
476.37499999999989
 21
412.5
 31
0.0
  0
LINE
  5
C56
  8
FRAME_050
 10
579.0
 20
210.0
 30
0.0
 11
589.0
 21
210.0
 31
0.0
  0
TEXT
  5
C57
  8
FRAME_050
 10
584.78609127034736
 20
235.0
 30
0.0
 40
4.0
  1
D
  7
ISO_PROPORTIONAL
 72
     4
 11
586.5
 21
237.0
 31
0.0
  0
LINE
  5
C58
  8
FRAME_050
 10
589.0
 20
260.0
 30
0.0
 11
584.0
 21
260.0
 31
0.0
  0
TEXT
  5
C59
  8
FRAME_050
 10
585.19319805153395
 20
285.0
 30
0.0
 40
4.0
  1
C
  7
ISO_PROPORTIONAL
 72
     4
 11
586.5
 21
287.0
 31
0.0
  0
LINE
  5
C5A
  8
FRAME_050
 10
589.0
 20
310.0
 30
0.0
 11
584.0
 21
310.0
 31
0.0
  0
TEXT
  5
C5B
  8
FRAME_050
 10
584.89999999999998
 20
335.0
 30
0.0
 40
4.0
  1
B
  7
ISO_PROPORTIONAL
 72
     4
 11
586.5
 21
337.0
 31
0.0
  0
TEXT
  5
C5C
  8
FRAME_025
 10
571.08299391850551
 20
405.75
 30
0.0
 40
2.5
  1
Checked
  7
ISO_PROPORTIONAL
 11
571.08299391850551
 21
407.0
 31
0.0
 73
     2
  0
TEXT
  5
C5D
  8
FRAME_025
 10
555.36099797283532
 20
405.75
 30
0.0
 40
2.5
  1
Signature
  7
ISO_PROPORTIONAL
 11
555.36099797283532
 21
407.0
 31
0.0
 73
     2
  0
TEXT
  5
C5E
  8
FRAME_025
 10
537.0
 20
405.75
 30
0.0
 40
2.5
  1
Date
  7
ISO_PROPORTIONAL
 11
537.0
 21
407.0
 31
0.0
 73
     2
  0
LINE
  5
C5F
  8
FRAME_070
 10
570.0
 20
404.0
 30
0.0
 11
570.0
 21
410.0
 31
0.0
  0
LINE
  5
C60
  8
FRAME_070
 10
555.0
 20
404.0
 30
0.0
 11
555.0
 21
410.0
 31
0.0
  0
LINE
  5
C61
  8
FRAME_070
 10
535.0
 20
404.0
 30
0.0
 11
535.0
 21
410.0
 31
0.0
  0
LINE
  5
C62
  8
FRAME_050
 10
512.25
 20
410.0
 30
0.0
 11
512.25
 21
415.0
 31
0.0
  0
TEXT
  5
C63
  8
FRAME_050
 10
546.72499999999991
 20
410.5
 30
0.0
 40
4.0
  1
8
  7
ISO_PROPORTIONAL
 72
     4
 11
548.125
 21
412.5
 31
0.0
  0
LINE
  5
C64
  8
FRAME_050
 10
589.0
 20
360.0
 30
0.0
 11
584.0
 21
360.0
 31
0.0
  0
TEXT
  5
C65
  8
FRAME_050
 10
584.70000000000005
 20
385.0
 30
0.0
 40
4.0
  1
A
  7
ISO_PROPORTIONAL
 72
     4
 11
586.5
 21
387.0
 31
0.0
  0
LINE
  5
C66
  8
FRAME_200
 10
594.0
 20
420.0
 30
0.0
 11
584.0
 21
420.0
 31
0.0
  0
LINE
  5
C67
  8
FRAME_200
 10
594.0
 20
410.0
 30
0.0
 11
594.0
 21
420.0
 31
0.0
  0
ENDBLK
  5
C69
  8
0
  0
BLOCK
  8
0
  2
WOBB001END
 70
     0
 10
0.0
 20
0.0
 30
0.0
  3
WOBB001END
  1

  0
LINE
  5
4D66
  8
0
  6
CONTINUOUS
 10
0.0
 20
0.0
 30
0.0
 11
0.8749999999999998
 21
0.0
 31
0.0
  0
ARC
  5
4D67
  8
0
  6
CONTINUOUS
 10
0.0331648379439287
 20
-0.5087238935900232
 30
0.0
 40
0.8790130605592325
 50
284.06490243660443
 51
312.19222981924361
  0
ARC
  5
4D68
  8
0
  6
CONTINUOUS
 10
0.2841534338796767
 20
-1.510548310625538
 30
0.0
 40
0.1537731892806598
 50
104.0649024366044
 51
179.4721730735024
  0
LINE
  5
4D69
  8
0
  6
CONTINUOUS
 10
0.0
 20
0.0
 30
0.0
 11
-0.0000000000000003
 21
-1.7501564476661919
 31
0.0
  0
ARC
  5
4D6A
  8
0
  6
CONTINUOUS
 10
0.1404622019506122
 20
-1.6303137183546199
 30
0.0
 40
0.1198427293115722
 50
275.0
 51
85.000000000000057
  0
LINE
  5
4D6B
  8
0
  6
CONTINUOUS
 10
-0.0000000000000003
 20
-1.7501564476661919
 30
0.0
 11
0.1456946485130855
 21
-1.7501564476661919
 31
0.0
  0
LINE
  5
4D6C
  8
0
  6
CONTINUOUS
 10
0.1377603739254348
 20
-1.7508506067459131
 30
0.0
 11
0.150907184036669
 21
-1.749700409899652
 31
0.0
  0
LINE
  5
4D6D
  8
0
  6
CONTINUOUS
 10
0.1303867696719884
 20
-1.5091317231818231
 30
0.0
 11
0.1509071840366689
 21
-1.5109270268095869
 31
0.0
  0
LINE
  5
4D6E
  8
0
  6
CONTINUOUS
 10
0.8749999999999998
 20
0.0
 30
0.0
 11
0.8749999999999996
 21
-0.8649327026588228
 31
0.0
  0
LINE
  5
4D6F
  8
0
  6
CONTINUOUS
 10
0.727014513830997
 20
-0.8726882933550612
 30
0.0
 11
0.727014513830997
 21
-0.9264923397184784
 31
0.0
  0
ARC
  5
4D70
  8
0
  6
CONTINUOUS
 10
0.41187090827646
 20
-0.9264923397184784
 30
0.0
 40
0.315143605554537
 50
312.19222981924361
 51
0.0
  0
LINE
  5
4D71
  8
0
  6
CONTINUOUS
 10
0.727014513830997
 20
-0.8726882933550612
 30
0.0
 11
0.8749999999999996
 21
-0.8649327026588228
 31
0.0
  0
ENDBLK
  5
4D72
  8
0
  0
BLOCK
  8
0
  2
A$C0A61123B
 70
     0
 10
0.0
 20
0.0
 30
0.0
  3
A$C0A61123B
  1

  0
LINE
  5
C0AD
  8
PROF
  6
CONTINUOUS
 10
4.9012016798694162
 20
13.325025853350891
 30
0.0000000000000002
 11
4.9012016798694162
 21
12.88585218805485
 31
0.0000000000000003
  0
INSERT
  5
C0AE
  8
0
  2
*U72
 10
0.0
 20
0.0
 30
0.0
  0
LINE
  5
C0AF
  8
PROF
 10
4.5198575031869259
 20
12.72227734589444
 30
0.0000000000000001
 11
4.5198575031869259
 21
12.88585218805485
 31
0.0000000000000001
  0
LINE
  5
C0B0
  8
PROF
  6
CONTINUOUS
 10
3.6306271195888371
 20
13.325025853350891
 30
0.0000000000000002
 11
4.9012016798694162
 21
13.325025853350891
 31
0.0000000000000002
  0
LINE
  5
C0B1
  8
PROF
 10
1.9750295148747341
 20
10.37671325491794
 30
0.0000000000000002
 11
1.9750295148747341
 21
10.11391186758919
 31
0.0000000000000002
  0
LINE
  5
C0B2
  8
PROF
 10
1.607967335755631
 20
10.11391186758919
 30
0.0000000000000001
 11
1.9750295148747341
 21
10.11391186758919
 31
0.0000000000000001
  0
LINE
  5
C0B3
  8
PROF
 10
1.9750295148747341
 20
10.11391186758919
 30
0.0000000000000001
 11
1.944958486898144
 21
10.11391186758919
 31
0.0000000000000001
  0
LINE
  5
C0B4
  8
PROF
 10
1.9750295148747341
 20
10.11391186758919
 30
0.0000000000000001
 11
1.944958486898144
 21
10.11391186758919
 31
0.0000000000000001
  0
LINE
  5
C0B5
  8
PROF
 10
0.3222605517169654
 20
7.5247473351056442
 30
-0.0000000000000002
 11
-0.0000008570117416
 21
7.5247473351056442
 31
0.0
  0
LINE
  5
C0B6
  8
PROF
 10
-0.0000008570117416
 20
7.5247473351056442
 30
0.0
 11
-0.0000008570117416
 21
9.1943336957369866
 31
0.0
  0
POLYLINE
  5
C0B7
  8
PROF
 66
     1
 10
0.0
 20
0.0
 30
0.0000000000000001
 70
     4
 75
     6
  0
VERTEX
  5
C0B8
  8
PROF
 10
1.607967335755631
 20
10.11391186758919
 30
0.0000000000000001
 70
    16
  0
VERTEX
  5
C0B9
  8
PROF
 10
1.607967335755631
 20
10.11391186758919
 30
0.0000000000000001
 70
     8
  0
VERTEX
  5
C0BA
  8
PROF
 10
1.646813232648582
 20
10.02198069336111
 30
0.0000000000000001
 70
     8
  0
VERTEX
  5
C0BB
  8
PROF
 10
1.67335966680929
 20
9.9344134163010267
 30
0.0000000000000001
 70
     8
  0
VERTEX
  5
C0BC
  8
PROF
 10
1.689008640046324
 20
9.8512576644480987
 30
0.0000000000000001
 70
     8
  0
VERTEX
  5
C0BD
  8
PROF
 10
1.695162154168258
 20
9.7725610658417281
 30
0.0000000000000001
 70
     8
  0
VERTEX
  5
C0BE
  8
PROF
 10
1.6932222109836059
 20
9.6983712485214255
 30
0.0000000000000001
 70
     8
  0
VERTEX
  5
C0BF
  8
PROF
 10
1.6845908123009961
 20
9.6287358405263603
 30
0.0000000000000001
 70
     8
  0
VERTEX
  5
C0C0
  8
PROF
 10
1.6706699599288859
 20
9.5637024698960431
 30
0.0000000000000001
 70
     8
  0
VERTEX
  5
C0C1
  8
PROF
 10
1.6528616556759621
 20
9.503318764669757
 30
0.0000000000000001
 70
     8
  0
VERTEX
  5
C0C2
  8
PROF
 10
1.6323562992730549
 20
9.4475843259650674
 30
0.0000000000000001
 70
     8
  0
VERTEX
  5
C0C3
  8
PROF
 10
1.609497882140658
 20
9.3963066472123273
 30
0.0000000000000001
 70
     8
  0
VERTEX
  5
C0C4
  8
PROF
 10
1.584418793621637
 20
9.3492451949202842
 30
0.0000000000000001
 70
     8
  0
VERTEX
  5
C0C5
  8
PROF
 10
1.557251423058744
 20
9.3061594355972375
 30
0.0000000000000001
 70
     8
  0
VERTEX
  5
C0C6
  8
PROF
 10
1.5281281597949601
 20
9.2668088357519292
 30
0.0000000000000001
 70
     8
  0
VERTEX
  5
C0C7
  8
PROF
 10
1.4971813931729789
 20
9.2309528618930017
 30
0.0000000000000001
 70
     8
  0
VERTEX
  5
C0C8
  8
PROF
 10
1.464543512535726
 20
9.1983509805288577
 30
0.0000000000000001
 70
     8
  0
VERTEX
  5
C0C9
  8
PROF
 10
1.4303469072260091
 20
9.1687626581682462
 30
0.0000000000000001
 70
     8
  0
VERTEX
  5
C0CA
  8
PROF
 10
1.3947360332574019
 20
9.1419547918675335
 30
0.0000000000000001
 70
     8
  0
VERTEX
  5
C0CB
  8
PROF
 10
1.3579036133264131
 20
9.1177240008747731
 30
0.0000000000000001
 70
     8
  0
VERTEX
  5
C0CC
  8
PROF
 10
1.3200544368004321
 20
9.0958743349860924
 30
0.0000000000000001
 70
     8
  0
VERTEX
  5
C0CD
  8
PROF
 10
1.281393293046676
 20
9.0762098439975034
 30
0.0000000000000001
 70
     8
  0
VERTEX
  5
C0CE
  8
PROF
 10
1.242124971432417
 20
9.0585345777049042
 30
0.0000000000000001
 70
     8
  0
VERTEX
  5
C0CF
  8
PROF
 10
1.2024542613249869
 20
9.0426525859044204
 30
0.0000000000000001
 70
     8
  0
VERTEX
  5
C0D0
  8
PROF
 10
1.1625859520916599
 20
9.0283679183919503
 30
0.0000000000000001
 70
     8
  0
VERTEX
  5
C0D1
  8
PROF
 10
1.1227248330997091
 20
9.0154846249635057
 30
0.0000000000000001
 70
     8
  0
VERTEX
  5
C0D2
  8
PROF
 10
1.0829726247361
 20
9.0034643862466055
 30
0.0000000000000001
 70
     8
  0
VERTEX
  5
C0D3
  8
PROF
 10
1.043018771466222
 20
8.9903994061946833
 30
0.0000000000000001
 70
     8
  0
VERTEX
  5
C0D4
  8
PROF
 10
1.002449648775211
 20
8.9740395195925657
 30
0.0000000000000001
 70
     8
  0
VERTEX
  5
C0D5
  8
PROF
 10
0.9608516321480919
 20
8.9521345612251935
 30
0.0000000000000001
 70
     8
  0
VERTEX
  5
C0D6
  8
PROF
 10
0.9178110970699435
 20
8.9224343658775052
 30
0.0000000000000001
 70
     8
  0
VERTEX
  5
C0D7
  8
PROF
 10
0.8729144190259034
 20
8.8826887683343312
 30
0.0000000000000001
 70
     8
  0
VERTEX
  5
C0D8
  8
PROF
 10
0.8257479735009951
 20
8.8306476033806121
 30
0.0000000000000001
 70
     8
  0
VERTEX
  5
C0D9
  8
PROF
 10
0.7758981359802988
 20
8.764060705801171
 30
0.0000000000000001
 70
     8
  0
VERTEX
  5
C0DA
  8
PROF
 10
1.729201901609656
 20
9.8629858761255491
 30
0.0000000000000001
 70
    16
  0
VERTEX
  5
C0DB
  8
PROF
 10
1.6793731231140889
 20
9.4532143012734196
 30
0.0000000000000001
 70
    16
  0
VERTEX
  5
C0DC
  8
PROF
 10
1.4455611507419801
 20
9.1391837193732481
 30
0.0000000000000001
 70
    16
  0
VERTEX
  5
C0DD
  8
PROF
 10
1.120463717273821
 20
9.0026267702428413
 30
0.0000000000000001
 70
    16
  0
VERTEX
  5
C0DE
  8
PROF
 10
0.9127765582653638
 20
8.9630202230383702
 30
0.0000000000000001
 70
    16
  0
VERTEX
  5
C0DF
  8
PROF
 10
0.7758981359802988
 20
8.764060705801171
 30
0.0000000000000001
 70
    16
  0
SEQEND
  5
C0E0
  8
PROF
  0
ARC
  5
C0E1
  8
PROF
 10
0.733429816733235
 20
8.4849506952165257
 30
0.0000000000000001
 40
0.2823224329524727
 50
269.73652020831901
 51
81.348449993176914
  0
LINE
  5
C0E2
  8
PROF
  6
CONTINUOUS
 10
-0.0000008570117416
 20
9.1943336957369866
 30
-0.0000000000000001
 11
3.6306271195888371
 21
13.325025853350891
 31
0.0000000000000002
  0
POLYLINE
  5
C0E3
  8
PROF
 66
     1
 10
0.0
 20
0.0
 30
0.0000000000000001
 70
     4
 75
     6
  0
VERTEX
  5
C0E4
  8
PROF
 10
4.5198575031869259
 20
12.72227734589444
 30
0.0000000000000001
 70
    16
  0
VERTEX
  5
C0E5
  8
PROF
 10
4.5198575031869259
 20
12.72227734589444
 30
0.0000000000000001
 70
     8
  0
VERTEX
  5
C0E6
  8
PROF
 10
4.4467035366886298
 20
12.741128108778071
 30
0.0000000000000001
 70
     8
  0
VERTEX
  5
C0E7
  8
PROF
 10
4.3786645761268801
 20
12.754675269913941
 30
0.0000000000000001
 70
     8
  0
VERTEX
  5
C0E8
  8
PROF
 10
4.3154364111440477
 20
12.76334314092332
 30
0.0000000000000001
 70
     8
  0
VERTEX
  5
C0E9
  8
PROF
 10
4.256714831382566
 20
12.76755603342724
 30
0.0000000000000001
 70
     8
  0
VERTEX
  5
C0EA
  8
PROF
 10
4.2021956264849791
 20
12.76773825904672
 30
0.0000000000000001
 70
     8
  0
VERTEX
  5
C0EB
  8
PROF
 10
4.1515745860935453
 20
12.764314129403139
 30
0.0000000000000001
 70
     8
  0
VERTEX
  5
C0EC
  8
PROF
 10
4.1045474998508658
 20
12.75770795611743
 30
0.0000000000000001
 70
     8
  0
VERTEX
  5
C0ED
  8
PROF
 10
4.0608101573993158
 20
12.748344050810831
 30
0.0000000000000001
 70
     8
  0
VERTEX
  5
C0EE
  8
PROF
 10
4.0200583483813261
 20
12.736646725104491
 30
0.0000000000000001
 70
     8
  0
VERTEX
  5
C0EF
  8
PROF
 10
3.9819878624393819
 20
12.72304029061945
 30
0.0000000000000001
 70
     8
  0
VERTEX
  5
C0F0
  8
PROF
 10
3.946294489215858
 20
12.707949058976959
 30
0.0000000000000001
 70
     8
  0
VERTEX
  5
C0F1
  8
PROF
 10
3.9126740183532429
 20
12.691797341798059
 30
0.0000000000000001
 70
     8
  0
VERTEX
  5
C0F2
  8
PROF
 10
3.8808638350742508
 20
12.67494295718654
 30
0.0000000000000001
 70
     8
  0
VERTEX
  5
C0F3
  8
PROF
 10
3.850767706922738
 20
12.65747774917668
 30
0.0000000000000001
 70
     8
  0
VERTEX
  5
C0F4
  8
PROF
 10
3.8223309970228452
 20
12.639427068285499
 30
0.0000000000000001
 70
     8
  0
VERTEX
  5
C0F5
  8
PROF
 10
3.7954990684987129
 20
12.62081626503004
 30
0.0000000000000001
 70
     8
  0
VERTEX
  5
C0F6
  8
PROF
 10
3.7702172844744828
 20
12.601670689926999
 30
0.0000000000000001
 70
     8
  0
VERTEX
  5
C0F7
  8
PROF
 10
3.746431008074353
 20
12.58201569349364
 30
0.0000000000000001
 70
     8
  0
VERTEX
  5
C0F8
  8
PROF
 10
3.7240856024224618
 20
12.56187662624666
 30
0.0000000000000001
 70
     8
  0
VERTEX
  5
C0F9
  8
PROF
 10
3.7031264306428961
 20
12.541278838703191
 30
0.0000000000000001
 70
     8
  0
VERTEX
  5
C0FA
  8
PROF
 10
3.6834988558599089
 20
12.520247681380051
 30
0.0000000000000001
 70
     8
  0
VERTEX
  5
C0FB
  8
PROF
 10
3.665148241197528
 20
12.49880850479428
 30
0.0000000000000001
 70
     8
  0
VERTEX
  5
C0FC
  8
PROF
 10
3.6480199497799499
 20
12.47698665946279
 30
0.0000000000000001
 70
     8
  0
VERTEX
  5
C0FD
  8
PROF
 10
3.6320593447313172
 20
12.45480749590263
 30
0.0000000000000001
 70
     8
  0
VERTEX
  5
C0FE
  8
PROF
 10
3.6171895848866589
 20
12.43223790353807
 30
0.0000000000000001
 70
     8
  0
VERTEX
  5
C0FF
  8
PROF
 10
3.6032450119242858
 20
12.40901092742285
 30
0.0000000000000001
 70
     8
  0
VERTEX
  5
C100
  8
PROF
 10
3.590037763233453
 20
12.38480115151844
 30
0.0000000000000001
 70
     8
  0
VERTEX
  5
C101
  8
PROF
 10
3.5773799762033032
 20
12.35928315978594
 30
0.0000000000000001
 70
     8
  0
VERTEX
  5
C102
  8
PROF
 10
3.5650837882230908
 20
12.33213153618658
 30
0.0000000000000001
 70
     8
  0
VERTEX
  5
C103
  8
PROF
 10
3.5529613366819599
 20
12.303020864681571
 30
0.0000000000000001
 70
     8
  0
VERTEX
  5
C104
  8
PROF
 10
3.540824758969165
 20
12.271625729232371
 30
0.0000000000000001
 70
     8
  0
VERTEX
  5
C105
  8
PROF
 10
3.5284861924738489
 20
12.23762071379997
 30
0.0000000000000001
 70
     8
  0
VERTEX
  5
C106
  8
PROF
 10
3.5157577745852668
 20
12.200680402345711
 30
0.0000000000000001
 70
     8
  0
VERTEX
  5
C107
  8
PROF
 10
3.5024516426926189
 20
12.16047937883093
 30
0.0000000000000001
 70
     8
  0
VERTEX
  5
C108
  8
PROF
 10
3.4883799341851041
 20
12.116692227216619
 30
0.0000000000000001
 70
     8
  0
VERTEX
  5
C109
  8
PROF
 10
3.4733547864519201
 20
12.06899353146423
 30
0.0000000000000001
 70
     8
  0
VERTEX
  5
C10A
  8
PROF
 10
3.45723654619428
 20
12.0172095445447
 30
0.0000000000000001
 70
     8
  0
VERTEX
  5
C10B
  8
PROF
 10
3.4400783973613889
 20
11.961773195467799
 30
0.0000000000000001
 70
     8
  0
VERTEX
  5
C10C
  8
PROF
 10
3.421981733214579
 20
11.90326908225302
 30
0.0000000000000001
 70
     8
  0
VERTEX
  5
C10D
  8
PROF
 10
3.4030479470150108
 20
11.842281802919951
 30
0.0000000000000001
 70
     8
  0
VERTEX
  5
C10E
  8
PROF
 10
3.383378432024017
 20
11.779395955487979
 30
0.0000000000000001
 70
     8
  0
VERTEX
  5
C10F
  8
PROF
 10
3.3630745815028709
 20
11.715196137976809
 30
0.0000000000000001
 70
     8
  0
VERTEX
  5
C110
  8
PROF
 10
3.3422377887127359
 20
11.650266948405831
 30
0.0000000000000001
 70
     8
  0
VERTEX
  5
C111
  8
PROF
 10
3.320969446915
 20
11.58519298479461
 30
0.0000000000000001
 70
     8
  0
VERTEX
  5
C112
  8
PROF
 10
3.2993709493707679
 20
11.520558845162549
 30
0.0000000000000001
 70
     8
  0
VERTEX
  5
C113
  8
PROF
 10
3.277543689341428
 20
11.456949127529469
 30
0.0000000000000001
 70
     8
  0
VERTEX
  5
C114
  8
PROF
 10
3.2555890600881412
 20
11.3949484299145
 30
0.0000000000000001
 70
     8
  0
VERTEX
  5
C115
  8
PROF
 10
3.233608454872182
 20
11.335141350337491
 30
0.0000000000000001
 70
     8
  0
VERTEX
  5
C116
  8
PROF
 10
3.2116715641212181
 20
11.27799544797778
 30
0.0000000000000001
 70
     8
  0
VERTEX
  5
C117
  8
PROF
 10
3.189721266927847
 20
11.22351012665467
 30
0.0000000000000001
 70
     8
  0
VERTEX
  5
C118
  8
PROF
 10
3.1676687395512881
 20
11.17156775134765
 30
0.0000000000000001
 70
     8
  0
VERTEX
  5
C119
  8
PROF
 10
3.1454251582505321
 20
11.12205068703588
 30
0.0000000000000001
 70
     8
  0
VERTEX
  5
C11A
  8
PROF
 10
3.122901699284625
 20
11.07484129869874
 30
0.0000000000000001
 70
     8
  0
VERTEX
  5
C11B
  8
PROF
 10
3.1000095389127291
 20
11.02982195131551
 30
0.0000000000000001
 70
     8
  0
VERTEX
  5
C11C
  8
PROF
 10
3.0766598533938909
 20
10.986875009865679
 30
0.0000000000000001
 70
     8
  0
VERTEX
  5
C11D
  8
PROF
 10
3.0527638189871591
 20
10.9458828393283
 30
0.0000000000000001
 70
     8
  0
VERTEX
  5
C11E
  8
PROF
 10
3.0282326119516361
 20
10.90672780468298
 30
0.0000000000000001
 70
     8
  0
VERTEX
  5
C11F
  8
PROF
 10
3.002977408546371
 20
10.869292270908771
 30
0.0000000000000001
 70
     8
  0
VERTEX
  5
C120
  8
PROF
 10
2.9769093850304098
 20
10.833458602985161
 30
0.0000000000000001
 70
     8
  0
VERTEX
  5
C121
  8
PROF
 10
2.9499397176628568
 20
10.799109165891419
 30
0.0000000000000001
 70
     8
  0
VERTEX
  5
C122
  8
PROF
 10
2.9220006098404379
 20
10.76614363969508
 30
0.0000000000000001
 70
     8
  0
VERTEX
  5
C123
  8
PROF
 10
2.8931083735103011
 20
10.7345309648158
 30
0.0000000000000001
 70
     8
  0
VERTEX
  5
C124
  8
PROF
 10
2.8633003477572738
 20
10.70425739676193
 30
0.0000000000000001
 70
     8
  0
VERTEX
  5
C125
  8
PROF
 10
2.8326138716660689
 20
10.67530919104115
 30
0.0000000000000001
 70
     8
  0
VERTEX
  5
C126
  8
PROF
 10
2.8010862843216269
 20
10.647672603161711
 30
0.0000000000000001
 70
     8
  0
VERTEX
  5
C127
  8
PROF
 10
2.7687549248087171
 20
10.62133388863162
 30
0.0000000000000001
 70
     8
  0
VERTEX
  5
C128
  8
PROF
 10
2.735657132212054
 20
10.5962793029588
 30
0.0000000000000001
 70
     8
  0
VERTEX
  5
C129
  8
PROF
 10
2.7018302456165202
 20
10.572495101651381
 30
0.0000000000000001
 70
     8
  0
VERTEX
  5
C12A
  8
PROF
 10
2.6673116041068852
 20
10.54996754021726
 30
0.0000000000000001
 70
     8
  0
VERTEX
  5
C12B
  8
PROF
 10
2.6321385467680321
 20
10.528682874164581
 30
0.0000000000000001
 70
     8
  0
VERTEX
  5
C12C
  8
PROF
 10
2.5963484126846188
 20
10.508627359001251
 30
0.0000000000000001
 70
     8
  0
VERTEX
  5
C12D
  8
PROF
 10
2.5599785409415849
 20
10.489787250235279
 30
0.0000000000000001
 70
     8
  0
VERTEX
  5
C12E
  8
PROF
 10
2.522998630314361
 20
10.472162234281081
 30
0.0000000000000001
 70
     8
  0
VERTEX
  5
C12F
  8
PROF
 10
2.4851078183409072
 20
10.455805721177621
 30
0.0000000000000001
 70
     8
  0
VERTEX
  5
C130
  8
PROF
 10
2.4459376022498982
 20
10.44078455187036
 30
0.0000000000000001
 70
     8
  0
VERTEX
  5
C131
  8
PROF
 10
2.4051194792701258
 20
10.42716556730465
 30
0.0000000000000001
 70
     8
  0
VERTEX
  5
C132
  8
PROF
 10
2.3622849466301541
 20
10.415015608425851
 30
0.0000000000000001
 70
     8
  0
VERTEX
  5
C133
  8
PROF
 10
2.3170655015587149
 20
10.40440151617929
 30
0.0000000000000001
 70
     8
  0
VERTEX
  5
C134
  8
PROF
 10
2.2690926412844301
 20
10.395390131510339
 30
0.0000000000000001
 70
     8
  0
VERTEX
  5
C135
  8
PROF
 10
2.2179978630360888
 20
10.388048295364451
 30
0.0000000000000001
 70
     8
  0
VERTEX
  5
C136
  8
PROF
 10
2.1634126640422551
 20
10.38244284868688
 30
0.0000000000000001
 70
     8
  0
VERTEX
  5
C137
  8
PROF
 10
2.104968541531604
 20
10.37864063242295
 30
0.0000000000000001
 70
     8
  0
VERTEX
  5
C138
  8
PROF
 10
2.0422969927328718
 20
10.37670848751816
 30
0.0000000000000001
 70
     8
  0
VERTEX
  5
C139
  8
PROF
 10
1.9750295148747341
 20
10.37671325491794
 30
0.0000000000000001
 70
     8
  0
VERTEX
  5
C13A
  8
PROF
 10
4.2166060115107484
 20
12.80885334975255
 30
0.0000000000000001
 70
    16
  0
VERTEX
  5
C13B
  8
PROF
 10
3.8702254102732918
 20
12.707065515763929
 30
0.0000000000000001
 70
    16
  0
VERTEX
  5
C13C
  8
PROF
 10
3.605346156896871
 20
12.46277472098552
 30
0.0000000000000001
 70
    16
  0
VERTEX
  5
C13D
  8
PROF
 10
3.500746030527238
 20
12.170680575709749
 30
0.0000000000000001
 70
    16
  0
VERTEX
  5
C13E
  8
PROF
 10
3.231798439705698
 20
11.26846416496107
 30
0.0000000000000001
 70
    16
  0
VERTEX
  5
C13F
  8
PROF
 10
2.9737109398832891
 20
10.76631086647069
 30
0.0000000000000001
 70
    16
  0
VERTEX
  5
C140
  8
PROF
 10
2.5729961067384011
 20
10.460947364504699
 30
0.0000000000000001
 70
    16
  0
VERTEX
  5
C141
  8
PROF
 10
2.253782621454604
 20
10.372731239449759
 30
0.0000000000000001
 70
    16
  0
VERTEX
  5
C142
  8
PROF
 10
1.9750295148747341
 20
10.37671325491794
 30
0.0000000000000001
 70
    16
  0
SEQEND
  5
C143
  8
PROF
  0
LINE
  5
C144
  8
PROF
 10
4.9012016798694162
 20
12.88585218805485
 30
0.0000000000000003
 11
4.5198575031869259
 21
12.88585218805485
 31
0.0000000000000003
  0
LINE
  5
C145
  8
PROF
 10
0.7321315362267457
 20
8.2026312473991538
 30
0.0000000000000006
 11
0.7321315362267457
 21
8.0511853963434987
 31
0.0000000000000006
  0
ARC
  5
C146
  8
PROF
 10
0.7977322214551919
 20
7.5773339332026799
 30
0.0000000000000006
 40
0.4783708383912012
 50
97.882010168942529
 51
186.31119505698649
  0
LINE
  5
C147
  8
FRAME_050
 10
7.8016377197432121
 20
17.99371054969447
 30
0.0
 11
7.8016377197432121
 21
0.0000000000002274
 31
0.0
  0
ENDBLK
  5
C149
  8
0
  0
BLOCK
  8
0
  2
A$C3A7C6791
 70
     0
 10
0.0
 20
0.0
 30
0.0
  3
A$C3A7C6791
  1

  0
ARC
  5
1A561
  8
0
 10
1.0342682520551421
 20
11.169869575314801
 30
0.0
 40
0.3900479059662017
 50
183.5871702804647
 51
250.12003892297869
  0
ARC
  5
1A562
  8
0
 10
0.3331235273064408
 20
14.96835148878222
 30
0.0
 40
0.279776987736341
 50
290.26301102890392
 51
72.509116341854423
  0
ARC
  5
1A563
  8
0
 10
0.7948887850711232
 20
10.60700392177659
 30
0.0
 40
0.2232361910347119
 50
300.2914142988875
 51
61.434469032044603
  0
LINE
  5
1A564
  8
0
 10
-0.0000015027120526
 20
9.7351929270671462
 30
0.0
 11
1.0332573394856579
 21
9.7351929270671462
 31
0.0
  0
LINE
  5
1A565
  8
0
 10
1.0332573394856579
 20
10.377304601683591
 30
0.0
 11
0.9074887268004658
 21
10.377304601683591
 31
0.0
  0
LINE
  5
1A566
  8
0
 10
0.6449845421777241
 20
11.145465432783791
 30
0.0
 11
0.5554296092705046
 21
11.181249222917581
 31
0.0
  0
LINE
  5
1A567
  8
0
 10
0.5554296092705046
 20
14.67010534946894
 30
0.0
 11
0.430018718777319
 21
14.67010534946894
 31
0.0
  0
LINE
  5
1A568
  8
0
 10
0.4172116339615855
 20
15.235192927067139
 30
0.0
 11
-0.0000015027120526
 21
15.235192927067139
 31
0.0
  0
LINE
  5
1A569
  8
0
 10
-0.0000015027120526
 20
15.235192927067139
 30
0.0
 11
-0.0000015027120526
 21
9.7351929270671462
 31
0.0
  0
LINE
  5
1A56A
  8
0
 10
1.0332573394856579
 20
9.7351929270671462
 30
0.0
 11
1.0332573394856579
 21
10.377304601683591
 31
0.0
  0
LINE
  5
1A56B
  8
0
 10
0.9074887268004658
 20
10.377304601683591
 30
0.0
 11
0.9074887268003521
 21
10.414245912577821
 31
0.0
  0
LINE
  5
1A56C
  8
0
 10
0.5554296092705046
 20
11.181249222917581
 30
0.0
 11
0.5554296092705046
 21
14.67010534946894
 31
0.0
  0
LINE
  5
1A56D
  8
0
 10
0.430018718777319
 20
14.67010534946894
 30
0.0
 11
0.4300187187771485
 21
14.705889139602959
 31
0.0
  0
INSERT
  5
1A56E
  8
0
  2
*U73
 10
0.0
 20
0.0
 30
0.0
  0
LINE
  5
1A56F
  8
FRAME_050
 10
5.1382720395286006
 20
17.993710579095019
 30
0.0
 11
5.1382720395286006
 21
0.0000000294007805
 31
0.0
  0
ENDBLK
  5
1A571
  8
0
  0
BLOCK
  8
0
  2
A$C212248C0
 70
     0
 10
0.0
 20
0.0
 30
0.0
  3
A$C212248C0
  1

  0
LINE
  5
2846E
  8
0
 10
-0.0000002092490945
 20
10.41741894345523
 30
0.0
 11
-0.000000218823061
 21
12.91741894345523
 31
0.0
  0
LINE
  5
2846F
  8
0
 10
0.8061752779508424
 20
10.41741894654251
 30
0.0
 11
0.80617527442746
 21
11.337459194522349
 31
0.0
  0
LINE
  5
28470
  8
0
 10
-0.0000002092490945
 20
10.41741894345523
 30
0.0
 11
0.8061752779508424
 21
10.41741894654251
 31
0.0
  0
LINE
  5
28471
  8
0
 10
-0.000000218823061
 20
12.91741894345523
 30
0.0
 11
0.1835338022692099
 21
12.91741894415804
 31
0.0
  0
LINE
  5
28472
  8
0
 10
0.5432593756756888
 20
11.33745919351543
 30
0.0
 11
0.8061752744275167
 21
11.337459194522349
 31
0.0
  0
LINE
  5
28473
  8
0
 10
0.5432593756756888
 20
11.33745919351543
 30
0.0
 11
0.54325937522907
 21
11.454074799268589
 31
0.0
  0
ARC
  5
28474
  8
0
 10
0.5406585726453841
 20
11.69407225899795
 30
0.0
 40
0.2400115514942006
 50
270.62087814899439
 51
10.065567101317541
  0
ARC
  5
28475
  8
0
 10
0.3766221072655185
 20
12.57830290724473
 30
0.0
 40
0.1204493443528103
 50
92.075522465847911
 51
186.90606997904499
  0
ARC
  5
28476
  8
0
 10
0.3522648873053527
 20
11.66572609276443
 30
0.0
 40
0.4304889887359197
 50
9.3978639632316945
 51
32.979139282634932
  0
ARC
  5
28477
  8
0
 10
-3.1652042745943159
 20
9.0577862235478506
 30
0.0
 40
4.8085319198703189
 50
36.234313076985558
 51
42.402692063571678
  0
LINE
  5
28478
  8
0
 10
0.1835338022692099
 20
12.91741894415804
 30
0.0
 11
0.3722598200128004
 21
12.698673231681139
 31
0.0
  0
ARC
  5
28479
  8
0
 10
0.9319226152692294
 20
12.72987725098619
 30
0.0
 40
0.6950054723870779
 50
193.8233761419454
 51
218.1708864341492
  0
LINE
  5
2847A
  8
0
 10
-0.0000002092490945
 20
10.41741894345523
 30
0.0
 11
-0.0000002092490945
 21
12.91741894345523
 31
0.0
  0
INSERT
  5
2847B
  8
0
  2
*U74
 10
0.0
 20
0.0
 30
0.0
  0
LINE
  5
2847C
  8
FRAME_050
 10
6.2588202718825414
 20
17.993710579095019
 30
0.0
 11
6.2588202718825414
 21
0.0000000294007805
 31
0.0
  0
ENDBLK
  5
2847E
  8
0
  0
BLOCK
  8
0
  2
A$C52DE5D80
 70
     0
 10
0.0
 20
0.0
 30
0.0
  3
A$C52DE5D80
  1

  0
INSERT
  5
2B89A
  8
0
  2
*U75
 10
0.0
 20
0.0
 30
0.0
  0
LINE
  5
2B89B
  8
0
 10
0.0000014767382481
 20
7.878552666495465
 30
0.0
 11
1.5240062297528421
 21
7.8785526664953522
 31
0.0
  0
LINE
  5
2B89C
  8
0
 10
1.5240062297528421
 20
8.3261365866769665
 30
0.0
 11
1.5240062297528421
 21
7.8785526664953522
 31
0.0
  0
LINE
  5
2B89D
  8
0
 10
1.394539806559862
 20
8.3261365866769665
 30
0.0
 11
1.5240062297528421
 21
8.3261365866769665
 31
0.0
  0
LINE
  5
2B89E
  8
0
 10
0.7472076905950758
 20
9.2582948336663549
 30
0.0
 11
0.8951693171012493
 21
9.2582948336665822
 31
0.0
  0
POLYLINE
  8
0
  5
36BD8
  62
7
  66
     1
 10
0.000000
 20
0.000000
 30
0.000000
  70
     8
  0
VERTEX
  8
0
  5
36BD9
 10
1.39454
 20
8.32614
 30
0.000000
  70
    32
  0
VERTEX
  8
0
  5
36BDA
 10
1.39468
 20
8.33131
 30
0.000000
  70
    32
  0
VERTEX
  8
0
  5
36BDB
 10
1.39482
 20
8.33649
 30
0.000000
  70
    32
  0
VERTEX
  8
0
  5
36BDC
 10
1.39495
 20
8.34167
 30
0.000000
  70
    32
  0
VERTEX
  8
0
  5
36BDD
 10
1.39508
 20
8.34684
 30
0.000000
  70
    32
  0
VERTEX
  8
0
  5
36BDE
 10
1.39521
 20
8.35201
 30
0.000000
  70
    32
  0
VERTEX
  8
0
  5
36BDF
 10
1.39532
 20
8.35718
 30
0.000000
  70
    32
  0
VERTEX
  8
0
  5
36BE0
 10
1.39542
 20
8.36234
 30
0.000000
  70
    32
  0
VERTEX
  8
0
  5
36BE1
 10
1.39552
 20
8.36749
 30
0.000000
  70
    32
  0
VERTEX
  8
0
  5
36BE2
 10
1.39559
 20
8.37264
 30
0.000000
  70
    32
  0
VERTEX
  8
0
  5
36BE3
 10
1.39566
 20
8.37779
 30
0.000000
  70
    32
  0
VERTEX
  8
0
  5
36BE4
 10
1.39570
 20
8.38292
 30
0.000000
  70
    32
  0
VERTEX
  8
0
  5
36BE5
 10
1.39573
 20
8.38805
 30
0.000000
  70
    32
  0
VERTEX
  8
0
  5
36BE6
 10
1.39574
 20
8.39316
 30
0.000000
  70
    32
  0
VERTEX
  8
0
  5
36BE7
 10
1.39572
 20
8.39827
 30
0.000000
  70
    32
  0
VERTEX
  8
0
  5
36BE8
 10
1.39569
 20
8.40337
 30
0.000000
  70
    32
  0
VERTEX
  8
0
  5
36BE9
 10
1.39562
 20
8.40845
 30
0.000000
  70
    32
  0
VERTEX
  8
0
  5
36BEA
 10
1.39553
 20
8.41352
 30
0.000000
  70
    32
  0
VERTEX
  8
0
  5
36BEB
 10
1.39541
 20
8.41858
 30
0.000000
  70
    32
  0
VERTEX
  8
0
  5
36BEC
 10
1.39526
 20
8.42363
 30
0.000000
  70
    32
  0
VERTEX
  8
0
  5
36BED
 10
1.39507
 20
8.42866
 30
0.000000
  70
    32
  0
VERTEX
  8
0
  5
36BEE
 10
1.39486
 20
8.43367
 30
0.000000
  70
    32
  0
VERTEX
  8
0
  5
36BEF
 10
1.39460
 20
8.43867
 30
0.000000
  70
    32
  0
VERTEX
  8
0
  5
36BF0
 10
1.39431
 20
8.44365
 30
0.000000
  70
    32
  0
VERTEX
  8
0
  5
36BF1
 10
1.39398
 20
8.44862
 30
0.000000
  70
    32
  0
VERTEX
  8
0
  5
36BF2
 10
1.39361
 20
8.45356
 30
0.000000
  70
    32
  0
VERTEX
  8
0
  5
36BF3
 10
1.39320
 20
8.45849
 30
0.000000
  70
    32
  0
VERTEX
  8
0
  5
36BF4
 10
1.39274
 20
8.46339
 30
0.000000
  70
    32
  0
VERTEX
  8
0
  5
36BF5
 10
1.39224
 20
8.46828
 30
0.000000
  70
    32
  0
VERTEX
  8
0
  5
36BF6
 10
1.39168
 20
8.47314
 30
0.000000
  70
    32
  0
VERTEX
  8
0
  5
36BF7
 10
1.39108
 20
8.47798
 30
0.000000
  70
    32
  0
VERTEX
  8
0
  5
36BF8
 10
1.39043
 20
8.48280
 30
0.000000
  70
    32
  0
VERTEX
  8
0
  5
36BF9
 10
1.38973
 20
8.48759
 30
0.000000
  70
    32
  0
VERTEX
  8
0
  5
36BFA
 10
1.38897
 20
8.49236
 30
0.000000
  70
    32
  0
VERTEX
  8
0
  5
36BFB
 10
1.38815
 20
8.49711
 30
0.000000
  70
    32
  0
VERTEX
  8
0
  5
36BFC
 10
1.38728
 20
8.50182
 30
0.000000
  70
    32
  0
VERTEX
  8
0
  5
36BFD
 10
1.38635
 20
8.50651
 30
0.000000
  70
    32
  0
VERTEX
  8
0
  5
36BFE
 10
1.38535
 20
8.51117
 30
0.000000
  70
    32
  0
VERTEX
  8
0
  5
36BFF
 10
1.38429
 20
8.51581
 30
0.000000
  70
    32
  0
VERTEX
  8
0
  5
36C00
 10
1.38317
 20
8.52041
 30
0.000000
  70
    32
  0
VERTEX
  8
0
  5
36C01
 10
1.38198
 20
8.52498
 30
0.000000
  70
    32
  0
VERTEX
  8
0
  5
36C02
 10
1.38073
 20
8.52953
 30
0.000000
  70
    32
  0
VERTEX
  8
0
  5
36C03
 10
1.37940
 20
8.53404
 30
0.000000
  70
    32
  0
VERTEX
  8
0
  5
36C04
 10
1.37800
 20
8.53851
 30
0.000000
  70
    32
  0
VERTEX
  8
0
  5
36C05
 10
1.37653
 20
8.54296
 30
0.000000
  70
    32
  0
VERTEX
  8
0
  5
36C06
 10
1.37499
 20
8.54737
 30
0.000000
  70
    32
  0
VERTEX
  8
0
  5
36C07
 10
1.37337
 20
8.55175
 30
0.000000
  70
    32
  0
VERTEX
  8
0
  5
36C08
 10
1.37167
 20
8.55609
 30
0.000000
  70
    32
  0
VERTEX
  8
0
  5
36C09
 10
1.36991
 20
8.56040
 30
0.000000
  70
    32
  0
VERTEX
  8
0
  5
36C0A
 10
1.36807
 20
8.56468
 30
0.000000
  70
    32
  0
VERTEX
  8
0
  5
36C0B
 10
1.36616
 20
8.56893
 30
0.000000
  70
    32
  0
VERTEX
  8
0
  5
36C0C
 10
1.36418
 20
8.57314
 30
0.000000
  70
    32
  0
VERTEX
  8
0
  5
36C0D
 10
1.36214
 20
8.57733
 30
0.000000
  70
    32
  0
VERTEX
  8
0
  5
36C0E
 10
1.36003
 20
8.58148
 30
0.000000
  70
    32
  0
VERTEX
  8
0
  5
36C0F
 10
1.35785
 20
8.58560
 30
0.000000
  70
    32
  0
VERTEX
  8
0
  5
36C10
 10
1.35561
 20
8.58970
 30
0.000000
  70
    32
  0
VERTEX
  8
0
  5
36C11
 10
1.35330
 20
8.59377
 30
0.000000
  70
    32
  0
VERTEX
  8
0
  5
36C12
 10
1.35093
 20
8.59781
 30
0.000000
  70
    32
  0
VERTEX
  8
0
  5
36C13
 10
1.34851
 20
8.60182
 30
0.000000
  70
    32
  0
VERTEX
  8
0
  5
36C14
 10
1.34602
 20
8.60581
 30
0.000000
  70
    32
  0
VERTEX
  8
0
  5
36C15
 10
1.34347
 20
8.60976
 30
0.000000
  70
    32
  0
VERTEX
  8
0
  5
36C16
 10
1.34086
 20
8.61370
 30
0.000000
  70
    32
  0
VERTEX
  8
0
  5
36C17
 10
1.33820
 20
8.61761
 30
0.000000
  70
    32
  0
VERTEX
  8
0
  5
36C18
 10
1.33549
 20
8.62149
 30
0.000000
  70
    32
  0
VERTEX
  8
0
  5
36C19
 10
1.33271
 20
8.62535
 30
0.000000
  70
    32
  0
VERTEX
  8
0
  5
36C1A
 10
1.32989
 20
8.62919
 30
0.000000
  70
    32
  0
VERTEX
  8
0
  5
36C1B
 10
1.32701
 20
8.63300
 30
0.000000
  70
    32
  0
VERTEX
  8
0
  5
36C1C
 10
1.32408
 20
8.63679
 30
0.000000
  70
    32
  0
VERTEX
  8
0
  5
36C1D
 10
1.32111
 20
8.64056
 30
0.000000
  70
    32
  0
VERTEX
  8
0
  5
36C1E
 10
1.31808
 20
8.64431
 30
0.000000
  70
    32
  0
VERTEX
  8
0
  5
36C1F
 10
1.31501
 20
8.64803
 30
0.000000
  70
    32
  0
VERTEX
  8
0
  5
36C20
 10
1.31189
 20
8.65174
 30
0.000000
  70
    32
  0
VERTEX
  8
0
  5
36C21
 10
1.30872
 20
8.65543
 30
0.000000
  70
    32
  0
VERTEX
  8
0
  5
36C22
 10
1.30551
 20
8.65910
 30
0.000000
  70
    32
  0
VERTEX
  8
0
  5
36C23
 10
1.30226
 20
8.66275
 30
0.000000
  70
    32
  0
VERTEX
  8
0
  5
36C24
 10
1.29896
 20
8.66638
 30
0.000000
  70
    32
  0
VERTEX
  8
0
  5
36C25
 10
1.29563
 20
8.66999
 30
0.000000
  70
    32
  0
VERTEX
  8
0
  5
36C26
 10
1.29225
 20
8.67359
 30
0.000000
  70
    32
  0
VERTEX
  8
0
  5
36C27
 10
1.28884
 20
8.67717
 30
0.000000
  70
    32
  0
VERTEX
  8
0
  5
36C28
 10
1.28539
 20
8.68074
 30
0.000000
  70
    32
  0
VERTEX
  8
0
  5
36C29
 10
1.28190
 20
8.68429
 30
0.000000
  70
    32
  0
VERTEX
  8
0
  5
36C2A
 10
1.27838
 20
8.68782
 30
0.000000
  70
    32
  0
VERTEX
  8
0
  5
36C2B
 10
1.27482
 20
8.69134
 30
0.000000
  70
    32
  0
VERTEX
  8
0
  5
36C2C
 10
1.27123
 20
8.69485
 30
0.000000
  70
    32
  0
VERTEX
  8
0
  5
36C2D
 10
1.26761
 20
8.69835
 30
0.000000
  70
    32
  0
VERTEX
  8
0
  5
36C2E
 10
1.26396
 20
8.70183
 30
0.000000
  70
    32
  0
VERTEX
  8
0
  5
36C2F
 10
1.26028
 20
8.70530
 30
0.000000
  70
    32
  0
VERTEX
  8
0
  5
36C30
 10
1.25657
 20
8.70876
 30
0.000000
  70
    32
  0
VERTEX
  8
0
  5
36C31
 10
1.25283
 20
8.71220
 30
0.000000
  70
    32
  0
VERTEX
  8
0
  5
36C32
 10
1.24907
 20
8.71564
 30
0.000000
  70
    32
  0
VERTEX
  8
0
  5
36C33
 10
1.24528
 20
8.71907
 30
0.000000
  70
    32
  0
VERTEX
  8
0
  5
36C34
 10
1.24147
 20
8.72249
 30
0.000000
  70
    32
  0
VERTEX
  8
0
  5
36C35
 10
1.23764
 20
8.72590
 30
0.000000
  70
    32
  0
VERTEX
  8
0
  5
36C36
 10
1.23379
 20
8.72930
 30
0.000000
  70
    32
  0
VERTEX
  8
0
  5
36C37
 10
1.22991
 20
8.73270
 30
0.000000
  70
    32
  0
VERTEX
  8
0
  5
36C38
 10
1.22601
 20
8.73609
 30
0.000000
  70
    32
  0
VERTEX
  8
0
  5
36C39
 10
1.22210
 20
8.73947
 30
0.000000
  70
    32
  0
VERTEX
  8
0
  5
36C3A
 10
1.21817
 20
8.74284
 30
0.000000
  70
    32
  0
VERTEX
  8
0
  5
36C3B
 10
1.21423
 20
8.74621
 30
0.000000
  70
    32
  0
VERTEX
  8
0
  5
36C3C
 10
1.21027
 20
8.74958
 30
0.000000
  70
    32
  0
VERTEX
  8
0
  5
36C3D
 10
1.20629
 20
8.75294
 30
0.000000
  70
    32
  0
VERTEX
  8
0
  5
36C3E
 10
1.20230
 20
8.75630
 30
0.000000
  70
    32
  0
VERTEX
  8
0
  5
36C3F
 10
1.19831
 20
8.75965
 30
0.000000
  70
    32
  0
VERTEX
  8
0
  5
36C40
 10
1.19430
 20
8.76300
 30
0.000000
  70
    32
  0
VERTEX
  8
0
  5
36C41
 10
1.19028
 20
8.76636
 30
0.000000
  70
    32
  0
VERTEX
  8
0
  5
36C42
 10
1.18626
 20
8.76970
 30
0.000000
  70
    32
  0
VERTEX
  8
0
  5
36C43
 10
1.18222
 20
8.77305
 30
0.000000
  70
    32
  0
VERTEX
  8
0
  5
36C44
 10
1.17819
 20
8.77640
 30
0.000000
  70
    32
  0
VERTEX
  8
0
  5
36C45
 10
1.17414
 20
8.77975
 30
0.000000
  70
    32
  0
VERTEX
  8
0
  5
36C46
 10
1.17010
 20
8.78310
 30
0.000000
  70
    32
  0
VERTEX
  8
0
  5
36C47
 10
1.16605
 20
8.78645
 30
0.000000
  70
    32
  0
VERTEX
  8
0
  5
36C48
 10
1.16200
 20
8.78980
 30
0.000000
  70
    32
  0
VERTEX
  8
0
  5
36C49
 10
1.15795
 20
8.79315
 30
0.000000
  70
    32
  0
VERTEX
  8
0
  5
36C4A
 10
1.15390
 20
8.79651
 30
0.000000
  70
    32
  0
VERTEX
  8
0
  5
36C4B
 10
1.14986
 20
8.79987
 30
0.000000
  70
    32
  0
VERTEX
  8
0
  5
36C4C
 10
1.14582
 20
8.80323
 30
0.000000
  70
    32
  0
VERTEX
  8
0
  5
36C4D
 10
1.14178
 20
8.80660
 30
0.000000
  70
    32
  0
VERTEX
  8
0
  5
36C4E
 10
1.13775
 20
8.80998
 30
0.000000
  70
    32
  0
VERTEX
  8
0
  5
36C4F
 10
1.13372
 20
8.81336
 30
0.000000
  70
    32
  0
VERTEX
  8
0
  5
36C50
 10
1.12970
 20
8.81674
 30
0.000000
  70
    32
  0
VERTEX
  8
0
  5
36C51
 10
1.12569
 20
8.82014
 30
0.000000
  70
    32
  0
VERTEX
  8
0
  5
36C52
 10
1.12170
 20
8.82354
 30
0.000000
  70
    32
  0
VERTEX
  8
0
  5
36C53
 10
1.11771
 20
8.82695
 30
0.000000
  70
    32
  0
VERTEX
  8
0
  5
36C54
 10
1.11373
 20
8.83036
 30
0.000000
  70
    32
  0
VERTEX
  8
0
  5
36C55
 10
1.10977
 20
8.83379
 30
0.000000
  70
    32
  0
VERTEX
  8
0
  5
36C56
 10
1.10583
 20
8.83723
 30
0.000000
  70
    32
  0
VERTEX
  8
0
  5
36C57
 10
1.10190
 20
8.84067
 30
0.000000
  70
    32
  0
VERTEX
  8
0
  5
36C58
 10
1.09798
 20
8.84413
 30
0.000000
  70
    32
  0
VERTEX
  8
0
  5
36C59
 10
1.09409
 20
8.84760
 30
0.000000
  70
    32
  0
VERTEX
  8
0
  5
36C5A
 10
1.09021
 20
8.85107
 30
0.000000
  70
    32
  0
VERTEX
  8
0
  5
36C5B
 10
1.08635
 20
8.85457
 30
0.000000
  70
    32
  0
VERTEX
  8
0
  5
36C5C
 10
1.08251
 20
8.85807
 30
0.000000
  70
    32
  0
VERTEX
  8
0
  5
36C5D
 10
1.07870
 20
8.86158
 30
0.000000
  70
    32
  0
VERTEX
  8
0
  5
36C5E
 10
1.07490
 20
8.86511
 30
0.000000
  70
    32
  0
VERTEX
  8
0
  5
36C5F
 10
1.07113
 20
8.86865
 30
0.000000
  70
    32
  0
VERTEX
  8
0
  5
36C60
 10
1.06738
 20
8.87220
 30
0.000000
  70
    32
  0
VERTEX
  8
0
  5
36C61
 10
1.06365
 20
8.87576
 30
0.000000
  70
    32
  0
VERTEX
  8
0
  5
36C62
 10
1.05995
 20
8.87934
 30
0.000000
  70
    32
  0
VERTEX
  8
0
  5
36C63
 10
1.05628
 20
8.88294
 30
0.000000
  70
    32
  0
VERTEX
  8
0
  5
36C64
 10
1.05263
 20
8.88654
 30
0.000000
  70
    32
  0
VERTEX
  8
0
  5
36C65
 10
1.04900
 20
8.89016
 30
0.000000
  70
    32
  0
VERTEX
  8
0
  5
36C66
 10
1.04541
 20
8.89380
 30
0.000000
  70
    32
  0
VERTEX
  8
0
  5
36C67
 10
1.04185
 20
8.89745
 30
0.000000
  70
    32
  0
VERTEX
  8
0
  5
36C68
 10
1.03831
 20
8.90112
 30
0.000000
  70
    32
  0
VERTEX
  8
0
  5
36C69
 10
1.03481
 20
8.90480
 30
0.000000
  70
    32
  0
VERTEX
  8
0
  5
36C6A
 10
1.03133
 20
8.90850
 30
0.000000
  70
    32
  0
VERTEX
  8
0
  5
36C6B
 10
1.02789
 20
8.91221
 30
0.000000
  70
    32
  0
VERTEX
  8
0
  5
36C6C
 10
1.02448
 20
8.91594
 30
0.000000
  70
    32
  0
VERTEX
  8
0
  5
36C6D
 10
1.02111
 20
8.91969
 30
0.000000
  70
    32
  0
VERTEX
  8
0
  5
36C6E
 10
1.01777
 20
8.92345
 30
0.000000
  70
    32
  0
VERTEX
  8
0
  5
36C6F
 10
1.01446
 20
8.92723
 30
0.000000
  70
    32
  0
VERTEX
  8
0
  5
36C70
 10
1.01119
 20
8.93103
 30
0.000000
  70
    32
  0
VERTEX
  8
0
  5
36C71
 10
1.00796
 20
8.93484
 30
0.000000
  70
    32
  0
VERTEX
  8
0
  5
36C72
 10
1.00476
 20
8.93868
 30
0.000000
  70
    32
  0
VERTEX
  8
0
  5
36C73
 10
1.00160
 20
8.94253
 30
0.000000
  70
    32
  0
VERTEX
  8
0
  5
36C74
 10
0.998485
 20
8.94640
 30
0.000000
  70
    32
  0
VERTEX
  8
0
  5
36C75
 10
0.995407
 20
8.95029
 30
0.000000
  70
    32
  0
VERTEX
  8
0
  5
36C76
 10
0.992369
 20
8.95420
 30
0.000000
  70
    32
  0
VERTEX
  8
0
  5
36C77
 10
0.989373
 20
8.95813
 30
0.000000
  70
    32
  0
VERTEX
  8
0
  5
36C78
 10
0.986419
 20
8.96208
 30
0.000000
  70
    32
  0
VERTEX
  8
0
  5
36C79
 10
0.983508
 20
8.96605
 30
0.000000
  70
    32
  0
VERTEX
  8
0
  5
36C7A
 10
0.980642
 20
8.97004
 30
0.000000
  70
    32
  0
VERTEX
  8
0
  5
36C7B
 10
0.977819
 20
8.97405
 30
0.000000
  70
    32
  0
VERTEX
  8
0
  5
36C7C
 10
0.975042
 20
8.97808
 30
0.000000
  70
    32
  0
VERTEX
  8
0
  5
36C7D
 10
0.972312
 20
8.98213
 30
0.000000
  70
    32
  0
VERTEX
  8
0
  5
36C7E
 10
0.969628
 20
8.98621
 30
0.000000
  70
    32
  0
VERTEX
  8
0
  5
36C7F
 10
0.966993
 20
8.99030
 30
0.000000
  70
    32
  0
VERTEX
  8
0
  5
36C80
 10
0.964406
 20
8.99442
 30
0.000000
  70
    32
  0
VERTEX
  8
0
  5
36C81
 10
0.961868
 20
8.99856
 30
0.000000
  70
    32
  0
VERTEX
  8
0
  5
36C82
 10
0.959381
 20
9.00272
 30
0.000000
  70
    32
  0
VERTEX
  8
0
  5
36C83
 10
0.956944
 20
9.00691
 30
0.000000
  70
    32
  0
VERTEX
  8
0
  5
36C84
 10
0.954559
 20
9.01112
 30
0.000000
  70
    32
  0
VERTEX
  8
0
  5
36C85
 10
0.952227
 20
9.01535
 30
0.000000
  70
    32
  0
VERTEX
  8
0
  5
36C86
 10
0.949949
 20
9.01960
 30
0.000000
  70
    32
  0
VERTEX
  8
0
  5
36C87
 10
0.947724
 20
9.02388
 30
0.000000
  70
    32
  0
VERTEX
  8
0
  5
36C88
 10
0.945555
 20
9.02819
 30
0.000000
  70
    32
  0
VERTEX
  8
0
  5
36C89
 10
0.943441
 20
9.03252
 30
0.000000
  70
    32
  0
VERTEX
  8
0
  5
36C8A
 10
0.941383
 20
9.03687
 30
0.000000
  70
    32
  0
VERTEX
  8
0
  5
36C8B
 10
0.939384
 20
9.04125
 30
0.000000
  70
    32
  0
VERTEX
  8
0
  5
36C8C
 10
0.937442
 20
9.04566
 30
0.000000
  70
    32
  0
VERTEX
  8
0
  5
36C8D
 10
0.935559
 20
9.05009
 30
0.000000
  70
    32
  0
VERTEX
  8
0
  5
36C8E
 10
0.933736
 20
9.05455
 30
0.000000
  70
    32
  0
VERTEX
  8
0
  5
36C8F
 10
0.931973
 20
9.05903
 30
0.000000
  70
    32
  0
VERTEX
  8
0
  5
36C90
 10
0.930271
 20
9.06354
 30
0.000000
  70
    32
  0
VERTEX
  8
0
  5
36C91
 10
0.928629
 20
9.06808
 30
0.000000
  70
    32
  0
VERTEX
  8
0
  5
36C92
 10
0.927045
 20
9.07264
 30
0.000000
  70
    32
  0
VERTEX
  8
0
  5
36C93
 10
0.925517
 20
9.07722
 30
0.000000
  70
    32
  0
VERTEX
  8
0
  5
36C94
 10
0.924045
 20
9.08183
 30
0.000000
  70
    32
  0
VERTEX
  8
0
  5
36C95
 10
0.922626
 20
9.08647
 30
0.000000
  70
    32
  0
VERTEX
  8
0
  5
36C96
 10
0.921259
 20
9.09112
 30
0.000000
  70
    32
  0
VERTEX
  8
0
  5
36C97
 10
0.919943
 20
9.09580
 30
0.000000
  70
    32
  0
VERTEX
  8
0
  5
36C98
 10
0.918676
 20
9.10050
 30
0.000000
  70
    32
  0
VERTEX
  8
0
  5
36C99
 10
0.917457
 20
9.10522
 30
0.000000
  70
    32
  0
VERTEX
  8
0
  5
36C9A
 10
0.916283
 20
9.10996
 30
0.000000
  70
    32
  0
VERTEX
  8
0
  5
36C9B
 10
0.915155
 20
9.11472
 30
0.000000
  70
    32
  0
VERTEX
  8
0
  5
36C9C
 10
0.914070
 20
9.11950
 30
0.000000
  70
    32
  0
VERTEX
  8
0
  5
36C9D
 10
0.913026
 20
9.12429
 30
0.000000
  70
    32
  0
VERTEX
  8
0
  5
36C9E
 10
0.912023
 20
9.12911
 30
0.000000
  70
    32
  0
VERTEX
  8
0
  5
36C9F
 10
0.911058
 20
9.13394
 30
0.000000
  70
    32
  0
VERTEX
  8
0
  5
36CA0
 10
0.910131
 20
9.13879
 30
0.000000
  70
    32
  0
VERTEX
  8
0
  5
36CA1
 10
0.909239
 20
9.14365
 30
0.000000
  70
    32
  0
VERTEX
  8
0
  5
36CA2
 10
0.908381
 20
9.14853
 30
0.000000
  70
    32
  0
VERTEX
  8
0
  5
36CA3
 10
0.907557
 20
9.15342
 30
0.000000
  70
    32
  0
VERTEX
  8
0
  5
36CA4
 10
0.906763
 20
9.15832
 30
0.000000
  70
    32
  0
VERTEX
  8
0
  5
36CA5
 10
0.906000
 20
9.16324
 30
0.000000
  70
    32
  0
VERTEX
  8
0
  5
36CA6
 10
0.905264
 20
9.16817
 30
0.000000
  70
    32
  0
VERTEX
  8
0
  5
36CA7
 10
0.904556
 20
9.17312
 30
0.000000
  70
    32
  0
VERTEX
  8
0
  5
36CA8
 10
0.903873
 20
9.17807
 30
0.000000
  70
    32
  0
VERTEX
  8
0
  5
36CA9
 10
0.903213
 20
9.18303
 30
0.000000
  70
    32
  0
VERTEX
  8
0
  5
36CAA
 10
0.902576
 20
9.18801
 30
0.000000
  70
    32
  0
VERTEX
  8
0
  5
36CAB
 10
0.901960
 20
9.19299
 30
0.000000
  70
    32
  0
VERTEX
  8
0
  5
36CAC
 10
0.901363
 20
9.19798
 30
0.000000
  70
    32
  0
VERTEX
  8
0
  5
36CAD
 10
0.900784
 20
9.20298
 30
0.000000
  70
    32
  0
VERTEX
  8
0
  5
36CAE
 10
0.900222
 20
9.20799
 30
0.000000
  70
    32
  0
VERTEX
  8
0
  5
36CAF
 10
0.899674
 20
9.21300
 30
0.000000
  70
    32
  0
VERTEX
  8
0
  5
36CB0
 10
0.899140
 20
9.21802
 30
0.000000
  70
    32
  0
VERTEX
  8
0
  5
36CB1
 10
0.898617
 20
9.22304
 30
0.000000
  70
    32
  0
VERTEX
  8
0
  5
36CB2
 10
0.898105
 20
9.22807
 30
0.000000
  70
    32
  0
VERTEX
  8
0
  5
36CB3
 10
0.897602
 20
9.23310
 30
0.000000
  70
    32
  0
VERTEX
  8
0
  5
36CB4
 10
0.897107
 20
9.23813
 30
0.000000
  70
    32
  0
VERTEX
  8
0
  5
36CB5
 10
0.896617
 20
9.24317
 30
0.000000
  70
    32
  0
VERTEX
  8
0
  5
36CB6
 10
0.896132
 20
9.24821
 30
0.000000
  70
    32
  0
VERTEX
  8
0
  5
36CB7
 10
0.895650
 20
9.25325
 30
0.000000
  70
    32
  0
VERTEX
  8
0
  5
36CB8
 10
0.895169
 20
9.25829
 30
0.000000
  70
    32
  0
SEQEND
  8
0
  5
36CB9
  0
LINE
  5
2B8A0
  8
0
  6
CONTINUOUS
 62
     7
 10
0.7472076905950758
 20
9.2582948336663549
 30
0.0
 11
0.7472076905949621
 21
11.826520277942111
 31
0.0
  0
LINE
  5
2B8A1
  8
0
  6
CONTINUOUS
 62
     7
 10
0.4997076905949598
 20
12.389020277942111
 30
0.0
 11
0.000001476738305
 21
12.389020277942111
 31
0.0
  0
ARC
  5
2B8A2
  8
0
 10
0.4997076905949598
 20
12.139020277942111
 30
0.0
 40
0.2500000000000009
 50
269.42703265506509
 51
90.0
  0
LINE
  5
2B8A3
  8
0
  6
CONTINUOUS
 62
     7
 10
0.7472076905949621
 20
11.826520277942111
 30
0.0
 11
0.5597076905949621
 21
11.826520277942111
 31
0.0
  0
LINE
  5
2B8A4
  8
0
  6
CONTINUOUS
 62
     7
 10
0.4972076905949621
 20
11.826520277942111
 30
0.0
 11
0.4972076905949621
 21
11.88903277828603
 31
0.0
  0
LINE
  5
2B8A5
  8
0
 10
0.0000014767382481
 20
7.878552666495465
 30
0.0
 11
0.000001476738305
 21
12.389020277942111
 31
0.0
  0
LINE
  5
2B8A6
  8
0
 10
0.7472076905949621
 20
11.826520277942111
 30
0.0
 11
0.4972076905949621
 21
11.826520277942111
 31
0.0
  0
LINE
  5
2B8A7
  8
FRAME_050
 10
6.5744546621590407
 20
17.993710579095019
 30
0.0
 11
6.5744546621590407
 21
0.0000000294007805
 31
0.0
  0
ENDBLK
  5
2B8A9
  8
0
  0
BLOCK
  8
0
  2
A$C06786640
 70
     0
 10
0.0
 20
0.0
 30
0.0
  3
A$C06786640
  1

  0
LINE
  5
30DBD
  8
0
  6
CONTINUOUS
 10
6.9421460747584538
 20
5.3373952998996401
 30
0.0
 11
7.6921460747585684
 21
5.3373952998996401
 31
0.0
  0
INSERT
  5
30DBE
  8
0
  2
*U104
 10
0.0
 20
0.0
 30
0.0
  0
ARC
  5
30DBF
  8
0
 10
7.6921460747584538
 20
1.3373952998996399
 30
0.0
 40
0.4375
 50
90.0
 51
180.0
  0
LINE
  5
30DC0
  8
0
  6
CONTINUOUS
 10
6.9421460747584538
 20
1.3373952998996399
 30
0.0
 11
7.2546460747584538
 21
1.3373952998996399
 31
0.0
  0
LINE
  5
30DC1
  8
0
  6
CONTINUOUS
 10
6.9421460747584538
 20
5.3373952998996401
 30
0.0
 11
6.9421460747584538
 21
1.3373952998996399
 31
0.0
  0
LINE
  5
30DC2
  8
0
  6
CONTINUOUS
 10
7.6921460747585684
 20
5.3373952998996401
 30
0.0
 11
7.6921460747584538
 21
1.7748952998996399
 31
0.0
  0
LINE
  5
30DC3
  8
FRAME_050
 10
13.38021391661823
 20
10.43596704186257
 30
0.0
 11
13.38021391661823
 21
-7.557743507831673
 31
0.0
  0
ENDBLK
  5
30DC5
  8
0
  0
BLOCK
  8
0
  2
A$C006841A6
 70
     0
 10
0.0
 20
0.0
 30
0.0
  3
A$C006841A6
  1

  0
INSERT
  5
34022
  8
0
  2
*U165
 10
0.0
 20
0.0
 30
0.0
  0
LINE
  5
34023
  8
0
 10
-0.0000012266760336
 20
0.7057871426268321
 30
0.0
 11
2.5393763673180838
 21
3.3106501187010049
 31
0.0
  0
LINE
  5
34024
  8
0
 10
3.4634478700036189
 20
3.012327822558404
 30
0.0
 11
3.478000177132571
 21
3.3106501187010049
 31
0.0
  0
LINE
  5
34025
  8
0
 10
1.701702382336975
 20
1.129493727227213
 30
0.0
 11
1.7292664227074961
 21
1.297540905015353
 31
0.0
  0
LINE
  5
34026
  8
0
 10
0.6694049012536425
 20
0.3638079250974897
 30
0.0
 11
0.6894674062073705
 21
0.4758716487958737
 31
0.0
  0
LINE
  5
34027
  8
0
 10
-0.0000012266760336
 20
0.7057871426268321
 30
0.0
 11
-0.0000012266760336
 21
0.0000002468748335
 31
0.0
  0
LINE
  5
34028
  8
0
 10
3.478000177132571
 20
3.3106501187010049
 30
0.0
 11
2.5393763673180838
 21
3.3106501187010049
 31
0.0
  0
LINE
  5
34029
  8
0
 10
3.354305566536822
 20
3.0123278225585182
 30
0.0
 11
3.4634478700036189
 21
3.012327822558404
 31
0.0
  0
LINE
  5
3402A
  8
0
 10
2.7940417420739432
 20
2.5321016873045892
 30
0.0
 11
2.859527124153999
 21
2.6121393765134822
 31
0.0
  0
LINE
  5
3402B
  8
0
 10
1.7292664227074961
 20
1.297540905015353
 30
0.0
 11
1.7845876698514751
 21
1.297540905015353
 31
0.0
  0
LINE
  5
3402C
  8
0
 10
1.5789240968102829
 20
1.1496325100583811
 30
0.0
 11
1.701702382336975
 21
1.129493727227213
 31
0.0
  0
LINE
  5
3402D
  8
0
 10
-0.0000012266760336
 20
0.0000002468748335
 30
0.0
 11
0.2910449159020913
 21
0.0000002468748335
 31
0.0
  0
POLYLINE
  8
0
  5
36CBA
  66
     1
 10
0.000000
 20
0.000000
 30
0.000000
  70
     8
  0
VERTEX
  8
0
  5
36CBB
 10
1.78459
 20
1.29754
 30
0.000000
  70
    32
  0
VERTEX
  8
0
  5
36CBC
 10
1.78417
 20
1.30428
 30
0.000000
  70
    32
  0
VERTEX
  8
0
  5
36CBD
 10
1.78375
 20
1.31103
 30
0.000000
  70
    32
  0
VERTEX
  8
0
  5
36CBE
 10
1.78333
 20
1.31777
 30
0.000000
  70
    32
  0
VERTEX
  8
0
  5
36CBF
 10
1.78291
 20
1.32451
 30
0.000000
  70
    32
  0
VERTEX
  8
0
  5
36CC0
 10
1.78250
 20
1.33126
 30
0.000000
  70
    32
  0
VERTEX
  8
0
  5
36CC1
 10
1.78209
 20
1.33800
 30
0.000000
  70
    32
  0
VERTEX
  8
0
  5
36CC2
 10
1.78168
 20
1.34474
 30
0.000000
  70
    32
  0
VERTEX
  8
0
  5
36CC3
 10
1.78128
 20
1.35149
 30
0.000000
  70
    32
  0
VERTEX
  8
0
  5
36CC4
 10
1.78088
 20
1.35823
 30
0.000000
  70
    32
  0
VERTEX
  8
0
  5
36CC5
 10
1.78049
 20
1.36497
 30
0.000000
  70
    32
  0
VERTEX
  8
0
  5
36CC6
 10
1.78011
 20
1.37171
 30
0.000000
  70
    32
  0
VERTEX
  8
0
  5
36CC7
 10
1.77973
 20
1.37846
 30
0.000000
  70
    32
  0
VERTEX
  8
0
  5
36CC8
 10
1.77936
 20
1.38520
 30
0.000000
  70
    32
  0
VERTEX
  8
0
  5
36CC9
 10
1.77900
 20
1.39194
 30
0.000000
  70
    32
  0
VERTEX
  8
0
  5
36CCA
 10
1.77865
 20
1.39868
 30
0.000000
  70
    32
  0
VERTEX
  8
0
  5
36CCB
 10
1.77831
 20
1.40542
 30
0.000000
  70
    32
  0
VERTEX
  8
0
  5
36CCC
 10
1.77798
 20
1.41217
 30
0.000000
  70
    32
  0
VERTEX
  8
0
  5
36CCD
 10
1.77766
 20
1.41891
 30
0.000000
  70
    32
  0
VERTEX
  8
0
  5
36CCE
 10
1.77736
 20
1.42565
 30
0.000000
  70
    32
  0
VERTEX
  8
0
  5
36CCF
 10
1.77706
 20
1.43239
 30
0.000000
  70
    32
  0
VERTEX
  8
0
  5
36CD0
 10
1.77679
 20
1.43913
 30
0.000000
  70
    32
  0
VERTEX
  8
0
  5
36CD1
 10
1.77652
 20
1.44587
 30
0.000000
  70
    32
  0
VERTEX
  8
0
  5
36CD2
 10
1.77627
 20
1.45261
 30
0.000000
  70
    32
  0
VERTEX
  8
0
  5
36CD3
 10
1.77603
 20
1.45935
 30
0.000000
  70
    32
  0
VERTEX
  8
0
  5
36CD4
 10
1.77582
 20
1.46609
 30
0.000000
  70
    32
  0
VERTEX
  8
0
  5
36CD5
 10
1.77561
 20
1.47282
 30
0.000000
  70
    32
  0
VERTEX
  8
0
  5
36CD6
 10
1.77543
 20
1.47956
 30
0.000000
  70
    32
  0
VERTEX
  8
0
  5
36CD7
 10
1.77526
 20
1.48630
 30
0.000000
  70
    32
  0
VERTEX
  8
0
  5
36CD8
 10
1.77512
 20
1.49304
 30
0.000000
  70
    32
  0
VERTEX
  8
0
  5
36CD9
 10
1.77499
 20
1.49977
 30
0.000000
  70
    32
  0
VERTEX
  8
0
  5
36CDA
 10
1.77488
 20
1.50651
 30
0.000000
  70
    32
  0
VERTEX
  8
0
  5
36CDB
 10
1.77479
 20
1.51325
 30
0.000000
  70
    32
  0
VERTEX
  8
0
  5
36CDC
 10
1.77473
 20
1.51998
 30
0.000000
  70
    32
  0
VERTEX
  8
0
  5
36CDD
 10
1.77469
 20
1.52672
 30
0.000000
  70
    32
  0
VERTEX
  8
0
  5
36CDE
 10
1.77467
 20
1.53345
 30
0.000000
  70
    32
  0
VERTEX
  8
0
  5
36CDF
 10
1.77467
 20
1.54019
 30
0.000000
  70
    32
  0
VERTEX
  8
0
  5
36CE0
 10
1.77470
 20
1.54692
 30
0.000000
  70
    32
  0
VERTEX
  8
0
  5
36CE1
 10
1.77475
 20
1.55365
 30
0.000000
  70
    32
  0
VERTEX
  8
0
  5
36CE2
 10
1.77483
 20
1.56039
 30
0.000000
  70
    32
  0
VERTEX
  8
0
  5
36CE3
 10
1.77493
 20
1.56712
 30
0.000000
  70
    32
  0
VERTEX
  8
0
  5
36CE4
 10
1.77506
 20
1.57385
 30
0.000000
  70
    32
  0
VERTEX
  8
0
  5
36CE5
 10
1.77522
 20
1.58058
 30
0.000000
  70
    32
  0
VERTEX
  8
0
  5
36CE6
 10
1.77541
 20
1.58731
 30
0.000000
  70
    32
  0
VERTEX
  8
0
  5
36CE7
 10
1.77563
 20
1.59404
 30
0.000000
  70
    32
  0
VERTEX
  8
0
  5
36CE8
 10
1.77587
 20
1.60077
 30
0.000000
  70
    32
  0
VERTEX
  8
0
  5
36CE9
 10
1.77615
 20
1.60749
 30
0.000000
  70
    32
  0
VERTEX
  8
0
  5
36CEA
 10
1.77646
 20
1.61422
 30
0.000000
  70
    32
  0
VERTEX
  8
0
  5
36CEB
 10
1.77680
 20
1.62095
 30
0.000000
  70
    32
  0
VERTEX
  8
0
  5
36CEC
 10
1.77717
 20
1.62767
 30
0.000000
  70
    32
  0
VERTEX
  8
0
  5
36CED
 10
1.77757
 20
1.63440
 30
0.000000
  70
    32
  0
VERTEX
  8
0
  5
36CEE
 10
1.77801
 20
1.64112
 30
0.000000
  70
    32
  0
VERTEX
  8
0
  5
36CEF
 10
1.77848
 20
1.64785
 30
0.000000
  70
    32
  0
VERTEX
  8
0
  5
36CF0
 10
1.77899
 20
1.65457
 30
0.000000
  70
    32
  0
VERTEX
  8
0
  5
36CF1
 10
1.77953
 20
1.66129
 30
0.000000
  70
    32
  0
VERTEX
  8
0
  5
36CF2
 10
1.78011
 20
1.66801
 30
0.000000
  70
    32
  0
VERTEX
  8
0
  5
36CF3
 10
1.78073
 20
1.67473
 30
0.000000
  70
    32
  0
VERTEX
  8
0
  5
36CF4
 10
1.78138
 20
1.68145
 30
0.000000
  70
    32
  0
VERTEX
  8
0
  5
36CF5
 10
1.78208
 20
1.68817
 30
0.000000
  70
    32
  0
VERTEX
  8
0
  5
36CF6
 10
1.78281
 20
1.69489
 30
0.000000
  70
    32
  0
VERTEX
  8
0
  5
36CF7
 10
1.78358
 20
1.70161
 30
0.000000
  70
    32
  0
VERTEX
  8
0
  5
36CF8
 10
1.78439
 20
1.70832
 30
0.000000
  70
    32
  0
VERTEX
  8
0
  5
36CF9
 10
1.78524
 20
1.71504
 30
0.000000
  70
    32
  0
VERTEX
  8
0
  5
36CFA
 10
1.78614
 20
1.72175
 30
0.000000
  70
    32
  0
VERTEX
  8
0
  5
36CFB
 10
1.78707
 20
1.72847
 30
0.000000
  70
    32
  0
VERTEX
  8
0
  5
36CFC
 10
1.78805
 20
1.73518
 30
0.000000
  70
    32
  0
VERTEX
  8
0
  5
36CFD
 10
1.78907
 20
1.74189
 30
0.000000
  70
    32
  0
VERTEX
  8
0
  5
36CFE
 10
1.79013
 20
1.74859
 30
0.000000
  70
    32
  0
VERTEX
  8
0
  5
36CFF
 10
1.79122
 20
1.75530
 30
0.000000
  70
    32
  0
VERTEX
  8
0
  5
36D00
 10
1.79236
 20
1.76200
 30
0.000000
  70
    32
  0
VERTEX
  8
0
  5
36D01
 10
1.79354
 20
1.76869
 30
0.000000
  70
    32
  0
VERTEX
  8
0
  5
36D02
 10
1.79476
 20
1.77539
 30
0.000000
  70
    32
  0
VERTEX
  8
0
  5
36D03
 10
1.79603
 20
1.78208
 30
0.000000
  70
    32
  0
VERTEX
  8
0
  5
36D04
 10
1.79733
 20
1.78876
 30
0.000000
  70
    32
  0
VERTEX
  8
0
  5
36D05
 10
1.79867
 20
1.79544
 30
0.000000
  70
    32
  0
VERTEX
  8
0
  5
36D06
 10
1.80005
 20
1.80212
 30
0.000000
  70
    32
  0
VERTEX
  8
0
  5
36D07
 10
1.80147
 20
1.80879
 30
0.000000
  70
    32
  0
VERTEX
  8
0
  5
36D08
 10
1.80293
 20
1.81545
 30
0.000000
  70
    32
  0
VERTEX
  8
0
  5
36D09
 10
1.80443
 20
1.82211
 30
0.000000
  70
    32
  0
VERTEX
  8
0
  5
36D0A
 10
1.80597
 20
1.82876
 30
0.000000
  70
    32
  0
VERTEX
  8
0
  5
36D0B
 10
1.80755
 20
1.83541
 30
0.000000
  70
    32
  0
VERTEX
  8
0
  5
36D0C
 10
1.80917
 20
1.84204
 30
0.000000
  70
    32
  0
VERTEX
  8
0
  5
36D0D
 10
1.81083
 20
1.84868
 30
0.000000
  70
    32
  0
VERTEX
  8
0
  5
36D0E
 10
1.81253
 20
1.85530
 30
0.000000
  70
    32
  0
VERTEX
  8
0
  5
36D0F
 10
1.81427
 20
1.86192
 30
0.000000
  70
    32
  0
VERTEX
  8
0
  5
36D10
 10
1.81604
 20
1.86852
 30
0.000000
  70
    32
  0
VERTEX
  8
0
  5
36D11
 10
1.81786
 20
1.87512
 30
0.000000
  70
    32
  0
VERTEX
  8
0
  5
36D12
 10
1.81971
 20
1.88171
 30
0.000000
  70
    32
  0
VERTEX
  8
0
  5
36D13
 10
1.82161
 20
1.88829
 30
0.000000
  70
    32
  0
VERTEX
  8
0
  5
36D14
 10
1.82354
 20
1.89487
 30
0.000000
  70
    32
  0
VERTEX
  8
0
  5
36D15
 10
1.82551
 20
1.90143
 30
0.000000
  70
    32
  0
VERTEX
  8
0
  5
36D16
 10
1.82752
 20
1.90798
 30
0.000000
  70
    32
  0
VERTEX
  8
0
  5
36D17
 10
1.82957
 20
1.91452
 30
0.000000
  70
    32
  0
VERTEX
  8
0
  5
36D18
 10
1.83165
 20
1.92105
 30
0.000000
  70
    32
  0
VERTEX
  8
0
  5
36D19
 10
1.83378
 20
1.92757
 30
0.000000
  70
    32
  0
VERTEX
  8
0
  5
36D1A
 10
1.83594
 20
1.93408
 30
0.000000
  70
    32
  0
VERTEX
  8
0
  5
36D1B
 10
1.83814
 20
1.94058
 30
0.000000
  70
    32
  0
VERTEX
  8
0
  5
36D1C
 10
1.84038
 20
1.94706
 30
0.000000
  70
    32
  0
VERTEX
  8
0
  5
36D1D
 10
1.84266
 20
1.95353
 30
0.000000
  70
    32
  0
VERTEX
  8
0
  5
36D1E
 10
1.84497
 20
1.95999
 30
0.000000
  70
    32
  0
VERTEX
  8
0
  5
36D1F
 10
1.84733
 20
1.96644
 30
0.000000
  70
    32
  0
VERTEX
  8
0
  5
36D20
 10
1.84972
 20
1.97287
 30
0.000000
  70
    32
  0
VERTEX
  8
0
  5
36D21
 10
1.85214
 20
1.97929
 30
0.000000
  70
    32
  0
VERTEX
  8
0
  5
36D22
 10
1.85461
 20
1.98570
 30
0.000000
  70
    32
  0
VERTEX
  8
0
  5
36D23
 10
1.85711
 20
1.99209
 30
0.000000
  70
    32
  0
VERTEX
  8
0
  5
36D24
 10
1.85965
 20
1.99846
 30
0.000000
  70
    32
  0
VERTEX
  8
0
  5
36D25
 10
1.86223
 20
2.00483
 30
0.000000
  70
    32
  0
VERTEX
  8
0
  5
36D26
 10
1.86484
 20
2.01117
 30
0.000000
  70
    32
  0
VERTEX
  8
0
  5
36D27
 10
1.86749
 20
2.01750
 30
0.000000
  70
    32
  0
VERTEX
  8
0
  5
36D28
 10
1.87018
 20
2.02382
 30
0.000000
  70
    32
  0
VERTEX
  8
0
  5
36D29
 10
1.87290
 20
2.03012
 30
0.000000
  70
    32
  0
VERTEX
  8
0
  5
36D2A
 10
1.87566
 20
2.03640
 30
0.000000
  70
    32
  0
VERTEX
  8
0
  5
36D2B
 10
1.87846
 20
2.04266
 30
0.000000
  70
    32
  0
VERTEX
  8
0
  5
36D2C
 10
1.88130
 20
2.04891
 30
0.000000
  70
    32
  0
VERTEX
  8
0
  5
36D2D
 10
1.88417
 20
2.05514
 30
0.000000
  70
    32
  0
VERTEX
  8
0
  5
36D2E
 10
1.88707
 20
2.06136
 30
0.000000
  70
    32
  0
VERTEX
  8
0
  5
36D2F
 10
1.89002
 20
2.06755
 30
0.000000
  70
    32
  0
VERTEX
  8
0
  5
36D30
 10
1.89300
 20
2.07373
 30
0.000000
  70
    32
  0
VERTEX
  8
0
  5
36D31
 10
1.89601
 20
2.07989
 30
0.000000
  70
    32
  0
VERTEX
  8
0
  5
36D32
 10
1.89906
 20
2.08602
 30
0.000000
  70
    32
  0
VERTEX
  8
0
  5
36D33
 10
1.90215
 20
2.09214
 30
0.000000
  70
    32
  0
VERTEX
  8
0
  5
36D34
 10
1.90527
 20
2.09824
 30
0.000000
  70
    32
  0
VERTEX
  8
0
  5
36D35
 10
1.90843
 20
2.10432
 30
0.000000
  70
    32
  0
VERTEX
  8
0
  5
36D36
 10
1.91163
 20
2.11038
 30
0.000000
  70
    32
  0
VERTEX
  8
0
  5
36D37
 10
1.91486
 20
2.11642
 30
0.000000
  70
    32
  0
VERTEX
  8
0
  5
36D38
 10
1.91812
 20
2.12244
 30
0.000000
  70
    32
  0
VERTEX
  8
0
  5
36D39
 10
1.92142
 20
2.12843
 30
0.000000
  70
    32
  0
VERTEX
  8
0
  5
36D3A
 10
1.92476
 20
2.13441
 30
0.000000
  70
    32
  0
VERTEX
  8
0
  5
36D3B
 10
1.92813
 20
2.14036
 30
0.000000
  70
    32
  0
VERTEX
  8
0
  5
36D3C
 10
1.93154
 20
2.14629
 30
0.000000
  70
    32
  0
VERTEX
  8
0
  5
36D3D
 10
1.93498
 20
2.15220
 30
0.000000
  70
    32
  0
VERTEX
  8
0
  5
36D3E
 10
1.93845
 20
2.15808
 30
0.000000
  70
    32
  0
VERTEX
  8
0
  5
36D3F
 10
1.94196
 20
2.16395
 30
0.000000
  70
    32
  0
VERTEX
  8
0
  5
36D40
 10
1.94551
 20
2.16978
 30
0.000000
  70
    32
  0
VERTEX
  8
0
  5
36D41
 10
1.94909
 20
2.17560
 30
0.000000
  70
    32
  0
VERTEX
  8
0
  5
36D42
 10
1.95270
 20
2.18139
 30
0.000000
  70
    32
  0
VERTEX
  8
0
  5
36D43
 10
1.95635
 20
2.18715
 30
0.000000
  70
    32
  0
VERTEX
  8
0
  5
36D44
 10
1.96003
 20
2.19289
 30
0.000000
  70
    32
  0
VERTEX
  8
0
  5
36D45
 10
1.96375
 20
2.19861
 30
0.000000
  70
    32
  0
VERTEX
  8
0
  5
36D46
 10
1.96750
 20
2.20430
 30
0.000000
  70
    32
  0
VERTEX
  8
0
  5
36D47
 10
1.97128
 20
2.20996
 30
0.000000
  70
    32
  0
VERTEX
  8
0
  5
36D48
 10
1.97510
 20
2.21560
 30
0.000000
  70
    32
  0
VERTEX
  8
0
  5
36D49
 10
1.97895
 20
2.22121
 30
0.000000
  70
    32
  0
VERTEX
  8
0
  5
36D4A
 10
1.98284
 20
2.22680
 30
0.000000
  70
    32
  0
VERTEX
  8
0
  5
36D4B
 10
1.98676
 20
2.23236
 30
0.000000
  70
    32
  0
VERTEX
  8
0
  5
36D4C
 10
1.99071
 20
2.23789
 30
0.000000
  70
    32
  0
VERTEX
  8
0
  5
36D4D
 10
1.99470
 20
2.24339
 30
0.000000
  70
    32
  0
VERTEX
  8
0
  5
36D4E
 10
1.99872
 20
2.24886
 30
0.000000
  70
    32
  0
VERTEX
  8
0
  5
36D4F
 10
2.00277
 20
2.25431
 30
0.000000
  70
    32
  0
VERTEX
  8
0
  5
36D50
 10
2.00686
 20
2.25973
 30
0.000000
  70
    32
  0
VERTEX
  8
0
  5
36D51
 10
2.01098
 20
2.26512
 30
0.000000
  70
    32
  0
VERTEX
  8
0
  5
36D52
 10
2.01513
 20
2.27048
 30
0.000000
  70
    32
  0
VERTEX
  8
0
  5
36D53
 10
2.01932
 20
2.27581
 30
0.000000
  70
    32
  0
VERTEX
  8
0
  5
36D54
 10
2.02354
 20
2.28111
 30
0.000000
  70
    32
  0
VERTEX
  8
0
  5
36D55
 10
2.02779
 20
2.28637
 30
0.000000
  70
    32
  0
VERTEX
  8
0
  5
36D56
 10
2.03207
 20
2.29161
 30
0.000000
  70
    32
  0
VERTEX
  8
0
  5
36D57
 10
2.03639
 20
2.29682
 30
0.000000
  70
    32
  0
VERTEX
  8
0
  5
36D58
 10
2.04073
 20
2.30200
 30
0.000000
  70
    32
  0
VERTEX
  8
0
  5
36D59
 10
2.04511
 20
2.30714
 30
0.000000
  70
    32
  0
VERTEX
  8
0
  5
36D5A
 10
2.04953
 20
2.31226
 30
0.000000
  70
    32
  0
VERTEX
  8
0
  5
36D5B
 10
2.05397
 20
2.31734
 30
0.000000
  70
    32
  0
VERTEX
  8
0
  5
36D5C
 10
2.05845
 20
2.32239
 30
0.000000
  70
    32
  0
VERTEX
  8
0
  5
36D5D
 10
2.06296
 20
2.32741
 30
0.000000
  70
    32
  0
VERTEX
  8
0
  5
36D5E
 10
2.06749
 20
2.33240
 30
0.000000
  70
    32
  0
VERTEX
  8
0
  5
36D5F
 10
2.07206
 20
2.33735
 30
0.000000
  70
    32
  0
VERTEX
  8
0
  5
36D60
 10
2.07666
 20
2.34228
 30
0.000000
  70
    32
  0
VERTEX
  8
0
  5
36D61
 10
2.08129
 20
2.34717
 30
0.000000
  70
    32
  0
VERTEX
  8
0
  5
36D62
 10
2.08595
 20
2.35204
 30
0.000000
  70
    32
  0
VERTEX
  8
0
  5
36D63
 10
2.09065
 20
2.35688
 30
0.000000
  70
    32
  0
VERTEX
  8
0
  5
36D64
 10
2.09537
 20
2.36168
 30
0.000000
  70
    32
  0
VERTEX
  8
0
  5
36D65
 10
2.10011
 20
2.36646
 30
0.000000
  70
    32
  0
VERTEX
  8
0
  5
36D66
 10
2.10489
 20
2.37120
 30
0.000000
  70
    32
  0
VERTEX
  8
0
  5
36D67
 10
2.10970
 20
2.37592
 30
0.000000
  70
    32
  0
VERTEX
  8
0
  5
36D68
 10
2.11454
 20
2.38060
 30
0.000000
  70
    32
  0
VERTEX
  8
0
  5
36D69
 10
2.11940
 20
2.38526
 30
0.000000
  70
    32
  0
VERTEX
  8
0
  5
36D6A
 10
2.12429
 20
2.38989
 30
0.000000
  70
    32
  0
VERTEX
  8
0
  5
36D6B
 10
2.12921
 20
2.39449
 30
0.000000
  70
    32
  0
VERTEX
  8
0
  5
36D6C
 10
2.13416
 20
2.39906
 30
0.000000
  70
    32
  0
VERTEX
  8
0
  5
36D6D
 10
2.13913
 20
2.40360
 30
0.000000
  70
    32
  0
VERTEX
  8
0
  5
36D6E
 10
2.14413
 20
2.40812
 30
0.000000
  70
    32
  0
VERTEX
  8
0
  5
36D6F
 10
2.14916
 20
2.41260
 30
0.000000
  70
    32
  0
VERTEX
  8
0
  5
36D70
 10
2.15421
 20
2.41706
 30
0.000000
  70
    32
  0
VERTEX
  8
0
  5
36D71
 10
2.15929
 20
2.42149
 30
0.000000
  70
    32
  0
VERTEX
  8
0
  5
36D72
 10
2.16440
 20
2.42590
 30
0.000000
  70
    32
  0
VERTEX
  8
0
  5
36D73
 10
2.16953
 20
2.43027
 30
0.000000
  70
    32
  0
VERTEX
  8
0
  5
36D74
 10
2.17468
 20
2.43462
 30
0.000000
  70
    32
  0
VERTEX
  8
0
  5
36D75
 10
2.17986
 20
2.43894
 30
0.000000
  70
    32
  0
VERTEX
  8
0
  5
36D76
 10
2.18507
 20
2.44324
 30
0.000000
  70
    32
  0
VERTEX
  8
0
  5
36D77
 10
2.19030
 20
2.44751
 30
0.000000
  70
    32
  0
VERTEX
  8
0
  5
36D78
 10
2.19555
 20
2.45175
 30
0.000000
  70
    32
  0
VERTEX
  8
0
  5
36D79
 10
2.20083
 20
2.45596
 30
0.000000
  70
    32
  0
VERTEX
  8
0
  5
36D7A
 10
2.20613
 20
2.46015
 30
0.000000
  70
    32
  0
VERTEX
  8
0
  5
36D7B
 10
2.21146
 20
2.46432
 30
0.000000
  70
    32
  0
VERTEX
  8
0
  5
36D7C
 10
2.21681
 20
2.46845
 30
0.000000
  70
    32
  0
VERTEX
  8
0
  5
36D7D
 10
2.22218
 20
2.47257
 30
0.000000
  70
    32
  0
VERTEX
  8
0
  5
36D7E
 10
2.22757
 20
2.47665
 30
0.000000
  70
    32
  0
VERTEX
  8
0
  5
36D7F
 10
2.23299
 20
2.48071
 30
0.000000
  70
    32
  0
VERTEX
  8
0
  5
36D80
 10
2.23843
 20
2.48475
 30
0.000000
  70
    32
  0
VERTEX
  8
0
  5
36D81
 10
2.24389
 20
2.48876
 30
0.000000
  70
    32
  0
VERTEX
  8
0
  5
36D82
 10
2.24937
 20
2.49275
 30
0.000000
  70
    32
  0
VERTEX
  8
0
  5
36D83
 10
2.25488
 20
2.49671
 30
0.000000
  70
    32
  0
VERTEX
  8
0
  5
36D84
 10
2.26040
 20
2.50065
 30
0.000000
  70
    32
  0
VERTEX
  8
0
  5
36D85
 10
2.26594
 20
2.50456
 30
0.000000
  70
    32
  0
VERTEX
  8
0
  5
36D86
 10
2.27151
 20
2.50845
 30
0.000000
  70
    32
  0
VERTEX
  8
0
  5
36D87
 10
2.27710
 20
2.51232
 30
0.000000
  70
    32
  0
VERTEX
  8
0
  5
36D88
 10
2.28270
 20
2.51616
 30
0.000000
  70
    32
  0
VERTEX
  8
0
  5
36D89
 10
2.28833
 20
2.51998
 30
0.000000
  70
    32
  0
VERTEX
  8
0
  5
36D8A
 10
2.29397
 20
2.52378
 30
0.000000
  70
    32
  0
VERTEX
  8
0
  5
36D8B
 10
2.29963
 20
2.52755
 30
0.000000
  70
    32
  0
VERTEX
  8
0
  5
36D8C
 10
2.30532
 20
2.53130
 30
0.000000
  70
    32
  0
VERTEX
  8
0
  5
36D8D
 10
2.31102
 20
2.53503
 30
0.000000
  70
    32
  0
VERTEX
  8
0
  5
36D8E
 10
2.31674
 20
2.53873
 30
0.000000
  70
    32
  0
VERTEX
  8
0
  5
36D8F
 10
2.32248
 20
2.54240
 30
0.000000
  70
    32
  0
VERTEX
  8
0
  5
36D90
 10
2.32824
 20
2.54603
 30
0.000000
  70
    32
  0
VERTEX
  8
0
  5
36D91
 10
2.33403
 20
2.54963
 30
0.000000
  70
    32
  0
VERTEX
  8
0
  5
36D92
 10
2.33983
 20
2.55319
 30
0.000000
  70
    32
  0
VERTEX
  8
0
  5
36D93
 10
2.34567
 20
2.55670
 30
0.000000
  70
    32
  0
VERTEX
  8
0
  5
36D94
 10
2.35152
 20
2.56016
 30
0.000000
  70
    32
  0
VERTEX
  8
0
  5
36D95
 10
2.35741
 20
2.56357
 30
0.000000
  70
    32
  0
VERTEX
  8
0
  5
36D96
 10
2.36332
 20
2.56691
 30
0.000000
  70
    32
  0
VERTEX
  8
0
  5
36D97
 10
2.36925
 20
2.57020
 30
0.000000
  70
    32
  0
VERTEX
  8
0
  5
36D98
 10
2.37522
 20
2.57341
 30
0.000000
  70
    32
  0
VERTEX
  8
0
  5
36D99
 10
2.38122
 20
2.57656
 30
0.000000
  70
    32
  0
VERTEX
  8
0
  5
36D9A
 10
2.38725
 20
2.57963
 30
0.000000
  70
    32
  0
VERTEX
  8
0
  5
36D9B
 10
2.39331
 20
2.58263
 30
0.000000
  70
    32
  0
VERTEX
  8
0
  5
36D9C
 10
2.39940
 20
2.58554
 30
0.000000
  70
    32
  0
VERTEX
  8
0
  5
36D9D
 10
2.40553
 20
2.58836
 30
0.000000
  70
    32
  0
VERTEX
  8
0
  5
36D9E
 10
2.41169
 20
2.59109
 30
0.000000
  70
    32
  0
VERTEX
  8
0
  5
36D9F
 10
2.41789
 20
2.59373
 30
0.000000
  70
    32
  0
VERTEX
  8
0
  5
36DA0
 10
2.42413
 20
2.59627
 30
0.000000
  70
    32
  0
VERTEX
  8
0
  5
36DA1
 10
2.43040
 20
2.59870
 30
0.000000
  70
    32
  0
VERTEX
  8
0
  5
36DA2
 10
2.43671
 20
2.60103
 30
0.000000
  70
    32
  0
VERTEX
  8
0
  5
36DA3
 10
2.44306
 20
2.60324
 30
0.000000
  70
    32
  0
VERTEX
  8
0
  5
36DA4
 10
2.44946
 20
2.60534
 30
0.000000
  70
    32
  0
VERTEX
  8
0
  5
36DA5
 10
2.45589
 20
2.60732
 30
0.000000
  70
    32
  0
VERTEX
  8
0
  5
36DA6
 10
2.46237
 20
2.60918
 30
0.000000
  70
    32
  0
VERTEX
  8
0
  5
36DA7
 10
2.46889
 20
2.61091
 30
0.000000
  70
    32
  0
VERTEX
  8
0
  5
36DA8
 10
2.47546
 20
2.61251
 30
0.000000
  70
    32
  0
VERTEX
  8
0
  5
36DA9
 10
2.48207
 20
2.61397
 30
0.000000
  70
    32
  0
VERTEX
  8
0
  5
36DAA
 10
2.48872
 20
2.61530
 30
0.000000
  70
    32
  0
VERTEX
  8
0
  5
36DAB
 10
2.49540
 20
2.61649
 30
0.000000
  70
    32
  0
VERTEX
  8
0
  5
36DAC
 10
2.50212
 20
2.61754
 30
0.000000
  70
    32
  0
VERTEX
  8
0
  5
36DAD
 10
2.50887
 20
2.61846
 30
0.000000
  70
    32
  0
VERTEX
  8
0
  5
36DAE
 10
2.51564
 20
2.61924
 30
0.000000
  70
    32
  0
VERTEX
  8
0
  5
36DAF
 10
2.52243
 20
2.61989
 30
0.000000
  70
    32
  0
VERTEX
  8
0
  5
36DB0
 10
2.52923
 20
2.62039
 30
0.000000
  70
    32
  0
VERTEX
  8
0
  5
36DB1
 10
2.53605
 20
2.62076
 30
0.000000
  70
    32
  0
VERTEX
  8
0
  5
36DB2
 10
2.54287
 20
2.62099
 30
0.000000
  70
    32
  0
VERTEX
  8
0
  5
36DB3
 10
2.54969
 20
2.62108
 30
0.000000
  70
    32
  0
VERTEX
  8
0
  5
36DB4
 10
2.55651
 20
2.62104
 30
0.000000
  70
    32
  0
VERTEX
  8
0
  5
36DB5
 10
2.56333
 20
2.62085
 30
0.000000
  70
    32
  0
VERTEX
  8
0
  5
36DB6
 10
2.57014
 20
2.62052
 30
0.000000
  70
    32
  0
VERTEX
  8
0
  5
36DB7
 10
2.57693
 20
2.62006
 30
0.000000
  70
    32
  0
VERTEX
  8
0
  5
36DB8
 10
2.58370
 20
2.61945
 30
0.000000
  70
    32
  0
VERTEX
  8
0
  5
36DB9
 10
2.59046
 20
2.61870
 30
0.000000
  70
    32
  0
VERTEX
  8
0
  5
36DBA
 10
2.59718
 20
2.61782
 30
0.000000
  70
    32
  0
VERTEX
  8
0
  5
36DBB
 10
2.60388
 20
2.61679
 30
0.000000
  70
    32
  0
VERTEX
  8
0
  5
36DBC
 10
2.61053
 20
2.61562
 30
0.000000
  70
    32
  0
VERTEX
  8
0
  5
36DBD
 10
2.61715
 20
2.61430
 30
0.000000
  70
    32
  0
VERTEX
  8
0
  5
36DBE
 10
2.62373
 20
2.61285
 30
0.000000
  70
    32
  0
VERTEX
  8
0
  5
36DBF
 10
2.63026
 20
2.61125
 30
0.000000
  70
    32
  0
VERTEX
  8
0
  5
36DC0
 10
2.63674
 20
2.60951
 30
0.000000
  70
    32
  0
VERTEX
  8
0
  5
36DC1
 10
2.64317
 20
2.60763
 30
0.000000
  70
    32
  0
VERTEX
  8
0
  5
36DC2
 10
2.64956
 20
2.60563
 30
0.000000
  70
    32
  0
VERTEX
  8
0
  5
36DC3
 10
2.65590
 20
2.60350
 30
0.000000
  70
    32
  0
VERTEX
  8
0
  5
36DC4
 10
2.66221
 20
2.60125
 30
0.000000
  70
    32
  0
VERTEX
  8
0
  5
36DC5
 10
2.66847
 20
2.59889
 30
0.000000
  70
    32
  0
VERTEX
  8
0
  5
36DC6
 10
2.67470
 20
2.59642
 30
0.000000
  70
    32
  0
VERTEX
  8
0
  5
36DC7
 10
2.68089
 20
2.59385
 30
0.000000
  70
    32
  0
VERTEX
  8
0
  5
36DC8
 10
2.68704
 20
2.59117
 30
0.000000
  70
    32
  0
VERTEX
  8
0
  5
36DC9
 10
2.69316
 20
2.58841
 30
0.000000
  70
    32
  0
VERTEX
  8
0
  5
36DCA
 10
2.69926
 20
2.58555
 30
0.000000
  70
    32
  0
VERTEX
  8
0
  5
36DCB
 10
2.70532
 20
2.58261
 30
0.000000
  70
    32
  0
VERTEX
  8
0
  5
36DCC
 10
2.71136
 20
2.57960
 30
0.000000
  70
    32
  0
VERTEX
  8
0
  5
36DCD
 10
2.71737
 20
2.57651
 30
0.000000
  70
    32
  0
VERTEX
  8
0
  5
36DCE
 10
2.72336
 20
2.57335
 30
0.000000
  70
    32
  0
VERTEX
  8
0
  5
36DCF
 10
2.72932
 20
2.57013
 30
0.000000
  70
    32
  0
VERTEX
  8
0
  5
36DD0
 10
2.73527
 20
2.56686
 30
0.000000
  70
    32
  0
VERTEX
  8
0
  5
36DD1
 10
2.74120
 20
2.56353
 30
0.000000
  70
    32
  0
VERTEX
  8
0
  5
36DD2
 10
2.74711
 20
2.56016
 30
0.000000
  70
    32
  0
VERTEX
  8
0
  5
36DD3
 10
2.75301
 20
2.55674
 30
0.000000
  70
    32
  0
VERTEX
  8
0
  5
36DD4
 10
2.75889
 20
2.55329
 30
0.000000
  70
    32
  0
VERTEX
  8
0
  5
36DD5
 10
2.76477
 20
2.54980
 30
0.000000
  70
    32
  0
VERTEX
  8
0
  5
36DD6
 10
2.77063
 20
2.54629
 30
0.000000
  70
    32
  0
VERTEX
  8
0
  5
36DD7
 10
2.77649
 20
2.54276
 30
0.000000
  70
    32
  0
VERTEX
  8
0
  5
36DD8
 10
2.78234
 20
2.53922
 30
0.000000
  70
    32
  0
VERTEX
  8
0
  5
36DD9
 10
2.78819
 20
2.53566
 30
0.000000
  70
    32
  0
VERTEX
  8
0
  5
36DDA
 10
2.79404
 20
2.53210
 30
0.000000
  70
    32
  0
SEQEND
  8
0
  5
36DDB
  0
ARC
  5
3402F
  8
0
 10
3.0617125534294578
 20
2.868121924086608
 30
0.0
 40
0.3261993446855973
 50
231.69688545872461
 51
26.236608528874651
  0
ARC
  5
34030
  8
0
 10
0.6122563205008192
 20
0.0445914175862754
 30
0.0
 40
0.3242917497404281
 50
79.849998631994751
 51
187.90339593985709
  0
ARC
  5
34031
  8
0
 10
0.9549503586443962
 20
1.049380567529397
 30
0.0
 40
0.631976010542801
 50
245.1601149185781
 51
9.1275312838388327
  0
ENDBLK
  5
34033
  8
0
  0
BLOCK
  8
0
  2
*U72
 70
     1
 10
0.0
 20
0.0
 30
0.0
  3
*U72
  1

  0
TEXT
  5
368EF
  8
0
 10
3.5177832928899071
 20
10.38601584255777
 30
0.0
 40
0.125
  1
Crown Moulding
  0
TEXT
  5
368F0
  8
0
 10
3.5223876585106431
 20
10.17717091304435
 30
0.0
 40
0.125
  1
TL-AB509
  0
TEXT
  5
368F1
  8
0
 10
3.5074661032582561
 20
9.9667059289606801
 30
0.0
 40
0.125
  1
1-5/16" x 7-9/16"
  0
TEXT
  5
368F2
  8
0
 10
3.519403347460166
 20
9.7562409448770051
 30
0.0
 40
0.125
  1
800.66.TAGUE
  0
ENDBLK
  5
368F4
  8
0
  0
BLOCK
  8
0
  2
*U73
 70
     1
 10
0.0
 20
0.0
 30
0.0
  3
*U73
  1

  0
TEXT
  5
368F6
  8
0
 10
1.4086740032724709
 20
13.04264108713495
 30
0.0
 40
0.125
  1
Casing
  0
TEXT
  5
368F7
  8
0
 10
1.4132783688932069
 20
12.83379615762154
 30
0.0
 40
0.125
  1
TL-2019
  0
TEXT
  5
368F8
  8
0
 10
1.39835681364082
 20
12.62333117353786
 30
0.0
 40
0.125
  1
1-1/16" x 5-1/2"
  0
TEXT
  5
368F9
  8
0
 10
1.4102940578427301
 20
12.41286618945419
 30
0.0
 40
0.125
  1
800.66.TAGUE
  0
ENDBLK
  5
368FB
  8
0
  0
BLOCK
  8
0
  2
*U74
 70
     1
 10
0.0
 20
0.0
 30
0.0
  3
*U74
  1

  0
TEXT
  5
368FD
  8
0
 10
1.9061884295105971
 20
11.78127341408482
 30
0.0
 40
0.125
  1
Casing
  0
TEXT
  5
368FE
  8
0
 10
1.9107927951313339
 20
11.572428484571409
 30
0.0
 40
0.125
  1
TL-2318
  0
TEXT
  5
368FF
  8
0
 10
1.8958712398789459
 20
11.361963500487731
 30
0.0
 40
0.125
  1
13/16" x 2-1/2"
  0
TEXT
  5
36900
  8
0
 10
1.907808484080856
 20
11.151498516404059
 30
0.0
 40
0.125
  1
800.66.TAGUE
  0
ENDBLK
  5
36902
  8
0
  0
BLOCK
  8
0
  2
*U75
 70
     1
 10
0.0
 20
0.0
 30
0.0
  3
*U75
  1

  0
TEXT
  5
36904
  8
0
 10
2.2380648505203782
 20
10.70752122569969
 30
0.0
 40
0.125
  1
Casing Assembly
  0
TEXT
  5
36905
  8
0
 10
2.242669216141115
 20
10.498676296186281
 30
0.0
 40
0.125
  1
TL-2225
  0
TEXT
  5
36906
  8
0
 10
2.2277476608887281
 20
10.2882113121026
 30
0.0
 40
0.125
  1
1-9/16" x 4-1/2"
  0
TEXT
  5
36907
  8
0
 10
2.239684905090638
 20
10.077746328018931
 30
0.0
 40
0.125
  1
800.66.TAGUE
  0
ENDBLK
  5
36909
  8
0
  0
BLOCK
  8
0
  2
*U76
 70
     1
 10
0.0
 20
0.0
 30
0.0
  3
*U76
  1

  0
TEXT
  5
3690B
  8
0
 10
2.45740474597793
 20
2.5787099920155621
 30
0.0
 40
0.125
  1
Chair Rail
  0
TEXT
  5
3690C
  8
0
 10
2.462009111598666
 20
2.3698650625021469
 30
0.0
 40
0.125
  1
TL-300
  0
TEXT
  5
3690D
  8
0
 10
2.4470875563462791
 20
2.1594000784184728
 30
0.0
 40
0.125
  1
1-1/16" x 2-15/16"
  0
TEXT
  5
3690E
  8
0
 10
2.4590248005481889
 20
1.9489350943347981
 30
0.0
 40
0.125
  1
800.66.TAGUE
  0
ENDBLK
  5
36910
  8
0
  0
BLOCK
  8
0
  2
*U77
 70
     1
 10
0.0
 20
0.0
 30
0.0
  3
*U77
  1

  0
TEXT
  5
36912
  8
0
 10
2.296373382618786
 20
2.154638056947094
 30
0.0
 40
0.125
  1
Chair Rail
  0
TEXT
  5
36913
  8
0
 10
2.3009777482395228
 20
1.945793127433679
 30
0.0
 40
0.125
  1
TL-384
  0
TEXT
  5
36914
  8
0
 10
2.2860561929871359
 20
1.7353281433500041
 30
0.0
 40
0.125
  1
1-1/8" x 2-3/4"
  0
TEXT
  5
36915
  8
0
 10
2.2979934371890458
 20
1.52486315926633
 30
0.0
 40
0.125
  1
800.66.TAGUE
  0
ENDBLK
  5
36917
  8
0
  0
BLOCK
  8
0
  2
*U78
 70
     1
 10
0.0
 20
0.0
 30
0.0
  3
*U78
  1

  0
TEXT
  5
36919
  8
0
 10
1.7903030854828661
 20
1.879104976913611
 30
0.0
 40
0.125
  1
Chair Rail
  0
TEXT
  5
3691A
  8
0
 10
1.7949074511036021
 20
1.6702600474001961
 30
0.0
 40
0.125
  1
TL-390
  0
TEXT
  5
3691B
  8
0
 10
1.7799858958512149
 20
1.4597950633165211
 30
0.0
 40
0.125
  1
11/16" x 2-9/16"
  0
TEXT
  5
3691C
  8
0
 10
1.791923140053125
 20
1.249330079232847
 30
0.0
 40
0.125
  1
800.66.TAGUE
  0
ENDBLK
  5
3691E
  8
0
  0
BLOCK
  8
0
  2
*U79
 70
     1
 10
0.0
 20
0.0
 30
0.0
  3
*U79
  1

  0
TEXT
  5
36920
  8
0
 10
1.7790082072096181
 20
2.7163812729427419
 30
0.0
 40
0.125
  1
Chair Rail
  0
TEXT
  5
36921
  8
0
 10
1.7836125728303549
 20
2.5075363434293272
 30
0.0
 40
0.125
  1
TL-391
  0
TEXT
  5
36922
  8
0
 10
1.780372463689837
 20
2.2970713593456522
 30
0.0
 40
0.125
  1
3/4" x 3-1/2"
  0
TEXT
  5
36923
  8
0
 10
1.7806282617798781
 20
2.0866063752619781
 30
0.0
 40
0.125
  1
800.66.TAGUE
  0
ENDBLK
  5
36925
  8
0
  0
BLOCK
  8
0
  2
*U80
 70
     1
 10
0.0
 20
0.0
 30
0.0
  3
*U80
  1

  0
TEXT
  5
36927
  8
0
 10
1.979493109854592
 20
1.3931549873730249
 30
0.0
 40
0.125
  1
Chair Rail
  0
TEXT
  5
36928
  8
0
 10
1.984097475475328
 20
1.1843100578596091
 30
0.0
 40
0.125
  1
TL-393
  0
TEXT
  5
36929
  8
0
 10
1.9691759202229411
 20
0.9738450737759357
 30
0.0
 40
0.125
  1
1-1/4" x 2-1/2"
  0
TEXT
  5
3692A
  8
0
 10
1.981113164424851
 20
0.7633800896922612
 30
0.0
 40
0.125
  1
800.66.TAGUE
  0
ENDBLK
  5
3692C
  8
0
  0
BLOCK
  8
0
  2
*U81
 70
     1
 10
0.0
 20
0.0
 30
0.0
  3
*U81
  1

  0
TEXT
  5
3692E
  8
0
 10
2.213601074382983
 20
2.6517246081325689
 30
0.0
 40
0.125
  1
Chair Rail
  0
TEXT
  5
3692F
  8
0
 10
2.2182054400037199
 20
2.4428796786191538
 30
0.0
 40
0.125
  1
TL-538
  0
TEXT
  5
36930
  8
0
 10
2.2171822476435561
 20
2.2324146945354801
 30
0.0
 40
0.125
  1
27/32" x 3-1/4"
  0
TEXT
  5
36931
  8
0
 10
2.215221128953242
 20
2.021949710451806
 30
0.0
 40
0.125
  1
800.66.TAGUE
  0
ENDBLK
  5
36933
  8
0
  0
BLOCK
  8
0
  2
*U82
 70
     1
 10
0.0
 20
0.0
 30
0.0
  3
*U82
  1

  0
TEXT
  5
36935
  8
0
 10
2.143641095436839
 20
2.3625917493022981
 30
0.0
 40
0.125
  1
Chair Rail
  0
TEXT
  5
36936
  8
0
 10
2.148245461057575
 20
2.1537468197888829
 30
0.0
 40
0.125
  1
TL-2002
  0
TEXT
  5
36937
  8
0
 10
2.1450053519170571
 20
1.943281835705208
 30
0.0
 40
0.125
  1
3/4" x 3"
  0
TEXT
  5
36938
  8
0
 10
2.1452611500070979
 20
1.7328168516215341
 30
0.0
 40
0.125
  1
800.66.TAGUE
  0
ENDBLK
  5
3693A
  8
0
  0
BLOCK
  8
0
  2
*U83
 70
     1
 10
0.0
 20
0.0
 30
0.0
  3
*U83
  1

  0
TEXT
  5
3693C
  8
0
 10
2.0814022841362081
 20
2.4827230287430821
 30
0.0
 40
0.125
  1
Chair Rail
  0
TEXT
  5
3693D
  8
0
 10
2.0860066497569441
 20
2.273878099229667
 30
0.0
 40
0.125
  1
TL-2003
  0
TEXT
  5
3693E
  8
0
 10
2.0818286142862759
 20
2.063413115145992
 30
0.0
 40
0.125
  1
7/8" x 3-13/16"
  0
TEXT
  5
3693F
  8
0
 10
2.083022338706467
 20
1.8529481310623179
 30
0.0
 40
0.125
  1
800.66.TAGUE
  0
ENDBLK
  5
36941
  8
0
  0
BLOCK
  8
0
  2
*U84
 70
     1
 10
0.0
 20
0.0
 30
0.0
  3
*U84
  1

  0
TEXT
  5
36943
  8
0
 10
2.396282120712645
 20
2.6371956792013558
 30
0.0
 40
0.125
  1
Chair Rail
  0
TEXT
  5
36944
  8
0
 10
2.4008864863333819
 20
2.4283507496879411
 30
0.0
 40
0.125
  1
TL-2097
  0
TEXT
  5
36945
  8
0
 10
2.3859649310809949
 20
2.2178857656042661
 30
0.0
 40
0.125
  1
1-1/4" x 2-7/8"
  0
TEXT
  5
36946
  8
0
 10
2.3979021752829048
 20
2.007420781520592
 30
0.0
 40
0.125
  1
800.66.TAGUE
  0
ENDBLK
  5
36948
  8
0
  0
BLOCK
  8
0
  2
*U85
 70
     1
 10
0.0
 20
0.0
 30
0.0
  3
*U85
  1

  0
TEXT
  5
3694A
  8
0
 10
2.2497671895647828
 20
1.9038951213874651
 30
0.0
 40
0.125
  1
Chair Rail
  0
TEXT
  5
3694B
  8
0
 10
2.2543715551855201
 20
1.6950501918740499
 30
0.0
 40
0.125
  1
TL-392
  0
TEXT
  5
3694C
  8
0
 10
2.2394499999331319
 20
1.4845852077903761
 30
0.0
 40
0.125
  1
1-5/16" x 2-3/8"
  0
TEXT
  5
3694D
  8
0
 10
2.2513872441350422
 20
1.2741202237067011
 30
0.0
 40
0.125
  1
800.66.TAGUE
  0
ENDBLK
  5
3694F
  8
0
  0
BLOCK
  8
0
  2
*U86
 70
     1
 10
0.0
 20
0.0
 30
0.0
  3
*U86
  1

  0
TEXT
  5
36951
  8
0
 10
1.5498063030285369
 20
2.4826645605183031
 30
0.0
 40
0.125
  1
Chair Rail
  0
TEXT
  5
36952
  8
0
 10
1.5544106686492729
 20
2.2738196310048879
 30
0.0
 40
0.125
  1
TL-2152
  0
TEXT
  5
36953
  8
0
 10
1.539489113396886
 20
2.063354646921213
 30
0.0
 40
0.125
  1
1-9/32" x 3-15/16"
  0
TEXT
  5
36954
  8
0
 10
1.5514263575987961
 20
1.8528896628375391
 30
0.0
 40
0.125
  1
800.66.TAGUE
  0
ENDBLK
  5
36956
  8
0
  0
BLOCK
  8
0
  2
*U87
 70
     1
 10
0.0
 20
0.0
 30
0.0
  3
*U87
  1

  0
TEXT
  5
36958
  8
0
 10
1.425133411081934
 20
3.23616728770982
 30
0.0
 40
0.125
  1
Chair Rail
  0
TEXT
  5
36959
  8
0
 10
1.4297377767026711
 20
3.0273223581964048
 30
0.0
 40
0.125
  1
TL-2163
  0
TEXT
  5
3695A
  8
0
 10
1.426497667562153
 20
2.8168573741127299
 30
0.0
 40
0.125
  1
3/4" x 2-3/8"
  0
TEXT
  5
3695B
  8
0
 10
1.4267534656521941
 20
2.6063923900290562
 30
0.0
 40
0.125
  1
800.66.TAGUE
  0
ENDBLK
  5
3695D
  8
0
  0
BLOCK
  8
0
  2
*U88
 70
     1
 10
0.0
 20
0.0
 30
0.0
  3
*U88
  1

  0
TEXT
  5
3695F
  8
0
 10
1.3979859738694
 20
3.241688635672078
 30
0.0
 40
0.125
  1
Chair Rail
  0
TEXT
  5
36960
  8
0
 10
1.4025903394901369
 20
3.0328437061586628
 30
0.0
 40
0.125
  1
TL-2210
  0
TEXT
  5
36961
  8
0
 10
1.38766878423775
 20
2.8223787220749879
 30
0.0
 40
0.125
  1
11/16" x 3"
  0
TEXT
  5
36962
  8
0
 10
1.3996060284396601
 20
2.6119137379913142
 30
0.0
 40
0.125
  1
800.66.TAGUE
  0
ENDBLK
  5
36964
  8
0
  0
BLOCK
  8
0
  2
*U89
 70
     1
 10
0.0
 20
0.0
 30
0.0
  3
*U89
  1

  0
TEXT
  5
36966
  8
0
 10
1.9179554225799269
 20
1.5548149835556311
 30
0.0
 40
0.125
  1
Chamfer Strip
  0
TEXT
  5
36967
  8
0
 10
1.9225597882006631
 20
1.3459700540422159
 30
0.0
 40
0.125
  1
TL-994
  0
TEXT
  5
36968
  8
0
 10
1.9076382329482759
 20
1.137125124528801
 30
0.0
 40
0.125
  1
1" x 1"
  0
TEXT
  5
36969
  8
0
 10
1.9195754771501861
 20
0.9266601404451272
 30
0.0
 40
0.125
  1
800.66.TAGUE
  0
ENDBLK
  5
3696B
  8
0
  0
BLOCK
  8
0
  2
*U90
 70
     1
 10
0.0
 20
0.0
 30
0.0
  3
*U90
  1

  0
TEXT
  5
3696D
  8
0
 10
0.4278271454310577
 20
1.8307501971237501
 30
0.0
 40
0.125
  1
Chamfer Strip
  0
TEXT
  5
3696E
  8
0
 10
0.4324315110517944
 20
1.6219052676103349
 30
0.0
 40
0.125
  1
TL-995
  0
TEXT
  5
3696F
  8
0
 10
0.4175099557994069
 20
1.41144028352666
 30
0.0
 40
0.125
  1
11/16" x 11/16"
  0
TEXT
  5
36970
  8
0
 10
0.4294472000013169
 20
1.2009752994429861
 30
0.0
 40
0.125
  1
800.66.TAGUE
  0
ENDBLK
  5
36972
  8
0
  0
BLOCK
  8
0
  2
*U91
 70
     1
 10
0.0
 20
0.0
 30
0.0
  3
*U91
  1

  0
TEXT
  5
36974
  8
0
 10
1.9926440979760729
 20
0.67862269993522
 30
0.0
 40
0.125
  1
Column Mouldings
  0
TEXT
  5
36975
  8
0
 10
1.9972484635968091
 20
0.4697777704218047
 30
0.0
 40
0.125
  1
TL-2212
  0
TEXT
  5
36976
  8
0
 10
1.9823269083444219
 20
0.2593127863381302
 30
0.0
 40
0.125
  1
1-13/16" x 1-7/8"
  0
TEXT
  5
36977
  8
0
 10
1.994264152546332
 20
0.0488478022544559
 30
0.0
 40
0.125
  1
800.66.TAGUE
  0
ENDBLK
  5
36979
  8
0
  0
BLOCK
  8
0
  2
*U92
 70
     1
 10
0.0
 20
0.0
 30
0.0
  3
*U92
  1

  0
TEXT
  5
3697B
  8
0
 10
1.6834489538549959
 20
0.7751852708459115
 30
0.0
 40
0.125
  1
Column Mouldings
  0
TEXT
  5
3697C
  8
0
 10
1.688053319475733
 20
0.5663403413324964
 30
0.0
 40
0.125
  1
TL-2215
  0
TEXT
  5
3697D
  8
0
 10
1.673131764223345
 20
0.3558753572488219
 30
0.0
 40
0.125
  1
1/2" x 1"
  0
TEXT
  5
3697E
  8
0
 10
1.6850690084252551
 20
0.1454103731651475
 30
0.0
 40
0.125
  1
800.66.TAGUE
  0
ENDBLK
  5
36980
  8
0
  0
BLOCK
  8
0
  2
*U93
 70
     1
 10
0.0
 20
0.0
 30
0.0
  3
*U93
  1

  0
TEXT
  5
36982
  8
0
 10
1.6834489538549959
 20
0.7751852708459115
 30
0.0
 40
0.125
  1
Column Mouldings
  0
TEXT
  5
36983
  8
0
 10
1.688053319475733
 20
0.5663403413324964
 30
0.0
 40
0.125
  1
TL-2215
  0
TEXT
  5
36984
  8
0
 10
1.673131764223345
 20
0.3558753572488219
 30
0.0
 40
0.125
  1
1/2" x 1"
  0
TEXT
  5
36985
  8
0
 10
1.6850690084252551
 20
0.1454103731651475
 30
0.0
 40
0.125
  1
800.66.TAGUE
  0
ENDBLK
  5
36987
  8
0
  0
BLOCK
  8
0
  2
*U94
 70
     1
 10
0.0
 20
0.0
 30
0.0
  3
*U94
  1

  0
TEXT
  5
36989
  8
0
 10
2.2199536060229881
 20
0.9507943810130132
 30
0.0
 40
0.125
  1
Corner Moulding
  0
TEXT
  5
3698A
  8
0
 10
2.224557971643724
 20
0.7419494514995982
 30
0.0
 40
0.125
  1
TL-201
  0
TEXT
  5
3698B
  8
0
 10
2.2096364163913371
 20
0.5314844674159237
 30
0.0
 40
0.125
  1
1-3/8" x 1-3/8"
  0
TEXT
  5
3698C
  8
0
 10
2.221573660593247
 20
0.3210194833322493
 30
0.0
 40
0.125
  1
800.66.TAGUE
  0
ENDBLK
  5
3698E
  8
0
  0
BLOCK
  8
0
  2
*U95
 70
     1
 10
0.0
 20
0.0
 30
0.0
  3
*U95
  1

  0
TEXT
  5
36990
  8
0
 10
1.9663332328677019
 20
0.8425411796803405
 30
0.0
 40
0.125
  1
Corner Moulding
  0
TEXT
  5
36991
  8
0
 10
1.9709375984884381
 20
0.6336962501669256
 30
0.0
 40
0.125
  1
TL-202
  0
TEXT
  5
36992
  8
0
 10
1.9560160432360509
 20
0.423231266083251
 30
0.0
 40
0.125
  1
1-1/8" x 1-1/8"
  0
TEXT
  5
36993
  8
0
 10
1.9679532874379611
 20
0.2127662819995766
 30
0.0
 40
0.125
  1
800.66.TAGUE
  0
ENDBLK
  5
36995
  8
0
  0
BLOCK
  8
0
  2
*U96
 70
     1
 10
0.0
 20
0.0
 30
0.0
  3
*U96
  1

  0
TEXT
  5
36997
  8
0
 10
1.5905291641242101
 20
0.7214840869431943
 30
0.0
 40
0.125
  1
Corner Moulding
  0
TEXT
  5
36998
  8
0
 10
1.5951335297449469
 20
0.5126391574297791
 30
0.0
 40
0.125
  1
TL-203
  0
TEXT
  5
36999
  8
0
 10
1.5918934206044291
 20
0.3021741733461046
 30
0.0
 40
0.125
  1
3/4" x 3/4"
  0
TEXT
  5
3699A
  8
0
 10
1.592149218694469
 20
0.0917091892624302
 30
0.0
 40
0.125
  1
800.66.TAGUE
  0
ENDBLK
  5
3699C
  8
0
  0
BLOCK
  8
0
  2
*U97
 70
     1
 10
0.0
 20
0.0
 30
0.0
  3
*U97
  1

  0
TEXT
  5
3699E
  8
0
 10
1.935358187968665
 20
1.031573183991797
 30
0.0
 40
0.125
  1
Corner Moulding
  0
TEXT
  5
3699F
  8
0
 10
1.939962553589401
 20
0.8227282544783825
 30
0.0
 40
0.125
  1
TL-204
  0
TEXT
  5
369A0
  8
0
 10
1.925040998337014
 20
0.6122632703947081
 30
0.0
 40
0.125
  1
1-3/8" x 1-3/8"
  0
TEXT
  5
369A1
  8
0
 10
1.9369782425389239
 20
0.4017982863110337
 30
0.0
 40
0.125
  1
800.66.TAGUE
  0
ENDBLK
  5
369A3
  8
0
  0
BLOCK
  8
0
  2
*U98
 70
     1
 10
0.0
 20
0.0
 30
0.0
  3
*U98
  1

  0
TEXT
  5
369A5
  8
0
 10
1.8542205155787641
 20
0.9211791424976514
 30
0.0
 40
0.125
  1
Corner Moulding
  0
TEXT
  5
369A6
  8
0
 10
1.858824881199501
 20
0.7123342129842363
 30
0.0
 40
0.125
  1
TL-205
  0
TEXT
  5
369A7
  8
0
 10
1.8439033259471129
 20
0.5018692289005619
 30
0.0
 40
0.125
  1
1-1/8" x 1-1/8"
  0
TEXT
  5
369A8
  8
0
 10
1.855840570149023
 20
0.2914042448168874
 30
0.0
 40
0.125
  1
800.66.TAGUE
  0
ENDBLK
  5
369AA
  8
0
  0
BLOCK
  8
0
  2
*U99
 70
     1
 10
0.0
 20
0.0
 30
0.0
  3
*U99
  1

  0
TEXT
  5
369AC
  8
0
 10
1.334185060618698
 20
0.6786227981105119
 30
0.0
 40
0.125
  1
Corner Moulding
  0
TEXT
  5
369AD
  8
0
 10
1.3387894262394351
 20
0.4697778685970966
 30
0.0
 40
0.125
  1
TL-206
  0
TEXT
  5
369AE
  8
0
 10
1.3355493170989159
 20
0.2593128845134221
 30
0.0
 40
0.125
  1
3/4" x 3/4"
  0
TEXT
  5
369AF
  8
0
 10
1.3358051151889569
 20
0.0488479004297477
 30
0.0
 40
0.125
  1
800.66.TAGUE
  0
ENDBLK
  5
369B1
  8
0
  0
BLOCK
  8
0
  2
*U100
 70
     1
 10
0.0
 20
0.0
 30
0.0
  3
*U100
  1

  0
TEXT
  5
369B3
  8
0
 10
1.823849037637477
 20
0.8585475398531504
 30
0.0
 40
0.125
  1
Cove
  0
TEXT
  5
369B4
  8
0
 10
1.828453403258214
 20
0.6497026103397352
 30
0.0
 40
0.125
  1
TL-83
  0
TEXT
  5
369B5
  8
0
 10
1.825298560147709
 20
0.4392376262560608
 30
0.0
 40
0.125
  1
9/16" x 2-5/8"
  0
TEXT
  5
369B6
  8
0
 10
1.8254690922077359
 20
0.2287726421723863
 30
0.0
 40
0.125
  1
800.66.TAGUE
  0
ENDBLK
  5
369B8
  8
0
  0
BLOCK
  8
0
  2
*U101
 70
     1
 10
0.0
 20
0.0
 30
0.0
  3
*U101
  1

  0
TEXT
  5
369BA
  8
0
 10
1.4372220564187941
 20
0.6786219190419321
 30
0.0
 40
0.125
  1
Cove
  0
TEXT
  5
369BB
  8
0
 10
1.4418264220395309
 20
0.4697769895285169
 30
0.0
 40
0.125
  1
TL-86
  0
TEXT
  5
369BC
  8
0
 10
1.4386715789290261
 20
0.2593120054448424
 30
0.0
 40
0.125
  1
9/16" x 1-5/8"
  0
TEXT
  5
369BD
  8
0
 10
1.438842110989053
 20
0.048847021361168
 30
0.0
 40
0.125
  1
800.66.TAGUE
  0
ENDBLK
  5
369BF
  8
0
  0
BLOCK
  8
0
  2
*U102
 70
     1
 10
0.0
 20
0.0
 30
0.0
  3
*U102
  1

  0
TEXT
  5
369C1
  8
0
 10
1.5163761963436611
 20
0.6786216177161056
 30
0.0
 40
0.125
  1
Cove
  0
TEXT
  5
369C2
  8
0
 10
1.5209805619643979
 20
0.4697766882026904
 30
0.0
 40
0.125
  1
TL-100
  0
TEXT
  5
369C3
  8
0
 10
1.506059006712011
 20
0.2593117041190159
 30
0.0
 40
0.125
  1
11/16" x 11/16"
  0
TEXT
  5
369C4
  8
0
 10
1.5179962509139211
 20
0.0488467200353415
 30
0.0
 40
0.125
  1
800.66.TAGUE
  0
ENDBLK
  5
369C6
  8
0
  0
BLOCK
  8
0
  2
*U103
 70
     1
 10
0.0
 20
0.0
 30
0.0
  3
*U103
  1

  0
TEXT
  5
369C8
  8
0
 10
1.281862643234239
 20
0.6786219754701666
 30
0.0
 40
0.125
  1
Cove
  0
TEXT
  5
369C9
  8
0
 10
1.286467008854975
 20
0.4697770459567514
 30
0.0
 40
0.125
  1
TL-101
  0
TEXT
  5
369CA
  8
0
 10
1.2715454536025881
 20
0.259312061873077
 30
0.0
 40
0.125
  1
1/2" x 1/2"
  0
TEXT
  5
369CB
  8
0
 10
1.283482697804498
 20
0.0488470777894026
 30
0.0
 40
0.125
  1
800.66.TAGUE
  0
ENDBLK
  5
369CD
  8
0
  0
BLOCK
  8
0
  2
*U104
 70
     1
 10
0.0
 20
0.0
 30
0.0
  3
*U104
  1

  0
TEXT
  5
369CF
  8
0
 10
8.9871190848671514
 20
3.8959346082645121
 30
0.0
 40
0.125
  1
Cove
  0
TEXT
  5
369D0
  8
0
 10
8.9917234504878873
 20
3.6870896787510969
 30
0.0
 40
0.125
  1
TL-542
  0
TEXT
  5
369D1
  8
0
 10
8.9884833413473686
 20
3.4766246946674229
 30
0.0
 40
0.125
  1
3/4" x 4"
  0
TEXT
  5
369D2
  8
0
 10
8.9887391394374099
 20
3.2661597105837492
 30
0.0
 40
0.125
  1
800.66.TAGUE
  0
ENDBLK
  5
369D4
  8
0
  0
BLOCK
  8
0
  2
*U105
 70
     1
 10
0.0
 20
0.0
 30
0.0
  3
*U105
  1

  0
TEXT
  5
369D6
  8
0
 10
2.0449744451125631
 20
2.5585391787528962
 30
0.0
 40
0.125
  1
Cove
  0
TEXT
  5
369D7
  8
0
 10
2.0495788107332991
 20
2.349694249239481
 30
0.0
 40
0.125
  1
TL-542
  0
TEXT
  5
369D8
  8
0
 10
2.0463387015927812
 20
2.139229265155806
 30
0.0
 40
0.125
  1
3/4" x 4"
  0
TEXT
  5
369D9
  8
0
 10
2.046594499682822
 20
1.9287642810721319
 30
0.0
 40
0.125
  1
800.66.TAGUE
  0
ENDBLK
  5
369DB
  8
0
  0
BLOCK
  8
0
  2
*U106
 70
     1
 10
0.0
 20
0.0
 30
0.0
  3
*U106
  1

  0
TEXT
  5
369DD
  8
0
 10
1.972901825589735
 20
0.6861779570716795
 30
0.0
 40
0.125
  1
Cove
  0
TEXT
  5
369DE
  8
0
 10
1.977506191210471
 20
0.4773330275582644
 30
0.0
 40
0.125
  1
TL-2285
  0
TEXT
  5
369DF
  8
0
 10
1.9625846359580841
 20
0.2176457378811383
 30
0.0
 40
0.125
  1
1-
  0
TEXT
  5
369E0
  8
0
 10
2.1127371939389841
 20
0.3048707378811382
 30
0.0
 40
0.087225
  1
3
  0
LINE
  5
369E1
  8
0
 10
2.139480062265986
 20
0.233420200818031
 30
0.0
 11
2.2395404715874259
 21
0.3763212749442456
 31
0.0
  0
TEXT
  5
369E2
  8
0
 10
2.202500802397374
 20
0.1885707378811383
 30
0.0
 40
0.087225
  1
4
  0
TEXT
  5
369E3
  8
0
 10
2.2702102498735002
 20
0.2176457378811383
 30
0.0
 40
0.125
  1
" x 1-
  0
TEXT
  5
369E4
  8
0
 10
2.6666963685638141
 20
0.3048707378811382
 30
0.0
 40
0.087225
  1
3
  0
LINE
  5
369E5
  8
0
 10
2.6934392368908151
 20
0.233420200818031
 30
0.0
 11
2.793499646212255
 21
0.3763212749442456
 31
0.0
  0
TEXT
  5
369E6
  8
0
 10
2.756459977022204
 20
0.1885707378811383
 30
0.0
 40
0.087225
  1
4
  0
TEXT
  5
369E7
  8
0
 10
2.8241694244983289
 20
0.2176457378811383
 30
0.0
 40
0.125
  1
"
  0
TEXT
  5
369E8
  8
0
 10
1.974521880159994
 20
0.0488474204641306
 30
0.0
 40
0.125
  1
800.66.TAGUE
  0
ENDBLK
  5
369EA
  8
0
  0
BLOCK
  8
0
  2
*U107
 70
     1
 10
0.0
 20
0.0
 30
0.0
  3
*U107
  1

  0
TEXT
  5
369EC
  8
0
 10
6.0916813895717663
 20
1.1589680224542569
 30
0.0
 40
0.125
  1
TL-539
  0
ENDBLK
  5
369EE
  8
0
  0
BLOCK
  8
0
  2
*U108
 70
     1
 10
0.0
 20
0.0
 30
0.0
  3
*U108
  1

  0
INSERT
  5
369F0
  8
0
  2
_OPEN30
 10
5.5297396917334254
 20
1.423040350996984
 30
0.0
 41
0.046875
 42
0.046875
 43
0.046875
 50
156.5115553320598
  0
POLYLINE
  5
369F1
  8
0
 66
     1
 10
0.0
 20
0.0
 30
0.0
  0
VERTEX
  5
369F2
  8
0
 10
5.5727306514936332
 20
1.404357658367275
 30
0.0
  0
VERTEX
  5
369F3
  8
0
 10
5.992991484785648
 20
1.221723820544298
 30
0.0
  0
VERTEX
  5
369F4
  8
0
 10
6.0332741590124206
 20
1.221723820544298
 30
0.0
  0
SEQEND
  5
369F5
  8
0
  0
ENDBLK
  5
369F7
  8
0
  0
BLOCK
  8
0
  2
*U109
 70
     1
 10
0.0
 20
0.0
 30
0.0
  3
*U109
  1

  0
TEXT
  5
369F9
  8
0
 10
8.2506161076617612
 20
3.659671552769634
 30
0.0
 40
0.125
  1
TL-25
  0
ENDBLK
  5
369FB
  8
0
  0
BLOCK
  8
0
  2
*U110
 70
     1
 10
0.0
 20
0.0
 30
0.0
  3
*U110
  1

  0
INSERT
  5
369FD
  8
0
  2
_OPEN30
 10
7.5943396585593632
 20
4.1117705265849054
 30
0.0
 41
0.046875
 42
0.046875
 43
0.046875
 50
143.83030806409641
  0
POLYLINE
  5
369FE
  8
0
 66
     1
 10
0.0
 20
0.0
 30
0.0
  0
VERTEX
  5
369FF
  8
0
 10
7.6321805623951144
 20
4.0841058989551424
 30
0.0
  0
VERTEX
  5
36A00
  8
0
 10
8.1269005109553518
 20
3.7224273508596748
 30
0.0
  0
VERTEX
  5
36A01
  8
0
 10
8.1922088771024164
 20
3.7224273508596748
 30
0.0
  0
SEQEND
  5
36A02
  8
0
  0
ENDBLK
  5
36A04
  8
0
  0
BLOCK
  8
0
  2
*U111
 70
     1
 10
0.0
 20
0.0
 30
0.0
  3
*U111
  1

  0
TEXT
  5
36A06
  8
0
 10
7.4510287652605358
 20
2.3081779177865811
 30
0.0
 40
0.125
  1
Crown Assembly
  0
TEXT
  5
36A07
  8
0
 10
7.4556331308812718
 20
2.0993329882731659
 30
0.0
 40
0.125
  1
TL-660
  0
TEXT
  5
36A08
  8
0
 10
7.4523930217407539
 20
1.888868004189491
 30
0.0
 40
0.125
  1
3-1/4" x 5-5/8"
  0
TEXT
  5
36A09
  8
0
 10
7.4526488198307952
 20
1.6784030201058171
 30
0.0
 40
0.125
  1
800.66.TAGUE
  0
ENDBLK
  5
36A0B
  8
0
  0
BLOCK
  8
0
  2
*U112
 70
     1
 10
0.0
 20
0.0
 30
0.0
  3
*U112
  1

  0
TEXT
  5
36A0D
  8
0
 10
11.100877515101759
 20
4.3482389803681532
 30
0.0
 40
0.125
  1
Crown Assembly
  0
TEXT
  5
36A0E
  8
0
 10
11.1054818807225
 20
4.1393940508547384
 30
0.0
 40
0.125
  1
TL-661
  0
TEXT
  5
36A0F
  8
0
 10
11.1073577333828
 20
3.928929066771063
 30
0.0
 40
0.125
  1
4-1/2" x 9-3/8"
  0
TEXT
  5
36A10
  8
0
 10
11.102497569672019
 20
3.7184640826873889
 30
0.0
 40
0.125
  1
800.66.TAGUE
  0
ENDBLK
  5
36A12
  8
0
  0
BLOCK
  8
0
  2
*U113
 70
     1
 10
0.0
 20
0.0
 30
0.0
  3
*U113
  1

  0
TEXT
  5
36A14
  8
0
 10
9.9973648083120619
 20
4.7141156879961379
 30
0.0
 40
0.125
  1
TL-238
  0
ENDBLK
  5
36A16
  8
0
  0
BLOCK
  8
0
  2
*U114
 70
     1
 10
0.0
 20
0.0
 30
0.0
  3
*U114
  1

  0
INSERT
  5
36A18
  8
0
  2
_OPEN30
 10
9.1771961149673302
 20
5.3422014599419754
 30
0.0
 41
0.046875
 42
0.046875
 43
0.046875
 50
140.13823031629951
  0
POLYLINE
  5
36A19
  8
0
 66
     1
 10
0.0
 20
0.0
 30
0.0
  0
VERTEX
  5
36A1A
  8
0
 10
9.2131770361390952
 20
5.3121575098582854
 30
0.0
  0
VERTEX
  5
36A1B
  8
0
 10
9.8542406836302234
 20
4.7768714860861792
 30
0.0
  0
VERTEX
  5
36A1C
  8
0
 10
9.938957577752717
 20
4.7768714860861792
 30
0.0
  0
SEQEND
  5
36A1D
  8
0
  0
ENDBLK
  5
36A1F
  8
0
  0
BLOCK
  8
0
  2
*U115
 70
     1
 10
0.0
 20
0.0
 30
0.0
  3
*U115
  1

  0
TEXT
  5
36A21
  8
0
 10
9.2979572148710243
 20
1.0810665778271971
 30
0.0
 40
0.125
  1
TL-64
  0
ENDBLK
  5
36A23
  8
0
  0
BLOCK
  8
0
  2
*U116
 70
     1
 10
0.0
 20
0.0
 30
0.0
  3
*U116
  1

  0
INSERT
  5
36A25
  8
0
  2
_OPEN30
 10
8.6422745705577313
 20
1.642559297640787
 30
0.0
 41
0.046875
 42
0.046875
 43
0.046875
 50
135.79936825235271
  0
POLYLINE
  5
36A26
  8
0
 66
     1
 10
0.0
 20
0.0
 30
0.0
  0
VERTEX
  5
36A27
  8
0
 10
8.6758793949613793
 20
1.6098793129131279
 30
0.0
  0
VERTEX
  5
36A28
  8
0
 10
9.1442411396712941
 20
1.1544073699477619
 30
0.0
  0
VERTEX
  5
36A29
  8
0
 10
9.2395499843116795
 20
1.1438223759172379
 30
0.0
  0
SEQEND
  5
36A2A
  8
0
  0
ENDBLK
  5
36A2C
  8
0
  0
BLOCK
  8
0
  2
*U117
 70
     1
 10
0.0
 20
0.0
 30
0.0
  3
*U117
  1

  0
TEXT
  5
36A2E
  8
0
 10
8.7532801379956631
 20
2.9571153571353181
 30
0.0
 40
0.125
  1
1 x 6 Board
  0
ENDBLK
  5
36A30
  8
0
  0
BLOCK
  8
0
  2
*U118
 70
     1
 10
0.0
 20
0.0
 30
0.0
  3
*U118
  1

  0
INSERT
  5
36A32
  8
0
  2
_OPEN30
 10
8.1167699671577793
 20
3.019871155225359
 30
0.0
 41
0.046875
 42
0.046875
 43
0.046875
 50
180.0
  0
POLYLINE
  5
36A33
  8
0
 66
     1
 10
0.0
 20
0.0
 30
0.0
  0
VERTEX
  5
36A34
  8
0
 10
8.1636449671577793
 20
3.019871155225359
 30
0.0
  0
VERTEX
  5
36A35
  8
0
 10
8.7097944626887056
 20
3.019871155225359
 30
0.0
  0
SEQEND
  5
36A36
  8
0
  0
ENDBLK
  5
36A38
  8
0
  0
BLOCK
  8
0
  2
*U119
 70
     1
 10
0.0
 20
0.0
 30
0.0
  3
*U119
  1

  0
TEXT
  5
36A3A
  8
0
 10
9.3508379695960624
 20
3.9746409328325849
 30
0.0
 40
0.125
  1
TL-54
  0
ENDBLK
  5
36A3C
  8
0
  0
BLOCK
  8
0
  2
*U120
 70
     1
 10
0.0
 20
0.0
 30
0.0
  3
*U120
  1

  0
INSERT
  5
36A3E
  8
0
  2
_OPEN30
 10
8.5596004878627241
 20
4.5802047155393657
 30
0.0
 41
0.046875
 42
0.046875
 43
0.046875
 50
140.0397693589118
  0
POLYLINE
  5
36A3F
  8
0
 66
     1
 10
0.0
 20
0.0
 30
0.0
  0
VERTEX
  5
36A40
  8
0
 10
8.59552972636817
 20
4.5500989777902472
 30
0.0
  0
VERTEX
  5
36A41
  8
0
 10
9.2077117660230652
 20
4.0371409328325853
 30
0.0
  0
VERTEX
  5
36A42
  8
0
 10
9.2924307390367176
 20
4.0371409328325853
 30
0.0
  0
SEQEND
  5
36A43
  8
0
  0
ENDBLK
  5
36A45
  8
0
  0
BLOCK
  8
0
  2
*U121
 70
     1
 10
0.0
 20
0.0
 30
0.0
  3
*U121
  1

  0
TEXT
  5
36A47
  8
0
 10
11.67173909884349
 20
7.0992410855625394
 30
0.0
 40
0.125
  1
TL-47
  0
ENDBLK
  5
36A49
  8
0
  0
BLOCK
  8
0
  2
*U122
 70
     1
 10
0.0
 20
0.0
 30
0.0
  3
*U122
  1

  0
INSERT
  5
36A4B
  8
0
  2
_OPEN30
 10
10.865727544193421
 20
7.6405095440040887
 30
0.0
 41
0.046875
 42
0.046875
 43
0.046875
 50
143.72235556643869
  0
POLYLINE
  5
36A4C
  8
0
 66
     1
 10
0.0
 20
0.0
 30
0.0
  0
VERTEX
  5
36A4D
  8
0
 10
10.903516257235109
 20
7.6127736684698251
 30
0.0
  0
VERTEX
  5
36A4E
  8
0
 10
11.518025102534921
 20
7.1617410855625394
 30
0.0
  0
VERTEX
  5
36A4F
  8
0
 10
11.613331868284151
 20
7.1617410855625394
 30
0.0
  0
SEQEND
  5
36A50
  8
0
  0
ENDBLK
  5
36A52
  8
0
  0
BLOCK
  8
0
  2
*U123
 70
     1
 10
0.0
 20
0.0
 30
0.0
  3
*U123
  1

  0
TEXT
  5
36A54
  8
0
 10
10.306078575796199
 20
1.991254863143028
 30
0.0
 40
0.125
  1
Crown Assembly
  0
TEXT
  5
36A55
  8
0
 10
10.31068294141693
 20
1.7824099336296131
 30
0.0
 40
0.125
  1
TL-662
  0
TEXT
  5
36A56
  8
0
 10
10.31255879407723
 20
1.5719449495459381
 30
0.0
 40
0.125
  1
4-3/8" x 5"
  0
TEXT
  5
36A57
  8
0
 10
10.307698630366451
 20
1.361479965462264
 30
0.0
 40
0.125
  1
800.66.TAGUE
  0
ENDBLK
  5
36A59
  8
0
  0
BLOCK
  8
0
  2
*U124
 70
     1
 10
0.0
 20
0.0
 30
0.0
  3
*U124
  1

  0
TEXT
  5
36A5B
  8
0
 10
8.4907133848708494
 20
0.0967622511747205
 30
0.0
 40
0.125
  1
TL-623
  0
ENDBLK
  5
36A5D
  8
0
  0
BLOCK
  8
0
  2
*U125
 70
     1
 10
0.0
 20
0.0
 30
0.0
  3
*U125
  1

  0
INSERT
  5
36A5F
  8
0
  2
_OPEN30
 10
7.8166701362065956
 20
0.6199995871735382
 30
0.0
 41
0.046875
 42
0.046875
 43
0.046875
 50
138.3966245586565
  0
POLYLINE
  5
36A60
  8
0
 66
     1
 10
0.0
 20
0.0
 30
0.0
  0
VERTEX
  5
36A61
  8
0
 10
7.8517213381880619
 20
0.588875980945235
 30
0.0
  0
VERTEX
  5
36A62
  8
0
 10
8.3352614355432024
 20
0.1595180492647614
 30
0.0
  0
VERTEX
  5
36A63
  8
0
 10
8.4323061543115045
 20
0.1595180492647614
 30
0.0
  0
SEQEND
  5
36A64
  8
0
  0
ENDBLK
  5
36A66
  8
0
  0
BLOCK
  8
0
  2
*U126
 70
     1
 10
0.0
 20
0.0
 30
0.0
  3
*U126
  1

  0
TEXT
  5
36A68
  8
0
 10
9.5905632324050352
 20
2.4357622671589061
 30
0.0
 40
0.125
  1
TL-547
  0
ENDBLK
  5
36A6A
  8
0
  0
BLOCK
  8
0
  2
*U127
 70
     1
 10
0.0
 20
0.0
 30
0.0
  3
*U127
  1

  0
INSERT
  5
36A6C
  8
0
  2
_OPEN30
 10
8.9379372763926312
 20
3.012476083171463
 30
0.0
 41
0.046875
 42
0.046875
 43
0.046875
 50
134.64930297028991
  0
POLYLINE
  5
36A6D
  8
0
 66
     1
 10
0.0
 20
0.0
 30
0.0
  0
VERTEX
  5
36A6E
  8
0
 10
8.9708794087728574
 20
2.9791281965930958
 30
0.0
  0
VERTEX
  5
36A6F
  8
0
 10
9.4458944915828624
 20
2.4982622671589061
 30
0.0
  0
VERTEX
  5
36A70
  8
0
 10
9.5321560018456921
 20
2.4982622671589061
 30
0.0
  0
SEQEND
  5
36A71
  8
0
  0
ENDBLK
  5
36A73
  8
0
  0
BLOCK
  8
0
  2
*U128
 70
     1
 10
0.0
 20
0.0
 30
0.0
  3
*U128
  1

  0
TEXT
  5
36A75
  8
0
 10
11.520691030397129
 20
3.912039811269675
 30
0.0
 40
0.125
  1
TL-623
  0
ENDBLK
  5
36A77
  8
0
  0
BLOCK
  8
0
  2
*U129
 70
     1
 10
0.0
 20
0.0
 30
0.0
  3
*U129
  1

  0
INSERT
  5
36A79
  8
0
  2
_OPEN30
 10
11.020454893837719
 20
4.3488596077285129
 30
0.0
 41
0.046875
 42
0.046875
 43
0.046875
 50
131.85755087258991
  0
POLYLINE
  5
36A7A
  8
0
 66
     1
 10
0.0
 20
0.0
 30
0.0
  0
VERTEX
  5
36A7B
  8
0
 10
11.051733687379979
 20
4.3139468206793472
 30
0.0
  0
VERTEX
  5
36A7C
  8
0
 10
11.36523908106949
 20
3.9640181370855312
 30
0.0
  0
VERTEX
  5
36A7D
  8
0
 10
11.46302804287723
 20
3.9642485872277571
 30
0.0
  0
SEQEND
  5
36A7E
  8
0
  0
ENDBLK
  5
36A80
  8
0
  0
BLOCK
  8
0
  2
*U130
 70
     1
 10
0.0
 20
0.0
 30
0.0
  3
*U130
  1

  0
TEXT
  5
36A82
  8
0
 10
9.2456145386519548
 20
1.830235825918082
 30
0.0
 40
0.125
  1
Crown Assembly
  0
TEXT
  5
36A83
  8
0
 10
9.2502189042726908
 20
1.621390896404667
 30
0.0
 40
0.125
  1
TL-663
  0
TEXT
  5
36A84
  8
0
 10
9.2491957119125274
 20
1.4109259123209921
 30
0.0
 40
0.125
  1
2-11/16" x 4-1/4"
  0
TEXT
  5
36A85
  8
0
 10
9.2472345932222133
 20
1.200460928237318
 30
0.0
 40
0.125
  1
800.66.TAGUE
  0
ENDBLK
  5
36A87
  8
0
  0
BLOCK
  8
0
  2
*U131
 70
     1
 10
0.0
 20
0.0
 30
0.0
  3
*U131
  1

  0
TEXT
  5
36A89
  8
0
 10
7.0011486317315006
 20
0.0994237416013103
 30
0.0
 40
0.125
  1
TL-56
  0
ENDBLK
  5
36A8B
  8
0
  0
BLOCK
  8
0
  2
*U132
 70
     1
 10
0.0
 20
0.0
 30
0.0
  3
*U132
  1

  0
INSERT
  5
36A8D
  8
0
  2
_OPEN30
 10
6.1447636050547771
 20
0.8025867523464285
 30
0.0
 41
0.046875
 42
0.046875
 43
0.046875
 50
136.0557062383902
  0
POLYLINE
  5
36A8E
  8
0
 66
     1
 10
0.0
 20
0.0
 30
0.0
  0
VERTEX
  5
36A8F
  8
0
 10
6.1785143010030019
 20
0.7700574402109038
 30
0.0
  0
VERTEX
  5
36A90
  8
0
 10
6.8092163001293784
 20
0.1621795396913512
 30
0.0
  0
VERTEX
  5
36A91
  8
0
 10
6.9427414011721558
 20
0.1621795396913512
 30
0.0
  0
SEQEND
  5
36A92
  8
0
  0
ENDBLK
  5
36A94
  8
0
  0
BLOCK
  8
0
  2
*U133
 70
     1
 10
0.0
 20
0.0
 30
0.0
  3
*U133
  1

  0
TEXT
  5
36A96
  8
0
 10
7.4758184206721721
 20
1.2018846043570841
 30
0.0
 40
0.125
  1
1-1/16" x 1-7/8"
  0
TEXT
  5
36A97
  8
0
 10
7.4943211491851329
 20
0.9914196202734098
 30
0.0
 40
0.125
  1
w/ 3/8" Bead
  0
ENDBLK
  5
36A99
  8
0
  0
BLOCK
  8
0
  2
*U134
 70
     1
 10
0.0
 20
0.0
 30
0.0
  3
*U134
  1

  0
INSERT
  5
36A9B
  8
0
  2
_OPEN30
 10
6.8403616286130378
 20
1.6201217739683209
 30
0.0
 41
0.046875
 42
0.046875
 43
0.046875
 50
143.32430708272619
  0
POLYLINE
  5
36A9C
  8
0
 66
     1
 10
0.0
 20
0.0
 30
0.0
  0
VERTEX
  5
36A9D
  8
0
 10
6.8779567430390864
 20
1.592124041983527
 30
0.0
  0
VERTEX
  5
36A9E
  8
0
 10
7.316611268313749
 20
1.265450429732254
 30
0.0
  0
VERTEX
  5
36A9F
  8
0
 10
7.4323327453652146
 20
1.265450429732254
 30
0.0
  0
SEQEND
  5
36AA0
  8
0
  0
ENDBLK
  5
36AA2
  8
0
  0
BLOCK
  8
0
  2
*U135
 70
     1
 10
0.0
 20
0.0
 30
0.0
  3
*U135
  1

  0
TEXT
  5
36AA4
  8
0
 10
8.2206740073252771
 20
2.3682472913577719
 30
0.0
 40
0.125
  1
TL-71
  0
ENDBLK
  5
36AA6
  8
0
  0
BLOCK
  8
0
  2
*U136
 70
     1
 10
0.0
 20
0.0
 30
0.0
  3
*U136
  1

  0
INSERT
  5
36AA8
  8
0
  2
_OPEN30
 10
7.732786633242994
 20
2.897502127018015
 30
0.0
 41
0.046875
 42
0.046875
 43
0.046875
 50
127.3606991348481
  0
POLYLINE
  5
36AA9
  8
0
 66
     1
 10
0.0
 20
0.0
 30
0.0
  0
VERTEX
  5
36AAA
  8
0
 10
7.7612318262646021
 20
2.8602444215201781
 30
0.0
  0
VERTEX
  5
36AAB
  8
0
 10
8.0821525476966372
 20
2.4399002980619571
 30
0.0
  0
VERTEX
  5
36AAC
  8
0
 10
8.1622667767659323
 20
2.4310030894478132
 30
0.0
  0
SEQEND
  5
36AAD
  8
0
  0
ENDBLK
  5
36AAF
  8
0
  0
BLOCK
  8
0
  2
*U137
 70
     1
 10
0.0
 20
0.0
 30
0.0
  3
*U137
  1

  0
TEXT
  5
36AB1
  8
0
 10
8.3234330435333614
 20
1.414021240929644
 30
0.0
 40
0.125
  1
Crown Assembly
  0
TEXT
  5
36AB2
  8
0
 10
8.3280374091540974
 20
1.2051763114162291
 30
0.0
 40
0.125
  1
TL-664
  0
TEXT
  5
36AB3
  8
0
 10
8.3247973000135786
 20
0.9947113273325546
 30
0.0
 40
0.125
  1
3-1/16" x 4-1/4"
  0
TEXT
  5
36AB4
  8
0
 10
8.3250530981036182
 20
0.7842463432488803
 30
0.0
 40
0.125
  1
800.66.TAGUE
  0
ENDBLK
  5
36AB6
  8
0
  0
BLOCK
  8
0
  2
*U138
 70
     1
 10
0.0
 20
0.0
 30
0.0
  3
*U138
  1

  0
TEXT
  5
36AB8
  8
0
 10
6.7733031137018482
 20
0.0417615579446075
 30
0.0
 40
0.125
  1
TL-B3
  0
ENDBLK
  5
36ABA
  8
0
  0
BLOCK
  8
0
  2
*U139
 70
     1
 10
0.0
 20
0.0
 30
0.0
  3
*U139
  1

  0
INSERT
  5
36ABC
  8
0
  2
_OPEN30
 10
6.0277617672714987
 20
0.5589010370247252
 30
0.0
 41
0.046875
 42
0.046875
 43
0.046875
 50
143.10777595702231
  0
POLYLINE
  5
36ABD
  8
0
 66
     1
 10
0.0
 20
0.0
 30
0.0
  0
VERTEX
  5
36ABE
  8
0
 10
6.065250804980173
 20
0.5307614265676202
 30
0.0
  0
VERTEX
  5
36ABF
  8
0
 10
6.6427250972388938
 20
0.0973040047092582
 30
0.0
  0
VERTEX
  5
36AC0
  8
0
 10
6.716868750864136
 20
0.0942112590512352
 30
0.0
  0
SEQEND
  5
36AC1
  8
0
  0
ENDBLK
  5
36AC3
  8
0
  0
BLOCK
  8
0
  2
*U140
 70
     1
 10
0.0
 20
0.0
 30
0.0
  3
*U140
  1

  0
TEXT
  5
36AC5
  8
0
 10
7.886387182432661
 20
2.2482273942292861
 30
0.0
 40
0.125
  1
TL-49
  0
ENDBLK
  5
36AC7
  8
0
  0
BLOCK
  8
0
  2
*U141
 70
     1
 10
0.0
 20
0.0
 30
0.0
  3
*U141
  1

  0
INSERT
  5
36AC9
  8
0
  2
_OPEN30
 10
7.253797201372719
 20
2.7268635825205361
 30
0.0
 41
0.046875
 42
0.046875
 43
0.046875
 50
136.21869819866211
  0
POLYLINE
  5
36ACA
  8
0
 66
     1
 10
0.0
 20
0.0
 30
0.0
  0
VERTEX
  5
36ACB
  8
0
 10
7.2876402982734163
 20
2.6944304140479658
 30
0.0
  0
VERTEX
  5
36ACC
  8
0
 10
7.6877566634765344
 20
2.310983192319326
 30
0.0
  0
VERTEX
  5
36ACD
  8
0
 10
7.8279799518733171
 20
2.310983192319326
 30
0.0
  0
SEQEND
  5
36ACE
  8
0
  0
ENDBLK
  5
36AD0
  8
0
  0
BLOCK
  8
0
  2
*U142
 70
     1
 10
0.0
 20
0.0
 30
0.0
  3
*U142
  1

  0
INSERT
  5
36AD2
  8
0
  6
CONTINUOUS
  2
_OPEN30
 10
16.890010925503759
 20
4.0998827605750421
 30
0.0
 41
0.046875
 42
0.046875
 43
0.046875
 50
220.32439975277339
  0
POLYLINE
  5
36AD3
  8
0
  6
CONTINUOUS
 66
     1
 10
0.0
 20
0.0
 30
0.0
  0
VERTEX
  5
36AD4
  8
0
  6
CONTINUOUS
 10
16.92574808899867
 20
4.1302162531259778
 30
0.0
  0
VERTEX
  5
36AD5
  8
0
  6
CONTINUOUS
 10
17.378553106259119
 20
4.5145544678824763
 30
0.0
  0
VERTEX
  5
36AD6
  8
0
  6
CONTINUOUS
 10
17.468327545948402
 20
4.5145544678824763
 30
0.0
  0
SEQEND
  5
36AD7
  8
0
  6
CONTINUOUS
  0
ENDBLK
  5
36AD9
  8
0
  0
BLOCK
  8
0
  2
*U143
 70
     1
 10
0.0
 20
0.0
 30
0.0
  3
*U143
  1

  0
TEXT
  5
36ADB
  8
0
 10
17.526734776507741
 20
4.451798669792435
 30
0.0
 40
0.125
  1
TL-542
  0
ENDBLK
  5
36ADD
  8
0
  0
BLOCK
  8
0
  2
*U144
 70
     1
 10
0.0
 20
0.0
 30
0.0
  3
*U144
  1

  0
INSERT
  5
36ADF
  8
0
  6
CONTINUOUS
  2
_OPEN30
 10
13.390010925503759
 20
4.5373827605750421
 30
0.0
 41
0.046875
 42
0.046875
 43
0.046875
 50
110.44249644019671
  0
POLYLINE
  5
36AE0
  8
0
  6
CONTINUOUS
 66
     1
 10
0.0
 20
0.0
 30
0.0
  0
VERTEX
  5
36AE1
  8
0
  6
CONTINUOUS
 10
13.40638282250643
 20
4.4934597983168567
 30
0.0
  0
VERTEX
  5
36AE2
  8
0
  6
CONTINUOUS
 10
13.78538853520223
 20
3.4766531563219578
 30
0.0
  0
VERTEX
  5
36AE3
  8
0
  6
CONTINUOUS
 10
13.93846127658429
 20
3.4766531563219578
 30
0.0
  0
SEQEND
  5
36AE4
  8
0
  6
CONTINUOUS
  0
ENDBLK
  5
36AE6
  8
0
  0
BLOCK
  8
0
  2
*U145
 70
     1
 10
0.0
 20
0.0
 30
0.0
  3
*U145
  1

  0
TEXT
  5
36AE8
  8
0
 10
13.981946951891249
 20
3.413897358231917
 30
0.0
 40
0.125
  1
1 x 6 Board
  0
ENDBLK
  5
36AEA
  8
0
  0
BLOCK
  8
0
  2
*U146
 70
     1
 10
0.0
 20
0.0
 30
0.0
  3
*U146
  1

  0
INSERT
  5
36AEC
  8
0
  6
CONTINUOUS
  2
_OPEN30
 10
11.87770156644649
 20
2.3649564226565181
 30
0.0
 41
0.046875
 42
0.046875
 43
0.046875
 50
130.18882139360491
  0
POLYLINE
  5
36AED
  8
0
  6
CONTINUOUS
 66
     1
 10
0.0
 20
0.0
 30
0.0
  0
VERTEX
  5
36AEE
  8
0
  6
CONTINUOUS
 10
11.907950409704521
 20
2.3291475814779599
 30
0.0
  0
VERTEX
  5
36AEF
  8
0
  6
CONTINUOUS
 10
12.248739654318509
 20
1.9257183385265071
 30
0.0
  0
VERTEX
  5
36AF0
  8
0
  6
CONTINUOUS
 10
12.312149687699391
 20
1.9257183385265071
 30
0.0
  0
SEQEND
  5
36AF1
  8
0
  6
CONTINUOUS
  0
ENDBLK
  5
36AF3
  8
0
  0
BLOCK
  8
0
  2
*U147
 70
     1
 10
0.0
 20
0.0
 30
0.0
  3
*U147
  1

  0
TEXT
  5
36AF5
  8
0
 10
12.37055691825873
 20
1.862962540436466
 30
0.0
 40
0.125
  1
TL-33
  0
ENDBLK
  5
36AF7
  8
0
  0
BLOCK
  8
0
  2
*U148
 70
     1
 10
0.0
 20
0.0
 30
0.0
  3
*U148
  1

  0
INSERT
  5
36AF9
  8
0
  6
CONTINUOUS
  2
_OPEN30
 10
18.394001282817442
 20
6.4209189786757861
 30
0.0
 41
0.046875
 42
0.046875
 43
0.046875
 50
123.0920274041645
  0
POLYLINE
  5
36AFA
  8
0
  6
CONTINUOUS
 66
     1
 10
0.0
 20
0.0
 30
0.0
  0
VERTEX
  5
36AFB
  8
0
  6
CONTINUOUS
 10
18.419594347917641
 20
6.38164735222899
 30
0.0
  0
VERTEX
  5
36AFC
  8
0
  6
CONTINUOUS
 10
18.6491653891635
 20
6.0293789490693817
 30
0.0
  0
VERTEX
  5
36AFD
  8
0
  6
CONTINUOUS
 10
18.752054828682841
 20
6.0293789490693817
 30
0.0
  0
SEQEND
  5
36AFE
  8
0
  6
CONTINUOUS
  0
ENDBLK
  5
36B00
  8
0
  0
BLOCK
  8
0
  2
*U149
 70
     1
 10
0.0
 20
0.0
 30
0.0
  3
*U149
  1

  0
TEXT
  5
36B02
  8
0
 10
18.810462059242191
 20
5.9666231509793421
 30
0.0
 40
0.125
  1
TL-24
  0
ENDBLK
  5
36B04
  8
0
  0
BLOCK
  8
0
  2
*U150
 70
     1
 10
0.0
 20
0.0
 30
0.0
  3
*U150
  1

  0
TEXT
  5
36B06
  8
0
 10
15.59678431273241
 20
2.213317815843554
 30
0.0
 40
0.125
  1
Crown Assembly
  0
TEXT
  5
36B07
  8
0
 10
15.60138867835315
 20
2.0044728863301389
 30
0.0
 40
0.125
  1
TL-665
  0
TEXT
  5
36B08
  8
0
 10
15.59840436730267
 20
1.7940079022464639
 30
0.0
 40
0.125
  1
8-3/8" x 7-7/8"
  0
TEXT
  5
36B09
  8
0
 10
15.59840436730267
 20
1.58354291816279
 30
0.0
 40
0.125
  1
800.66.TAGUE
  0
ENDBLK
  5
36B0B
  8
0
  0
BLOCK
  8
0
  2
*U151
 70
     1
 10
0.0
 20
0.0
 30
0.0
  3
*U151
  1

  0
TEXT
  5
36B0D
  8
0
 10
7.9349246968354574
 20
1.686007980218635
 30
0.0
 40
0.125
  1
Crown Assembly
  0
TEXT
  5
36B0E
  8
0
 10
7.9395290624561934
 20
1.47716305070522
 30
0.0
 40
0.125
  1
TL-667
  0
TEXT
  5
36B0F
  8
0
 10
7.93850587009603
 20
1.266698066621545
 30
0.0
 40
0.125
  1
2-5/16" x 3-3/4"
  0
TEXT
  5
36B10
  8
0
 10
7.936544751405715
 20
1.056233082537871
 30
0.0
 40
0.125
  1
800.66.TAGUE
  0
ENDBLK
  5
36B12
  8
0
  0
BLOCK
  8
0
  2
*U152
 70
     1
 10
0.0
 20
0.0
 30
0.0
  3
*U152
  1

  0
INSERT
  5
36B14
  8
0
  6
CONTINUOUS
  2
_OPEN30
 10
7.009055351416122
 20
3.050768134400982
 30
0.0
 41
0.046875
 42
0.046875
 43
0.046875
 50
142.35807926426151
  0
POLYLINE
  5
36B15
  8
0
  6
CONTINUOUS
 66
     1
 10
0.0
 20
0.0
 30
0.0
  0
VERTEX
  5
36B16
  8
0
  6
CONTINUOUS
 10
7.0461729927749328
 20
3.0221404148802331
 30
0.0
  0
VERTEX
  5
36B17
  8
0
  6
CONTINUOUS
 10
7.4803814790067227
 20
2.6872484793391318
 30
0.0
  0
VERTEX
  5
36B18
  8
0
  6
CONTINUOUS
 10
7.5548900131420851
 20
2.679804310467147
 30
0.0
  0
SEQEND
  5
36B19
  8
0
  6
CONTINUOUS
  0
ENDBLK
  5
36B1B
  8
0
  0
BLOCK
  8
0
  2
*U153
 70
     1
 10
0.0
 20
0.0
 30
0.0
  3
*U153
  1

  0
TEXT
  5
36B1D
  8
0
 10
7.613297243701429
 20
2.617048512377107
 30
0.0
 40
0.125
  1
TL-71
  0
ENDBLK
  5
36B1F
  8
0
  0
BLOCK
  8
0
  2
*U154
 70
     1
 10
0.0
 20
0.0
 30
0.0
  3
*U154
  1

  0
INSERT
  5
36B21
  8
0
  6
CONTINUOUS
  2
_OPEN30
 10
5.8181306020992452
 20
0.8521781666523793
 30
0.0
 41
0.046875
 42
0.046875
 43
0.046875
 50
142.35807926426151
  0
POLYLINE
  5
36B22
  8
0
  6
CONTINUOUS
 66
     1
 10
0.0
 20
0.0
 30
0.0
  0
VERTEX
  5
36B23
  8
0
  6
CONTINUOUS
 10
5.8552482434580551
 20
0.8235504471316302
 30
0.0
  0
VERTEX
  5
36B24
  8
0
  6
CONTINUOUS
 10
6.2894567296898449
 20
0.4886585115905291
 30
0.0
  0
VERTEX
  5
36B25
  8
0
  6
CONTINUOUS
 10
6.3639652638252073
 20
0.4812143427185447
 30
0.0
  0
SEQEND
  5
36B26
  8
0
  6
CONTINUOUS
  0
ENDBLK
  5
36B28
  8
0
  0
BLOCK
  8
0
  2
*U155
 70
     1
 10
0.0
 20
0.0
 30
0.0
  3
*U155
  1

  0
TEXT
  5
36B2A
  8
0
 10
1.551308446705467
 20
9.4290439625366549
 30
0.0
 40
0.125
  1
Crown Moulding Backer
  0
TEXT
  5
36B2B
  8
0
 10
1.5559128123262029
 20
9.2201990330232402
 30
0.0
 40
0.125
  1
TL-539
  0
TEXT
  5
36B2C
  8
0
 10
1.552757969215699
 20
9.0097340489395652
 30
0.0
 40
0.125
  1
9/16" x 3-5/16"
  0
TEXT
  5
36B2D
  8
0
 10
1.5529285012757259
 20
8.7992690648558902
 30
0.0
 40
0.125
  1
800.66.TAGUE
  0
ENDBLK
  5
36B2F
  8
0
  0
BLOCK
  8
0
  2
*U156
 70
     1
 10
0.0
 20
0.0
 30
0.0
  3
*U156
  1

  0
TEXT
  5
36B31
  8
0
 10
1.787541778833746
 20
0.8152779313428641
 30
0.0
 40
0.125
  1
Crown Moulding
  0
TEXT
  5
36B32
  8
0
 10
1.7921461444544831
 20
0.6064330018294492
 30
0.0
 40
0.125
  1
TL-23
  0
TEXT
  5
36B33
  8
0
 10
1.787968108983814
 20
0.3959680177457746
 30
0.0
 40
0.125
  1
7/8" x 3-3/16"
  0
TEXT
  5
36B34
  8
0
 10
1.7891618334040049
 20
0.1855030336621002
 30
0.0
 40
0.125
  1
800.66.TAGUE
  0
ENDBLK
  5
36B36
  8
0
  0
BLOCK
  8
0
  2
*U157
 70
     1
 10
0.0
 20
0.0
 30
0.0
  3
*U157
  1

  0
TEXT
  5
36B38
  8
0
 10
2.2018711328786691
 20
0.9729018122572075
 30
0.0
 40
0.125
  1
Crown
  0
TEXT
  5
36B39
  8
0
 10
2.2064754984994059
 20
0.7640568827437924
 30
0.0
 40
0.125
  1
TL-24
  0
TEXT
  5
36B3A
  8
0
 10
2.191553943247019
 20
0.5535918986601179
 30
0.0
 40
0.125
  1
1" x 3-1/2"
  0
TEXT
  5
36B3B
  8
0
 10
2.2034911874489289
 20
0.3431269145764435
 30
0.0
 40
0.125
  1
800.66.TAGUE
  0
ENDBLK
  5
36B3D
  8
0
  0
BLOCK
  8
0
  2
*U158
 70
     1
 10
0.0
 20
0.0
 30
0.0
  3
*U158
  1

  0
TEXT
  5
36B3F
  8
0
 10
2.4799582647584422
 20
1.4094768675851279
 30
0.0
 40
0.125
  1
Crown Moulding
  0
TEXT
  5
36B40
  8
0
 10
2.484562630379179
 20
1.200631938071713
 30
0.0
 40
0.125
  1
TL-25
  0
TEXT
  5
36B41
  8
0
 10
2.4696410751267912
 20
0.9901669539880392
 30
0.0
 40
0.125
  1
1-1/8" x 4-13/16"
  0
TEXT
  5
36B42
  8
0
 10
2.4815783193287011
 20
0.7797019699043649
 30
0.0
 40
0.125
  1
800.66.TAGUE
  0
ENDBLK
  5
36B44
  8
0
  0
BLOCK
  8
0
  2
*U159
 70
     1
 10
0.0
 20
0.0
 30
0.0
  3
*U159
  1

  0
TEXT
  5
36B46
  8
0
 10
2.2862448005914522
 20
8.6801380419453995
 30
0.0
 40
0.125
  1
Crown Moulding
  0
TEXT
  5
36B47
  8
0
 10
2.290849166212189
 20
8.4712931124319848
 30
0.0
 40
0.125
  1
TL-26
  0
TEXT
  5
36B48
  8
0
 10
2.28667113074152
 20
8.2608281283483098
 30
0.0
 40
0.125
  1
7/8" x 4-7/16"
  0
TEXT
  5
36B49
  8
0
 10
2.2878648551617111
 20
8.0503631442646348
 30
0.0
 40
0.125
  1
800.66.TAGUE
  0
ENDBLK
  5
36B4B
  8
0
  0
BLOCK
  8
0
  2
*U160
 70
     1
 10
0.0
 20
0.0
 30
0.0
  3
*U160
  1

  0
TEXT
  5
36B4D
  8
0
 10
2.47366955595712
 20
1.8485788132224039
 30
0.0
 40
0.125
  1
Crown Moulding
  0
TEXT
  5
36B4E
  8
0
 10
2.4782739215778569
 20
1.639733883708989
 30
0.0
 40
0.125
  1
TL-48
  0
TEXT
  5
36B4F
  8
0
 10
2.4633523663254699
 20
1.4292688996253149
 30
0.0
 40
0.125
  1
11/16" x 5-1/4"
  0
TEXT
  5
36B50
  8
0
 10
2.4752896105273798
 20
1.2188039155416399
 30
0.0
 40
0.125
  1
800.66.TAGUE
  0
ENDBLK
  5
36B52
  8
0
  0
BLOCK
  8
0
  2
*U161
 70
     1
 10
0.0
 20
0.0
 30
0.0
  3
*U161
  1

  0
TEXT
  5
36B54
  8
0
 10
2.3704616662601881
 20
1.5393707616764389
 30
0.0
 40
0.125
  1
Crown Moulding
  0
TEXT
  5
36B55
  8
0
 10
2.3750660318809249
 20
1.331037428343105
 30
0.0
 40
0.125
  1
TL-47
  0
TEXT
  5
36B56
  8
0
 10
2.3601444766285371
 20
1.1205724442594309
 30
0.0
 40
0.125
  1
11/16" x 4-5/8"
  0
TEXT
  5
36B57
  8
0
 10
2.372081720830447
 20
0.9101074601757571
 30
0.0
 40
0.125
  1
800.66.TAGUE
  0
ENDBLK
  5
36B59
  8
0
  0
BLOCK
  8
0
  2
*U162
 70
     1
 10
0.0
 20
0.0
 30
0.0
  3
*U162
  1

  0
TEXT
  5
36B5B
  8
0
 10
1.921005453794099
 20
1.0606312480006339
 30
0.0
 40
0.125
  1
Crown Moulding
  0
TEXT
  5
36B5C
  8
0
 10
1.9256098194148361
 20
0.851786318487219
 30
0.0
 40
0.125
  1
TL-49
  0
TEXT
  5
36B5D
  8
0
 10
1.922454976304331
 20
0.6413213344035446
 30
0.0
 40
0.125
  1
9/16" x 3-5/8"
  0
TEXT
  5
36B5E
  8
0
 10
1.922625508364358
 20
0.4308563503198702
 30
0.0
 40
0.125
  1
800.66.TAGUE
  0
ENDBLK
  5
36B60
  8
0
  0
BLOCK
  8
0
  2
*U163
 70
     1
 10
0.0
 20
0.0
 30
0.0
  3
*U163
  1

  0
TEXT
  5
36B62
  8
0
 10
1.679185999902846
 20
0.8615441314963324
 30
0.0
 40
0.125
  1
Crown Moulding
  0
TEXT
  5
36B63
  8
0
 10
1.6837903655235831
 20
0.6526992019829172
 30
0.0
 40
0.125
  1
TL-53
  0
TEXT
  5
36B64
  8
0
 10
1.680635522413078
 20
0.4422342178992428
 30
0.0
 40
0.125
  1
9/16" x 2-5/8"
  0
TEXT
  5
36B65
  8
0
 10
1.6808060544731049
 20
0.2317692338155683
 30
0.0
 40
0.125
  1
800.66.TAGUE
  0
ENDBLK
  5
36B67
  8
0
  0
BLOCK
  8
0
  2
*U164
 70
     1
 10
0.0
 20
0.0
 30
0.0
  3
*U164
  1

  0
TEXT
  5
36B69
  8
0
 10
2.0194001572207059
 20
1.4664951753760691
 30
0.0
 40
0.125
  1
Crown Moulding
  0
TEXT
  5
36B6A
  8
0
 10
2.0240045228414432
 20
1.2581618420427361
 30
0.0
 40
0.125
  1
TL-547
  0
TEXT
  5
36B6B
  8
0
 10
2.020764413700924
 20
1.0476968579590611
 30
0.0
 40
0.125
  1
3/4" x 4-1/4"
  0
TEXT
  5
36B6C
  8
0
 10
2.0210202117909648
 20
0.8372318738753872
 30
0.0
 40
0.125
  1
800.66.TAGUE
  0
ENDBLK
  5
36B6E
  8
0
  0
BLOCK
  8
0
  2
*U165
 70
     1
 10
0.0
 20
0.0
 30
0.0
  3
*U165
  1

  0
TEXT
  5
36B70
  8
0
 10
2.4033085465245891
 20
1.114063668743499
 30
0.0
 40
0.125
  1
Crown Moulding
  0
TEXT
  5
36B71
  8
0
 10
2.407912912145326
 20
0.9052187392300845
 30
0.0
 40
0.125
  1
TL-735
  0
TEXT
  5
36B72
  8
0
 10
2.3929913568929391
 20
0.6947537551464099
 30
0.0
 40
0.125
  1
1-1/16" x 4-13/16"
  0
TEXT
  5
36B73
  8
0
 10
2.4049286010948481
 20
0.4842887710627356
 30
0.0
 40
0.125
  1
800.66.TAGUE
  0
ENDBLK
  5
36B75
  8
0
  0
BLOCK
  8
0
  2
*U166
 70
     1
 10
0.0
 20
0.0
 30
0.0
  3
*U166
  1

  0
TEXT
  5
36B77
  8
0
 10
3.4682612700969222
 20
1.825759911853895
 30
0.0
 40
0.125
  1
Crown Moulding
  0
TEXT
  5
36B78
  8
0
 10
3.472865635717659
 20
1.61691498234048
 30
0.0
 40
0.125
  1
TL-2009
  0
TEXT
  5
36B79
  8
0
 10
3.4579440804652708
 20
1.4064499982568051
 30
0.0
 40
0.125
  1
1-1/4" x 7-11/16"
  0
TEXT
  5
36B7A
  8
0
 10
3.4698813246671811
 20
1.195985014173131
 30
0.0
 40
0.125
  1
800.66.TAGUE
  0
ENDBLK
  5
36B7C
  8
0
  0
BLOCK
  8
0
  2
*U167
 70
     1
 10
0.0
 20
0.0
 30
0.0
  3
*U167
  1

  0
TEXT
  5
36B7E
  8
0
 10
1.699788297753547
 20
0.7242404957799115
 30
0.0
 40
0.125
  1
Crown Moulding
  0
TEXT
  5
36B7F
  8
0
 10
1.7043926633742841
 20
0.5153955662664962
 30
0.0
 40
0.125
  1
TL-2013
  0
TEXT
  5
36B80
  8
0
 10
1.701237820263779
 20
0.3049305821828217
 30
0.0
 40
0.125
  1
9/16" x 2-1/8"
  0
TEXT
  5
36B81
  8
0
 10
1.7014083523238059
 20
0.0944655980991474
 30
0.0
 40
0.125
  1
800.66.TAGUE
  0
ENDBLK
  5
36B83
  8
0
  0
BLOCK
  8
0
  2
*U168
 70
     1
 10
0.0
 20
0.0
 30
0.0
  3
*U168
  1

  0
TEXT
  5
36B85
  8
0
 10
2.6009295079307759
 20
1.7846010298159329
 30
0.0
 40
0.125
  1
Crown Moulding
  0
TEXT
  5
36B86
  8
0
 10
2.6055338735515128
 20
1.575756100302518
 30
0.0
 40
0.125
  1
TL-2046
  0
TEXT
  5
36B87
  8
0
 10
2.5906123182991259
 20
1.365291116218843
 30
0.0
 40
0.125
  1
1-9/16" x 6-3/8"
  0
TEXT
  5
36B88
  8
0
 10
2.6025495625010362
 20
1.1548261321351689
 30
0.0
 40
0.125
  1
800.66.TAGUE
  0
ENDBLK
  5
36B8A
  8
0
  0
BLOCK
  8
0
  2
*U169
 70
     1
 10
0.0
 20
0.0
 30
0.0
  3
*U169
  1

  0
TEXT
  5
36B8C
  8
0
 10
2.7666159371219452
 20
1.701425858604936
 30
0.0
 40
0.125
  1
Crown Moulding
  0
TEXT
  5
36B8D
  8
0
 10
2.7712203027426821
 20
1.4925809290915211
 30
0.0
 40
0.125
  1
TL-604
  0
TEXT
  5
36B8E
  8
0
 10
2.7562987474902951
 20
1.282115945007847
 30
0.0
 40
0.125
  1
1-5/16" x 6-3/4"
  0
TEXT
  5
36B8F
  8
0
 10
2.768235991692205
 20
1.071650960924172
 30
0.0
 40
0.125
  1
800.66.TAGUE
  0
ENDBLK
  5
36B91
  8
0
  0
BLOCK
  8
0
  2
*U170
 70
     1
 10
0.0
 20
0.0
 30
0.0
  3
*U170
  1

  0
TEXT
  5
36B93
  8
0
 10
2.211938273622001
 20
0.9544384301919013
 30
0.0
 40
0.125
  1
Crown
  0
TEXT
  5
36B94
  8
0
 10
2.216542639242737
 20
0.7455935006784862
 30
0.0
 40
0.125
  1
TL-718
  0
TEXT
  5
36B95
  8
0
 10
2.2184184919030381
 20
0.536748571165071
 30
0.0
 40
0.125
  1
4" x 6"
  0
TEXT
  5
36B96
  8
0
 10
2.2135583281922599
 20
0.3262835870813966
 30
0.0
 40
0.125
  1
800.66.TAGUE
  0
ENDBLK
  5
36B98
  8
0
  0
BLOCK
  8
0
  2
*U171
 70
     1
 10
0.0
 20
0.0
 30
0.0
  3
*U171
  1

  0
TEXT
  5
36B9A
  8
0
 10
3.6576409617732439
 20
2.7966954322929651
 30
0.0
 40
0.125
  1
Crown
  0
TEXT
  5
36B9B
  8
0
 10
3.6622453273939808
 20
2.58785050277955
 30
0.0
 40
0.125
  1
TL-719
  0
TEXT
  5
36B9C
  8
0
 10
3.6580672919233121
 20
2.377385518695875
 30
0.0
 40
0.125
  1
7-1/16" x 7-9/16"
  0
TEXT
  5
36B9D
  8
0
 10
3.6592610163435029
 20
2.1669205346122009
 30
0.0
 40
0.125
  1
800.66.TAGUE
  0
ENDBLK
  5
36B9F
  8
0
  0
BLOCK
  8
0
  2
*U172
 70
     1
 10
0.0
 20
0.0
 30
0.0
  3
*U172
  1

  0
TEXT
  5
36BA1
  8
0
 10
2.6158106459738848
 20
1.2432442436281841
 30
0.0
 40
0.125
  1
Crown
  0
TEXT
  5
36BA2
  8
0
 10
2.6204150115946221
 20
1.0343993141147689
 30
0.0
 40
0.125
  1
TL-549
  0
TEXT
  5
36BA3
  8
0
 10
2.6054934563422338
 20
0.8239343300310954
 30
0.0
 40
0.125
  1
1" x 4-3/4"
  0
TEXT
  5
36BA4
  8
0
 10
2.6174307005441442
 20
0.6134693459474211
 30
0.0
 40
0.125
  1
800.66.TAGUE
  0
ENDBLK
  5
36BA6
  8
0
  0
BLOCK
  8
0
  2
*U173
 70
     1
 10
0.0
 20
0.0
 30
0.0
  3
*U173
  1

  0
TEXT
  5
36BA8
  8
0
 10
2.5671209103460102
 20
1.7078769860001031
 30
0.0
 40
0.125
  1
Crown Moulding
  0
TEXT
  5
36BA9
  8
0
 10
2.571725275966747
 20
1.4990320564866879
 30
0.0
 40
0.125
  1
TL-737
  0
TEXT
  5
36BAA
  8
0
 10
2.5568037207143601
 20
1.2885670724030129
 30
0.0
 40
0.125
  1
1-1/16" x 5-3/4"
  0
TEXT
  5
36BAB
  8
0
 10
2.56874096491627
 20
1.0781020883193391
 30
0.0
 40
0.125
  1
800.66.TAGUE
  0
ENDBLK
  5
36BAD
  8
0
  0
BLOCK
  8
0
  2
*U174
 70
     1
 10
0.0
 20
0.0
 30
0.0
  3
*U174
  1

  0
TEXT
  5
36BAF
  8
0
 10
2.9532445898214279
 20
1.283909908665593
 30
0.0
 40
0.125
  1
Crown Moulding
  0
TEXT
  5
36BB0
  8
0
 10
2.9578489554421652
 20
1.075064979152178
 30
0.0
 40
0.125
  1
TL-2010
  0
TEXT
  5
36BB1
  8
0
 10
2.9429274001897769
 20
0.8645999950685043
 30
0.0
 40
0.125
  1
1-1/2" x 6-1/16"
  0
TEXT
  5
36BB2
  8
0
 10
2.9548646443916868
 20
0.6541350109848299
 30
0.0
 40
0.125
  1
800.66.TAGUE
  0
ENDBLK
  5
36BB4
  8
0
  0
BLOCK
  8
0
  2
*U175
 70
     1
 10
0.0
 20
0.0
 30
0.0
  3
*U175
  1

  0
TEXT
  5
36BB6
  8
0
 10
3.035497978571446
 20
1.453183634474287
 30
0.0
 40
0.125
  1
Crown Moulding
  0
TEXT
  5
36BB7
  8
0
 10
3.0401023441921828
 20
1.2443387049608721
 30
0.0
 40
0.125
  1
TL-2011
  0
TEXT
  5
36BB8
  8
0
 10
3.0251807889397959
 20
1.0338737208771971
 30
0.0
 40
0.125
  1
1-1/16" x 6-3/8"
  0
TEXT
  5
36BB9
  8
0
 10
3.0371180331417058
 20
0.8234087367935234
 30
0.0
 40
0.125
  1
800.66.TAGUE
  0
ENDBLK
  5
36BBB
  8
0
  0
BLOCK
  8
0
  2
*U176
 70
     1
 10
0.0
 20
0.0
 30
0.0
  3
*U176
  1

  0
TEXT
  5
36BBD
  8
0
 10
1.8633070240026419
 20
1.277693815717059
 30
0.0
 40
0.125
  1
Crown Moulding
  0
TEXT
  5
36BBE
  8
0
 10
1.8679113896233781
 20
1.068848886203644
 30
0.0
 40
0.125
  1
TL-2006
  0
TEXT
  5
36BBF
  8
0
 10
1.86467128048286
 20
0.85838390211997
 30
0.0
 40
0.125
  1
3/4" x 3-3/4"
  0
TEXT
  5
36BC0
  8
0
 10
1.8649270785729011
 20
0.6479189180362955
 30
0.0
 40
0.125
  1
800.66.TAGUE
  0
ENDBLK
  5
36BC2
  8
0
  0
BLOCK
  8
0
  2
*U177
 70
     1
 10
0.0
 20
0.0
 30
0.0
  3
*U177
  1

  0
TEXT
  5
36BC4
  8
0
 10
2.7049692846926279
 20
1.14794958590882
 30
0.0
 40
0.125
  1
Crown Moulding
  0
TEXT
  5
36BC5
  8
0
 10
2.7095736503133652
 20
0.9391046563954056
 30
0.0
 40
0.125
  1
TL-2172
  0
TEXT
  5
36BC6
  8
0
 10
2.6946520950609769
 20
0.7286396723117311
 30
0.0
 40
0.125
  1
1-3/16" x 5"
  0
TEXT
  5
36BC7
  8
0
 10
2.7065893392628868
 20
0.5181746882280568
 30
0.0
 40
0.125
  1
800.66.TAGUE
  0
ENDBLK
  5
36BC9
  8
0
  0
BLOCK
  8
0
  2
*U178
 70
     1
 10
0.0
 20
0.0
 30
0.0
  3
*U178
  1

  0
TEXT
  5
36BCB
  8
0
 10
1.3376810613118311
 20
1.1493516831010471
 30
0.0
 40
0.125
  1
Crown Moulding
  0
TEXT
  5
36BCC
  8
0
 10
1.3422854269325679
 20
0.940506753587632
 30
0.0
 40
0.125
  1
TL-2148
  0
TEXT
  5
36BCD
  8
0
 10
1.3390453177920489
 20
0.7300417695039575
 30
0.0
 40
0.125
  1
3/4" x 2-1/2"
  0
TEXT
  5
36BCE
  8
0
 10
1.33930111588209
 20
0.5195767854202832
 30
0.0
 40
0.125
  1
800.66.TAGUE
  0
ENDBLK
  5
36BD0
  8
0
  0
BLOCK
  8
0
  2
*U179
 70
     1
 10
0.0
 20
0.0
 30
0.0
  3
*U179
  1

  0
TEXT
  5
36BD2
  8
0
 10
-367.38640477863441
 20
858.47163716055957
 30
0.0
 40
0.125
  1
Crown Moulding
  0
TEXT
  5
36BD3
  8
0
 10
-367.38180041301371
 20
858.26279223104632
 30
0.0
 40
0.125
  1
TL-2148
  0
TEXT
  5
36BD4
  8
0
 10
-367.38504052215421
 20
858.05232724696236
 30
0.0
 40
0.125
  1
3/4" x 2-1/2"
  0
TEXT
  5
36BD5
  8
0
 10
-367.3847847240641
 20
857.84186226287875
 30
0.0
 40
0.125
  1
800.66.TAGUE
  0
ENDBLK
  5
36BD7
  8
0
  0
ENDSEC
  0
SECTION
  2
ENTITIES
  0
INSERT
  5
368D3
  8
0
  2
*U179
 10
0.0
 20
0.0
 30
0.0
  0
LINE
  5
368D4
  8
0
 10
-368.7240860018004
 20
857.32228570641496
 30
0.0
 11
-368.56338909524021
 21
857.32228570641496
 31
0.0
  0
LINE
  5
368D5
  8
0
 10
-368.7240860018004
 20
858.48427139689295
 30
0.0
 11
-368.7240860018004
 21
857.32228570641496
 31
0.0
  0
LINE
  5
368D6
  8
0
 10
-368.16172571393082
 20
859.42541272178676
 30
0.0
 11
-368.7240860018004
 21
858.48427139689295
 31
0.0
  0
LINE
  5
368D7
  8
0
 10
-367.39113144382532
 20
859.42541272178676
 30
0.0
 11
-368.16172571393082
 21
859.42541272178676
 31
0.0
  0
LINE
  5
368D8
  8
0
 10
-368.56338909524032
 20
857.51524641992376
 30
0.0
 11
-368.56338909524021
 21
857.32228570641496
 31
0.0
  0
LINE
  5
368D9
  8
0
 10
-368.40175646912189
 20
857.72591057619366
 30
0.0
 11
-368.49715624244322
 21
857.78316051490413
 31
0.0
  0
ARC
  5
368DA
  8
0
 10
-368.51379995756332
 20
857.64453763022721
 30
0.0
 40
0.1384749061647825
 50
249.0158792393141
 51
35.989484649335459
  0
POLYLINE
  8
0
  5
36DDC
  66
     1
 10
0.000000
 20
0.000000
 30
0.000000
  70
     8
  0
VERTEX
  8
0
  5
36DDD
 10
-367.393
 20
859.251
 30
0.000000
  70
    32
  0
VERTEX
  8
0
  5
36DDE
 10
-367.398
 20
859.249
 30
0.000000
  70
    32
  0
VERTEX
  8
0
  5
36DDF
 10
-367.403
 20
859.248
 30
0.000000
  70
    32
  0
VERTEX
  8
0
  5
36DE0
 10
-367.409
 20
859.246
 30
0.000000
  70
    32
  0
VERTEX
  8
0
  5
36DE1
 10
-367.414
 20
859.245
 30
0.000000
  70
    32
  0
VERTEX
  8
0
  5
36DE2
 10
-367.419
 20
859.244
 30
0.000000
  70
    32
  0
VERTEX
  8
0
  5
36DE3
 10
-367.425
 20
859.242
 30
0.000000
  70
    32
  0
VERTEX
  8
0
  5
36DE4
 10
-367.430
 20
859.241
 30
0.000000
  70
    32
  0
VERTEX
  8
0
  5
36DE5
 10
-367.436
 20
859.239
 30
0.000000
  70
    32
  0
VERTEX
  8
0
  5
36DE6
 10
-367.441
 20
859.238
 30
0.000000
  70
    32
  0
VERTEX
  8
0
  5
36DE7
 10
-367.447
 20
859.237
 30
0.000000
  70
    32
  0
VERTEX
  8
0
  5
36DE8
 10
-367.452
 20
859.235
 30
0.000000
  70
    32
  0
VERTEX
  8
0
  5
36DE9
 10
-367.457
 20
859.234
 30
0.000000
  70
    32
  0
VERTEX
  8
0
  5
36DEA
 10
-367.463
 20
859.232
 30
0.000000
  70
    32
  0
VERTEX
  8
0
  5
36DEB
 10
-367.468
 20
859.231
 30
0.000000
  70
    32
  0
VERTEX
  8
0
  5
36DEC
 10
-367.473
 20
859.229
 30
0.000000
  70
    32
  0
VERTEX
  8
0
  5
36DED
 10
-367.479
 20
859.227
 30
0.000000
  70
    32
  0
VERTEX
  8
0
  5
36DEE
 10
-367.484
 20
859.226
 30
0.000000
  70
    32
  0
VERTEX
  8
0
  5
36DEF
 10
-367.490
 20
859.224
 30
0.000000
  70
    32
  0
VERTEX
  8
0
  5
36DF0
 10
-367.495
 20
859.223
 30
0.000000
  70
    32
  0
VERTEX
  8
0
  5
36DF1
 10
-367.500
 20
859.221
 30
0.000000
  70
    32
  0
VERTEX
  8
0
  5
36DF2
 10
-367.505
 20
859.219
 30
0.000000
  70
    32
  0
VERTEX
  8
0
  5
36DF3
 10
-367.511
 20
859.217
 30
0.000000
  70
    32
  0
VERTEX
  8
0
  5
36DF4
 10
-367.516
 20
859.216
 30
0.000000
  70
    32
  0
VERTEX
  8
0
  5
36DF5
 10
-367.521
 20
859.214
 30
0.000000
  70
    32
  0
VERTEX
  8
0
  5
36DF6
 10
-367.526
 20
859.212
 30
0.000000
  70
    32
  0
VERTEX
  8
0
  5
36DF7
 10
-367.532
 20
859.210
 30
0.000000
  70
    32
  0
VERTEX
  8
0
  5
36DF8
 10
-367.537
 20
859.208
 30
0.000000
  70
    32
  0
VERTEX
  8
0
  5
36DF9
 10
-367.542
 20
859.206
 30
0.000000
  70
    32
  0
VERTEX
  8
0
  5
36DFA
 10
-367.547
 20
859.204
 30
0.000000
  70
    32
  0
VERTEX
  8
0
  5
36DFB
 10
-367.552
 20
859.202
 30
0.000000
  70
    32
  0
VERTEX
  8
0
  5
36DFC
 10
-367.557
 20
859.199
 30
0.000000
  70
    32
  0
VERTEX
  8
0
  5
36DFD
 10
-367.562
 20
859.197
 30
0.000000
  70
    32
  0
VERTEX
  8
0
  5
36DFE
 10
-367.567
 20
859.195
 30
0.000000
  70
    32
  0
VERTEX
  8
0
  5
36DFF
 10
-367.572
 20
859.193
 30
0.000000
  70
    32
  0
VERTEX
  8
0
  5
36E00
 10
-367.577
 20
859.190
 30
0.000000
  70
    32
  0
VERTEX
  8
0
  5
36E01
 10
-367.582
 20
859.188
 30
0.000000
  70
    32
  0
VERTEX
  8
0
  5
36E02
 10
-367.587
 20
859.185
 30
0.000000
  70
    32
  0
VERTEX
  8
0
  5
36E03
 10
-367.592
 20
859.182
 30
0.000000
  70
    32
  0
VERTEX
  8
0
  5
36E04
 10
-367.597
 20
859.180
 30
0.000000
  70
    32
  0
VERTEX
  8
0
  5
36E05
 10
-367.602
 20
859.177
 30
0.000000
  70
    32
  0
VERTEX
  8
0
  5
36E06
 10
-367.606
 20
859.174
 30
0.000000
  70
    32
  0
VERTEX
  8
0
  5
36E07
 10
-367.611
 20
859.171
 30
0.000000
  70
    32
  0
VERTEX
  8
0
  5
36E08
 10
-367.616
 20
859.168
 30
0.000000
  70
    32
  0
VERTEX
  8
0
  5
36E09
 10
-367.621
 20
859.165
 30
0.000000
  70
    32
  0
VERTEX
  8
0
  5
36E0A
 10
-367.625
 20
859.162
 30
0.000000
  70
    32
  0
VERTEX
  8
0
  5
36E0B
 10
-367.630
 20
859.159
 30
0.000000
  70
    32
  0
VERTEX
  8
0
  5
36E0C
 10
-367.634
 20
859.156
 30
0.000000
  70
    32
  0
VERTEX
  8
0
  5
36E0D
 10
-367.639
 20
859.153
 30
0.000000
  70
    32
  0
VERTEX
  8
0
  5
36E0E
 10
-367.644
 20
859.150
 30
0.000000
  70
    32
  0
VERTEX
  8
0
  5
36E0F
 10
-367.648
 20
859.146
 30
0.000000
  70
    32
  0
VERTEX
  8
0
  5
36E10
 10
-367.652
 20
859.143
 30
0.000000
  70
    32
  0
VERTEX
  8
0
  5
36E11
 10
-367.657
 20
859.140
 30
0.000000
  70
    32
  0
VERTEX
  8
0
  5
36E12
 10
-367.661
 20
859.136
 30
0.000000
  70
    32
  0
VERTEX
  8
0
  5
36E13
 10
-367.666
 20
859.133
 30
0.000000
  70
    32
  0
VERTEX
  8
0
  5
36E14
 10
-367.670
 20
859.129
 30
0.000000
  70
    32
  0
VERTEX
  8
0
  5
36E15
 10
-367.674
 20
859.126
 30
0.000000
  70
    32
  0
VERTEX
  8
0
  5
36E16
 10
-367.679
 20
859.122
 30
0.000000
  70
    32
  0
VERTEX
  8
0
  5
36E17
 10
-367.683
 20
859.118
 30
0.000000
  70
    32
  0
VERTEX
  8
0
  5
36E18
 10
-367.687
 20
859.115
 30
0.000000
  70
    32
  0
VERTEX
  8
0
  5
36E19
 10
-367.691
 20
859.111
 30
0.000000
  70
    32
  0
VERTEX
  8
0
  5
36E1A
 10
-367.695
 20
859.107
 30
0.000000
  70
    32
  0
VERTEX
  8
0
  5
36E1B
 10
-367.700
 20
859.103
 30
0.000000
  70
    32
  0
VERTEX
  8
0
  5
36E1C
 10
-367.704
 20
859.099
 30
0.000000
  70
    32
  0
VERTEX
  8
0
  5
36E1D
 10
-367.708
 20
859.095
 30
0.000000
  70
    32
  0
VERTEX
  8
0
  5
36E1E
 10
-367.712
 20
859.091
 30
0.000000
  70
    32
  0
VERTEX
  8
0
  5
36E1F
 10
-367.716
 20
859.087
 30
0.000000
  70
    32
  0
VERTEX
  8
0
  5
36E20
 10
-367.720
 20
859.083
 30
0.000000
  70
    32
  0
VERTEX
  8
0
  5
36E21
 10
-367.724
 20
859.079
 30
0.000000
  70
    32
  0
VERTEX
  8
0
  5
36E22
 10
-367.728
 20
859.075
 30
0.000000
  70
    32
  0
VERTEX
  8
0
  5
36E23
 10
-367.731
 20
859.071
 30
0.000000
  70
    32
  0
VERTEX
  8
0
  5
36E24
 10
-367.735
 20
859.067
 30
0.000000
  70
    32
  0
VERTEX
  8
0
  5
36E25
 10
-367.739
 20
859.063
 30
0.000000
  70
    32
  0
VERTEX
  8
0
  5
36E26
 10
-367.743
 20
859.059
 30
0.000000
  70
    32
  0
VERTEX
  8
0
  5
36E27
 10
-367.747
 20
859.055
 30
0.000000
  70
    32
  0
VERTEX
  8
0
  5
36E28
 10
-367.750
 20
859.050
 30
0.000000
  70
    32
  0
VERTEX
  8
0
  5
36E29
 10
-367.754
 20
859.046
 30
0.000000
  70
    32
  0
VERTEX
  8
0
  5
36E2A
 10
-367.758
 20
859.042
 30
0.000000
  70
    32
  0
VERTEX
  8
0
  5
36E2B
 10
-367.761
 20
859.037
 30
0.000000
  70
    32
  0
VERTEX
  8
0
  5
36E2C
 10
-367.765
 20
859.033
 30
0.000000
  70
    32
  0
VERTEX
  8
0
  5
36E2D
 10
-367.769
 20
859.029
 30
0.000000
  70
    32
  0
VERTEX
  8
0
  5
36E2E
 10
-367.772
 20
859.024
 30
0.000000
  70
    32
  0
VERTEX
  8
0
  5
36E2F
 10
-367.776
 20
859.020
 30
0.000000
  70
    32
  0
VERTEX
  8
0
  5
36E30
 10
-367.779
 20
859.015
 30
0.000000
  70
    32
  0
VERTEX
  8
0
  5
36E31
 10
-367.783
 20
859.011
 30
0.000000
  70
    32
  0
VERTEX
  8
0
  5
36E32
 10
-367.786
 20
859.006
 30
0.000000
  70
    32
  0
VERTEX
  8
0
  5
36E33
 10
-367.790
 20
859.002
 30
0.000000
  70
    32
  0
VERTEX
  8
0
  5
36E34
 10
-367.793
 20
858.997
 30
0.000000
  70
    32
  0
VERTEX
  8
0
  5
36E35
 10
-367.796
 20
858.993
 30
0.000000
  70
    32
  0
VERTEX
  8
0
  5
36E36
 10
-367.800
 20
858.988
 30
0.000000
  70
    32
  0
VERTEX
  8
0
  5
36E37
 10
-367.803
 20
858.984
 30
0.000000
  70
    32
  0
VERTEX
  8
0
  5
36E38
 10
-367.806
 20
858.979
 30
0.000000
  70
    32
  0
VERTEX
  8
0
  5
36E39
 10
-367.809
 20
858.975
 30
0.000000
  70
    32
  0
VERTEX
  8
0
  5
36E3A
 10
-367.813
 20
858.970
 30
0.000000
  70
    32
  0
VERTEX
  8
0
  5
36E3B
 10
-367.816
 20
858.965
 30
0.000000
  70
    32
  0
VERTEX
  8
0
  5
36E3C
 10
-367.819
 20
858.961
 30
0.000000
  70
    32
  0
VERTEX
  8
0
  5
36E3D
 10
-367.822
 20
858.956
 30
0.000000
  70
    32
  0
VERTEX
  8
0
  5
36E3E
 10
-367.825
 20
858.951
 30
0.000000
  70
    32
  0
VERTEX
  8
0
  5
36E3F
 10
-367.828
 20
858.947
 30
0.000000
  70
    32
  0
VERTEX
  8
0
  5
36E40
 10
-367.831
 20
858.942
 30
0.000000
  70
    32
  0
VERTEX
  8
0
  5
36E41
 10
-367.834
 20
858.937
 30
0.000000
  70
    32
  0
VERTEX
  8
0
  5
36E42
 10
-367.837
 20
858.932
 30
0.000000
  70
    32
  0
VERTEX
  8
0
  5
36E43
 10
-367.840
 20
858.928
 30
0.000000
  70
    32
  0
VERTEX
  8
0
  5
36E44
 10
-367.843
 20
858.923
 30
0.000000
  70
    32
  0
VERTEX
  8
0
  5
36E45
 10
-367.846
 20
858.918
 30
0.000000
  70
    32
  0
VERTEX
  8
0
  5
36E46
 10
-367.848
 20
858.913
 30
0.000000
  70
    32
  0
VERTEX
  8
0
  5
36E47
 10
-367.851
 20
858.908
 30
0.000000
  70
    32
  0
VERTEX
  8
0
  5
36E48
 10
-367.854
 20
858.904
 30
0.000000
  70
    32
  0
VERTEX
  8
0
  5
36E49
 10
-367.857
 20
858.899
 30
0.000000
  70
    32
  0
VERTEX
  8
0
  5
36E4A
 10
-367.859
 20
858.894
 30
0.000000
  70
    32
  0
VERTEX
  8
0
  5
36E4B
 10
-367.862
 20
858.889
 30
0.000000
  70
    32
  0
VERTEX
  8
0
  5
36E4C
 10
-367.865
 20
858.884
 30
0.000000
  70
    32
  0
VERTEX
  8
0
  5
36E4D
 10
-367.867
 20
858.879
 30
0.000000
  70
    32
  0
VERTEX
  8
0
  5
36E4E
 10
-367.870
 20
858.874
 30
0.000000
  70
    32
  0
VERTEX
  8
0
  5
36E4F
 10
-367.872
 20
858.869
 30
0.000000
  70
    32
  0
VERTEX
  8
0
  5
36E50
 10
-367.875
 20
858.864
 30
0.000000
  70
    32
  0
VERTEX
  8
0
  5
36E51
 10
-367.877
 20
858.859
 30
0.000000
  70
    32
  0
VERTEX
  8
0
  5
36E52
 10
-367.879
 20
858.854
 30
0.000000
  70
    32
  0
VERTEX
  8
0
  5
36E53
 10
-367.882
 20
858.849
 30
0.000000
  70
    32
  0
VERTEX
  8
0
  5
36E54
 10
-367.884
 20
858.844
 30
0.000000
  70
    32
  0
VERTEX
  8
0
  5
36E55
 10
-367.886
 20
858.839
 30
0.000000
  70
    32
  0
VERTEX
  8
0
  5
36E56
 10
-367.889
 20
858.834
 30
0.000000
  70
    32
  0
VERTEX
  8
0
  5
36E57
 10
-367.891
 20
858.829
 30
0.000000
  70
    32
  0
VERTEX
  8
0
  5
36E58
 10
-367.893
 20
858.824
 30
0.000000
  70
    32
  0
VERTEX
  8
0
  5
36E59
 10
-367.895
 20
858.819
 30
0.000000
  70
    32
  0
VERTEX
  8
0
  5
36E5A
 10
-367.897
 20
858.813
 30
0.000000
  70
    32
  0
VERTEX
  8
0
  5
36E5B
 10
-367.899
 20
858.808
 30
0.000000
  70
    32
  0
VERTEX
  8
0
  5
36E5C
 10
-367.901
 20
858.803
 30
0.000000
  70
    32
  0
VERTEX
  8
0
  5
36E5D
 10
-367.903
 20
858.798
 30
0.000000
  70
    32
  0
VERTEX
  8
0
  5
36E5E
 10
-367.905
 20
858.793
 30
0.000000
  70
    32
  0
VERTEX
  8
0
  5
36E5F
 10
-367.907
 20
858.787
 30
0.000000
  70
    32
  0
VERTEX
  8
0
  5
36E60
 10
-367.909
 20
858.782
 30
0.000000
  70
    32
  0
VERTEX
  8
0
  5
36E61
 10
-367.911
 20
858.777
 30
0.000000
  70
    32
  0
VERTEX
  8
0
  5
36E62
 10
-367.913
 20
858.772
 30
0.000000
  70
    32
  0
VERTEX
  8
0
  5
36E63
 10
-367.914
 20
858.767
 30
0.000000
  70
    32
  0
VERTEX
  8
0
  5
36E64
 10
-367.916
 20
858.761
 30
0.000000
  70
    32
  0
VERTEX
  8
0
  5
36E65
 10
-367.918
 20
858.756
 30
0.000000
  70
    32
  0
VERTEX
  8
0
  5
36E66
 10
-367.919
 20
858.751
 30
0.000000
  70
    32
  0
VERTEX
  8
0
  5
36E67
 10
-367.921
 20
858.745
 30
0.000000
  70
    32
  0
VERTEX
  8
0
  5
36E68
 10
-367.923
 20
858.740
 30
0.000000
  70
    32
  0
VERTEX
  8
0
  5
36E69
 10
-367.924
 20
858.735
 30
0.000000
  70
    32
  0
VERTEX
  8
0
  5
36E6A
 10
-367.926
 20
858.729
 30
0.000000
  70
    32
  0
VERTEX
  8
0
  5
36E6B
 10
-367.927
 20
858.724
 30
0.000000
  70
    32
  0
VERTEX
  8
0
  5
36E6C
 10
-367.929
 20
858.719
 30
0.000000
  70
    32
  0
VERTEX
  8
0
  5
36E6D
 10
-367.930
 20
858.713
 30
0.000000
  70
    32
  0
VERTEX
  8
0
  5
36E6E
 10
-367.931
 20
858.708
 30
0.000000
  70
    32
  0
VERTEX
  8
0
  5
36E6F
 10
-367.933
 20
858.702
 30
0.000000
  70
    32
  0
VERTEX
  8
0
  5
36E70
 10
-367.934
 20
858.697
 30
0.000000
  70
    32
  0
VERTEX
  8
0
  5
36E71
 10
-367.935
 20
858.692
 30
0.000000
  70
    32
  0
VERTEX
  8
0
  5
36E72
 10
-367.937
 20
858.686
 30
0.000000
  70
    32
  0
VERTEX
  8
0
  5
36E73
 10
-367.938
 20
858.681
 30
0.000000
  70
    32
  0
VERTEX
  8
0
  5
36E74
 10
-367.939
 20
858.675
 30
0.000000
  70
    32
  0
VERTEX
  8
0
  5
36E75
 10
-367.940
 20
858.670
 30
0.000000
  70
    32
  0
VERTEX
  8
0
  5
36E76
 10
-367.941
 20
858.664
 30
0.000000
  70
    32
  0
VERTEX
  8
0
  5
36E77
 10
-367.943
 20
858.659
 30
0.000000
  70
    32
  0
VERTEX
  8
0
  5
36E78
 10
-367.944
 20
858.653
 30
0.000000
  70
    32
  0
VERTEX
  8
0
  5
36E79
 10
-367.945
 20
858.648
 30
0.000000
  70
    32
  0
VERTEX
  8
0
  5
36E7A
 10
-367.946
 20
858.643
 30
0.000000
  70
    32
  0
VERTEX
  8
0
  5
36E7B
 10
-367.947
 20
858.637
 30
0.000000
  70
    32
  0
VERTEX
  8
0
  5
36E7C
 10
-367.948
 20
858.632
 30
0.000000
  70
    32
  0
VERTEX
  8
0
  5
36E7D
 10
-367.949
 20
858.626
 30
0.000000
  70
    32
  0
VERTEX
  8
0
  5
36E7E
 10
-367.950
 20
858.621
 30
0.000000
  70
    32
  0
VERTEX
  8
0
  5
36E7F
 10
-367.951
 20
858.615
 30
0.000000
  70
    32
  0
VERTEX
  8
0
  5
36E80
 10
-367.952
 20
858.610
 30
0.000000
  70
    32
  0
VERTEX
  8
0
  5
36E81
 10
-367.953
 20
858.604
 30
0.000000
  70
    32
  0
VERTEX
  8
0
  5
36E82
 10
-367.954
 20
858.599
 30
0.000000
  70
    32
  0
VERTEX
  8
0
  5
36E83
 10
-367.955
 20
858.593
 30
0.000000
  70
    32
  0
VERTEX
  8
0
  5
36E84
 10
-367.956
 20
858.588
 30
0.000000
  70
    32
  0
VERTEX
  8
0
  5
36E85
 10
-367.957
 20
858.582
 30
0.000000
  70
    32
  0
VERTEX
  8
0
  5
36E86
 10
-367.958
 20
858.577
 30
0.000000
  70
    32
  0
VERTEX
  8
0
  5
36E87
 10
-367.958
 20
858.571
 30
0.000000
  70
    32
  0
VERTEX
  8
0
  5
36E88
 10
-367.959
 20
858.566
 30
0.000000
  70
    32
  0
VERTEX
  8
0
  5
36E89
 10
-367.960
 20
858.560
 30
0.000000
  70
    32
  0
VERTEX
  8
0
  5
36E8A
 10
-367.961
 20
858.555
 30
0.000000
  70
    32
  0
VERTEX
  8
0
  5
36E8B
 10
-367.962
 20
858.549
 30
0.000000
  70
    32
  0
VERTEX
  8
0
  5
36E8C
 10
-367.963
 20
858.544
 30
0.000000
  70
    32
  0
VERTEX
  8
0
  5
36E8D
 10
-367.964
 20
858.538
 30
0.000000
  70
    32
  0
VERTEX
  8
0
  5
36E8E
 10
-367.964
 20
858.533
 30
0.000000
  70
    32
  0
VERTEX
  8
0
  5
36E8F
 10
-367.965
 20
858.527
 30
0.000000
  70
    32
  0
VERTEX
  8
0
  5
36E90
 10
-367.966
 20
858.522
 30
0.000000
  70
    32
  0
VERTEX
  8
0
  5
36E91
 10
-367.967
 20
858.516
 30
0.000000
  70
    32
  0
VERTEX
  8
0
  5
36E92
 10
-367.968
 20
858.511
 30
0.000000
  70
    32
  0
VERTEX
  8
0
  5
36E93
 10
-367.969
 20
858.505
 30
0.000000
  70
    32
  0
VERTEX
  8
0
  5
36E94
 10
-367.969
 20
858.500
 30
0.000000
  70
    32
  0
VERTEX
  8
0
  5
36E95
 10
-367.970
 20
858.494
 30
0.000000
  70
    32
  0
VERTEX
  8
0
  5
36E96
 10
-367.971
 20
858.489
 30
0.000000
  70
    32
  0
VERTEX
  8
0
  5
36E97
 10
-367.972
 20
858.483
 30
0.000000
  70
    32
  0
VERTEX
  8
0
  5
36E98
 10
-367.973
 20
858.478
 30
0.000000
  70
    32
  0
VERTEX
  8
0
  5
36E99
 10
-367.974
 20
858.472
 30
0.000000
  70
    32
  0
VERTEX
  8
0
  5
36E9A
 10
-367.975
 20
858.467
 30
0.000000
  70
    32
  0
VERTEX
  8
0
  5
36E9B
 10
-367.975
 20
858.461
 30
0.000000
  70
    32
  0
VERTEX
  8
0
  5
36E9C
 10
-367.976
 20
858.456
 30
0.000000
  70
    32
  0
VERTEX
  8
0
  5
36E9D
 10
-367.977
 20
858.450
 30
0.000000
  70
    32
  0
VERTEX
  8
0
  5
36E9E
 10
-367.978
 20
858.445
 30
0.000000
  70
    32
  0
VERTEX
  8
0
  5
36E9F
 10
-367.979
 20
858.439
 30
0.000000
  70
    32
  0
VERTEX
  8
0
  5
36EA0
 10
-367.980
 20
858.434
 30
0.000000
  70
    32
  0
VERTEX
  8
0
  5
36EA1
 10
-367.981
 20
858.429
 30
0.000000
  70
    32
  0
VERTEX
  8
0
  5
36EA2
 10
-367.982
 20
858.423
 30
0.000000
  70
    32
  0
VERTEX
  8
0
  5
36EA3
 10
-367.983
 20
858.418
 30
0.000000
  70
    32
  0
VERTEX
  8
0
  5
36EA4
 10
-367.984
 20
858.412
 30
0.000000
  70
    32
  0
VERTEX
  8
0
  5
36EA5
 10
-367.985
 20
858.407
 30
0.000000
  70
    32
  0
VERTEX
  8
0
  5
36EA6
 10
-367.986
 20
858.401
 30
0.000000
  70
    32
  0
VERTEX
  8
0
  5
36EA7
 10
-367.987
 20
858.396
 30
0.000000
  70
    32
  0
VERTEX
  8
0
  5
36EA8
 10
-367.988
 20
858.390
 30
0.000000
  70
    32
  0
VERTEX
  8
0
  5
36EA9
 10
-367.989
 20
858.385
 30
0.000000
  70
    32
  0
VERTEX
  8
0
  5
36EAA
 10
-367.990
 20
858.379
 30
0.000000
  70
    32
  0
VERTEX
  8
0
  5
36EAB
 10
-367.991
 20
858.374
 30
0.000000
  70
    32
  0
VERTEX
  8
0
  5
36EAC
 10
-367.992
 20
858.368
 30
0.000000
  70
    32
  0
VERTEX
  8
0
  5
36EAD
 10
-367.993
 20
858.363
 30
0.000000
  70
    32
  0
VERTEX
  8
0
  5
36EAE
 10
-367.995
 20
858.358
 30
0.000000
  70
    32
  0
VERTEX
  8
0
  5
36EAF
 10
-367.996
 20
858.352
 30
0.000000
  70
    32
  0
VERTEX
  8
0
  5
36EB0
 10
-367.997
 20
858.347
 30
0.000000
  70
    32
  0
VERTEX
  8
0
  5
36EB1
 10
-367.998
 20
858.341
 30
0.000000
  70
    32
  0
VERTEX
  8
0
  5
36EB2
 10
-368.000
 20
858.336
 30
0.000000
  70
    32
  0
VERTEX
  8
0
  5
36EB3
 10
-368.001
 20
858.330
 30
0.000000
  70
    32
  0
VERTEX
  8
0
  5
36EB4
 10
-368.002
 20
858.325
 30
0.000000
  70
    32
  0
VERTEX
  8
0
  5
36EB5
 10
-368.004
 20
858.320
 30
0.000000
  70
    32
  0
VERTEX
  8
0
  5
36EB6
 10
-368.005
 20
858.314
 30
0.000000
  70
    32
  0
VERTEX
  8
0
  5
36EB7
 10
-368.006
 20
858.309
 30
0.000000
  70
    32
  0
VERTEX
  8
0
  5
36EB8
 10
-368.008
 20
858.303
 30
0.000000
  70
    32
  0
VERTEX
  8
0
  5
36EB9
 10
-368.009
 20
858.298
 30
0.000000
  70
    32
  0
VERTEX
  8
0
  5
36EBA
 10
-368.011
 20
858.293
 30
0.000000
  70
    32
  0
VERTEX
  8
0
  5
36EBB
 10
-368.013
 20
858.287
 30
0.000000
  70
    32
  0
VERTEX
  8
0
  5
36EBC
 10
-368.014
 20
858.282
 30
0.000000
  70
    32
  0
VERTEX
  8
0
  5
36EBD
 10
-368.016
 20
858.277
 30
0.000000
  70
    32
  0
VERTEX
  8
0
  5
36EBE
 10
-368.018
 20
858.271
 30
0.000000
  70
    32
  0
VERTEX
  8
0
  5
36EBF
 10
-368.019
 20
858.266
 30
0.000000
  70
    32
  0
VERTEX
  8
0
  5
36EC0
 10
-368.021
 20
858.261
 30
0.000000
  70
    32
  0
VERTEX
  8
0
  5
36EC1
 10
-368.023
 20
858.255
 30
0.000000
  70
    32
  0
VERTEX
  8
0
  5
36EC2
 10
-368.025
 20
858.250
 30
0.000000
  70
    32
  0
VERTEX
  8
0
  5
36EC3
 10
-368.027
 20
858.245
 30
0.000000
  70
    32
  0
VERTEX
  8
0
  5
36EC4
 10
-368.028
 20
858.239
 30
0.000000
  70
    32
  0
VERTEX
  8
0
  5
36EC5
 10
-368.030
 20
858.234
 30
0.000000
  70
    32
  0
VERTEX
  8
0
  5
36EC6
 10
-368.032
 20
858.229
 30
0.000000
  70
    32
  0
VERTEX
  8
0
  5
36EC7
 10
-368.034
 20
858.223
 30
0.000000
  70
    32
  0
VERTEX
  8
0
  5
36EC8
 10
-368.036
 20
858.218
 30
0.000000
  70
    32
  0
VERTEX
  8
0
  5
36EC9
 10
-368.039
 20
858.213
 30
0.000000
  70
    32
  0
VERTEX
  8
0
  5
36ECA
 10
-368.041
 20
858.208
 30
0.000000
  70
    32
  0
VERTEX
  8
0
  5
36ECB
 10
-368.043
 20
858.202
 30
0.000000
  70
    32
  0
VERTEX
  8
0
  5
36ECC
 10
-368.045
 20
858.197
 30
0.000000
  70
    32
  0
VERTEX
  8
0
  5
36ECD
 10
-368.047
 20
858.192
 30
0.000000
  70
    32
  0
VERTEX
  8
0
  5
36ECE
 10
-368.050
 20
858.187
 30
0.000000
  70
    32
  0
VERTEX
  8
0
  5
36ECF
 10
-368.052
 20
858.182
 30
0.000000
  70
    32
  0
VERTEX
  8
0
  5
36ED0
 10
-368.055
 20
858.177
 30
0.000000
  70
    32
  0
VERTEX
  8
0
  5
36ED1
 10
-368.057
 20
858.172
 30
0.000000
  70
    32
  0
VERTEX
  8
0
  5
36ED2
 10
-368.059
 20
858.167
 30
0.000000
  70
    32
  0
VERTEX
  8
0
  5
36ED3
 10
-368.062
 20
858.161
 30
0.000000
  70
    32
  0
VERTEX
  8
0
  5
36ED4
 10
-368.065
 20
858.156
 30
0.000000
  70
    32
  0
VERTEX
  8
0
  5
36ED5
 10
-368.067
 20
858.151
 30
0.000000
  70
    32
  0
VERTEX
  8
0
  5
36ED6
 10
-368.070
 20
858.146
 30
0.000000
  70
    32
  0
VERTEX
  8
0
  5
36ED7
 10
-368.072
 20
858.142
 30
0.000000
  70
    32
  0
VERTEX
  8
0
  5
36ED8
 10
-368.075
 20
858.137
 30
0.000000
  70
    32
  0
VERTEX
  8
0
  5
36ED9
 10
-368.078
 20
858.132
 30
0.000000
  70
    32
  0
VERTEX
  8
0
  5
36EDA
 10
-368.081
 20
858.127
 30
0.000000
  70
    32
  0
VERTEX
  8
0
  5
36EDB
 10
-368.084
 20
858.122
 30
0.000000
  70
    32
  0
VERTEX
  8
0
  5
36EDC
 10
-368.086
 20
858.117
 30
0.000000
  70
    32
  0
VERTEX
  8
0
  5
36EDD
 10
-368.089
 20
858.112
 30
0.000000
  70
    32
  0
VERTEX
  8
0
  5
36EDE
 10
-368.092
 20
858.108
 30
0.000000
  70
    32
  0
VERTEX
  8
0
  5
36EDF
 10
-368.095
 20
858.103
 30
0.000000
  70
    32
  0
VERTEX
  8
0
  5
36EE0
 10
-368.099
 20
858.098
 30
0.000000
  70
    32
  0
VERTEX
  8
0
  5
36EE1
 10
-368.102
 20
858.094
 30
0.000000
  70
    32
  0
VERTEX
  8
0
  5
36EE2
 10
-368.105
 20
858.089
 30
0.000000
  70
    32
  0
VERTEX
  8
0
  5
36EE3
 10
-368.108
 20
858.085
 30
0.000000
  70
    32
  0
VERTEX
  8
0
  5
36EE4
 10
-368.111
 20
858.080
 30
0.000000
  70
    32
  0
VERTEX
  8
0
  5
36EE5
 10
-368.115
 20
858.076
 30
0.000000
  70
    32
  0
VERTEX
  8
0
  5
36EE6
 10
-368.118
 20
858.071
 30
0.000000
  70
    32
  0
VERTEX
  8
0
  5
36EE7
 10
-368.121
 20
858.067
 30
0.000000
  70
    32
  0
VERTEX
  8
0
  5
36EE8
 10
-368.125
 20
858.062
 30
0.000000
  70
    32
  0
VERTEX
  8
0
  5
36EE9
 10
-368.128
 20
858.058
 30
0.000000
  70
    32
  0
VERTEX
  8
0
  5
36EEA
 10
-368.132
 20
858.054
 30
0.000000
  70
    32
  0
VERTEX
  8
0
  5
36EEB
 10
-368.135
 20
858.049
 30
0.000000
  70
    32
  0
VERTEX
  8
0
  5
36EEC
 10
-368.139
 20
858.045
 30
0.000000
  70
    32
  0
VERTEX
  8
0
  5
36EED
 10
-368.142
 20
858.041
 30
0.000000
  70
    32
  0
VERTEX
  8
0
  5
36EEE
 10
-368.146
 20
858.037
 30
0.000000
  70
    32
  0
VERTEX
  8
0
  5
36EEF
 10
-368.150
 20
858.033
 30
0.000000
  70
    32
  0
VERTEX
  8
0
  5
36EF0
 10
-368.154
 20
858.029
 30
0.000000
  70
    32
  0
VERTEX
  8
0
  5
36EF1
 10
-368.158
 20
858.025
 30
0.000000
  70
    32
  0
VERTEX
  8
0
  5
36EF2
 10
-368.161
 20
858.021
 30
0.000000
  70
    32
  0
VERTEX
  8
0
  5
36EF3
 10
-368.165
 20
858.017
 30
0.000000
  70
    32
  0
VERTEX
  8
0
  5
36EF4
 10
-368.169
 20
858.013
 30
0.000000
  70
    32
  0
VERTEX
  8
0
  5
36EF5
 10
-368.173
 20
858.009
 30
0.000000
  70
    32
  0
VERTEX
  8
0
  5
36EF6
 10
-368.177
 20
858.006
 30
0.000000
  70
    32
  0
VERTEX
  8
0
  5
36EF7
 10
-368.181
 20
858.002
 30
0.000000
  70
    32
  0
VERTEX
  8
0
  5
36EF8
 10
-368.186
 20
857.998
 30
0.000000
  70
    32
  0
VERTEX
  8
0
  5
36EF9
 10
-368.190
 20
857.995
 30
0.000000
  70
    32
  0
VERTEX
  8
0
  5
36EFA
 10
-368.194
 20
857.991
 30
0.000000
  70
    32
  0
VERTEX
  8
0
  5
36EFB
 10
-368.198
 20
857.987
 30
0.000000
  70
    32
  0
VERTEX
  8
0
  5
36EFC
 10
-368.202
 20
857.984
 30
0.000000
  70
    32
  0
VERTEX
  8
0
  5
36EFD
 10
-368.207
 20
857.980
 30
0.000000
  70
    32
  0
VERTEX
  8
0
  5
36EFE
 10
-368.211
 20
857.977
 30
0.000000
  70
    32
  0
VERTEX
  8
0
  5
36EFF
 10
-368.215
 20
857.973
 30
0.000000
  70
    32
  0
VERTEX
  8
0
  5
36F00
 10
-368.220
 20
857.970
 30
0.000000
  70
    32
  0
VERTEX
  8
0
  5
36F01
 10
-368.224
 20
857.967
 30
0.000000
  70
    32
  0
VERTEX
  8
0
  5
36F02
 10
-368.229
 20
857.963
 30
0.000000
  70
    32
  0
VERTEX
  8
0
  5
36F03
 10
-368.233
 20
857.960
 30
0.000000
  70
    32
  0
VERTEX
  8
0
  5
36F04
 10
-368.238
 20
857.957
 30
0.000000
  70
    32
  0
VERTEX
  8
0
  5
36F05
 10
-368.242
 20
857.953
 30
0.000000
  70
    32
  0
VERTEX
  8
0
  5
36F06
 10
-368.247
 20
857.950
 30
0.000000
  70
    32
  0
VERTEX
  8
0
  5
36F07
 10
-368.251
 20
857.947
 30
0.000000
  70
    32
  0
VERTEX
  8
0
  5
36F08
 10
-368.256
 20
857.944
 30
0.000000
  70
    32
  0
VERTEX
  8
0
  5
36F09
 10
-368.260
 20
857.940
 30
0.000000
  70
    32
  0
VERTEX
  8
0
  5
36F0A
 10
-368.265
 20
857.937
 30
0.000000
  70
    32
  0
VERTEX
  8
0
  5
36F0B
 10
-368.269
 20
857.934
 30
0.000000
  70
    32
  0
VERTEX
  8
0
  5
36F0C
 10
-368.274
 20
857.931
 30
0.000000
  70
    32
  0
VERTEX
  8
0
  5
36F0D
 10
-368.279
 20
857.928
 30
0.000000
  70
    32
  0
VERTEX
  8
0
  5
36F0E
 10
-368.283
 20
857.925
 30
0.000000
  70
    32
  0
VERTEX
  8
0
  5
36F0F
 10
-368.288
 20
857.921
 30
0.000000
  70
    32
  0
VERTEX
  8
0
  5
36F10
 10
-368.293
 20
857.918
 30
0.000000
  70
    32
  0
VERTEX
  8
0
  5
36F11
 10
-368.297
 20
857.915
 30
0.000000
  70
    32
  0
VERTEX
  8
0
  5
36F12
 10
-368.302
 20
857.912
 30
0.000000
  70
    32
  0
VERTEX
  8
0
  5
36F13
 10
-368.307
 20
857.909
 30
0.000000
  70
    32
  0
VERTEX
  8
0
  5
36F14
 10
-368.311
 20
857.906
 30
0.000000
  70
    32
  0
VERTEX
  8
0
  5
36F15
 10
-368.316
 20
857.903
 30
0.000000
  70
    32
  0
VERTEX
  8
0
  5
36F16
 10
-368.321
 20
857.900
 30
0.000000
  70
    32
  0
VERTEX
  8
0
  5
36F17
 10
-368.325
 20
857.897
 30
0.000000
  70
    32
  0
VERTEX
  8
0
  5
36F18
 10
-368.330
 20
857.894
 30
0.000000
  70
    32
  0
VERTEX
  8
0
  5
36F19
 10
-368.335
 20
857.891
 30
0.000000
  70
    32
  0
VERTEX
  8
0
  5
36F1A
 10
-368.339
 20
857.888
 30
0.000000
  70
    32
  0
VERTEX
  8
0
  5
36F1B
 10
-368.344
 20
857.884
 30
0.000000
  70
    32
  0
VERTEX
  8
0
  5
36F1C
 10
-368.349
 20
857.881
 30
0.000000
  70
    32
  0
VERTEX
  8
0
  5
36F1D
 10
-368.353
 20
857.878
 30
0.000000
  70
    32
  0
VERTEX
  8
0
  5
36F1E
 10
-368.358
 20
857.875
 30
0.000000
  70
    32
  0
VERTEX
  8
0
  5
36F1F
 10
-368.363
 20
857.872
 30
0.000000
  70
    32
  0
VERTEX
  8
0
  5
36F20
 10
-368.367
 20
857.869
 30
0.000000
  70
    32
  0
VERTEX
  8
0
  5
36F21
 10
-368.372
 20
857.866
 30
0.000000
  70
    32
  0
VERTEX
  8
0
  5
36F22
 10
-368.377
 20
857.863
 30
0.000000
  70
    32
  0
VERTEX
  8
0
  5
36F23
 10
-368.381
 20
857.860
 30
0.000000
  70
    32
  0
VERTEX
  8
0
  5
36F24
 10
-368.386
 20
857.857
 30
0.000000
  70
    32
  0
VERTEX
  8
0
  5
36F25
 10
-368.391
 20
857.853
 30
0.000000
  70
    32
  0
VERTEX
  8
0
  5
36F26
 10
-368.395
 20
857.850
 30
0.000000
  70
    32
  0
VERTEX
  8
0
  5
36F27
 10
-368.400
 20
857.847
 30
0.000000
  70
    32
  0
VERTEX
  8
0
  5
36F28
 10
-368.404
 20
857.844
 30
0.000000
  70
    32
  0
VERTEX
  8
0
  5
36F29
 10
-368.409
 20
857.841
 30
0.000000
  70
    32
  0
VERTEX
  8
0
  5
36F2A
 10
-368.414
 20
857.838
 30
0.000000
  70
    32
  0
VERTEX
  8
0
  5
36F2B
 10
-368.418
 20
857.835
 30
0.000000
  70
    32
  0
VERTEX
  8
0
  5
36F2C
 10
-368.423
 20
857.832
 30
0.000000
  70
    32
  0
VERTEX
  8
0
  5
36F2D
 10
-368.427
 20
857.829
 30
0.000000
  70
    32
  0
VERTEX
  8
0
  5
36F2E
 10
-368.432
 20
857.826
 30
0.000000
  70
    32
  0
VERTEX
  8
0
  5
36F2F
 10
-368.437
 20
857.822
 30
0.000000
  70
    32
  0
VERTEX
  8
0
  5
36F30
 10
-368.441
 20
857.819
 30
0.000000
  70
    32
  0
VERTEX
  8
0
  5
36F31
 10
-368.446
 20
857.816
 30
0.000000
  70
    32
  0
VERTEX
  8
0
  5
36F32
 10
-368.451
 20
857.813
 30
0.000000
  70
    32
  0
VERTEX
  8
0
  5
36F33
 10
-368.455
 20
857.810
 30
0.000000
  70
    32
  0
VERTEX
  8
0
  5
36F34
 10
-368.460
 20
857.807
 30
0.000000
  70
    32
  0
VERTEX
  8
0
  5
36F35
 10
-368.464
 20
857.804
 30
0.000000
  70
    32
  0
VERTEX
  8
0
  5
36F36
 10
-368.469
 20
857.801
 30
0.000000
  70
    32
  0
VERTEX
  8
0
  5
36F37
 10
-368.474
 20
857.798
 30
0.000000
  70
    32
  0
VERTEX
  8
0
  5
36F38
 10
-368.478
 20
857.795
 30
0.000000
  70
    32
  0
VERTEX
  8
0
  5
36F39
 10
-368.483
 20
857.792
 30
0.000000
  70
    32
  0
VERTEX
  8
0
  5
36F3A
 10
-368.488
 20
857.789
 30
0.000000
  70
    32
  0
VERTEX
  8
0
  5
36F3B
 10
-368.492
 20
857.786
 30
0.000000
  70
    32
  0
VERTEX
  8
0
  5
36F3C
 10
-368.497
 20
857.783
 30
0.000000
  70
    32
  0
SEQEND
  8
0
  5
36F3D
  0
LINE
  5
368DC
  8
0
 10
-367.39113144382532
 20
859.42541272178676
 30
0.0
 11
-367.39251963312068
 21
859.25055109295045
 31
0.0
  0
VIEWPORT
  5
BADA
 67
     1
  8
0
 10
5.249999665167536
 20
4.0168608648543138
 30
0.0
 40
16.023543186357209
 41
8.0117715931786062
 68
     2
 69
     1
1001
ACAD
1000
MVIEW
1002
{
1070
    16
1010
0.0
1020
0.0
1030
0.0
1010
0.0
1020
0.0
1030
1.0
1040
0.0
1040
8.0117715931786062
1040
5.249999665167536
1040
4.0168608648543138
1040
50.0
1040
0.0
1040
0.0
1070
     0
1070
   100
1070
     1
1070
     1
1070
     0
1070
     0
1070
     0
1070
     0
1040
0.0
1040
0.0
1040
0.0
1040
0.5
1040
0.5
1040
0.5
1040
0.5
1070
     0
1002
{
1002
}
1002
}
  0
VIEWPORT
  5
BADD
 67
     1
  8
0
 10
5.2499996294871929
 20
4.0166741807634683
 30
0.0
 40
10.44245679893058
 41
7.8813805131999892
 68
     1
 69
     2
1001
ACAD
1000
MVIEW
1002
{
1070
    16
1010
0.0
1020
0.0
1030
0.0
1010
0.0
1020
0.0
1030
1.0
1040
0.0
1040
7.8813805329733588
1040
-367.91068226081393
1040
858.36800062925317
1040
50.0
1040
0.0
1040
0.0
1070
     0
1070
   100
1070
     1
1070
     2
1070
     0
1070
     0
1070
     0
1070
     0
1040
0.0
1040
0.0
1040
0.0
1040
0.5
1040
0.5
1040
0.5
1040
0.5
1070
     0
1002
{
1002
}
1002
}
  0
ENDSEC
  0
EOF
