  0
SECTION
  2
HEADER
  9
$ACADVER
  1
AC1032
  9
$ACADMAINTVER
 90
        4
  9
$DWGCODEPAGE
  3
ANSI_1252
  9
$LASTSAVEDBY
  1
SPetery
  9
$REQUIREDVERSIONS
160
                 0
  9
$INSBASE
 10
0.0
 20
0.0
 30
0.0
  9
$EXTMIN
 10
0.0
 20
-0.0000000000001137
 30
0.0
  9
$EXTMAX
 10
4.294823328785781
 20
1.6875
 30
0.0
  9
$LIMMIN
 10
0.0
 20
0.0
  9
$LIMMAX
 10
1500.0
 20
1500.0
  9
$ORTHOMODE
 70
     0
  9
$REGENMODE
 70
     1
  9
$FILLMODE
 70
     1
  9
$QTEXTMODE
 70
     0
  9
$MIRRTEXT
 70
     1
  9
$LTSCALE
 40
1.0
  9
$ATTMODE
 70
     1
  9
$TEXTSIZE
 40
1.5
  9
$TRACEWID
 40
0.05
  9
$TEXTSTYLE
  7
Standard
  9
$CLAYER
  8
0
  9
$CELTYPE
  6
ByLayer
  9
$CECOLOR
 62
   256
  9
$CELTSCALE
 40
1.0
  9
$DISPSILH
 70
     0
  9
$DIMSCALE
 40
1.0
  9
$DIMASZ
 40
0.75
  9
$DIMEXO
 40
1.5
  9
$DIMDLI
 40
2.0
  9
$DIMRND
 40
0.0
  9
$DIMDLE
 40
0.0
  9
$DIMEXE
 40
1.0
  9
$DIMTP
 40
0.0
  9
$DIMTM
 40
0.0
  9
$DIMTXT
 40
1.5
  9
$DIMCEN
 40
2.0
  9
$DIMTSZ
 40
0.0
  9
$DIMTOL
 70
     0
  9
$DIMLIM
 70
     0
  9
$DIMTIH
 70
     0
  9
$DIMTOH
 70
     0
  9
$DIMSE1
 70
     0
  9
$DIMSE2
 70
     0
  9
$DIMTAD
 70
     1
  9
$DIMZIN
 70
     0
  9
$DIMBLK
  1
ArchTick
  9
$DIMASO
 70
     1
  9
$DIMSHO
 70
     1
  9
$DIMPOST
  1
"
  9
$DIMAPOST
  1

  9
$DIMALT
 70
     0
  9
$DIMALTD
 70
     2
  9
$DIMALTF
 40
25.4
  9
$DIMLFAC
 40
1.0
  9
$DIMTOFL
 70
     0
  9
$DIMTVP
 40
0.0
  9
$DIMTIX
 70
     1
  9
$DIMSOXD
 70
     0
  9
$DIMSAH
 70
     0
  9
$DIMBLK1
  1

  9
$DIMBLK2
  1

  9
$DIMSTYLE
  2
Three Quarter Inch Scale
  9
$DIMCLRD
 70
     0
  9
$DIMCLRE
 70
     0
  9
$DIMCLRT
 70
     0
  9
$DIMTFAC
 40
1.0
  9
$DIMGAP
 40
1.0
  9
$DIMJUST
 70
     0
  9
$DIMSD1
 70
     0
  9
$DIMSD2
 70
     0
  9
$DIMTOLJ
 70
     1
  9
$DIMTZIN
 70
     0
  9
$DIMALTZ
 70
     0
  9
$DIMALTTZ
 70
     0
  9
$DIMUPT
 70
     0
  9
$DIMDEC
 70
     5
  9
$DIMTDEC
 70
     5
  9
$DIMALTU
 70
     2
  9
$DIMALTTD
 70
     2
  9
$DIMTXSTY
  7
Standard
  9
$DIMAUNIT
 70
     0
  9
$DIMADEC
 70
     0
  9
$DIMALTRND
 40
0.0
  9
$DIMAZIN
 70
     0
  9
$DIMDSEP
 70
    46
  9
$DIMATFIT
 70
     3
  9
$DIMFRAC
 70
     0
  9
$DIMLDRBLK
  1
Open30
  9
$DIMLUNIT
 70
     5
  9
$DIMLWD
 70
    -2
  9
$DIMLWE
 70
    -2
  9
$DIMTMOVE
 70
     2
  9
$DIMFXL
 40
1.0
  9
$DIMFXLON
 70
     0
  9
$DIMJOGANG
 40
0.7853981633974483
  9
$DIMTFILL
 70
     0
  9
$DIMTFILLCLR
 70
     0
  9
$DIMARCSYM
 70
     0
  9
$DIMLTYPE
  6

  9
$DIMLTEX1
  6

  9
$DIMLTEX2
  6

  9
$DIMTXTDIRECTION
 70
     0
  9
$LUNITS
 70
     2
  9
$LUPREC
 70
     4
  9
$SKETCHINC
 40
0.1
  9
$FILLETRAD
 40
0.0
  9
$AUNITS
 70
     0
  9
$AUPREC
 70
     0
  9
$MENU
  1
.
  9
$ELEVATION
 40
0.0
  9
$PELEVATION
 40
0.0
  9
$THICKNESS
 40
0.0
  9
$LIMCHECK
 70
     0
  9
$CHAMFERA
 40
0.5
  9
$CHAMFERB
 40
0.5
  9
$CHAMFERC
 40
1.0
  9
$CHAMFERD
 40
0.0
  9
$SKPOLY
 70
     0
  9
$TDCREATE
 40
2452089.395729167
  9
$TDUCREATE
 40
2452089.562405440
  9
$TDUPDATE
 40
2459921.265034722
  9
$TDUUPDATE
 40
2459921.473368056
  9
$TDINDWG
 40
1.2359252662
  9
$TDUSRTIMER
 40
1.2359252662
  9
$USRTIMER
 70
     1
  9
$ANGBASE
 50
0.0
  9
$ANGDIR
 70
     0
  9
$PDMODE
 70
     0
  9
$PDSIZE
 40
10.0
  9
$PLINEWID
 40
0.0
  9
$SPLFRAME
 70
     0
  9
$SPLINETYPE
 70
     6
  9
$SPLINESEGS
 70
     8
  9
$HANDSEED
  5
17C49
  9
$SURFTAB1
 70
     6
  9
$SURFTAB2
 70
     6
  9
$SURFTYPE
 70
     6
  9
$SURFU
 70
     6
  9
$SURFV
 70
     6
  9
$UCSBASE
  2

  9
$UCSNAME
  2

  9
$UCSORG
 10
0.0
 20
0.0
 30
0.0
  9
$UCSXDIR
 10
1.0
 20
0.0
 30
0.0
  9
$UCSYDIR
 10
0.0
 20
1.0
 30
0.0
  9
$UCSORTHOREF
  2

  9
$UCSORTHOVIEW
 70
     0
  9
$UCSORGTOP
 10
0.0
 20
0.0
 30
0.0
  9
$UCSORGBOTTOM
 10
0.0
 20
0.0
 30
0.0
  9
$UCSORGLEFT
 10
0.0
 20
0.0
 30
0.0
  9
$UCSORGRIGHT
 10
0.0
 20
0.0
 30
0.0
  9
$UCSORGFRONT
 10
0.0
 20
0.0
 30
0.0
  9
$UCSORGBACK
 10
0.0
 20
0.0
 30
0.0
  9
$PUCSBASE
  2

  9
$PUCSNAME
  2

  9
$PUCSORG
 10
0.0
 20
0.0
 30
0.0
  9
$PUCSXDIR
 10
1.0
 20
0.0
 30
0.0
  9
$PUCSYDIR
 10
0.0
 20
1.0
 30
0.0
  9
$PUCSORTHOREF
  2

  9
$PUCSORTHOVIEW
 70
     0
  9
$PUCSORGTOP
 10
0.0
 20
0.0
 30
0.0
  9
$PUCSORGBOTTOM
 10
0.0
 20
0.0
 30
0.0
  9
$PUCSORGLEFT
 10
0.0
 20
0.0
 30
0.0
  9
$PUCSORGRIGHT
 10
0.0
 20
0.0
 30
0.0
  9
$PUCSORGFRONT
 10
0.0
 20
0.0
 30
0.0
  9
$PUCSORGBACK
 10
0.0
 20
0.0
 30
0.0
  9
$USERI1
 70
     0
  9
$USERI2
 70
     0
  9
$USERI3
 70
     0
  9
$USERI4
 70
     0
  9
$USERI5
 70
     0
  9
$USERR1
 40
0.0
  9
$USERR2
 40
0.0
  9
$USERR3
 40
0.0
  9
$USERR4
 40
0.0
  9
$USERR5
 40
0.0
  9
$WORLDVIEW
 70
     1
  9
$SHADEDGE
 70
     3
  9
$SHADEDIF
 70
    70
  9
$TILEMODE
 70
     1
  9
$MAXACTVP
 70
    64
  9
$PINSBASE
 10
0.0
 20
0.0
 30
0.0
  9
$PLIMCHECK
 70
     0
  9
$PEXTMIN
 10
0.0287712300219028
 20
0.0759839241634737
 30
0.0
  9
$PEXTMAX
 10
10.47122802895248
 20
7.957364437363462
 30
0.0
  9
$PLIMMIN
 10
-0.2500002402958907
 20
-0.2499999962453767
  9
$PLIMMAX
 10
10.74999951940821
 20
8.249999763458731
  9
$UNITMODE
 70
     0
  9
$VISRETAIN
 70
     1
  9
$PLINEGEN
 70
     0
  9
$PSLTSCALE
 70
     1
  9
$TREEDEPTH
 70
  3020
  9
$CMLSTYLE
  2
Standard
  9
$CMLJUST
 70
     0
  9
$CMLSCALE
 40
1.0
  9
$PROXYGRAPHICS
 70
     1
  9
$MEASUREMENT
 70
     0
  9
$CELWEIGHT
370
    -1
  9
$ENDCAPS
280
     0
  9
$JOINSTYLE
280
     0
  9
$LWDISPLAY
290
     0
  9
$INSUNITS
 70
     1
  9
$HYPERLINKBASE
  1

  9
$STYLESHEET
  1

  9
$XEDIT
290
     1
  9
$CEPSNTYPE
380
     0
  9
$PSTYLEMODE
290
     1
  9
$FINGERPRINTGUID
  2
{FDEAD576-A652-11D2-9A35-0060089B3A3F}
  9
$VERSIONGUID
  2
{FAC99D9B-59DB-5F4E-B84F-4CBC4BEB23B4}
  9
$EXTNAMES
290
     1
  9
$PSVPSCALE
 40
0.0
  9
$OLESTARTUP
290
     0
  9
$SORTENTS
280
    96
  9
$INDEXCTL
280
     0
  9
$HIDETEXT
280
     0
  9
$XCLIPFRAME
280
     0
  9
$HALOGAP
280
     0
  9
$OBSCOLOR
 70
   257
  9
$OBSLTYPE
280
     0
  9
$INTERSECTIONDISPLAY
280
     0
  9
$INTERSECTIONCOLOR
 70
   257
  9
$DIMASSOC
280
     1
  9
$PROJECTNAME
  1

  9
$CAMERADISPLAY
290
     0
  9
$LENSLENGTH
 40
50.0
  9
$CAMERAHEIGHT
 40
0.0
  9
$STEPSPERSEC
 40
2.0
  9
$STEPSIZE
 40
6.0
  9
$3DDWFPREC
 40
2.0
  9
$PSOLWIDTH
 40
0.25
  9
$PSOLHEIGHT
 40
4.0
  9
$LOFTANG1
 40
1.570796326794896
  9
$LOFTANG2
 40
1.570796326794896
  9
$LOFTMAG1
 40
0.0
  9
$LOFTMAG2
 40
0.0
  9
$LOFTPARAM
 70
     7
  9
$LOFTNORMALS
280
     1
  9
$LATITUDE
 40
37.795
  9
$LONGITUDE
 40
-122.394
  9
$NORTHDIRECTION
 40
0.0
  9
$TIMEZONE
 70
 -8000
  9
$LIGHTGLYPHDISPLAY
280
     1
  9
$TILEMODELIGHTSYNCH
280
     1
  9
$CMATERIAL
347
1716F
  9
$SOLIDHIST
280
     0
  9
$SHOWHIST
280
     1
  9
$DWFFRAME
280
     2
  9
$DGNFRAME
280
     0
  9
$REALWORLDSCALE
290
     1
  9
$INTERFERECOLOR
 62
     1
  9
$INTERFEREOBJVS
345
17191
  9
$INTERFEREVPVS
346
1718E
  9
$CSHADOW
280
     0
  9
$SHADOWPLANELOCATION
 40
0.0
  0
ENDSEC
  0
SECTION
  2
CLASSES
  0
CLASS
  1
ACDBDICTIONARYWDFLT
  2
AcDbDictionaryWithDefault
  3
ObjectDBX Classes
 90
        0
 91
        1
280
     0
281
     0
  0
CLASS
  1
DICTIONARYVAR
  2
AcDbDictionaryVar
  3
ObjectDBX Classes
 90
        0
 91
       12
280
     0
281
     0
  0
CLASS
  1
PLOTSETTINGS
  2
AcDbPlotSettings
  3
ObjectDBX Classes
 90
        0
 91
        0
280
     0
281
     0
  0
CLASS
  1
TABLESTYLE
  2
AcDbTableStyle
  3
ObjectDBX Classes
 90
     4095
 91
        1
280
     0
281
     0
  0
CLASS
  1
SORTENTSTABLE
  2
AcDbSortentsTable
  3
ObjectDBX Classes
 90
        0
 91
        0
280
     0
281
     0
  0
CLASS
  1
MATERIAL
  2
AcDbMaterial
  3
ObjectDBX Classes
 90
     1153
 91
        3
280
     0
281
     0
  0
CLASS
  1
VISUALSTYLE
  2
AcDbVisualStyle
  3
ObjectDBX Classes
 90
     4095
 91
       25
280
     0
281
     0
  0
CLASS
  1
SCALE
  2
AcDbScale
  3
ObjectDBX Classes
 90
     1153
 91
       17
280
     0
281
     0
  0
CLASS
  1
MLEADERSTYLE
  2
AcDbMLeaderStyle
  3
ACDB_MLEADERSTYLE_CLASS
 90
     4095
 91
        1
280
     0
281
     0
  0
CLASS
  1
ACDBSECTIONVIEWSTYLE
  2
AcDbSectionViewStyle
  3
ObjectDBX Classes
 90
     1025
 91
        1
280
     0
281
     0
  0
CLASS
  1
ACDBDETAILVIEWSTYLE
  2
AcDbDetailViewStyle
  3
ObjectDBX Classes
 90
     1025
 91
        1
280
     0
281
     0
  0
CLASS
  1
CELLSTYLEMAP
  2
AcDbCellStyleMap
  3
ObjectDBX Classes
 90
     1152
 91
        1
280
     0
281
     0
  0
ENDSEC
  0
SECTION
  2
TABLES
  0
TABLE
  2
VPORT
  5
8
330
0
100
AcDbSymbolTable
 70
     1
  0
VPORT
  5
16E58
330
8
100
AcDbSymbolTableRecord
100
AcDbViewportTableRecord
  2
*Active
 70
     0
 10
0.0
 20
0.0
 11
1.0
 21
1.0
 12
2.14741166439289
 22
0.8437499999999433
 13
0.0
 23
0.0
 14
0.5
 24
0.5
 15
0.5
 25
0.5
 16
0.0
 26
0.0
 36
1.0
 17
0.0
 27
0.0
 37
0.0
 40
2.17904660911635
 41
1.977395048439182
 42
50.0
 43
0.0
 44
0.0
 50
0.0
 51
0.0
 71
     0
 72
   100
 73
     1
 74
     2
 75
     0
 76
     0
 77
     0
 78
     0
281
     0
 65
     1
110
0.0
120
0.0
130
0.0
111
1.0
121
0.0
131
0.0
112
0.0
122
1.0
132
0.0
 79
     0
146
0.0
348
1718D
 60
     3
 61
     5
292
     1
282
     1
141
0.0
142
0.0
 63
   250
421
  3355443
1001
ACAD_NAV_VCDISPLAY
1070
     3
  0
ENDTAB
  0
TABLE
  2
LTYPE
  5
5
330
0
100
AcDbSymbolTable
 70
     2
  0
LTYPE
  5
14
330
5
100
AcDbSymbolTableRecord
100
AcDbLinetypeTableRecord
  2
ByBlock
 70
     0
  3

 72
    65
 73
     0
 40
0.0
  0
LTYPE
  5
15
330
5
100
AcDbSymbolTableRecord
100
AcDbLinetypeTableRecord
  2
ByLayer
 70
     0
  3

 72
    65
 73
     0
 40
0.0
  0
LTYPE
  5
16
330
5
100
AcDbSymbolTableRecord
100
AcDbLinetypeTableRecord
  2
Continuous
 70
     0
  3
Solid line
 72
    65
 73
     0
 40
0.0
  0
ENDTAB
  0
TABLE
  2
LAYER
  5
2
102
{ACAD_XDICTIONARY
360
4D73
102
}
330
0
100
AcDbSymbolTable
 70
     2
  0
LAYER
  5
10
102
{ACAD_XDICTIONARY
360
171D0
102
}
330
2
100
AcDbSymbolTableRecord
100
AcDbLayerTableRecord
  2
0
 70
     0
 62
     7
  6
Continuous
370
    -3
390
F
347
1717F
348
0
  0
LAYER
  5
135
330
2
100
AcDbSymbolTableRecord
100
AcDbLayerTableRecord
  2
Defpoints
 70
     0
 62
     7
  6
Continuous
290
     0
370
    -3
390
F
347
1717F
348
0
  0
ENDTAB
  0
TABLE
  2
STYLE
  5
3
330
0
100
AcDbSymbolTable
 70
     1
  0
STYLE
  5
11
330
3
100
AcDbSymbolTableRecord
100
AcDbTextStyleTableRecord
  2
Standard
 70
     0
 40
0.0
 41
1.0
 50
0.0
 71
     0
 42
1.5
  3
arial.ttf
  4

1001
ACAD
1000
Arial
1071
       34
  0
ENDTAB
  0
TABLE
  2
VIEW
  5
6
330
0
100
AcDbSymbolTable
 70
     1
  0
ENDTAB
  0
TABLE
  2
UCS
  5
7
330
0
100
AcDbSymbolTable
 70
     0
  0
ENDTAB
  0
TABLE
  2
APPID
  5
9
330
0
100
AcDbSymbolTable
 70
     9
  0
APPID
  5
12
330
9
100
AcDbSymbolTableRecord
100
AcDbRegAppTableRecord
  2
ACAD
 70
     0
  0
APPID
  5
DE8
330
9
100
AcDbSymbolTableRecord
100
AcDbRegAppTableRecord
  2
DCO15
 70
     0
  0
APPID
  5
BABC
330
9
100
AcDbSymbolTableRecord
100
AcDbRegAppTableRecord
  2
ACAD_EXEMPT_FROM_CAD_STANDARDS
 70
     0
  0
APPID
  5
BADB
330
9
100
AcDbSymbolTableRecord
100
AcDbRegAppTableRecord
  2
ACAD_PSEXT
 70
     0
  0
APPID
  5
171C8
330
9
100
AcDbSymbolTableRecord
100
AcDbRegAppTableRecord
  2
ACAD_NAV_VCDISPLAY
 70
     0
  0
APPID
  5
171EC
330
9
100
AcDbSymbolTableRecord
100
AcDbRegAppTableRecord
  2
ACAD_DSTYLE_DIMJOGGED_JOGANGLE_SYMBOL
 70
     0
  0
APPID
  5
171ED
330
9
100
AcDbSymbolTableRecord
100
AcDbRegAppTableRecord
  2
ACAD_DSTYLE_DIMJAG
 70
     0
  0
APPID
  5
171EE
330
9
100
AcDbSymbolTableRecord
100
AcDbRegAppTableRecord
  2
ACAD_DSTYLE_DIMTALN
 70
     0
  0
APPID
  5
171EF
330
9
100
AcDbSymbolTableRecord
100
AcDbRegAppTableRecord
  2
ACAD_DSTYLE_DIMBREAK
 70
     0
  0
ENDTAB
  0
TABLE
  2
DIMSTYLE
  5
A
330
0
100
AcDbSymbolTable
 70
     1
100
AcDbDimStyleTable
 71
     1
340
42D
  0
DIMSTYLE
105
42D
330
A
100
AcDbSymbolTableRecord
100
AcDbDimStyleTableRecord
  2
Three Quarter Inch Scale
 70
     0
  3
"
 41
0.75
 42
1.5
 43
2.0
 44
1.0
 73
     0
 74
     0
 77
     1
140
1.5
141
2.0
147
1.0
174
     1
271
     5
272
     5
277
     5
279
     2
340
11
341
15B
342
157
  0
ENDTAB
  0
TABLE
  2
BLOCK_RECORD
  5
1
330
0
100
AcDbSymbolTable
 70
     2
  0
BLOCK_RECORD
  5
1F
330
1
100
AcDbSymbolTableRecord
100
AcDbBlockTableRecord
  2
*Model_Space
340
22
 70
     0
280
     1
281
     0
  0
BLOCK_RECORD
  5
BAD2
330
1
100
AcDbSymbolTableRecord
100
AcDbBlockTableRecord
  2
*Paper_Space
340
BAD3
 70
     0
280
     1
281
     0
  0
BLOCK_RECORD
  5
157
330
1
100
AcDbSymbolTableRecord
100
AcDbBlockTableRecord
  2
_ArchTick
340
0
 70
     0
280
     1
281
     0
  0
BLOCK_RECORD
  5
15B
330
1
100
AcDbSymbolTableRecord
100
AcDbBlockTableRecord
  2
_Open30
340
0
 70
     0
280
     1
281
     0
  0
ENDTAB
  0
ENDSEC
  0
SECTION
  2
BLOCKS
  0
BLOCK
  5
20
330
1F
100
AcDbEntity
  8
0
100
AcDbBlockBegin
  2
*Model_Space
 70
     0
 10
0.0
 20
0.0
 30
0.0
  3
*Model_Space
  1

  0
ENDBLK
  5
21
330
1F
100
AcDbEntity
  8
0
100
AcDbBlockEnd
  0
BLOCK
  5
BAD4
330
BAD2
100
AcDbEntity
 67
     1
  8
0
100
AcDbBlockBegin
  2
*Paper_Space
 70
     0
 10
0.0
 20
0.0
 30
0.0
  3
*Paper_Space
  1

  0
ENDBLK
  5
BAD5
330
BAD2
100
AcDbEntity
 67
     1
  8
0
100
AcDbBlockEnd
  0
BLOCK
  5
159
330
157
100
AcDbEntity
  8
0
100
AcDbBlockBegin
  2
_ArchTick
 70
     0
 10
0.0
 20
0.0
 30
0.0
  3
_ArchTick
  1

  0
LWPOLYLINE
  5
158
330
157
100
AcDbEntity
  8
0
  6
ByBlock
 62
     0
100
AcDbPolyline
 90
        2
 70
     0
 43
0.15
 10
-0.5
 20
-0.5
 10
0.5
 20
0.5
  0
ENDBLK
  5
15A
330
157
100
AcDbEntity
  8
0
100
AcDbBlockEnd
  0
BLOCK
  5
15F
330
15B
100
AcDbEntity
  8
0
100
AcDbBlockBegin
  2
_Open30
 70
     0
 10
0.0
 20
0.0
 30
0.0
  3
_Open30
  1

  0
LINE
  5
15C
330
15B
100
AcDbEntity
  8
0
  6
ByBlock
 62
     0
370
    -2
100
AcDbLine
 10
-1.0
 20
0.26794919
 30
0.0
 11
0.0
 21
0.0
 31
0.0
  0
LINE
  5
15D
330
15B
100
AcDbEntity
  8
0
  6
ByBlock
 62
     0
370
    -2
100
AcDbLine
 10
0.0
 20
0.0
 30
0.0
 11
-1.0
 21
-0.26794919
 31
0.0
  0
LINE
  5
15E
330
15B
100
AcDbEntity
  8
0
  6
ByBlock
 62
     0
370
    -2
100
AcDbLine
 10
0.0
 20
0.0
 30
0.0
 11
-1.0
 21
0.0
 31
0.0
  0
ENDBLK
  5
160
330
15B
100
AcDbEntity
  8
0
100
AcDbBlockEnd
  0
ENDSEC
  0
SECTION
  2
ENTITIES
  0
MTEXT
  5
35F9
330
1F
100
AcDbEntity
  8
0
  6
Continuous
100
AcDbMText
 10
-190.6197349533861
 20
802.7717768792895
 30
0.0
 40
0.125
 41
0.0
 46
0.0
 71
     1
 72
     1
  1

 73
     1
 44
1.0
  0
LINE
  5
1791D
330
1F
100
AcDbEntity
  8
0
100
AcDbLine
 10
0.4854168197474565
 20
1.6875
 30
0.0
 11
0.7001206811472116
 21
1.6875
 31
0.0
  0
LINE
  5
1791E
330
1F
100
AcDbEntity
  8
0
100
AcDbLine
 10
0.3829657505019099
 20
0.0
 30
0.0
 11
0.7001206811471548
 21
0.0
 31
0.0
  0
ARC
  5
1791F
330
1F
100
AcDbEntity
  8
0
100
AcDbCircle
 10
0.3829657505019099
 20
0.0624999999998863
 30
0.0
 40
0.0625
100
AcDbArc
 50
185.1763835904357
 51
270.0
  0
LINE
  5
17920
330
1F
100
AcDbEntity
  8
0
100
AcDbLine
 10
1.46091956409765
 20
1.6875
 30
0.0
 11
1.246215702697895
 21
1.6875
 31
0.0
  0
LINE
  5
17921
330
1F
100
AcDbEntity
  8
0
100
AcDbLine
 10
1.563370633343254
 20
0.0
 30
0.0
 11
1.246215702697895
 21
0.0
 31
0.0
  0
ARC
  5
17922
330
1F
100
AcDbEntity
  8
0
100
AcDbCircle
 10
1.563370633343254
 20
0.0624999999998863
 30
0.0
 40
0.0625
100
AcDbArc
 50
270.0
 51
354.8236164095643
  0
LINE
  5
17923
330
1F
100
AcDbEntity
  8
0
100
AcDbLine
 10
0.7001206811471548
 20
0.0
 30
0.0
 11
1.246215702697895
 21
0.0
 31
0.0
  0
LINE
  5
17924
330
1F
100
AcDbEntity
  8
0
100
AcDbLine
 10
1.246215702697895
 20
1.6875
 30
0.0
 11
0.7001206811472116
 21
1.6875
 31
0.0
  0
POLYLINE
  5
17925
330
1F
100
AcDbEntity
  8
0
100
AcDb3dPolyline
 66
     1
 10
0.0
 20
0.0
 30
0.0
 70
     8
  0
VERTEX
  5
17926
330
17925
100
AcDbEntity
  8
0
100
AcDbVertex
100
AcDb3dPolylineVertex
 10
0.4849999999999568
 20
1.687140748582578
 30
0.0
 70
    32
  0
VERTEX
  5
17927
330
17925
100
AcDbEntity
  8
0
100
AcDbVertex
100
AcDb3dPolylineVertex
 10
0.4799999999999614
 20
1.687140748582578
 30
0.0
 70
    32
  0
VERTEX
  5
17928
330
17925
100
AcDbEntity
  8
0
100
AcDbVertex
100
AcDb3dPolylineVertex
 10
0.4749999999999659
 20
1.686140748582602
 30
0.0
 70
    32
  0
VERTEX
  5
17929
330
17925
100
AcDbEntity
  8
0
100
AcDbVertex
100
AcDb3dPolylineVertex
 10
0.4699999999999705
 20
1.686140748582602
 30
0.0
 70
    32
  0
VERTEX
  5
1792A
330
17925
100
AcDbEntity
  8
0
100
AcDbVertex
100
AcDb3dPolylineVertex
 10
0.464999999999975
 20
1.685140748582512
 30
0.0
 70
    32
  0
VERTEX
  5
1792B
330
17925
100
AcDbEntity
  8
0
100
AcDbVertex
100
AcDb3dPolylineVertex
 10
0.4599999999999796
 20
1.685140748582512
 30
0.0
 70
    32
  0
VERTEX
  5
1792C
330
17925
100
AcDbEntity
  8
0
100
AcDbVertex
100
AcDb3dPolylineVertex
 10
0.4549999999999841
 20
1.684140748582535
 30
0.0
 70
    32
  0
VERTEX
  5
1792D
330
17925
100
AcDbEntity
  8
0
100
AcDbVertex
100
AcDb3dPolylineVertex
 10
0.4490000000000123
 20
1.684140748582535
 30
0.0
 70
    32
  0
VERTEX
  5
1792E
330
17925
100
AcDbEntity
  8
0
100
AcDbVertex
100
AcDb3dPolylineVertex
 10
0.4440000000000169
 20
1.683140748582559
 30
0.0
 70
    32
  0
VERTEX
  5
1792F
330
17925
100
AcDbEntity
  8
0
100
AcDbVertex
100
AcDb3dPolylineVertex
 10
0.4390000000000214
 20
1.682140748582583
 30
0.0
 70
    32
  0
VERTEX
  5
17930
330
17925
100
AcDbEntity
  8
0
100
AcDbVertex
100
AcDb3dPolylineVertex
 10
0.4339999999999691
 20
1.682140748582583
 30
0.0
 70
    32
  0
VERTEX
  5
17931
330
17925
100
AcDbEntity
  8
0
100
AcDbVertex
100
AcDb3dPolylineVertex
 10
0.4289999999999737
 20
1.681140748582606
 30
0.0
 70
    32
  0
VERTEX
  5
17932
330
17925
100
AcDbEntity
  8
0
100
AcDbVertex
100
AcDb3dPolylineVertex
 10
0.4239999999999782
 20
1.681140748582606
 30
0.0
 70
    32
  0
VERTEX
  5
17933
330
17925
100
AcDbEntity
  8
0
100
AcDbVertex
100
AcDb3dPolylineVertex
 10
0.4189999999999828
 20
1.680140748582516
 30
0.0
 70
    32
  0
VERTEX
  5
17934
330
17925
100
AcDbEntity
  8
0
100
AcDbVertex
100
AcDb3dPolylineVertex
 10
0.413000000000011
 20
1.67914074858254
 30
0.0
 70
    32
  0
VERTEX
  5
17935
330
17925
100
AcDbEntity
  8
0
100
AcDbVertex
100
AcDb3dPolylineVertex
 10
0.4080000000000155
 20
1.67914074858254
 30
0.0
 70
    32
  0
VERTEX
  5
17936
330
17925
100
AcDbEntity
  8
0
100
AcDbVertex
100
AcDb3dPolylineVertex
 10
0.40300000000002
 20
1.678140748582563
 30
0.0
 70
    32
  0
VERTEX
  5
17937
330
17925
100
AcDbEntity
  8
0
100
AcDbVertex
100
AcDb3dPolylineVertex
 10
0.3980000000000245
 20
1.677140748582587
 30
0.0
 70
    32
  0
VERTEX
  5
17938
330
17925
100
AcDbEntity
  8
0
100
AcDbVertex
100
AcDb3dPolylineVertex
 10
0.3930000000000291
 20
1.677140748582587
 30
0.0
 70
    32
  0
VERTEX
  5
17939
330
17925
100
AcDbEntity
  8
0
100
AcDbVertex
100
AcDb3dPolylineVertex
 10
0.3880000000000336
 20
1.676140748582497
 30
0.0
 70
    32
  0
VERTEX
  5
1793A
330
17925
100
AcDbEntity
  8
0
100
AcDbVertex
100
AcDb3dPolylineVertex
 10
0.3829999999999813
 20
1.675140748582521
 30
0.0
 70
    32
  0
VERTEX
  5
1793B
330
17925
100
AcDbEntity
  8
0
100
AcDbVertex
100
AcDb3dPolylineVertex
 10
0.3770000000000095
 20
1.674140748582544
 30
0.0
 70
    32
  0
VERTEX
  5
1793C
330
17925
100
AcDbEntity
  8
0
100
AcDbVertex
100
AcDb3dPolylineVertex
 10
0.3720000000000141
 20
1.674140748582544
 30
0.0
 70
    32
  0
VERTEX
  5
1793D
330
17925
100
AcDbEntity
  8
0
100
AcDbVertex
100
AcDb3dPolylineVertex
 10
0.3670000000000186
 20
1.673140748582568
 30
0.0
 70
    32
  0
VERTEX
  5
1793E
330
17925
100
AcDbEntity
  8
0
100
AcDbVertex
100
AcDb3dPolylineVertex
 10
0.3620000000000232
 20
1.672140748582592
 30
0.0
 70
    32
  0
VERTEX
  5
1793F
330
17925
100
AcDbEntity
  8
0
100
AcDbVertex
100
AcDb3dPolylineVertex
 10
0.3570000000000277
 20
1.671140748582502
 30
0.0
 70
    32
  0
VERTEX
  5
17940
330
17925
100
AcDbEntity
  8
0
100
AcDbVertex
100
AcDb3dPolylineVertex
 10
0.3520000000000323
 20
1.670140748582525
 30
0.0
 70
    32
  0
VERTEX
  5
17941
330
17925
100
AcDbEntity
  8
0
100
AcDbVertex
100
AcDb3dPolylineVertex
 10
0.3470000000000368
 20
1.669140748582549
 30
0.0
 70
    32
  0
VERTEX
  5
17942
330
17925
100
AcDbEntity
  8
0
100
AcDbVertex
100
AcDb3dPolylineVertex
 10
0.3420000000000414
 20
1.669140748582549
 30
0.0
 70
    32
  0
VERTEX
  5
17943
330
17925
100
AcDbEntity
  8
0
100
AcDbVertex
100
AcDb3dPolylineVertex
 10
0.3359999999999559
 20
1.668140748582572
 30
0.0
 70
    32
  0
VERTEX
  5
17944
330
17925
100
AcDbEntity
  8
0
100
AcDbVertex
100
AcDb3dPolylineVertex
 10
0.3309999999999604
 20
1.667140748582482
 30
0.0
 70
    32
  0
VERTEX
  5
17945
330
17925
100
AcDbEntity
  8
0
100
AcDbVertex
100
AcDb3dPolylineVertex
 10
0.325999999999965
 20
1.666140748582506
 30
0.0
 70
    32
  0
VERTEX
  5
17946
330
17925
100
AcDbEntity
  8
0
100
AcDbVertex
100
AcDb3dPolylineVertex
 10
0.3209999999999695
 20
1.66514074858253
 30
0.0
 70
    32
  0
VERTEX
  5
17947
330
17925
100
AcDbEntity
  8
0
100
AcDbVertex
100
AcDb3dPolylineVertex
 10
0.3159999999999741
 20
1.664140748582553
 30
0.0
 70
    32
  0
VERTEX
  5
17948
330
17925
100
AcDbEntity
  8
0
100
AcDbVertex
100
AcDb3dPolylineVertex
 10
0.3109999999999786
 20
1.662140748582487
 30
0.0
 70
    32
  0
VERTEX
  5
17949
330
17925
100
AcDbEntity
  8
0
100
AcDbVertex
100
AcDb3dPolylineVertex
 10
0.3059999999999832
 20
1.661140748582511
 30
0.0
 70
    32
  0
VERTEX
  5
1794A
330
17925
100
AcDbEntity
  8
0
100
AcDbVertex
100
AcDb3dPolylineVertex
 10
0.3009999999999877
 20
1.660140748582534
 30
0.0
 70
    32
  0
VERTEX
  5
1794B
330
17925
100
AcDbEntity
  8
0
100
AcDbVertex
100
AcDb3dPolylineVertex
 10
0.2959999999999923
 20
1.659140748582558
 30
0.0
 70
    32
  0
VERTEX
  5
1794C
330
17925
100
AcDbEntity
  8
0
100
AcDbVertex
100
AcDb3dPolylineVertex
 10
0.29099999999994
 20
1.658140748582468
 30
0.0
 70
    32
  0
VERTEX
  5
1794D
330
17925
100
AcDbEntity
  8
0
100
AcDbVertex
100
AcDb3dPolylineVertex
 10
0.2849999999999682
 20
1.656140748582515
 30
0.0
 70
    32
  0
VERTEX
  5
1794E
330
17925
100
AcDbEntity
  8
0
100
AcDbVertex
100
AcDb3dPolylineVertex
 10
0.2799999999999727
 20
1.655140748582539
 30
0.0
 70
    32
  0
VERTEX
  5
1794F
330
17925
100
AcDbEntity
  8
0
100
AcDbVertex
100
AcDb3dPolylineVertex
 10
0.2749999999999773
 20
1.654140748582562
 30
0.0
 70
    32
  0
VERTEX
  5
17950
330
17925
100
AcDbEntity
  8
0
100
AcDbVertex
100
AcDb3dPolylineVertex
 10
0.2699999999999818
 20
1.652140748582496
 30
0.0
 70
    32
  0
VERTEX
  5
17951
330
17925
100
AcDbEntity
  8
0
100
AcDbVertex
100
AcDb3dPolylineVertex
 10
0.2649999999999864
 20
1.65114074858252
 30
0.0
 70
    32
  0
VERTEX
  5
17952
330
17925
100
AcDbEntity
  8
0
100
AcDbVertex
100
AcDb3dPolylineVertex
 10
0.2599999999999909
 20
1.649140748582453
 30
0.0
 70
    32
  0
VERTEX
  5
17953
330
17925
100
AcDbEntity
  8
0
100
AcDbVertex
100
AcDb3dPolylineVertex
 10
0.2549999999999954
 20
1.648140748582477
 30
0.0
 70
    32
  0
VERTEX
  5
17954
330
17925
100
AcDbEntity
  8
0
100
AcDbVertex
100
AcDb3dPolylineVertex
 10
0.25
 20
1.646140748582524
 30
0.0
 70
    32
  0
VERTEX
  5
17955
330
17925
100
AcDbEntity
  8
0
100
AcDbVertex
100
AcDb3dPolylineVertex
 10
0.2450000000000045
 20
1.645140748582548
 30
0.0
 70
    32
  0
VERTEX
  5
17956
330
17925
100
AcDbEntity
  8
0
100
AcDbVertex
100
AcDb3dPolylineVertex
 10
0.2399999999999522
 20
1.643140748582482
 30
0.0
 70
    32
  0
VERTEX
  5
17957
330
17925
100
AcDbEntity
  8
0
100
AcDbVertex
100
AcDb3dPolylineVertex
 10
0.2349999999999568
 20
1.641140748582529
 30
0.0
 70
    32
  0
VERTEX
  5
17958
330
17925
100
AcDbEntity
  8
0
100
AcDbVertex
100
AcDb3dPolylineVertex
 10
0.2299999999999613
 20
1.640140748582552
 30
0.0
 70
    32
  0
VERTEX
  5
17959
330
17925
100
AcDbEntity
  8
0
100
AcDbVertex
100
AcDb3dPolylineVertex
 10
0.2249999999999659
 20
1.638140748582486
 30
0.0
 70
    32
  0
VERTEX
  5
1795A
330
17925
100
AcDbEntity
  8
0
100
AcDbVertex
100
AcDb3dPolylineVertex
 10
0.2199999999999704
 20
1.636140748582533
 30
0.0
 70
    32
  0
VERTEX
  5
1795B
330
17925
100
AcDbEntity
  8
0
100
AcDbVertex
100
AcDb3dPolylineVertex
 10
0.2159999999999513
 20
1.634140748582467
 30
0.0
 70
    32
  0
VERTEX
  5
1795C
330
17925
100
AcDbEntity
  8
0
100
AcDbVertex
100
AcDb3dPolylineVertex
 10
0.2109999999999559
 20
1.632140748582514
 30
0.0
 70
    32
  0
VERTEX
  5
1795D
330
17925
100
AcDbEntity
  8
0
100
AcDbVertex
100
AcDb3dPolylineVertex
 10
0.2059999999999604
 20
1.630140748582562
 30
0.0
 70
    32
  0
VERTEX
  5
1795E
330
17925
100
AcDbEntity
  8
0
100
AcDbVertex
100
AcDb3dPolylineVertex
 10
0.200999999999965
 20
1.628140748582495
 30
0.0
 70
    32
  0
VERTEX
  5
1795F
330
17925
100
AcDbEntity
  8
0
100
AcDbVertex
100
AcDb3dPolylineVertex
 10
0.1959999999999695
 20
1.626140748582542
 30
0.0
 70
    32
  0
VERTEX
  5
17960
330
17925
100
AcDbEntity
  8
0
100
AcDbVertex
100
AcDb3dPolylineVertex
 10
0.1920000000000073
 20
1.624140748582476
 30
0.0
 70
    32
  0
VERTEX
  5
17961
330
17925
100
AcDbEntity
  8
0
100
AcDbVertex
100
AcDb3dPolylineVertex
 10
0.1870000000000118
 20
1.622140748582523
 30
0.0
 70
    32
  0
VERTEX
  5
17962
330
17925
100
AcDbEntity
  8
0
100
AcDbVertex
100
AcDb3dPolylineVertex
 10
0.1820000000000164
 20
1.619140748582481
 30
0.0
 70
    32
  0
VERTEX
  5
17963
330
17925
100
AcDbEntity
  8
0
100
AcDbVertex
100
AcDb3dPolylineVertex
 10
0.1779999999999973
 20
1.617140748582528
 30
0.0
 70
    32
  0
VERTEX
  5
17964
330
17925
100
AcDbEntity
  8
0
100
AcDbVertex
100
AcDb3dPolylineVertex
 10
0.1730000000000018
 20
1.614140748582485
 30
0.0
 70
    32
  0
VERTEX
  5
17965
330
17925
100
AcDbEntity
  8
0
100
AcDbVertex
100
AcDb3dPolylineVertex
 10
0.1680000000000064
 20
1.612140748582532
 30
0.0
 70
    32
  0
VERTEX
  5
17966
330
17925
100
AcDbEntity
  8
0
100
AcDbVertex
100
AcDb3dPolylineVertex
 10
0.1639999999999873
 20
1.60914074858249
 30
0.0
 70
    32
  0
VERTEX
  5
17967
330
17925
100
AcDbEntity
  8
0
100
AcDbVertex
100
AcDb3dPolylineVertex
 10
0.1589999999999918
 20
1.607140748582537
 30
0.0
 70
    32
  0
VERTEX
  5
17968
330
17925
100
AcDbEntity
  8
0
100
AcDbVertex
100
AcDb3dPolylineVertex
 10
0.1549999999999727
 20
1.604140748582494
 30
0.0
 70
    32
  0
VERTEX
  5
17969
330
17925
100
AcDbEntity
  8
0
100
AcDbVertex
100
AcDb3dPolylineVertex
 10
0.1499999999999773
 20
1.602140748582542
 30
0.0
 70
    32
  0
VERTEX
  5
1796A
330
17925
100
AcDbEntity
  8
0
100
AcDbVertex
100
AcDb3dPolylineVertex
 10
0.1459999999999582
 20
1.599140748582499
 30
0.0
 70
    32
  0
VERTEX
  5
1796B
330
17925
100
AcDbEntity
  8
0
100
AcDbVertex
100
AcDb3dPolylineVertex
 10
0.1409999999999627
 20
1.59614074858257
 30
0.0
 70
    32
  0
VERTEX
  5
1796C
330
17925
100
AcDbEntity
  8
0
100
AcDbVertex
100
AcDb3dPolylineVertex
 10
0.1370000000000004
 20
1.593140748582527
 30
0.0
 70
    32
  0
VERTEX
  5
1796D
330
17925
100
AcDbEntity
  8
0
100
AcDbVertex
100
AcDb3dPolylineVertex
 10
0.1329999999999813
 20
1.590140748582598
 30
0.0
 70
    32
  0
VERTEX
  5
1796E
330
17925
100
AcDbEntity
  8
0
100
AcDbVertex
100
AcDb3dPolylineVertex
 10
0.1290000000000191
 20
1.587140748582555
 30
0.0
 70
    32
  0
VERTEX
  5
1796F
330
17925
100
AcDbEntity
  8
0
100
AcDbVertex
100
AcDb3dPolylineVertex
 10
0.1239999999999668
 20
1.584140748582512
 30
0.0
 70
    32
  0
VERTEX
  5
17970
330
17925
100
AcDbEntity
  8
0
100
AcDbVertex
100
AcDb3dPolylineVertex
 10
0.1200000000000045
 20
1.581140748582583
 30
0.0
 70
    32
  0
VERTEX
  5
17971
330
17925
100
AcDbEntity
  8
0
100
AcDbVertex
100
AcDb3dPolylineVertex
 10
0.1159999999999854
 20
1.577140748582564
 30
0.0
 70
    32
  0
VERTEX
  5
17972
330
17925
100
AcDbEntity
  8
0
100
AcDbVertex
100
AcDb3dPolylineVertex
 10
0.1120000000000232
 20
1.574140748582522
 30
0.0
 70
    32
  0
VERTEX
  5
17973
330
17925
100
AcDbEntity
  8
0
100
AcDbVertex
100
AcDb3dPolylineVertex
 10
0.1080000000000041
 20
1.571140748582593
 30
0.0
 70
    32
  0
VERTEX
  5
17974
330
17925
100
AcDbEntity
  8
0
100
AcDbVertex
100
AcDb3dPolylineVertex
 10
0.103999999999985
 20
1.567140748582573
 30
0.0
 70
    32
  0
VERTEX
  5
17975
330
17925
100
AcDbEntity
  8
0
100
AcDbVertex
100
AcDb3dPolylineVertex
 10
0.0999999999999659
 20
1.564140748582531
 30
0.0
 70
    32
  0
VERTEX
  5
17976
330
17925
100
AcDbEntity
  8
0
100
AcDbVertex
100
AcDb3dPolylineVertex
 10
0.0959999999999468
 20
1.560140748582512
 30
0.0
 70
    32
  0
VERTEX
  5
17977
330
17925
100
AcDbEntity
  8
0
100
AcDbVertex
100
AcDb3dPolylineVertex
 10
0.0930000000000178
 20
1.556140748582606
 30
0.0
 70
    32
  0
VERTEX
  5
17978
330
17925
100
AcDbEntity
  8
0
100
AcDbVertex
100
AcDb3dPolylineVertex
 10
0.0889999999999987
 20
1.553140748582563
 30
0.0
 70
    32
  0
VERTEX
  5
17979
330
17925
100
AcDbEntity
  8
0
100
AcDbVertex
100
AcDb3dPolylineVertex
 10
0.0849999999999796
 20
1.549140748582544
 30
0.0
 70
    32
  0
VERTEX
  5
1797A
330
17925
100
AcDbEntity
  8
0
100
AcDbVertex
100
AcDb3dPolylineVertex
 10
0.0820000000000505
 20
1.545140748582525
 30
0.0
 70
    32
  0
VERTEX
  5
1797B
330
17925
100
AcDbEntity
  8
0
100
AcDbVertex
100
AcDb3dPolylineVertex
 10
0.0780000000000314
 20
1.541140748582506
 30
0.0
 70
    32
  0
VERTEX
  5
1797C
330
17925
100
AcDbEntity
  8
0
100
AcDbVertex
100
AcDb3dPolylineVertex
 10
0.0749999999999886
 20
1.537140748582487
 30
0.0
 70
    32
  0
VERTEX
  5
1797D
330
17925
100
AcDbEntity
  8
0
100
AcDbVertex
100
AcDb3dPolylineVertex
 10
0.0709999999999695
 20
1.533140748582468
 30
0.0
 70
    32
  0
VERTEX
  5
1797E
330
17925
100
AcDbEntity
  8
0
100
AcDbVertex
100
AcDb3dPolylineVertex
 10
0.0679999999999836
 20
1.529140748582562
 30
0.0
 70
    32
  0
VERTEX
  5
1797F
330
17925
100
AcDbEntity
  8
0
100
AcDbVertex
100
AcDb3dPolylineVertex
 10
0.0640000000000214
 20
1.525140748582543
 30
0.0
 70
    32
  0
VERTEX
  5
17980
330
17925
100
AcDbEntity
  8
0
100
AcDbVertex
100
AcDb3dPolylineVertex
 10
0.0609999999999786
 20
1.521140748582524
 30
0.0
 70
    32
  0
VERTEX
  5
17981
330
17925
100
AcDbEntity
  8
0
100
AcDbVertex
100
AcDb3dPolylineVertex
 10
0.0579999999999927
 20
1.516140748582529
 30
0.0
 70
    32
  0
VERTEX
  5
17982
330
17925
100
AcDbEntity
  8
0
100
AcDbVertex
100
AcDb3dPolylineVertex
 10
0.0550000000000068
 20
1.51214074858251
 30
0.0
 70
    32
  0
VERTEX
  5
17983
330
17925
100
AcDbEntity
  8
0
100
AcDbVertex
100
AcDb3dPolylineVertex
 10
0.0520000000000209
 20
1.508140748582491
 30
0.0
 70
    32
  0
VERTEX
  5
17984
330
17925
100
AcDbEntity
  8
0
100
AcDbVertex
100
AcDb3dPolylineVertex
 10
0.0489999999999782
 20
1.503140748582495
 30
0.0
 70
    32
  0
VERTEX
  5
17985
330
17925
100
AcDbEntity
  8
0
100
AcDbVertex
100
AcDb3dPolylineVertex
 10
0.0459999999999923
 20
1.499140748582476
 30
0.0
 70
    32
  0
VERTEX
  5
17986
330
17925
100
AcDbEntity
  8
0
100
AcDbVertex
100
AcDb3dPolylineVertex
 10
0.0430000000000064
 20
1.495140748582571
 30
0.0
 70
    32
  0
VERTEX
  5
17987
330
17925
100
AcDbEntity
  8
0
100
AcDbVertex
100
AcDb3dPolylineVertex
 10
0.04099999999994
 20
1.490140748582575
 30
0.0
 70
    32
  0
VERTEX
  5
17988
330
17925
100
AcDbEntity
  8
0
100
AcDbVertex
100
AcDb3dPolylineVertex
 10
0.0380000000000109
 20
1.486140748582556
 30
0.0
 70
    32
  0
VERTEX
  5
17989
330
17925
100
AcDbEntity
  8
0
100
AcDbVertex
100
AcDb3dPolylineVertex
 10
0.0359999999999445
 20
1.481140748582561
 30
0.0
 70
    32
  0
VERTEX
  5
1798A
330
17925
100
AcDbEntity
  8
0
100
AcDbVertex
100
AcDb3dPolylineVertex
 10
0.0330000000000155
 20
1.476140748582565
 30
0.0
 70
    32
  0
VERTEX
  5
1798B
330
17925
100
AcDbEntity
  8
0
100
AcDbVertex
100
AcDb3dPolylineVertex
 10
0.0309999999999491
 20
1.472140748582546
 30
0.0
 70
    32
  0
VERTEX
  5
1798C
330
17925
100
AcDbEntity
  8
0
100
AcDbVertex
100
AcDb3dPolylineVertex
 10
0.0289999999999964
 20
1.467140748582551
 30
0.0
 70
    32
  0
VERTEX
  5
1798D
330
17925
100
AcDbEntity
  8
0
100
AcDbVertex
100
AcDb3dPolylineVertex
 10
0.0259999999999536
 20
1.462140748582555
 30
0.0
 70
    32
  0
VERTEX
  5
1798E
330
17925
100
AcDbEntity
  8
0
100
AcDbVertex
100
AcDb3dPolylineVertex
 10
0.0240000000000009
 20
1.458140748582536
 30
0.0
 70
    32
  0
VERTEX
  5
1798F
330
17925
100
AcDbEntity
  8
0
100
AcDbVertex
100
AcDb3dPolylineVertex
 10
0.0220000000000482
 20
1.453140748582541
 30
0.0
 70
    32
  0
VERTEX
  5
17990
330
17925
100
AcDbEntity
  8
0
100
AcDbVertex
100
AcDb3dPolylineVertex
 10
0.0199999999999818
 20
1.448140748582545
 30
0.0
 70
    32
  0
VERTEX
  5
17991
330
17925
100
AcDbEntity
  8
0
100
AcDbVertex
100
AcDb3dPolylineVertex
 10
0.0190000000000055
 20
1.44314074858255
 30
0.0
 70
    32
  0
VERTEX
  5
17992
330
17925
100
AcDbEntity
  8
0
100
AcDbVertex
100
AcDb3dPolylineVertex
 10
0.0169999999999959
 20
1.438140748582554
 30
0.0
 70
    32
  0
VERTEX
  5
17993
330
17925
100
AcDbEntity
  8
0
100
AcDbVertex
100
AcDb3dPolylineVertex
 10
0.0149999999999864
 20
1.433140748582559
 30
0.0
 70
    32
  0
VERTEX
  5
17994
330
17925
100
AcDbEntity
  8
0
100
AcDbVertex
100
AcDb3dPolylineVertex
 10
0.01400000000001
 20
1.428140748582563
 30
0.0
 70
    32
  0
VERTEX
  5
17995
330
17925
100
AcDbEntity
  8
0
100
AcDbVertex
100
AcDb3dPolylineVertex
 10
0.0120000000000005
 20
1.423140748582568
 30
0.0
 70
    32
  0
VERTEX
  5
17996
330
17925
100
AcDbEntity
  8
0
100
AcDbVertex
100
AcDb3dPolylineVertex
 10
0.0109999999999673
 20
1.419140748582549
 30
0.0
 70
    32
  0
VERTEX
  5
17997
330
17925
100
AcDbEntity
  8
0
100
AcDbVertex
100
AcDb3dPolylineVertex
 10
0.0099999999999909
 20
1.414140748582553
 30
0.0
 70
    32
  0
VERTEX
  5
17998
330
17925
100
AcDbEntity
  8
0
100
AcDbVertex
100
AcDb3dPolylineVertex
 10
0.0090000000000146
 20
1.409140748582558
 30
0.0
 70
    32
  0
VERTEX
  5
17999
330
17925
100
AcDbEntity
  8
0
100
AcDbVertex
100
AcDb3dPolylineVertex
 10
0.007000000000005
 20
1.404140748582562
 30
0.0
 70
    32
  0
VERTEX
  5
1799A
330
17925
100
AcDbEntity
  8
0
100
AcDbVertex
100
AcDb3dPolylineVertex
 10
0.0059999999999718
 20
1.398140748582477
 30
0.0
 70
    32
  0
VERTEX
  5
1799B
330
17925
100
AcDbEntity
  8
0
100
AcDbVertex
100
AcDb3dPolylineVertex
 10
0.0059999999999718
 20
1.393140748582482
 30
0.0
 70
    32
  0
VERTEX
  5
1799C
330
17925
100
AcDbEntity
  8
0
100
AcDbVertex
100
AcDb3dPolylineVertex
 10
0.0049999999999955
 20
1.388140748582486
 30
0.0
 70
    32
  0
VERTEX
  5
1799D
330
17925
100
AcDbEntity
  8
0
100
AcDbVertex
100
AcDb3dPolylineVertex
 10
0.0040000000000191
 20
1.383140748582491
 30
0.0
 70
    32
  0
VERTEX
  5
1799E
330
17925
100
AcDbEntity
  8
0
100
AcDbVertex
100
AcDb3dPolylineVertex
 10
0.0029999999999859
 20
1.378140748582495
 30
0.0
 70
    32
  0
VERTEX
  5
1799F
330
17925
100
AcDbEntity
  8
0
100
AcDbVertex
100
AcDb3dPolylineVertex
 10
0.0029999999999859
 20
1.3731407485825
 30
0.0
 70
    32
  0
VERTEX
  5
179A0
330
17925
100
AcDbEntity
  8
0
100
AcDbVertex
100
AcDb3dPolylineVertex
 10
0.0020000000000096
 20
1.368140748582504
 30
0.0
 70
    32
  0
VERTEX
  5
179A1
330
17925
100
AcDbEntity
  8
0
100
AcDbVertex
100
AcDb3dPolylineVertex
 10
0.0020000000000096
 20
1.363140748582509
 30
0.0
 70
    32
  0
VERTEX
  5
179A2
330
17925
100
AcDbEntity
  8
0
100
AcDbVertex
100
AcDb3dPolylineVertex
 10
0.0009999999999764
 20
1.358140748582513
 30
0.0
 70
    32
  0
VERTEX
  5
179A3
330
17925
100
AcDbEntity
  8
0
100
AcDbVertex
100
AcDb3dPolylineVertex
 10
0.0009999999999764
 20
1.352140748582542
 30
0.0
 70
    32
  0
VERTEX
  5
179A4
330
17925
100
AcDbEntity
  8
0
100
AcDbVertex
100
AcDb3dPolylineVertex
 10
0.0009999999999764
 20
1.347140748582546
 30
0.0
 70
    32
  0
VERTEX
  5
179A5
330
17925
100
AcDbEntity
  8
0
100
AcDbVertex
100
AcDb3dPolylineVertex
 10
0.0009999999999764
 20
1.342140748582551
 30
0.0
 70
    32
  0
VERTEX
  5
179A6
330
17925
100
AcDbEntity
  8
0
100
AcDbVertex
100
AcDb3dPolylineVertex
 10
0.0009999999999764
 20
1.337140748582555
 30
0.0
 70
    32
  0
VERTEX
  5
179A7
330
17925
100
AcDbEntity
  8
0
100
AcDbVertex
100
AcDb3dPolylineVertex
 10
0.0
 20
1.331140748582583
 30
0.0
 70
    32
  0
VERTEX
  5
179A8
330
17925
100
AcDbEntity
  8
0
100
AcDbVertex
100
AcDb3dPolylineVertex
 10
0.0
 20
1.326140748582588
 30
0.0
 70
    32
  0
VERTEX
  5
179A9
330
17925
100
AcDbEntity
  8
0
100
AcDbVertex
100
AcDb3dPolylineVertex
 10
0.0009999999999764
 20
1.321140748582593
 30
0.0
 70
    32
  0
VERTEX
  5
179AA
330
17925
100
AcDbEntity
  8
0
100
AcDbVertex
100
AcDb3dPolylineVertex
 10
0.0009999999999764
 20
1.316140748582597
 30
0.0
 70
    32
  0
VERTEX
  5
179AB
330
17925
100
AcDbEntity
  8
0
100
AcDbVertex
100
AcDb3dPolylineVertex
 10
0.0009999999999764
 20
1.310140748582512
 30
0.0
 70
    32
  0
VERTEX
  5
179AC
330
17925
100
AcDbEntity
  8
0
100
AcDbVertex
100
AcDb3dPolylineVertex
 10
0.0009999999999764
 20
1.305140748582516
 30
0.0
 70
    32
  0
VERTEX
  5
179AD
330
17925
100
AcDbEntity
  8
0
100
AcDbVertex
100
AcDb3dPolylineVertex
 10
0.0009999999999764
 20
1.300140748582521
 30
0.0
 70
    32
  0
VERTEX
  5
179AE
330
17925
100
AcDbEntity
  8
0
100
AcDbVertex
100
AcDb3dPolylineVertex
 10
0.0020000000000096
 20
1.295140748582525
 30
0.0
 70
    32
  0
VERTEX
  5
179AF
330
17925
100
AcDbEntity
  8
0
100
AcDbVertex
100
AcDb3dPolylineVertex
 10
0.0020000000000096
 20
1.289140748582553
 30
0.0
 70
    32
  0
VERTEX
  5
179B0
330
17925
100
AcDbEntity
  8
0
100
AcDbVertex
100
AcDb3dPolylineVertex
 10
0.0029999999999859
 20
1.284140748582558
 30
0.0
 70
    32
  0
VERTEX
  5
179B1
330
17925
100
AcDbEntity
  8
0
100
AcDbVertex
100
AcDb3dPolylineVertex
 10
0.0029999999999859
 20
1.279140748582562
 30
0.0
 70
    32
  0
VERTEX
  5
179B2
330
17925
100
AcDbEntity
  8
0
100
AcDbVertex
100
AcDb3dPolylineVertex
 10
0.0040000000000191
 20
1.273140748582477
 30
0.0
 70
    32
  0
VERTEX
  5
179B3
330
17925
100
AcDbEntity
  8
0
100
AcDbVertex
100
AcDb3dPolylineVertex
 10
0.0040000000000191
 20
1.268140748582482
 30
0.0
 70
    32
  0
VERTEX
  5
179B4
330
17925
100
AcDbEntity
  8
0
100
AcDbVertex
100
AcDb3dPolylineVertex
 10
0.0049999999999955
 20
1.263140748582486
 30
0.0
 70
    32
  0
VERTEX
  5
179B5
330
17925
100
AcDbEntity
  8
0
100
AcDbVertex
100
AcDb3dPolylineVertex
 10
0.0059999999999718
 20
1.258140748582491
 30
0.0
 70
    32
  0
VERTEX
  5
179B6
330
17925
100
AcDbEntity
  8
0
100
AcDbVertex
100
AcDb3dPolylineVertex
 10
0.0059999999999718
 20
1.252140748582519
 30
0.0
 70
    32
  0
VERTEX
  5
179B7
330
17925
100
AcDbEntity
  8
0
100
AcDbVertex
100
AcDb3dPolylineVertex
 10
0.007000000000005
 20
1.247140748582523
 30
0.0
 70
    32
  0
VERTEX
  5
179B8
330
17925
100
AcDbEntity
  8
0
100
AcDbVertex
100
AcDb3dPolylineVertex
 10
0.0079999999999814
 20
1.242140748582528
 30
0.0
 70
    32
  0
VERTEX
  5
179B9
330
17925
100
AcDbEntity
  8
0
100
AcDbVertex
100
AcDb3dPolylineVertex
 10
0.0090000000000146
 20
1.236140748582556
 30
0.0
 70
    32
  0
VERTEX
  5
179BA
330
17925
100
AcDbEntity
  8
0
100
AcDbVertex
100
AcDb3dPolylineVertex
 10
0.0099999999999909
 20
1.231140748582561
 30
0.0
 70
    32
  0
VERTEX
  5
179BB
330
17925
100
AcDbEntity
  8
0
100
AcDbVertex
100
AcDb3dPolylineVertex
 10
0.0099999999999909
 20
1.226140748582565
 30
0.0
 70
    32
  0
VERTEX
  5
179BC
330
17925
100
AcDbEntity
  8
0
100
AcDbVertex
100
AcDb3dPolylineVertex
 10
0.0109999999999673
 20
1.22114074858257
 30
0.0
 70
    32
  0
VERTEX
  5
179BD
330
17925
100
AcDbEntity
  8
0
100
AcDbVertex
100
AcDb3dPolylineVertex
 10
0.0120000000000005
 20
1.215140748582598
 30
0.0
 70
    32
  0
VERTEX
  5
179BE
330
17925
100
AcDbEntity
  8
0
100
AcDbVertex
100
AcDb3dPolylineVertex
 10
0.0130000000000337
 20
1.210140748582603
 30
0.0
 70
    32
  0
VERTEX
  5
179BF
330
17925
100
AcDbEntity
  8
0
100
AcDbVertex
100
AcDb3dPolylineVertex
 10
0.01400000000001
 20
1.205140748582607
 30
0.0
 70
    32
  0
VERTEX
  5
179C0
330
17925
100
AcDbEntity
  8
0
100
AcDbVertex
100
AcDb3dPolylineVertex
 10
0.0149999999999864
 20
1.200140748582612
 30
0.0
 70
    32
  0
VERTEX
  5
179C1
330
17925
100
AcDbEntity
  8
0
100
AcDbVertex
100
AcDb3dPolylineVertex
 10
0.0159999999999627
 20
1.194140748582526
 30
0.0
 70
    32
  0
VERTEX
  5
179C2
330
17925
100
AcDbEntity
  8
0
100
AcDbVertex
100
AcDb3dPolylineVertex
 10
0.0169999999999959
 20
1.189140748582531
 30
0.0
 70
    32
  0
VERTEX
  5
179C3
330
17925
100
AcDbEntity
  8
0
100
AcDbVertex
100
AcDb3dPolylineVertex
 10
0.0180000000000291
 20
1.184140748582535
 30
0.0
 70
    32
  0
VERTEX
  5
179C4
330
17925
100
AcDbEntity
  8
0
100
AcDbVertex
100
AcDb3dPolylineVertex
 10
0.0190000000000055
 20
1.17914074858254
 30
0.0
 70
    32
  0
VERTEX
  5
179C5
330
17925
100
AcDbEntity
  8
0
100
AcDbVertex
100
AcDb3dPolylineVertex
 10
0.0209999999999582
 20
1.173140748582568
 30
0.0
 70
    32
  0
VERTEX
  5
179C6
330
17925
100
AcDbEntity
  8
0
100
AcDbVertex
100
AcDb3dPolylineVertex
 10
0.0220000000000482
 20
1.168140748582572
 30
0.0
 70
    32
  0
VERTEX
  5
179C7
330
17925
100
AcDbEntity
  8
0
100
AcDbVertex
100
AcDb3dPolylineVertex
 10
0.0230000000000246
 20
1.163140748582577
 30
0.0
 70
    32
  0
VERTEX
  5
179C8
330
17925
100
AcDbEntity
  8
0
100
AcDbVertex
100
AcDb3dPolylineVertex
 10
0.0240000000000009
 20
1.158140748582468
 30
0.0
 70
    32
  0
VERTEX
  5
179C9
330
17925
100
AcDbEntity
  8
0
100
AcDbVertex
100
AcDb3dPolylineVertex
 10
0.0249999999999773
 20
1.153140748582472
 30
0.0
 70
    32
  0
VERTEX
  5
179CA
330
17925
100
AcDbEntity
  8
0
100
AcDbVertex
100
AcDb3dPolylineVertex
 10
0.0259999999999536
 20
1.148140748582477
 30
0.0
 70
    32
  0
VERTEX
  5
179CB
330
17925
100
AcDbEntity
  8
0
100
AcDbVertex
100
AcDb3dPolylineVertex
 10
0.02800000000002
 20
1.143140748582482
 30
0.0
 70
    32
  0
VERTEX
  5
179CC
330
17925
100
AcDbEntity
  8
0
100
AcDbVertex
100
AcDb3dPolylineVertex
 10
0.0289999999999964
 20
1.13714074858251
 30
0.0
 70
    32
  0
VERTEX
  5
179CD
330
17925
100
AcDbEntity
  8
0
100
AcDbVertex
100
AcDb3dPolylineVertex
 10
0.0299999999999727
 20
1.132140748582514
 30
0.0
 70
    32
  0
VERTEX
  5
179CE
330
17925
100
AcDbEntity
  8
0
100
AcDbVertex
100
AcDb3dPolylineVertex
 10
0.0309999999999491
 20
1.127140748582519
 30
0.0
 70
    32
  0
VERTEX
  5
179CF
330
17925
100
AcDbEntity
  8
0
100
AcDbVertex
100
AcDb3dPolylineVertex
 10
0.0320000000000391
 20
1.122140748582523
 30
0.0
 70
    32
  0
VERTEX
  5
179D0
330
17925
100
AcDbEntity
  8
0
100
AcDbVertex
100
AcDb3dPolylineVertex
 10
0.0339999999999918
 20
1.117140748582528
 30
0.0
 70
    32
  0
VERTEX
  5
179D1
330
17925
100
AcDbEntity
  8
0
100
AcDbVertex
100
AcDb3dPolylineVertex
 10
0.0349999999999682
 20
1.112140748582532
 30
0.0
 70
    32
  0
VERTEX
  5
179D2
330
17925
100
AcDbEntity
  8
0
100
AcDbVertex
100
AcDb3dPolylineVertex
 10
0.0359999999999445
 20
1.107140748582537
 30
0.0
 70
    32
  0
VERTEX
  5
179D3
330
17925
100
AcDbEntity
  8
0
100
AcDbVertex
100
AcDb3dPolylineVertex
 10
0.0380000000000109
 20
1.102140748582542
 30
0.0
 70
    32
  0
VERTEX
  5
179D4
330
17925
100
AcDbEntity
  8
0
100
AcDbVertex
100
AcDb3dPolylineVertex
 10
0.0389999999999873
 20
1.097140748582546
 30
0.0
 70
    32
  0
VERTEX
  5
179D5
330
17925
100
AcDbEntity
  8
0
100
AcDbVertex
100
AcDb3dPolylineVertex
 10
0.0399999999999636
 20
1.092140748582551
 30
0.0
 70
    32
  0
VERTEX
  5
179D6
330
17925
100
AcDbEntity
  8
0
100
AcDbVertex
100
AcDb3dPolylineVertex
 10
0.04200000000003
 20
1.087140748582555
 30
0.0
 70
    32
  0
VERTEX
  5
179D7
330
17925
100
AcDbEntity
  8
0
100
AcDbVertex
100
AcDb3dPolylineVertex
 10
0.0430000000000064
 20
1.08214074858256
 30
0.0
 70
    32
  0
VERTEX
  5
179D8
330
17925
100
AcDbEntity
  8
0
100
AcDbVertex
100
AcDb3dPolylineVertex
 10
0.0439999999999827
 20
1.077140748582564
 30
0.0
 70
    32
  0
VERTEX
  5
179D9
330
17925
100
AcDbEntity
  8
0
100
AcDbVertex
100
AcDb3dPolylineVertex
 10
0.0459999999999923
 20
1.072140748582569
 30
0.0
 70
    32
  0
VERTEX
  5
179DA
330
17925
100
AcDbEntity
  8
0
100
AcDbVertex
100
AcDb3dPolylineVertex
 10
0.0470000000000255
 20
1.067140748582573
 30
0.0
 70
    32
  0
VERTEX
  5
179DB
330
17925
100
AcDbEntity
  8
0
100
AcDbVertex
100
AcDb3dPolylineVertex
 10
0.0489999999999782
 20
1.062140748582578
 30
0.0
 70
    32
  0
VERTEX
  5
179DC
330
17925
100
AcDbEntity
  8
0
100
AcDbVertex
100
AcDb3dPolylineVertex
 10
0.0499999999999545
 20
1.057140748582583
 30
0.0
 70
    32
  0
VERTEX
  5
179DD
330
17925
100
AcDbEntity
  8
0
100
AcDbVertex
100
AcDb3dPolylineVertex
 10
0.0520000000000209
 20
1.052140748582587
 30
0.0
 70
    32
  0
VERTEX
  5
179DE
330
17925
100
AcDbEntity
  8
0
100
AcDbVertex
100
AcDb3dPolylineVertex
 10
0.0529999999999973
 20
1.047140748582592
 30
0.0
 70
    32
  0
VERTEX
  5
179DF
330
17925
100
AcDbEntity
  8
0
100
AcDbVertex
100
AcDb3dPolylineVertex
 10
0.0550000000000068
 20
1.042140748582482
 30
0.0
 70
    32
  0
VERTEX
  5
179E0
330
17925
100
AcDbEntity
  8
0
100
AcDbVertex
100
AcDb3dPolylineVertex
 10
0.0559999999999832
 20
1.037140748582487
 30
0.0
 70
    32
  0
VERTEX
  5
179E1
330
17925
100
AcDbEntity
  8
0
100
AcDbVertex
100
AcDb3dPolylineVertex
 10
0.0579999999999927
 20
1.032140748582492
 30
0.0
 70
    32
  0
VERTEX
  5
179E2
330
17925
100
AcDbEntity
  8
0
100
AcDbVertex
100
AcDb3dPolylineVertex
 10
0.0589999999999691
 20
1.027140748582496
 30
0.0
 70
    32
  0
VERTEX
  5
179E3
330
17925
100
AcDbEntity
  8
0
100
AcDbVertex
100
AcDb3dPolylineVertex
 10
0.0609999999999786
 20
1.022140748582501
 30
0.0
 70
    32
  0
VERTEX
  5
179E4
330
17925
100
AcDbEntity
  8
0
100
AcDbVertex
100
AcDb3dPolylineVertex
 10
0.0620000000000118
 20
1.017140748582505
 30
0.0
 70
    32
  0
VERTEX
  5
179E5
330
17925
100
AcDbEntity
  8
0
100
AcDbVertex
100
AcDb3dPolylineVertex
 10
0.0640000000000214
 20
1.01214074858251
 30
0.0
 70
    32
  0
VERTEX
  5
179E6
330
17925
100
AcDbEntity
  8
0
100
AcDbVertex
100
AcDb3dPolylineVertex
 10
0.0649999999999977
 20
1.007140748582514
 30
0.0
 70
    32
  0
VERTEX
  5
179E7
330
17925
100
AcDbEntity
  8
0
100
AcDbVertex
100
AcDb3dPolylineVertex
 10
0.0670000000000073
 20
1.002140748582519
 30
0.0
 70
    32
  0
VERTEX
  5
179E8
330
17925
100
AcDbEntity
  8
0
100
AcDbVertex
100
AcDb3dPolylineVertex
 10
0.0690000000000168
 20
0.9971407485825238
 30
0.0
 70
    32
  0
VERTEX
  5
179E9
330
17925
100
AcDbEntity
  8
0
100
AcDbVertex
100
AcDb3dPolylineVertex
 10
0.0699999999999932
 20
0.9931407485825047
 30
0.0
 70
    32
  0
VERTEX
  5
179EA
330
17925
100
AcDbEntity
  8
0
100
AcDbVertex
100
AcDb3dPolylineVertex
 10
0.0720000000000027
 20
0.9881407485825093
 30
0.0
 70
    32
  0
VERTEX
  5
179EB
330
17925
100
AcDbEntity
  8
0
100
AcDbVertex
100
AcDb3dPolylineVertex
 10
0.0740000000000123
 20
0.9831407485825138
 30
0.0
 70
    32
  0
VERTEX
  5
179EC
330
17925
100
AcDbEntity
  8
0
100
AcDbVertex
100
AcDb3dPolylineVertex
 10
0.0749999999999886
 20
0.9781407485825184
 30
0.0
 70
    32
  0
VERTEX
  5
179ED
330
17925
100
AcDbEntity
  8
0
100
AcDbVertex
100
AcDb3dPolylineVertex
 10
0.0769999999999982
 20
0.9731407485825229
 30
0.0
 70
    32
  0
VERTEX
  5
179EE
330
17925
100
AcDbEntity
  8
0
100
AcDbVertex
100
AcDb3dPolylineVertex
 10
0.0790000000000077
 20
0.9681407485825275
 30
0.0
 70
    32
  0
VERTEX
  5
179EF
330
17925
100
AcDbEntity
  8
0
100
AcDbVertex
100
AcDb3dPolylineVertex
 10
0.0799999999999841
 20
0.963140748582532
 30
0.0
 70
    32
  0
VERTEX
  5
179F0
330
17925
100
AcDbEntity
  8
0
100
AcDbVertex
100
AcDb3dPolylineVertex
 10
0.0820000000000505
 20
0.9591407485825129
 30
0.0
 70
    32
  0
VERTEX
  5
179F1
330
17925
100
AcDbEntity
  8
0
100
AcDbVertex
100
AcDb3dPolylineVertex
 10
0.0840000000000032
 20
0.9541407485825175
 30
0.0
 70
    32
  0
VERTEX
  5
179F2
330
17925
100
AcDbEntity
  8
0
100
AcDbVertex
100
AcDb3dPolylineVertex
 10
0.0859999999999559
 20
0.949140748582522
 30
0.0
 70
    32
  0
VERTEX
  5
179F3
330
17925
100
AcDbEntity
  8
0
100
AcDbVertex
100
AcDb3dPolylineVertex
 10
0.087000000000046
 20
0.9441407485825266
 30
0.0
 70
    32
  0
VERTEX
  5
179F4
330
17925
100
AcDbEntity
  8
0
100
AcDbVertex
100
AcDb3dPolylineVertex
 10
0.0889999999999987
 20
0.9391407485825311
 30
0.0
 70
    32
  0
VERTEX
  5
179F5
330
17925
100
AcDbEntity
  8
0
100
AcDbVertex
100
AcDb3dPolylineVertex
 10
0.0909999999999514
 20
0.9341407485825357
 30
0.0
 70
    32
  0
VERTEX
  5
179F6
330
17925
100
AcDbEntity
  8
0
100
AcDbVertex
100
AcDb3dPolylineVertex
 10
0.0930000000000178
 20
0.9291407485825402
 30
0.0
 70
    32
  0
VERTEX
  5
179F7
330
17925
100
AcDbEntity
  8
0
100
AcDbVertex
100
AcDb3dPolylineVertex
 10
0.0949999999999705
 20
0.9251407485825211
 30
0.0
 70
    32
  0
VERTEX
  5
179F8
330
17925
100
AcDbEntity
  8
0
100
AcDbVertex
100
AcDb3dPolylineVertex
 10
0.0959999999999468
 20
0.9201407485825257
 30
0.0
 70
    32
  0
VERTEX
  5
179F9
330
17925
100
AcDbEntity
  8
0
100
AcDbVertex
100
AcDb3dPolylineVertex
 10
0.0980000000000132
 20
0.9151407485825302
 30
0.0
 70
    32
  0
VERTEX
  5
179FA
330
17925
100
AcDbEntity
  8
0
100
AcDbVertex
100
AcDb3dPolylineVertex
 10
0.0999999999999659
 20
0.9101407485825347
 30
0.0
 70
    32
  0
VERTEX
  5
179FB
330
17925
100
AcDbEntity
  8
0
100
AcDbVertex
100
AcDb3dPolylineVertex
 10
0.1020000000000323
 20
0.9051407485825393
 30
0.0
 70
    32
  0
VERTEX
  5
179FC
330
17925
100
AcDbEntity
  8
0
100
AcDbVertex
100
AcDb3dPolylineVertex
 10
0.103999999999985
 20
0.9011407485825202
 30
0.0
 70
    32
  0
VERTEX
  5
179FD
330
17925
100
AcDbEntity
  8
0
100
AcDbVertex
100
AcDb3dPolylineVertex
 10
0.1059999999999377
 20
0.8961407485825247
 30
0.0
 70
    32
  0
VERTEX
  5
179FE
330
17925
100
AcDbEntity
  8
0
100
AcDbVertex
100
AcDb3dPolylineVertex
 10
0.1080000000000041
 20
0.8911407485825293
 30
0.0
 70
    32
  0
VERTEX
  5
179FF
330
17925
100
AcDbEntity
  8
0
100
AcDbVertex
100
AcDb3dPolylineVertex
 10
0.1089999999999804
 20
0.8861407485825338
 30
0.0
 70
    32
  0
VERTEX
  5
17A00
330
17925
100
AcDbEntity
  8
0
100
AcDbVertex
100
AcDb3dPolylineVertex
 10
0.11099999999999
 20
0.8811407485825384
 30
0.0
 70
    32
  0
VERTEX
  5
17A01
330
17925
100
AcDbEntity
  8
0
100
AcDbVertex
100
AcDb3dPolylineVertex
 10
0.1129999999999995
 20
0.8771407485825193
 30
0.0
 70
    32
  0
VERTEX
  5
17A02
330
17925
100
AcDbEntity
  8
0
100
AcDbVertex
100
AcDb3dPolylineVertex
 10
0.1149999999999522
 20
0.8721407485825238
 30
0.0
 70
    32
  0
VERTEX
  5
17A03
330
17925
100
AcDbEntity
  8
0
100
AcDbVertex
100
AcDb3dPolylineVertex
 10
0.1170000000000186
 20
0.8671407485825284
 30
0.0
 70
    32
  0
VERTEX
  5
17A04
330
17925
100
AcDbEntity
  8
0
100
AcDbVertex
100
AcDb3dPolylineVertex
 10
0.1189999999999713
 20
0.8621407485825329
 30
0.0
 70
    32
  0
VERTEX
  5
17A05
330
17925
100
AcDbEntity
  8
0
100
AcDbVertex
100
AcDb3dPolylineVertex
 10
0.1209999999999809
 20
0.8581407485825138
 30
0.0
 70
    32
  0
VERTEX
  5
17A06
330
17925
100
AcDbEntity
  8
0
100
AcDbVertex
100
AcDb3dPolylineVertex
 10
0.1229999999999904
 20
0.8531407485825184
 30
0.0
 70
    32
  0
VERTEX
  5
17A07
330
17925
100
AcDbEntity
  8
0
100
AcDbVertex
100
AcDb3dPolylineVertex
 10
0.125
 20
0.8481407485825229
 30
0.0
 70
    32
  0
VERTEX
  5
17A08
330
17925
100
AcDbEntity
  8
0
100
AcDbVertex
100
AcDb3dPolylineVertex
 10
0.1270000000000095
 20
0.8431407485825275
 30
0.0
 70
    32
  0
VERTEX
  5
17A09
330
17925
100
AcDbEntity
  8
0
100
AcDbVertex
100
AcDb3dPolylineVertex
 10
0.1290000000000191
 20
0.838140748582532
 30
0.0
 70
    32
  0
VERTEX
  5
17A0A
330
17925
100
AcDbEntity
  8
0
100
AcDbVertex
100
AcDb3dPolylineVertex
 10
0.1309999999999718
 20
0.8341407485825129
 30
0.0
 70
    32
  0
VERTEX
  5
17A0B
330
17925
100
AcDbEntity
  8
0
100
AcDbVertex
100
AcDb3dPolylineVertex
 10
0.1329999999999813
 20
0.8291407485825175
 30
0.0
 70
    32
  0
VERTEX
  5
17A0C
330
17925
100
AcDbEntity
  8
0
100
AcDbVertex
100
AcDb3dPolylineVertex
 10
0.1349999999999909
 20
0.824140748582522
 30
0.0
 70
    32
  0
VERTEX
  5
17A0D
330
17925
100
AcDbEntity
  8
0
100
AcDbVertex
100
AcDb3dPolylineVertex
 10
0.1370000000000004
 20
0.8191407485825266
 30
0.0
 70
    32
  0
VERTEX
  5
17A0E
330
17925
100
AcDbEntity
  8
0
100
AcDbVertex
100
AcDb3dPolylineVertex
 10
0.13900000000001
 20
0.8151407485826211
 30
0.0
 70
    32
  0
VERTEX
  5
17A0F
330
17925
100
AcDbEntity
  8
0
100
AcDbVertex
100
AcDb3dPolylineVertex
 10
0.1409999999999627
 20
0.810140748582512
 30
0.0
 70
    32
  0
VERTEX
  5
17A10
330
17925
100
AcDbEntity
  8
0
100
AcDbVertex
100
AcDb3dPolylineVertex
 10
0.1430000000000291
 20
0.8051407485825166
 30
0.0
 70
    32
  0
VERTEX
  5
17A11
330
17925
100
AcDbEntity
  8
0
100
AcDbVertex
100
AcDb3dPolylineVertex
 10
0.1449999999999818
 20
0.8001407485825211
 30
0.0
 70
    32
  0
VERTEX
  5
17A12
330
17925
100
AcDbEntity
  8
0
100
AcDbVertex
100
AcDb3dPolylineVertex
 10
0.1470000000000482
 20
0.7961407485825021
 30
0.0
 70
    32
  0
VERTEX
  5
17A13
330
17925
100
AcDbEntity
  8
0
100
AcDbVertex
100
AcDb3dPolylineVertex
 10
0.1490000000000009
 20
0.7911407485825066
 30
0.0
 70
    32
  0
VERTEX
  5
17A14
330
17925
100
AcDbEntity
  8
0
100
AcDbVertex
100
AcDb3dPolylineVertex
 10
0.1509999999999536
 20
0.7861407485825112
 30
0.0
 70
    32
  0
VERTEX
  5
17A15
330
17925
100
AcDbEntity
  8
0
100
AcDbVertex
100
AcDb3dPolylineVertex
 10
0.15300000000002
 20
0.7811407485825157
 30
0.0
 70
    32
  0
VERTEX
  5
17A16
330
17925
100
AcDbEntity
  8
0
100
AcDbVertex
100
AcDb3dPolylineVertex
 10
0.1559999999999491
 20
0.7761407485825203
 30
0.0
 70
    32
  0
VERTEX
  5
17A17
330
17925
100
AcDbEntity
  8
0
100
AcDbVertex
100
AcDb3dPolylineVertex
 10
0.1580000000000155
 20
0.7721407485825012
 30
0.0
 70
    32
  0
VERTEX
  5
17A18
330
17925
100
AcDbEntity
  8
0
100
AcDbVertex
100
AcDb3dPolylineVertex
 10
0.1599999999999682
 20
0.7671407485825057
 30
0.0
 70
    32
  0
VERTEX
  5
17A19
330
17925
100
AcDbEntity
  8
0
100
AcDbVertex
100
AcDb3dPolylineVertex
 10
0.1620000000000346
 20
0.7621407485825103
 30
0.0
 70
    32
  0
VERTEX
  5
17A1A
330
17925
100
AcDbEntity
  8
0
100
AcDbVertex
100
AcDb3dPolylineVertex
 10
0.1639999999999873
 20
0.7571407485825148
 30
0.0
 70
    32
  0
VERTEX
  5
17A1B
330
17925
100
AcDbEntity
  8
0
100
AcDbVertex
100
AcDb3dPolylineVertex
 10
0.16599999999994
 20
0.7531407485824957
 30
0.0
 70
    32
  0
VERTEX
  5
17A1C
330
17925
100
AcDbEntity
  8
0
100
AcDbVertex
100
AcDb3dPolylineVertex
 10
0.1680000000000064
 20
0.7481407485825003
 30
0.0
 70
    32
  0
VERTEX
  5
17A1D
330
17925
100
AcDbEntity
  8
0
100
AcDbVertex
100
AcDb3dPolylineVertex
 10
0.1699999999999591
 20
0.7431407485825048
 30
0.0
 70
    32
  0
VERTEX
  5
17A1E
330
17925
100
AcDbEntity
  8
0
100
AcDbVertex
100
AcDb3dPolylineVertex
 10
0.1720000000000255
 20
0.7381407485825094
 30
0.0
 70
    32
  0
VERTEX
  5
17A1F
330
17925
100
AcDbEntity
  8
0
100
AcDbVertex
100
AcDb3dPolylineVertex
 10
0.1739999999999782
 20
0.7331407485825139
 30
0.0
 70
    32
  0
VERTEX
  5
17A20
330
17925
100
AcDbEntity
  8
0
100
AcDbVertex
100
AcDb3dPolylineVertex
 10
0.1759999999999877
 20
0.7291407485824948
 30
0.0
 70
    32
  0
VERTEX
  5
17A21
330
17925
100
AcDbEntity
  8
0
100
AcDbVertex
100
AcDb3dPolylineVertex
 10
0.1779999999999973
 20
0.7241407485824994
 30
0.0
 70
    32
  0
VERTEX
  5
17A22
330
17925
100
AcDbEntity
  8
0
100
AcDbVertex
100
AcDb3dPolylineVertex
 10
0.1789999999999736
 20
0.7191407485825039
 30
0.0
 70
    32
  0
VERTEX
  5
17A23
330
17925
100
AcDbEntity
  8
0
100
AcDbVertex
100
AcDb3dPolylineVertex
 10
0.1809999999999832
 20
0.7141407485825085
 30
0.0
 70
    32
  0
VERTEX
  5
17A24
330
17925
100
AcDbEntity
  8
0
100
AcDbVertex
100
AcDb3dPolylineVertex
 10
0.1829999999999927
 20
0.709140748582513
 30
0.0
 70
    32
  0
VERTEX
  5
17A25
330
17925
100
AcDbEntity
  8
0
100
AcDbVertex
100
AcDb3dPolylineVertex
 10
0.1850000000000023
 20
0.7041407485825176
 30
0.0
 70
    32
  0
VERTEX
  5
17A26
330
17925
100
AcDbEntity
  8
0
100
AcDbVertex
100
AcDb3dPolylineVertex
 10
0.1870000000000118
 20
0.7001407485826121
 30
0.0
 70
    32
  0
VERTEX
  5
17A27
330
17925
100
AcDbEntity
  8
0
100
AcDbVertex
100
AcDb3dPolylineVertex
 10
0.1890000000000214
 20
0.6951407485826167
 30
0.0
 70
    32
  0
VERTEX
  5
17A28
330
17925
100
AcDbEntity
  8
0
100
AcDbVertex
100
AcDb3dPolylineVertex
 10
0.1909999999999741
 20
0.6901407485826212
 30
0.0
 70
    32
  0
VERTEX
  5
17A29
330
17925
100
AcDbEntity
  8
0
100
AcDbVertex
100
AcDb3dPolylineVertex
 10
0.1929999999999836
 20
0.6851407485825121
 30
0.0
 70
    32
  0
VERTEX
  5
17A2A
330
17925
100
AcDbEntity
  8
0
100
AcDbVertex
100
AcDb3dPolylineVertex
 10
0.1949999999999932
 20
0.6801407485825166
 30
0.0
 70
    32
  0
VERTEX
  5
17A2B
330
17925
100
AcDbEntity
  8
0
100
AcDbVertex
100
AcDb3dPolylineVertex
 10
0.1959999999999695
 20
0.6751407485825212
 30
0.0
 70
    32
  0
VERTEX
  5
17A2C
330
17925
100
AcDbEntity
  8
0
100
AcDbVertex
100
AcDb3dPolylineVertex
 10
0.1980000000000359
 20
0.6701407485825257
 30
0.0
 70
    32
  0
VERTEX
  5
17A2D
330
17925
100
AcDbEntity
  8
0
100
AcDbVertex
100
AcDb3dPolylineVertex
 10
0.1999999999999886
 20
0.6661407485825066
 30
0.0
 70
    32
  0
VERTEX
  5
17A2E
330
17925
100
AcDbEntity
  8
0
100
AcDbVertex
100
AcDb3dPolylineVertex
 10
0.2019999999999982
 20
0.6611407485825112
 30
0.0
 70
    32
  0
VERTEX
  5
17A2F
330
17925
100
AcDbEntity
  8
0
100
AcDbVertex
100
AcDb3dPolylineVertex
 10
0.2040000000000077
 20
0.6561407485825157
 30
0.0
 70
    32
  0
VERTEX
  5
17A30
330
17925
100
AcDbEntity
  8
0
100
AcDbVertex
100
AcDb3dPolylineVertex
 10
0.2049999999999841
 20
0.6511407485825203
 30
0.0
 70
    32
  0
VERTEX
  5
17A31
330
17925
100
AcDbEntity
  8
0
100
AcDbVertex
100
AcDb3dPolylineVertex
 10
0.2070000000000505
 20
0.6461407485825248
 30
0.0
 70
    32
  0
VERTEX
  5
17A32
330
17925
100
AcDbEntity
  8
0
100
AcDbVertex
100
AcDb3dPolylineVertex
 10
0.2090000000000032
 20
0.6411407485825294
 30
0.0
 70
    32
  0
VERTEX
  5
17A33
330
17925
100
AcDbEntity
  8
0
100
AcDbVertex
100
AcDb3dPolylineVertex
 10
0.2109999999999559
 20
0.6361407485825339
 30
0.0
 70
    32
  0
VERTEX
  5
17A34
330
17925
100
AcDbEntity
  8
0
100
AcDbVertex
100
AcDb3dPolylineVertex
 10
0.2120000000000459
 20
0.6311407485825385
 30
0.0
 70
    32
  0
VERTEX
  5
17A35
330
17925
100
AcDbEntity
  8
0
100
AcDbVertex
100
AcDb3dPolylineVertex
 10
0.2139999999999986
 20
0.626140748582543
 30
0.0
 70
    32
  0
VERTEX
  5
17A36
330
17925
100
AcDbEntity
  8
0
100
AcDbVertex
100
AcDb3dPolylineVertex
 10
0.2159999999999513
 20
0.6221407485825239
 30
0.0
 70
    32
  0
VERTEX
  5
17A37
330
17925
100
AcDbEntity
  8
0
100
AcDbVertex
100
AcDb3dPolylineVertex
 10
0.2170000000000414
 20
0.6171407485825285
 30
0.0
 70
    32
  0
VERTEX
  5
17A38
330
17925
100
AcDbEntity
  8
0
100
AcDbVertex
100
AcDb3dPolylineVertex
 10
0.2189999999999941
 20
0.612140748582533
 30
0.0
 70
    32
  0
VERTEX
  5
17A39
330
17925
100
AcDbEntity
  8
0
100
AcDbVertex
100
AcDb3dPolylineVertex
 10
0.2209999999999468
 20
0.6071407485825376
 30
0.0
 70
    32
  0
VERTEX
  5
17A3A
330
17925
100
AcDbEntity
  8
0
100
AcDbVertex
100
AcDb3dPolylineVertex
 10
0.2220000000000368
 20
0.6021407485825421
 30
0.0
 70
    32
  0
VERTEX
  5
17A3B
330
17925
100
AcDbEntity
  8
0
100
AcDbVertex
100
AcDb3dPolylineVertex
 10
0.2239999999999895
 20
0.5971407485825467
 30
0.0
 70
    32
  0
VERTEX
  5
17A3C
330
17925
100
AcDbEntity
  8
0
100
AcDbVertex
100
AcDb3dPolylineVertex
 10
0.2249999999999659
 20
0.5921407485825512
 30
0.0
 70
    32
  0
VERTEX
  5
17A3D
330
17925
100
AcDbEntity
  8
0
100
AcDbVertex
100
AcDb3dPolylineVertex
 10
0.2270000000000323
 20
0.5871407485825558
 30
0.0
 70
    32
  0
VERTEX
  5
17A3E
330
17925
100
AcDbEntity
  8
0
100
AcDbVertex
100
AcDb3dPolylineVertex
 10
0.2280000000000086
 20
0.5821407485825603
 30
0.0
 70
    32
  0
VERTEX
  5
17A3F
330
17925
100
AcDbEntity
  8
0
100
AcDbVertex
100
AcDb3dPolylineVertex
 10
0.2299999999999613
 20
0.5771407485825648
 30
0.0
 70
    32
  0
VERTEX
  5
17A40
330
17925
100
AcDbEntity
  8
0
100
AcDbVertex
100
AcDb3dPolylineVertex
 10
0.2320000000000277
 20
0.5721407485825694
 30
0.0
 70
    32
  0
VERTEX
  5
17A41
330
17925
100
AcDbEntity
  8
0
100
AcDbVertex
100
AcDb3dPolylineVertex
 10
0.2330000000000041
 20
0.5671407485825739
 30
0.0
 70
    32
  0
VERTEX
  5
17A42
330
17925
100
AcDbEntity
  8
0
100
AcDbVertex
100
AcDb3dPolylineVertex
 10
0.2349999999999568
 20
0.5621407485825785
 30
0.0
 70
    32
  0
VERTEX
  5
17A43
330
17925
100
AcDbEntity
  8
0
100
AcDbVertex
100
AcDb3dPolylineVertex
 10
0.23599999999999
 20
0.557140748582583
 30
0.0
 70
    32
  0
VERTEX
  5
17A44
330
17925
100
AcDbEntity
  8
0
100
AcDbVertex
100
AcDb3dPolylineVertex
 10
0.2370000000000232
 20
0.5521407485825876
 30
0.0
 70
    32
  0
VERTEX
  5
17A45
330
17925
100
AcDbEntity
  8
0
100
AcDbVertex
100
AcDb3dPolylineVertex
 10
0.2389999999999759
 20
0.5471407485825921
 30
0.0
 70
    32
  0
VERTEX
  5
17A46
330
17925
100
AcDbEntity
  8
0
100
AcDbVertex
100
AcDb3dPolylineVertex
 10
0.2399999999999522
 20
0.542140748582483
 30
0.0
 70
    32
  0
VERTEX
  5
17A47
330
17925
100
AcDbEntity
  8
0
100
AcDbVertex
100
AcDb3dPolylineVertex
 10
0.2420000000000186
 20
0.5371407485824875
 30
0.0
 70
    32
  0
VERTEX
  5
17A48
330
17925
100
AcDbEntity
  8
0
100
AcDbVertex
100
AcDb3dPolylineVertex
 10
0.242999999999995
 20
0.5321407485824921
 30
0.0
 70
    32
  0
VERTEX
  5
17A49
330
17925
100
AcDbEntity
  8
0
100
AcDbVertex
100
AcDb3dPolylineVertex
 10
0.2439999999999713
 20
0.5271407485824966
 30
0.0
 70
    32
  0
VERTEX
  5
17A4A
330
17925
100
AcDbEntity
  8
0
100
AcDbVertex
100
AcDb3dPolylineVertex
 10
0.2459999999999809
 20
0.5221407485825012
 30
0.0
 70
    32
  0
VERTEX
  5
17A4B
330
17925
100
AcDbEntity
  8
0
100
AcDbVertex
100
AcDb3dPolylineVertex
 10
0.2470000000000141
 20
0.5171407485825057
 30
0.0
 70
    32
  0
VERTEX
  5
17A4C
330
17925
100
AcDbEntity
  8
0
100
AcDbVertex
100
AcDb3dPolylineVertex
 10
0.2479999999999904
 20
0.5121407485825103
 30
0.0
 70
    32
  0
VERTEX
  5
17A4D
330
17925
100
AcDbEntity
  8
0
100
AcDbVertex
100
AcDb3dPolylineVertex
 10
0.25
 20
0.5071407485825148
 30
0.0
 70
    32
  0
VERTEX
  5
17A4E
330
17925
100
AcDbEntity
  8
0
100
AcDbVertex
100
AcDb3dPolylineVertex
 10
0.2509999999999763
 20
0.5021407485825194
 30
0.0
 70
    32
  0
VERTEX
  5
17A4F
330
17925
100
AcDbEntity
  8
0
100
AcDbVertex
100
AcDb3dPolylineVertex
 10
0.2520000000000095
 20
0.4971407485825239
 30
0.0
 70
    32
  0
VERTEX
  5
17A50
330
17925
100
AcDbEntity
  8
0
100
AcDbVertex
100
AcDb3dPolylineVertex
 10
0.2529999999999859
 20
0.4921407485825285
 30
0.0
 70
    32
  0
VERTEX
  5
17A51
330
17925
100
AcDbEntity
  8
0
100
AcDbVertex
100
AcDb3dPolylineVertex
 10
0.2549999999999954
 20
0.487140748582533
 30
0.0
 70
    32
  0
VERTEX
  5
17A52
330
17925
100
AcDbEntity
  8
0
100
AcDbVertex
100
AcDb3dPolylineVertex
 10
0.2559999999999718
 20
0.4821407485825376
 30
0.0
 70
    32
  0
VERTEX
  5
17A53
330
17925
100
AcDbEntity
  8
0
100
AcDbVertex
100
AcDb3dPolylineVertex
 10
0.257000000000005
 20
0.4771407485825421
 30
0.0
 70
    32
  0
VERTEX
  5
17A54
330
17925
100
AcDbEntity
  8
0
100
AcDbVertex
100
AcDb3dPolylineVertex
 10
0.2579999999999813
 20
0.4721407485825467
 30
0.0
 70
    32
  0
VERTEX
  5
17A55
330
17925
100
AcDbEntity
  8
0
100
AcDbVertex
100
AcDb3dPolylineVertex
 10
0.2590000000000145
 20
0.4671407485825512
 30
0.0
 70
    32
  0
VERTEX
  5
17A56
330
17925
100
AcDbEntity
  8
0
100
AcDbVertex
100
AcDb3dPolylineVertex
 10
0.2609999999999673
 20
0.4621407485825558
 30
0.0
 70
    32
  0
VERTEX
  5
17A57
330
17925
100
AcDbEntity
  8
0
100
AcDbVertex
100
AcDb3dPolylineVertex
 10
0.2620000000000004
 20
0.4571407485825603
 30
0.0
 70
    32
  0
VERTEX
  5
17A58
330
17925
100
AcDbEntity
  8
0
100
AcDbVertex
100
AcDb3dPolylineVertex
 10
0.2630000000000336
 20
0.4521407485825648
 30
0.0
 70
    32
  0
VERTEX
  5
17A59
330
17925
100
AcDbEntity
  8
0
100
AcDbVertex
100
AcDb3dPolylineVertex
 10
0.26400000000001
 20
0.4471407485825694
 30
0.0
 70
    32
  0
VERTEX
  5
17A5A
330
17925
100
AcDbEntity
  8
0
100
AcDbVertex
100
AcDb3dPolylineVertex
 10
0.2649999999999864
 20
0.4421407485825739
 30
0.0
 70
    32
  0
VERTEX
  5
17A5B
330
17925
100
AcDbEntity
  8
0
100
AcDbVertex
100
AcDb3dPolylineVertex
 10
0.2659999999999627
 20
0.4371407485825785
 30
0.0
 70
    32
  0
VERTEX
  5
17A5C
330
17925
100
AcDbEntity
  8
0
100
AcDbVertex
100
AcDb3dPolylineVertex
 10
0.2669999999999959
 20
0.4311407485826067
 30
0.0
 70
    32
  0
VERTEX
  5
17A5D
330
17925
100
AcDbEntity
  8
0
100
AcDbVertex
100
AcDb3dPolylineVertex
 10
0.2680000000000291
 20
0.4261407485824975
 30
0.0
 70
    32
  0
VERTEX
  5
17A5E
330
17925
100
AcDbEntity
  8
0
100
AcDbVertex
100
AcDb3dPolylineVertex
 10
0.2690000000000055
 20
0.4211407485825021
 30
0.0
 70
    32
  0
VERTEX
  5
17A5F
330
17925
100
AcDbEntity
  8
0
100
AcDbVertex
100
AcDb3dPolylineVertex
 10
0.2699999999999818
 20
0.4161407485825066
 30
0.0
 70
    32
  0
VERTEX
  5
17A60
330
17925
100
AcDbEntity
  8
0
100
AcDbVertex
100
AcDb3dPolylineVertex
 10
0.2709999999999582
 20
0.4111407485825112
 30
0.0
 70
    32
  0
VERTEX
  5
17A61
330
17925
100
AcDbEntity
  8
0
100
AcDbVertex
100
AcDb3dPolylineVertex
 10
0.2720000000000482
 20
0.4061407485825157
 30
0.0
 70
    32
  0
VERTEX
  5
17A62
330
17925
100
AcDbEntity
  8
0
100
AcDbVertex
100
AcDb3dPolylineVertex
 10
0.2730000000000246
 20
0.4011407485825203
 30
0.0
 70
    32
  0
VERTEX
  5
17A63
330
17925
100
AcDbEntity
  8
0
100
AcDbVertex
100
AcDb3dPolylineVertex
 10
0.2740000000000009
 20
0.3961407485825248
 30
0.0
 70
    32
  0
VERTEX
  5
17A64
330
17925
100
AcDbEntity
  8
0
100
AcDbVertex
100
AcDb3dPolylineVertex
 10
0.2749999999999773
 20
0.3911407485825293
 30
0.0
 70
    32
  0
VERTEX
  5
17A65
330
17925
100
AcDbEntity
  8
0
100
AcDbVertex
100
AcDb3dPolylineVertex
 10
0.2759999999999536
 20
0.3861407485825339
 30
0.0
 70
    32
  0
VERTEX
  5
17A66
330
17925
100
AcDbEntity
  8
0
100
AcDbVertex
100
AcDb3dPolylineVertex
 10
0.2770000000000437
 20
0.3801407485825621
 30
0.0
 70
    32
  0
VERTEX
  5
17A67
330
17925
100
AcDbEntity
  8
0
100
AcDbVertex
100
AcDb3dPolylineVertex
 10
0.27800000000002
 20
0.3751407485825666
 30
0.0
 70
    32
  0
VERTEX
  5
17A68
330
17925
100
AcDbEntity
  8
0
100
AcDbVertex
100
AcDb3dPolylineVertex
 10
0.2789999999999964
 20
0.3701407485825712
 30
0.0
 70
    32
  0
VERTEX
  5
17A69
330
17925
100
AcDbEntity
  8
0
100
AcDbVertex
100
AcDb3dPolylineVertex
 10
0.2789999999999964
 20
0.3651407485825757
 30
0.0
 70
    32
  0
VERTEX
  5
17A6A
330
17925
100
AcDbEntity
  8
0
100
AcDbVertex
100
AcDb3dPolylineVertex
 10
0.2799999999999727
 20
0.3601407485825803
 30
0.0
 70
    32
  0
VERTEX
  5
17A6B
330
17925
100
AcDbEntity
  8
0
100
AcDbVertex
100
AcDb3dPolylineVertex
 10
0.2809999999999491
 20
0.3551407485825848
 30
0.0
 70
    32
  0
VERTEX
  5
17A6C
330
17925
100
AcDbEntity
  8
0
100
AcDbVertex
100
AcDb3dPolylineVertex
 10
0.2820000000000391
 20
0.3501407485825894
 30
0.0
 70
    32
  0
VERTEX
  5
17A6D
330
17925
100
AcDbEntity
  8
0
100
AcDbVertex
100
AcDb3dPolylineVertex
 10
0.2830000000000154
 20
0.3451407485825939
 30
0.0
 70
    32
  0
VERTEX
  5
17A6E
330
17925
100
AcDbEntity
  8
0
100
AcDbVertex
100
AcDb3dPolylineVertex
 10
0.2839999999999918
 20
0.3401407485825985
 30
0.0
 70
    32
  0
VERTEX
  5
17A6F
330
17925
100
AcDbEntity
  8
0
100
AcDbVertex
100
AcDb3dPolylineVertex
 10
0.2849999999999682
 20
0.334140748582513
 30
0.0
 70
    32
  0
VERTEX
  5
17A70
330
17925
100
AcDbEntity
  8
0
100
AcDbVertex
100
AcDb3dPolylineVertex
 10
0.2849999999999682
 20
0.3291407485825175
 30
0.0
 70
    32
  0
VERTEX
  5
17A71
330
17925
100
AcDbEntity
  8
0
100
AcDbVertex
100
AcDb3dPolylineVertex
 10
0.2859999999999445
 20
0.3241407485825221
 30
0.0
 70
    32
  0
VERTEX
  5
17A72
330
17925
100
AcDbEntity
  8
0
100
AcDbVertex
100
AcDb3dPolylineVertex
 10
0.2870000000000345
 20
0.3191407485825266
 30
0.0
 70
    32
  0
VERTEX
  5
17A73
330
17925
100
AcDbEntity
  8
0
100
AcDbVertex
100
AcDb3dPolylineVertex
 10
0.2880000000000109
 20
0.3141407485825312
 30
0.0
 70
    32
  0
VERTEX
  5
17A74
330
17925
100
AcDbEntity
  8
0
100
AcDbVertex
100
AcDb3dPolylineVertex
 10
0.2889999999999873
 20
0.3091407485825357
 30
0.0
 70
    32
  0
VERTEX
  5
17A75
330
17925
100
AcDbEntity
  8
0
100
AcDbVertex
100
AcDb3dPolylineVertex
 10
0.2899999999999636
 20
0.3041407485825402
 30
0.0
 70
    32
  0
VERTEX
  5
17A76
330
17925
100
AcDbEntity
  8
0
100
AcDbVertex
100
AcDb3dPolylineVertex
 10
0.2899999999999636
 20
0.2991407485825448
 30
0.0
 70
    32
  0
VERTEX
  5
17A77
330
17925
100
AcDbEntity
  8
0
100
AcDbVertex
100
AcDb3dPolylineVertex
 10
0.29099999999994
 20
0.293140748582573
 30
0.0
 70
    32
  0
VERTEX
  5
17A78
330
17925
100
AcDbEntity
  8
0
100
AcDbVertex
100
AcDb3dPolylineVertex
 10
0.29200000000003
 20
0.2881407485825775
 30
0.0
 70
    32
  0
VERTEX
  5
17A79
330
17925
100
AcDbEntity
  8
0
100
AcDbVertex
100
AcDb3dPolylineVertex
 10
0.2930000000000064
 20
0.2831407485824684
 30
0.0
 70
    32
  0
VERTEX
  5
17A7A
330
17925
100
AcDbEntity
  8
0
100
AcDbVertex
100
AcDb3dPolylineVertex
 10
0.2939999999999827
 20
0.2781407485824729
 30
0.0
 70
    32
  0
VERTEX
  5
17A7B
330
17925
100
AcDbEntity
  8
0
100
AcDbVertex
100
AcDb3dPolylineVertex
 10
0.2939999999999827
 20
0.2731407485824775
 30
0.0
 70
    32
  0
VERTEX
  5
17A7C
330
17925
100
AcDbEntity
  8
0
100
AcDbVertex
100
AcDb3dPolylineVertex
 10
0.2949999999999591
 20
0.268140748582482
 30
0.0
 70
    32
  0
VERTEX
  5
17A7D
330
17925
100
AcDbEntity
  8
0
100
AcDbVertex
100
AcDb3dPolylineVertex
 10
0.2959999999999923
 20
0.2631407485824866
 30
0.0
 70
    32
  0
VERTEX
  5
17A7E
330
17925
100
AcDbEntity
  8
0
100
AcDbVertex
100
AcDb3dPolylineVertex
 10
0.2970000000000255
 20
0.2581407485824911
 30
0.0
 70
    32
  0
VERTEX
  5
17A7F
330
17925
100
AcDbEntity
  8
0
100
AcDbVertex
100
AcDb3dPolylineVertex
 10
0.2970000000000255
 20
0.2521407485825193
 30
0.0
 70
    32
  0
VERTEX
  5
17A80
330
17925
100
AcDbEntity
  8
0
100
AcDbVertex
100
AcDb3dPolylineVertex
 10
0.2980000000000018
 20
0.2471407485825239
 30
0.0
 70
    32
  0
VERTEX
  5
17A81
330
17925
100
AcDbEntity
  8
0
100
AcDbVertex
100
AcDb3dPolylineVertex
 10
0.2989999999999782
 20
0.2421407485825284
 30
0.0
 70
    32
  0
VERTEX
  5
17A82
330
17925
100
AcDbEntity
  8
0
100
AcDbVertex
100
AcDb3dPolylineVertex
 10
0.2999999999999545
 20
0.237140748582533
 30
0.0
 70
    32
  0
VERTEX
  5
17A83
330
17925
100
AcDbEntity
  8
0
100
AcDbVertex
100
AcDb3dPolylineVertex
 10
0.2999999999999545
 20
0.2321407485825375
 30
0.0
 70
    32
  0
VERTEX
  5
17A84
330
17925
100
AcDbEntity
  8
0
100
AcDbVertex
100
AcDb3dPolylineVertex
 10
0.3009999999999877
 20
0.2271407485825421
 30
0.0
 70
    32
  0
VERTEX
  5
17A85
330
17925
100
AcDbEntity
  8
0
100
AcDbVertex
100
AcDb3dPolylineVertex
 10
0.3020000000000209
 20
0.2221407485825466
 30
0.0
 70
    32
  0
VERTEX
  5
17A86
330
17925
100
AcDbEntity
  8
0
100
AcDbVertex
100
AcDb3dPolylineVertex
 10
0.3020000000000209
 20
0.2161407485825748
 30
0.0
 70
    32
  0
VERTEX
  5
17A87
330
17925
100
AcDbEntity
  8
0
100
AcDbVertex
100
AcDb3dPolylineVertex
 10
0.3029999999999973
 20
0.2111407485825794
 30
0.0
 70
    32
  0
VERTEX
  5
17A88
330
17925
100
AcDbEntity
  8
0
100
AcDbVertex
100
AcDb3dPolylineVertex
 10
0.3039999999999736
 20
0.2061407485825839
 30
0.0
 70
    32
  0
VERTEX
  5
17A89
330
17925
100
AcDbEntity
  8
0
100
AcDbVertex
100
AcDb3dPolylineVertex
 10
0.3039999999999736
 20
0.2011407485825885
 30
0.0
 70
    32
  0
VERTEX
  5
17A8A
330
17925
100
AcDbEntity
  8
0
100
AcDbVertex
100
AcDb3dPolylineVertex
 10
0.3050000000000068
 20
0.196140748582593
 30
0.0
 70
    32
  0
VERTEX
  5
17A8B
330
17925
100
AcDbEntity
  8
0
100
AcDbVertex
100
AcDb3dPolylineVertex
 10
0.3059999999999832
 20
0.1911407485825975
 30
0.0
 70
    32
  0
VERTEX
  5
17A8C
330
17925
100
AcDbEntity
  8
0
100
AcDbVertex
100
AcDb3dPolylineVertex
 10
0.3070000000000164
 20
0.1861407485826021
 30
0.0
 70
    32
  0
VERTEX
  5
17A8D
330
17925
100
AcDbEntity
  8
0
100
AcDbVertex
100
AcDb3dPolylineVertex
 10
0.3070000000000164
 20
0.1801407485825166
 30
0.0
 70
    32
  0
VERTEX
  5
17A8E
330
17925
100
AcDbEntity
  8
0
100
AcDbVertex
100
AcDb3dPolylineVertex
 10
0.3079999999999927
 20
0.1751407485825211
 30
0.0
 70
    32
  0
VERTEX
  5
17A8F
330
17925
100
AcDbEntity
  8
0
100
AcDbVertex
100
AcDb3dPolylineVertex
 10
0.3079999999999927
 20
0.1701407485825257
 30
0.0
 70
    32
  0
VERTEX
  5
17A90
330
17925
100
AcDbEntity
  8
0
100
AcDbVertex
100
AcDb3dPolylineVertex
 10
0.3089999999999691
 20
0.1651407485825302
 30
0.0
 70
    32
  0
VERTEX
  5
17A91
330
17925
100
AcDbEntity
  8
0
100
AcDbVertex
100
AcDb3dPolylineVertex
 10
0.3100000000000023
 20
0.1601407485825348
 30
0.0
 70
    32
  0
VERTEX
  5
17A92
330
17925
100
AcDbEntity
  8
0
100
AcDbVertex
100
AcDb3dPolylineVertex
 10
0.3100000000000023
 20
0.1551407485825393
 30
0.0
 70
    32
  0
VERTEX
  5
17A93
330
17925
100
AcDbEntity
  8
0
100
AcDbVertex
100
AcDb3dPolylineVertex
 10
0.3109999999999786
 20
0.1501407485825439
 30
0.0
 70
    32
  0
VERTEX
  5
17A94
330
17925
100
AcDbEntity
  8
0
100
AcDbVertex
100
AcDb3dPolylineVertex
 10
0.3120000000000118
 20
0.1441407485824584
 30
0.0
 70
    32
  0
VERTEX
  5
17A95
330
17925
100
AcDbEntity
  8
0
100
AcDbVertex
100
AcDb3dPolylineVertex
 10
0.3120000000000118
 20
0.1391407485824629
 30
0.0
 70
    32
  0
VERTEX
  5
17A96
330
17925
100
AcDbEntity
  8
0
100
AcDbVertex
100
AcDb3dPolylineVertex
 10
0.3129999999999882
 20
0.1341407485824675
 30
0.0
 70
    32
  0
VERTEX
  5
17A97
330
17925
100
AcDbEntity
  8
0
100
AcDbVertex
100
AcDb3dPolylineVertex
 10
0.3129999999999882
 20
0.129140748582472
 30
0.0
 70
    32
  0
VERTEX
  5
17A98
330
17925
100
AcDbEntity
  8
0
100
AcDbVertex
100
AcDb3dPolylineVertex
 10
0.3140000000000214
 20
0.1241407485824766
 30
0.0
 70
    32
  0
VERTEX
  5
17A99
330
17925
100
AcDbEntity
  8
0
100
AcDbVertex
100
AcDb3dPolylineVertex
 10
0.3149999999999977
 20
0.1191407485824811
 30
0.0
 70
    32
  0
VERTEX
  5
17A9A
330
17925
100
AcDbEntity
  8
0
100
AcDbVertex
100
AcDb3dPolylineVertex
 10
0.3149999999999977
 20
0.1131407485825093
 30
0.0
 70
    32
  0
VERTEX
  5
17A9B
330
17925
100
AcDbEntity
  8
0
100
AcDbVertex
100
AcDb3dPolylineVertex
 10
0.3159999999999741
 20
0.1081407485825139
 30
0.0
 70
    32
  0
VERTEX
  5
17A9C
330
17925
100
AcDbEntity
  8
0
100
AcDbVertex
100
AcDb3dPolylineVertex
 10
0.3159999999999741
 20
0.1031407485825184
 30
0.0
 70
    32
  0
VERTEX
  5
17A9D
330
17925
100
AcDbEntity
  8
0
100
AcDbVertex
100
AcDb3dPolylineVertex
 10
0.3170000000000073
 20
0.098140748582523
 30
0.0
 70
    32
  0
VERTEX
  5
17A9E
330
17925
100
AcDbEntity
  8
0
100
AcDbVertex
100
AcDb3dPolylineVertex
 10
0.3170000000000073
 20
0.0931407485825275
 30
0.0
 70
    32
  0
VERTEX
  5
17A9F
330
17925
100
AcDbEntity
  8
0
100
AcDbVertex
100
AcDb3dPolylineVertex
 10
0.3179999999999836
 20
0.0881407485825321
 30
0.0
 70
    32
  0
VERTEX
  5
17AA0
330
17925
100
AcDbEntity
  8
0
100
AcDbVertex
100
AcDb3dPolylineVertex
 10
0.3179999999999836
 20
0.0831407485825366
 30
0.0
 70
    32
  0
VERTEX
  5
17AA1
330
17925
100
AcDbEntity
  8
0
100
AcDbVertex
100
AcDb3dPolylineVertex
 10
0.3190000000000168
 20
0.0771407485825648
 30
0.0
 70
    32
  0
VERTEX
  5
17AA2
330
17925
100
AcDbEntity
  8
0
100
AcDbVertex
100
AcDb3dPolylineVertex
 10
0.3190000000000168
 20
0.0721407485825694
 30
0.0
 70
    32
  0
VERTEX
  5
17AA3
330
17925
100
AcDbEntity
  8
0
100
AcDbVertex
100
AcDb3dPolylineVertex
 10
0.3199999999999932
 20
0.0671407485825739
 30
0.0
 70
    32
  0
VERTEX
  5
17AA4
330
17925
100
AcDbEntity
  8
0
100
AcDbVertex
100
AcDb3dPolylineVertex
 10
0.3199999999999932
 20
0.0621407485825785
 30
0.0
 70
    32
  0
VERTEX
  5
17AA5
330
17925
100
AcDbEntity
  8
0
100
AcDbVertex
100
AcDb3dPolylineVertex
 10
0.3209999999999695
 20
0.057140748582583
 30
0.0
 70
    32
  0
SEQEND
  5
17AA6
330
17925
100
AcDbEntity
  8
0
  0
POLYLINE
  5
17AA7
330
1F
100
AcDbEntity
  8
0
100
AcDb3dPolyline
 66
     1
 10
0.0
 20
0.0
 30
0.0
 70
     8
  0
VERTEX
  5
17AA8
330
17AA7
100
AcDbEntity
  8
0
100
AcDbVertex
100
AcDb3dPolylineVertex
 10
1.460999999999955
 20
1.687140748582578
 30
0.0
 70
    32
  0
VERTEX
  5
17AA9
330
17AA7
100
AcDbEntity
  8
0
100
AcDbVertex
100
AcDb3dPolylineVertex
 10
1.465999999999951
 20
1.687140748582578
 30
0.0
 70
    32
  0
VERTEX
  5
17AAA
330
17AA7
100
AcDbEntity
  8
0
100
AcDbVertex
100
AcDb3dPolylineVertex
 10
1.470999999999946
 20
1.686140748582602
 30
0.0
 70
    32
  0
VERTEX
  5
17AAB
330
17AA7
100
AcDbEntity
  8
0
100
AcDbVertex
100
AcDb3dPolylineVertex
 10
1.475999999999942
 20
1.686140748582602
 30
0.0
 70
    32
  0
VERTEX
  5
17AAC
330
17AA7
100
AcDbEntity
  8
0
100
AcDbVertex
100
AcDb3dPolylineVertex
 10
1.482000000000027
 20
1.685140748582512
 30
0.0
 70
    32
  0
VERTEX
  5
17AAD
330
17AA7
100
AcDbEntity
  8
0
100
AcDbVertex
100
AcDb3dPolylineVertex
 10
1.487000000000023
 20
1.685140748582512
 30
0.0
 70
    32
  0
VERTEX
  5
17AAE
330
17AA7
100
AcDbEntity
  8
0
100
AcDbVertex
100
AcDb3dPolylineVertex
 10
1.492000000000018
 20
1.684140748582535
 30
0.0
 70
    32
  0
VERTEX
  5
17AAF
330
17AA7
100
AcDbEntity
  8
0
100
AcDbVertex
100
AcDb3dPolylineVertex
 10
1.497000000000014
 20
1.684140748582535
 30
0.0
 70
    32
  0
VERTEX
  5
17AB0
330
17AA7
100
AcDbEntity
  8
0
100
AcDbVertex
100
AcDb3dPolylineVertex
 10
1.502000000000009
 20
1.683140748582559
 30
0.0
 70
    32
  0
VERTEX
  5
17AB1
330
17AA7
100
AcDbEntity
  8
0
100
AcDbVertex
100
AcDb3dPolylineVertex
 10
1.507000000000005
 20
1.682140748582583
 30
0.0
 70
    32
  0
VERTEX
  5
17AB2
330
17AA7
100
AcDbEntity
  8
0
100
AcDbVertex
100
AcDb3dPolylineVertex
 10
1.512
 20
1.682140748582583
 30
0.0
 70
    32
  0
VERTEX
  5
17AB3
330
17AA7
100
AcDbEntity
  8
0
100
AcDbVertex
100
AcDb3dPolylineVertex
 10
1.518000000000029
 20
1.681140748582606
 30
0.0
 70
    32
  0
VERTEX
  5
17AB4
330
17AA7
100
AcDbEntity
  8
0
100
AcDbVertex
100
AcDb3dPolylineVertex
 10
1.523000000000024
 20
1.681140748582606
 30
0.0
 70
    32
  0
VERTEX
  5
17AB5
330
17AA7
100
AcDbEntity
  8
0
100
AcDbVertex
100
AcDb3dPolylineVertex
 10
1.52800000000002
 20
1.680140748582516
 30
0.0
 70
    32
  0
VERTEX
  5
17AB6
330
17AA7
100
AcDbEntity
  8
0
100
AcDbVertex
100
AcDb3dPolylineVertex
 10
1.533000000000015
 20
1.67914074858254
 30
0.0
 70
    32
  0
VERTEX
  5
17AB7
330
17AA7
100
AcDbEntity
  8
0
100
AcDbVertex
100
AcDb3dPolylineVertex
 10
1.53800000000001
 20
1.67914074858254
 30
0.0
 70
    32
  0
VERTEX
  5
17AB8
330
17AA7
100
AcDbEntity
  8
0
100
AcDbVertex
100
AcDb3dPolylineVertex
 10
1.543000000000006
 20
1.678140748582563
 30
0.0
 70
    32
  0
VERTEX
  5
17AB9
330
17AA7
100
AcDbEntity
  8
0
100
AcDbVertex
100
AcDb3dPolylineVertex
 10
1.548000000000001
 20
1.677140748582587
 30
0.0
 70
    32
  0
VERTEX
  5
17ABA
330
17AA7
100
AcDbEntity
  8
0
100
AcDbVertex
100
AcDb3dPolylineVertex
 10
1.552999999999997
 20
1.677140748582587
 30
0.0
 70
    32
  0
VERTEX
  5
17ABB
330
17AA7
100
AcDbEntity
  8
0
100
AcDbVertex
100
AcDb3dPolylineVertex
 10
1.558999999999969
 20
1.676140748582497
 30
0.0
 70
    32
  0
VERTEX
  5
17ABC
330
17AA7
100
AcDbEntity
  8
0
100
AcDbVertex
100
AcDb3dPolylineVertex
 10
1.564000000000021
 20
1.675140748582521
 30
0.0
 70
    32
  0
VERTEX
  5
17ABD
330
17AA7
100
AcDbEntity
  8
0
100
AcDbVertex
100
AcDb3dPolylineVertex
 10
1.569000000000016
 20
1.674140748582544
 30
0.0
 70
    32
  0
VERTEX
  5
17ABE
330
17AA7
100
AcDbEntity
  8
0
100
AcDbVertex
100
AcDb3dPolylineVertex
 10
1.574000000000012
 20
1.674140748582544
 30
0.0
 70
    32
  0
VERTEX
  5
17ABF
330
17AA7
100
AcDbEntity
  8
0
100
AcDbVertex
100
AcDb3dPolylineVertex
 10
1.579000000000007
 20
1.673140748582568
 30
0.0
 70
    32
  0
VERTEX
  5
17AC0
330
17AA7
100
AcDbEntity
  8
0
100
AcDbVertex
100
AcDb3dPolylineVertex
 10
1.584000000000003
 20
1.672140748582592
 30
0.0
 70
    32
  0
VERTEX
  5
17AC1
330
17AA7
100
AcDbEntity
  8
0
100
AcDbVertex
100
AcDb3dPolylineVertex
 10
1.588999999999998
 20
1.671140748582502
 30
0.0
 70
    32
  0
VERTEX
  5
17AC2
330
17AA7
100
AcDbEntity
  8
0
100
AcDbVertex
100
AcDb3dPolylineVertex
 10
1.59499999999997
 20
1.670140748582525
 30
0.0
 70
    32
  0
VERTEX
  5
17AC3
330
17AA7
100
AcDbEntity
  8
0
100
AcDbVertex
100
AcDb3dPolylineVertex
 10
1.599999999999965
 20
1.669140748582549
 30
0.0
 70
    32
  0
VERTEX
  5
17AC4
330
17AA7
100
AcDbEntity
  8
0
100
AcDbVertex
100
AcDb3dPolylineVertex
 10
1.604999999999961
 20
1.669140748582549
 30
0.0
 70
    32
  0
VERTEX
  5
17AC5
330
17AA7
100
AcDbEntity
  8
0
100
AcDbVertex
100
AcDb3dPolylineVertex
 10
1.609999999999956
 20
1.668140748582572
 30
0.0
 70
    32
  0
VERTEX
  5
17AC6
330
17AA7
100
AcDbEntity
  8
0
100
AcDbVertex
100
AcDb3dPolylineVertex
 10
1.614999999999952
 20
1.667140748582482
 30
0.0
 70
    32
  0
VERTEX
  5
17AC7
330
17AA7
100
AcDbEntity
  8
0
100
AcDbVertex
100
AcDb3dPolylineVertex
 10
1.620000000000004
 20
1.666140748582506
 30
0.0
 70
    32
  0
VERTEX
  5
17AC8
330
17AA7
100
AcDbEntity
  8
0
100
AcDbVertex
100
AcDb3dPolylineVertex
 10
1.625
 20
1.66514074858253
 30
0.0
 70
    32
  0
VERTEX
  5
17AC9
330
17AA7
100
AcDbEntity
  8
0
100
AcDbVertex
100
AcDb3dPolylineVertex
 10
1.629999999999995
 20
1.664140748582553
 30
0.0
 70
    32
  0
VERTEX
  5
17ACA
330
17AA7
100
AcDbEntity
  8
0
100
AcDbVertex
100
AcDb3dPolylineVertex
 10
1.63499999999999
 20
1.662140748582487
 30
0.0
 70
    32
  0
VERTEX
  5
17ACB
330
17AA7
100
AcDbEntity
  8
0
100
AcDbVertex
100
AcDb3dPolylineVertex
 10
1.640999999999962
 20
1.661140748582511
 30
0.0
 70
    32
  0
VERTEX
  5
17ACC
330
17AA7
100
AcDbEntity
  8
0
100
AcDbVertex
100
AcDb3dPolylineVertex
 10
1.645999999999958
 20
1.660140748582534
 30
0.0
 70
    32
  0
VERTEX
  5
17ACD
330
17AA7
100
AcDbEntity
  8
0
100
AcDbVertex
100
AcDb3dPolylineVertex
 10
1.650999999999953
 20
1.659140748582558
 30
0.0
 70
    32
  0
VERTEX
  5
17ACE
330
17AA7
100
AcDbEntity
  8
0
100
AcDbVertex
100
AcDb3dPolylineVertex
 10
1.655999999999949
 20
1.658140748582468
 30
0.0
 70
    32
  0
VERTEX
  5
17ACF
330
17AA7
100
AcDbEntity
  8
0
100
AcDbVertex
100
AcDb3dPolylineVertex
 10
1.660999999999944
 20
1.656140748582515
 30
0.0
 70
    32
  0
VERTEX
  5
17AD0
330
17AA7
100
AcDbEntity
  8
0
100
AcDbVertex
100
AcDb3dPolylineVertex
 10
1.665999999999939
 20
1.655140748582539
 30
0.0
 70
    32
  0
VERTEX
  5
17AD1
330
17AA7
100
AcDbEntity
  8
0
100
AcDbVertex
100
AcDb3dPolylineVertex
 10
1.670999999999992
 20
1.654140748582562
 30
0.0
 70
    32
  0
VERTEX
  5
17AD2
330
17AA7
100
AcDbEntity
  8
0
100
AcDbVertex
100
AcDb3dPolylineVertex
 10
1.675999999999987
 20
1.652140748582496
 30
0.0
 70
    32
  0
VERTEX
  5
17AD3
330
17AA7
100
AcDbEntity
  8
0
100
AcDbVertex
100
AcDb3dPolylineVertex
 10
1.680999999999983
 20
1.65114074858252
 30
0.0
 70
    32
  0
VERTEX
  5
17AD4
330
17AA7
100
AcDbEntity
  8
0
100
AcDbVertex
100
AcDb3dPolylineVertex
 10
1.685999999999978
 20
1.649140748582453
 30
0.0
 70
    32
  0
VERTEX
  5
17AD5
330
17AA7
100
AcDbEntity
  8
0
100
AcDbVertex
100
AcDb3dPolylineVertex
 10
1.690999999999974
 20
1.648140748582477
 30
0.0
 70
    32
  0
VERTEX
  5
17AD6
330
17AA7
100
AcDbEntity
  8
0
100
AcDbVertex
100
AcDb3dPolylineVertex
 10
1.695999999999969
 20
1.646140748582524
 30
0.0
 70
    32
  0
VERTEX
  5
17AD7
330
17AA7
100
AcDbEntity
  8
0
100
AcDbVertex
100
AcDb3dPolylineVertex
 10
1.700999999999964
 20
1.645140748582548
 30
0.0
 70
    32
  0
VERTEX
  5
17AD8
330
17AA7
100
AcDbEntity
  8
0
100
AcDbVertex
100
AcDb3dPolylineVertex
 10
1.70599999999996
 20
1.643140748582482
 30
0.0
 70
    32
  0
VERTEX
  5
17AD9
330
17AA7
100
AcDbEntity
  8
0
100
AcDbVertex
100
AcDb3dPolylineVertex
 10
1.710999999999955
 20
1.641140748582529
 30
0.0
 70
    32
  0
VERTEX
  5
17ADA
330
17AA7
100
AcDbEntity
  8
0
100
AcDbVertex
100
AcDb3dPolylineVertex
 10
1.715999999999951
 20
1.640140748582552
 30
0.0
 70
    32
  0
VERTEX
  5
17ADB
330
17AA7
100
AcDbEntity
  8
0
100
AcDbVertex
100
AcDb3dPolylineVertex
 10
1.720999999999946
 20
1.638140748582486
 30
0.0
 70
    32
  0
VERTEX
  5
17ADC
330
17AA7
100
AcDbEntity
  8
0
100
AcDbVertex
100
AcDb3dPolylineVertex
 10
1.725999999999942
 20
1.636140748582533
 30
0.0
 70
    32
  0
VERTEX
  5
17ADD
330
17AA7
100
AcDbEntity
  8
0
100
AcDbVertex
100
AcDb3dPolylineVertex
 10
1.730999999999937
 20
1.634140748582467
 30
0.0
 70
    32
  0
VERTEX
  5
17ADE
330
17AA7
100
AcDbEntity
  8
0
100
AcDbVertex
100
AcDb3dPolylineVertex
 10
1.735999999999989
 20
1.632140748582514
 30
0.0
 70
    32
  0
VERTEX
  5
17ADF
330
17AA7
100
AcDbEntity
  8
0
100
AcDbVertex
100
AcDb3dPolylineVertex
 10
1.739999999999952
 20
1.630140748582562
 30
0.0
 70
    32
  0
VERTEX
  5
17AE0
330
17AA7
100
AcDbEntity
  8
0
100
AcDbVertex
100
AcDb3dPolylineVertex
 10
1.745000000000004
 20
1.628140748582495
 30
0.0
 70
    32
  0
VERTEX
  5
17AE1
330
17AA7
100
AcDbEntity
  8
0
100
AcDbVertex
100
AcDb3dPolylineVertex
 10
1.75
 20
1.626140748582542
 30
0.0
 70
    32
  0
VERTEX
  5
17AE2
330
17AA7
100
AcDbEntity
  8
0
100
AcDbVertex
100
AcDb3dPolylineVertex
 10
1.754999999999995
 20
1.624140748582476
 30
0.0
 70
    32
  0
VERTEX
  5
17AE3
330
17AA7
100
AcDbEntity
  8
0
100
AcDbVertex
100
AcDb3dPolylineVertex
 10
1.759000000000014
 20
1.622140748582523
 30
0.0
 70
    32
  0
VERTEX
  5
17AE4
330
17AA7
100
AcDbEntity
  8
0
100
AcDbVertex
100
AcDb3dPolylineVertex
 10
1.76400000000001
 20
1.619140748582481
 30
0.0
 70
    32
  0
VERTEX
  5
17AE5
330
17AA7
100
AcDbEntity
  8
0
100
AcDbVertex
100
AcDb3dPolylineVertex
 10
1.769000000000005
 20
1.617140748582528
 30
0.0
 70
    32
  0
VERTEX
  5
17AE6
330
17AA7
100
AcDbEntity
  8
0
100
AcDbVertex
100
AcDb3dPolylineVertex
 10
1.773000000000024
 20
1.614140748582485
 30
0.0
 70
    32
  0
VERTEX
  5
17AE7
330
17AA7
100
AcDbEntity
  8
0
100
AcDbVertex
100
AcDb3dPolylineVertex
 10
1.77800000000002
 20
1.612140748582532
 30
0.0
 70
    32
  0
VERTEX
  5
17AE8
330
17AA7
100
AcDbEntity
  8
0
100
AcDbVertex
100
AcDb3dPolylineVertex
 10
1.783000000000015
 20
1.60914074858249
 30
0.0
 70
    32
  0
VERTEX
  5
17AE9
330
17AA7
100
AcDbEntity
  8
0
100
AcDbVertex
100
AcDb3dPolylineVertex
 10
1.787000000000034
 20
1.607140748582537
 30
0.0
 70
    32
  0
VERTEX
  5
17AEA
330
17AA7
100
AcDbEntity
  8
0
100
AcDbVertex
100
AcDb3dPolylineVertex
 10
1.79200000000003
 20
1.604140748582494
 30
0.0
 70
    32
  0
VERTEX
  5
17AEB
330
17AA7
100
AcDbEntity
  8
0
100
AcDbVertex
100
AcDb3dPolylineVertex
 10
1.795999999999992
 20
1.602140748582542
 30
0.0
 70
    32
  0
VERTEX
  5
17AEC
330
17AA7
100
AcDbEntity
  8
0
100
AcDbVertex
100
AcDb3dPolylineVertex
 10
1.799999999999954
 20
1.599140748582499
 30
0.0
 70
    32
  0
VERTEX
  5
17AED
330
17AA7
100
AcDbEntity
  8
0
100
AcDbVertex
100
AcDb3dPolylineVertex
 10
1.805000000000006
 20
1.59614074858257
 30
0.0
 70
    32
  0
VERTEX
  5
17AEE
330
17AA7
100
AcDbEntity
  8
0
100
AcDbVertex
100
AcDb3dPolylineVertex
 10
1.808999999999969
 20
1.593140748582527
 30
0.0
 70
    32
  0
VERTEX
  5
17AEF
330
17AA7
100
AcDbEntity
  8
0
100
AcDbVertex
100
AcDb3dPolylineVertex
 10
1.812999999999988
 20
1.590140748582598
 30
0.0
 70
    32
  0
VERTEX
  5
17AF0
330
17AA7
100
AcDbEntity
  8
0
100
AcDbVertex
100
AcDb3dPolylineVertex
 10
1.817999999999983
 20
1.587140748582555
 30
0.0
 70
    32
  0
VERTEX
  5
17AF1
330
17AA7
100
AcDbEntity
  8
0
100
AcDbVertex
100
AcDb3dPolylineVertex
 10
1.822000000000002
 20
1.584140748582512
 30
0.0
 70
    32
  0
VERTEX
  5
17AF2
330
17AA7
100
AcDbEntity
  8
0
100
AcDbVertex
100
AcDb3dPolylineVertex
 10
1.825999999999964
 20
1.581140748582583
 30
0.0
 70
    32
  0
VERTEX
  5
17AF3
330
17AA7
100
AcDbEntity
  8
0
100
AcDbVertex
100
AcDb3dPolylineVertex
 10
1.829999999999984
 20
1.577140748582564
 30
0.0
 70
    32
  0
VERTEX
  5
17AF4
330
17AA7
100
AcDbEntity
  8
0
100
AcDbVertex
100
AcDb3dPolylineVertex
 10
1.834000000000003
 20
1.574140748582522
 30
0.0
 70
    32
  0
VERTEX
  5
17AF5
330
17AA7
100
AcDbEntity
  8
0
100
AcDbVertex
100
AcDb3dPolylineVertex
 10
1.838000000000022
 20
1.571140748582593
 30
0.0
 70
    32
  0
VERTEX
  5
17AF6
330
17AA7
100
AcDbEntity
  8
0
100
AcDbVertex
100
AcDb3dPolylineVertex
 10
1.842000000000041
 20
1.567140748582573
 30
0.0
 70
    32
  0
VERTEX
  5
17AF7
330
17AA7
100
AcDbEntity
  8
0
100
AcDbVertex
100
AcDb3dPolylineVertex
 10
1.845999999999946
 20
1.564140748582531
 30
0.0
 70
    32
  0
VERTEX
  5
17AF8
330
17AA7
100
AcDbEntity
  8
0
100
AcDbVertex
100
AcDb3dPolylineVertex
 10
1.849999999999965
 20
1.560140748582512
 30
0.0
 70
    32
  0
VERTEX
  5
17AF9
330
17AA7
100
AcDbEntity
  8
0
100
AcDbVertex
100
AcDb3dPolylineVertex
 10
1.853999999999984
 20
1.556140748582606
 30
0.0
 70
    32
  0
VERTEX
  5
17AFA
330
17AA7
100
AcDbEntity
  8
0
100
AcDbVertex
100
AcDb3dPolylineVertex
 10
1.857000000000027
 20
1.553140748582563
 30
0.0
 70
    32
  0
VERTEX
  5
17AFB
330
17AA7
100
AcDbEntity
  8
0
100
AcDbVertex
100
AcDb3dPolylineVertex
 10
1.860999999999989
 20
1.549140748582544
 30
0.0
 70
    32
  0
VERTEX
  5
17AFC
330
17AA7
100
AcDbEntity
  8
0
100
AcDbVertex
100
AcDb3dPolylineVertex
 10
1.864999999999952
 20
1.545140748582525
 30
0.0
 70
    32
  0
VERTEX
  5
17AFD
330
17AA7
100
AcDbEntity
  8
0
100
AcDbVertex
100
AcDb3dPolylineVertex
 10
1.867999999999994
 20
1.541140748582506
 30
0.0
 70
    32
  0
VERTEX
  5
17AFE
330
17AA7
100
AcDbEntity
  8
0
100
AcDbVertex
100
AcDb3dPolylineVertex
 10
1.872000000000014
 20
1.537140748582487
 30
0.0
 70
    32
  0
VERTEX
  5
17AFF
330
17AA7
100
AcDbEntity
  8
0
100
AcDbVertex
100
AcDb3dPolylineVertex
 10
1.875
 20
1.533140748582468
 30
0.0
 70
    32
  0
VERTEX
  5
17B00
330
17AA7
100
AcDbEntity
  8
0
100
AcDbVertex
100
AcDb3dPolylineVertex
 10
1.879000000000019
 20
1.529140748582562
 30
0.0
 70
    32
  0
VERTEX
  5
17B01
330
17AA7
100
AcDbEntity
  8
0
100
AcDbVertex
100
AcDb3dPolylineVertex
 10
1.882000000000005
 20
1.525140748582543
 30
0.0
 70
    32
  0
VERTEX
  5
17B02
330
17AA7
100
AcDbEntity
  8
0
100
AcDbVertex
100
AcDb3dPolylineVertex
 10
1.88499999999999
 20
1.521140748582524
 30
0.0
 70
    32
  0
VERTEX
  5
17B03
330
17AA7
100
AcDbEntity
  8
0
100
AcDbVertex
100
AcDb3dPolylineVertex
 10
1.888000000000033
 20
1.516140748582529
 30
0.0
 70
    32
  0
VERTEX
  5
17B04
330
17AA7
100
AcDbEntity
  8
0
100
AcDbVertex
100
AcDb3dPolylineVertex
 10
1.890999999999962
 20
1.51214074858251
 30
0.0
 70
    32
  0
VERTEX
  5
17B05
330
17AA7
100
AcDbEntity
  8
0
100
AcDbVertex
100
AcDb3dPolylineVertex
 10
1.894000000000005
 20
1.508140748582491
 30
0.0
 70
    32
  0
VERTEX
  5
17B06
330
17AA7
100
AcDbEntity
  8
0
100
AcDbVertex
100
AcDb3dPolylineVertex
 10
1.897000000000048
 20
1.503140748582495
 30
0.0
 70
    32
  0
VERTEX
  5
17B07
330
17AA7
100
AcDbEntity
  8
0
100
AcDbVertex
100
AcDb3dPolylineVertex
 10
1.899999999999977
 20
1.499140748582476
 30
0.0
 70
    32
  0
VERTEX
  5
17B08
330
17AA7
100
AcDbEntity
  8
0
100
AcDbVertex
100
AcDb3dPolylineVertex
 10
1.90300000000002
 20
1.495140748582571
 30
0.0
 70
    32
  0
VERTEX
  5
17B09
330
17AA7
100
AcDbEntity
  8
0
100
AcDbVertex
100
AcDb3dPolylineVertex
 10
1.905999999999949
 20
1.490140748582575
 30
0.0
 70
    32
  0
VERTEX
  5
17B0A
330
17AA7
100
AcDbEntity
  8
0
100
AcDbVertex
100
AcDb3dPolylineVertex
 10
1.908000000000015
 20
1.486140748582556
 30
0.0
 70
    32
  0
VERTEX
  5
17B0B
330
17AA7
100
AcDbEntity
  8
0
100
AcDbVertex
100
AcDb3dPolylineVertex
 10
1.910999999999944
 20
1.481140748582561
 30
0.0
 70
    32
  0
VERTEX
  5
17B0C
330
17AA7
100
AcDbEntity
  8
0
100
AcDbVertex
100
AcDb3dPolylineVertex
 10
1.91300000000001
 20
1.476140748582565
 30
0.0
 70
    32
  0
VERTEX
  5
17B0D
330
17AA7
100
AcDbEntity
  8
0
100
AcDbVertex
100
AcDb3dPolylineVertex
 10
1.915999999999939
 20
1.472140748582546
 30
0.0
 70
    32
  0
VERTEX
  5
17B0E
330
17AA7
100
AcDbEntity
  8
0
100
AcDbVertex
100
AcDb3dPolylineVertex
 10
1.918000000000006
 20
1.467140748582551
 30
0.0
 70
    32
  0
VERTEX
  5
17B0F
330
17AA7
100
AcDbEntity
  8
0
100
AcDbVertex
100
AcDb3dPolylineVertex
 10
1.919999999999959
 20
1.462140748582555
 30
0.0
 70
    32
  0
VERTEX
  5
17B10
330
17AA7
100
AcDbEntity
  8
0
100
AcDbVertex
100
AcDb3dPolylineVertex
 10
1.922000000000025
 20
1.458140748582536
 30
0.0
 70
    32
  0
VERTEX
  5
17B11
330
17AA7
100
AcDbEntity
  8
0
100
AcDbVertex
100
AcDb3dPolylineVertex
 10
1.923999999999978
 20
1.453140748582541
 30
0.0
 70
    32
  0
VERTEX
  5
17B12
330
17AA7
100
AcDbEntity
  8
0
100
AcDbVertex
100
AcDb3dPolylineVertex
 10
1.925999999999987
 20
1.448140748582545
 30
0.0
 70
    32
  0
VERTEX
  5
17B13
330
17AA7
100
AcDbEntity
  8
0
100
AcDbVertex
100
AcDb3dPolylineVertex
 10
1.927999999999997
 20
1.44314074858255
 30
0.0
 70
    32
  0
VERTEX
  5
17B14
330
17AA7
100
AcDbEntity
  8
0
100
AcDbVertex
100
AcDb3dPolylineVertex
 10
1.930000000000006
 20
1.438140748582554
 30
0.0
 70
    32
  0
VERTEX
  5
17B15
330
17AA7
100
AcDbEntity
  8
0
100
AcDbVertex
100
AcDb3dPolylineVertex
 10
1.930999999999983
 20
1.433140748582559
 30
0.0
 70
    32
  0
VERTEX
  5
17B16
330
17AA7
100
AcDbEntity
  8
0
100
AcDbVertex
100
AcDb3dPolylineVertex
 10
1.932999999999992
 20
1.428140748582563
 30
0.0
 70
    32
  0
VERTEX
  5
17B17
330
17AA7
100
AcDbEntity
  8
0
100
AcDbVertex
100
AcDb3dPolylineVertex
 10
1.933999999999969
 20
1.423140748582568
 30
0.0
 70
    32
  0
VERTEX
  5
17B18
330
17AA7
100
AcDbEntity
  8
0
100
AcDbVertex
100
AcDb3dPolylineVertex
 10
1.935000000000002
 20
1.419140748582549
 30
0.0
 70
    32
  0
VERTEX
  5
17B19
330
17AA7
100
AcDbEntity
  8
0
100
AcDbVertex
100
AcDb3dPolylineVertex
 10
1.937000000000011
 20
1.414140748582553
 30
0.0
 70
    32
  0
VERTEX
  5
17B1A
330
17AA7
100
AcDbEntity
  8
0
100
AcDbVertex
100
AcDb3dPolylineVertex
 10
1.937999999999988
 20
1.409140748582558
 30
0.0
 70
    32
  0
VERTEX
  5
17B1B
330
17AA7
100
AcDbEntity
  8
0
100
AcDbVertex
100
AcDb3dPolylineVertex
 10
1.939000000000021
 20
1.404140748582562
 30
0.0
 70
    32
  0
VERTEX
  5
17B1C
330
17AA7
100
AcDbEntity
  8
0
100
AcDbVertex
100
AcDb3dPolylineVertex
 10
1.939999999999997
 20
1.398140748582477
 30
0.0
 70
    32
  0
VERTEX
  5
17B1D
330
17AA7
100
AcDbEntity
  8
0
100
AcDbVertex
100
AcDb3dPolylineVertex
 10
1.940999999999974
 20
1.393140748582482
 30
0.0
 70
    32
  0
VERTEX
  5
17B1E
330
17AA7
100
AcDbEntity
  8
0
100
AcDbVertex
100
AcDb3dPolylineVertex
 10
1.942000000000007
 20
1.388140748582486
 30
0.0
 70
    32
  0
VERTEX
  5
17B1F
330
17AA7
100
AcDbEntity
  8
0
100
AcDbVertex
100
AcDb3dPolylineVertex
 10
1.942000000000007
 20
1.383140748582491
 30
0.0
 70
    32
  0
VERTEX
  5
17B20
330
17AA7
100
AcDbEntity
  8
0
100
AcDbVertex
100
AcDb3dPolylineVertex
 10
1.942999999999983
 20
1.378140748582495
 30
0.0
 70
    32
  0
VERTEX
  5
17B21
330
17AA7
100
AcDbEntity
  8
0
100
AcDbVertex
100
AcDb3dPolylineVertex
 10
1.944000000000016
 20
1.3731407485825
 30
0.0
 70
    32
  0
VERTEX
  5
17B22
330
17AA7
100
AcDbEntity
  8
0
100
AcDbVertex
100
AcDb3dPolylineVertex
 10
1.944000000000016
 20
1.368140748582504
 30
0.0
 70
    32
  0
VERTEX
  5
17B23
330
17AA7
100
AcDbEntity
  8
0
100
AcDbVertex
100
AcDb3dPolylineVertex
 10
1.944999999999993
 20
1.363140748582509
 30
0.0
 70
    32
  0
VERTEX
  5
17B24
330
17AA7
100
AcDbEntity
  8
0
100
AcDbVertex
100
AcDb3dPolylineVertex
 10
1.944999999999993
 20
1.358140748582513
 30
0.0
 70
    32
  0
VERTEX
  5
17B25
330
17AA7
100
AcDbEntity
  8
0
100
AcDbVertex
100
AcDb3dPolylineVertex
 10
1.944999999999993
 20
1.352140748582542
 30
0.0
 70
    32
  0
VERTEX
  5
17B26
330
17AA7
100
AcDbEntity
  8
0
100
AcDbVertex
100
AcDb3dPolylineVertex
 10
1.945999999999969
 20
1.347140748582546
 30
0.0
 70
    32
  0
VERTEX
  5
17B27
330
17AA7
100
AcDbEntity
  8
0
100
AcDbVertex
100
AcDb3dPolylineVertex
 10
1.945999999999969
 20
1.342140748582551
 30
0.0
 70
    32
  0
VERTEX
  5
17B28
330
17AA7
100
AcDbEntity
  8
0
100
AcDbVertex
100
AcDb3dPolylineVertex
 10
1.945999999999969
 20
1.337140748582555
 30
0.0
 70
    32
  0
VERTEX
  5
17B29
330
17AA7
100
AcDbEntity
  8
0
100
AcDbVertex
100
AcDb3dPolylineVertex
 10
1.945999999999969
 20
1.331140748582583
 30
0.0
 70
    32
  0
VERTEX
  5
17B2A
330
17AA7
100
AcDbEntity
  8
0
100
AcDbVertex
100
AcDb3dPolylineVertex
 10
1.945999999999969
 20
1.326140748582588
 30
0.0
 70
    32
  0
VERTEX
  5
17B2B
330
17AA7
100
AcDbEntity
  8
0
100
AcDbVertex
100
AcDb3dPolylineVertex
 10
1.945999999999969
 20
1.321140748582593
 30
0.0
 70
    32
  0
VERTEX
  5
17B2C
330
17AA7
100
AcDbEntity
  8
0
100
AcDbVertex
100
AcDb3dPolylineVertex
 10
1.945999999999969
 20
1.316140748582597
 30
0.0
 70
    32
  0
VERTEX
  5
17B2D
330
17AA7
100
AcDbEntity
  8
0
100
AcDbVertex
100
AcDb3dPolylineVertex
 10
1.944999999999993
 20
1.310140748582512
 30
0.0
 70
    32
  0
VERTEX
  5
17B2E
330
17AA7
100
AcDbEntity
  8
0
100
AcDbVertex
100
AcDb3dPolylineVertex
 10
1.944999999999993
 20
1.305140748582516
 30
0.0
 70
    32
  0
VERTEX
  5
17B2F
330
17AA7
100
AcDbEntity
  8
0
100
AcDbVertex
100
AcDb3dPolylineVertex
 10
1.944999999999993
 20
1.300140748582521
 30
0.0
 70
    32
  0
VERTEX
  5
17B30
330
17AA7
100
AcDbEntity
  8
0
100
AcDbVertex
100
AcDb3dPolylineVertex
 10
1.944999999999993
 20
1.295140748582525
 30
0.0
 70
    32
  0
VERTEX
  5
17B31
330
17AA7
100
AcDbEntity
  8
0
100
AcDbVertex
100
AcDb3dPolylineVertex
 10
1.944000000000016
 20
1.289140748582553
 30
0.0
 70
    32
  0
VERTEX
  5
17B32
330
17AA7
100
AcDbEntity
  8
0
100
AcDbVertex
100
AcDb3dPolylineVertex
 10
1.944000000000016
 20
1.284140748582558
 30
0.0
 70
    32
  0
VERTEX
  5
17B33
330
17AA7
100
AcDbEntity
  8
0
100
AcDbVertex
100
AcDb3dPolylineVertex
 10
1.942999999999983
 20
1.279140748582562
 30
0.0
 70
    32
  0
VERTEX
  5
17B34
330
17AA7
100
AcDbEntity
  8
0
100
AcDbVertex
100
AcDb3dPolylineVertex
 10
1.942999999999983
 20
1.273140748582477
 30
0.0
 70
    32
  0
VERTEX
  5
17B35
330
17AA7
100
AcDbEntity
  8
0
100
AcDbVertex
100
AcDb3dPolylineVertex
 10
1.942000000000007
 20
1.268140748582482
 30
0.0
 70
    32
  0
VERTEX
  5
17B36
330
17AA7
100
AcDbEntity
  8
0
100
AcDbVertex
100
AcDb3dPolylineVertex
 10
1.940999999999974
 20
1.263140748582486
 30
0.0
 70
    32
  0
VERTEX
  5
17B37
330
17AA7
100
AcDbEntity
  8
0
100
AcDbVertex
100
AcDb3dPolylineVertex
 10
1.940999999999974
 20
1.258140748582491
 30
0.0
 70
    32
  0
VERTEX
  5
17B38
330
17AA7
100
AcDbEntity
  8
0
100
AcDbVertex
100
AcDb3dPolylineVertex
 10
1.939999999999997
 20
1.252140748582519
 30
0.0
 70
    32
  0
VERTEX
  5
17B39
330
17AA7
100
AcDbEntity
  8
0
100
AcDbVertex
100
AcDb3dPolylineVertex
 10
1.939000000000021
 20
1.247140748582523
 30
0.0
 70
    32
  0
VERTEX
  5
17B3A
330
17AA7
100
AcDbEntity
  8
0
100
AcDbVertex
100
AcDb3dPolylineVertex
 10
1.937999999999988
 20
1.242140748582528
 30
0.0
 70
    32
  0
VERTEX
  5
17B3B
330
17AA7
100
AcDbEntity
  8
0
100
AcDbVertex
100
AcDb3dPolylineVertex
 10
1.937999999999988
 20
1.236140748582556
 30
0.0
 70
    32
  0
VERTEX
  5
17B3C
330
17AA7
100
AcDbEntity
  8
0
100
AcDbVertex
100
AcDb3dPolylineVertex
 10
1.937000000000011
 20
1.231140748582561
 30
0.0
 70
    32
  0
VERTEX
  5
17B3D
330
17AA7
100
AcDbEntity
  8
0
100
AcDbVertex
100
AcDb3dPolylineVertex
 10
1.935999999999978
 20
1.226140748582565
 30
0.0
 70
    32
  0
VERTEX
  5
17B3E
330
17AA7
100
AcDbEntity
  8
0
100
AcDbVertex
100
AcDb3dPolylineVertex
 10
1.935000000000002
 20
1.22114074858257
 30
0.0
 70
    32
  0
VERTEX
  5
17B3F
330
17AA7
100
AcDbEntity
  8
0
100
AcDbVertex
100
AcDb3dPolylineVertex
 10
1.933999999999969
 20
1.215140748582598
 30
0.0
 70
    32
  0
VERTEX
  5
17B40
330
17AA7
100
AcDbEntity
  8
0
100
AcDbVertex
100
AcDb3dPolylineVertex
 10
1.932999999999992
 20
1.210140748582603
 30
0.0
 70
    32
  0
VERTEX
  5
17B41
330
17AA7
100
AcDbEntity
  8
0
100
AcDbVertex
100
AcDb3dPolylineVertex
 10
1.932000000000016
 20
1.205140748582607
 30
0.0
 70
    32
  0
VERTEX
  5
17B42
330
17AA7
100
AcDbEntity
  8
0
100
AcDbVertex
100
AcDb3dPolylineVertex
 10
1.930999999999983
 20
1.200140748582612
 30
0.0
 70
    32
  0
VERTEX
  5
17B43
330
17AA7
100
AcDbEntity
  8
0
100
AcDbVertex
100
AcDb3dPolylineVertex
 10
1.930000000000006
 20
1.194140748582526
 30
0.0
 70
    32
  0
VERTEX
  5
17B44
330
17AA7
100
AcDbEntity
  8
0
100
AcDbVertex
100
AcDb3dPolylineVertex
 10
1.928999999999973
 20
1.189140748582531
 30
0.0
 70
    32
  0
VERTEX
  5
17B45
330
17AA7
100
AcDbEntity
  8
0
100
AcDbVertex
100
AcDb3dPolylineVertex
 10
1.927999999999997
 20
1.184140748582535
 30
0.0
 70
    32
  0
VERTEX
  5
17B46
330
17AA7
100
AcDbEntity
  8
0
100
AcDbVertex
100
AcDb3dPolylineVertex
 10
1.92700000000002
 20
1.17914074858254
 30
0.0
 70
    32
  0
VERTEX
  5
17B47
330
17AA7
100
AcDbEntity
  8
0
100
AcDbVertex
100
AcDb3dPolylineVertex
 10
1.925999999999987
 20
1.173140748582568
 30
0.0
 70
    32
  0
VERTEX
  5
17B48
330
17AA7
100
AcDbEntity
  8
0
100
AcDbVertex
100
AcDb3dPolylineVertex
 10
1.924999999999954
 20
1.168140748582572
 30
0.0
 70
    32
  0
VERTEX
  5
17B49
330
17AA7
100
AcDbEntity
  8
0
100
AcDbVertex
100
AcDb3dPolylineVertex
 10
1.923999999999978
 20
1.163140748582577
 30
0.0
 70
    32
  0
VERTEX
  5
17B4A
330
17AA7
100
AcDbEntity
  8
0
100
AcDbVertex
100
AcDb3dPolylineVertex
 10
1.922000000000025
 20
1.158140748582468
 30
0.0
 70
    32
  0
VERTEX
  5
17B4B
330
17AA7
100
AcDbEntity
  8
0
100
AcDbVertex
100
AcDb3dPolylineVertex
 10
1.920999999999992
 20
1.153140748582472
 30
0.0
 70
    32
  0
VERTEX
  5
17B4C
330
17AA7
100
AcDbEntity
  8
0
100
AcDbVertex
100
AcDb3dPolylineVertex
 10
1.919999999999959
 20
1.148140748582477
 30
0.0
 70
    32
  0
VERTEX
  5
17B4D
330
17AA7
100
AcDbEntity
  8
0
100
AcDbVertex
100
AcDb3dPolylineVertex
 10
1.918999999999982
 20
1.143140748582482
 30
0.0
 70
    32
  0
VERTEX
  5
17B4E
330
17AA7
100
AcDbEntity
  8
0
100
AcDbVertex
100
AcDb3dPolylineVertex
 10
1.918000000000006
 20
1.13714074858251
 30
0.0
 70
    32
  0
VERTEX
  5
17B4F
330
17AA7
100
AcDbEntity
  8
0
100
AcDbVertex
100
AcDb3dPolylineVertex
 10
1.915999999999939
 20
1.132140748582514
 30
0.0
 70
    32
  0
VERTEX
  5
17B50
330
17AA7
100
AcDbEntity
  8
0
100
AcDbVertex
100
AcDb3dPolylineVertex
 10
1.914999999999963
 20
1.127140748582519
 30
0.0
 70
    32
  0
VERTEX
  5
17B51
330
17AA7
100
AcDbEntity
  8
0
100
AcDbVertex
100
AcDb3dPolylineVertex
 10
1.913999999999987
 20
1.122140748582523
 30
0.0
 70
    32
  0
VERTEX
  5
17B52
330
17AA7
100
AcDbEntity
  8
0
100
AcDbVertex
100
AcDb3dPolylineVertex
 10
1.91300000000001
 20
1.117140748582528
 30
0.0
 70
    32
  0
VERTEX
  5
17B53
330
17AA7
100
AcDbEntity
  8
0
100
AcDbVertex
100
AcDb3dPolylineVertex
 10
1.910999999999944
 20
1.112140748582532
 30
0.0
 70
    32
  0
VERTEX
  5
17B54
330
17AA7
100
AcDbEntity
  8
0
100
AcDbVertex
100
AcDb3dPolylineVertex
 10
1.909999999999968
 20
1.107140748582537
 30
0.0
 70
    32
  0
VERTEX
  5
17B55
330
17AA7
100
AcDbEntity
  8
0
100
AcDbVertex
100
AcDb3dPolylineVertex
 10
1.908999999999991
 20
1.102140748582542
 30
0.0
 70
    32
  0
VERTEX
  5
17B56
330
17AA7
100
AcDbEntity
  8
0
100
AcDbVertex
100
AcDb3dPolylineVertex
 10
1.907000000000039
 20
1.097140748582546
 30
0.0
 70
    32
  0
VERTEX
  5
17B57
330
17AA7
100
AcDbEntity
  8
0
100
AcDbVertex
100
AcDb3dPolylineVertex
 10
1.905999999999949
 20
1.092140748582551
 30
0.0
 70
    32
  0
VERTEX
  5
17B58
330
17AA7
100
AcDbEntity
  8
0
100
AcDbVertex
100
AcDb3dPolylineVertex
 10
1.904999999999972
 20
1.087140748582555
 30
0.0
 70
    32
  0
VERTEX
  5
17B59
330
17AA7
100
AcDbEntity
  8
0
100
AcDbVertex
100
AcDb3dPolylineVertex
 10
1.90300000000002
 20
1.08214074858256
 30
0.0
 70
    32
  0
VERTEX
  5
17B5A
330
17AA7
100
AcDbEntity
  8
0
100
AcDbVertex
100
AcDb3dPolylineVertex
 10
1.902000000000043
 20
1.077140748582564
 30
0.0
 70
    32
  0
VERTEX
  5
17B5B
330
17AA7
100
AcDbEntity
  8
0
100
AcDbVertex
100
AcDb3dPolylineVertex
 10
1.899999999999977
 20
1.072140748582569
 30
0.0
 70
    32
  0
VERTEX
  5
17B5C
330
17AA7
100
AcDbEntity
  8
0
100
AcDbVertex
100
AcDb3dPolylineVertex
 10
1.899
 20
1.067140748582573
 30
0.0
 70
    32
  0
VERTEX
  5
17B5D
330
17AA7
100
AcDbEntity
  8
0
100
AcDbVertex
100
AcDb3dPolylineVertex
 10
1.898000000000024
 20
1.062140748582578
 30
0.0
 70
    32
  0
VERTEX
  5
17B5E
330
17AA7
100
AcDbEntity
  8
0
100
AcDbVertex
100
AcDb3dPolylineVertex
 10
1.895999999999958
 20
1.057140748582583
 30
0.0
 70
    32
  0
VERTEX
  5
17B5F
330
17AA7
100
AcDbEntity
  8
0
100
AcDbVertex
100
AcDb3dPolylineVertex
 10
1.894999999999981
 20
1.052140748582587
 30
0.0
 70
    32
  0
VERTEX
  5
17B60
330
17AA7
100
AcDbEntity
  8
0
100
AcDbVertex
100
AcDb3dPolylineVertex
 10
1.893000000000029
 20
1.047140748582592
 30
0.0
 70
    32
  0
VERTEX
  5
17B61
330
17AA7
100
AcDbEntity
  8
0
100
AcDbVertex
100
AcDb3dPolylineVertex
 10
1.891999999999995
 20
1.042140748582482
 30
0.0
 70
    32
  0
VERTEX
  5
17B62
330
17AA7
100
AcDbEntity
  8
0
100
AcDbVertex
100
AcDb3dPolylineVertex
 10
1.889999999999986
 20
1.037140748582487
 30
0.0
 70
    32
  0
VERTEX
  5
17B63
330
17AA7
100
AcDbEntity
  8
0
100
AcDbVertex
100
AcDb3dPolylineVertex
 10
1.88900000000001
 20
1.032140748582492
 30
0.0
 70
    32
  0
VERTEX
  5
17B64
330
17AA7
100
AcDbEntity
  8
0
100
AcDbVertex
100
AcDb3dPolylineVertex
 10
1.887
 20
1.027140748582496
 30
0.0
 70
    32
  0
VERTEX
  5
17B65
330
17AA7
100
AcDbEntity
  8
0
100
AcDbVertex
100
AcDb3dPolylineVertex
 10
1.885999999999967
 20
1.022140748582501
 30
0.0
 70
    32
  0
VERTEX
  5
17B66
330
17AA7
100
AcDbEntity
  8
0
100
AcDbVertex
100
AcDb3dPolylineVertex
 10
1.884000000000014
 20
1.017140748582505
 30
0.0
 70
    32
  0
VERTEX
  5
17B67
330
17AA7
100
AcDbEntity
  8
0
100
AcDbVertex
100
AcDb3dPolylineVertex
 10
1.882000000000005
 20
1.01214074858251
 30
0.0
 70
    32
  0
VERTEX
  5
17B68
330
17AA7
100
AcDbEntity
  8
0
100
AcDbVertex
100
AcDb3dPolylineVertex
 10
1.880999999999971
 20
1.007140748582514
 30
0.0
 70
    32
  0
VERTEX
  5
17B69
330
17AA7
100
AcDbEntity
  8
0
100
AcDbVertex
100
AcDb3dPolylineVertex
 10
1.879000000000019
 20
1.002140748582519
 30
0.0
 70
    32
  0
VERTEX
  5
17B6A
330
17AA7
100
AcDbEntity
  8
0
100
AcDbVertex
100
AcDb3dPolylineVertex
 10
1.877999999999985
 20
0.9971407485825238
 30
0.0
 70
    32
  0
VERTEX
  5
17B6B
330
17AA7
100
AcDbEntity
  8
0
100
AcDbVertex
100
AcDb3dPolylineVertex
 10
1.875999999999976
 20
0.9931407485825047
 30
0.0
 70
    32
  0
VERTEX
  5
17B6C
330
17AA7
100
AcDbEntity
  8
0
100
AcDbVertex
100
AcDb3dPolylineVertex
 10
1.873999999999966
 20
0.9881407485825093
 30
0.0
 70
    32
  0
VERTEX
  5
17B6D
330
17AA7
100
AcDbEntity
  8
0
100
AcDbVertex
100
AcDb3dPolylineVertex
 10
1.87299999999999
 20
0.9831407485825138
 30
0.0
 70
    32
  0
VERTEX
  5
17B6E
330
17AA7
100
AcDbEntity
  8
0
100
AcDbVertex
100
AcDb3dPolylineVertex
 10
1.87099999999998
 20
0.9781407485825184
 30
0.0
 70
    32
  0
VERTEX
  5
17B6F
330
17AA7
100
AcDbEntity
  8
0
100
AcDbVertex
100
AcDb3dPolylineVertex
 10
1.868999999999971
 20
0.9731407485825229
 30
0.0
 70
    32
  0
VERTEX
  5
17B70
330
17AA7
100
AcDbEntity
  8
0
100
AcDbVertex
100
AcDb3dPolylineVertex
 10
1.867999999999994
 20
0.9681407485825275
 30
0.0
 70
    32
  0
VERTEX
  5
17B71
330
17AA7
100
AcDbEntity
  8
0
100
AcDbVertex
100
AcDb3dPolylineVertex
 10
1.865999999999985
 20
0.963140748582532
 30
0.0
 70
    32
  0
VERTEX
  5
17B72
330
17AA7
100
AcDbEntity
  8
0
100
AcDbVertex
100
AcDb3dPolylineVertex
 10
1.863999999999975
 20
0.9591407485825129
 30
0.0
 70
    32
  0
VERTEX
  5
17B73
330
17AA7
100
AcDbEntity
  8
0
100
AcDbVertex
100
AcDb3dPolylineVertex
 10
1.862000000000023
 20
0.9541407485825175
 30
0.0
 70
    32
  0
VERTEX
  5
17B74
330
17AA7
100
AcDbEntity
  8
0
100
AcDbVertex
100
AcDb3dPolylineVertex
 10
1.860999999999989
 20
0.949140748582522
 30
0.0
 70
    32
  0
VERTEX
  5
17B75
330
17AA7
100
AcDbEntity
  8
0
100
AcDbVertex
100
AcDb3dPolylineVertex
 10
1.85899999999998
 20
0.9441407485825266
 30
0.0
 70
    32
  0
VERTEX
  5
17B76
330
17AA7
100
AcDbEntity
  8
0
100
AcDbVertex
100
AcDb3dPolylineVertex
 10
1.857000000000027
 20
0.9391407485825311
 30
0.0
 70
    32
  0
VERTEX
  5
17B77
330
17AA7
100
AcDbEntity
  8
0
100
AcDbVertex
100
AcDb3dPolylineVertex
 10
1.854999999999961
 20
0.9341407485825357
 30
0.0
 70
    32
  0
VERTEX
  5
17B78
330
17AA7
100
AcDbEntity
  8
0
100
AcDbVertex
100
AcDb3dPolylineVertex
 10
1.853999999999984
 20
0.9291407485825402
 30
0.0
 70
    32
  0
VERTEX
  5
17B79
330
17AA7
100
AcDbEntity
  8
0
100
AcDbVertex
100
AcDb3dPolylineVertex
 10
1.852000000000032
 20
0.9251407485825211
 30
0.0
 70
    32
  0
VERTEX
  5
17B7A
330
17AA7
100
AcDbEntity
  8
0
100
AcDbVertex
100
AcDb3dPolylineVertex
 10
1.849999999999965
 20
0.9201407485825257
 30
0.0
 70
    32
  0
VERTEX
  5
17B7B
330
17AA7
100
AcDbEntity
  8
0
100
AcDbVertex
100
AcDb3dPolylineVertex
 10
1.848000000000013
 20
0.9151407485825302
 30
0.0
 70
    32
  0
VERTEX
  5
17B7C
330
17AA7
100
AcDbEntity
  8
0
100
AcDbVertex
100
AcDb3dPolylineVertex
 10
1.845999999999946
 20
0.9101407485825347
 30
0.0
 70
    32
  0
VERTEX
  5
17B7D
330
17AA7
100
AcDbEntity
  8
0
100
AcDbVertex
100
AcDb3dPolylineVertex
 10
1.843999999999994
 20
0.9051407485825393
 30
0.0
 70
    32
  0
VERTEX
  5
17B7E
330
17AA7
100
AcDbEntity
  8
0
100
AcDbVertex
100
AcDb3dPolylineVertex
 10
1.843000000000017
 20
0.9011407485825202
 30
0.0
 70
    32
  0
VERTEX
  5
17B7F
330
17AA7
100
AcDbEntity
  8
0
100
AcDbVertex
100
AcDb3dPolylineVertex
 10
1.840999999999951
 20
0.8961407485825247
 30
0.0
 70
    32
  0
VERTEX
  5
17B80
330
17AA7
100
AcDbEntity
  8
0
100
AcDbVertex
100
AcDb3dPolylineVertex
 10
1.838999999999998
 20
0.8911407485825293
 30
0.0
 70
    32
  0
VERTEX
  5
17B81
330
17AA7
100
AcDbEntity
  8
0
100
AcDbVertex
100
AcDb3dPolylineVertex
 10
1.837000000000045
 20
0.8861407485825338
 30
0.0
 70
    32
  0
VERTEX
  5
17B82
330
17AA7
100
AcDbEntity
  8
0
100
AcDbVertex
100
AcDb3dPolylineVertex
 10
1.834999999999979
 20
0.8811407485825384
 30
0.0
 70
    32
  0
VERTEX
  5
17B83
330
17AA7
100
AcDbEntity
  8
0
100
AcDbVertex
100
AcDb3dPolylineVertex
 10
1.833000000000026
 20
0.8771407485825193
 30
0.0
 70
    32
  0
VERTEX
  5
17B84
330
17AA7
100
AcDbEntity
  8
0
100
AcDbVertex
100
AcDb3dPolylineVertex
 10
1.83099999999996
 20
0.8721407485825238
 30
0.0
 70
    32
  0
VERTEX
  5
17B85
330
17AA7
100
AcDbEntity
  8
0
100
AcDbVertex
100
AcDb3dPolylineVertex
 10
1.829000000000007
 20
0.8671407485825284
 30
0.0
 70
    32
  0
VERTEX
  5
17B86
330
17AA7
100
AcDbEntity
  8
0
100
AcDbVertex
100
AcDb3dPolylineVertex
 10
1.826999999999998
 20
0.8621407485825329
 30
0.0
 70
    32
  0
VERTEX
  5
17B87
330
17AA7
100
AcDbEntity
  8
0
100
AcDbVertex
100
AcDb3dPolylineVertex
 10
1.824999999999988
 20
0.8581407485825138
 30
0.0
 70
    32
  0
VERTEX
  5
17B88
330
17AA7
100
AcDbEntity
  8
0
100
AcDbVertex
100
AcDb3dPolylineVertex
 10
1.823000000000035
 20
0.8531407485825184
 30
0.0
 70
    32
  0
VERTEX
  5
17B89
330
17AA7
100
AcDbEntity
  8
0
100
AcDbVertex
100
AcDb3dPolylineVertex
 10
1.820999999999969
 20
0.8481407485825229
 30
0.0
 70
    32
  0
VERTEX
  5
17B8A
330
17AA7
100
AcDbEntity
  8
0
100
AcDbVertex
100
AcDb3dPolylineVertex
 10
1.819000000000016
 20
0.8431407485825275
 30
0.0
 70
    32
  0
VERTEX
  5
17B8B
330
17AA7
100
AcDbEntity
  8
0
100
AcDbVertex
100
AcDb3dPolylineVertex
 10
1.817000000000007
 20
0.838140748582532
 30
0.0
 70
    32
  0
VERTEX
  5
17B8C
330
17AA7
100
AcDbEntity
  8
0
100
AcDbVertex
100
AcDb3dPolylineVertex
 10
1.814999999999997
 20
0.8341407485825129
 30
0.0
 70
    32
  0
VERTEX
  5
17B8D
330
17AA7
100
AcDbEntity
  8
0
100
AcDbVertex
100
AcDb3dPolylineVertex
 10
1.812999999999988
 20
0.8291407485825175
 30
0.0
 70
    32
  0
VERTEX
  5
17B8E
330
17AA7
100
AcDbEntity
  8
0
100
AcDbVertex
100
AcDb3dPolylineVertex
 10
1.810999999999978
 20
0.824140748582522
 30
0.0
 70
    32
  0
VERTEX
  5
17B8F
330
17AA7
100
AcDbEntity
  8
0
100
AcDbVertex
100
AcDb3dPolylineVertex
 10
1.808999999999969
 20
0.8191407485825266
 30
0.0
 70
    32
  0
VERTEX
  5
17B90
330
17AA7
100
AcDbEntity
  8
0
100
AcDbVertex
100
AcDb3dPolylineVertex
 10
1.807000000000016
 20
0.8151407485826211
 30
0.0
 70
    32
  0
VERTEX
  5
17B91
330
17AA7
100
AcDbEntity
  8
0
100
AcDbVertex
100
AcDb3dPolylineVertex
 10
1.805000000000006
 20
0.810140748582512
 30
0.0
 70
    32
  0
VERTEX
  5
17B92
330
17AA7
100
AcDbEntity
  8
0
100
AcDbVertex
100
AcDb3dPolylineVertex
 10
1.802999999999997
 20
0.8051407485825166
 30
0.0
 70
    32
  0
VERTEX
  5
17B93
330
17AA7
100
AcDbEntity
  8
0
100
AcDbVertex
100
AcDb3dPolylineVertex
 10
1.800999999999987
 20
0.8001407485825211
 30
0.0
 70
    32
  0
VERTEX
  5
17B94
330
17AA7
100
AcDbEntity
  8
0
100
AcDbVertex
100
AcDb3dPolylineVertex
 10
1.798999999999978
 20
0.7961407485825021
 30
0.0
 70
    32
  0
VERTEX
  5
17B95
330
17AA7
100
AcDbEntity
  8
0
100
AcDbVertex
100
AcDb3dPolylineVertex
 10
1.797000000000025
 20
0.7911407485825066
 30
0.0
 70
    32
  0
VERTEX
  5
17B96
330
17AA7
100
AcDbEntity
  8
0
100
AcDbVertex
100
AcDb3dPolylineVertex
 10
1.794999999999959
 20
0.7861407485825112
 30
0.0
 70
    32
  0
VERTEX
  5
17B97
330
17AA7
100
AcDbEntity
  8
0
100
AcDbVertex
100
AcDb3dPolylineVertex
 10
1.793000000000006
 20
0.7811407485825157
 30
0.0
 70
    32
  0
VERTEX
  5
17B98
330
17AA7
100
AcDbEntity
  8
0
100
AcDbVertex
100
AcDb3dPolylineVertex
 10
1.790999999999939
 20
0.7761407485825203
 30
0.0
 70
    32
  0
VERTEX
  5
17B99
330
17AA7
100
AcDbEntity
  8
0
100
AcDbVertex
100
AcDb3dPolylineVertex
 10
1.788999999999987
 20
0.7721407485825012
 30
0.0
 70
    32
  0
VERTEX
  5
17B9A
330
17AA7
100
AcDbEntity
  8
0
100
AcDbVertex
100
AcDb3dPolylineVertex
 10
1.787000000000034
 20
0.7671407485825057
 30
0.0
 70
    32
  0
VERTEX
  5
17B9B
330
17AA7
100
AcDbEntity
  8
0
100
AcDbVertex
100
AcDb3dPolylineVertex
 10
1.784999999999968
 20
0.7621407485825103
 30
0.0
 70
    32
  0
VERTEX
  5
17B9C
330
17AA7
100
AcDbEntity
  8
0
100
AcDbVertex
100
AcDb3dPolylineVertex
 10
1.783000000000015
 20
0.7571407485825148
 30
0.0
 70
    32
  0
VERTEX
  5
17B9D
330
17AA7
100
AcDbEntity
  8
0
100
AcDbVertex
100
AcDb3dPolylineVertex
 10
1.780999999999949
 20
0.7531407485824957
 30
0.0
 70
    32
  0
VERTEX
  5
17B9E
330
17AA7
100
AcDbEntity
  8
0
100
AcDbVertex
100
AcDb3dPolylineVertex
 10
1.778999999999996
 20
0.7481407485825003
 30
0.0
 70
    32
  0
VERTEX
  5
17B9F
330
17AA7
100
AcDbEntity
  8
0
100
AcDbVertex
100
AcDb3dPolylineVertex
 10
1.777000000000043
 20
0.7431407485825048
 30
0.0
 70
    32
  0
VERTEX
  5
17BA0
330
17AA7
100
AcDbEntity
  8
0
100
AcDbVertex
100
AcDb3dPolylineVertex
 10
1.774999999999977
 20
0.7381407485825094
 30
0.0
 70
    32
  0
VERTEX
  5
17BA1
330
17AA7
100
AcDbEntity
  8
0
100
AcDbVertex
100
AcDb3dPolylineVertex
 10
1.773000000000024
 20
0.7331407485825139
 30
0.0
 70
    32
  0
VERTEX
  5
17BA2
330
17AA7
100
AcDbEntity
  8
0
100
AcDbVertex
100
AcDb3dPolylineVertex
 10
1.770999999999958
 20
0.7291407485824948
 30
0.0
 70
    32
  0
VERTEX
  5
17BA3
330
17AA7
100
AcDbEntity
  8
0
100
AcDbVertex
100
AcDb3dPolylineVertex
 10
1.769000000000005
 20
0.7241407485824994
 30
0.0
 70
    32
  0
VERTEX
  5
17BA4
330
17AA7
100
AcDbEntity
  8
0
100
AcDbVertex
100
AcDb3dPolylineVertex
 10
1.766999999999995
 20
0.7191407485825039
 30
0.0
 70
    32
  0
VERTEX
  5
17BA5
330
17AA7
100
AcDbEntity
  8
0
100
AcDbVertex
100
AcDb3dPolylineVertex
 10
1.764999999999986
 20
0.7141407485825085
 30
0.0
 70
    32
  0
VERTEX
  5
17BA6
330
17AA7
100
AcDbEntity
  8
0
100
AcDbVertex
100
AcDb3dPolylineVertex
 10
1.763000000000033
 20
0.709140748582513
 30
0.0
 70
    32
  0
VERTEX
  5
17BA7
330
17AA7
100
AcDbEntity
  8
0
100
AcDbVertex
100
AcDb3dPolylineVertex
 10
1.760999999999967
 20
0.7041407485825176
 30
0.0
 70
    32
  0
VERTEX
  5
17BA8
330
17AA7
100
AcDbEntity
  8
0
100
AcDbVertex
100
AcDb3dPolylineVertex
 10
1.759000000000014
 20
0.7001407485826121
 30
0.0
 70
    32
  0
VERTEX
  5
17BA9
330
17AA7
100
AcDbEntity
  8
0
100
AcDbVertex
100
AcDb3dPolylineVertex
 10
1.757000000000005
 20
0.6951407485826167
 30
0.0
 70
    32
  0
VERTEX
  5
17BAA
330
17AA7
100
AcDbEntity
  8
0
100
AcDbVertex
100
AcDb3dPolylineVertex
 10
1.754999999999995
 20
0.6901407485826212
 30
0.0
 70
    32
  0
VERTEX
  5
17BAB
330
17AA7
100
AcDbEntity
  8
0
100
AcDbVertex
100
AcDb3dPolylineVertex
 10
1.754000000000019
 20
0.6851407485825121
 30
0.0
 70
    32
  0
VERTEX
  5
17BAC
330
17AA7
100
AcDbEntity
  8
0
100
AcDbVertex
100
AcDb3dPolylineVertex
 10
1.752000000000009
 20
0.6801407485825166
 30
0.0
 70
    32
  0
VERTEX
  5
17BAD
330
17AA7
100
AcDbEntity
  8
0
100
AcDbVertex
100
AcDb3dPolylineVertex
 10
1.75
 20
0.6751407485825212
 30
0.0
 70
    32
  0
VERTEX
  5
17BAE
330
17AA7
100
AcDbEntity
  8
0
100
AcDbVertex
100
AcDb3dPolylineVertex
 10
1.74799999999999
 20
0.6701407485825257
 30
0.0
 70
    32
  0
VERTEX
  5
17BAF
330
17AA7
100
AcDbEntity
  8
0
100
AcDbVertex
100
AcDb3dPolylineVertex
 10
1.74599999999998
 20
0.6661407485825066
 30
0.0
 70
    32
  0
VERTEX
  5
17BB0
330
17AA7
100
AcDbEntity
  8
0
100
AcDbVertex
100
AcDb3dPolylineVertex
 10
1.745000000000004
 20
0.6611407485825112
 30
0.0
 70
    32
  0
VERTEX
  5
17BB1
330
17AA7
100
AcDbEntity
  8
0
100
AcDbVertex
100
AcDb3dPolylineVertex
 10
1.742999999999994
 20
0.6561407485825157
 30
0.0
 70
    32
  0
VERTEX
  5
17BB2
330
17AA7
100
AcDbEntity
  8
0
100
AcDbVertex
100
AcDb3dPolylineVertex
 10
1.740999999999985
 20
0.6511407485825203
 30
0.0
 70
    32
  0
VERTEX
  5
17BB3
330
17AA7
100
AcDbEntity
  8
0
100
AcDbVertex
100
AcDb3dPolylineVertex
 10
1.738999999999975
 20
0.6461407485825248
 30
0.0
 70
    32
  0
VERTEX
  5
17BB4
330
17AA7
100
AcDbEntity
  8
0
100
AcDbVertex
100
AcDb3dPolylineVertex
 10
1.737000000000023
 20
0.6411407485825294
 30
0.0
 70
    32
  0
VERTEX
  5
17BB5
330
17AA7
100
AcDbEntity
  8
0
100
AcDbVertex
100
AcDb3dPolylineVertex
 10
1.735999999999989
 20
0.6361407485825339
 30
0.0
 70
    32
  0
VERTEX
  5
17BB6
330
17AA7
100
AcDbEntity
  8
0
100
AcDbVertex
100
AcDb3dPolylineVertex
 10
1.73399999999998
 20
0.6311407485825385
 30
0.0
 70
    32
  0
VERTEX
  5
17BB7
330
17AA7
100
AcDbEntity
  8
0
100
AcDbVertex
100
AcDb3dPolylineVertex
 10
1.732000000000027
 20
0.626140748582543
 30
0.0
 70
    32
  0
VERTEX
  5
17BB8
330
17AA7
100
AcDbEntity
  8
0
100
AcDbVertex
100
AcDb3dPolylineVertex
 10
1.730999999999937
 20
0.6221407485825239
 30
0.0
 70
    32
  0
VERTEX
  5
17BB9
330
17AA7
100
AcDbEntity
  8
0
100
AcDbVertex
100
AcDb3dPolylineVertex
 10
1.728999999999984
 20
0.6171407485825285
 30
0.0
 70
    32
  0
VERTEX
  5
17BBA
330
17AA7
100
AcDbEntity
  8
0
100
AcDbVertex
100
AcDb3dPolylineVertex
 10
1.727000000000032
 20
0.612140748582533
 30
0.0
 70
    32
  0
VERTEX
  5
17BBB
330
17AA7
100
AcDbEntity
  8
0
100
AcDbVertex
100
AcDb3dPolylineVertex
 10
1.725999999999942
 20
0.6071407485825376
 30
0.0
 70
    32
  0
VERTEX
  5
17BBC
330
17AA7
100
AcDbEntity
  8
0
100
AcDbVertex
100
AcDb3dPolylineVertex
 10
1.723999999999989
 20
0.6021407485825421
 30
0.0
 70
    32
  0
VERTEX
  5
17BBD
330
17AA7
100
AcDbEntity
  8
0
100
AcDbVertex
100
AcDb3dPolylineVertex
 10
1.723000000000013
 20
0.5971407485825467
 30
0.0
 70
    32
  0
VERTEX
  5
17BBE
330
17AA7
100
AcDbEntity
  8
0
100
AcDbVertex
100
AcDb3dPolylineVertex
 10
1.720999999999946
 20
0.5921407485825512
 30
0.0
 70
    32
  0
VERTEX
  5
17BBF
330
17AA7
100
AcDbEntity
  8
0
100
AcDbVertex
100
AcDb3dPolylineVertex
 10
1.718999999999994
 20
0.5871407485825558
 30
0.0
 70
    32
  0
VERTEX
  5
17BC0
330
17AA7
100
AcDbEntity
  8
0
100
AcDbVertex
100
AcDb3dPolylineVertex
 10
1.718000000000017
 20
0.5821407485825603
 30
0.0
 70
    32
  0
VERTEX
  5
17BC1
330
17AA7
100
AcDbEntity
  8
0
100
AcDbVertex
100
AcDb3dPolylineVertex
 10
1.715999999999951
 20
0.5771407485825648
 30
0.0
 70
    32
  0
VERTEX
  5
17BC2
330
17AA7
100
AcDbEntity
  8
0
100
AcDbVertex
100
AcDb3dPolylineVertex
 10
1.714999999999974
 20
0.5721407485825694
 30
0.0
 70
    32
  0
VERTEX
  5
17BC3
330
17AA7
100
AcDbEntity
  8
0
100
AcDbVertex
100
AcDb3dPolylineVertex
 10
1.713000000000022
 20
0.5671407485825739
 30
0.0
 70
    32
  0
VERTEX
  5
17BC4
330
17AA7
100
AcDbEntity
  8
0
100
AcDbVertex
100
AcDb3dPolylineVertex
 10
1.712000000000045
 20
0.5621407485825785
 30
0.0
 70
    32
  0
VERTEX
  5
17BC5
330
17AA7
100
AcDbEntity
  8
0
100
AcDbVertex
100
AcDb3dPolylineVertex
 10
1.709999999999979
 20
0.557140748582583
 30
0.0
 70
    32
  0
VERTEX
  5
17BC6
330
17AA7
100
AcDbEntity
  8
0
100
AcDbVertex
100
AcDb3dPolylineVertex
 10
1.709000000000003
 20
0.5521407485825876
 30
0.0
 70
    32
  0
VERTEX
  5
17BC7
330
17AA7
100
AcDbEntity
  8
0
100
AcDbVertex
100
AcDb3dPolylineVertex
 10
1.70700000000005
 20
0.5471407485825921
 30
0.0
 70
    32
  0
VERTEX
  5
17BC8
330
17AA7
100
AcDbEntity
  8
0
100
AcDbVertex
100
AcDb3dPolylineVertex
 10
1.70599999999996
 20
0.542140748582483
 30
0.0
 70
    32
  0
VERTEX
  5
17BC9
330
17AA7
100
AcDbEntity
  8
0
100
AcDbVertex
100
AcDb3dPolylineVertex
 10
1.704999999999984
 20
0.5371407485824875
 30
0.0
 70
    32
  0
VERTEX
  5
17BCA
330
17AA7
100
AcDbEntity
  8
0
100
AcDbVertex
100
AcDb3dPolylineVertex
 10
1.703000000000031
 20
0.5321407485824921
 30
0.0
 70
    32
  0
VERTEX
  5
17BCB
330
17AA7
100
AcDbEntity
  8
0
100
AcDbVertex
100
AcDb3dPolylineVertex
 10
1.701999999999998
 20
0.5271407485824966
 30
0.0
 70
    32
  0
VERTEX
  5
17BCC
330
17AA7
100
AcDbEntity
  8
0
100
AcDbVertex
100
AcDb3dPolylineVertex
 10
1.700999999999964
 20
0.5221407485825012
 30
0.0
 70
    32
  0
VERTEX
  5
17BCD
330
17AA7
100
AcDbEntity
  8
0
100
AcDbVertex
100
AcDb3dPolylineVertex
 10
1.699000000000012
 20
0.5171407485825057
 30
0.0
 70
    32
  0
VERTEX
  5
17BCE
330
17AA7
100
AcDbEntity
  8
0
100
AcDbVertex
100
AcDb3dPolylineVertex
 10
1.698000000000035
 20
0.5121407485825103
 30
0.0
 70
    32
  0
VERTEX
  5
17BCF
330
17AA7
100
AcDbEntity
  8
0
100
AcDbVertex
100
AcDb3dPolylineVertex
 10
1.697000000000002
 20
0.5071407485825148
 30
0.0
 70
    32
  0
VERTEX
  5
17BD0
330
17AA7
100
AcDbEntity
  8
0
100
AcDbVertex
100
AcDb3dPolylineVertex
 10
1.694999999999993
 20
0.5021407485825194
 30
0.0
 70
    32
  0
VERTEX
  5
17BD1
330
17AA7
100
AcDbEntity
  8
0
100
AcDbVertex
100
AcDb3dPolylineVertex
 10
1.694000000000016
 20
0.4971407485825239
 30
0.0
 70
    32
  0
VERTEX
  5
17BD2
330
17AA7
100
AcDbEntity
  8
0
100
AcDbVertex
100
AcDb3dPolylineVertex
 10
1.692999999999983
 20
0.4921407485825285
 30
0.0
 70
    32
  0
VERTEX
  5
17BD3
330
17AA7
100
AcDbEntity
  8
0
100
AcDbVertex
100
AcDb3dPolylineVertex
 10
1.692000000000007
 20
0.487140748582533
 30
0.0
 70
    32
  0
VERTEX
  5
17BD4
330
17AA7
100
AcDbEntity
  8
0
100
AcDbVertex
100
AcDb3dPolylineVertex
 10
1.689999999999997
 20
0.4821407485825376
 30
0.0
 70
    32
  0
VERTEX
  5
17BD5
330
17AA7
100
AcDbEntity
  8
0
100
AcDbVertex
100
AcDb3dPolylineVertex
 10
1.689000000000021
 20
0.4771407485825421
 30
0.0
 70
    32
  0
VERTEX
  5
17BD6
330
17AA7
100
AcDbEntity
  8
0
100
AcDbVertex
100
AcDb3dPolylineVertex
 10
1.687999999999988
 20
0.4721407485825467
 30
0.0
 70
    32
  0
VERTEX
  5
17BD7
330
17AA7
100
AcDbEntity
  8
0
100
AcDbVertex
100
AcDb3dPolylineVertex
 10
1.687000000000011
 20
0.4671407485825512
 30
0.0
 70
    32
  0
VERTEX
  5
17BD8
330
17AA7
100
AcDbEntity
  8
0
100
AcDbVertex
100
AcDb3dPolylineVertex
 10
1.685999999999978
 20
0.4621407485825558
 30
0.0
 70
    32
  0
VERTEX
  5
17BD9
330
17AA7
100
AcDbEntity
  8
0
100
AcDbVertex
100
AcDb3dPolylineVertex
 10
1.685000000000002
 20
0.4571407485825603
 30
0.0
 70
    32
  0
VERTEX
  5
17BDA
330
17AA7
100
AcDbEntity
  8
0
100
AcDbVertex
100
AcDb3dPolylineVertex
 10
1.683999999999969
 20
0.4521407485825648
 30
0.0
 70
    32
  0
VERTEX
  5
17BDB
330
17AA7
100
AcDbEntity
  8
0
100
AcDbVertex
100
AcDb3dPolylineVertex
 10
1.682999999999992
 20
0.4471407485825694
 30
0.0
 70
    32
  0
VERTEX
  5
17BDC
330
17AA7
100
AcDbEntity
  8
0
100
AcDbVertex
100
AcDb3dPolylineVertex
 10
1.680999999999983
 20
0.4421407485825739
 30
0.0
 70
    32
  0
VERTEX
  5
17BDD
330
17AA7
100
AcDbEntity
  8
0
100
AcDbVertex
100
AcDb3dPolylineVertex
 10
1.680000000000006
 20
0.4371407485825785
 30
0.0
 70
    32
  0
VERTEX
  5
17BDE
330
17AA7
100
AcDbEntity
  8
0
100
AcDbVertex
100
AcDb3dPolylineVertex
 10
1.678999999999973
 20
0.4311407485826067
 30
0.0
 70
    32
  0
VERTEX
  5
17BDF
330
17AA7
100
AcDbEntity
  8
0
100
AcDbVertex
100
AcDb3dPolylineVertex
 10
1.677999999999997
 20
0.4261407485824975
 30
0.0
 70
    32
  0
VERTEX
  5
17BE0
330
17AA7
100
AcDbEntity
  8
0
100
AcDbVertex
100
AcDb3dPolylineVertex
 10
1.67700000000002
 20
0.4211407485825021
 30
0.0
 70
    32
  0
VERTEX
  5
17BE1
330
17AA7
100
AcDbEntity
  8
0
100
AcDbVertex
100
AcDb3dPolylineVertex
 10
1.675999999999987
 20
0.4161407485825066
 30
0.0
 70
    32
  0
VERTEX
  5
17BE2
330
17AA7
100
AcDbEntity
  8
0
100
AcDbVertex
100
AcDb3dPolylineVertex
 10
1.674999999999954
 20
0.4111407485825112
 30
0.0
 70
    32
  0
VERTEX
  5
17BE3
330
17AA7
100
AcDbEntity
  8
0
100
AcDbVertex
100
AcDb3dPolylineVertex
 10
1.673999999999978
 20
0.4061407485825157
 30
0.0
 70
    32
  0
VERTEX
  5
17BE4
330
17AA7
100
AcDbEntity
  8
0
100
AcDbVertex
100
AcDb3dPolylineVertex
 10
1.673000000000001
 20
0.4011407485825203
 30
0.0
 70
    32
  0
VERTEX
  5
17BE5
330
17AA7
100
AcDbEntity
  8
0
100
AcDbVertex
100
AcDb3dPolylineVertex
 10
1.672000000000025
 20
0.3961407485825248
 30
0.0
 70
    32
  0
VERTEX
  5
17BE6
330
17AA7
100
AcDbEntity
  8
0
100
AcDbVertex
100
AcDb3dPolylineVertex
 10
1.670999999999992
 20
0.3911407485825293
 30
0.0
 70
    32
  0
VERTEX
  5
17BE7
330
17AA7
100
AcDbEntity
  8
0
100
AcDbVertex
100
AcDb3dPolylineVertex
 10
1.670999999999992
 20
0.3861407485825339
 30
0.0
 70
    32
  0
VERTEX
  5
17BE8
330
17AA7
100
AcDbEntity
  8
0
100
AcDbVertex
100
AcDb3dPolylineVertex
 10
1.669999999999959
 20
0.3801407485825621
 30
0.0
 70
    32
  0
VERTEX
  5
17BE9
330
17AA7
100
AcDbEntity
  8
0
100
AcDbVertex
100
AcDb3dPolylineVertex
 10
1.668999999999982
 20
0.3751407485825666
 30
0.0
 70
    32
  0
VERTEX
  5
17BEA
330
17AA7
100
AcDbEntity
  8
0
100
AcDbVertex
100
AcDb3dPolylineVertex
 10
1.668000000000006
 20
0.3701407485825712
 30
0.0
 70
    32
  0
VERTEX
  5
17BEB
330
17AA7
100
AcDbEntity
  8
0
100
AcDbVertex
100
AcDb3dPolylineVertex
 10
1.66700000000003
 20
0.3651407485825757
 30
0.0
 70
    32
  0
VERTEX
  5
17BEC
330
17AA7
100
AcDbEntity
  8
0
100
AcDbVertex
100
AcDb3dPolylineVertex
 10
1.665999999999939
 20
0.3601407485825803
 30
0.0
 70
    32
  0
VERTEX
  5
17BED
330
17AA7
100
AcDbEntity
  8
0
100
AcDbVertex
100
AcDb3dPolylineVertex
 10
1.664999999999963
 20
0.3551407485825848
 30
0.0
 70
    32
  0
VERTEX
  5
17BEE
330
17AA7
100
AcDbEntity
  8
0
100
AcDbVertex
100
AcDb3dPolylineVertex
 10
1.663999999999987
 20
0.3501407485825894
 30
0.0
 70
    32
  0
VERTEX
  5
17BEF
330
17AA7
100
AcDbEntity
  8
0
100
AcDbVertex
100
AcDb3dPolylineVertex
 10
1.66300000000001
 20
0.3451407485825939
 30
0.0
 70
    32
  0
VERTEX
  5
17BF0
330
17AA7
100
AcDbEntity
  8
0
100
AcDbVertex
100
AcDb3dPolylineVertex
 10
1.66300000000001
 20
0.3401407485825985
 30
0.0
 70
    32
  0
VERTEX
  5
17BF1
330
17AA7
100
AcDbEntity
  8
0
100
AcDbVertex
100
AcDb3dPolylineVertex
 10
1.662000000000034
 20
0.334140748582513
 30
0.0
 70
    32
  0
VERTEX
  5
17BF2
330
17AA7
100
AcDbEntity
  8
0
100
AcDbVertex
100
AcDb3dPolylineVertex
 10
1.660999999999944
 20
0.3291407485825175
 30
0.0
 70
    32
  0
VERTEX
  5
17BF3
330
17AA7
100
AcDbEntity
  8
0
100
AcDbVertex
100
AcDb3dPolylineVertex
 10
1.659999999999968
 20
0.3241407485825221
 30
0.0
 70
    32
  0
VERTEX
  5
17BF4
330
17AA7
100
AcDbEntity
  8
0
100
AcDbVertex
100
AcDb3dPolylineVertex
 10
1.658999999999991
 20
0.3191407485825266
 30
0.0
 70
    32
  0
VERTEX
  5
17BF5
330
17AA7
100
AcDbEntity
  8
0
100
AcDbVertex
100
AcDb3dPolylineVertex
 10
1.658000000000015
 20
0.3141407485825312
 30
0.0
 70
    32
  0
VERTEX
  5
17BF6
330
17AA7
100
AcDbEntity
  8
0
100
AcDbVertex
100
AcDb3dPolylineVertex
 10
1.658000000000015
 20
0.3091407485825357
 30
0.0
 70
    32
  0
VERTEX
  5
17BF7
330
17AA7
100
AcDbEntity
  8
0
100
AcDbVertex
100
AcDb3dPolylineVertex
 10
1.657000000000039
 20
0.3041407485825402
 30
0.0
 70
    32
  0
VERTEX
  5
17BF8
330
17AA7
100
AcDbEntity
  8
0
100
AcDbVertex
100
AcDb3dPolylineVertex
 10
1.655999999999949
 20
0.2991407485825448
 30
0.0
 70
    32
  0
VERTEX
  5
17BF9
330
17AA7
100
AcDbEntity
  8
0
100
AcDbVertex
100
AcDb3dPolylineVertex
 10
1.654999999999972
 20
0.293140748582573
 30
0.0
 70
    32
  0
VERTEX
  5
17BFA
330
17AA7
100
AcDbEntity
  8
0
100
AcDbVertex
100
AcDb3dPolylineVertex
 10
1.653999999999996
 20
0.2881407485825775
 30
0.0
 70
    32
  0
VERTEX
  5
17BFB
330
17AA7
100
AcDbEntity
  8
0
100
AcDbVertex
100
AcDb3dPolylineVertex
 10
1.653999999999996
 20
0.2831407485824684
 30
0.0
 70
    32
  0
VERTEX
  5
17BFC
330
17AA7
100
AcDbEntity
  8
0
100
AcDbVertex
100
AcDb3dPolylineVertex
 10
1.65300000000002
 20
0.2781407485824729
 30
0.0
 70
    32
  0
VERTEX
  5
17BFD
330
17AA7
100
AcDbEntity
  8
0
100
AcDbVertex
100
AcDb3dPolylineVertex
 10
1.652000000000043
 20
0.2731407485824775
 30
0.0
 70
    32
  0
VERTEX
  5
17BFE
330
17AA7
100
AcDbEntity
  8
0
100
AcDbVertex
100
AcDb3dPolylineVertex
 10
1.650999999999953
 20
0.268140748582482
 30
0.0
 70
    32
  0
VERTEX
  5
17BFF
330
17AA7
100
AcDbEntity
  8
0
100
AcDbVertex
100
AcDb3dPolylineVertex
 10
1.650999999999953
 20
0.2631407485824866
 30
0.0
 70
    32
  0
VERTEX
  5
17C00
330
17AA7
100
AcDbEntity
  8
0
100
AcDbVertex
100
AcDb3dPolylineVertex
 10
1.649999999999977
 20
0.2581407485824911
 30
0.0
 70
    32
  0
VERTEX
  5
17C01
330
17AA7
100
AcDbEntity
  8
0
100
AcDbVertex
100
AcDb3dPolylineVertex
 10
1.649
 20
0.2521407485825193
 30
0.0
 70
    32
  0
VERTEX
  5
17C02
330
17AA7
100
AcDbEntity
  8
0
100
AcDbVertex
100
AcDb3dPolylineVertex
 10
1.648000000000024
 20
0.2471407485825239
 30
0.0
 70
    32
  0
VERTEX
  5
17C03
330
17AA7
100
AcDbEntity
  8
0
100
AcDbVertex
100
AcDb3dPolylineVertex
 10
1.648000000000024
 20
0.2421407485825284
 30
0.0
 70
    32
  0
VERTEX
  5
17C04
330
17AA7
100
AcDbEntity
  8
0
100
AcDbVertex
100
AcDb3dPolylineVertex
 10
1.647000000000048
 20
0.237140748582533
 30
0.0
 70
    32
  0
VERTEX
  5
17C05
330
17AA7
100
AcDbEntity
  8
0
100
AcDbVertex
100
AcDb3dPolylineVertex
 10
1.645999999999958
 20
0.2321407485825375
 30
0.0
 70
    32
  0
VERTEX
  5
17C06
330
17AA7
100
AcDbEntity
  8
0
100
AcDbVertex
100
AcDb3dPolylineVertex
 10
1.644999999999981
 20
0.2271407485825421
 30
0.0
 70
    32
  0
VERTEX
  5
17C07
330
17AA7
100
AcDbEntity
  8
0
100
AcDbVertex
100
AcDb3dPolylineVertex
 10
1.644999999999981
 20
0.2221407485825466
 30
0.0
 70
    32
  0
VERTEX
  5
17C08
330
17AA7
100
AcDbEntity
  8
0
100
AcDbVertex
100
AcDb3dPolylineVertex
 10
1.644000000000005
 20
0.2161407485825748
 30
0.0
 70
    32
  0
VERTEX
  5
17C09
330
17AA7
100
AcDbEntity
  8
0
100
AcDbVertex
100
AcDb3dPolylineVertex
 10
1.643000000000029
 20
0.2111407485825794
 30
0.0
 70
    32
  0
VERTEX
  5
17C0A
330
17AA7
100
AcDbEntity
  8
0
100
AcDbVertex
100
AcDb3dPolylineVertex
 10
1.643000000000029
 20
0.2061407485825839
 30
0.0
 70
    32
  0
VERTEX
  5
17C0B
330
17AA7
100
AcDbEntity
  8
0
100
AcDbVertex
100
AcDb3dPolylineVertex
 10
1.641999999999995
 20
0.2011407485825885
 30
0.0
 70
    32
  0
VERTEX
  5
17C0C
330
17AA7
100
AcDbEntity
  8
0
100
AcDbVertex
100
AcDb3dPolylineVertex
 10
1.640999999999962
 20
0.196140748582593
 30
0.0
 70
    32
  0
VERTEX
  5
17C0D
330
17AA7
100
AcDbEntity
  8
0
100
AcDbVertex
100
AcDb3dPolylineVertex
 10
1.639999999999986
 20
0.1911407485825975
 30
0.0
 70
    32
  0
VERTEX
  5
17C0E
330
17AA7
100
AcDbEntity
  8
0
100
AcDbVertex
100
AcDb3dPolylineVertex
 10
1.639999999999986
 20
0.1861407485826021
 30
0.0
 70
    32
  0
VERTEX
  5
17C0F
330
17AA7
100
AcDbEntity
  8
0
100
AcDbVertex
100
AcDb3dPolylineVertex
 10
1.63900000000001
 20
0.1801407485825166
 30
0.0
 70
    32
  0
VERTEX
  5
17C10
330
17AA7
100
AcDbEntity
  8
0
100
AcDbVertex
100
AcDb3dPolylineVertex
 10
1.63900000000001
 20
0.1751407485825211
 30
0.0
 70
    32
  0
VERTEX
  5
17C11
330
17AA7
100
AcDbEntity
  8
0
100
AcDbVertex
100
AcDb3dPolylineVertex
 10
1.638000000000033
 20
0.1701407485825257
 30
0.0
 70
    32
  0
VERTEX
  5
17C12
330
17AA7
100
AcDbEntity
  8
0
100
AcDbVertex
100
AcDb3dPolylineVertex
 10
1.637
 20
0.1651407485825302
 30
0.0
 70
    32
  0
VERTEX
  5
17C13
330
17AA7
100
AcDbEntity
  8
0
100
AcDbVertex
100
AcDb3dPolylineVertex
 10
1.637
 20
0.1601407485825348
 30
0.0
 70
    32
  0
VERTEX
  5
17C14
330
17AA7
100
AcDbEntity
  8
0
100
AcDbVertex
100
AcDb3dPolylineVertex
 10
1.635999999999967
 20
0.1551407485825393
 30
0.0
 70
    32
  0
VERTEX
  5
17C15
330
17AA7
100
AcDbEntity
  8
0
100
AcDbVertex
100
AcDb3dPolylineVertex
 10
1.63499999999999
 20
0.1501407485825439
 30
0.0
 70
    32
  0
VERTEX
  5
17C16
330
17AA7
100
AcDbEntity
  8
0
100
AcDbVertex
100
AcDb3dPolylineVertex
 10
1.63499999999999
 20
0.1441407485824584
 30
0.0
 70
    32
  0
VERTEX
  5
17C17
330
17AA7
100
AcDbEntity
  8
0
100
AcDbVertex
100
AcDb3dPolylineVertex
 10
1.634000000000014
 20
0.1391407485824629
 30
0.0
 70
    32
  0
VERTEX
  5
17C18
330
17AA7
100
AcDbEntity
  8
0
100
AcDbVertex
100
AcDb3dPolylineVertex
 10
1.634000000000014
 20
0.1341407485824675
 30
0.0
 70
    32
  0
VERTEX
  5
17C19
330
17AA7
100
AcDbEntity
  8
0
100
AcDbVertex
100
AcDb3dPolylineVertex
 10
1.632999999999981
 20
0.129140748582472
 30
0.0
 70
    32
  0
VERTEX
  5
17C1A
330
17AA7
100
AcDbEntity
  8
0
100
AcDbVertex
100
AcDb3dPolylineVertex
 10
1.632000000000005
 20
0.1241407485824766
 30
0.0
 70
    32
  0
VERTEX
  5
17C1B
330
17AA7
100
AcDbEntity
  8
0
100
AcDbVertex
100
AcDb3dPolylineVertex
 10
1.632000000000005
 20
0.1191407485824811
 30
0.0
 70
    32
  0
VERTEX
  5
17C1C
330
17AA7
100
AcDbEntity
  8
0
100
AcDbVertex
100
AcDb3dPolylineVertex
 10
1.630999999999971
 20
0.1131407485825093
 30
0.0
 70
    32
  0
VERTEX
  5
17C1D
330
17AA7
100
AcDbEntity
  8
0
100
AcDbVertex
100
AcDb3dPolylineVertex
 10
1.630999999999971
 20
0.1081407485825139
 30
0.0
 70
    32
  0
VERTEX
  5
17C1E
330
17AA7
100
AcDbEntity
  8
0
100
AcDbVertex
100
AcDb3dPolylineVertex
 10
1.629999999999995
 20
0.1031407485825184
 30
0.0
 70
    32
  0
VERTEX
  5
17C1F
330
17AA7
100
AcDbEntity
  8
0
100
AcDbVertex
100
AcDb3dPolylineVertex
 10
1.629999999999995
 20
0.098140748582523
 30
0.0
 70
    32
  0
VERTEX
  5
17C20
330
17AA7
100
AcDbEntity
  8
0
100
AcDbVertex
100
AcDb3dPolylineVertex
 10
1.629000000000019
 20
0.0931407485825275
 30
0.0
 70
    32
  0
VERTEX
  5
17C21
330
17AA7
100
AcDbEntity
  8
0
100
AcDbVertex
100
AcDb3dPolylineVertex
 10
1.629000000000019
 20
0.0881407485825321
 30
0.0
 70
    32
  0
VERTEX
  5
17C22
330
17AA7
100
AcDbEntity
  8
0
100
AcDbVertex
100
AcDb3dPolylineVertex
 10
1.627999999999985
 20
0.0831407485825366
 30
0.0
 70
    32
  0
VERTEX
  5
17C23
330
17AA7
100
AcDbEntity
  8
0
100
AcDbVertex
100
AcDb3dPolylineVertex
 10
1.627999999999985
 20
0.0771407485825648
 30
0.0
 70
    32
  0
VERTEX
  5
17C24
330
17AA7
100
AcDbEntity
  8
0
100
AcDbVertex
100
AcDb3dPolylineVertex
 10
1.627000000000009
 20
0.0721407485825694
 30
0.0
 70
    32
  0
VERTEX
  5
17C25
330
17AA7
100
AcDbEntity
  8
0
100
AcDbVertex
100
AcDb3dPolylineVertex
 10
1.627000000000009
 20
0.0671407485825739
 30
0.0
 70
    32
  0
VERTEX
  5
17C26
330
17AA7
100
AcDbEntity
  8
0
100
AcDbVertex
100
AcDb3dPolylineVertex
 10
1.625999999999976
 20
0.0621407485825785
 30
0.0
 70
    32
  0
VERTEX
  5
17C27
330
17AA7
100
AcDbEntity
  8
0
100
AcDbVertex
100
AcDb3dPolylineVertex
 10
1.625999999999976
 20
0.057140748582583
 30
0.0
 70
    32
  0
SEQEND
  5
17C28
330
17AA7
100
AcDbEntity
  8
0
  0
MTEXT
  5
17C29
330
1F
100
AcDbEntity
  8
0
100
AcDbMText
 10
2.820999999999969
 20
1.217563413449738
 30
0.0
 40
0.125
 41
3.1939
 46
0.0
 71
     1
 72
     5
  1
Handrail\PTL-2145\P1-11/16" x 1-15/16"\P800.66.TAGUE
 73
     1
 44
1.0
1001
ACAD
1000
ACAD_MTEXT_DEFINED_HEIGHT_BEGIN
1070
    46
1040
0.0
1000
ACAD_MTEXT_DEFINED_HEIGHT_END
  0
VIEWPORT
  5
BADA
330
BAD2
100
AcDbEntity
 67
     1
  8
0
100
AcDbViewport
 10
5.483957147193814
 20
4.151353503331956
 30
0.0
 40
16.39242694558117
 41
8.28990997955629
 68
     1
 69
     1
 12
5.483957147193814
 22
4.151353503331956
 13
0.0
 23
0.0
 14
0.5
 24
0.5
 15
0.5
 25
0.5
 16
0.0
 26
0.0
 36
1.0
 17
0.0
 27
0.0
 37
0.0
 42
50.0
 43
0.0
 44
0.0
 45
8.28990997955629
 50
0.0
 51
0.0
 72
   100
 90
    32800
  1

281
     0
 71
     1
 74
     0
110
0.0
120
0.0
130
0.0
111
1.0
121
0.0
131
0.0
112
0.0
122
1.0
132
0.0
 79
     0
146
0.0
170
     0
 61
     5
348
1718D
292
     1
282
     1
141
0.0
142
0.0
 63
   250
421
  3355443
  0
VIEWPORT
  5
BADD
330
BAD2
100
AcDbEntity
 67
     1
  8
0
100
AcDbViewport
 10
5.249999629487193
 20
4.016674180763468
 30
0.0
 40
10.44245679893058
 41
7.881380513199989
 68
     2
 69
     2
 12
-384.4856750438264
 22
840.9822994475991
 13
0.0
 23
0.0
 14
0.5
 24
0.5
 15
0.5
 25
0.5
 16
0.0
 26
0.0
 36
1.0
 17
0.0
 27
0.0
 37
0.0
 42
50.0
 43
0.0
 44
0.0
 45
7.881380552080734
 50
0.0
 51
0.0
 72
   100
 90
    32832
  1

281
     0
 71
     1
 74
     0
110
0.0
120
0.0
130
0.0
111
1.0
121
0.0
131
0.0
112
0.0
122
1.0
132
0.0
 79
     0
146
0.0
170
     0
 61
     5
348
1718D
292
     1
282
     1
141
0.0
142
0.0
 63
   250
421
  3355443
  0
ENDSEC
  0
SECTION
  2
OBJECTS
  0
DICTIONARY
  5
C
330
0
100
AcDbDictionary
281
     1
  3
ACAD_CIP_PREVIOUS_PRODUCT_INFO
350
171C0
  3
ACAD_COLOR
350
4CDF
  3
ACAD_DETAILVIEWSTYLE
350
171B6
  3
ACAD_GROUP
350
D
  3
ACAD_LAYOUT
350
1A
  3
ACAD_MATERIAL
350
4CDE
  3
ACAD_MLEADERSTYLE
350
171B2
  3
ACAD_MLINESTYLE
350
17
  3
ACAD_PLOTSETTINGS
350
19
  3
ACAD_PLOTSTYLENAME
350
E
  3
ACAD_SCALELIST
350
171A0
  3
ACAD_SECTIONVIEWSTYLE
350
171B4
  3
ACAD_TABLESTYLE
350
4CE0
  3
ACAD_VISUALSTYLE
350
17187
  3
AcadDim
350
237
  3
ACDB_RECOMPOSE_DATA
350
17C48
  3
AcDbVariableDictionary
350
73
  3
AEC_PROPERTY_SET_DEFS
350
17200
  3
ASE_INDEX_DICTIONARY
350
DE7
  0
DICTIONARY
  5
4D73
330
2
100
AcDbDictionary
280
     1
281
     1
  3
ACAD_LAYERSTATES
360
4D74
  0
DICTIONARY
  5
171D0
330
10
100
AcDbDictionary
280
     1
281
     1
  3
ADSK_XREC_LAYER_RECONCILED
360
171D1
  0
XRECORD
  5
171C0
102
{ACAD_REACTORS
330
C
102
}
330
C
100
AcDbXrecord
280
     1
300
ACDLT
300
2018
300
ACDLT_F_S
  0
DICTIONARY
  5
4CDF
102
{ACAD_REACTORS
330
C
102
}
330
C
100
AcDbDictionary
281
     1
  0
DICTIONARY
  5
171B6
102
{ACAD_REACTORS
330
C
102
}
330
C
100
AcDbDictionary
281
     1
  3
Imperial24
350
171B7
  0
DICTIONARY
  5
D
102
{ACAD_REACTORS
330
C
102
}
330
C
100
AcDbDictionary
281
     1
  0
DICTIONARY
  5
1A
102
{ACAD_REACTORS
330
C
102
}
330
C
100
AcDbDictionary
281
     1
  3
Layout1
350
BAD3
  3
Model
350
22
  0
DICTIONARY
  5
4CDE
102
{ACAD_REACTORS
330
C
102
}
330
C
100
AcDbDictionary
281
     1
  3
ByBlock
350
17177
  3
ByLayer
350
1716F
  3
Global
350
1717F
  0
DICTIONARY
  5
171B2
102
{ACAD_REACTORS
330
C
102
}
330
C
100
AcDbDictionary
281
     1
  3
Standard
350
171B3
  0
DICTIONARY
  5
17
102
{ACAD_REACTORS
330
C
102
}
330
C
100
AcDbDictionary
281
     1
  3
Standard
350
18
  0
DICTIONARY
  5
19
102
{ACAD_REACTORS
330
C
102
}
330
C
100
AcDbDictionary
281
     1
  0
ACDBDICTIONARYWDFLT
  5
E
102
{ACAD_REACTORS
330
C
102
}
330
C
100
AcDbDictionary
281
     1
  3
Normal
350
F
100
AcDbDictionaryWithDefault
340
F
  0
DICTIONARY
  5
171A0
102
{ACAD_REACTORS
330
C
102
}
330
C
100
AcDbDictionary
281
     1
  3
A0
350
171A1
  3
A1
350
171A2
  3
A2
350
171A3
  3
A3
350
171A4
  3
A4
350
171A5
  3
A5
350
171A6
  3
A6
350
171A7
  3
A7
350
171A8
  3
A8
350
171A9
  3
A9
350
171AA
  3
B0
350
171AB
  3
B1
350
171AC
  3
B2
350
171AD
  3
B3
350
171AE
  3
B4
350
171AF
  3
B5
350
171B0
  3
B6
350
171B1
  0
DICTIONARY
  5
171B4
102
{ACAD_REACTORS
330
C
102
}
330
C
100
AcDbDictionary
281
     1
  3
Imperial24
350
171B5
  0
DICTIONARY
  5
4CE0
102
{ACAD_REACTORS
330
C
102
}
330
C
100
AcDbDictionary
281
     1
  3
Standard
350
4CE1
  0
DICTIONARY
  5
17187
102
{ACAD_REACTORS
330
C
102
}
330
C
100
AcDbDictionary
281
     1
  3
2dWireframe
350
1718D
  3
3dWireframe
350
171F0
  3
Basic
350
1718C
  3
Brighten
350
17193
  3
ColorChange
350
17197
  3
Conceptual
350
17190
  3
Dim
350
17192
  3
EdgeColorOff
350
1719F
  3
Facepattern
350
17196
  3
Flat
350
17188
  3
FlatWithEdges
350
17189
  3
Gouraud
350
1718A
  3
GouraudWithEdges
350
1718B
  3
Hidden
350
1718F
  3
JitterOff
350
1719D
  3
Linepattern
350
17195
  3
OverhangOff
350
1719E
  3
Realistic
350
17191
  3
Shaded
350
1719C
  3
Shaded with edges
350
1719B
  3
Shades of Gray
350
17198
  3
Sketchy
350
17199
  3
Thicken
350
17194
  3
Wireframe
350
1718E
  3
X-Ray
350
1719A
  0
XRECORD
  5
237
102
{ACAD_REACTORS
330
C
102
}
330
C
100
AcDbXrecord
280
     1
 90
   990106
  3

 60
     0
 61
     0
 62
     1
 63
     3
 64
     0
 65
     0
 66
     0
 67
     3
 68
     1
 69
     0
 70
     0
 71
     0
 72
     0
 40
0.0
170
     0
  0
XRECORD
  5
17C48
102
{ACAD_REACTORS
330
C
102
}
330
C
100
AcDbXrecord
280
     1
 90
        1
330
4CE1
  0
DICTIONARY
  5
73
102
{ACAD_REACTORS
330
C
102
}
330
C
100
AcDbDictionary
281
     1
  3
CANNOSCALE
350
17217
  3
CMLEADERSTYLE
350
17213
  3
CTABLESTYLE
350
4CE6
  3
CVIEWDETAILSTYLE
350
17214
  3
CVIEWSECTIONSTYLE
350
17215
  3
DIMASSOC
350
BBB0
  3
LAYEREVAL
350
17219
  3
LAYERNOTIFY
350
1721A
  3
LIGHTINGUNITS
350
17218
  3
MSLTSCALE
350
17216
  3
PROJECTNAME
350
BBB1
  3
SORTENTS
350
74
  0
DICTIONARY
  5
17200
102
{ACAD_REACTORS
330
C
102
}
330
C
100
AcDbDictionary
281
     1
  0
DICTIONARY
  5
DE7
102
{ACAD_REACTORS
330
C
102
}
330
C
100
AcDbDictionary
281
     1
  3
ASEBlockHierarchyIndexRecord
350
DE9
1001
DCO15
1040
1441350633.74
  0
DICTIONARY
  5
4D74
102
{ACAD_REACTORS
330
4D73
102
}
330
4D73
100
AcDbDictionary
281
     1
  0
XRECORD
  5
171D1
102
{ACAD_REACTORS
330
171D0
102
}
330
171D0
100
AcDbXrecord
280
     1
290
     1
  0
ACDBDETAILVIEWSTYLE
  5
171B7
102
{ACAD_REACTORS
330
171B6
102
}
330
171B6
100
AcDbModelDocViewStyle
 70
     0
  3
Imperial24
290
     1
300
Imperial24
 90
        0
100
AcDbDetailViewStyle
 70
     0
 71
     0
 90
        3
 71
     1
340
11
 62
   256
 40
0.24
340
0
 62
   256
 40
0.24
300

 40
0.36
280
     3
 71
     2
340
16
 90
       25
 62
   256
 71
     3
340
11
 62
   256
 40
0.24
 90
        1
 40
0.75
 90
        1
300
%<\AcVar ViewType \f "%tc1">% %<\AcVar ViewDetailId>%\PSCALE %<\AcVar ViewScale \f "%sn">%
 71
     4
340
16
 90
       25
 62
   256
340
16
 90
       25
 62
   256
280
     0
  0
LAYOUT
  5
BAD3
102
{ACAD_XDICTIONARY
360
BAE2
102
}
102
{ACAD_REACTORS
330
1A
102
}
330
1A
100
AcDbPlotSettings
  1

  2
none_device
  4
Letter_(8.50_x_11.00_Inches)
  6

 40
6.349999904632568
 41
6.349999904632568
 42
6.350006103515625
 43
6.350006103515625
 44
215.8999938964844
 45
279.3999938964844
 46
0.0
 47
0.0
 48
0.0
 49
0.0
140
0.0
141
0.0
142
1.0
143
1.0
 70
   688
 72
     0
 73
     1
 74
     5
  7
HP LaserJet 1100
 75
    16
147
1.0
 76
     0
 77
     2
 78
   300
148
0.0
149
0.0
100
AcDbLayout
  1
Layout1
 70
     1
 71
     1
 10
-0.2500002402958907
 20
-0.2499999962453767
 11
10.74999951940821
 21
8.249999763458731
 12
0.0
 22
0.0
 32
0.0
 14
0.0287712300219028
 24
0.0759839241634737
 34
0.0
 15
10.47122802895248
 25
7.957364437363462
 35
0.0
146
0.0
 13
0.0
 23
0.0
 33
0.0
 16
1.0
 26
0.0
 36
0.0
 17
0.0
 27
1.0
 37
0.0
 76
     0
330
BAD2
331
BADA
1001
ACAD_PSEXT
1000
None
1000
None
1000
Not applicable
1000
The layout will not be plotted unless a new plotter configuration name is selected.
1070
     0
  0
LAYOUT
  5
22
102
{ACAD_REACTORS
330
1A
102
}
330
1A
100
AcDbPlotSettings
  1

  2
none_device
  4
ANSI_A_(8.50_x_11.00_Inches)
  6

 40
6.349999904632568
 41
19.04999923706055
 42
6.350006103515625
 43
19.04998779296875
 44
215.8999938964844
 45
279.3999938964844
 46
0.0
 47
0.0
 48
0.0
 49
0.0
140
0.0
141
0.0
142
1.0
143
2.584895464708373
 70
 11952
 72
     0
 73
     1
 74
     0
  7

 75
     0
147
0.3868628397755418
 76
     0
 77
     2
 78
   300
148
0.0
149
0.0
100
AcDbLayout
  1
Model
 70
     1
 71
     0
 10
0.0
 20
0.0
 11
12.0
 21
9.0
 12
0.0
 22
0.0
 32
0.0
 14
0.0
 24
0.0
 34
0.0
 15
0.0
 25
0.0
 35
0.0
146
0.0
 13
0.0
 23
0.0
 33
0.0
 16
1.0
 26
0.0
 36
0.0
 17
0.0
 27
1.0
 37
0.0
 76
     0
330
1F
331
16E58
  0
MATERIAL
  5
17177
102
{ACAD_XDICTIONARY
360
17178
102
}
102
{ACAD_REACTORS
330
4CDE
102
}
330
4CDE
100
AcDbMaterial
  1
ByBlock
 72
     0
 43
0.0208333333333333
 43
0.0
 43
0.0
 43
0.0
 43
0.0
 43
0.0208333333333333
 43
0.0
 43
0.0
 43
0.0
 43
0.0
 43
1.0
 43
0.0
 43
0.0
 43
0.0
 43
0.0
 43
1.0
 77
     0
 47
0.0208333333333333
 47
0.0
 47
0.0
 47
0.0
 47
0.0
 47
0.0208333333333333
 47
0.0
 47
0.0
 47
0.0
 47
0.0
 47
1.0
 47
0.0
 47
0.0
 47
0.0
 47
0.0
 47
1.0
171
     0
 49
0.0208333333333333
 49
0.0
 49
0.0
 49
0.0
 49
0.0
 49
0.0208333333333333
 49
0.0
 49
0.0
 49
0.0
 49
0.0
 49
1.0
 49
0.0
 49
0.0
 49
0.0
 49
0.0
 49
1.0
175
     0
142
0.0208333333333333
142
0.0
142
0.0
142
0.0
142
0.0
142
0.0208333333333333
142
0.0
142
0.0
142
0.0
142
0.0
142
1.0
142
0.0
142
0.0
142
0.0
142
0.0
142
1.0
179
     0
144
0.0208333333333333
144
0.0
144
0.0
144
0.0
144
0.0
144
0.0208333333333333
144
0.0
144
0.0
144
0.0
144
0.0
144
1.0
144
0.0
144
0.0
144
0.0
144
0.0
144
1.0
147
0.0208333333333333
147
0.0
147
0.0
147
0.0
147
0.0
147
0.0208333333333333
147
0.0
147
0.0
147
0.0
147
0.0
147
1.0
147
0.0
147
0.0
147
0.0
147
0.0
147
1.0
  0
MATERIAL
  5
1716F
102
{ACAD_XDICTIONARY
360
17170
102
}
102
{ACAD_REACTORS
330
4CDE
102
}
330
4CDE
100
AcDbMaterial
  1
ByLayer
 72
     0
 43
0.0208333333333333
 43
0.0
 43
0.0
 43
0.0
 43
0.0
 43
0.0208333333333333
 43
0.0
 43
0.0
 43
0.0
 43
0.0
 43
1.0
 43
0.0
 43
0.0
 43
0.0
 43
0.0
 43
1.0
 77
     0
 47
0.0208333333333333
 47
0.0
 47
0.0
 47
0.0
 47
0.0
 47
0.0208333333333333
 47
0.0
 47
0.0
 47
0.0
 47
0.0
 47
1.0
 47
0.0
 47
0.0
 47
0.0
 47
0.0
 47
1.0
171
     0
 49
0.0208333333333333
 49
0.0
 49
0.0
 49
0.0
 49
0.0
 49
0.0208333333333333
 49
0.0
 49
0.0
 49
0.0
 49
0.0
 49
1.0
 49
0.0
 49
0.0
 49
0.0
 49
0.0
 49
1.0
175
     0
142
0.0208333333333333
142
0.0
142
0.0
142
0.0
142
0.0
142
0.0208333333333333
142
0.0
142
0.0
142
0.0
142
0.0
142
1.0
142
0.0
142
0.0
142
0.0
142
0.0
142
1.0
179
     0
144
0.0208333333333333
144
0.0
144
0.0
144
0.0
144
0.0
144
0.0208333333333333
144
0.0
144
0.0
144
0.0
144
0.0
144
1.0
144
0.0
144
0.0
144
0.0
144
0.0
144
1.0
147
0.0208333333333333
147
0.0
147
0.0
147
0.0
147
0.0
147
0.0208333333333333
147
0.0
147
0.0
147
0.0
147
0.0
147
1.0
147
0.0
147
0.0
147
0.0
147
0.0
147
1.0
  0
MATERIAL
  5
1717F
102
{ACAD_XDICTIONARY
360
17180
102
}
102
{ACAD_REACTORS
330
4CDE
102
}
330
4CDE
100
AcDbMaterial
  1
Global
 72
     0
 43
0.0208333333333333
 43
0.0
 43
0.0
 43
0.0
 43
0.0
 43
0.0208333333333333
 43
0.0
 43
0.0
 43
0.0
 43
0.0
 43
1.0
 43
0.0
 43
0.0
 43
0.0
 43
0.0
 43
1.0
 77
     0
 47
0.0208333333333333
 47
0.0
 47
0.0
 47
0.0
 47
0.0
 47
0.0208333333333333
 47
0.0
 47
0.0
 47
0.0
 47
0.0
 47
1.0
 47
0.0
 47
0.0
 47
0.0
 47
0.0
 47
1.0
171
     0
 49
0.0208333333333333
 49
0.0
 49
0.0
 49
0.0
 49
0.0
 49
0.0208333333333333
 49
0.0
 49
0.0
 49
0.0
 49
0.0
 49
1.0
 49
0.0
 49
0.0
 49
0.0
 49
0.0
 49
1.0
175
     0
142
0.0208333333333333
142
0.0
142
0.0
142
0.0
142
0.0
142
0.0208333333333333
142
0.0
142
0.0
142
0.0
142
0.0
142
1.0
142
0.0
142
0.0
142
0.0
142
0.0
142
1.0
179
     0
144
0.0208333333333333
144
0.0
144
0.0
144
0.0
144
0.0
144
0.0208333333333333
144
0.0
144
0.0
144
0.0
144
0.0
144
1.0
144
0.0
144
0.0
144
0.0
144
0.0
144
1.0
147
0.0208333333333333
147
0.0
147
0.0
147
0.0
147
0.0
147
0.0208333333333333
147
0.0
147
0.0
147
0.0
147
0.0
147
1.0
147
0.0
147
0.0
147
0.0
147
0.0
147
1.0
  0
MLEADERSTYLE
  5
171B3
102
{ACAD_REACTORS
330
171B2
102
}
330
171B2
100
AcDbMLeaderStyle
179
     2
170
     2
171
     1
172
     0
 90
        2
 40
0.0
 41
0.0
173
     1
 91
-1056964608
340
14
 92
       -2
290
     1
 42
0.09
291
     1
 43
0.36
  3
Standard
 44
0.18
300

342
11
174
     1
178
     6
175
     1
176
     0
 93
-1056964608
 45
0.18
292
     0
297
     0
 46
0.18
 94
-1056964608
 47
1.0
 49
1.0
140
1.0
293
     1
141
0.0
294
     1
177
     0
142
1.0
295
     1
296
     0
143
0.125
271
     0
272
     9
273
     9
298
     1
  0
MLINESTYLE
  5
18
102
{ACAD_REACTORS
330
17
102
}
330
17
100
AcDbMlineStyle
  2
STANDARD
 70
     0
  3

 62
   256
 51
90.0
 52
90.0
 71
     2
 49
0.5
 62
   256
  6
BYLAYER
 49
-0.5
 62
   256
  6
BYLAYER
  0
ACDBPLACEHOLDER
  5
F
102
{ACAD_REACTORS
330
E
102
}
330
E
  0
SCALE
  5
171A1
102
{ACAD_REACTORS
330
171A0
102
}
330
171A0
100
AcDbScale
 70
     0
300
1:1
140
1.0
141
1.0
290
     1
  0
SCALE
  5
171A2
102
{ACAD_REACTORS
330
171A0
102
}
330
171A0
100
AcDbScale
 70
     0
300
1/128" = 1'-0"
140
0.0078125
141
12.0
290
     0
  0
SCALE
  5
171A3
102
{ACAD_REACTORS
330
171A0
102
}
330
171A0
100
AcDbScale
 70
     0
300
1/64" = 1'-0"
140
0.015625
141
12.0
290
     0
  0
SCALE
  5
171A4
102
{ACAD_REACTORS
330
171A0
102
}
330
171A0
100
AcDbScale
 70
     0
300
1/32" = 1'-0"
140
0.03125
141
12.0
290
     0
  0
SCALE
  5
171A5
102
{ACAD_REACTORS
330
171A0
102
}
330
171A0
100
AcDbScale
 70
     0
300
1/16" = 1'-0"
140
0.0625
141
12.0
290
     0
  0
SCALE
  5
171A6
102
{ACAD_REACTORS
330
171A0
102
}
330
171A0
100
AcDbScale
 70
     0
300
3/32" = 1'-0"
140
0.09375
141
12.0
290
     0
  0
SCALE
  5
171A7
102
{ACAD_REACTORS
330
171A0
102
}
330
171A0
100
AcDbScale
 70
     0
300
1/8" = 1'-0"
140
0.125
141
12.0
290
     0
  0
SCALE
  5
171A8
102
{ACAD_REACTORS
330
171A0
102
}
330
171A0
100
AcDbScale
 70
     0
300
3/16" = 1'-0"
140
0.1875
141
12.0
290
     0
  0
SCALE
  5
171A9
102
{ACAD_REACTORS
330
171A0
102
}
330
171A0
100
AcDbScale
 70
     0
300
1/4" = 1'-0"
140
0.25
141
12.0
290
     0
  0
SCALE
  5
171AA
102
{ACAD_REACTORS
330
171A0
102
}
330
171A0
100
AcDbScale
 70
     0
300
3/8" = 1'-0"
140
0.375
141
12.0
290
     0
  0
SCALE
  5
171AB
102
{ACAD_REACTORS
330
171A0
102
}
330
171A0
100
AcDbScale
 70
     0
300
1/2" = 1'-0"
140
0.5
141
12.0
290
     0
  0
SCALE
  5
171AC
102
{ACAD_REACTORS
330
171A0
102
}
330
171A0
100
AcDbScale
 70
     0
300
3/4" = 1'-0"
140
0.75
141
12.0
290
     0
  0
SCALE
  5
171AD
102
{ACAD_REACTORS
330
171A0
102
}
330
171A0
100
AcDbScale
 70
     0
300
1" = 1'-0"
140
1.0
141
12.0
290
     0
  0
SCALE
  5
171AE
102
{ACAD_REACTORS
330
171A0
102
}
330
171A0
100
AcDbScale
 70
     0
300
1-1/2" = 1'-0"
140
1.5
141
12.0
290
     0
  0
SCALE
  5
171AF
102
{ACAD_REACTORS
330
171A0
102
}
330
171A0
100
AcDbScale
 70
     0
300
3" = 1'-0"
140
3.0
141
12.0
290
     0
  0
SCALE
  5
171B0
102
{ACAD_REACTORS
330
171A0
102
}
330
171A0
100
AcDbScale
 70
     0
300
6" = 1'-0"
140
6.0
141
12.0
290
     0
  0
SCALE
  5
171B1
102
{ACAD_REACTORS
330
171A0
102
}
330
171A0
100
AcDbScale
 70
     0
300
1'-0" = 1'-0"
140
12.0
141
12.0
290
     0
  0
ACDBSECTIONVIEWSTYLE
  5
171B5
102
{ACAD_REACTORS
330
171B4
102
}
330
171B4
100
AcDbModelDocViewStyle
 70
     0
  3
Imperial24
290
     1
300
Imperial24
 90
        0
100
AcDbSectionViewStyle
 70
     0
 71
     0
 90
       78
 71
     1
340
11
 62
   256
 40
0.24
340
0
340
0
 62
   256
 40
0.24
300
I, O, Q, S, X, Z
 40
0.48
 90
        3
 40
0.18
 90
        1
 71
     2
340
16
 90
       25
 62
   256
340
16
 90
       50
 62
   256
 40
0.24
 40
0.0
 40
0.24
 71
     3
340
11
 62
   256
 40
0.24
 90
        1
 40
0.75
 90
        1
300
%<\AcVar ViewType \f "%tc1">% %<\AcVar ViewSectionStartId>%-%<\AcVar ViewSectionEndId>%\PSCALE %<\AcVar ViewScale \f "%sn">%
 71
     4
 62
   256
 62
   257
300
ANSI31
 40
1.0
 90
        0
290
     0
290
     0
 90
        6
 40
0.0
 40
1.570796326794896
 40
0.2617993877991494
 40
1.308996938995747
 40
-0.2617993877991494
 40
1.832595714594046
  0
TABLESTYLE
  5
4CE1
102
{ACAD_XDICTIONARY
360
17C46
102
}
102
{ACAD_REACTORS
330
4CE0
102
}
330
4CE0
100
AcDbTableStyle
280
     0
  3
Standard
 70
     0
 71
     0
 40
0.06
 41
0.06
280
     0
281
     0
  7
Standard
140
0.18
170
     2
 62
     0
 63
     7
283
     0
 90
        4
 91
        0
  1

274
    -2
284
     1
 64
     0
275
    -2
285
     1
 65
     0
276
    -2
286
     1
 66
     0
277
    -2
287
     1
 67
     0
278
    -2
288
     1
 68
     0
279
    -2
289
     1
 69
     0
  7
Standard
140
0.25
170
     5
 62
     0
 63
     7
283
     0
 90
        4
 91
        0
  1

274
    -2
284
     1
 64
     0
275
    -2
285
     1
 65
     0
276
    -2
286
     1
 66
     0
277
    -2
287
     1
 67
     0
278
    -2
288
     1
 68
     0
279
    -2
289
     1
 69
     0
  7
Standard
140
0.18
170
     5
 62
     0
 63
     7
283
     0
 90
        4
 91
        0
  1

274
    -2
284
     1
 64
     0
275
    -2
285
     1
 65
     0
276
    -2
286
     1
 66
     0
277
    -2
287
     1
 67
     0
278
    -2
288
     1
 68
     0
279
    -2
289
     1
 69
     0
  0
VISUALSTYLE
  5
1718D
102
{ACAD_REACTORS
330
17187
102
}
330
17187
100
AcDbVisualStyle
  2
2dWireframe
 70
     4
177
     3
291
     0
 70
    58
 90
        0
176
     1
 90
        2
176
     1
 90
        0
176
     1
 90
        0
176
     1
 40
0.6
176
     1
 40
30.0
176
     1
 62
     7
420
 16777215
176
     1
 90
        1
176
     1
 90
        4
176
     1
 62
     7
176
     1
 62
   257
176
     1
 90
        1
176
     1
 90
        1
176
     1
 40
1.0
176
     1
 90
        0
176
     1
 62
   257
176
     1
 40
1.0
176
     1
 90
        1
176
     1
 90
        6
176
     1
 90
        2
176
     1
 62
     7
176
     1
 90
        5
176
     1
 90
        0
176
     1
 90
        0
176
     1
290
     0
176
     1
 90
        1
176
     1
 40
0.0
176
     1
 90
        0
176
     1
290
     1
176
     1
290
     1
176
     1
290
     0
176
     1
290
     0
176
     1
290
     0
176
     1
290
     0
176
     1
290
     0
176
     1
290
     0
176
     1
290
     0
176
     1
 90
       50
176
     1
 40
0.0
176
     1
 40
1.0
176
     1
 90
        0
176
     1
 62
    18
420
        0
176
     1
 90
       50
176
     1
 90
        3
176
     1
 62
     5
420
      255
176
     1
290
     0
176
     1
 90
       50
176
     1
 90
       50
176
     1
 90
       50
176
     1
290
     0
176
     1
 90
       50
176
     1
 62
   256
176
     0
 40
1.0
176
     0
 90
        2
176
     1
  1
strokes_ogs.tif
176
     1
290
     0
176
     1
 40
1.0
176
     1
 40
1.0
176
     1
  0
VISUALSTYLE
  5
171F0
102
{ACAD_REACTORS
330
17187
102
}
330
17187
100
AcDbVisualStyle
  2
3dWireframe
 70
     5
177
     3
291
     0
 70
    58
 90
        0
176
     1
 90
        2
176
     1
 90
        0
176
     1
 90
        0
176
     1
 40
0.6
176
     1
 40
30.0
176
     1
 62
     7
176
     1
 90
        1
176
     1
 90
        4
176
     1
 62
     7
176
     1
 62
   257
176
     1
 90
        1
176
     1
 90
        1
176
     1
 40
1.0
176
     1
 90
        0
176
     1
 62
   257
176
     1
 40
1.0
176
     1
 90
        1
176
     1
 90
        6
176
     1
 90
        2
176
     1
 62
     7
176
     1
 90
        5
176
     1
 90
        0
176
     1
 90
        0
176
     1
290
     0
176
     1
 90
        1
176
     1
 40
0.0
176
     1
 90
        0
176
     1
290
     0
176
     1
290
     1
176
     1
290
     1
176
     1
290
     0
176
     1
290
     0
176
     1
290
     0
176
     1
290
     0
176
     1
290
     0
176
     1
290
     0
176
     1
 90
       50
176
     1
 40
0.0
176
     1
 40
1.0
176
     1
 90
        0
176
     1
 62
    18
420
        0
176
     1
 90
       50
176
     1
 90
        3
176
     1
 62
     5
420
      255
176
     1
290
     0
176
     1
 90
       50
176
     1
 90
       50
176
     1
 90
       50
176
     1
290
     0
176
     1
 90
       50
176
     1
 62
   256
176
     0
 40
1.0
176
     0
 90
        2
176
     1
  1
strokes_ogs.tif
176
     1
290
     0
176
     1
 40
1.0
176
     1
 40
1.0
176
     1
  0
VISUALSTYLE
  5
1718C
102
{ACAD_REACTORS
330
17187
102
}
330
17187
100
AcDbVisualStyle
  2
Basic
 70
     7
177
     3
291
     1
 70
    58
 90
        1
176
     1
 90
        0
176
     1
 90
        1
176
     1
 90
        0
176
     1
 40
0.6
176
     1
 40
30.0
176
     1
 62
     7
420
 16777215
176
     1
 90
        0
176
     1
 90
        4
176
     1
 62
     7
176
     1
 62
   257
176
     1
 90
        1
176
     1
 90
        1
176
     1
 40
1.0
176
     1
 90
        8
176
     1
 62
     7
176
     1
 40
1.0
176
     1
 90
        1
176
     1
 90
        6
176
     1
 90
        2
176
     1
 62
     7
176
     1
 90
        5
176
     1
 90
        0
176
     1
 90
        0
176
     1
290
     0
176
     1
 90
        1
176
     1
 40
0.0
176
     1
 90
        0
176
     1
290
     0
176
     1
290
     1
176
     1
290
     1
176
     1
290
     0
176
     1
290
     0
176
     1
290
     0
176
     1
290
     0
176
     1
290
     0
176
     1
290
     0
176
     1
 90
       50
176
     1
 40
0.0
176
     1
 40
1.0
176
     1
 90
        0
176
     1
 62
    18
420
        0
176
     1
 90
       50
176
     1
 90
        3
176
     1
 62
     5
420
      255
176
     1
290
     0
176
     1
 90
       50
176
     1
 90
       50
176
     1
 90
       50
176
     1
290
     0
176
     1
 90
       50
176
     1
 62
   256
176
     0
 40
1.0
176
     0
 90
        2
176
     1
  1
strokes_ogs.tif
176
     1
290
     0
176
     1
 40
1.0
176
     1
 40
1.0
176
     1
  0
VISUALSTYLE
  5
17193
102
{ACAD_REACTORS
330
17187
102
}
330
17187
100
AcDbVisualStyle
  2
Brighten
 70
    12
177
     3
291
     1
 70
    58
 90
        2
176
     1
 90
        2
176
     1
 90
        0
176
     1
 90
        0
176
     1
 40
0.6
176
     1
 40
30.0
176
     1
 62
     7
420
 16777215
176
     1
 90
        1
176
     1
 90
        4
176
     1
 62
     7
176
     1
 62
   257
176
     1
 90
        1
176
     1
 90
        1
176
     1
 40
1.0
176
     1
 90
        8
176
     1
 62
     7
176
     1
 40
1.0
176
     1
 90
        1
176
     1
 90
        6
176
     1
 90
        2
176
     1
 62
     7
176
     1
 90
        5
176
     1
 90
        0
176
     1
 90
        0
176
     1
290
     0
176
     1
 90
        1
176
     1
 40
50.0
176
     1
 90
        0
176
     1
290
     0
176
     1
290
     1
176
     1
290
     1
176
     1
290
     0
176
     1
290
     0
176
     1
290
     0
176
     1
290
     0
176
     1
290
     0
176
     1
290
     0
176
     1
 90
       50
176
     1
 40
0.0
176
     1
 40
1.0
176
     1
 90
        0
176
     1
 62
    18
420
        0
176
     1
 90
       50
176
     1
 90
        3
176
     1
 62
     5
420
      255
176
     1
290
     0
176
     1
 90
       50
176
     1
 90
       50
176
     1
 90
       50
176
     1
290
     0
176
     1
 90
       50
176
     1
 62
   256
176
     0
 40
1.0
176
     0
 90
        2
176
     1
  1
strokes_ogs.tif
176
     1
290
     0
176
     1
 40
1.0
176
     1
 40
1.0
176
     1
  0
VISUALSTYLE
  5
17197
102
{ACAD_REACTORS
330
17187
102
}
330
17187
100
AcDbVisualStyle
  2
ColorChange
 70
    16
177
     3
291
     1
 70
    58
 90
        2
176
     1
 90
        2
176
     1
 90
        3
176
     1
 90
        0
176
     1
 40
0.6
176
     1
 40
30.0
176
     1
 62
     8
420
  8421504
176
     1
 90
        1
176
     1
 90
        4
176
     1
 62
     7
176
     1
 62
   257
176
     1
 90
        1
176
     1
 90
        1
176
     1
 40
1.0
176
     1
 90
        8
176
     1
 62
     8
420
  8421504
176
     1
 40
1.0
176
     1
 90
        1
176
     1
 90
        6
176
     1
 90
        2
176
     1
 62
     7
176
     1
 90
        5
176
     1
 90
        0
176
     1
 90
        0
176
     1
290
     0
176
     1
 90
        1
176
     1
 40
0.0
176
     1
 90
        0
176
     1
290
     0
176
     1
290
     1
176
     1
290
     1
176
     1
290
     0
176
     1
290
     0
176
     1
290
     0
176
     1
290
     0
176
     1
290
     0
176
     1
290
     0
176
     1
 90
       50
176
     1
 40
0.0
176
     1
 40
1.0
176
     1
 90
        0
176
     1
 62
    18
420
        0
176
     1
 90
       50
176
     1
 90
        3
176
     1
 62
     5
420
      255
176
     1
290
     0
176
     1
 90
       50
176
     1
 90
       50
176
     1
 90
       50
176
     1
290
     0
176
     1
 90
       50
176
     1
 62
   256
176
     0
 40
1.0
176
     0
 90
        2
176
     1
  1
strokes_ogs.tif
176
     1
290
     0
176
     1
 40
1.0
176
     1
 40
1.0
176
     1
  0
VISUALSTYLE
  5
17190
102
{ACAD_REACTORS
330
17187
102
}
330
17187
100
AcDbVisualStyle
  2
Conceptual
 70
     9
177
     3
291
     0
 70
    58
 90
        3
176
     1
 90
        2
176
     1
 90
        0
176
     1
 90
        0
176
     1
 40
0.6
176
     1
 40
30.0
176
     1
 62
     7
420
 16777215
176
     1
 90
        2
176
     1
 90
        2
176
     1
 62
     7
176
     1
 62
   257
176
     1
 90
        1
176
     1
 90
        1
176
     1
 40
179.0
176
     1
 90
        8
176
     1
 62
     7
176
     1
 40
1.0
176
     1
 90
        1
176
     1
 90
        6
176
     1
 90
        2
176
     1
 62
     7
176
     1
 90
        3
176
     1
 90
        0
176
     1
 90
        0
176
     1
290
     0
176
     1
 90
        1
176
     1
 40
0.0
176
     1
 90
        0
176
     1
290
     0
176
     1
290
     1
176
     1
290
     1
176
     1
290
     0
176
     1
290
     0
176
     1
290
     0
176
     1
290
     0
176
     1
290
     0
176
     1
290
     0
176
     1
 90
       50
176
     1
 40
0.0
176
     1
 40
1.0
176
     1
 90
        0
176
     1
 62
    18
420
        0
176
     1
 90
       50
176
     1
 90
        3
176
     1
 62
     5
420
      255
176
     1
290
     0
176
     1
 90
       50
176
     1
 90
       50
176
     1
 90
       50
176
     1
290
     0
176
     1
 90
       50
176
     1
 62
   256
176
     0
 40
1.0
176
     0
 90
        2
176
     1
  1
strokes_ogs.tif
176
     1
290
     0
176
     1
 40
1.0
176
     1
 40
1.0
176
     1
  0
VISUALSTYLE
  5
17192
102
{ACAD_REACTORS
330
17187
102
}
330
17187
100
AcDbVisualStyle
  2
Dim
 70
    11
177
     3
291
     1
 70
    58
 90
        2
176
     1
 90
        2
176
     1
 90
        0
176
     1
 90
        0
176
     1
 40
0.6
176
     1
 40
30.0
176
     1
 62
     7
420
 16777215
176
     1
 90
        1
176
     1
 90
        4
176
     1
 62
     7
176
     1
 62
   257
176
     1
 90
        1
176
     1
 90
        1
176
     1
 40
1.0
176
     1
 90
        8
176
     1
 62
     7
176
     1
 40
1.0
176
     1
 90
        1
176
     1
 90
        6
176
     1
 90
        2
176
     1
 62
     7
176
     1
 90
        5
176
     1
 90
        0
176
     1
 90
        0
176
     1
290
     0
176
     1
 90
        1
176
     1
 40
-50.0
176
     1
 90
        0
176
     1
290
     0
176
     1
290
     1
176
     1
290
     1
176
     1
290
     0
176
     1
290
     0
176
     1
290
     0
176
     1
290
     0
176
     1
290
     0
176
     1
290
     0
176
     1
 90
       50
176
     1
 40
0.0
176
     1
 40
1.0
176
     1
 90
        0
176
     1
 62
    18
420
        0
176
     1
 90
       50
176
     1
 90
        3
176
     1
 62
     5
420
      255
176
     1
290
     0
176
     1
 90
       50
176
     1
 90
       50
176
     1
 90
       50
176
     1
290
     0
176
     1
 90
       50
176
     1
 62
   256
176
     0
 40
1.0
176
     0
 90
        2
176
     1
  1
strokes_ogs.tif
176
     1
290
     0
176
     1
 40
1.0
176
     1
 40
1.0
176
     1
  0
VISUALSTYLE
  5
1719F
102
{ACAD_REACTORS
330
17187
102
}
330
17187
100
AcDbVisualStyle
  2
EdgeColorOff
 70
    22
177
     3
291
     1
 70
    58
 90
        2
176
     0
 90
        2
176
     0
 90
        0
176
     0
 90
        0
176
     0
 40
0.6
176
     0
 40
30.0
176
     0
 62
     7
420
 16777215
176
     0
 90
        1
176
     0
 90
        4
176
     0
 62
     7
176
     0
 62
   257
176
     0
 90
        1
176
     0
 90
        1
176
     0
 40
1.0
176
     0
 90
        8
176
     2
 62
     7
176
     0
 40
1.0
176
     0
 90
        1
176
     0
 90
        6
176
     0
 90
        2
176
     0
 62
     7
176
     0
 90
        5
176
     0
 90
        0
176
     0
 90
        0
176
     0
290
     0
176
     0
 90
        1
176
     0
 40
0.0
176
     0
 90
        0
176
     0
290
     0
176
     0
290
     1
176
     0
290
     1
176
     0
290
     0
176
     0
290
     0
176
     0
290
     0
176
     0
290
     0
176
     0
290
     0
176
     0
290
     0
176
     0
 90
       50
176
     0
 40
0.0
176
     0
 40
1.0
176
     0
 90
        0
176
     0
 62
    18
420
        0
176
     0
 90
       50
176
     0
 90
        3
176
     0
 62
     5
420
      255
176
     0
290
     0
176
     0
 90
       50
176
     0
 90
       50
176
     0
 90
       50
176
     0
290
     0
176
     0
 90
       50
176
     0
 62
   256
176
     0
 40
1.0
176
     0
 90
        2
176
     0
  1
strokes_ogs.tif
176
     0
290
     0
176
     0
 40
1.0
176
     0
 40
1.0
176
     0
  0
VISUALSTYLE
  5
17196
102
{ACAD_REACTORS
330
17187
102
}
330
17187
100
AcDbVisualStyle
  2
Facepattern
 70
    15
177
     3
291
     1
 70
    58
 90
        2
176
     1
 90
        2
176
     1
 90
        0
176
     1
 90
        0
176
     1
 40
0.6
176
     1
 40
30.0
176
     1
 62
     7
420
 16777215
176
     1
 90
        1
176
     1
 90
        4
176
     1
 62
     7
176
     1
 62
   257
176
     1
 90
        1
176
     1
 90
        1
176
     1
 40
1.0
176
     1
 90
        8
176
     1
 62
     7
176
     1
 40
1.0
176
     1
 90
        1
176
     1
 90
        6
176
     1
 90
        2
176
     1
 62
     7
176
     1
 90
        5
176
     1
 90
        0
176
     1
 90
        0
176
     1
290
     0
176
     1
 90
        1
176
     1
 40
0.0
176
     1
 90
        0
176
     1
290
     0
176
     1
290
     1
176
     1
290
     1
176
     1
290
     0
176
     1
290
     0
176
     1
290
     0
176
     1
290
     0
176
     1
290
     0
176
     1
290
     0
176
     1
 90
       50
176
     1
 40
0.0
176
     1
 40
1.0
176
     1
 90
        0
176
     1
 62
    18
420
        0
176
     1
 90
       50
176
     1
 90
        3
176
     1
 62
     5
420
      255
176
     1
290
     0
176
     1
 90
       50
176
     1
 90
       50
176
     1
 90
       50
176
     1
290
     0
176
     1
 90
       50
176
     1
 62
   256
176
     0
 40
1.0
176
     0
 90
        2
176
     1
  1
strokes_ogs.tif
176
     1
290
     0
176
     1
 40
1.0
176
     1
 40
1.0
176
     1
  0
VISUALSTYLE
  5
17188
102
{ACAD_REACTORS
330
17187
102
}
330
17187
100
AcDbVisualStyle
  2
Flat
 70
     0
177
     3
291
     1
 70
    58
 90
        2
176
     1
 90
        1
176
     1
 90
        1
176
     1
 90
        2
176
     1
 40
0.6
176
     1
 40
30.0
176
     1
 62
     7
420
 16777215
176
     1
 90
        0
176
     1
 90
        0
176
     1
 62
     7
176
     1
 62
   257
176
     1
 90
        1
176
     1
 90
        1
176
     1
 40
1.0
176
     1
 90
        8
176
     1
 62
     7
176
     1
 40
1.0
176
     1
 90
        1
176
     1
 90
        6
176
     1
 90
        2
176
     1
 62
     7
176
     1
 90
        5
176
     1
 90
        0
176
     1
 90
        0
176
     1
290
     0
176
     1
 90
       13
176
     1
 40
0.0
176
     1
 90
        0
176
     1
290
     0
176
     1
290
     1
176
     1
290
     1
176
     1
290
     0
176
     1
290
     0
176
     1
290
     0
176
     1
290
     0
176
     1
290
     0
176
     1
290
     0
176
     1
 90
       50
176
     1
 40
0.0
176
     1
 40
1.0
176
     1
 90
        0
176
     1
 62
    18
420
        0
176
     1
 90
       50
176
     1
 90
        3
176
     1
 62
     5
420
      255
176
     1
290
     0
176
     1
 90
       50
176
     1
 90
       50
176
     1
 90
       50
176
     1
290
     0
176
     1
 90
       50
176
     1
 62
   256
176
     0
 40
1.0
176
     0
 90
        2
176
     1
  1
strokes_ogs.tif
176
     1
290
     0
176
     1
 40
1.0
176
     1
 40
1.0
176
     1
  0
VISUALSTYLE
  5
17189
102
{ACAD_REACTORS
330
17187
102
}
330
17187
100
AcDbVisualStyle
  2
FlatWithEdges
 70
     1
177
     3
291
     1
 70
    58
 90
        2
176
     1
 90
        1
176
     1
 90
        1
176
     1
 90
        2
176
     1
 40
0.6
176
     1
 40
30.0
176
     1
 62
     7
420
 16777215
176
     1
 90
        1
176
     1
 90
        0
176
     1
 62
     7
176
     1
 62
   257
176
     1
 90
        1
176
     1
 90
        1
176
     1
 40
1.0
176
     1
 90
        0
176
     1
 62
   257
176
     1
 40
1.0
176
     1
 90
        1
176
     1
 90
        6
176
     1
 90
        2
176
     1
 62
     7
176
     1
 90
        5
176
     1
 90
        0
176
     1
 90
        0
176
     1
290
     0
176
     1
 90
       13
176
     1
 40
0.0
176
     1
 90
        0
176
     1
290
     0
176
     1
290
     1
176
     1
290
     1
176
     1
290
     0
176
     1
290
     0
176
     1
290
     0
176
     1
290
     0
176
     1
290
     0
176
     1
290
     0
176
     1
 90
       50
176
     1
 40
0.0
176
     1
 40
1.0
176
     1
 90
        0
176
     1
 62
    18
420
        0
176
     1
 90
       50
176
     1
 90
        3
176
     1
 62
     5
420
      255
176
     1
290
     0
176
     1
 90
       50
176
     1
 90
       50
176
     1
 90
       50
176
     1
290
     0
176
     1
 90
       50
176
     1
 62
   256
176
     0
 40
1.0
176
     0
 90
        2
176
     1
  1
strokes_ogs.tif
176
     1
290
     0
176
     1
 40
1.0
176
     1
 40
1.0
176
     1
  0
VISUALSTYLE
  5
1718A
102
{ACAD_REACTORS
330
17187
102
}
330
17187
100
AcDbVisualStyle
  2
Gouraud
 70
     2
177
     3
291
     1
 70
    58
 90
        2
176
     1
 90
        2
176
     1
 90
        1
176
     1
 90
        2
176
     1
 40
0.6
176
     1
 40
30.0
176
     1
 62
     7
420
 16777215
176
     1
 90
        0
176
     1
 90
        0
176
     1
 62
     7
176
     1
 62
   257
176
     1
 90
        1
176
     1
 90
        1
176
     1
 40
1.0
176
     1
 90
        0
176
     1
 62
     7
176
     1
 40
1.0
176
     1
 90
        1
176
     1
 90
        6
176
     1
 90
        2
176
     1
 62
     7
176
     1
 90
        5
176
     1
 90
        0
176
     1
 90
        0
176
     1
290
     0
176
     1
 90
       13
176
     1
 40
0.0
176
     1
 90
        0
176
     1
290
     0
176
     1
290
     1
176
     1
290
     1
176
     1
290
     0
176
     1
290
     0
176
     1
290
     0
176
     1
290
     0
176
     1
290
     0
176
     1
290
     0
176
     1
 90
       50
176
     1
 40
0.0
176
     1
 40
1.0
176
     1
 90
        0
176
     1
 62
    18
420
        0
176
     1
 90
       50
176
     1
 90
        3
176
     1
 62
     5
420
      255
176
     1
290
     0
176
     1
 90
       50
176
     1
 90
       50
176
     1
 90
       50
176
     1
290
     0
176
     1
 90
       50
176
     1
 62
   256
176
     0
 40
1.0
176
     0
 90
        2
176
     1
  1
strokes_ogs.tif
176
     1
290
     0
176
     1
 40
1.0
176
     1
 40
1.0
176
     1
  0
VISUALSTYLE
  5
1718B
102
{ACAD_REACTORS
330
17187
102
}
330
17187
100
AcDbVisualStyle
  2
GouraudWithEdges
 70
     3
177
     3
291
     1
 70
    58
 90
        2
176
     1
 90
        2
176
     1
 90
        1
176
     1
 90
        2
176
     1
 40
0.6
176
     1
 40
30.0
176
     1
 62
     7
420
 16777215
176
     1
 90
        1
176
     1
 90
        0
176
     1
 62
     7
176
     1
 62
   257
176
     1
 90
        1
176
     1
 90
        1
176
     1
 40
1.0
176
     1
 90
        0
176
     1
 62
   257
176
     1
 40
1.0
176
     1
 90
        1
176
     1
 90
        6
176
     1
 90
        2
176
     1
 62
     7
176
     1
 90
        5
176
     1
 90
        0
176
     1
 90
        0
176
     1
290
     0
176
     1
 90
       13
176
     1
 40
0.0
176
     1
 90
        0
176
     1
290
     0
176
     1
290
     1
176
     1
290
     1
176
     1
290
     0
176
     1
290
     0
176
     1
290
     0
176
     1
290
     0
176
     1
290
     0
176
     1
290
     0
176
     1
 90
       50
176
     1
 40
0.0
176
     1
 40
1.0
176
     1
 90
        0
176
     1
 62
    18
420
        0
176
     1
 90
       50
176
     1
 90
        3
176
     1
 62
     5
420
      255
176
     1
290
     0
176
     1
 90
       50
176
     1
 90
       50
176
     1
 90
       50
176
     1
290
     0
176
     1
 90
       50
176
     1
 62
   256
176
     0
 40
1.0
176
     0
 90
        2
176
     1
  1
strokes_ogs.tif
176
     1
290
     0
176
     1
 40
1.0
176
     1
 40
1.0
176
     1
  0
VISUALSTYLE
  5
1718F
102
{ACAD_REACTORS
330
17187
102
}
330
17187
100
AcDbVisualStyle
  2
Hidden
 70
     6
177
     3
291
     0
 70
    58
 90
        1
176
     1
 90
        2
176
     1
 90
        2
176
     1
 90
        0
176
     1
 40
0.6
176
     1
 40
30.0
176
     1
 62
     7
420
 16777215
176
     1
 90
        2
176
     1
 90
        2
176
     1
 62
     7
176
     1
 62
   257
176
     1
 90
        2
176
     1
 90
        1
176
     1
 40
40.0
176
     1
 90
        0
176
     1
 62
   257
176
     1
 40
1.0
176
     1
 90
        1
176
     1
 90
        6
176
     1
 90
        2
176
     1
 62
     7
176
     1
 90
        3
176
     1
 90
        0
176
     1
 90
        0
176
     1
290
     0
176
     1
 90
        1
176
     1
 40
0.0
176
     1
 90
        0
176
     1
290
     0
176
     1
290
     1
176
     1
290
     1
176
     1
290
     0
176
     1
290
     0
176
     1
290
     0
176
     1
290
     0
176
     1
290
     0
176
     1
290
     0
176
     1
 90
       50
176
     1
 40
0.0
176
     1
 40
1.0
176
     1
 90
        0
176
     1
 62
    18
420
        0
176
     1
 90
       50
176
     1
 90
        3
176
     1
 62
     5
420
      255
176
     1
290
     0
176
     1
 90
       50
176
     1
 90
       50
176
     1
 90
       50
176
     1
290
     0
176
     1
 90
       50
176
     1
 62
   256
176
     0
 40
1.0
176
     0
 90
        2
176
     1
  1
strokes_ogs.tif
176
     1
290
     0
176
     1
 40
1.0
176
     1
 40
1.0
176
     1
  0
VISUALSTYLE
  5
1719D
102
{ACAD_REACTORS
330
17187
102
}
330
17187
100
AcDbVisualStyle
  2
JitterOff
 70
    20
177
     3
291
     1
 70
    58
 90
        2
176
     0
 90
        2
176
     0
 90
        0
176
     0
 90
        0
176
     0
 40
0.6
176
     0
 40
30.0
176
     0
 62
     7
420
 16777215
176
     0
 90
        1
176
     0
 90
        4
176
     0
 62
     7
176
     0
 62
   257
176
     0
 90
        1
176
     0
 90
        1
176
     0
 40
1.0
176
     0
 90
       10
176
     2
 62
     7
176
     0
 40
1.0
176
     0
 90
        1
176
     0
 90
        6
176
     0
 90
        2
176
     0
 62
     7
176
     0
 90
        5
176
     0
 90
        0
176
     0
 90
        0
176
     0
290
     0
176
     0
 90
        1
176
     0
 40
0.0
176
     0
 90
        0
176
     0
290
     0
176
     0
290
     1
176
     0
290
     1
176
     0
290
     0
176
     0
290
     0
176
     0
290
     0
176
     0
290
     0
176
     0
290
     0
176
     0
290
     0
176
     0
 90
       50
176
     0
 40
0.0
176
     0
 40
1.0
176
     0
 90
        0
176
     0
 62
    18
420
        0
176
     0
 90
       50
176
     0
 90
        3
176
     0
 62
     5
420
      255
176
     0
290
     0
176
     0
 90
       50
176
     0
 90
       50
176
     0
 90
       50
176
     0
290
     0
176
     0
 90
       50
176
     0
 62
   256
176
     0
 40
1.0
176
     0
 90
        2
176
     0
  1
strokes_ogs.tif
176
     0
290
     0
176
     0
 40
1.0
176
     0
 40
1.0
176
     0
  0
VISUALSTYLE
  5
17195
102
{ACAD_REACTORS
330
17187
102
}
330
17187
100
AcDbVisualStyle
  2
Linepattern
 70
    14
177
     3
291
     1
 70
    58
 90
        2
176
     1
 90
        2
176
     1
 90
        0
176
     1
 90
        0
176
     1
 40
0.6
176
     1
 40
30.0
176
     1
 62
     7
420
 16777215
176
     1
 90
        1
176
     1
 90
        4
176
     1
 62
     7
176
     1
 62
   257
176
     1
 90
        7
176
     1
 90
        7
176
     1
 40
1.0
176
     1
 90
        8
176
     1
 62
     7
176
     1
 40
1.0
176
     1
 90
        1
176
     1
 90
        6
176
     1
 90
        2
176
     1
 62
     7
176
     1
 90
        5
176
     1
 90
        0
176
     1
 90
        0
176
     1
290
     0
176
     1
 90
        1
176
     1
 40
0.0
176
     1
 90
        0
176
     1
290
     0
176
     1
290
     1
176
     1
290
     1
176
     1
290
     0
176
     1
290
     0
176
     1
290
     0
176
     1
290
     0
176
     1
290
     0
176
     1
290
     0
176
     1
 90
       50
176
     1
 40
0.0
176
     1
 40
1.0
176
     1
 90
        0
176
     1
 62
    18
420
        0
176
     1
 90
       50
176
     1
 90
        3
176
     1
 62
     5
420
      255
176
     1
290
     0
176
     1
 90
       50
176
     1
 90
       50
176
     1
 90
       50
176
     1
290
     0
176
     1
 90
       50
176
     1
 62
   256
176
     0
 40
1.0
176
     0
 90
        2
176
     1
  1
strokes_ogs.tif
176
     1
290
     0
176
     1
 40
1.0
176
     1
 40
1.0
176
     1
  0
VISUALSTYLE
  5
1719E
102
{ACAD_REACTORS
330
17187
102
}
330
17187
100
AcDbVisualStyle
  2
OverhangOff
 70
    21
177
     3
291
     1
 70
    58
 90
        2
176
     0
 90
        2
176
     0
 90
        0
176
     0
 90
        0
176
     0
 40
0.6
176
     0
 40
30.0
176
     0
 62
     7
420
 16777215
176
     0
 90
        1
176
     0
 90
        4
176
     0
 62
     7
176
     0
 62
   257
176
     0
 90
        1
176
     0
 90
        1
176
     0
 40
1.0
176
     0
 90
        9
176
     2
 62
     7
176
     0
 40
1.0
176
     0
 90
        1
176
     0
 90
        6
176
     0
 90
        2
176
     0
 62
     7
176
     0
 90
        5
176
     0
 90
        0
176
     0
 90
        0
176
     0
290
     0
176
     0
 90
        1
176
     0
 40
0.0
176
     0
 90
        0
176
     0
290
     0
176
     0
290
     1
176
     0
290
     1
176
     0
290
     0
176
     0
290
     0
176
     0
290
     0
176
     0
290
     0
176
     0
290
     0
176
     0
290
     0
176
     0
 90
       50
176
     0
 40
0.0
176
     0
 40
1.0
176
     0
 90
        0
176
     0
 62
    18
420
        0
176
     0
 90
       50
176
     0
 90
        3
176
     0
 62
     5
420
      255
176
     0
290
     0
176
     0
 90
       50
176
     0
 90
       50
176
     0
 90
       50
176
     0
290
     0
176
     0
 90
       50
176
     0
 62
   256
176
     0
 40
1.0
176
     0
 90
        2
176
     0
  1
strokes_ogs.tif
176
     0
290
     0
176
     0
 40
1.0
176
     0
 40
1.0
176
     0
  0
VISUALSTYLE
  5
17191
102
{ACAD_REACTORS
330
17187
102
}
330
17187
100
AcDbVisualStyle
  2
Realistic
 70
     8
177
     3
291
     0
 70
    58
 90
        2
176
     1
 90
        3
176
     1
 90
        0
176
     1
 90
        2
176
     1
 40
0.6
176
     1
 40
30.0
176
     1
 62
     7
420
 16777215
176
     1
 90
        0
176
     1
 90
        0
176
     1
 62
     7
176
     1
 62
   257
176
     1
 90
        1
176
     1
 90
        1
176
     1
 40
1.0
176
     1
 90
        8
176
     1
 62
   257
176
     1
 40
1.0
176
     1
 90
        1
176
     1
 90
        6
176
     1
 90
        2
176
     1
 62
     7
176
     1
 90
        3
176
     1
 90
        0
176
     1
 90
        0
176
     1
290
     0
176
     1
 90
       13
176
     1
 40
0.0
176
     1
 90
        0
176
     1
290
     0
176
     1
290
     1
176
     1
290
     1
176
     1
290
     0
176
     1
290
     0
176
     1
290
     0
176
     1
290
     0
176
     1
290
     0
176
     1
290
     0
176
     1
 90
       50
176
     1
 40
0.0
176
     1
 40
1.0
176
     1
 90
        0
176
     1
 62
    18
420
        0
176
     1
 90
       50
176
     1
 90
        3
176
     1
 62
     5
420
      255
176
     1
290
     0
176
     1
 90
       50
176
     1
 90
       50
176
     1
 90
       50
176
     1
290
     0
176
     1
 90
       50
176
     1
 62
   256
176
     0
 40
1.0
176
     0
 90
        2
176
     1
  1
strokes_ogs.tif
176
     1
290
     0
176
     1
 40
1.0
176
     1
 40
1.0
176
     1
  0
VISUALSTYLE
  5
1719C
102
{ACAD_REACTORS
330
17187
102
}
330
17187
100
AcDbVisualStyle
  2
Shaded
 70
    27
177
     3
291
     0
 70
    58
 90
        2
176
     1
 90
        2
176
     1
 90
        1
176
     1
 90
        2
176
     1
 40
0.6
176
     1
 40
30.0
176
     1
 62
     7
420
 16777215
176
     1
 90
        0
176
     1
 90
        4
176
     1
 62
     7
176
     1
 62
   257
176
     1
 90
        1
176
     1
 90
        1
176
     1
 40
1.0
176
     1
 90
        8
176
     1
 62
   257
176
     1
 40
1.0
176
     1
 90
        1
176
     1
 90
        6
176
     1
 90
        2
176
     1
 62
     8
420
  7895160
176
     1
 90
        3
176
     1
 90
        0
176
     1
 90
        0
176
     1
290
     0
176
     1
 90
        5
176
     1
 40
0.0
176
     1
 90
        0
176
     1
290
     0
176
     1
290
     1
176
     1
290
     1
176
     1
290
     0
176
     1
290
     0
176
     1
290
     0
176
     1
290
     0
176
     1
290
     0
176
     1
290
     0
176
     1
 90
       50
176
     1
 40
0.0
176
     1
 40
1.0
176
     1
 90
        0
176
     1
 62
    18
420
        0
176
     1
 90
       50
176
     1
 90
        3
176
     1
 62
     5
420
      255
176
     1
290
     0
176
     1
 90
       50
176
     1
 90
       50
176
     1
 90
       50
176
     1
290
     0
176
     1
 90
       50
176
     1
 62
   256
176
     0
 40
1.0
176
     0
 90
        2
176
     1
  1
strokes_ogs.tif
176
     1
290
     0
176
     1
 40
1.0
176
     1
 40
1.0
176
     1
  0
VISUALSTYLE
  5
1719B
102
{ACAD_REACTORS
330
17187
102
}
330
17187
100
AcDbVisualStyle
  2
Shaded with edges
 70
    26
177
     3
291
     0
 70
    58
 90
        2
176
     1
 90
        2
176
     1
 90
        1
176
     1
 90
        2
176
     1
 40
0.6
176
     1
 40
30.0
176
     1
 62
     7
420
 16777215
176
     1
 90
        1
176
     1
 90
        2
176
     1
 62
     7
176
     1
 62
   257
176
     1
 90
        2
176
     1
 90
        1
176
     1
 40
1.0
176
     1
 90
        8
176
     1
 62
   257
176
     1
 40
1.0
176
     1
 90
        1
176
     1
 90
        6
176
     1
 90
        2
176
     1
 62
     7
176
     1
 90
        3
176
     1
 90
        0
176
     1
 90
        0
176
     1
290
     0
176
     1
 90
        5
176
     1
 40
0.0
176
     1
 90
        0
176
     1
290
     0
176
     1
290
     1
176
     1
290
     1
176
     1
290
     0
176
     1
290
     0
176
     1
290
     0
176
     1
290
     0
176
     1
290
     0
176
     1
290
     0
176
     1
 90
       50
176
     1
 40
0.0
176
     1
 40
1.0
176
     1
 90
        0
176
     1
 62
    18
420
        0
176
     1
 90
       50
176
     1
 90
        3
176
     1
 62
     5
420
      255
176
     1
290
     0
176
     1
 90
       50
176
     1
 90
       50
176
     1
 90
       50
176
     1
290
     0
176
     1
 90
       50
176
     1
 62
   256
176
     0
 40
1.0
176
     0
 90
        2
176
     1
  1
strokes_ogs.tif
176
     1
290
     0
176
     1
 40
1.0
176
     1
 40
1.0
176
     1
  0
VISUALSTYLE
  5
17198
102
{ACAD_REACTORS
330
17187
102
}
330
17187
100
AcDbVisualStyle
  2
Shades of Gray
 70
    23
177
     3
291
     0
 70
    58
 90
        2
176
     1
 90
        2
176
     1
 90
        3
176
     1
 90
        0
176
     1
 40
0.6
176
     1
 40
30.0
176
     1
 62
     7
420
 16777215
176
     1
 90
        2
176
     1
 90
        2
176
     1
 62
     7
176
     1
 62
     7
176
     1
 90
        1
176
     1
 90
        1
176
     1
 40
40.0
176
     1
 90
        8
176
     1
 62
     7
176
     1
 40
1.0
176
     1
 90
        1
176
     1
 90
        6
176
     1
 90
        2
176
     1
 62
     7
176
     1
 90
        3
176
     1
 90
        0
176
     1
 90
        0
176
     1
290
     0
176
     1
 90
        1
176
     1
 40
0.0
176
     1
 90
        0
176
     1
290
     0
176
     1
290
     1
176
     1
290
     1
176
     1
290
     0
176
     1
290
     0
176
     1
290
     0
176
     1
290
     0
176
     1
290
     0
176
     1
290
     0
176
     1
 90
       50
176
     1
 40
0.0
176
     1
 40
1.0
176
     1
 90
        0
176
     1
 62
    18
420
        0
176
     1
 90
       50
176
     1
 90
        3
176
     1
 62
     5
420
      255
176
     1
290
     0
176
     1
 90
       50
176
     1
 90
       50
176
     1
 90
       50
176
     1
290
     0
176
     1
 90
       50
176
     1
 62
   256
176
     0
 40
1.0
176
     0
 90
        2
176
     1
  1
strokes_ogs.tif
176
     1
290
     0
176
     1
 40
1.0
176
     1
 40
1.0
176
     1
  0
VISUALSTYLE
  5
17199
102
{ACAD_REACTORS
330
17187
102
}
330
17187
100
AcDbVisualStyle
  2
Sketchy
 70
    24
177
     3
291
     0
 70
    58
 90
        1
176
     1
 90
        2
176
     1
 90
        2
176
     1
 90
        0
176
     1
 40
0.6
176
     1
 40
30.0
176
     1
 62
     7
420
 16777215
176
     1
 90
        2
176
     1
 90
        2
176
     1
 62
     7
176
     1
 62
     7
176
     1
 90
        1
176
     1
 90
        1
176
     1
 40
40.0
176
     1
 90
       11
176
     1
 62
     7
176
     1
 40
1.0
176
     1
 90
        1
176
     1
 90
        6
176
     1
 90
        2
176
     1
 62
     7
176
     1
 90
        6
176
     1
 90
        0
176
     1
 90
        0
176
     1
290
     0
176
     1
 90
        1
176
     1
 40
0.0
176
     1
 90
        0
176
     1
290
     0
176
     1
290
     1
176
     1
290
     1
176
     1
290
     0
176
     1
290
     0
176
     1
290
     0
176
     1
290
     0
176
     1
290
     0
176
     1
290
     0
176
     1
 90
       50
176
     1
 40
0.0
176
     1
 40
1.0
176
     1
 90
        0
176
     1
 62
    18
420
        0
176
     1
 90
       50
176
     1
 90
        3
176
     1
 62
     5
420
      255
176
     1
290
     0
176
     1
 90
       50
176
     1
 90
       50
176
     1
 90
       50
176
     1
290
     0
176
     1
 90
       50
176
     1
 62
   256
176
     0
 40
1.0
176
     0
 90
        2
176
     1
  1
strokes_ogs.tif
176
     1
290
     0
176
     1
 40
1.0
176
     1
 40
1.0
176
     1
  0
VISUALSTYLE
  5
17194
102
{ACAD_REACTORS
330
17187
102
}
330
17187
100
AcDbVisualStyle
  2
Thicken
 70
    13
177
     3
291
     1
 70
    58
 90
        2
176
     1
 90
        2
176
     1
 90
        0
176
     1
 90
        0
176
     1
 40
0.6
176
     1
 40
30.0
176
     1
 62
     7
420
 16777215
176
     1
 90
        1
176
     1
 90
        4
176
     1
 62
     7
176
     1
 62
   257
176
     1
 90
        1
176
     1
 90
        1
176
     1
 40
1.0
176
     1
 90
       12
176
     1
 62
     7
176
     1
 40
1.0
176
     1
 90
        1
176
     1
 90
        6
176
     1
 90
        2
176
     1
 62
     7
176
     1
 90
        5
176
     1
 90
        0
176
     1
 90
        0
176
     1
290
     0
176
     1
 90
        1
176
     1
 40
0.0
176
     1
 90
        0
176
     1
290
     0
176
     1
290
     1
176
     1
290
     1
176
     1
290
     0
176
     1
290
     0
176
     1
290
     0
176
     1
290
     0
176
     1
290
     0
176
     1
290
     0
176
     1
 90
       50
176
     1
 40
0.0
176
     1
 40
1.0
176
     1
 90
        0
176
     1
 62
    18
420
        0
176
     1
 90
       50
176
     1
 90
        3
176
     1
 62
     5
420
      255
176
     1
290
     0
176
     1
 90
       50
176
     1
 90
       50
176
     1
 90
       50
176
     1
290
     0
176
     1
 90
       50
176
     1
 62
   256
176
     0
 40
1.0
176
     0
 90
        2
176
     1
  1
strokes_ogs.tif
176
     1
290
     0
176
     1
 40
1.0
176
     1
 40
1.0
176
     1
  0
VISUALSTYLE
  5
1718E
102
{ACAD_REACTORS
330
17187
102
}
330
17187
100
AcDbVisualStyle
  2
Wireframe
 70
     5
177
     3
291
     0
 70
    58
 90
        0
176
     1
 90
        2
176
     1
 90
        0
176
     1
 90
        0
176
     1
 40
0.6
176
     1
 40
30.0
176
     1
 62
     7
420
 16777215
176
     1
 90
        1
176
     1
 90
        4
176
     1
 62
     7
176
     1
 62
   257
176
     1
 90
        1
176
     1
 90
        1
176
     1
 40
1.0
176
     1
 90
        0
176
     1
 62
   257
176
     1
 40
1.0
176
     1
 90
        1
176
     1
 90
        6
176
     1
 90
        2
176
     1
 62
     7
176
     1
 90
        3
176
     1
 90
        0
176
     1
 90
        0
176
     1
290
     0
176
     1
 90
        1
176
     1
 40
0.0
176
     1
 90
        0
176
     1
290
     0
176
     1
290
     1
176
     1
290
     1
176
     1
290
     0
176
     1
290
     0
176
     1
290
     0
176
     1
290
     0
176
     1
290
     0
176
     1
290
     0
176
     1
 90
       50
176
     1
 40
0.0
176
     1
 40
1.0
176
     1
 90
        0
176
     1
 62
    18
420
        0
176
     1
 90
       50
176
     1
 90
        3
176
     1
 62
     5
420
      255
176
     1
290
     0
176
     1
 90
       50
176
     1
 90
       50
176
     1
 90
       50
176
     1
290
     0
176
     1
 90
       50
176
     1
 62
   256
176
     0
 40
1.0
176
     0
 90
        2
176
     1
  1
strokes_ogs.tif
176
     1
290
     0
176
     1
 40
1.0
176
     1
 40
1.0
176
     1
  0
VISUALSTYLE
  5
1719A
102
{ACAD_REACTORS
330
17187
102
}
330
17187
100
AcDbVisualStyle
  2
X-Ray
 70
    25
177
     3
291
     0
 70
    58
 90
        2
176
     1
 90
        2
176
     1
 90
        1
176
     1
 90
        1
176
     1
 40
0.5
176
     1
 40
30.0
176
     1
 62
     7
420
 16777215
176
     1
 90
        1
176
     1
 90
        0
176
     1
 62
     7
176
     1
 62
   257
176
     1
 90
        1
176
     1
 90
        1
176
     1
 40
1.0
176
     1
 90
        8
176
     1
 62
     7
176
     1
 40
1.0
176
     1
 90
        1
176
     1
 90
        6
176
     1
 90
        2
176
     1
 62
     7
176
     1
 90
        3
176
     1
 90
        0
176
     1
 90
        0
176
     1
290
     0
176
     1
 90
       13
176
     1
 40
0.0
176
     1
 90
        0
176
     1
290
     0
176
     1
290
     1
176
     1
290
     1
176
     1
290
     0
176
     1
290
     0
176
     1
290
     0
176
     1
290
     0
176
     1
290
     0
176
     1
290
     0
176
     1
 90
       50
176
     1
 40
0.0
176
     1
 40
1.0
176
     1
 90
        0
176
     1
 62
    18
420
        0
176
     1
 90
       50
176
     1
 90
        3
176
     1
 62
     5
420
      255
176
     1
290
     0
176
     1
 90
       50
176
     1
 90
       50
176
     1
 90
       50
176
     1
290
     0
176
     1
 90
       50
176
     1
 62
   256
176
     0
 40
1.0
176
     0
 90
        2
176
     1
  1
strokes_ogs.tif
176
     1
290
     0
176
     1
 40
1.0
176
     1
 40
1.0
176
     1
  0
DICTIONARYVAR
  5
17217
102
{ACAD_REACTORS
330
73
102
}
330
73
100
DictionaryVariables
280
     0
  1
1:1
  0
DICTIONARYVAR
  5
17213
102
{ACAD_REACTORS
330
73
102
}
330
73
100
DictionaryVariables
280
     0
  1
STANDARD
  0
DICTIONARYVAR
  5
4CE6
102
{ACAD_REACTORS
330
73
102
}
330
73
100
DictionaryVariables
280
     0
  1
STANDARD
  0
DICTIONARYVAR
  5
17214
102
{ACAD_REACTORS
330
73
102
}
330
73
100
DictionaryVariables
280
     0
  1
Imperial24
  0
DICTIONARYVAR
  5
17215
102
{ACAD_REACTORS
330
73
102
}
330
73
100
DictionaryVariables
280
     0
  1
Imperial24
  0
DICTIONARYVAR
  5
BBB0
102
{ACAD_REACTORS
330
73
102
}
330
73
100
DictionaryVariables
280
     0
  1
1
  0
DICTIONARYVAR
  5
17219
102
{ACAD_REACTORS
330
73
102
}
330
73
100
DictionaryVariables
280
     0
  1
1
  0
DICTIONARYVAR
  5
1721A
102
{ACAD_REACTORS
330
73
102
}
330
73
100
DictionaryVariables
280
     0
  1
15
  0
DICTIONARYVAR
  5
17218
102
{ACAD_REACTORS
330
73
102
}
330
73
100
DictionaryVariables
280
     0
  1
0
  0
DICTIONARYVAR
  5
17216
102
{ACAD_REACTORS
330
73
102
}
330
73
100
DictionaryVariables
280
     0
  1
0
  0
DICTIONARYVAR
  5
BBB1
102
{ACAD_REACTORS
330
73
102
}
330
73
100
DictionaryVariables
280
     0
  1

  0
DICTIONARYVAR
  5
74
102
{ACAD_REACTORS
330
73
102
}
330
73
100
DictionaryVariables
280
     0
  1
96
  0
XRECORD
  5
DE9
102
{ACAD_REACTORS
330
DE7
102
}
330
DE7
100
AcDbXrecord
280
     1
  0
DICTIONARY
  5
BAE2
330
BAD3
100
AcDbDictionary
280
     1
281
     1
  0
DICTIONARY
  5
17178
330
17177
100
AcDbDictionary
280
     1
281
     1
  3
BUMPTILE
360
1717A
  3
DIFFUSETILE
360
17179
  3
OPACITYTILE
360
1717D
  3
REFLECTIONTILE
360
1717C
  3
REFRACTIONTILE
360
1717E
  3
SPECULARTILE
360
1717B
  0
DICTIONARY
  5
17170
330
1716F
100
AcDbDictionary
280
     1
281
     1
  3
BUMPTILE
360
17172
  3
DIFFUSETILE
360
17171
  3
OPACITYTILE
360
17175
  3
REFLECTIONTILE
360
17174
  3
REFRACTIONTILE
360
17176
  3
SPECULARTILE
360
17173
  0
DICTIONARY
  5
17180
330
1717F
100
AcDbDictionary
280
     1
281
     1
  3
BUMPTILE
360
17182
  3
DIFFUSETILE
360
17181
  3
OPACITYTILE
360
17185
  3
REFLECTIONTILE
360
17184
  3
REFRACTIONTILE
360
17186
  3
SPECULARTILE
360
17183
  0
DICTIONARY
  5
17C46
330
4CE1
100
AcDbDictionary
280
     1
281
     1
  3
ACAD_ROUNDTRIP_2008_TABLESTYLE_CELLSTYLEMAP
360
17C47
  0
XRECORD
  5
1717A
102
{ACAD_REACTORS
330
17178
102
}
330
17178
100
AcDbXrecord
280
     1
270
     1
271
     1
  0
XRECORD
  5
17179
102
{ACAD_REACTORS
330
17178
102
}
330
17178
100
AcDbXrecord
280
     1
270
     1
271
     1
  0
XRECORD
  5
1717D
102
{ACAD_REACTORS
330
17178
102
}
330
17178
100
AcDbXrecord
280
     1
270
     1
271
     1
  0
XRECORD
  5
1717C
102
{ACAD_REACTORS
330
17178
102
}
330
17178
100
AcDbXrecord
280
     1
270
     1
271
     1
  0
XRECORD
  5
1717E
102
{ACAD_REACTORS
330
17178
102
}
330
17178
100
AcDbXrecord
280
     1
270
     1
271
     1
  0
XRECORD
  5
1717B
102
{ACAD_REACTORS
330
17178
102
}
330
17178
100
AcDbXrecord
280
     1
270
     1
271
     1
  0
XRECORD
  5
17172
102
{ACAD_REACTORS
330
17170
102
}
330
17170
100
AcDbXrecord
280
     1
270
     1
271
     1
  0
XRECORD
  5
17171
102
{ACAD_REACTORS
330
17170
102
}
330
17170
100
AcDbXrecord
280
     1
270
     1
271
     1
  0
XRECORD
  5
17175
102
{ACAD_REACTORS
330
17170
102
}
330
17170
100
AcDbXrecord
280
     1
270
     1
271
     1
  0
XRECORD
  5
17174
102
{ACAD_REACTORS
330
17170
102
}
330
17170
100
AcDbXrecord
280
     1
270
     1
271
     1
  0
XRECORD
  5
17176
102
{ACAD_REACTORS
330
17170
102
}
330
17170
100
AcDbXrecord
280
     1
270
     1
271
     1
  0
XRECORD
  5
17173
102
{ACAD_REACTORS
330
17170
102
}
330
17170
100
AcDbXrecord
280
     1
270
     1
271
     1
  0
XRECORD
  5
17182
102
{ACAD_REACTORS
330
17180
102
}
330
17180
100
AcDbXrecord
280
     1
270
     1
271
     1
  0
XRECORD
  5
17181
102
{ACAD_REACTORS
330
17180
102
}
330
17180
100
AcDbXrecord
280
     1
270
     1
271
     1
  0
XRECORD
  5
17185
102
{ACAD_REACTORS
330
17180
102
}
330
17180
100
AcDbXrecord
280
     1
270
     1
271
     1
  0
XRECORD
  5
17184
102
{ACAD_REACTORS
330
17180
102
}
330
17180
100
AcDbXrecord
280
     1
270
     1
271
     1
  0
XRECORD
  5
17186
102
{ACAD_REACTORS
330
17180
102
}
330
17180
100
AcDbXrecord
280
     1
270
     1
271
     1
  0
XRECORD
  5
17183
102
{ACAD_REACTORS
330
17180
102
}
330
17180
100
AcDbXrecord
280
     1
270
     1
271
     1
  0
CELLSTYLEMAP
  5
17C47
102
{ACAD_REACTORS
330
17C46
102
}
330
17C46
100
AcDbCellStyleMap
 90
        3
300
CELLSTYLE
  1
TABLEFORMAT_BEGIN
 90
        5
170
     1
 91
        0
 92
    32768
 62
   257
 93
        1
300
CONTENTFORMAT
  1
CONTENTFORMAT_BEGIN
 90
        0
 91
        0
 92
        4
 93
        0
300

 40
0.0
140
1.0
 94
        5
 62
     0
340
11
144
0.25
309
CONTENTFORMAT_END
171
     0
 94
        6
 95
        1
302
GRIDFORMAT
  1
GRIDFORMAT_BEGIN
 90
        0
 91
        1
 62
     0
 92
       -2
340
0
 93
        0
 40
0.045
309
GRIDFORMAT_END
 95
        2
302
GRIDFORMAT
  1
GRIDFORMAT_BEGIN
 90
        0
 91
        1
 62
     0
 92
       -2
340
0
 93
        0
 40
0.045
309
GRIDFORMAT_END
 95
        4
302
GRIDFORMAT
  1
GRIDFORMAT_BEGIN
 90
        0
 91
        1
 62
     0
 92
       -2
340
0
 93
        0
 40
0.045
309
GRIDFORMAT_END
 95
        8
302
GRIDFORMAT
  1
GRIDFORMAT_BEGIN
 90
        0
 91
        1
 62
     0
 92
       -2
340
0
 93
        0
 40
0.045
309
GRIDFORMAT_END
 95
       16
302
GRIDFORMAT
  1
GRIDFORMAT_BEGIN
 90
        0
 91
        1
 62
     0
 92
       -2
340
0
 93
        0
 40
0.045
309
GRIDFORMAT_END
 95
       32
302
GRIDFORMAT
  1
GRIDFORMAT_BEGIN
 90
        0
 91
        1
 62
     0
 92
       -2
340
0
 93
        0
 40
0.045
309
GRIDFORMAT_END
309
TABLEFORMAT_END
  1
CELLSTYLE_BEGIN
 90
        1
 91
        1
300
_TITLE
309
CELLSTYLE_END
300
CELLSTYLE
  1
TABLEFORMAT_BEGIN
 90
        5
170
     1
 91
        0
 92
        0
 62
   257
 93
        1
300
CONTENTFORMAT
  1
CONTENTFORMAT_BEGIN
 90
        0
 91
        0
 92
        4
 93
        0
300

 40
0.0
140
1.0
 94
        5
 62
     0
340
11
144
0.18
309
CONTENTFORMAT_END
171
     0
 94
        6
 95
        1
302
GRIDFORMAT
  1
GRIDFORMAT_BEGIN
 90
        0
 91
        1
 62
     0
 92
       -2
340
0
 93
        0
 40
0.045
309
GRIDFORMAT_END
 95
        2
302
GRIDFORMAT
  1
GRIDFORMAT_BEGIN
 90
        0
 91
        1
 62
     0
 92
       -2
340
0
 93
        0
 40
0.045
309
GRIDFORMAT_END
 95
        4
302
GRIDFORMAT
  1
GRIDFORMAT_BEGIN
 90
        0
 91
        1
 62
     0
 92
       -2
340
0
 93
        0
 40
0.045
309
GRIDFORMAT_END
 95
        8
302
GRIDFORMAT
  1
GRIDFORMAT_BEGIN
 90
        0
 91
        1
 62
     0
 92
       -2
340
0
 93
        0
 40
0.045
309
GRIDFORMAT_END
 95
       16
302
GRIDFORMAT
  1
GRIDFORMAT_BEGIN
 90
        0
 91
        1
 62
     0
 92
       -2
340
0
 93
        0
 40
0.045
309
GRIDFORMAT_END
 95
       32
302
GRIDFORMAT
  1
GRIDFORMAT_BEGIN
 90
        0
 91
        1
 62
     0
 92
       -2
340
0
 93
        0
 40
0.045
309
GRIDFORMAT_END
309
TABLEFORMAT_END
  1
CELLSTYLE_BEGIN
 90
        2
 91
        1
300
_HEADER
309
CELLSTYLE_END
300
CELLSTYLE
  1
TABLEFORMAT_BEGIN
 90
        5
170
     1
 91
        0
 92
        0
 62
   257
 93
        1
300
CONTENTFORMAT
  1
CONTENTFORMAT_BEGIN
 90
        0
 91
        0
 92
        4
 93
        0
300

 40
0.0
140
1.0
 94
        2
 62
     0
340
11
144
0.18
309
CONTENTFORMAT_END
171
     0
 94
        6
 95
        1
302
GRIDFORMAT
  1
GRIDFORMAT_BEGIN
 90
        0
 91
        1
 62
     0
 92
       -2
340
0
 93
        0
 40
0.045
309
GRIDFORMAT_END
 95
        2
302
GRIDFORMAT
  1
GRIDFORMAT_BEGIN
 90
        0
 91
        1
 62
     0
 92
       -2
340
0
 93
        0
 40
0.045
309
GRIDFORMAT_END
 95
        4
302
GRIDFORMAT
  1
GRIDFORMAT_BEGIN
 90
        0
 91
        1
 62
     0
 92
       -2
340
0
 93
        0
 40
0.045
309
GRIDFORMAT_END
 95
        8
302
GRIDFORMAT
  1
GRIDFORMAT_BEGIN
 90
        0
 91
        1
 62
     0
 92
       -2
340
0
 93
        0
 40
0.045
309
GRIDFORMAT_END
 95
       16
302
GRIDFORMAT
  1
GRIDFORMAT_BEGIN
 90
        0
 91
        1
 62
     0
 92
       -2
340
0
 93
        0
 40
0.045
309
GRIDFORMAT_END
 95
       32
302
GRIDFORMAT
  1
GRIDFORMAT_BEGIN
 90
        0
 91
        1
 62
     0
 92
       -2
340
0
 93
        0
 40
0.045
309
GRIDFORMAT_END
309
TABLEFORMAT_END
  1
CELLSTYLE_BEGIN
 90
        3
 91
        2
300
_DATA
309
CELLSTYLE_END
  0
ENDSEC
  0
SECTION
  2
ACDSDATA
 70
     2
 71
     8
  0
ACDSSCHEMA
 90
        0
  1
AcDb_Thumbnail_Schema
  2
AcDbDs::ID
280
    10
 91
        8
  2
Thumbnail_Data
280
    15
 91
        0
101
ACDSRECORD
 95
        0
 90
        1
  2
AcDbDs::TreatedAsObjectData
280
     1
291
     1
101
ACDSRECORD
 95
        0
 90
        2
  2
AcDbDs::Legacy
280
     1
291
     1
101
ACDSRECORD
  1
AcDbDs::ID
 90
        3
  2
AcDs:Indexable
280
     1
291
     1
101
ACDSRECORD
  1
AcDbDs::ID
 90
        4
  2
AcDbDs::HandleAttribute
280
     7
282
     1
  0
ACDSSCHEMA
 90
        1
  1
AcDbDs::TreatedAsObjectDataSchema
  2
AcDbDs::TreatedAsObjectData
280
     1
 91
        0
  0
ACDSSCHEMA
 90
        2
  1
AcDbDs::LegacySchema
  2
AcDbDs::Legacy
280
     1
 91
        0
  0
ACDSSCHEMA
 90
        3
  1
AcDbDs::IndexedPropertySchema
  2
AcDs:Indexable
280
     1
 91
        0
  0
ACDSSCHEMA
 90
        4
  1
AcDbDs::HandleAttributeSchema
  2
AcDbDs::HandleAttribute
280
     7
 91
        1
284
     1
  0
ACDSRECORD
 90
        0
  2
AcDbDs::ID
280
    10
320
BAD3
  2
Thumbnail_Data
280
    15
 94
     1253
310
89504E470D0A1A0A0000000D4948445200000100000000C508030000008CFEDCE700000300504C5445FFFFFFFFFFFFFFFFFF0000000000000000000000000000000000000000000000000000330000660000990000CC0000FF0033000033330033660033990033CC0033FF0066000066330066660066990066CC0066FF0099
310
000099330099660099990099CC0099FF00CC0000CC3300CC6600CC9900CCCC00CCFF00FF0000FF3300FF6600FF9900FFCC00FFFF3300003300333300663300993300CC3300FF3333003333333333663333993333CC3333FF3366003366333366663366993366CC3366FF3399003399333399663399993399CC3399FF33CC00
310
33CC3333CC6633CC9933CCCC33CCFF33FF0033FF3333FF6633FF9933FFCC33FFFF6600006600336600666600996600CC6600FF6633006633336633666633996633CC6633FF6666006666336666666666996666CC6666FF6699006699336699666699996699CC6699FF66CC0066CC3366CC6666CC9966CCCC66CCFF66FF0066
310
FF3366FF6666FF9966FFCC66FFFF9900009900339900669900999900CC9900FF9933009933339933669933999933CC9933FF9966009966339966669966999966CC9966FF9999009999339999669999999999CC9999FF99CC0099CC3399CC6699CC9999CCCC99CCFF99FF0099FF3399FF6699FF9999FFCC99FFFFCC0000CC00
310
33CC0066CC0099CC00CCCC00FFCC3300CC3333CC3366CC3399CC33CCCC33FFCC6600CC6633CC6666CC6699CC66CCCC66FFCC9900CC9933CC9966CC9999CC99CCCC99FFCCCC00CCCC33CCCC66CCCC99CCCCCCCCCCFFCCFF00CCFF33CCFF66CCFF99CCFFCCCCFFFFFF0000FF0033FF0066FF0099FF00CCFF00FFFF3300FF3333
310
FF3366FF3399FF33CCFF33FFFF6600FF6633FF6666FF6699FF66CCFF66FFFF9900FF9933FF9966FF9999FF99CCFF99FFFFCC00FFCC33FFCC66FFCC99FFCCCCFFCCFFFFFF00FFFF33FFFF66FFFF99FFFFCCFFFFFF0000000D0D0D1A1A1A2828283535354343435050505D5D5D6B6B6B787878868686939393A1A1A1AEAEAEBB
310
BBBBC9C9C9D6D6D6E4E4E4F1F1F1FFFFFF000000000000000000000000000000000000000000000000000000000000AD4AB4E4000001A04944415478DAEDDC498E83400C0550DFFF98B5CE2122751689E8EE4C52B0C37F5EB0A2047A58D480A93A85479D2A3700000000E002B07EC51FA7AFFBF1652D1E011C3EB60061C90F
310
000000000000000000000080CB74180000000000000000000000000022000A000000000000C85D130400000000000000000000004026C0EE0512F70BB81300B6170F0698B0FAD00CD02F000000000000007401ACF071C084B1702740FC5C60C47CC85C00000000FBD60700000000000000000000000000C0048002006024C0
310
DAA9900200000035724D10000000000004033CB73332000000BE1DA0BF4AAC17E0FF1C786D9F7800EFDFCE0200A015A07B597000C00A0768CE810900AD493002A033098600F4094C0168130000000000BD0080FE8150DBEF4363DE010560064001000000000000000000000000C087AEB8C737CF179F87EDF50100000000C0
310
B55B0400000000000000000000000080A3032C00000000000000000000000000000000000000D900050000000000000000000000000011000500000000006E00D26203F0CCD9DB8EF4002D6E32203300000000E0E7901CF10067D741BCD95D2FB4660000000049454E44AE426082
  0
ACDSRECORD
 90
        0
  2
AcDbDs::ID
280
    10
320
22
  2
Thumbnail_Data
280
    15
 94
     1584
310
89504E470D0A1A0A0000000D49484452000001000000008108030000001837949D00000300504C5445000000FFFFFF0000000000000000000000000000000000000000000000000000000000330000660000990000CC0000FF0033000033330033660033990033CC0033FF0066000066330066660066990066CC0066FF0099
310
000099330099660099990099CC0099FF00CC0000CC3300CC6600CC9900CCCC00CCFF00FF0000FF3300FF6600FF9900FFCC00FFFF3300003300333300663300993300CC3300FF3333003333333333663333993333CC3333FF3366003366333366663366993366CC3366FF3399003399333399663399993399CC3399FF33CC00
310
33CC3333CC6633CC9933CCCC33CCFF33FF0033FF3333FF6633FF9933FFCC33FFFF6600006600336600666600996600CC6600FF6633006633336633666633996633CC6633FF6666006666336666666666996666CC6666FF6699006699336699666699996699CC6699FF66CC0066CC3366CC6666CC9966CCCC66CCFF66FF0066
310
FF3366FF6666FF9966FFCC66FFFF9900009900339900669900999900CC9900FF9933009933339933669933999933CC9933FF9966009966339966669966999966CC9966FF9999009999339999669999999999CC9999FF99CC0099CC3399CC6699CC9999CCCC99CCFF99FF0099FF3399FF6699FF9999FFCC99FFFFCC0000CC00
310
33CC0066CC0099CC00CCCC00FFCC3300CC3333CC3366CC3399CC33CCCC33FFCC6600CC6633CC6666CC6699CC66CCCC66FFCC9900CC9933CC9966CC9999CC99CCCC99FFCCCC00CCCC33CCCC66CCCC99CCCCCCCCCCFFCCFF00CCFF33CCFF66CCFF99CCFFCCCCFFFFFF0000FF0033FF0066FF0099FF00CCFF00FFFF3300FF3333
310
FF3366FF3399FF33CCFF33FFFF6600FF6633FF6666FF6699FF66CCFF66FFFF9900FF9933FF9966FF9999FF99CCFF99FFFFCC00FFCC33FFCC66FFCC99FFCCCCFFCCFFFFFF00FFFF33FFFF66FFFF99FFFFCCFFFFFF0000000D0D0D1A1A1A2828283535354343435050505D5D5D6B6B6B787878868686939393A1A1A1AEAEAEBB
310
BBBBC9C9C9D6D6D6E4E4E4F1F1F1FFFFFF0000000000000000000000000000000000000000000000000000000000003AE5ACE9000002934944415478DAED9DED8E8320104579FFF73DFF37D9AA30E876A3523AE3DC9B4DD69A8070B8CAF0615B8A2449922449922449922459715D0FA9F81773F86EE59DE636A5F271B2FD44
310
3943E61DA488DE114C289E6B02530AE798C0A4A2B925C003AFE4B4615C7A606AA13C12E0C157F3D826E436803F00F36F4A721B4000044000C85D7F67161080F400480E40BD80000880000840802B7294107B7CAD2AD3FB413E03E07A5BC698105901FC2E30BD569996C3E588A703D8565859FE686D9F00807140072085039A
310
B6EF0170CF0131A6C5D78A56076C66789D7C3A80E714C92380EC4B63531BC5E5F2B000245F1E0FB14182B5AFAB9F6B7E70732F5E881D226638B4850577E3E0C9C6641480B5DE3510BCB70D8F00F71AFB09802618E6BEBDC2003077FFBA2F7B44EECE1FB6B68DE9FE9104C0D6D8CB41E570732B6EF69DA2732CE07AB774F6CD
310
D2339AC7F91B030280EF0B600F3001F13A2BF8678AA6D3A8F3E8CC6D20C6E0C30643B08582BC49D176972B833F137834007DC8D3CC06D33AA0C68B6D8A6A00363FBCB18CCB27C0C12DC0511058EB853D453F7C98FC901A00A01B041C0330F5C622FB07C0470950863B8072D20126E58300986100BB81925D446916D8A6F684
310
41DE9F2560CE0210C2A861DE2027B7013C0330BB62D89D2BED6C5131C1B29D4AFA8E5519D209B2C6F06628B4EBF74CDC4729E7A60BF16A802300742B420D00BAB0203C80763BC87B076C676B8A13B7402C071C03A88B885C71002E1F0167009462F74F9D5C32C0E71DB0EF05EC7EC9AEA6DBD0B174EB087101848E0404A0E4
310
2610ECEBB4044000042039009203185EDE70DFA9280002200002901B009EB38B678188DF2C2C00022000022000029017C0D832670710F3A7268685AF717F6A83312A92244992244992244992E4503FA00A57C4DCC289AD0000000049454E44AE4260824E44AE4260820049454E44AE4260829F55053CAF1BDC39100A6F247C
310
A6E6E7983F5F597CDB5018C3F4E4A122EC80391A3A1342082184104208218410420821841052832F0774F797F08111A50000000049454E44AE426082
  0
ENDSEC
  0
EOF
