  0
SECTION
  2
HEADER
  9
$ACADVER
  1
AC1009
  9
$INSBASE
 10
0.0
 20
0.0
 30
0.0
  9
$EXTMIN
 10
-387.58020838211007
 20
838.55745101183311
 30
0.0
  9
$EXTMAX
 10
-382.13991360293312
 20
843.06249676775246
 30
0.0
  9
$LIMMIN
 10
0.0
 20
0.0
  9
$LIMMAX
 10
1500.0
 20
1500.0
  9
$ORTHOMODE
 70
     0
  9
$REGENMODE
 70
     1
  9
$FILLMODE
 70
     1
  9
$QTEXTMODE
 70
     0
  9
$MIRRTEXT
 70
     1
  9
$DRAGMODE
 70
     2
  9
$LTSCALE
 40
1.0
  9
$OSMODE
 70
    63
  9
$ATTMODE
 70
     1
  9
$TEXTSIZE
 40
1.5
  9
$TRACEWID
 40
0.05
  9
$TEXTSTYLE
  7
STANDARD
  9
$CLAYER
  8
0
  9
$CELTYPE
  6
BYLAYER
  9
$CECOLOR
 62
   256
  9
$DIMSCALE
 40
1.0
  9
$DIMASZ
 40
0.75
  9
$DIMEXO
 40
1.5
  9
$DIMDLI
 40
2.0
  9
$DIMRND
 40
0.0
  9
$DIMDLE
 40
0.0
  9
$DIMEXE
 40
1.0
  9
$DIMTP
 40
0.0
  9
$DIMTM
 40
0.0
  9
$DIMTXT
 40
1.5
  9
$DIMCEN
 40
2.0
  9
$DIMTSZ
 40
0.0
  9
$DIMTOL
 70
     0
  9
$DIMLIM
 70
     0
  9
$DIMTIH
 70
     0
  9
$DIMTOH
 70
     0
  9
$DIMSE1
 70
     0
  9
$DIMSE2
 70
     0
  9
$DIMTAD
 70
     1
  9
$DIMZIN
 70
     0
  9
$DIMBLK
  1
ARCHTICK
  9
$DIMASO
 70
     1
  9
$DIMSHO
 70
     1
  9
$DIMPOST
  1
"
  9
$DIMAPOST
  1

  9
$DIMALT
 70
     0
  9
$DIMALTD
 70
     2
  9
$DIMALTF
 40
25.399999999999999
  9
$DIMLFAC
 40
1.0
  9
$DIMTOFL
 70
     0
  9
$DIMTVP
 40
0.0
  9
$DIMTIX
 70
     1
  9
$DIMSOXD
 70
     0
  9
$DIMSAH
 70
     0
  9
$DIMBLK1
  1

  9
$DIMBLK2
  1

  9
$DIMSTYLE
  2
THREE_QUARTER_INCH_SCALE
  9
$DIMCLRD
 70
     0
  9
$DIMCLRE
 70
     0
  9
$DIMCLRT
 70
     0
  9
$DIMTFAC
 40
1.0
  9
$DIMGAP
 40
1.0
  9
$LUNITS
 70
     2
  9
$LUPREC
 70
     4
  9
$SKETCHINC
 40
0.1
  9
$FILLETRAD
 40
0.0
  9
$AUNITS
 70
     0
  9
$AUPREC
 70
     0
  9
$MENU
  1
.
  9
$ELEVATION
 40
0.0
  9
$PELEVATION
 40
0.0
  9
$THICKNESS
 40
0.0
  9
$LIMCHECK
 70
     0
  9
$BLIPMODE
 70
     0
  9
$CHAMFERA
 40
0.5
  9
$CHAMFERB
 40
0.5
  9
$SKPOLY
 70
     0
  9
$TDCREATE
 40
2452089.395738773
  9
$TDUPDATE
 40
2453616.6503614238
  9
$TDINDWG
 40
1.1199568519
  9
$TDUSRTIMER
 40
1.1199564930999999
  9
$USRTIMER
 70
     1
  9
$ANGBASE
 50
0.0
  9
$ANGDIR
 70
     0
  9
$PDMODE
 70
     0
  9
$PDSIZE
 40
10.0
  9
$PLINEWID
 40
0.0
  9
$COORDS
 70
     0
  9
$SPLFRAME
 70
     0
  9
$SPLINETYPE
 70
     6
  9
$SPLINESEGS
 70
     8
  9
$ATTDIA
 70
     0
  9
$ATTREQ
 70
     1
  9
$HANDLING
 70
     1
  9
$HANDSEED
  5
1B6A6
  9
$SURFTAB1
 70
     6
  9
$SURFTAB2
 70
     6
  9
$SURFTYPE
 70
     6
  9
$SURFU
 70
     6
  9
$SURFV
 70
     6
  9
$UCSNAME
  2

  9
$UCSORG
 10
0.0
 20
0.0
 30
0.0
  9
$UCSXDIR
 10
1.0
 20
0.0
 30
0.0
  9
$UCSYDIR
 10
0.0
 20
1.0
 30
0.0
  9
$PUCSNAME
  2

  9
$PUCSORG
 10
0.0
 20
0.0
 30
0.0
  9
$PUCSXDIR
 10
1.0
 20
0.0
 30
0.0
  9
$PUCSYDIR
 10
0.0
 20
1.0
 30
0.0
  9
$USERI1
 70
     0
  9
$USERI2
 70
     0
  9
$USERI3
 70
     0
  9
$USERI4
 70
     0
  9
$USERI5
 70
     0
  9
$USERR1
 40
0.0
  9
$USERR2
 40
0.0
  9
$USERR3
 40
0.0
  9
$USERR4
 40
0.0
  9
$USERR5
 40
0.0
  9
$WORLDVIEW
 70
     1
  9
$SHADEDGE
 70
     3
  9
$SHADEDIF
 70
    70
  9
$TILEMODE
 70
     0
  9
$MAXACTVP
 70
    64
  9
$PLIMCHECK
 70
     0
  9
$PEXTMIN
 10
0.0287712300219028
 20
0.0759839241634737
 30
0.0
  9
$PEXTMAX
 10
10.47122802895248
 20
7.957364437363462
 30
0.0
  9
$PLIMMIN
 10
-0.1682389550263349
 20
-0.2033427855578579
  9
$PLIMMAX
 10
10.754640548407011
 20
8.2370640492290015
  9
$UNITMODE
 70
     0
  9
$VISRETAIN
 70
     1
  9
$PLINEGEN
 70
     0
  9
$PSLTSCALE
 70
     1
  0
ENDSEC
  0
SECTION
  2
TABLES
  0
TABLE
  2
VPORT
 70
     2
  0
VPORT
  2
*ACTIVE
 70
     0
 10
0.0
 20
0.0
 11
1.0
 21
1.0
 12
-385.1738227559805
 22
840.77212019522608
 13
0.0
 23
0.0
 14
0.5
 24
0.5
 15
0.5
 25
0.5
 16
0.0
 26
0.0
 36
1.0
 17
0.0
 27
0.0
 37
0.0
 40
8.4358140290612482
 41
1.507425742574257
 42
50.0
 43
0.0
 44
0.0
 50
0.0
 51
0.0
 71
     0
 72
   100
 73
     1
 74
     2
 75
     0
 76
     0
 77
     0
 78
     0
  0
ENDTAB
  0
TABLE
  2
LTYPE
 70
     1
  0
LTYPE
  2
CONTINUOUS
 70
     0
  3
Solid line
 72
    65
 73
     0
 40
0.0
  0
ENDTAB
  0
TABLE
  2
LAYER
 70
    10
  0
LAYER
  2
0
 70
     0
 62
     7
  6
CONTINUOUS
  0
LAYER
  2
DEFPOINTS
 70
     0
 62
     7
  6
CONTINUOUS
  0
LAYER
  2
FRAME_200
 70
     0
 62
     8
  6
CONTINUOUS
  0
LAYER
  2
FRAME_070
 70
     0
 62
     5
  6
CONTINUOUS
  0
LAYER
  2
FRAME_050
 70
     0
 62
     6
  6
CONTINUOUS
  0
LAYER
  2
TITLE_BLOCK
 70
     0
 62
     7
  6
CONTINUOUS
  0
LAYER
  2
FRAME_025
 70
     0
 62
     7
  6
CONTINUOUS
  0
LAYER
  2
VIEWPORT
 70
     0
 62
     7
  6
CONTINUOUS
  0
LAYER
  2
PROF
 70
     0
 62
     7
  6
CONTINUOUS
  0
LAYER
  2
PROFILE
 70
     0
 62
     7
  6
CONTINUOUS
  0
ENDTAB
  0
TABLE
  2
STYLE
 70
     2
  0
STYLE
  2
STANDARD
 70
     0
 40
0.0
 41
1.0
 50
0.0
 71
     0
 42
1.5
  3
txt
  4

  0
STYLE
  2
ISO_PROPORTIONAL
 70
     0
 40
0.0
 41
1.0
 50
0.0
 71
     0
 42
2.5
  3
isocp.shx
  4

  0
ENDTAB
  0
TABLE
  2
VIEW
 70
     2
  0
ENDTAB
  0
TABLE
  2
UCS
 70
     0
  0
ENDTAB
  0
TABLE
  2
APPID
 70
     6
  0
APPID
  2
ACAD
 70
     0
  0
APPID
  2
DCO15
 70
     0
  0
APPID
  2
ACAD_EXEMPT_FROM_CAD_STANDARDS
 70
     0
  0
APPID
  2
ACAD_PSEXT
 70
     0
  0
APPID
  2
CONTENTBLOCKDESCRIPTION
 70
     0
  0
APPID
  2
CONTENTBLOCKICON
 70
     0
  0
ENDTAB
  0
TABLE
  2
DIMSTYLE
 70
    10
  0
DIMSTYLE
  2
FULL_SCALE
 70
     0
  3
"
  4

  5

  6

  7

 40
1.0
 41
0.046875
 42
0.09375
 43
0.125
 44
0.0625
 45
0.0
 46
0.0
 47
0.0
 48
0.0
140
0.125
141
0.125
142
0.0
143
25.399999999999999
144
1.0
145
0.0
146
1.0
147
0.0625
 71
     0
 72
     0
 73
     0
 74
     0
 75
     0
 76
     0
 77
     1
 78
     0
170
     0
171
     2
172
     0
173
     0
174
     1
175
     0
176
     0
177
     0
178
     0
  0
DIMSTYLE
  2
HALF_SCALE
 70
     0
  3
"
  4

  5

  6

  7

 40
1.0
 41
0.09375
 42
0.1875
 43
0.25
 44
0.125
 45
0.0
 46
0.0
 47
0.0
 48
0.0
140
0.25
141
0.25
142
0.0
143
25.399999999999999
144
1.0
145
0.0
146
1.0
147
0.125
 71
     0
 72
     0
 73
     0
 74
     0
 75
     0
 76
     0
 77
     1
 78
     0
170
     0
171
     2
172
     0
173
     0
174
     1
175
     0
176
     0
177
     0
178
     0
  0
DIMSTYLE
  2
INCH_SCALE
 70
     0
  3
"
  4

  5

  6

  7

 40
1.0
 41
0.5625
 42
1.125
 43
1.5
 44
0.75
 45
0.0
 46
0.0
 47
0.0
 48
0.0
140
1.125
141
1.5
142
0.0
143
25.399999999999999
144
1.0
145
0.0
146
1.0
147
0.75
 71
     0
 72
     0
 73
     0
 74
     0
 75
     0
 76
     0
 77
     1
 78
     0
170
     0
171
     2
172
     0
173
     0
174
     1
175
     0
176
     0
177
     0
178
     0
  0
DIMSTYLE
  2
THREE_QUARTER_INCH_SCALE
 70
     0
  3
"
  4

  5

  6

  7

 40
1.0
 41
0.75
 42
1.5
 43
2.0
 44
1.0
 45
0.0
 46
0.0
 47
0.0
 48
0.0
140
1.5
141
2.0
142
0.0
143
25.399999999999999
144
1.0
145
0.0
146
1.0
147
1.0
 71
     0
 72
     0
 73
     0
 74
     0
 75
     0
 76
     0
 77
     1
 78
     0
170
     0
171
     2
172
     0
173
     0
174
     1
175
     0
176
     0
177
     0
178
     0
  0
DIMSTYLE
  2
ZHALF_INCH_SCALE
 70
     0
  3
"
  4

  5

  6

  7

 40
1.0
 41
1.125
 42
2.25
 43
3.0
 44
1.5
 45
0.0
 46
0.0
 47
0.0
 48
0.0
140
2.25
141
3.0
142
0.0
143
25.399999999999999
144
1.0
145
0.0
146
1.0
147
1.5
 71
     0
 72
     0
 73
     0
 74
     0
 75
     0
 76
     0
 77
     1
 78
     0
170
     0
171
     2
172
     0
173
     0
174
     1
175
     0
176
     0
177
     0
178
     0
  0
DIMSTYLE
  2
FULL_SCALE0
 70
     0
  3
"
  4

  5
ARCHTICK
  6

  7

 40
1.0
 41
0.046875
 42
0.09375
 43
0.125
 44
0.0625
 45
0.0
 46
0.0
 47
0.0
 48
0.0
140
0.125
141
0.125
142
0.0
143
25.399999999999999
144
1.0
145
0.0
146
1.0
147
0.0625
 71
     0
 72
     0
 73
     0
 74
     0
 75
     0
 76
     0
 77
     1
 78
     0
170
     0
171
     2
172
     0
173
     0
174
     1
175
     0
176
     0
177
     0
178
     0
  0
DIMSTYLE
  2
HALF_SCALE0
 70
     0
  3
"
  4

  5
ARCHTICK
  6

  7

 40
1.0
 41
0.09375
 42
0.1875
 43
0.25
 44
0.125
 45
0.0
 46
0.0
 47
0.0
 48
0.0
140
0.25
141
0.25
142
0.0
143
25.399999999999999
144
1.0
145
0.0
146
1.0
147
0.125
 71
     0
 72
     0
 73
     0
 74
     0
 75
     0
 76
     0
 77
     1
 78
     0
170
     0
171
     2
172
     0
173
     0
174
     1
175
     0
176
     0
177
     0
178
     0
  0
DIMSTYLE
  2
INCH_SCALE0
 70
     0
  3
"
  4

  5
ARCHTICK
  6

  7

 40
1.0
 41
0.5625
 42
1.125
 43
1.5
 44
0.75
 45
0.0
 46
0.0
 47
0.0
 48
0.0
140
1.125
141
1.5
142
0.0
143
25.399999999999999
144
1.0
145
0.0
146
1.0
147
0.75
 71
     0
 72
     0
 73
     0
 74
     0
 75
     0
 76
     0
 77
     1
 78
     0
170
     0
171
     2
172
     0
173
     0
174
     1
175
     0
176
     0
177
     0
178
     0
  0
DIMSTYLE
  2
THREE_QUARTER_INCH_SCALE0
 70
     0
  3
"
  4

  5
ARCHTICK
  6

  7

 40
1.0
 41
0.75
 42
1.5
 43
2.0
 44
1.0
 45
0.0
 46
0.0
 47
0.0
 48
0.0
140
1.5
141
2.0
142
0.0
143
25.399999999999999
144
1.0
145
0.0
146
1.0
147
1.0
 71
     0
 72
     0
 73
     0
 74
     0
 75
     0
 76
     0
 77
     1
 78
     0
170
     0
171
     2
172
     0
173
     0
174
     1
175
     0
176
     0
177
     0
178
     0
  0
DIMSTYLE
  2
ZHALF_INCH_SCALE0
 70
     0
  3
"
  4

  5
ARCHTICK
  6

  7

 40
1.0
 41
1.125
 42
2.25
 43
3.0
 44
1.5
 45
0.0
 46
0.0
 47
0.0
 48
0.0
140
2.25
141
3.0
142
0.0
143
25.399999999999999
144
1.0
145
0.0
146
1.0
147
1.5
 71
     0
 72
     0
 73
     0
 74
     0
 75
     0
 76
     0
 77
     1
 78
     0
170
     0
171
     2
172
     0
173
     0
174
     1
175
     0
176
     0
177
     0
178
     0
  0
ENDTAB
  0
ENDSEC
  0
SECTION
  2
BLOCKS
  0
BLOCK
  8
0
  2
$MODEL_SPACE
 70
     0
 10
0.0
 20
0.0
 30
0.0
  3
$MODEL_SPACE
  1

  0
ENDBLK
  5
C9DC
  8
0
  0
BLOCK
 67
     1
  8
0
  2
$PAPER_SPACE
 70
     0
 10
0.0
 20
0.0
 30
0.0
  3
$PAPER_SPACE
  1

  0
ENDBLK
  5
C9D8
 67
     1
  8
0
  0
BLOCK
  8
0
  2
_ARCHTICK
 70
     0
 10
0.0
 20
0.0
 30
0.0
  3
_ARCHTICK
  1

  0
POLYLINE
  5
158
  8
0
  6
BYBLOCK
 62
     0
 66
     1
 10
0.0
 20
0.0
 30
0.0
 40
0.15
 41
0.15
  0
VERTEX
  5
1B299
  8
0
  6
BYBLOCK
 62
     0
 10
-0.5
 20
-0.5
 30
0.0
  0
VERTEX
  5
1B29A
  8
0
  6
BYBLOCK
 62
     0
 10
0.5
 20
0.5
 30
0.0
  0
SEQEND
  5
1B29B
  8
0
  6
BYBLOCK
 62
     0
  0
ENDBLK
  5
15A
  8
0
  0
BLOCK
  8
0
  2
_OPEN30
 70
     0
 10
0.0
 20
0.0
 30
0.0
  3
_OPEN30
  1

  0
LINE
  5
15C
  8
0
  6
BYBLOCK
 62
     0
 10
-1.0
 20
0.26794919
 30
0.0
 11
0.0
 21
0.0
 31
0.0
  0
LINE
  5
15D
  8
0
  6
BYBLOCK
 62
     0
 10
0.0
 20
0.0
 30
0.0
 11
-1.0
 21
-0.26794919
 31
0.0
  0
LINE
  5
15E
  8
0
  6
BYBLOCK
 62
     0
 10
0.0
 20
0.0
 30
0.0
 11
-1.0
 21
0.0
 31
0.0
  0
ENDBLK
  5
160
  8
0
  0
BLOCK
  8
0
  2
ISO_A2_TITLE_BLOCK
 70
     2
 10
0.0
 20
0.0
 30
0.0
  3
ISO_A2_TITLE_BLOCK
  1

  0
LINE
  5
BDD
  8
FRAME_050
 10
299.5
 20
12.5
 30
0.0
 11
297.0
 21
7.5
 31
0.0
  0
LINE
  5
BDE
  8
FRAME_050
 10
294.5
 20
12.5
 30
0.0
 11
299.5
 21
12.5
 31
0.0
  0
LINE
  5
BDF
  8
FRAME_050
 10
247.0
 20
5.0
 30
0.0
 11
347.0
 21
5.0
 31
0.0
  0
LINE
  5
BE0
  8
FRAME_070
 10
584.0
 20
410.0
 30
0.0
 11
10.0
 21
410.0
 31
0.0
  0
LINE
  5
BE1
  8
FRAME_070
 10
10.0
 20
10.0
 30
0.0
 11
584.0
 21
10.0
 31
0.0
  0
LINE
  5
BE2
  8
FRAME_050
 10
12.5
 20
207.5
 30
0.0
 11
7.5
 21
210.0
 31
0.0
  0
LINE
  5
BE3
  8
FRAME_050
 10
12.5
 20
212.5
 30
0.0
 11
12.5
 21
207.5
 31
0.0
  0
LINE
  5
BE4
  8
FRAME_070
 10
10.0
 20
410.0
 30
0.0
 11
10.0
 21
10.0
 31
0.0
  0
LINE
  5
BE5
  8
FRAME_200
 10
0.0
 20
0.0
 30
0.0
 11
0.0
 21
10.0
 31
0.0
  0
LINE
  5
BE6
  8
FRAME_200
 10
0.0
 20
0.0
 30
0.0
 11
10.0
 21
0.0
 31
0.0
  0
TEXT
  5
BE7
  8
FRAME_050
 10
5.9000000000000004
 20
35.0
 30
0.0
 40
4.0
  1
H
  7
ISO_PROPORTIONAL
 72
     4
 11
7.5
 21
37.0
 31
0.0
  0
LINE
  5
BE8
  8
FRAME_050
 10
10.0
 20
60.0
 30
0.0
 11
5.0
 21
60.0
 31
0.0
  0
LINE
  5
BE9
  8
FRAME_050
 10
81.75
 20
5.0
 30
0.0
 11
81.75
 21
10.0
 31
0.0
  0
TEXT
  5
BEA
  8
FRAME_050
 10
44.874999999999993
 20
5.5
 30
0.0
 40
4.0
  1
1
  7
ISO_PROPORTIONAL
 72
     4
 11
45.875
 21
7.5
 31
0.0
  0
TEXT
  5
BEB
  8
FRAME_050
 10
6.0035533905932743
 20
85.0
 30
0.0
 40
4.0
  1
G
  7
ISO_PROPORTIONAL
 72
     4
 11
7.5
 21
87.0
 31
0.0
  0
LINE
  5
BEC
  8
FRAME_050
 10
10.0
 20
110.0
 30
0.0
 11
5.0
 21
110.0
 31
0.0
  0
TEXT
  5
BED
  8
FRAME_050
 10
6.0999999999999988
 20
135.0
 30
0.0
 40
4.0
  1
F
  7
ISO_PROPORTIONAL
 72
     4
 11
7.5
 21
137.0
 31
0.0
  0
LINE
  5
BEE
  8
FRAME_050
 10
10.0
 20
160.0
 30
0.0
 11
5.0
 21
160.0
 31
0.0
  0
TEXT
  5
BEF
  8
FRAME_050
 10
6.0999999999999988
 20
185.0
 30
0.0
 40
4.0
  1
E
  7
ISO_PROPORTIONAL
 72
     4
 11
7.5
 21
187.0
 31
0.0
  0
LINE
  5
BF0
  8
FRAME_050
 10
153.5
 20
5.0
 30
0.0
 11
153.5
 21
10.0
 31
0.0
  0
TEXT
  5
BF1
  8
FRAME_050
 10
116.1556692913386
 20
5.3996062992125982
 30
0.0
 40
4.0
  1
2
  7
ISO_PROPORTIONAL
 72
     4
 11
117.625
 21
7.5
 31
0.0
  0
TEXT
  5
BF2
  8
FRAME_050
 10
187.89215728752529
 20
5.5828427124746138
 30
0.0
 40
4.0
  1
3
  7
ISO_PROPORTIONAL
 72
     4
 11
189.375
 21
7.5
 31
0.0
  0
LINE
  5
BF3
  8
FRAME_050
 10
225.25
 20
5.0
 30
0.0
 11
225.25
 21
10.0
 31
0.0
  0
LINE
  5
BF4
  8
FRAME_050
 10
297.0
 20
7.5
 30
0.0
 11
294.5
 21
12.5
 31
0.0
  0
LINE
  5
BF5
  8
FRAME_050
 10
287.0
 20
5.0
 30
0.0
 11
287.0
 21
10.0
 31
0.0
  0
LINE
  5
BF6
  8
FRAME_050
 10
277.0
 20
5.0
 30
0.0
 11
277.0
 21
10.0
 31
0.0
  0
LINE
  5
BF7
  8
FRAME_050
 10
267.0
 20
5.0
 30
0.0
 11
267.0
 21
10.0
 31
0.0
  0
LINE
  5
BF8
  8
FRAME_050
 10
257.0
 20
5.0
 30
0.0
 11
257.0
 21
10.0
 31
0.0
  0
LINE
  5
BF9
  8
FRAME_050
 10
247.0
 20
5.0
 30
0.0
 11
247.0
 21
10.0
 31
0.0
  0
LINE
  5
BFA
  8
FRAME_050
 10
297.0
 20
10.0
 30
0.0
 11
297.0
 21
5.0
 31
0.0
  0
LINE
  5
BFB
  8
FRAME_050
 10
297.0
 20
10.0
 30
0.0
 11
297.0
 21
15.0
 31
0.0
  0
LINE
  5
BFC
  8
FRAME_050
 10
5.0
 20
210.0
 30
0.0
 11
15.0
 21
210.0
 31
0.0
  0
LINE
  5
BFD
  8
FRAME_050
 10
7.5
 20
210.0
 30
0.0
 11
12.5
 21
212.5
 31
0.0
  0
TEXT
  5
BFE
  8
FRAME_050
 10
5.7860912703473977
 20
235.0
 30
0.0
 40
4.0
  1
D
  7
ISO_PROPORTIONAL
 72
     4
 11
7.5
 21
237.0
 31
0.0
  0
LINE
  5
BFF
  8
FRAME_050
 10
10.0
 20
260.0
 30
0.0
 11
5.0
 21
260.0
 31
0.0
  0
TEXT
  5
C00
  8
FRAME_050
 10
6.1931980515339466
 20
285.0
 30
0.0
 40
4.0
  1
C
  7
ISO_PROPORTIONAL
 72
     4
 11
7.5
 21
287.0
 31
0.0
  0
LINE
  5
C01
  8
FRAME_050
 10
10.0
 20
310.0
 30
0.0
 11
5.0
 21
310.0
 31
0.0
  0
TEXT
  5
C02
  8
FRAME_050
 10
5.8999999999999959
 20
335.0
 30
0.0
 40
4.0
  1
B
  7
ISO_PROPORTIONAL
 72
     4
 11
7.5
 21
337.0
 31
0.0
  0
LINE
  5
C03
  8
FRAME_050
 10
10.0
 20
360.0
 30
0.0
 11
5.0
 21
360.0
 31
0.0
  0
TEXT
  5
C04
  8
FRAME_050
 10
5.6999999999999993
 20
385.0
 30
0.0
 40
4.0
  1
A
  7
ISO_PROPORTIONAL
 72
     4
 11
7.5
 21
387.0
 31
0.0
  0
LINE
  5
C05
  8
FRAME_200
 10
10.0
 20
420.0
 30
0.0
 11
0.0
 21
420.0
 31
0.0
  0
LINE
  5
C06
  8
FRAME_200
 10
0.0
 20
420.0
 30
0.0
 11
0.0
 21
410.0
 31
0.0
  0
TEXT
  5
C07
  8
FRAME_050
 10
44.874999999999993
 20
410.5
 30
0.0
 40
4.0
  1
1
  7
ISO_PROPORTIONAL
 72
     4
 11
45.875
 21
412.5
 31
0.0
  0
LINE
  5
C08
  8
FRAME_050
 10
81.75
 20
410.0
 30
0.0
 11
81.75
 21
415.0
 31
0.0
  0
TEXT
  5
C09
  8
FRAME_050
 10
116.1556692913386
 20
410.39960629921262
 30
0.0
 40
4.0
  1
2
  7
ISO_PROPORTIONAL
 72
     4
 11
117.625
 21
412.5
 31
0.0
  0
LINE
  5
C0A
  8
FRAME_050
 10
153.5
 20
410.0
 30
0.0
 11
153.5
 21
415.0
 31
0.0
  0
TEXT
  5
C0B
  8
FRAME_050
 10
187.89215728752529
 20
410.58284271247459
 30
0.0
 40
4.0
  1
3
  7
ISO_PROPORTIONAL
 72
     4
 11
189.375
 21
412.5
 31
0.0
  0
LINE
  5
C0C
  8
FRAME_050
 10
297.0
 20
405.0
 30
0.0
 11
297.0
 21
415.0
 31
0.0
  0
LINE
  5
C0D
  8
FRAME_050
 10
225.25
 20
410.0
 30
0.0
 11
225.25
 21
415.0
 31
0.0
  0
TEXT
  5
C0E
  8
FRAME_050
 10
259.52499999999998
 20
410.5
 30
0.0
 40
4.0
  1
4
  7
ISO_PROPORTIONAL
 72
     4
 11
261.125
 21
412.5
 31
0.0
  0
LINE
  5
C0F
  8
FRAME_070
 10
584.0
 20
10.0
 30
0.0
 11
584.0
 21
410.0
 31
0.0
  0
ATTDEF
  5
C10
  8
FRAME_025
 10
473.0
 20
31.75
 30
0.0
 40
2.5
  1
XXX - 00/00/00
  7
ISO_PROPORTIONAL
 11
473.0
 21
33.0
 31
0.0
  3
Approved by - Date
  2
APPROVED_BY_DATE
 70
     8
 74
     2
  0
TEXT
  5
C11
  8
FRAME_025
 10
448.0
 20
41.749999999999993
 30
0.0
 40
2.5
  1
Title/Name, designation, material, dimension etc
  7
ISO_PROPORTIONAL
 11
448.0
 21
43.0
 31
0.0
 73
     2
  0
TEXT
  5
C12
  8
FRAME_025
 10
473.0
 20
35.75
 30
0.0
 40
2.5
  1
Approved by - date
  7
ISO_PROPORTIONAL
 11
473.0
 21
37.0
 31
0.0
 73
     2
  0
LINE
  5
C13
  8
FRAME_070
 10
414.0
 20
46.0
 30
0.0
 11
584.0
 21
46.0
 31
0.0
  0
LINE
  5
C14
  8
FRAME_070
 10
414.0
 20
40.0
 30
0.0
 11
584.0
 21
40.0
 31
0.0
  0
LINE
  5
C15
  8
FRAME_070
 10
414.0
 20
30.0
 30
0.0
 11
584.0
 21
30.0
 31
0.0
  0
LINE
  5
C16
  8
FRAME_050
 10
368.75
 20
5.0
 30
0.0
 11
368.75
 21
10.0
 31
0.0
  0
LINE
  5
C17
  8
FRAME_050
 10
337.0
 20
5.0
 30
0.0
 11
337.0
 21
10.0
 31
0.0
  0
LINE
  5
C18
  8
FRAME_050
 10
327.0
 20
5.0
 30
0.0
 11
327.0
 21
10.0
 31
0.0
  0
LINE
  5
C19
  8
FRAME_050
 10
317.0
 20
5.0
 30
0.0
 11
317.0
 21
10.0
 31
0.0
  0
LINE
  5
C1A
  8
FRAME_050
 10
307.0
 20
5.0
 30
0.0
 11
307.0
 21
10.0
 31
0.0
  0
LINE
  5
C1B
  8
FRAME_050
 10
347.0
 20
5.0
 30
0.0
 11
347.0
 21
10.0
 31
0.0
  0
LINE
  5
C1C
  8
FRAME_050
 10
440.5
 20
5.0
 30
0.0
 11
440.5
 21
10.0
 31
0.0
  0
TEXT
  5
C1D
  8
FRAME_050
 10
403.24547244094481
 20
5.4102362204724406
 30
0.0
 40
4.0
  1
6
  7
ISO_PROPORTIONAL
 72
     4
 11
404.62499999999989
 21
7.5
 31
0.0
  0
TEXT
  5
C1E
  8
FRAME_050
 10
474.97499999999991
 20
5.5
 30
0.0
 40
4.0
  1
7
  7
ISO_PROPORTIONAL
 72
     4
 11
476.37499999999989
 21
7.5
 31
0.0
  0
TEXT
  5
C1F
  8
FRAME_025
 10
431.0
 20
41.749999999999993
 30
0.0
 40
2.5
  1
Quantity
  7
ISO_PROPORTIONAL
 11
431.0
 21
43.0
 31
0.0
 73
     2
  0
TEXT
  5
C20
  8
FRAME_025
 10
416.0
 20
41.749999999999993
 30
0.0
 40
2.5
  1
Itemref
  7
ISO_PROPORTIONAL
 11
416.0
 21
43.0
 31
0.0
 73
     2
  0
LINE
  5
C21
  8
FRAME_070
 10
414.0
 20
40.0
 30
0.0
 11
414.0
 21
46.0
 31
0.0
  0
LINE
  5
C22
  8
FRAME_070
 10
429.0
 20
40.0
 30
0.0
 11
429.0
 21
46.0
 31
0.0
  0
LINE
  5
C23
  8
FRAME_070
 10
414.0
 20
10.0
 30
0.0
 11
414.0
 21
40.0
 31
0.0
  0
ATTDEF
  5
C24
  8
FRAME_025
 10
416.0
 20
31.75
 30
0.0
 40
2.5
  1
XXX
  7
ISO_PROPORTIONAL
 11
416.0
 21
33.0
 31
0.0
  3
Designed by
  2
DESIGNED_BY
 70
     8
 74
     2
  0
TEXT
  5
C25
  8
FRAME_025
 10
416.0
 20
35.75
 30
0.0
 40
2.5
  1
Designed by
  7
ISO_PROPORTIONAL
 11
416.0
 21
37.0
 31
0.0
 73
     2
  0
LINE
  5
C26
  8
FRAME_070
 10
446.0
 20
40.0
 30
0.0
 11
446.0
 21
46.0
 31
0.0
  0
ATTDEF
  5
C27
  8
FRAME_025
 10
448.0
 20
31.75
 30
0.0
 40
2.5
  1
XXX
  7
ISO_PROPORTIONAL
 11
448.0
 21
33.0
 31
0.0
  3
Checked by
  2
CHECKED_BY
 70
     8
 74
     2
  0
TEXT
  5
C28
  8
FRAME_025
 10
448.0
 20
35.75
 30
0.0
 40
2.5
  1
Checked by
  7
ISO_PROPORTIONAL
 11
448.0
 21
37.0
 31
0.0
 73
     2
  0
ATTDEF
  5
C29
  8
FRAME_050
 10
444.74999999999989
 20
17.5
 30
0.0
 40
5.0
  1
XXX
  7
ISO_PROPORTIONAL
 72
     4
 11
451.49999999999989
 21
20.0
 31
0.0
  3
Owner
  2
OWNER
 70
     8
  0
LINE
  5
C2A
  8
FRAME_070
 10
446.0
 20
30.0
 30
0.0
 11
446.0
 21
40.0
 31
0.0
  0
LINE
  5
C2B
  8
FRAME_070
 10
471.0
 20
30.0
 30
0.0
 11
471.0
 21
40.0
 31
0.0
  0
LINE
  5
C2C
  8
FRAME_070
 10
489.0
 20
20.0
 30
0.0
 11
584.0
 21
20.0
 31
0.0
  0
LINE
  5
C2D
  8
FRAME_050
 10
512.25
 20
5.0
 30
0.0
 11
512.25
 21
10.0
 31
0.0
  0
TEXT
  5
C2E
  8
FRAME_050
 10
546.72499999999991
 20
5.5
 30
0.0
 40
4.0
  1
8
  7
ISO_PROPORTIONAL
 72
     4
 11
548.125
 21
7.5
 31
0.0
  0
ATTDEF
  5
C2F
  8
FRAME_050
 10
517.64999999999986
 20
13.5
 30
0.0
 40
3.0
  1
X
  7
ISO_PROPORTIONAL
 72
     4
 11
519.0
 21
15.0
 31
0.0
  3
Drawing number
  2
DRAWING_NUMBER
 70
     8
  0
ATTDEF
  5
C30
  8
FRAME_050
 10
529.75
 20
22.5
 30
0.0
 40
5.0
  1
XXX
  7
ISO_PROPORTIONAL
 72
     4
 11
536.5
 21
25.0
 31
0.0
  3
Title / Name
  2
TITLE
 70
     8
  0
LINE
  5
C31
  8
FRAME_070
 10
489.0
 20
10.0
 30
0.0
 11
489.0
 21
30.0
 31
0.0
  0
ATTDEF
  5
C32
  8
FRAME_025
 10
511.0
 20
31.75
 30
0.0
 40
2.5
  1
XXX
  7
ISO_PROPORTIONAL
 11
511.0
 21
33.0
 31
0.0
  3
Filename
  2
FILENAME
 70
     8
 74
     2
  0
TEXT
  5
C33
  8
FRAME_025
 10
511.0
 20
35.75
 30
0.0
 40
2.5
  1
Filename
  7
ISO_PROPORTIONAL
 11
511.0
 21
37.0
 31
0.0
 73
     2
  0
LINE
  5
C34
  8
FRAME_070
 10
509.0
 20
30.0
 30
0.0
 11
509.0
 21
40.0
 31
0.0
  0
TEXT
  5
C35
  8
FRAME_025
 10
536.0
 20
41.749999999999993
 30
0.0
 40
2.5
  1
Article No./Reference
  7
ISO_PROPORTIONAL
 11
536.0
 21
43.0
 31
0.0
 73
     2
  0
LINE
  5
C36
  8
FRAME_070
 10
534.0
 20
40.0
 30
0.0
 11
534.0
 21
46.0
 31
0.0
  0
ATTDEF
  5
C37
  8
FRAME_025
 10
551.0
 20
11.75
 30
0.0
 40
2.5
  1
0
  7
ISO_PROPORTIONAL
 11
551.0
 21
13.0
 31
0.0
  3
Edition
  2
EDITION
 70
     8
 74
     2
  0
TEXT
  5
C38
  8
FRAME_025
 10
551.0
 20
15.75
 30
0.0
 40
2.5
  1
Edition
  7
ISO_PROPORTIONAL
 11
551.0
 21
17.0
 31
0.0
 73
     2
  0
LINE
  5
C39
  8
FRAME_070
 10
549.0
 20
10.0
 30
0.0
 11
549.0
 21
20.0
 31
0.0
  0
ATTDEF
  5
C3A
  8
FRAME_025
 10
536.0
 20
31.75
 30
0.0
 40
2.5
  1
00/00/00
  7
ISO_PROPORTIONAL
 11
536.0
 21
33.0
 31
0.0
  3
Date
  2
DATE
 70
     8
 74
     2
  0
TEXT
  5
C3B
  8
FRAME_025
 10
536.0
 20
35.75
 30
0.0
 40
2.5
  1
Date
  7
ISO_PROPORTIONAL
 11
536.0
 21
37.0
 31
0.0
 73
     2
  0
LINE
  5
C3C
  8
FRAME_070
 10
534.0
 20
30.0
 30
0.0
 11
534.0
 21
40.0
 31
0.0
  0
ATTDEF
  5
C3D
  8
FRAME_025
 10
566.0
 20
11.75
 30
0.0
 40
2.5
  1
1/1
  7
ISO_PROPORTIONAL
 11
566.0
 21
13.0
 31
0.0
  3
Sheet
  2
SHEET
 70
     8
 74
     2
  0
TEXT
  5
C3E
  8
FRAME_025
 10
566.0
 20
15.75
 30
0.0
 40
2.5
  1
Sheet
  7
ISO_PROPORTIONAL
 11
566.0
 21
17.0
 31
0.0
 73
     2
  0
LINE
  5
C3F
  8
FRAME_070
 10
564.0
 20
10.0
 30
0.0
 11
564.0
 21
20.0
 31
0.0
  0
ATTDEF
  5
C40
  8
FRAME_025
 10
566.0
 20
31.75
 30
0.0
 40
2.5
  1
1:1
  7
ISO_PROPORTIONAL
 11
566.0
 21
33.0
 31
0.0
  3
Scale
  2
SCALE
 70
     8
 74
     2
  0
TEXT
  5
C41
  8
FRAME_025
 10
566.0
 20
35.75
 30
0.0
 40
2.5
  1
Scale
  7
ISO_PROPORTIONAL
 11
566.0
 21
37.0
 31
0.0
 73
     2
  0
LINE
  5
C42
  8
FRAME_070
 10
564.0
 20
30.0
 30
0.0
 11
564.0
 21
40.0
 31
0.0
  0
LINE
  5
C43
  8
FRAME_200
 10
594.0
 20
0.0
 30
0.0
 11
594.0
 21
10.0
 31
0.0
  0
LINE
  5
C44
  8
FRAME_200
 10
594.0
 20
0.0
 30
0.0
 11
584.0
 21
0.0
 31
0.0
  0
TEXT
  5
C45
  8
FRAME_050
 10
584.89999999999998
 20
35.0
 30
0.0
 40
4.0
  1
H
  7
ISO_PROPORTIONAL
 72
     4
 11
586.5
 21
37.0
 31
0.0
  0
LINE
  5
C46
  8
FRAME_050
 10
589.0
 20
60.0
 30
0.0
 11
584.0
 21
60.0
 31
0.0
  0
TEXT
  5
C47
  8
FRAME_050
 10
585.0035533905932
 20
85.0
 30
0.0
 40
4.0
  1
G
  7
ISO_PROPORTIONAL
 72
     4
 11
586.5
 21
87.0
 31
0.0
  0
LINE
  5
C48
  8
FRAME_050
 10
589.0
 20
110.0
 30
0.0
 11
584.0
 21
110.0
 31
0.0
  0
TEXT
  5
C49
  8
FRAME_050
 10
585.09999999999991
 20
135.0
 30
0.0
 40
4.0
  1
F
  7
ISO_PROPORTIONAL
 72
     4
 11
586.5
 21
137.0
 31
0.0
  0
LINE
  5
C4A
  8
FRAME_050
 10
589.0
 20
160.0
 30
0.0
 11
584.0
 21
160.0
 31
0.0
  0
TEXT
  5
C4B
  8
FRAME_050
 10
585.09999999999991
 20
185.0
 30
0.0
 40
4.0
  1
E
  7
ISO_PROPORTIONAL
 72
     4
 11
586.5
 21
187.0
 31
0.0
  0
LINE
  5
C4C
  8
FRAME_070
 10
414.0
 20
404.0
 30
0.0
 11
584.0
 21
404.0
 31
0.0
  0
TEXT
  5
C4D
  8
FRAME_050
 10
331.39215728752538
 20
410.58284271247459
 30
0.0
 40
4.0
  1
5
  7
ISO_PROPORTIONAL
 72
     4
 11
332.875
 21
412.5
 31
0.0
  0
LINE
  5
C4E
  8
FRAME_050
 10
368.75
 20
410.0
 30
0.0
 11
368.75
 21
415.0
 31
0.0
  0
TEXT
  5
C4F
  8
FRAME_025
 10
428.0
 20
405.75
 30
0.0
 40
2.5
  1
Revision note
  7
ISO_PROPORTIONAL
 11
428.0
 21
407.0
 31
0.0
 73
     2
  0
TEXT
  5
C50
  8
FRAME_025
 10
416.0
 20
405.75
 30
0.0
 40
2.5
  1
RevNo
  7
ISO_PROPORTIONAL
 11
416.0
 21
407.0
 31
0.0
 73
     2
  0
LINE
  5
C51
  8
FRAME_070
 10
426.0
 20
404.0
 30
0.0
 11
426.0
 21
410.0
 31
0.0
  0
LINE
  5
C52
  8
FRAME_070
 10
414.0
 20
404.0
 30
0.0
 11
414.0
 21
410.0
 31
0.0
  0
TEXT
  5
C53
  8
FRAME_050
 10
403.24547244094481
 20
410.41023622047243
 30
0.0
 40
4.0
  1
6
  7
ISO_PROPORTIONAL
 72
     4
 11
404.62499999999989
 21
412.5
 31
0.0
  0
LINE
  5
C54
  8
FRAME_050
 10
440.5
 20
410.0
 30
0.0
 11
440.5
 21
415.0
 31
0.0
  0
TEXT
  5
C55
  8
FRAME_050
 10
474.97499999999991
 20
410.5
 30
0.0
 40
4.0
  1
7
  7
ISO_PROPORTIONAL
 72
     4
 11
476.37499999999989
 21
412.5
 31
0.0
  0
LINE
  5
C56
  8
FRAME_050
 10
579.0
 20
210.0
 30
0.0
 11
589.0
 21
210.0
 31
0.0
  0
TEXT
  5
C57
  8
FRAME_050
 10
584.78609127034736
 20
235.0
 30
0.0
 40
4.0
  1
D
  7
ISO_PROPORTIONAL
 72
     4
 11
586.5
 21
237.0
 31
0.0
  0
LINE
  5
C58
  8
FRAME_050
 10
589.0
 20
260.0
 30
0.0
 11
584.0
 21
260.0
 31
0.0
  0
TEXT
  5
C59
  8
FRAME_050
 10
585.19319805153395
 20
285.0
 30
0.0
 40
4.0
  1
C
  7
ISO_PROPORTIONAL
 72
     4
 11
586.5
 21
287.0
 31
0.0
  0
LINE
  5
C5A
  8
FRAME_050
 10
589.0
 20
310.0
 30
0.0
 11
584.0
 21
310.0
 31
0.0
  0
TEXT
  5
C5B
  8
FRAME_050
 10
584.89999999999998
 20
335.0
 30
0.0
 40
4.0
  1
B
  7
ISO_PROPORTIONAL
 72
     4
 11
586.5
 21
337.0
 31
0.0
  0
TEXT
  5
C5C
  8
FRAME_025
 10
571.08299391850551
 20
405.75
 30
0.0
 40
2.5
  1
Checked
  7
ISO_PROPORTIONAL
 11
571.08299391850551
 21
407.0
 31
0.0
 73
     2
  0
TEXT
  5
C5D
  8
FRAME_025
 10
555.36099797283521
 20
405.75
 30
0.0
 40
2.5
  1
Signature
  7
ISO_PROPORTIONAL
 11
555.36099797283521
 21
407.0
 31
0.0
 73
     2
  0
TEXT
  5
C5E
  8
FRAME_025
 10
537.0
 20
405.75
 30
0.0
 40
2.5
  1
Date
  7
ISO_PROPORTIONAL
 11
537.0
 21
407.0
 31
0.0
 73
     2
  0
LINE
  5
C5F
  8
FRAME_070
 10
570.0
 20
404.0
 30
0.0
 11
570.0
 21
410.0
 31
0.0
  0
LINE
  5
C60
  8
FRAME_070
 10
555.0
 20
404.0
 30
0.0
 11
555.0
 21
410.0
 31
0.0
  0
LINE
  5
C61
  8
FRAME_070
 10
535.0
 20
404.0
 30
0.0
 11
535.0
 21
410.0
 31
0.0
  0
LINE
  5
C62
  8
FRAME_050
 10
512.25
 20
410.0
 30
0.0
 11
512.25
 21
415.0
 31
0.0
  0
TEXT
  5
C63
  8
FRAME_050
 10
546.72499999999991
 20
410.5
 30
0.0
 40
4.0
  1
8
  7
ISO_PROPORTIONAL
 72
     4
 11
548.125
 21
412.5
 31
0.0
  0
LINE
  5
C64
  8
FRAME_050
 10
589.0
 20
360.0
 30
0.0
 11
584.0
 21
360.0
 31
0.0
  0
TEXT
  5
C65
  8
FRAME_050
 10
584.70000000000005
 20
385.0
 30
0.0
 40
4.0
  1
A
  7
ISO_PROPORTIONAL
 72
     4
 11
586.5
 21
387.0
 31
0.0
  0
LINE
  5
C66
  8
FRAME_200
 10
594.0
 20
420.0
 30
0.0
 11
584.0
 21
420.0
 31
0.0
  0
LINE
  5
C67
  8
FRAME_200
 10
594.0
 20
410.0
 30
0.0
 11
594.0
 21
420.0
 31
0.0
  0
ENDBLK
  5
C69
  8
0
  0
BLOCK
  8
0
  2
WOBB001END
 70
     0
 10
0.0
 20
0.0
 30
0.0
  3
WOBB001END
  1

  0
LINE
  5
4D66
  8
0
  6
CONTINUOUS
 10
0.0
 20
0.0
 30
0.0
 11
0.8749999999999998
 21
0.0
 31
0.0
  0
ARC
  5
4D67
  8
0
  6
CONTINUOUS
 10
0.0331648379439287
 20
-0.5087238935900234
 30
0.0
 40
0.8790130605592325
 50
284.06490243660443
 51
312.19222981924361
  0
ARC
  5
4D68
  8
0
  6
CONTINUOUS
 10
0.2841534338796767
 20
-1.510548310625538
 30
0.0
 40
0.1537731892806598
 50
104.0649024366044
 51
179.4721730735024
  0
LINE
  5
4D69
  8
0
  6
CONTINUOUS
 10
0.0
 20
0.0
 30
0.0
 11
-0.0000000000000003
 21
-1.7501564476661911
 31
0.0
  0
ARC
  5
4D6A
  8
0
  6
CONTINUOUS
 10
0.1404622019506122
 20
-1.630313718354619
 30
0.0
 40
0.1198427293115722
 50
275.0
 51
85.000000000000057
  0
LINE
  5
4D6B
  8
0
  6
CONTINUOUS
 10
-0.0000000000000003
 20
-1.7501564476661911
 30
0.0
 11
0.1456946485130855
 21
-1.7501564476661911
 31
0.0
  0
LINE
  5
4D6C
  8
0
  6
CONTINUOUS
 10
0.1377603739254348
 20
-1.7508506067459131
 30
0.0
 11
0.150907184036669
 21
-1.7497004098996509
 31
0.0
  0
LINE
  5
4D6D
  8
0
  6
CONTINUOUS
 10
0.1303867696719884
 20
-1.5091317231818231
 30
0.0
 11
0.1509071840366689
 21
-1.510927026809586
 31
0.0
  0
LINE
  5
4D6E
  8
0
  6
CONTINUOUS
 10
0.8749999999999998
 20
0.0
 30
0.0
 11
0.8749999999999996
 21
-0.8649327026588228
 31
0.0
  0
LINE
  5
4D6F
  8
0
  6
CONTINUOUS
 10
0.727014513830997
 20
-0.872688293355061
 30
0.0
 11
0.727014513830997
 21
-0.9264923397184784
 31
0.0
  0
ARC
  5
4D70
  8
0
  6
CONTINUOUS
 10
0.41187090827646
 20
-0.9264923397184784
 30
0.0
 40
0.3151436055545369
 50
312.19222981924361
 51
0.0
  0
LINE
  5
4D71
  8
0
  6
CONTINUOUS
 10
0.727014513830997
 20
-0.872688293355061
 30
0.0
 11
0.8749999999999996
 21
-0.8649327026588228
 31
0.0
  0
ENDBLK
  5
4D72
  8
0
  0
BLOCK
  8
0
  2
A$C0A61123B
 70
     0
 10
0.0
 20
0.0
 30
0.0
  3
A$C0A61123B
  1

  0
LINE
  5
C0AD
  8
PROF
  6
CONTINUOUS
 10
4.9012016798694162
 20
13.325025853350891
 30
0.0000000000000002
 11
4.9012016798694162
 21
12.88585218805485
 31
0.0000000000000003
  0
INSERT
  5
C0AE
  8
0
  2
*U7
 10
0.0
 20
0.0
 30
0.0
  0
LINE
  5
C0AF
  8
PROF
 10
4.519857503186925
 20
12.72227734589444
 30
0.0000000000000001
 11
4.519857503186925
 21
12.88585218805485
 31
0.0000000000000001
  0
LINE
  5
C0B0
  8
PROF
  6
CONTINUOUS
 10
3.6306271195888362
 20
13.325025853350891
 30
0.0000000000000002
 11
4.9012016798694162
 21
13.325025853350891
 31
0.0000000000000002
  0
LINE
  5
C0B1
  8
PROF
 10
1.9750295148747341
 20
10.37671325491794
 30
0.0000000000000002
 11
1.9750295148747341
 21
10.11391186758919
 31
0.0000000000000002
  0
LINE
  5
C0B2
  8
PROF
 10
1.6079673357556299
 20
10.11391186758919
 30
0.0000000000000001
 11
1.9750295148747341
 21
10.11391186758919
 31
0.0000000000000001
  0
LINE
  5
C0B3
  8
PROF
 10
1.9750295148747341
 20
10.11391186758919
 30
0.0000000000000001
 11
1.944958486898144
 21
10.11391186758919
 31
0.0000000000000001
  0
LINE
  5
C0B4
  8
PROF
 10
1.9750295148747341
 20
10.11391186758919
 30
0.0000000000000001
 11
1.944958486898144
 21
10.11391186758919
 31
0.0000000000000001
  0
LINE
  5
C0B5
  8
PROF
 10
0.3222605517169654
 20
7.5247473351056451
 30
-0.0000000000000002
 11
-0.0000008570117416
 21
7.5247473351056451
 31
0.0
  0
LINE
  5
C0B6
  8
PROF
 10
-0.0000008570117416
 20
7.5247473351056451
 30
0.0
 11
-0.0000008570117416
 21
9.1943336957369848
 31
0.0
  0
POLYLINE
  5
C0B7
  8
PROF
 66
     1
 10
0.0
 20
0.0
 30
0.0000000000000001
 70
     4
 75
     6
  0
VERTEX
  5
C0B8
  8
PROF
 10
1.6079673357556299
 20
10.11391186758919
 30
0.0000000000000001
 70
    16
  0
VERTEX
  5
C0B9
  8
PROF
 10
1.6079673357556299
 20
10.11391186758919
 30
0.0000000000000001
 70
     8
  0
VERTEX
  5
C0BA
  8
PROF
 10
1.6468132326485809
 20
10.02198069336111
 30
0.0000000000000001
 70
     8
  0
VERTEX
  5
C0BB
  8
PROF
 10
1.67335966680929
 20
9.9344134163010231
 30
0.0000000000000001
 70
     8
  0
VERTEX
  5
C0BC
  8
PROF
 10
1.6890086400463229
 20
9.8512576644480951
 30
0.0000000000000001
 70
     8
  0
VERTEX
  5
C0BD
  8
PROF
 10
1.6951621541682571
 20
9.7725610658417281
 30
0.0000000000000001
 70
     8
  0
VERTEX
  5
C0BE
  8
PROF
 10
1.693222210983605
 20
9.6983712485214237
 30
0.0000000000000001
 70
     8
  0
VERTEX
  5
C0BF
  8
PROF
 10
1.6845908123009961
 20
9.6287358405263603
 30
0.0000000000000001
 70
     8
  0
VERTEX
  5
C0C0
  8
PROF
 10
1.670669959928885
 20
9.5637024698960431
 30
0.0000000000000001
 70
     8
  0
VERTEX
  5
C0C1
  8
PROF
 10
1.6528616556759621
 20
9.5033187646697552
 30
0.0000000000000001
 70
     8
  0
VERTEX
  5
C0C2
  8
PROF
 10
1.632356299273054
 20
9.4475843259650691
 30
0.0000000000000001
 70
     8
  0
VERTEX
  5
C0C3
  8
PROF
 10
1.609497882140658
 20
9.3963066472123273
 30
0.0000000000000001
 70
     8
  0
VERTEX
  5
C0C4
  8
PROF
 10
1.584418793621637
 20
9.3492451949202842
 30
0.0000000000000001
 70
     8
  0
VERTEX
  5
C0C5
  8
PROF
 10
1.5572514230587431
 20
9.3061594355972357
 30
0.0000000000000001
 70
     8
  0
VERTEX
  5
C0C6
  8
PROF
 10
1.5281281597949601
 20
9.2668088357519274
 30
0.0000000000000001
 70
     8
  0
VERTEX
  5
C0C7
  8
PROF
 10
1.497181393172978
 20
9.2309528618929981
 30
0.0000000000000001
 70
     8
  0
VERTEX
  5
C0C8
  8
PROF
 10
1.4645435125357249
 20
9.1983509805288541
 30
0.0000000000000001
 70
     8
  0
VERTEX
  5
C0C9
  8
PROF
 10
1.4303469072260091
 20
9.1687626581682462
 30
0.0000000000000001
 70
     8
  0
VERTEX
  5
C0CA
  8
PROF
 10
1.394736033257401
 20
9.1419547918675335
 30
0.0000000000000001
 70
     8
  0
VERTEX
  5
C0CB
  8
PROF
 10
1.3579036133264131
 20
9.1177240008747713
 30
0.0000000000000001
 70
     8
  0
VERTEX
  5
C0CC
  8
PROF
 10
1.3200544368004321
 20
9.0958743349860924
 30
0.0000000000000001
 70
     8
  0
VERTEX
  5
C0CD
  8
PROF
 10
1.281393293046676
 20
9.0762098439975034
 30
0.0000000000000001
 70
     8
  0
VERTEX
  5
C0CE
  8
PROF
 10
1.2421249714324161
 20
9.0585345777049042
 30
0.0000000000000001
 70
     8
  0
VERTEX
  5
C0CF
  8
PROF
 10
1.202454261324986
 20
9.0426525859044187
 30
0.0000000000000001
 70
     8
  0
VERTEX
  5
C0D0
  8
PROF
 10
1.162585952091659
 20
9.0283679183919503
 30
0.0000000000000001
 70
     8
  0
VERTEX
  5
C0D1
  8
PROF
 10
1.1227248330997091
 20
9.0154846249635021
 30
0.0000000000000001
 70
     8
  0
VERTEX
  5
C0D2
  8
PROF
 10
1.0829726247361
 20
9.0034643862466055
 30
0.0000000000000001
 70
     8
  0
VERTEX
  5
C0D3
  8
PROF
 10
1.043018771466222
 20
8.9903994061946833
 30
0.0000000000000001
 70
     8
  0
VERTEX
  5
C0D4
  8
PROF
 10
1.002449648775211
 20
8.9740395195925622
 30
0.0000000000000001
 70
     8
  0
VERTEX
  5
C0D5
  8
PROF
 10
0.9608516321480919
 20
8.9521345612251935
 30
0.0000000000000001
 70
     8
  0
VERTEX
  5
C0D6
  8
PROF
 10
0.9178110970699435
 20
8.9224343658775052
 30
0.0000000000000001
 70
     8
  0
VERTEX
  5
C0D7
  8
PROF
 10
0.8729144190259033
 20
8.8826887683343312
 30
0.0000000000000001
 70
     8
  0
VERTEX
  5
C0D8
  8
PROF
 10
0.8257479735009949
 20
8.8306476033806121
 30
0.0000000000000001
 70
     8
  0
VERTEX
  5
C0D9
  8
PROF
 10
0.7758981359802988
 20
8.764060705801171
 30
0.0000000000000001
 70
     8
  0
VERTEX
  5
C0DA
  8
PROF
 10
1.7292019016096549
 20
9.8629858761255491
 30
0.0000000000000001
 70
    16
  0
VERTEX
  5
C0DB
  8
PROF
 10
1.679373123114088
 20
9.4532143012734213
 30
0.0000000000000001
 70
    16
  0
VERTEX
  5
C0DC
  8
PROF
 10
1.4455611507419801
 20
9.1391837193732481
 30
0.0000000000000001
 70
    16
  0
VERTEX
  5
C0DD
  8
PROF
 10
1.1204637172738201
 20
9.0026267702428413
 30
0.0000000000000001
 70
    16
  0
VERTEX
  5
C0DE
  8
PROF
 10
0.9127765582653638
 20
8.9630202230383702
 30
0.0000000000000001
 70
    16
  0
VERTEX
  5
C0DF
  8
PROF
 10
0.7758981359802988
 20
8.764060705801171
 30
0.0000000000000001
 70
    16
  0
SEQEND
  5
C0E0
  8
PROF
  0
ARC
  5
C0E1
  8
PROF
 10
0.733429816733235
 20
8.4849506952165257
 30
0.0000000000000001
 40
0.2823224329524727
 50
269.73652020831901
 51
81.348449993176914
  0
LINE
  5
C0E2
  8
PROF
  6
CONTINUOUS
 10
-0.0000008570117416
 20
9.1943336957369848
 30
-0.0000000000000001
 11
3.6306271195888362
 21
13.325025853350891
 31
0.0000000000000002
  0
POLYLINE
  5
C0E3
  8
PROF
 66
     1
 10
0.0
 20
0.0
 30
0.0000000000000001
 70
     4
 75
     6
  0
VERTEX
  5
C0E4
  8
PROF
 10
4.519857503186925
 20
12.72227734589444
 30
0.0000000000000001
 70
    16
  0
VERTEX
  5
C0E5
  8
PROF
 10
4.519857503186925
 20
12.72227734589444
 30
0.0000000000000001
 70
     8
  0
VERTEX
  5
C0E6
  8
PROF
 10
4.4467035366886289
 20
12.741128108778071
 30
0.0000000000000001
 70
     8
  0
VERTEX
  5
C0E7
  8
PROF
 10
4.3786645761268801
 20
12.754675269913941
 30
0.0000000000000001
 70
     8
  0
VERTEX
  5
C0E8
  8
PROF
 10
4.3154364111440469
 20
12.76334314092332
 30
0.0000000000000001
 70
     8
  0
VERTEX
  5
C0E9
  8
PROF
 10
4.256714831382566
 20
12.76755603342724
 30
0.0000000000000001
 70
     8
  0
VERTEX
  5
C0EA
  8
PROF
 10
4.2021956264849791
 20
12.76773825904672
 30
0.0000000000000001
 70
     8
  0
VERTEX
  5
C0EB
  8
PROF
 10
4.1515745860935436
 20
12.764314129403139
 30
0.0000000000000001
 70
     8
  0
VERTEX
  5
C0EC
  8
PROF
 10
4.1045474998508649
 20
12.75770795611743
 30
0.0000000000000001
 70
     8
  0
VERTEX
  5
C0ED
  8
PROF
 10
4.0608101573993149
 20
12.748344050810831
 30
0.0000000000000001
 70
     8
  0
VERTEX
  5
C0EE
  8
PROF
 10
4.0200583483813261
 20
12.736646725104491
 30
0.0000000000000001
 70
     8
  0
VERTEX
  5
C0EF
  8
PROF
 10
3.981987862439381
 20
12.72304029061945
 30
0.0000000000000001
 70
     8
  0
VERTEX
  5
C0F0
  8
PROF
 10
3.946294489215858
 20
12.707949058976959
 30
0.0000000000000001
 70
     8
  0
VERTEX
  5
C0F1
  8
PROF
 10
3.912674018353242
 20
12.691797341798059
 30
0.0000000000000001
 70
     8
  0
VERTEX
  5
C0F2
  8
PROF
 10
3.8808638350742499
 20
12.67494295718654
 30
0.0000000000000001
 70
     8
  0
VERTEX
  5
C0F3
  8
PROF
 10
3.850767706922738
 20
12.65747774917668
 30
0.0000000000000001
 70
     8
  0
VERTEX
  5
C0F4
  8
PROF
 10
3.8223309970228438
 20
12.639427068285499
 30
0.0000000000000001
 70
     8
  0
VERTEX
  5
C0F5
  8
PROF
 10
3.795499068498712
 20
12.62081626503004
 30
0.0000000000000001
 70
     8
  0
VERTEX
  5
C0F6
  8
PROF
 10
3.7702172844744819
 20
12.601670689926999
 30
0.0000000000000001
 70
     8
  0
VERTEX
  5
C0F7
  8
PROF
 10
3.7464310080743521
 20
12.58201569349364
 30
0.0000000000000001
 70
     8
  0
VERTEX
  5
C0F8
  8
PROF
 10
3.7240856024224609
 20
12.56187662624666
 30
0.0000000000000001
 70
     8
  0
VERTEX
  5
C0F9
  8
PROF
 10
3.7031264306428961
 20
12.541278838703191
 30
0.0000000000000001
 70
     8
  0
VERTEX
  5
C0FA
  8
PROF
 10
3.683498855859908
 20
12.520247681380051
 30
0.0000000000000001
 70
     8
  0
VERTEX
  5
C0FB
  8
PROF
 10
3.665148241197528
 20
12.49880850479428
 30
0.0000000000000001
 70
     8
  0
VERTEX
  5
C0FC
  8
PROF
 10
3.648019949779949
 20
12.47698665946279
 30
0.0000000000000001
 70
     8
  0
VERTEX
  5
C0FD
  8
PROF
 10
3.6320593447313159
 20
12.45480749590263
 30
0.0000000000000001
 70
     8
  0
VERTEX
  5
C0FE
  8
PROF
 10
3.617189584886658
 20
12.43223790353807
 30
0.0000000000000001
 70
     8
  0
VERTEX
  5
C0FF
  8
PROF
 10
3.6032450119242849
 20
12.40901092742285
 30
0.0000000000000001
 70
     8
  0
VERTEX
  5
C100
  8
PROF
 10
3.590037763233453
 20
12.38480115151844
 30
0.0000000000000001
 70
     8
  0
VERTEX
  5
C101
  8
PROF
 10
3.5773799762033032
 20
12.35928315978594
 30
0.0000000000000001
 70
     8
  0
VERTEX
  5
C102
  8
PROF
 10
3.5650837882230899
 20
12.33213153618658
 30
0.0000000000000001
 70
     8
  0
VERTEX
  5
C103
  8
PROF
 10
3.552961336681959
 20
12.303020864681571
 30
0.0000000000000001
 70
     8
  0
VERTEX
  5
C104
  8
PROF
 10
3.540824758969165
 20
12.271625729232371
 30
0.0000000000000001
 70
     8
  0
VERTEX
  5
C105
  8
PROF
 10
3.528486192473848
 20
12.23762071379997
 30
0.0000000000000001
 70
     8
  0
VERTEX
  5
C106
  8
PROF
 10
3.5157577745852659
 20
12.200680402345711
 30
0.0000000000000001
 70
     8
  0
VERTEX
  5
C107
  8
PROF
 10
3.502451642692618
 20
12.16047937883093
 30
0.0000000000000001
 70
     8
  0
VERTEX
  5
C108
  8
PROF
 10
3.4883799341851041
 20
12.116692227216619
 30
0.0000000000000001
 70
     8
  0
VERTEX
  5
C109
  8
PROF
 10
3.4733547864519201
 20
12.06899353146423
 30
0.0000000000000001
 70
     8
  0
VERTEX
  5
C10A
  8
PROF
 10
3.45723654619428
 20
12.0172095445447
 30
0.0000000000000001
 70
     8
  0
VERTEX
  5
C10B
  8
PROF
 10
3.440078397361388
 20
11.961773195467799
 30
0.0000000000000001
 70
     8
  0
VERTEX
  5
C10C
  8
PROF
 10
3.4219817332145781
 20
11.90326908225302
 30
0.0000000000000001
 70
     8
  0
VERTEX
  5
C10D
  8
PROF
 10
3.4030479470150099
 20
11.842281802919951
 30
0.0000000000000001
 70
     8
  0
VERTEX
  5
C10E
  8
PROF
 10
3.383378432024017
 20
11.779395955487979
 30
0.0000000000000001
 70
     8
  0
VERTEX
  5
C10F
  8
PROF
 10
3.36307458150287
 20
11.7151961379768
 30
0.0000000000000001
 70
     8
  0
VERTEX
  5
C110
  8
PROF
 10
3.342237788712735
 20
11.650266948405831
 30
0.0000000000000001
 70
     8
  0
VERTEX
  5
C111
  8
PROF
 10
3.3209694469149991
 20
11.58519298479461
 30
0.0000000000000001
 70
     8
  0
VERTEX
  5
C112
  8
PROF
 10
3.299370949370767
 20
11.52055884516254
 30
0.0000000000000001
 70
     8
  0
VERTEX
  5
C113
  8
PROF
 10
3.277543689341428
 20
11.456949127529461
 30
0.0000000000000001
 70
     8
  0
VERTEX
  5
C114
  8
PROF
 10
3.2555890600881399
 20
11.3949484299145
 30
0.0000000000000001
 70
     8
  0
VERTEX
  5
C115
  8
PROF
 10
3.2336084548721811
 20
11.335141350337491
 30
0.0000000000000001
 70
     8
  0
VERTEX
  5
C116
  8
PROF
 10
3.2116715641212181
 20
11.277995447977769
 30
0.0000000000000001
 70
     8
  0
VERTEX
  5
C117
  8
PROF
 10
3.1897212669278461
 20
11.22351012665467
 30
0.0000000000000001
 70
     8
  0
VERTEX
  5
C118
  8
PROF
 10
3.1676687395512881
 20
11.17156775134765
 30
0.0000000000000001
 70
     8
  0
VERTEX
  5
C119
  8
PROF
 10
3.1454251582505321
 20
11.12205068703588
 30
0.0000000000000001
 70
     8
  0
VERTEX
  5
C11A
  8
PROF
 10
3.122901699284625
 20
11.07484129869874
 30
0.0000000000000001
 70
     8
  0
VERTEX
  5
C11B
  8
PROF
 10
3.1000095389127278
 20
11.02982195131551
 30
0.0000000000000001
 70
     8
  0
VERTEX
  5
C11C
  8
PROF
 10
3.07665985339389
 20
10.986875009865679
 30
0.0000000000000001
 70
     8
  0
VERTEX
  5
C11D
  8
PROF
 10
3.0527638189871591
 20
10.9458828393283
 30
0.0000000000000001
 70
     8
  0
VERTEX
  5
C11E
  8
PROF
 10
3.0282326119516361
 20
10.90672780468298
 30
0.0000000000000001
 70
     8
  0
VERTEX
  5
C11F
  8
PROF
 10
3.0029774085463701
 20
10.869292270908771
 30
0.0000000000000001
 70
     8
  0
VERTEX
  5
C120
  8
PROF
 10
2.9769093850304089
 20
10.833458602985161
 30
0.0000000000000001
 70
     8
  0
VERTEX
  5
C121
  8
PROF
 10
2.9499397176628559
 20
10.799109165891419
 30
0.0000000000000001
 70
     8
  0
VERTEX
  5
C122
  8
PROF
 10
2.922000609840437
 20
10.76614363969508
 30
0.0000000000000001
 70
     8
  0
VERTEX
  5
C123
  8
PROF
 10
2.8931083735102998
 20
10.7345309648158
 30
0.0000000000000001
 70
     8
  0
VERTEX
  5
C124
  8
PROF
 10
2.8633003477572729
 20
10.70425739676193
 30
0.0000000000000001
 70
     8
  0
VERTEX
  5
C125
  8
PROF
 10
2.8326138716660689
 20
10.67530919104115
 30
0.0000000000000001
 70
     8
  0
VERTEX
  5
C126
  8
PROF
 10
2.801086284321626
 20
10.647672603161711
 30
0.0000000000000001
 70
     8
  0
VERTEX
  5
C127
  8
PROF
 10
2.7687549248087162
 20
10.62133388863162
 30
0.0000000000000001
 70
     8
  0
VERTEX
  5
C128
  8
PROF
 10
2.7356571322120531
 20
10.5962793029588
 30
0.0000000000000001
 70
     8
  0
VERTEX
  5
C129
  8
PROF
 10
2.7018302456165202
 20
10.572495101651381
 30
0.0000000000000001
 70
     8
  0
VERTEX
  5
C12A
  8
PROF
 10
2.6673116041068838
 20
10.54996754021726
 30
0.0000000000000001
 70
     8
  0
VERTEX
  5
C12B
  8
PROF
 10
2.6321385467680321
 20
10.528682874164581
 30
0.0000000000000001
 70
     8
  0
VERTEX
  5
C12C
  8
PROF
 10
2.5963484126846179
 20
10.508627359001251
 30
0.0000000000000001
 70
     8
  0
VERTEX
  5
C12D
  8
PROF
 10
2.5599785409415841
 20
10.489787250235279
 30
0.0000000000000001
 70
     8
  0
VERTEX
  5
C12E
  8
PROF
 10
2.522998630314361
 20
10.472162234281081
 30
0.0000000000000001
 70
     8
  0
VERTEX
  5
C12F
  8
PROF
 10
2.4851078183409072
 20
10.455805721177621
 30
0.0000000000000001
 70
     8
  0
VERTEX
  5
C130
  8
PROF
 10
2.4459376022498982
 20
10.44078455187036
 30
0.0000000000000001
 70
     8
  0
VERTEX
  5
C131
  8
PROF
 10
2.4051194792701249
 20
10.42716556730465
 30
0.0000000000000001
 70
     8
  0
VERTEX
  5
C132
  8
PROF
 10
2.3622849466301541
 20
10.415015608425851
 30
0.0000000000000001
 70
     8
  0
VERTEX
  5
C133
  8
PROF
 10
2.317065501558714
 20
10.40440151617929
 30
0.0000000000000001
 70
     8
  0
VERTEX
  5
C134
  8
PROF
 10
2.2690926412844301
 20
10.395390131510339
 30
0.0000000000000001
 70
     8
  0
VERTEX
  5
C135
  8
PROF
 10
2.2179978630360879
 20
10.388048295364451
 30
0.0000000000000001
 70
     8
  0
VERTEX
  5
C136
  8
PROF
 10
2.1634126640422551
 20
10.38244284868688
 30
0.0000000000000001
 70
     8
  0
VERTEX
  5
C137
  8
PROF
 10
2.1049685415316031
 20
10.37864063242295
 30
0.0000000000000001
 70
     8
  0
VERTEX
  5
C138
  8
PROF
 10
2.0422969927328709
 20
10.37670848751816
 30
0.0000000000000001
 70
     8
  0
VERTEX
  5
C139
  8
PROF
 10
1.9750295148747341
 20
10.37671325491794
 30
0.0000000000000001
 70
     8
  0
VERTEX
  5
C13A
  8
PROF
 10
4.2166060115107484
 20
12.80885334975255
 30
0.0000000000000001
 70
    16
  0
VERTEX
  5
C13B
  8
PROF
 10
3.8702254102732909
 20
12.707065515763929
 30
0.0000000000000001
 70
    16
  0
VERTEX
  5
C13C
  8
PROF
 10
3.605346156896871
 20
12.46277472098552
 30
0.0000000000000001
 70
    16
  0
VERTEX
  5
C13D
  8
PROF
 10
3.500746030527238
 20
12.170680575709749
 30
0.0000000000000001
 70
    16
  0
VERTEX
  5
C13E
  8
PROF
 10
3.231798439705698
 20
11.26846416496107
 30
0.0000000000000001
 70
    16
  0
VERTEX
  5
C13F
  8
PROF
 10
2.9737109398832882
 20
10.76631086647069
 30
0.0000000000000001
 70
    16
  0
VERTEX
  5
C140
  8
PROF
 10
2.5729961067384002
 20
10.460947364504699
 30
0.0000000000000001
 70
    16
  0
VERTEX
  5
C141
  8
PROF
 10
2.2537826214546031
 20
10.372731239449759
 30
0.0000000000000001
 70
    16
  0
VERTEX
  5
C142
  8
PROF
 10
1.9750295148747341
 20
10.37671325491794
 30
0.0000000000000001
 70
    16
  0
SEQEND
  5
C143
  8
PROF
  0
LINE
  5
C144
  8
PROF
 10
4.9012016798694162
 20
12.88585218805485
 30
0.0000000000000003
 11
4.519857503186925
 21
12.88585218805485
 31
0.0000000000000003
  0
LINE
  5
C145
  8
PROF
 10
0.7321315362267457
 20
8.2026312473991556
 30
0.0000000000000006
 11
0.7321315362267457
 21
8.0511853963434952
 31
0.0000000000000006
  0
ARC
  5
C146
  8
PROF
 10
0.7977322214551919
 20
7.577333933202679
 30
0.0000000000000006
 40
0.4783708383912013
 50
97.882010168942557
 51
186.31119505698641
  0
LINE
  5
C147
  8
FRAME_050
 10
7.8016377197432121
 20
17.99371054969447
 30
0.0
 11
7.8016377197432121
 21
0.0000000000002274
 31
0.0
  0
ENDBLK
  5
C149
  8
0
  0
BLOCK
  8
0
  2
*U7
 70
     1
 10
0.0
 20
0.0
 30
0.0
  3
*U7
  1

  0
TEXT
  5
C8C3
  8
0
 10
3.5177832928899071
 20
10.38601584255777
 30
0.0
 40
0.125
  1
Crown Moulding
  0
TEXT
  5
C8C4
  8
0
 10
3.5223876585106431
 20
10.17717091304435
 30
0.0
 40
0.125
  1
TL-AB509
  0
TEXT
  5
C8C5
  8
0
 10
3.5074661032582561
 20
9.9667059289606801
 30
0.0
 40
0.125
  1
1-5/16" x 7-9/16"
  0
TEXT
  5
C8C6
  8
0
 10
3.519403347460166
 20
9.7562409448770051
 30
0.0
 40
0.125
  1
800.66.TAGUE
  0
ENDBLK
  5
C8C8
  8
0
  0
BLOCK
  8
0
  2
*U26
 70
     1
 10
0.0
 20
0.0
 30
0.0
  3
*U26
  1

  0
TEXT
  5
1B2A8
  8
0
 62
     0
 10
-346.15979271546257
 20
508.16262619726342
 30
0.0
 40
0.125
  1
Cutter
 50
90.0
  0
ENDBLK
  5
1B2AA
  8
0
  0
BLOCK
  8
0
  2
*U27
 70
     1
 10
0.0
 20
0.0
 30
0.0
  3
*U27
  1

  0
TEXT
  5
1B2AC
  8
0
 62
     0
 10
-386.5390653119602
 20
838.32040714068194
 30
0.0
 40
0.125
  1
Cutter
 50
90.0
  0
ENDBLK
  5
1B2AE
  8
0
  0
BLOCK
  8
0
  2
*U28
 70
     1
 10
0.0
 20
0.0
 30
0.0
  3
*U28
  1

  0
TEXT
  5
1B2B0
  8
0
 62
     0
 10
-367.02425303528412
 20
426.35429858331162
 30
0.0
 40
0.125
  1
1
 50
90.0
  0
TEXT
  5
1B2B1
  8
0
 62
     0
 10
-367.10758636861738
 20
426.43763191664488
 30
0.0
 40
0.125
  1
3
 50
90.0
  0
LINE
  5
1B2B2
  8
0
 62
     0
 10
-367.08675303528412
 20
426.43763191664488
 30
0.0
 11
-367.08675303528412
 21
426.52096524997819
 31
0.0
  0
TEXT
  5
1B2B3
  8
0
 62
     0
 10
-366.9409197019508
 20
426.43763191664488
 30
0.0
 40
0.125
  1
4
 50
90.0
  0
TEXT
  5
1B2B4
  8
0
 62
     0
 10
-367.02425303528412
 20
426.56263191664482
 30
0.0
 40
0.125
  1
"
 50
90.0
  0
ENDBLK
  5
1B2B6
  8
0
  0
BLOCK
  8
0
  2
*U29
 70
     1
 10
0.0
 20
0.0
 30
0.0
  3
*U29
  1

  0
TEXT
  5
1B2B8
  8
0
 62
     0
 10
-364.19000805364777
 20
425.28877174148101
 30
0.0
 40
0.125
  1
7
  0
LINE
  5
1B2B9
  8
0
 62
     0
 10
-364.19000805364777
 20
425.2679384081477
 30
0.0
 11
-364.10667472031452
 21
425.2679384081477
 31
0.0
  0
TEXT
  5
1B2BA
  8
0
 62
     0
 10
-364.19000805364777
 20
425.12210507481433
 30
0.0
 40
0.125
  1
8
  0
TEXT
  5
1B2BB
  8
0
 62
     0
 10
-364.06500805364777
 20
425.2054384081477
 30
0.0
 40
0.125
  1
"
  0
ENDBLK
  5
1B2BD
  8
0
  0
BLOCK
  8
0
  2
*U30
 70
     1
 10
0.0
 20
0.0
 30
0.0
  3
*U30
  1

  0
TEXT
  5
1B2BF
  8
0
 62
     0
 10
-363.14629495961572
 20
426.36117705424232
 30
0.0
 40
0.125
  1
1
 50
90.0
  0
TEXT
  5
1B2C0
  8
0
 62
     0
 10
-363.22962829294897
 20
426.46534372090889
 30
0.0
 40
0.125
  1
1
 50
90.0
  0
LINE
  5
1B2C1
  8
0
 62
     0
 10
-363.20879495961572
 20
426.44451038757558
 30
0.0
 11
-363.20879495961572
 21
426.52784372090889
 31
0.0
  0
TEXT
  5
1B2C2
  8
0
 62
     0
 10
-363.06296162628229
 20
426.44451038757558
 30
0.0
 40
0.125
  1
2
 50
90.0
  0
TEXT
  5
1B2C3
  8
0
 62
     0
 10
-363.14629495961572
 20
426.56951038757558
 30
0.0
 40
0.125
  1
"
 50
90.0
  0
ENDBLK
  5
1B2C5
  8
0
  0
BLOCK
  8
0
  2
*U31
 70
     1
 10
0.0
 20
0.0
 30
0.0
  3
*U31
  1

  0
TEXT
  5
1B2C7
  8
0
 62
     0
 10
-387.96524739614358
 20
838.7451809866343
 30
0.0
 40
0.125
  1
1
 50
90.0
  0
TEXT
  5
1B2C8
  8
0
 62
     0
 10
-388.0485807294769
 20
838.82851431996767
 30
0.0
 40
0.125
  1
3
 50
90.0
  0
LINE
  5
1B2C9
  8
0
 62
     0
 10
-388.02774739614358
 20
838.82851431996767
 30
0.0
 11
-388.02774739614358
 21
838.91184765330104
 31
0.0
  0
TEXT
  5
1B2CA
  8
0
 62
     0
 10
-387.88191406281032
 20
838.82851431996767
 30
0.0
 40
0.125
  1
4
 50
90.0
  0
TEXT
  5
1B2CB
  8
0
 62
     0
 10
-387.96524739614358
 20
838.95351431996755
 30
0.0
 40
0.125
  1
"
 50
90.0
  0
ENDBLK
  5
1B2CD
  8
0
  0
BLOCK
  8
0
  2
*U32
 70
     1
 10
0.0
 20
0.0
 30
0.0
  3
*U32
  1

  0
TEXT
  5
1B2CF
  8
0
 62
     0
 10
-385.13236667098761
 20
837.67914254862364
 30
0.0
 40
0.125
  1
7
  0
LINE
  5
1B2D0
  8
0
 62
     0
 10
-385.13236667098761
 20
837.65830921529016
 30
0.0
 11
-385.04903333765429
 21
837.65830921529016
 31
0.0
  0
TEXT
  5
1B2D1
  8
0
 62
     0
 10
-385.13236667098761
 20
837.51247588195702
 30
0.0
 40
0.125
  1
8
  0
TEXT
  5
1B2D2
  8
0
 62
     0
 10
-385.00736667098761
 20
837.59580921529039
 30
0.0
 40
0.125
  1
"
  0
ENDBLK
  5
1B2D4
  8
0
  0
BLOCK
  8
0
  2
*U33
 70
     1
 10
0.0
 20
0.0
 30
0.0
  3
*U33
  1

  0
TEXT
  5
1B2D6
  8
0
 62
     0
 10
-384.08814198077528
 20
838.75205945756488
 30
0.0
 40
0.125
  1
1
 50
90.0
  0
TEXT
  5
1B2D7
  8
0
 62
     0
 10
-384.1714753141087
 20
838.85622612423163
 30
0.0
 40
0.125
  1
1
 50
90.0
  0
LINE
  5
1B2D8
  8
0
 62
     0
 10
-384.15064198077539
 20
838.83539279089825
 30
0.0
 11
-384.15064198077539
 21
838.91872612423185
 31
0.0
  0
TEXT
  5
1B2D9
  8
0
 62
     0
 10
-384.00480864744202
 20
838.83539279089825
 30
0.0
 40
0.125
  1
2
 50
90.0
  0
TEXT
  5
1B2DA
  8
0
 62
     0
 10
-384.08814198077528
 20
838.96039279089837
 30
0.0
 40
0.125
  1
"
 50
90.0
  0
ENDBLK
  5
1B2DC
  8
0
  0
BLOCK
  8
0
  2
*U34
 70
     1
 10
0.0
 20
0.0
 30
0.0
  3
*U34
  1

  0
TEXT
  5
1B2DE
  8
0
 62
     0
 10
-323.13119819751643
 20
425.11559169813461
 30
0.0
 40
0.125
  1
1
 50
90.0
  0
TEXT
  5
1B2DF
  8
0
 62
     0
 10
-323.2145315308498
 20
425.19892503146798
 30
0.0
 40
0.125
  1
3
 50
90.0
  0
LINE
  5
1B2E0
  8
0
 62
     0
 10
-323.19369819751643
 20
425.19892503146798
 30
0.0
 11
-323.19369819751643
 21
425.28225836480118
 31
0.0
  0
TEXT
  5
1B2E1
  8
0
 62
     0
 10
-323.04786486418311
 20
425.19892503146798
 30
0.0
 40
0.125
  1
4
 50
90.0
  0
TEXT
  5
1B2E2
  8
0
 62
     0
 10
-323.13119819751643
 20
425.32392503146792
 30
0.0
 40
0.125
  1
"
 50
90.0
  0
ENDBLK
  5
1B2E4
  8
0
  0
BLOCK
  8
0
  2
*U35
 70
     1
 10
0.0
 20
0.0
 30
0.0
  3
*U35
  1

  0
TEXT
  5
1B2E6
  8
0
 62
     0
 10
-318.6214997668344
 20
425.11559169813461
 30
0.0
 40
0.125
  1
1
 50
90.0
  0
TEXT
  5
1B2E7
  8
0
 62
     0
 10
-318.70483310016772
 20
425.19892503146798
 30
0.0
 40
0.125
  1
3
 50
90.0
  0
LINE
  5
1B2E8
  8
0
 62
     0
 10
-318.6839997668344
 20
425.19892503146798
 30
0.0
 11
-318.6839997668344
 21
425.28225836480118
 31
0.0
  0
TEXT
  5
1B2E9
  8
0
 62
     0
 10
-318.53816643350109
 20
425.19892503146798
 30
0.0
 40
0.125
  1
8
 50
90.0
  0
TEXT
  5
1B2EA
  8
0
 62
     0
 10
-318.6214997668344
 20
425.32392503146792
 30
0.0
 40
0.125
  1
"
 50
90.0
  0
ENDBLK
  5
1B2EC
  8
0
  0
BLOCK
  8
0
  2
*U36
 70
     1
 10
0.0
 20
0.0
 30
0.0
  3
*U36
  1

  0
TEXT
  5
1B2EE
  8
0
 62
     0
 10
-387.56461450221548
 20
838.89288512488679
 30
0.0
 40
0.125
  1
1
 50
90.0
  0
TEXT
  5
1B2EF
  8
0
 62
     0
 10
-387.64794783554891
 20
838.97621845822005
 30
0.0
 40
0.125
  1
3
 50
90.0
  0
LINE
  5
1B2F0
  8
0
 62
     0
 10
-387.62711450221559
 20
838.97621845822005
 30
0.0
 11
-387.62711450221559
 21
839.05955179155353
 31
0.0
  0
TEXT
  5
1B2F1
  8
0
 62
     0
 10
-387.48128116888222
 20
838.97621845822005
 30
0.0
 40
0.125
  1
4
 50
90.0
  0
TEXT
  5
1B2F2
  8
0
 62
     0
 10
-387.56461450221548
 20
839.10121845822005
 30
0.0
 40
0.125
  1
"
 50
90.0
  0
ENDBLK
  5
1B2F4
  8
0
  0
BLOCK
  8
0
  2
*U37
 70
     1
 10
0.0
 20
0.0
 30
0.0
  3
*U37
  1

  0
TEXT
  5
1B2F6
  8
0
 62
     0
 10
-383.05359444806828
 20
838.89288512488679
 30
0.0
 40
0.125
  1
1
 50
90.0
  0
TEXT
  5
1B2F7
  8
0
 62
     0
 10
-383.13692778140171
 20
838.97621845822005
 30
0.0
 40
0.125
  1
3
 50
90.0
  0
LINE
  5
1B2F8
  8
0
 62
     0
 10
-383.1160944480684
 20
838.97621845822005
 30
0.0
 11
-383.1160944480684
 21
839.05955179155353
 31
0.0
  0
TEXT
  5
1B2F9
  8
0
 62
     0
 10
-382.97026111473502
 20
838.97621845822005
 30
0.0
 40
0.125
  1
8
 50
90.0
  0
TEXT
  5
1B2FA
  8
0
 62
     0
 10
-383.05359444806828
 20
839.10121845822005
 30
0.0
 40
0.125
  1
"
 50
90.0
  0
ENDBLK
  5
1B2FC
  8
0
  0
BLOCK
  8
0
  2
*U38
 70
     1
 10
0.0
 20
0.0
 30
0.0
  3
*U38
  1

  0
TEXT
  5
1B2FE
  8
0
 62
     0
 10
-266.30534787530831
 20
273.59262856062833
 30
0.0
 40
0.125
  1
1
 50
90.0
  0
TEXT
  5
1B2FF
  8
0
 62
     0
 10
-266.38868120864157
 20
273.71762856062833
 30
0.0
 40
0.125
  1
5
 50
90.0
  0
LINE
  5
1B300
  8
0
 62
     0
 10
-266.36784787530831
 20
273.6759618939617
 30
0.0
 11
-266.36784787530831
 21
273.84262856062833
 31
0.0
  0
TEXT
  5
1B301
  8
0
 62
     0
 10
-266.222014541975
 20
273.6759618939617
 30
0.0
 40
0.125
  1
16
 50
90.0
  0
TEXT
  5
1B302
  8
0
 62
     0
 10
-266.30534787530831
 20
273.88429522729501
 30
0.0
 40
0.125
  1
"
 50
90.0
  0
ENDBLK
  5
1B304
  8
0
  0
BLOCK
  8
0
  2
*U39
 70
     1
 10
0.0
 20
0.0
 30
0.0
  3
*U39
  1

  0
TEXT
  5
1B306
  8
0
 62
     0
 10
-265.70247366384262
 20
273.99008194853201
 30
0.0
 40
0.125
  1
11
  0
LINE
  5
1B307
  8
0
 62
     0
 10
-265.74414033050931
 20
273.96924861519869
 30
0.0
 11
-265.535806997176
 21
273.96924861519869
 31
0.0
  0
TEXT
  5
1B308
  8
0
 62
     0
 10
-265.74414033050931
 20
273.82341528186532
 30
0.0
 40
0.125
  1
32
  0
TEXT
  5
1B309
  8
0
 62
     0
 10
-265.49414033050931
 20
273.90674861519869
 30
0.0
 40
0.125
  1
"
  0
ENDBLK
  5
1B30B
  8
0
  0
BLOCK
  8
0
  2
*U40
 70
     1
 10
0.0
 20
0.0
 30
0.0
  3
*U40
  1

  0
TEXT
  5
1B30D
  8
0
 62
     0
 10
-388.10095765539421
 20
838.47949397127331
 30
0.0
 40
0.125
  1
1
 50
90.0
  0
TEXT
  5
1B30E
  8
0
 62
     0
 10
-388.18429098872758
 20
838.60449397127343
 30
0.0
 40
0.125
  1
5
 50
90.0
  0
LINE
  5
1B30F
  8
0
 62
     0
 10
-388.16345765539432
 20
838.5628273046068
 30
0.0
 11
-388.16345765539432
 21
838.72949397127343
 31
0.0
  0
TEXT
  5
1B310
  8
0
 62
     0
 10
-388.0176243220609
 20
838.5628273046068
 30
0.0
 40
0.125
  1
16
 50
90.0
  0
TEXT
  5
1B311
  8
0
 62
     0
 10
-388.10095765539421
 20
838.77116063794006
 30
0.0
 40
0.125
  1
"
 50
90.0
  0
ENDBLK
  5
1B313
  8
0
  0
BLOCK
  8
0
  2
*U41
 70
     1
 10
0.0
 20
0.0
 30
0.0
  3
*U41
  1

  0
TEXT
  5
1B315
  8
0
 62
     0
 10
-387.49961823246872
 20
838.8753273046068
 30
0.0
 40
0.125
  1
11
  0
LINE
  5
1B316
  8
0
 62
     0
 10
-387.54128489913541
 20
838.85449397127331
 30
0.0
 11
-387.33295156580209
 21
838.85449397127331
 31
0.0
  0
TEXT
  5
1B317
  8
0
 62
     0
 10
-387.54128489913541
 20
838.70866063794006
 30
0.0
 40
0.125
  1
32
  0
TEXT
  5
1B318
  8
0
 62
     0
 10
-387.29128489913541
 20
838.79199397127366
 30
0.0
 40
0.125
  1
"
  0
ENDBLK
  5
1B31A
  8
0
  0
BLOCK
  8
0
  2
*U42
 70
     1
 10
0.0
 20
0.0
 30
0.0
  3
*U42
  1

  0
TEXT
  5
1B31C
  8
0
 10
-383.97324693626661
 20
840.70644701963806
 30
0.0
 40
0.125
  1
Porch Rail
  0
TEXT
  5
1B31D
  8
0
 10
-383.97324693626661
 20
840.49811368630481
 30
0.0
 40
0.125
  1
TL-2128
  0
TEXT
  5
1B31E
  8
0
 10
-383.97324693626661
 20
840.28978035297155
 30
0.0
 40
0.125
  1
2-11/16" x 4-1/2"
  0
TEXT
  5
1B31F
  8
0
 10
-383.97324693626661
 20
840.08144701963806
 30
0.0
 40
0.125
  1
800.66.TAGUE
  0
ENDBLK
  5
1B321
  8
0
  0
ENDSEC
  0
SECTION
  2
ENTITIES
  0
INSERT
  5
1AE97
  8
0
  2
*U42
 10
0.0
 20
0.0
 30
0.0
  0
LINE
  5
1AE98
  8
0
 10
-385.11546154540031
 20
839.99495101183311
 30
0.0
 11
-385.11546154540031
 21
840.057451011833
 31
0.0
  0
LINE
  5
1AE99
  8
0
 10
-385.11546154540042
 20
839.619951011833
 30
0.0
 11
-385.11546154540031
 21
839.68245101183322
 31
0.0
  0
LINE
  5
1AE9A
  8
0
 10
-385.11546154540042
 20
839.244951011833
 30
0.0
 11
-385.11546154540042
 21
839.30745101183311
 31
0.0
  0
LINE
  5
1AE9B
  8
0
 10
-385.11546154540042
 20
838.869951011833
 30
0.0
 11
-385.11546154540042
 21
838.93245101183311
 31
0.0
  0
LINE
  5
1AE9C
  8
0
 10
-385.39666154540032
 20
838.80745101183311
 30
0.0
 11
-385.39666154540032
 21
838.55745101183311
 31
0.0
  0
LINE
  5
1AE9D
  8
0
 10
-387.14666154540032
 20
838.55745101183311
 30
0.0
 11
-387.14666154540032
 21
838.80745101183311
 31
0.0
  0
LINE
  5
1AE9E
  8
0
 10
-387.42786154540028
 20
838.93245101183311
 30
0.0
 11
-387.42786154540028
 21
838.869951011833
 31
0.0
  0
LINE
  5
1AE9F
  8
0
 10
-387.42786154540028
 20
839.30745101183311
 30
0.0
 11
-387.42786154540028
 21
839.244951011833
 31
0.0
  0
LINE
  5
1AEA0
  8
0
 10
-387.42786154540028
 20
839.68245101183322
 30
0.0
 11
-387.42786154540028
 21
839.619951011833
 31
0.0
  0
LINE
  5
1AEA1
  8
0
 10
-387.42786154540039
 20
840.057451011833
 30
0.0
 11
-387.42786154540028
 21
839.99495101183311
 31
0.0
  0
LINE
  5
1AEA2
  8
0
 10
-385.21311470869063
 20
840.83865101183289
 30
0.0
 11
-385.21311470869063
 21
840.74490101183301
 31
0.0
  0
LINE
  5
1AEA3
  8
0
 10
-387.33020838211007
 20
840.83865101183289
 30
0.0
 11
-387.33020838211007
 21
840.74490101183301
 31
0.0
  0
LINE
  5
1AEA4
  8
0
 10
-385.39666154540032
 20
838.55745101183311
 30
0.0
 11
-385.12336787198097
 21
838.55745101183311
 31
0.0
  0
LINE
  5
1AEA5
  8
0
 10
-387.14666154540032
 20
838.80745101183311
 30
0.0
 11
-385.39666154540032
 21
838.80745101183311
 31
0.0
  0
LINE
  5
1AEA6
  8
0
 10
-387.42786154540028
 20
838.55745101183311
 30
0.0
 11
-387.14666154540032
 21
838.55745101183311
 31
0.0
  0
LINE
  5
1AEA7
  8
0
 10
-386.43238450248379
 20
843.06249676775246
 30
0.0
 11
-386.11093858831691
 21
843.06249676775246
 31
0.0
  0
POLYLINE
  8
0
  5
1B322
  66
     1
 10
0.000000
 20
0.000000
 30
0.000000
  70
     8
  0
VERTEX
  8
0
  5
1B323
 10
-385.183
 20
841.865
 30
0.000000
  70
    32
  0
VERTEX
  8
0
  5
1B324
 10
-385.183
 20
841.862
 30
0.000000
  70
    32
  0
VERTEX
  8
0
  5
1B325
 10
-385.184
 20
841.859
 30
0.000000
  70
    32
  0
VERTEX
  8
0
  5
1B326
 10
-385.185
 20
841.856
 30
0.000000
  70
    32
  0
VERTEX
  8
0
  5
1B327
 10
-385.185
 20
841.853
 30
0.000000
  70
    32
  0
VERTEX
  8
0
  5
1B328
 10
-385.186
 20
841.850
 30
0.000000
  70
    32
  0
VERTEX
  8
0
  5
1B329
 10
-385.187
 20
841.847
 30
0.000000
  70
    32
  0
VERTEX
  8
0
  5
1B32A
 10
-385.188
 20
841.844
 30
0.000000
  70
    32
  0
VERTEX
  8
0
  5
1B32B
 10
-385.188
 20
841.841
 30
0.000000
  70
    32
  0
VERTEX
  8
0
  5
1B32C
 10
-385.189
 20
841.838
 30
0.000000
  70
    32
  0
VERTEX
  8
0
  5
1B32D
 10
-385.190
 20
841.835
 30
0.000000
  70
    32
  0
VERTEX
  8
0
  5
1B32E
 10
-385.190
 20
841.832
 30
0.000000
  70
    32
  0
VERTEX
  8
0
  5
1B32F
 10
-385.191
 20
841.829
 30
0.000000
  70
    32
  0
VERTEX
  8
0
  5
1B330
 10
-385.192
 20
841.826
 30
0.000000
  70
    32
  0
VERTEX
  8
0
  5
1B331
 10
-385.193
 20
841.823
 30
0.000000
  70
    32
  0
VERTEX
  8
0
  5
1B332
 10
-385.193
 20
841.820
 30
0.000000
  70
    32
  0
VERTEX
  8
0
  5
1B333
 10
-385.194
 20
841.817
 30
0.000000
  70
    32
  0
VERTEX
  8
0
  5
1B334
 10
-385.195
 20
841.814
 30
0.000000
  70
    32
  0
VERTEX
  8
0
  5
1B335
 10
-385.195
 20
841.811
 30
0.000000
  70
    32
  0
VERTEX
  8
0
  5
1B336
 10
-385.196
 20
841.808
 30
0.000000
  70
    32
  0
VERTEX
  8
0
  5
1B337
 10
-385.197
 20
841.805
 30
0.000000
  70
    32
  0
VERTEX
  8
0
  5
1B338
 10
-385.198
 20
841.802
 30
0.000000
  70
    32
  0
VERTEX
  8
0
  5
1B339
 10
-385.198
 20
841.799
 30
0.000000
  70
    32
  0
VERTEX
  8
0
  5
1B33A
 10
-385.199
 20
841.796
 30
0.000000
  70
    32
  0
VERTEX
  8
0
  5
1B33B
 10
-385.200
 20
841.793
 30
0.000000
  70
    32
  0
VERTEX
  8
0
  5
1B33C
 10
-385.201
 20
841.790
 30
0.000000
  70
    32
  0
VERTEX
  8
0
  5
1B33D
 10
-385.202
 20
841.787
 30
0.000000
  70
    32
  0
VERTEX
  8
0
  5
1B33E
 10
-385.202
 20
841.784
 30
0.000000
  70
    32
  0
VERTEX
  8
0
  5
1B33F
 10
-385.203
 20
841.781
 30
0.000000
  70
    32
  0
VERTEX
  8
0
  5
1B340
 10
-385.204
 20
841.778
 30
0.000000
  70
    32
  0
VERTEX
  8
0
  5
1B341
 10
-385.205
 20
841.775
 30
0.000000
  70
    32
  0
VERTEX
  8
0
  5
1B342
 10
-385.206
 20
841.772
 30
0.000000
  70
    32
  0
VERTEX
  8
0
  5
1B343
 10
-385.207
 20
841.769
 30
0.000000
  70
    32
  0
VERTEX
  8
0
  5
1B344
 10
-385.207
 20
841.767
 30
0.000000
  70
    32
  0
VERTEX
  8
0
  5
1B345
 10
-385.208
 20
841.764
 30
0.000000
  70
    32
  0
VERTEX
  8
0
  5
1B346
 10
-385.209
 20
841.761
 30
0.000000
  70
    32
  0
VERTEX
  8
0
  5
1B347
 10
-385.210
 20
841.758
 30
0.000000
  70
    32
  0
VERTEX
  8
0
  5
1B348
 10
-385.211
 20
841.755
 30
0.000000
  70
    32
  0
VERTEX
  8
0
  5
1B349
 10
-385.212
 20
841.752
 30
0.000000
  70
    32
  0
VERTEX
  8
0
  5
1B34A
 10
-385.213
 20
841.749
 30
0.000000
  70
    32
  0
VERTEX
  8
0
  5
1B34B
 10
-385.214
 20
841.746
 30
0.000000
  70
    32
  0
VERTEX
  8
0
  5
1B34C
 10
-385.215
 20
841.743
 30
0.000000
  70
    32
  0
VERTEX
  8
0
  5
1B34D
 10
-385.216
 20
841.740
 30
0.000000
  70
    32
  0
VERTEX
  8
0
  5
1B34E
 10
-385.217
 20
841.737
 30
0.000000
  70
    32
  0
VERTEX
  8
0
  5
1B34F
 10
-385.217
 20
841.734
 30
0.000000
  70
    32
  0
VERTEX
  8
0
  5
1B350
 10
-385.218
 20
841.731
 30
0.000000
  70
    32
  0
VERTEX
  8
0
  5
1B351
 10
-385.219
 20
841.728
 30
0.000000
  70
    32
  0
VERTEX
  8
0
  5
1B352
 10
-385.220
 20
841.725
 30
0.000000
  70
    32
  0
VERTEX
  8
0
  5
1B353
 10
-385.221
 20
841.723
 30
0.000000
  70
    32
  0
VERTEX
  8
0
  5
1B354
 10
-385.222
 20
841.720
 30
0.000000
  70
    32
  0
VERTEX
  8
0
  5
1B355
 10
-385.223
 20
841.717
 30
0.000000
  70
    32
  0
VERTEX
  8
0
  5
1B356
 10
-385.225
 20
841.714
 30
0.000000
  70
    32
  0
VERTEX
  8
0
  5
1B357
 10
-385.226
 20
841.711
 30
0.000000
  70
    32
  0
VERTEX
  8
0
  5
1B358
 10
-385.227
 20
841.708
 30
0.000000
  70
    32
  0
VERTEX
  8
0
  5
1B359
 10
-385.228
 20
841.705
 30
0.000000
  70
    32
  0
VERTEX
  8
0
  5
1B35A
 10
-385.229
 20
841.702
 30
0.000000
  70
    32
  0
VERTEX
  8
0
  5
1B35B
 10
-385.230
 20
841.699
 30
0.000000
  70
    32
  0
VERTEX
  8
0
  5
1B35C
 10
-385.231
 20
841.696
 30
0.000000
  70
    32
  0
VERTEX
  8
0
  5
1B35D
 10
-385.232
 20
841.694
 30
0.000000
  70
    32
  0
VERTEX
  8
0
  5
1B35E
 10
-385.233
 20
841.691
 30
0.000000
  70
    32
  0
VERTEX
  8
0
  5
1B35F
 10
-385.234
 20
841.688
 30
0.000000
  70
    32
  0
VERTEX
  8
0
  5
1B360
 10
-385.235
 20
841.685
 30
0.000000
  70
    32
  0
VERTEX
  8
0
  5
1B361
 10
-385.237
 20
841.682
 30
0.000000
  70
    32
  0
VERTEX
  8
0
  5
1B362
 10
-385.238
 20
841.679
 30
0.000000
  70
    32
  0
VERTEX
  8
0
  5
1B363
 10
-385.239
 20
841.676
 30
0.000000
  70
    32
  0
VERTEX
  8
0
  5
1B364
 10
-385.240
 20
841.674
 30
0.000000
  70
    32
  0
VERTEX
  8
0
  5
1B365
 10
-385.241
 20
841.671
 30
0.000000
  70
    32
  0
VERTEX
  8
0
  5
1B366
 10
-385.242
 20
841.668
 30
0.000000
  70
    32
  0
VERTEX
  8
0
  5
1B367
 10
-385.244
 20
841.665
 30
0.000000
  70
    32
  0
VERTEX
  8
0
  5
1B368
 10
-385.245
 20
841.662
 30
0.000000
  70
    32
  0
VERTEX
  8
0
  5
1B369
 10
-385.246
 20
841.659
 30
0.000000
  70
    32
  0
VERTEX
  8
0
  5
1B36A
 10
-385.247
 20
841.656
 30
0.000000
  70
    32
  0
VERTEX
  8
0
  5
1B36B
 10
-385.248
 20
841.654
 30
0.000000
  70
    32
  0
VERTEX
  8
0
  5
1B36C
 10
-385.250
 20
841.651
 30
0.000000
  70
    32
  0
VERTEX
  8
0
  5
1B36D
 10
-385.251
 20
841.648
 30
0.000000
  70
    32
  0
VERTEX
  8
0
  5
1B36E
 10
-385.252
 20
841.645
 30
0.000000
  70
    32
  0
VERTEX
  8
0
  5
1B36F
 10
-385.253
 20
841.642
 30
0.000000
  70
    32
  0
VERTEX
  8
0
  5
1B370
 10
-385.255
 20
841.640
 30
0.000000
  70
    32
  0
VERTEX
  8
0
  5
1B371
 10
-385.256
 20
841.637
 30
0.000000
  70
    32
  0
VERTEX
  8
0
  5
1B372
 10
-385.257
 20
841.634
 30
0.000000
  70
    32
  0
VERTEX
  8
0
  5
1B373
 10
-385.259
 20
841.631
 30
0.000000
  70
    32
  0
VERTEX
  8
0
  5
1B374
 10
-385.260
 20
841.628
 30
0.000000
  70
    32
  0
VERTEX
  8
0
  5
1B375
 10
-385.261
 20
841.626
 30
0.000000
  70
    32
  0
VERTEX
  8
0
  5
1B376
 10
-385.263
 20
841.623
 30
0.000000
  70
    32
  0
VERTEX
  8
0
  5
1B377
 10
-385.264
 20
841.620
 30
0.000000
  70
    32
  0
VERTEX
  8
0
  5
1B378
 10
-385.265
 20
841.617
 30
0.000000
  70
    32
  0
VERTEX
  8
0
  5
1B379
 10
-385.267
 20
841.615
 30
0.000000
  70
    32
  0
VERTEX
  8
0
  5
1B37A
 10
-385.268
 20
841.612
 30
0.000000
  70
    32
  0
VERTEX
  8
0
  5
1B37B
 10
-385.269
 20
841.609
 30
0.000000
  70
    32
  0
VERTEX
  8
0
  5
1B37C
 10
-385.271
 20
841.606
 30
0.000000
  70
    32
  0
VERTEX
  8
0
  5
1B37D
 10
-385.272
 20
841.603
 30
0.000000
  70
    32
  0
VERTEX
  8
0
  5
1B37E
 10
-385.273
 20
841.601
 30
0.000000
  70
    32
  0
VERTEX
  8
0
  5
1B37F
 10
-385.275
 20
841.598
 30
0.000000
  70
    32
  0
VERTEX
  8
0
  5
1B380
 10
-385.276
 20
841.595
 30
0.000000
  70
    32
  0
VERTEX
  8
0
  5
1B381
 10
-385.278
 20
841.593
 30
0.000000
  70
    32
  0
VERTEX
  8
0
  5
1B382
 10
-385.279
 20
841.590
 30
0.000000
  70
    32
  0
VERTEX
  8
0
  5
1B383
 10
-385.281
 20
841.587
 30
0.000000
  70
    32
  0
VERTEX
  8
0
  5
1B384
 10
-385.282
 20
841.584
 30
0.000000
  70
    32
  0
VERTEX
  8
0
  5
1B385
 10
-385.283
 20
841.582
 30
0.000000
  70
    32
  0
VERTEX
  8
0
  5
1B386
 10
-385.285
 20
841.579
 30
0.000000
  70
    32
  0
VERTEX
  8
0
  5
1B387
 10
-385.286
 20
841.576
 30
0.000000
  70
    32
  0
VERTEX
  8
0
  5
1B388
 10
-385.288
 20
841.574
 30
0.000000
  70
    32
  0
VERTEX
  8
0
  5
1B389
 10
-385.289
 20
841.571
 30
0.000000
  70
    32
  0
VERTEX
  8
0
  5
1B38A
 10
-385.291
 20
841.568
 30
0.000000
  70
    32
  0
VERTEX
  8
0
  5
1B38B
 10
-385.292
 20
841.565
 30
0.000000
  70
    32
  0
VERTEX
  8
0
  5
1B38C
 10
-385.294
 20
841.563
 30
0.000000
  70
    32
  0
VERTEX
  8
0
  5
1B38D
 10
-385.295
 20
841.560
 30
0.000000
  70
    32
  0
VERTEX
  8
0
  5
1B38E
 10
-385.297
 20
841.557
 30
0.000000
  70
    32
  0
VERTEX
  8
0
  5
1B38F
 10
-385.298
 20
841.555
 30
0.000000
  70
    32
  0
VERTEX
  8
0
  5
1B390
 10
-385.300
 20
841.552
 30
0.000000
  70
    32
  0
VERTEX
  8
0
  5
1B391
 10
-385.301
 20
841.549
 30
0.000000
  70
    32
  0
VERTEX
  8
0
  5
1B392
 10
-385.303
 20
841.547
 30
0.000000
  70
    32
  0
VERTEX
  8
0
  5
1B393
 10
-385.304
 20
841.544
 30
0.000000
  70
    32
  0
VERTEX
  8
0
  5
1B394
 10
-385.306
 20
841.541
 30
0.000000
  70
    32
  0
VERTEX
  8
0
  5
1B395
 10
-385.308
 20
841.539
 30
0.000000
  70
    32
  0
VERTEX
  8
0
  5
1B396
 10
-385.309
 20
841.536
 30
0.000000
  70
    32
  0
VERTEX
  8
0
  5
1B397
 10
-385.311
 20
841.533
 30
0.000000
  70
    32
  0
VERTEX
  8
0
  5
1B398
 10
-385.312
 20
841.531
 30
0.000000
  70
    32
  0
VERTEX
  8
0
  5
1B399
 10
-385.314
 20
841.528
 30
0.000000
  70
    32
  0
VERTEX
  8
0
  5
1B39A
 10
-385.315
 20
841.525
 30
0.000000
  70
    32
  0
VERTEX
  8
0
  5
1B39B
 10
-385.317
 20
841.523
 30
0.000000
  70
    32
  0
VERTEX
  8
0
  5
1B39C
 10
-385.319
 20
841.520
 30
0.000000
  70
    32
  0
VERTEX
  8
0
  5
1B39D
 10
-385.320
 20
841.518
 30
0.000000
  70
    32
  0
VERTEX
  8
0
  5
1B39E
 10
-385.322
 20
841.515
 30
0.000000
  70
    32
  0
VERTEX
  8
0
  5
1B39F
 10
-385.323
 20
841.512
 30
0.000000
  70
    32
  0
VERTEX
  8
0
  5
1B3A0
 10
-385.325
 20
841.510
 30
0.000000
  70
    32
  0
VERTEX
  8
0
  5
1B3A1
 10
-385.327
 20
841.507
 30
0.000000
  70
    32
  0
VERTEX
  8
0
  5
1B3A2
 10
-385.328
 20
841.504
 30
0.000000
  70
    32
  0
VERTEX
  8
0
  5
1B3A3
 10
-385.330
 20
841.502
 30
0.000000
  70
    32
  0
VERTEX
  8
0
  5
1B3A4
 10
-385.332
 20
841.499
 30
0.000000
  70
    32
  0
VERTEX
  8
0
  5
1B3A5
 10
-385.333
 20
841.497
 30
0.000000
  70
    32
  0
VERTEX
  8
0
  5
1B3A6
 10
-385.335
 20
841.494
 30
0.000000
  70
    32
  0
VERTEX
  8
0
  5
1B3A7
 10
-385.336
 20
841.491
 30
0.000000
  70
    32
  0
VERTEX
  8
0
  5
1B3A8
 10
-385.338
 20
841.489
 30
0.000000
  70
    32
  0
VERTEX
  8
0
  5
1B3A9
 10
-385.340
 20
841.486
 30
0.000000
  70
    32
  0
VERTEX
  8
0
  5
1B3AA
 10
-385.341
 20
841.484
 30
0.000000
  70
    32
  0
VERTEX
  8
0
  5
1B3AB
 10
-385.343
 20
841.481
 30
0.000000
  70
    32
  0
VERTEX
  8
0
  5
1B3AC
 10
-385.345
 20
841.478
 30
0.000000
  70
    32
  0
VERTEX
  8
0
  5
1B3AD
 10
-385.346
 20
841.476
 30
0.000000
  70
    32
  0
VERTEX
  8
0
  5
1B3AE
 10
-385.348
 20
841.473
 30
0.000000
  70
    32
  0
VERTEX
  8
0
  5
1B3AF
 10
-385.350
 20
841.471
 30
0.000000
  70
    32
  0
VERTEX
  8
0
  5
1B3B0
 10
-385.351
 20
841.468
 30
0.000000
  70
    32
  0
VERTEX
  8
0
  5
1B3B1
 10
-385.353
 20
841.465
 30
0.000000
  70
    32
  0
VERTEX
  8
0
  5
1B3B2
 10
-385.355
 20
841.463
 30
0.000000
  70
    32
  0
VERTEX
  8
0
  5
1B3B3
 10
-385.357
 20
841.460
 30
0.000000
  70
    32
  0
VERTEX
  8
0
  5
1B3B4
 10
-385.358
 20
841.458
 30
0.000000
  70
    32
  0
VERTEX
  8
0
  5
1B3B5
 10
-385.360
 20
841.455
 30
0.000000
  70
    32
  0
VERTEX
  8
0
  5
1B3B6
 10
-385.362
 20
841.453
 30
0.000000
  70
    32
  0
VERTEX
  8
0
  5
1B3B7
 10
-385.364
 20
841.450
 30
0.000000
  70
    32
  0
VERTEX
  8
0
  5
1B3B8
 10
-385.365
 20
841.448
 30
0.000000
  70
    32
  0
VERTEX
  8
0
  5
1B3B9
 10
-385.367
 20
841.445
 30
0.000000
  70
    32
  0
VERTEX
  8
0
  5
1B3BA
 10
-385.369
 20
841.443
 30
0.000000
  70
    32
  0
VERTEX
  8
0
  5
1B3BB
 10
-385.371
 20
841.440
 30
0.000000
  70
    32
  0
VERTEX
  8
0
  5
1B3BC
 10
-385.372
 20
841.438
 30
0.000000
  70
    32
  0
VERTEX
  8
0
  5
1B3BD
 10
-385.374
 20
841.435
 30
0.000000
  70
    32
  0
VERTEX
  8
0
  5
1B3BE
 10
-385.376
 20
841.433
 30
0.000000
  70
    32
  0
VERTEX
  8
0
  5
1B3BF
 10
-385.378
 20
841.430
 30
0.000000
  70
    32
  0
VERTEX
  8
0
  5
1B3C0
 10
-385.380
 20
841.428
 30
0.000000
  70
    32
  0
VERTEX
  8
0
  5
1B3C1
 10
-385.382
 20
841.425
 30
0.000000
  70
    32
  0
VERTEX
  8
0
  5
1B3C2
 10
-385.383
 20
841.423
 30
0.000000
  70
    32
  0
VERTEX
  8
0
  5
1B3C3
 10
-385.385
 20
841.420
 30
0.000000
  70
    32
  0
VERTEX
  8
0
  5
1B3C4
 10
-385.387
 20
841.418
 30
0.000000
  70
    32
  0
VERTEX
  8
0
  5
1B3C5
 10
-385.389
 20
841.415
 30
0.000000
  70
    32
  0
VERTEX
  8
0
  5
1B3C6
 10
-385.391
 20
841.413
 30
0.000000
  70
    32
  0
VERTEX
  8
0
  5
1B3C7
 10
-385.393
 20
841.411
 30
0.000000
  70
    32
  0
VERTEX
  8
0
  5
1B3C8
 10
-385.395
 20
841.408
 30
0.000000
  70
    32
  0
VERTEX
  8
0
  5
1B3C9
 10
-385.397
 20
841.406
 30
0.000000
  70
    32
  0
VERTEX
  8
0
  5
1B3CA
 10
-385.399
 20
841.403
 30
0.000000
  70
    32
  0
VERTEX
  8
0
  5
1B3CB
 10
-385.401
 20
841.401
 30
0.000000
  70
    32
  0
VERTEX
  8
0
  5
1B3CC
 10
-385.403
 20
841.399
 30
0.000000
  70
    32
  0
VERTEX
  8
0
  5
1B3CD
 10
-385.405
 20
841.396
 30
0.000000
  70
    32
  0
VERTEX
  8
0
  5
1B3CE
 10
-385.407
 20
841.394
 30
0.000000
  70
    32
  0
VERTEX
  8
0
  5
1B3CF
 10
-385.409
 20
841.392
 30
0.000000
  70
    32
  0
VERTEX
  8
0
  5
1B3D0
 10
-385.411
 20
841.389
 30
0.000000
  70
    32
  0
VERTEX
  8
0
  5
1B3D1
 10
-385.413
 20
841.387
 30
0.000000
  70
    32
  0
VERTEX
  8
0
  5
1B3D2
 10
-385.415
 20
841.385
 30
0.000000
  70
    32
  0
VERTEX
  8
0
  5
1B3D3
 10
-385.417
 20
841.382
 30
0.000000
  70
    32
  0
VERTEX
  8
0
  5
1B3D4
 10
-385.419
 20
841.380
 30
0.000000
  70
    32
  0
VERTEX
  8
0
  5
1B3D5
 10
-385.421
 20
841.378
 30
0.000000
  70
    32
  0
VERTEX
  8
0
  5
1B3D6
 10
-385.423
 20
841.376
 30
0.000000
  70
    32
  0
VERTEX
  8
0
  5
1B3D7
 10
-385.425
 20
841.373
 30
0.000000
  70
    32
  0
VERTEX
  8
0
  5
1B3D8
 10
-385.427
 20
841.371
 30
0.000000
  70
    32
  0
VERTEX
  8
0
  5
1B3D9
 10
-385.429
 20
841.369
 30
0.000000
  70
    32
  0
VERTEX
  8
0
  5
1B3DA
 10
-385.431
 20
841.366
 30
0.000000
  70
    32
  0
VERTEX
  8
0
  5
1B3DB
 10
-385.433
 20
841.364
 30
0.000000
  70
    32
  0
VERTEX
  8
0
  5
1B3DC
 10
-385.435
 20
841.362
 30
0.000000
  70
    32
  0
VERTEX
  8
0
  5
1B3DD
 10
-385.437
 20
841.360
 30
0.000000
  70
    32
  0
VERTEX
  8
0
  5
1B3DE
 10
-385.439
 20
841.357
 30
0.000000
  70
    32
  0
VERTEX
  8
0
  5
1B3DF
 10
-385.442
 20
841.355
 30
0.000000
  70
    32
  0
VERTEX
  8
0
  5
1B3E0
 10
-385.444
 20
841.353
 30
0.000000
  70
    32
  0
VERTEX
  8
0
  5
1B3E1
 10
-385.446
 20
841.351
 30
0.000000
  70
    32
  0
VERTEX
  8
0
  5
1B3E2
 10
-385.448
 20
841.348
 30
0.000000
  70
    32
  0
VERTEX
  8
0
  5
1B3E3
 10
-385.450
 20
841.346
 30
0.000000
  70
    32
  0
VERTEX
  8
0
  5
1B3E4
 10
-385.452
 20
841.344
 30
0.000000
  70
    32
  0
VERTEX
  8
0
  5
1B3E5
 10
-385.454
 20
841.341
 30
0.000000
  70
    32
  0
VERTEX
  8
0
  5
1B3E6
 10
-385.456
 20
841.339
 30
0.000000
  70
    32
  0
VERTEX
  8
0
  5
1B3E7
 10
-385.458
 20
841.337
 30
0.000000
  70
    32
  0
VERTEX
  8
0
  5
1B3E8
 10
-385.460
 20
841.334
 30
0.000000
  70
    32
  0
VERTEX
  8
0
  5
1B3E9
 10
-385.462
 20
841.332
 30
0.000000
  70
    32
  0
VERTEX
  8
0
  5
1B3EA
 10
-385.464
 20
841.330
 30
0.000000
  70
    32
  0
VERTEX
  8
0
  5
1B3EB
 10
-385.466
 20
841.327
 30
0.000000
  70
    32
  0
VERTEX
  8
0
  5
1B3EC
 10
-385.468
 20
841.325
 30
0.000000
  70
    32
  0
VERTEX
  8
0
  5
1B3ED
 10
-385.470
 20
841.323
 30
0.000000
  70
    32
  0
VERTEX
  8
0
  5
1B3EE
 10
-385.472
 20
841.320
 30
0.000000
  70
    32
  0
VERTEX
  8
0
  5
1B3EF
 10
-385.474
 20
841.318
 30
0.000000
  70
    32
  0
VERTEX
  8
0
  5
1B3F0
 10
-385.476
 20
841.315
 30
0.000000
  70
    32
  0
VERTEX
  8
0
  5
1B3F1
 10
-385.478
 20
841.313
 30
0.000000
  70
    32
  0
VERTEX
  8
0
  5
1B3F2
 10
-385.480
 20
841.311
 30
0.000000
  70
    32
  0
VERTEX
  8
0
  5
1B3F3
 10
-385.481
 20
841.308
 30
0.000000
  70
    32
  0
VERTEX
  8
0
  5
1B3F4
 10
-385.483
 20
841.306
 30
0.000000
  70
    32
  0
VERTEX
  8
0
  5
1B3F5
 10
-385.485
 20
841.303
 30
0.000000
  70
    32
  0
VERTEX
  8
0
  5
1B3F6
 10
-385.487
 20
841.301
 30
0.000000
  70
    32
  0
VERTEX
  8
0
  5
1B3F7
 10
-385.489
 20
841.298
 30
0.000000
  70
    32
  0
VERTEX
  8
0
  5
1B3F8
 10
-385.491
 20
841.296
 30
0.000000
  70
    32
  0
VERTEX
  8
0
  5
1B3F9
 10
-385.492
 20
841.293
 30
0.000000
  70
    32
  0
VERTEX
  8
0
  5
1B3FA
 10
-385.494
 20
841.291
 30
0.000000
  70
    32
  0
VERTEX
  8
0
  5
1B3FB
 10
-385.496
 20
841.288
 30
0.000000
  70
    32
  0
VERTEX
  8
0
  5
1B3FC
 10
-385.498
 20
841.286
 30
0.000000
  70
    32
  0
VERTEX
  8
0
  5
1B3FD
 10
-385.500
 20
841.283
 30
0.000000
  70
    32
  0
VERTEX
  8
0
  5
1B3FE
 10
-385.501
 20
841.281
 30
0.000000
  70
    32
  0
VERTEX
  8
0
  5
1B3FF
 10
-385.503
 20
841.278
 30
0.000000
  70
    32
  0
VERTEX
  8
0
  5
1B400
 10
-385.505
 20
841.275
 30
0.000000
  70
    32
  0
VERTEX
  8
0
  5
1B401
 10
-385.506
 20
841.273
 30
0.000000
  70
    32
  0
VERTEX
  8
0
  5
1B402
 10
-385.508
 20
841.270
 30
0.000000
  70
    32
  0
VERTEX
  8
0
  5
1B403
 10
-385.510
 20
841.268
 30
0.000000
  70
    32
  0
VERTEX
  8
0
  5
1B404
 10
-385.511
 20
841.265
 30
0.000000
  70
    32
  0
VERTEX
  8
0
  5
1B405
 10
-385.513
 20
841.262
 30
0.000000
  70
    32
  0
VERTEX
  8
0
  5
1B406
 10
-385.514
 20
841.260
 30
0.000000
  70
    32
  0
VERTEX
  8
0
  5
1B407
 10
-385.516
 20
841.257
 30
0.000000
  70
    32
  0
VERTEX
  8
0
  5
1B408
 10
-385.517
 20
841.254
 30
0.000000
  70
    32
  0
VERTEX
  8
0
  5
1B409
 10
-385.519
 20
841.252
 30
0.000000
  70
    32
  0
VERTEX
  8
0
  5
1B40A
 10
-385.520
 20
841.249
 30
0.000000
  70
    32
  0
VERTEX
  8
0
  5
1B40B
 10
-385.522
 20
841.246
 30
0.000000
  70
    32
  0
VERTEX
  8
0
  5
1B40C
 10
-385.523
 20
841.243
 30
0.000000
  70
    32
  0
VERTEX
  8
0
  5
1B40D
 10
-385.525
 20
841.241
 30
0.000000
  70
    32
  0
VERTEX
  8
0
  5
1B40E
 10
-385.526
 20
841.238
 30
0.000000
  70
    32
  0
VERTEX
  8
0
  5
1B40F
 10
-385.527
 20
841.235
 30
0.000000
  70
    32
  0
VERTEX
  8
0
  5
1B410
 10
-385.529
 20
841.232
 30
0.000000
  70
    32
  0
VERTEX
  8
0
  5
1B411
 10
-385.530
 20
841.229
 30
0.000000
  70
    32
  0
VERTEX
  8
0
  5
1B412
 10
-385.531
 20
841.227
 30
0.000000
  70
    32
  0
VERTEX
  8
0
  5
1B413
 10
-385.533
 20
841.224
 30
0.000000
  70
    32
  0
VERTEX
  8
0
  5
1B414
 10
-385.534
 20
841.221
 30
0.000000
  70
    32
  0
VERTEX
  8
0
  5
1B415
 10
-385.535
 20
841.218
 30
0.000000
  70
    32
  0
VERTEX
  8
0
  5
1B416
 10
-385.536
 20
841.215
 30
0.000000
  70
    32
  0
VERTEX
  8
0
  5
1B417
 10
-385.538
 20
841.212
 30
0.000000
  70
    32
  0
VERTEX
  8
0
  5
1B418
 10
-385.539
 20
841.210
 30
0.000000
  70
    32
  0
VERTEX
  8
0
  5
1B419
 10
-385.540
 20
841.207
 30
0.000000
  70
    32
  0
VERTEX
  8
0
  5
1B41A
 10
-385.541
 20
841.204
 30
0.000000
  70
    32
  0
VERTEX
  8
0
  5
1B41B
 10
-385.542
 20
841.201
 30
0.000000
  70
    32
  0
VERTEX
  8
0
  5
1B41C
 10
-385.543
 20
841.198
 30
0.000000
  70
    32
  0
VERTEX
  8
0
  5
1B41D
 10
-385.544
 20
841.195
 30
0.000000
  70
    32
  0
VERTEX
  8
0
  5
1B41E
 10
-385.545
 20
841.192
 30
0.000000
  70
    32
  0
VERTEX
  8
0
  5
1B41F
 10
-385.546
 20
841.189
 30
0.000000
  70
    32
  0
VERTEX
  8
0
  5
1B420
 10
-385.547
 20
841.186
 30
0.000000
  70
    32
  0
VERTEX
  8
0
  5
1B421
 10
-385.548
 20
841.183
 30
0.000000
  70
    32
  0
VERTEX
  8
0
  5
1B422
 10
-385.549
 20
841.180
 30
0.000000
  70
    32
  0
VERTEX
  8
0
  5
1B423
 10
-385.550
 20
841.177
 30
0.000000
  70
    32
  0
VERTEX
  8
0
  5
1B424
 10
-385.551
 20
841.174
 30
0.000000
  70
    32
  0
VERTEX
  8
0
  5
1B425
 10
-385.552
 20
841.171
 30
0.000000
  70
    32
  0
VERTEX
  8
0
  5
1B426
 10
-385.553
 20
841.168
 30
0.000000
  70
    32
  0
VERTEX
  8
0
  5
1B427
 10
-385.553
 20
841.165
 30
0.000000
  70
    32
  0
VERTEX
  8
0
  5
1B428
 10
-385.554
 20
841.162
 30
0.000000
  70
    32
  0
VERTEX
  8
0
  5
1B429
 10
-385.555
 20
841.159
 30
0.000000
  70
    32
  0
VERTEX
  8
0
  5
1B42A
 10
-385.556
 20
841.156
 30
0.000000
  70
    32
  0
VERTEX
  8
0
  5
1B42B
 10
-385.556
 20
841.153
 30
0.000000
  70
    32
  0
VERTEX
  8
0
  5
1B42C
 10
-385.557
 20
841.150
 30
0.000000
  70
    32
  0
VERTEX
  8
0
  5
1B42D
 10
-385.557
 20
841.147
 30
0.000000
  70
    32
  0
VERTEX
  8
0
  5
1B42E
 10
-385.558
 20
841.144
 30
0.000000
  70
    32
  0
VERTEX
  8
0
  5
1B42F
 10
-385.559
 20
841.141
 30
0.000000
  70
    32
  0
VERTEX
  8
0
  5
1B430
 10
-385.559
 20
841.138
 30
0.000000
  70
    32
  0
VERTEX
  8
0
  5
1B431
 10
-385.560
 20
841.135
 30
0.000000
  70
    32
  0
VERTEX
  8
0
  5
1B432
 10
-385.560
 20
841.132
 30
0.000000
  70
    32
  0
VERTEX
  8
0
  5
1B433
 10
-385.561
 20
841.129
 30
0.000000
  70
    32
  0
VERTEX
  8
0
  5
1B434
 10
-385.561
 20
841.126
 30
0.000000
  70
    32
  0
VERTEX
  8
0
  5
1B435
 10
-385.561
 20
841.123
 30
0.000000
  70
    32
  0
VERTEX
  8
0
  5
1B436
 10
-385.562
 20
841.119
 30
0.000000
  70
    32
  0
VERTEX
  8
0
  5
1B437
 10
-385.562
 20
841.116
 30
0.000000
  70
    32
  0
VERTEX
  8
0
  5
1B438
 10
-385.562
 20
841.113
 30
0.000000
  70
    32
  0
VERTEX
  8
0
  5
1B439
 10
-385.563
 20
841.110
 30
0.000000
  70
    32
  0
VERTEX
  8
0
  5
1B43A
 10
-385.563
 20
841.107
 30
0.000000
  70
    32
  0
VERTEX
  8
0
  5
1B43B
 10
-385.563
 20
841.104
 30
0.000000
  70
    32
  0
VERTEX
  8
0
  5
1B43C
 10
-385.563
 20
841.101
 30
0.000000
  70
    32
  0
VERTEX
  8
0
  5
1B43D
 10
-385.564
 20
841.098
 30
0.000000
  70
    32
  0
VERTEX
  8
0
  5
1B43E
 10
-385.564
 20
841.095
 30
0.000000
  70
    32
  0
VERTEX
  8
0
  5
1B43F
 10
-385.564
 20
841.091
 30
0.000000
  70
    32
  0
VERTEX
  8
0
  5
1B440
 10
-385.564
 20
841.088
 30
0.000000
  70
    32
  0
VERTEX
  8
0
  5
1B441
 10
-385.564
 20
841.085
 30
0.000000
  70
    32
  0
VERTEX
  8
0
  5
1B442
 10
-385.564
 20
841.082
 30
0.000000
  70
    32
  0
VERTEX
  8
0
  5
1B443
 10
-385.564
 20
841.079
 30
0.000000
  70
    32
  0
VERTEX
  8
0
  5
1B444
 10
-385.564
 20
841.076
 30
0.000000
  70
    32
  0
VERTEX
  8
0
  5
1B445
 10
-385.564
 20
841.073
 30
0.000000
  70
    32
  0
VERTEX
  8
0
  5
1B446
 10
-385.564
 20
841.070
 30
0.000000
  70
    32
  0
VERTEX
  8
0
  5
1B447
 10
-385.563
 20
841.067
 30
0.000000
  70
    32
  0
VERTEX
  8
0
  5
1B448
 10
-385.563
 20
841.063
 30
0.000000
  70
    32
  0
VERTEX
  8
0
  5
1B449
 10
-385.563
 20
841.060
 30
0.000000
  70
    32
  0
VERTEX
  8
0
  5
1B44A
 10
-385.563
 20
841.057
 30
0.000000
  70
    32
  0
VERTEX
  8
0
  5
1B44B
 10
-385.562
 20
841.054
 30
0.000000
  70
    32
  0
VERTEX
  8
0
  5
1B44C
 10
-385.562
 20
841.051
 30
0.000000
  70
    32
  0
VERTEX
  8
0
  5
1B44D
 10
-385.562
 20
841.048
 30
0.000000
  70
    32
  0
VERTEX
  8
0
  5
1B44E
 10
-385.561
 20
841.045
 30
0.000000
  70
    32
  0
VERTEX
  8
0
  5
1B44F
 10
-385.561
 20
841.042
 30
0.000000
  70
    32
  0
VERTEX
  8
0
  5
1B450
 10
-385.561
 20
841.039
 30
0.000000
  70
    32
  0
VERTEX
  8
0
  5
1B451
 10
-385.560
 20
841.036
 30
0.000000
  70
    32
  0
VERTEX
  8
0
  5
1B452
 10
-385.560
 20
841.032
 30
0.000000
  70
    32
  0
VERTEX
  8
0
  5
1B453
 10
-385.559
 20
841.029
 30
0.000000
  70
    32
  0
VERTEX
  8
0
  5
1B454
 10
-385.558
 20
841.026
 30
0.000000
  70
    32
  0
VERTEX
  8
0
  5
1B455
 10
-385.558
 20
841.023
 30
0.000000
  70
    32
  0
VERTEX
  8
0
  5
1B456
 10
-385.557
 20
841.020
 30
0.000000
  70
    32
  0
VERTEX
  8
0
  5
1B457
 10
-385.556
 20
841.017
 30
0.000000
  70
    32
  0
VERTEX
  8
0
  5
1B458
 10
-385.556
 20
841.014
 30
0.000000
  70
    32
  0
VERTEX
  8
0
  5
1B459
 10
-385.555
 20
841.011
 30
0.000000
  70
    32
  0
VERTEX
  8
0
  5
1B45A
 10
-385.554
 20
841.008
 30
0.000000
  70
    32
  0
VERTEX
  8
0
  5
1B45B
 10
-385.553
 20
841.005
 30
0.000000
  70
    32
  0
VERTEX
  8
0
  5
1B45C
 10
-385.553
 20
841.002
 30
0.000000
  70
    32
  0
VERTEX
  8
0
  5
1B45D
 10
-385.552
 20
840.999
 30
0.000000
  70
    32
  0
VERTEX
  8
0
  5
1B45E
 10
-385.551
 20
840.996
 30
0.000000
  70
    32
  0
VERTEX
  8
0
  5
1B45F
 10
-385.550
 20
840.993
 30
0.000000
  70
    32
  0
VERTEX
  8
0
  5
1B460
 10
-385.549
 20
840.990
 30
0.000000
  70
    32
  0
VERTEX
  8
0
  5
1B461
 10
-385.548
 20
840.987
 30
0.000000
  70
    32
  0
VERTEX
  8
0
  5
1B462
 10
-385.547
 20
840.984
 30
0.000000
  70
    32
  0
VERTEX
  8
0
  5
1B463
 10
-385.546
 20
840.981
 30
0.000000
  70
    32
  0
VERTEX
  8
0
  5
1B464
 10
-385.545
 20
840.978
 30
0.000000
  70
    32
  0
VERTEX
  8
0
  5
1B465
 10
-385.543
 20
840.976
 30
0.000000
  70
    32
  0
VERTEX
  8
0
  5
1B466
 10
-385.542
 20
840.973
 30
0.000000
  70
    32
  0
VERTEX
  8
0
  5
1B467
 10
-385.541
 20
840.970
 30
0.000000
  70
    32
  0
VERTEX
  8
0
  5
1B468
 10
-385.540
 20
840.967
 30
0.000000
  70
    32
  0
VERTEX
  8
0
  5
1B469
 10
-385.538
 20
840.964
 30
0.000000
  70
    32
  0
VERTEX
  8
0
  5
1B46A
 10
-385.537
 20
840.961
 30
0.000000
  70
    32
  0
VERTEX
  8
0
  5
1B46B
 10
-385.536
 20
840.958
 30
0.000000
  70
    32
  0
VERTEX
  8
0
  5
1B46C
 10
-385.534
 20
840.956
 30
0.000000
  70
    32
  0
VERTEX
  8
0
  5
1B46D
 10
-385.533
 20
840.953
 30
0.000000
  70
    32
  0
VERTEX
  8
0
  5
1B46E
 10
-385.531
 20
840.950
 30
0.000000
  70
    32
  0
VERTEX
  8
0
  5
1B46F
 10
-385.530
 20
840.947
 30
0.000000
  70
    32
  0
VERTEX
  8
0
  5
1B470
 10
-385.528
 20
840.945
 30
0.000000
  70
    32
  0
VERTEX
  8
0
  5
1B471
 10
-385.527
 20
840.942
 30
0.000000
  70
    32
  0
VERTEX
  8
0
  5
1B472
 10
-385.525
 20
840.939
 30
0.000000
  70
    32
  0
VERTEX
  8
0
  5
1B473
 10
-385.524
 20
840.937
 30
0.000000
  70
    32
  0
VERTEX
  8
0
  5
1B474
 10
-385.522
 20
840.934
 30
0.000000
  70
    32
  0
VERTEX
  8
0
  5
1B475
 10
-385.520
 20
840.931
 30
0.000000
  70
    32
  0
VERTEX
  8
0
  5
1B476
 10
-385.518
 20
840.929
 30
0.000000
  70
    32
  0
VERTEX
  8
0
  5
1B477
 10
-385.517
 20
840.926
 30
0.000000
  70
    32
  0
VERTEX
  8
0
  5
1B478
 10
-385.515
 20
840.924
 30
0.000000
  70
    32
  0
VERTEX
  8
0
  5
1B479
 10
-385.513
 20
840.921
 30
0.000000
  70
    32
  0
VERTEX
  8
0
  5
1B47A
 10
-385.511
 20
840.919
 30
0.000000
  70
    32
  0
VERTEX
  8
0
  5
1B47B
 10
-385.509
 20
840.916
 30
0.000000
  70
    32
  0
VERTEX
  8
0
  5
1B47C
 10
-385.507
 20
840.914
 30
0.000000
  70
    32
  0
VERTEX
  8
0
  5
1B47D
 10
-385.505
 20
840.911
 30
0.000000
  70
    32
  0
VERTEX
  8
0
  5
1B47E
 10
-385.503
 20
840.909
 30
0.000000
  70
    32
  0
VERTEX
  8
0
  5
1B47F
 10
-385.501
 20
840.907
 30
0.000000
  70
    32
  0
VERTEX
  8
0
  5
1B480
 10
-385.499
 20
840.904
 30
0.000000
  70
    32
  0
VERTEX
  8
0
  5
1B481
 10
-385.497
 20
840.902
 30
0.000000
  70
    32
  0
VERTEX
  8
0
  5
1B482
 10
-385.495
 20
840.900
 30
0.000000
  70
    32
  0
VERTEX
  8
0
  5
1B483
 10
-385.493
 20
840.898
 30
0.000000
  70
    32
  0
VERTEX
  8
0
  5
1B484
 10
-385.490
 20
840.895
 30
0.000000
  70
    32
  0
VERTEX
  8
0
  5
1B485
 10
-385.488
 20
840.893
 30
0.000000
  70
    32
  0
VERTEX
  8
0
  5
1B486
 10
-385.486
 20
840.891
 30
0.000000
  70
    32
  0
VERTEX
  8
0
  5
1B487
 10
-385.483
 20
840.889
 30
0.000000
  70
    32
  0
VERTEX
  8
0
  5
1B488
 10
-385.481
 20
840.887
 30
0.000000
  70
    32
  0
VERTEX
  8
0
  5
1B489
 10
-385.479
 20
840.885
 30
0.000000
  70
    32
  0
VERTEX
  8
0
  5
1B48A
 10
-385.476
 20
840.883
 30
0.000000
  70
    32
  0
VERTEX
  8
0
  5
1B48B
 10
-385.474
 20
840.881
 30
0.000000
  70
    32
  0
VERTEX
  8
0
  5
1B48C
 10
-385.471
 20
840.879
 30
0.000000
  70
    32
  0
VERTEX
  8
0
  5
1B48D
 10
-385.469
 20
840.878
 30
0.000000
  70
    32
  0
VERTEX
  8
0
  5
1B48E
 10
-385.466
 20
840.876
 30
0.000000
  70
    32
  0
VERTEX
  8
0
  5
1B48F
 10
-385.464
 20
840.874
 30
0.000000
  70
    32
  0
VERTEX
  8
0
  5
1B490
 10
-385.461
 20
840.873
 30
0.000000
  70
    32
  0
VERTEX
  8
0
  5
1B491
 10
-385.459
 20
840.871
 30
0.000000
  70
    32
  0
VERTEX
  8
0
  5
1B492
 10
-385.456
 20
840.869
 30
0.000000
  70
    32
  0
VERTEX
  8
0
  5
1B493
 10
-385.453
 20
840.868
 30
0.000000
  70
    32
  0
VERTEX
  8
0
  5
1B494
 10
-385.451
 20
840.867
 30
0.000000
  70
    32
  0
VERTEX
  8
0
  5
1B495
 10
-385.448
 20
840.865
 30
0.000000
  70
    32
  0
VERTEX
  8
0
  5
1B496
 10
-385.445
 20
840.864
 30
0.000000
  70
    32
  0
VERTEX
  8
0
  5
1B497
 10
-385.442
 20
840.863
 30
0.000000
  70
    32
  0
VERTEX
  8
0
  5
1B498
 10
-385.440
 20
840.861
 30
0.000000
  70
    32
  0
VERTEX
  8
0
  5
1B499
 10
-385.437
 20
840.860
 30
0.000000
  70
    32
  0
VERTEX
  8
0
  5
1B49A
 10
-385.434
 20
840.859
 30
0.000000
  70
    32
  0
VERTEX
  8
0
  5
1B49B
 10
-385.431
 20
840.858
 30
0.000000
  70
    32
  0
VERTEX
  8
0
  5
1B49C
 10
-385.428
 20
840.857
 30
0.000000
  70
    32
  0
VERTEX
  8
0
  5
1B49D
 10
-385.425
 20
840.856
 30
0.000000
  70
    32
  0
VERTEX
  8
0
  5
1B49E
 10
-385.422
 20
840.855
 30
0.000000
  70
    32
  0
VERTEX
  8
0
  5
1B49F
 10
-385.420
 20
840.854
 30
0.000000
  70
    32
  0
VERTEX
  8
0
  5
1B4A0
 10
-385.417
 20
840.853
 30
0.000000
  70
    32
  0
VERTEX
  8
0
  5
1B4A1
 10
-385.414
 20
840.852
 30
0.000000
  70
    32
  0
VERTEX
  8
0
  5
1B4A2
 10
-385.411
 20
840.851
 30
0.000000
  70
    32
  0
VERTEX
  8
0
  5
1B4A3
 10
-385.408
 20
840.850
 30
0.000000
  70
    32
  0
VERTEX
  8
0
  5
1B4A4
 10
-385.405
 20
840.850
 30
0.000000
  70
    32
  0
VERTEX
  8
0
  5
1B4A5
 10
-385.402
 20
840.849
 30
0.000000
  70
    32
  0
VERTEX
  8
0
  5
1B4A6
 10
-385.399
 20
840.848
 30
0.000000
  70
    32
  0
VERTEX
  8
0
  5
1B4A7
 10
-385.396
 20
840.848
 30
0.000000
  70
    32
  0
VERTEX
  8
0
  5
1B4A8
 10
-385.392
 20
840.847
 30
0.000000
  70
    32
  0
VERTEX
  8
0
  5
1B4A9
 10
-385.389
 20
840.846
 30
0.000000
  70
    32
  0
VERTEX
  8
0
  5
1B4AA
 10
-385.386
 20
840.846
 30
0.000000
  70
    32
  0
VERTEX
  8
0
  5
1B4AB
 10
-385.383
 20
840.845
 30
0.000000
  70
    32
  0
VERTEX
  8
0
  5
1B4AC
 10
-385.380
 20
840.845
 30
0.000000
  70
    32
  0
VERTEX
  8
0
  5
1B4AD
 10
-385.377
 20
840.844
 30
0.000000
  70
    32
  0
VERTEX
  8
0
  5
1B4AE
 10
-385.374
 20
840.844
 30
0.000000
  70
    32
  0
VERTEX
  8
0
  5
1B4AF
 10
-385.371
 20
840.844
 30
0.000000
  70
    32
  0
VERTEX
  8
0
  5
1B4B0
 10
-385.368
 20
840.843
 30
0.000000
  70
    32
  0
VERTEX
  8
0
  5
1B4B1
 10
-385.364
 20
840.843
 30
0.000000
  70
    32
  0
VERTEX
  8
0
  5
1B4B2
 10
-385.361
 20
840.842
 30
0.000000
  70
    32
  0
VERTEX
  8
0
  5
1B4B3
 10
-385.358
 20
840.842
 30
0.000000
  70
    32
  0
VERTEX
  8
0
  5
1B4B4
 10
-385.355
 20
840.842
 30
0.000000
  70
    32
  0
VERTEX
  8
0
  5
1B4B5
 10
-385.352
 20
840.841
 30
0.000000
  70
    32
  0
VERTEX
  8
0
  5
1B4B6
 10
-385.349
 20
840.841
 30
0.000000
  70
    32
  0
VERTEX
  8
0
  5
1B4B7
 10
-385.346
 20
840.841
 30
0.000000
  70
    32
  0
VERTEX
  8
0
  5
1B4B8
 10
-385.343
 20
840.841
 30
0.000000
  70
    32
  0
VERTEX
  8
0
  5
1B4B9
 10
-385.339
 20
840.840
 30
0.000000
  70
    32
  0
VERTEX
  8
0
  5
1B4BA
 10
-385.336
 20
840.840
 30
0.000000
  70
    32
  0
VERTEX
  8
0
  5
1B4BB
 10
-385.333
 20
840.840
 30
0.000000
  70
    32
  0
VERTEX
  8
0
  5
1B4BC
 10
-385.330
 20
840.840
 30
0.000000
  70
    32
  0
VERTEX
  8
0
  5
1B4BD
 10
-385.327
 20
840.840
 30
0.000000
  70
    32
  0
VERTEX
  8
0
  5
1B4BE
 10
-385.324
 20
840.839
 30
0.000000
  70
    32
  0
VERTEX
  8
0
  5
1B4BF
 10
-385.321
 20
840.839
 30
0.000000
  70
    32
  0
VERTEX
  8
0
  5
1B4C0
 10
-385.318
 20
840.839
 30
0.000000
  70
    32
  0
VERTEX
  8
0
  5
1B4C1
 10
-385.314
 20
840.839
 30
0.000000
  70
    32
  0
VERTEX
  8
0
  5
1B4C2
 10
-385.311
 20
840.839
 30
0.000000
  70
    32
  0
VERTEX
  8
0
  5
1B4C3
 10
-385.308
 20
840.839
 30
0.000000
  70
    32
  0
VERTEX
  8
0
  5
1B4C4
 10
-385.305
 20
840.839
 30
0.000000
  70
    32
  0
VERTEX
  8
0
  5
1B4C5
 10
-385.302
 20
840.839
 30
0.000000
  70
    32
  0
VERTEX
  8
0
  5
1B4C6
 10
-385.299
 20
840.839
 30
0.000000
  70
    32
  0
VERTEX
  8
0
  5
1B4C7
 10
-385.296
 20
840.838
 30
0.000000
  70
    32
  0
VERTEX
  8
0
  5
1B4C8
 10
-385.293
 20
840.838
 30
0.000000
  70
    32
  0
VERTEX
  8
0
  5
1B4C9
 10
-385.290
 20
840.838
 30
0.000000
  70
    32
  0
VERTEX
  8
0
  5
1B4CA
 10
-385.287
 20
840.838
 30
0.000000
  70
    32
  0
VERTEX
  8
0
  5
1B4CB
 10
-385.284
 20
840.838
 30
0.000000
  70
    32
  0
VERTEX
  8
0
  5
1B4CC
 10
-385.280
 20
840.838
 30
0.000000
  70
    32
  0
VERTEX
  8
0
  5
1B4CD
 10
-385.277
 20
840.838
 30
0.000000
  70
    32
  0
VERTEX
  8
0
  5
1B4CE
 10
-385.274
 20
840.838
 30
0.000000
  70
    32
  0
VERTEX
  8
0
  5
1B4CF
 10
-385.271
 20
840.838
 30
0.000000
  70
    32
  0
VERTEX
  8
0
  5
1B4D0
 10
-385.268
 20
840.838
 30
0.000000
  70
    32
  0
VERTEX
  8
0
  5
1B4D1
 10
-385.265
 20
840.838
 30
0.000000
  70
    32
  0
VERTEX
  8
0
  5
1B4D2
 10
-385.262
 20
840.838
 30
0.000000
  70
    32
  0
VERTEX
  8
0
  5
1B4D3
 10
-385.259
 20
840.838
 30
0.000000
  70
    32
  0
VERTEX
  8
0
  5
1B4D4
 10
-385.256
 20
840.838
 30
0.000000
  70
    32
  0
VERTEX
  8
0
  5
1B4D5
 10
-385.253
 20
840.838
 30
0.000000
  70
    32
  0
VERTEX
  8
0
  5
1B4D6
 10
-385.250
 20
840.838
 30
0.000000
  70
    32
  0
VERTEX
  8
0
  5
1B4D7
 10
-385.247
 20
840.838
 30
0.000000
  70
    32
  0
VERTEX
  8
0
  5
1B4D8
 10
-385.244
 20
840.838
 30
0.000000
  70
    32
  0
VERTEX
  8
0
  5
1B4D9
 10
-385.241
 20
840.838
 30
0.000000
  70
    32
  0
VERTEX
  8
0
  5
1B4DA
 10
-385.238
 20
840.838
 30
0.000000
  70
    32
  0
VERTEX
  8
0
  5
1B4DB
 10
-385.234
 20
840.838
 30
0.000000
  70
    32
  0
VERTEX
  8
0
  5
1B4DC
 10
-385.231
 20
840.838
 30
0.000000
  70
    32
  0
VERTEX
  8
0
  5
1B4DD
 10
-385.228
 20
840.838
 30
0.000000
  70
    32
  0
VERTEX
  8
0
  5
1B4DE
 10
-385.225
 20
840.838
 30
0.000000
  70
    32
  0
VERTEX
  8
0
  5
1B4DF
 10
-385.222
 20
840.839
 30
0.000000
  70
    32
  0
VERTEX
  8
0
  5
1B4E0
 10
-385.219
 20
840.839
 30
0.000000
  70
    32
  0
VERTEX
  8
0
  5
1B4E1
 10
-385.216
 20
840.839
 30
0.000000
  70
    32
  0
VERTEX
  8
0
  5
1B4E2
 10
-385.213
 20
840.839
 30
0.000000
  70
    32
  0
SEQEND
  8
0
  5
1B4E3
  0
ARC
  5
1AEA9
  8
0
 10
-387.33020838211007
 20
840.49490101183289
 30
0.0
 40
0.25
 50
90.0
 51
180.0
  0
POLYLINE
  8
0
  5
1B4E4
  66
     1
 10
0.000000
 20
0.000000
 30
0.000000
  70
     8
  0
VERTEX
  8
0
  5
1B4E5
 10
-387.361
 20
841.865
 30
0.000000
  70
    32
  0
VERTEX
  8
0
  5
1B4E6
 10
-387.360
 20
841.862
 30
0.000000
  70
    32
  0
VERTEX
  8
0
  5
1B4E7
 10
-387.359
 20
841.859
 30
0.000000
  70
    32
  0
VERTEX
  8
0
  5
1B4E8
 10
-387.359
 20
841.856
 30
0.000000
  70
    32
  0
VERTEX
  8
0
  5
1B4E9
 10
-387.358
 20
841.853
 30
0.000000
  70
    32
  0
VERTEX
  8
0
  5
1B4EA
 10
-387.357
 20
841.850
 30
0.000000
  70
    32
  0
VERTEX
  8
0
  5
1B4EB
 10
-387.356
 20
841.847
 30
0.000000
  70
    32
  0
VERTEX
  8
0
  5
1B4EC
 10
-387.356
 20
841.844
 30
0.000000
  70
    32
  0
VERTEX
  8
0
  5
1B4ED
 10
-387.355
 20
841.841
 30
0.000000
  70
    32
  0
VERTEX
  8
0
  5
1B4EE
 10
-387.354
 20
841.838
 30
0.000000
  70
    32
  0
VERTEX
  8
0
  5
1B4EF
 10
-387.354
 20
841.835
 30
0.000000
  70
    32
  0
VERTEX
  8
0
  5
1B4F0
 10
-387.353
 20
841.832
 30
0.000000
  70
    32
  0
VERTEX
  8
0
  5
1B4F1
 10
-387.352
 20
841.829
 30
0.000000
  70
    32
  0
VERTEX
  8
0
  5
1B4F2
 10
-387.352
 20
841.826
 30
0.000000
  70
    32
  0
VERTEX
  8
0
  5
1B4F3
 10
-387.351
 20
841.823
 30
0.000000
  70
    32
  0
VERTEX
  8
0
  5
1B4F4
 10
-387.350
 20
841.820
 30
0.000000
  70
    32
  0
VERTEX
  8
0
  5
1B4F5
 10
-387.349
 20
841.817
 30
0.000000
  70
    32
  0
VERTEX
  8
0
  5
1B4F6
 10
-387.349
 20
841.814
 30
0.000000
  70
    32
  0
VERTEX
  8
0
  5
1B4F7
 10
-387.348
 20
841.811
 30
0.000000
  70
    32
  0
VERTEX
  8
0
  5
1B4F8
 10
-387.347
 20
841.808
 30
0.000000
  70
    32
  0
VERTEX
  8
0
  5
1B4F9
 10
-387.346
 20
841.805
 30
0.000000
  70
    32
  0
VERTEX
  8
0
  5
1B4FA
 10
-387.346
 20
841.802
 30
0.000000
  70
    32
  0
VERTEX
  8
0
  5
1B4FB
 10
-387.345
 20
841.799
 30
0.000000
  70
    32
  0
VERTEX
  8
0
  5
1B4FC
 10
-387.344
 20
841.796
 30
0.000000
  70
    32
  0
VERTEX
  8
0
  5
1B4FD
 10
-387.343
 20
841.793
 30
0.000000
  70
    32
  0
VERTEX
  8
0
  5
1B4FE
 10
-387.342
 20
841.790
 30
0.000000
  70
    32
  0
VERTEX
  8
0
  5
1B4FF
 10
-387.342
 20
841.787
 30
0.000000
  70
    32
  0
VERTEX
  8
0
  5
1B500
 10
-387.341
 20
841.784
 30
0.000000
  70
    32
  0
VERTEX
  8
0
  5
1B501
 10
-387.340
 20
841.781
 30
0.000000
  70
    32
  0
VERTEX
  8
0
  5
1B502
 10
-387.339
 20
841.778
 30
0.000000
  70
    32
  0
VERTEX
  8
0
  5
1B503
 10
-387.338
 20
841.775
 30
0.000000
  70
    32
  0
VERTEX
  8
0
  5
1B504
 10
-387.338
 20
841.772
 30
0.000000
  70
    32
  0
VERTEX
  8
0
  5
1B505
 10
-387.337
 20
841.769
 30
0.000000
  70
    32
  0
VERTEX
  8
0
  5
1B506
 10
-387.336
 20
841.767
 30
0.000000
  70
    32
  0
VERTEX
  8
0
  5
1B507
 10
-387.335
 20
841.764
 30
0.000000
  70
    32
  0
VERTEX
  8
0
  5
1B508
 10
-387.334
 20
841.761
 30
0.000000
  70
    32
  0
VERTEX
  8
0
  5
1B509
 10
-387.333
 20
841.758
 30
0.000000
  70
    32
  0
VERTEX
  8
0
  5
1B50A
 10
-387.332
 20
841.755
 30
0.000000
  70
    32
  0
VERTEX
  8
0
  5
1B50B
 10
-387.331
 20
841.752
 30
0.000000
  70
    32
  0
VERTEX
  8
0
  5
1B50C
 10
-387.331
 20
841.749
 30
0.000000
  70
    32
  0
VERTEX
  8
0
  5
1B50D
 10
-387.330
 20
841.746
 30
0.000000
  70
    32
  0
VERTEX
  8
0
  5
1B50E
 10
-387.329
 20
841.743
 30
0.000000
  70
    32
  0
VERTEX
  8
0
  5
1B50F
 10
-387.328
 20
841.740
 30
0.000000
  70
    32
  0
VERTEX
  8
0
  5
1B510
 10
-387.327
 20
841.737
 30
0.000000
  70
    32
  0
VERTEX
  8
0
  5
1B511
 10
-387.326
 20
841.734
 30
0.000000
  70
    32
  0
VERTEX
  8
0
  5
1B512
 10
-387.325
 20
841.731
 30
0.000000
  70
    32
  0
VERTEX
  8
0
  5
1B513
 10
-387.324
 20
841.728
 30
0.000000
  70
    32
  0
VERTEX
  8
0
  5
1B514
 10
-387.323
 20
841.725
 30
0.000000
  70
    32
  0
VERTEX
  8
0
  5
1B515
 10
-387.322
 20
841.723
 30
0.000000
  70
    32
  0
VERTEX
  8
0
  5
1B516
 10
-387.321
 20
841.720
 30
0.000000
  70
    32
  0
VERTEX
  8
0
  5
1B517
 10
-387.320
 20
841.717
 30
0.000000
  70
    32
  0
VERTEX
  8
0
  5
1B518
 10
-387.319
 20
841.714
 30
0.000000
  70
    32
  0
VERTEX
  8
0
  5
1B519
 10
-387.318
 20
841.711
 30
0.000000
  70
    32
  0
VERTEX
  8
0
  5
1B51A
 10
-387.317
 20
841.708
 30
0.000000
  70
    32
  0
VERTEX
  8
0
  5
1B51B
 10
-387.316
 20
841.705
 30
0.000000
  70
    32
  0
VERTEX
  8
0
  5
1B51C
 10
-387.315
 20
841.702
 30
0.000000
  70
    32
  0
VERTEX
  8
0
  5
1B51D
 10
-387.313
 20
841.699
 30
0.000000
  70
    32
  0
VERTEX
  8
0
  5
1B51E
 10
-387.312
 20
841.696
 30
0.000000
  70
    32
  0
VERTEX
  8
0
  5
1B51F
 10
-387.311
 20
841.694
 30
0.000000
  70
    32
  0
VERTEX
  8
0
  5
1B520
 10
-387.310
 20
841.691
 30
0.000000
  70
    32
  0
VERTEX
  8
0
  5
1B521
 10
-387.309
 20
841.688
 30
0.000000
  70
    32
  0
VERTEX
  8
0
  5
1B522
 10
-387.308
 20
841.685
 30
0.000000
  70
    32
  0
VERTEX
  8
0
  5
1B523
 10
-387.307
 20
841.682
 30
0.000000
  70
    32
  0
VERTEX
  8
0
  5
1B524
 10
-387.306
 20
841.679
 30
0.000000
  70
    32
  0
VERTEX
  8
0
  5
1B525
 10
-387.304
 20
841.676
 30
0.000000
  70
    32
  0
VERTEX
  8
0
  5
1B526
 10
-387.303
 20
841.674
 30
0.000000
  70
    32
  0
VERTEX
  8
0
  5
1B527
 10
-387.302
 20
841.671
 30
0.000000
  70
    32
  0
VERTEX
  8
0
  5
1B528
 10
-387.301
 20
841.668
 30
0.000000
  70
    32
  0
VERTEX
  8
0
  5
1B529
 10
-387.300
 20
841.665
 30
0.000000
  70
    32
  0
VERTEX
  8
0
  5
1B52A
 10
-387.299
 20
841.662
 30
0.000000
  70
    32
  0
VERTEX
  8
0
  5
1B52B
 10
-387.297
 20
841.659
 30
0.000000
  70
    32
  0
VERTEX
  8
0
  5
1B52C
 10
-387.296
 20
841.656
 30
0.000000
  70
    32
  0
VERTEX
  8
0
  5
1B52D
 10
-387.295
 20
841.654
 30
0.000000
  70
    32
  0
VERTEX
  8
0
  5
1B52E
 10
-387.294
 20
841.651
 30
0.000000
  70
    32
  0
VERTEX
  8
0
  5
1B52F
 10
-387.292
 20
841.648
 30
0.000000
  70
    32
  0
VERTEX
  8
0
  5
1B530
 10
-387.291
 20
841.645
 30
0.000000
  70
    32
  0
VERTEX
  8
0
  5
1B531
 10
-387.290
 20
841.642
 30
0.000000
  70
    32
  0
VERTEX
  8
0
  5
1B532
 10
-387.289
 20
841.640
 30
0.000000
  70
    32
  0
VERTEX
  8
0
  5
1B533
 10
-387.287
 20
841.637
 30
0.000000
  70
    32
  0
VERTEX
  8
0
  5
1B534
 10
-387.286
 20
841.634
 30
0.000000
  70
    32
  0
VERTEX
  8
0
  5
1B535
 10
-387.285
 20
841.631
 30
0.000000
  70
    32
  0
VERTEX
  8
0
  5
1B536
 10
-387.283
 20
841.628
 30
0.000000
  70
    32
  0
VERTEX
  8
0
  5
1B537
 10
-387.282
 20
841.626
 30
0.000000
  70
    32
  0
VERTEX
  8
0
  5
1B538
 10
-387.281
 20
841.623
 30
0.000000
  70
    32
  0
VERTEX
  8
0
  5
1B539
 10
-387.279
 20
841.620
 30
0.000000
  70
    32
  0
VERTEX
  8
0
  5
1B53A
 10
-387.278
 20
841.617
 30
0.000000
  70
    32
  0
VERTEX
  8
0
  5
1B53B
 10
-387.277
 20
841.615
 30
0.000000
  70
    32
  0
VERTEX
  8
0
  5
1B53C
 10
-387.275
 20
841.612
 30
0.000000
  70
    32
  0
VERTEX
  8
0
  5
1B53D
 10
-387.274
 20
841.609
 30
0.000000
  70
    32
  0
VERTEX
  8
0
  5
1B53E
 10
-387.273
 20
841.606
 30
0.000000
  70
    32
  0
VERTEX
  8
0
  5
1B53F
 10
-387.271
 20
841.603
 30
0.000000
  70
    32
  0
VERTEX
  8
0
  5
1B540
 10
-387.270
 20
841.601
 30
0.000000
  70
    32
  0
VERTEX
  8
0
  5
1B541
 10
-387.268
 20
841.598
 30
0.000000
  70
    32
  0
VERTEX
  8
0
  5
1B542
 10
-387.267
 20
841.595
 30
0.000000
  70
    32
  0
VERTEX
  8
0
  5
1B543
 10
-387.266
 20
841.593
 30
0.000000
  70
    32
  0
VERTEX
  8
0
  5
1B544
 10
-387.264
 20
841.590
 30
0.000000
  70
    32
  0
VERTEX
  8
0
  5
1B545
 10
-387.263
 20
841.587
 30
0.000000
  70
    32
  0
VERTEX
  8
0
  5
1B546
 10
-387.261
 20
841.584
 30
0.000000
  70
    32
  0
VERTEX
  8
0
  5
1B547
 10
-387.260
 20
841.582
 30
0.000000
  70
    32
  0
VERTEX
  8
0
  5
1B548
 10
-387.258
 20
841.579
 30
0.000000
  70
    32
  0
VERTEX
  8
0
  5
1B549
 10
-387.257
 20
841.576
 30
0.000000
  70
    32
  0
VERTEX
  8
0
  5
1B54A
 10
-387.255
 20
841.574
 30
0.000000
  70
    32
  0
VERTEX
  8
0
  5
1B54B
 10
-387.254
 20
841.571
 30
0.000000
  70
    32
  0
VERTEX
  8
0
  5
1B54C
 10
-387.253
 20
841.568
 30
0.000000
  70
    32
  0
VERTEX
  8
0
  5
1B54D
 10
-387.251
 20
841.565
 30
0.000000
  70
    32
  0
VERTEX
  8
0
  5
1B54E
 10
-387.250
 20
841.563
 30
0.000000
  70
    32
  0
VERTEX
  8
0
  5
1B54F
 10
-387.248
 20
841.560
 30
0.000000
  70
    32
  0
VERTEX
  8
0
  5
1B550
 10
-387.247
 20
841.557
 30
0.000000
  70
    32
  0
VERTEX
  8
0
  5
1B551
 10
-387.245
 20
841.555
 30
0.000000
  70
    32
  0
VERTEX
  8
0
  5
1B552
 10
-387.243
 20
841.552
 30
0.000000
  70
    32
  0
VERTEX
  8
0
  5
1B553
 10
-387.242
 20
841.549
 30
0.000000
  70
    32
  0
VERTEX
  8
0
  5
1B554
 10
-387.240
 20
841.547
 30
0.000000
  70
    32
  0
VERTEX
  8
0
  5
1B555
 10
-387.239
 20
841.544
 30
0.000000
  70
    32
  0
VERTEX
  8
0
  5
1B556
 10
-387.237
 20
841.541
 30
0.000000
  70
    32
  0
VERTEX
  8
0
  5
1B557
 10
-387.236
 20
841.539
 30
0.000000
  70
    32
  0
VERTEX
  8
0
  5
1B558
 10
-387.234
 20
841.536
 30
0.000000
  70
    32
  0
VERTEX
  8
0
  5
1B559
 10
-387.233
 20
841.533
 30
0.000000
  70
    32
  0
VERTEX
  8
0
  5
1B55A
 10
-387.231
 20
841.531
 30
0.000000
  70
    32
  0
VERTEX
  8
0
  5
1B55B
 10
-387.230
 20
841.528
 30
0.000000
  70
    32
  0
VERTEX
  8
0
  5
1B55C
 10
-387.228
 20
841.525
 30
0.000000
  70
    32
  0
VERTEX
  8
0
  5
1B55D
 10
-387.226
 20
841.523
 30
0.000000
  70
    32
  0
VERTEX
  8
0
  5
1B55E
 10
-387.225
 20
841.520
 30
0.000000
  70
    32
  0
VERTEX
  8
0
  5
1B55F
 10
-387.223
 20
841.518
 30
0.000000
  70
    32
  0
VERTEX
  8
0
  5
1B560
 10
-387.222
 20
841.515
 30
0.000000
  70
    32
  0
VERTEX
  8
0
  5
1B561
 10
-387.220
 20
841.512
 30
0.000000
  70
    32
  0
VERTEX
  8
0
  5
1B562
 10
-387.218
 20
841.510
 30
0.000000
  70
    32
  0
VERTEX
  8
0
  5
1B563
 10
-387.217
 20
841.507
 30
0.000000
  70
    32
  0
VERTEX
  8
0
  5
1B564
 10
-387.215
 20
841.504
 30
0.000000
  70
    32
  0
VERTEX
  8
0
  5
1B565
 10
-387.213
 20
841.502
 30
0.000000
  70
    32
  0
VERTEX
  8
0
  5
1B566
 10
-387.212
 20
841.499
 30
0.000000
  70
    32
  0
VERTEX
  8
0
  5
1B567
 10
-387.210
 20
841.497
 30
0.000000
  70
    32
  0
VERTEX
  8
0
  5
1B568
 10
-387.209
 20
841.494
 30
0.000000
  70
    32
  0
VERTEX
  8
0
  5
1B569
 10
-387.207
 20
841.491
 30
0.000000
  70
    32
  0
VERTEX
  8
0
  5
1B56A
 10
-387.205
 20
841.489
 30
0.000000
  70
    32
  0
VERTEX
  8
0
  5
1B56B
 10
-387.204
 20
841.486
 30
0.000000
  70
    32
  0
VERTEX
  8
0
  5
1B56C
 10
-387.202
 20
841.484
 30
0.000000
  70
    32
  0
VERTEX
  8
0
  5
1B56D
 10
-387.200
 20
841.481
 30
0.000000
  70
    32
  0
VERTEX
  8
0
  5
1B56E
 10
-387.199
 20
841.478
 30
0.000000
  70
    32
  0
VERTEX
  8
0
  5
1B56F
 10
-387.197
 20
841.476
 30
0.000000
  70
    32
  0
VERTEX
  8
0
  5
1B570
 10
-387.195
 20
841.473
 30
0.000000
  70
    32
  0
VERTEX
  8
0
  5
1B571
 10
-387.194
 20
841.471
 30
0.000000
  70
    32
  0
VERTEX
  8
0
  5
1B572
 10
-387.192
 20
841.468
 30
0.000000
  70
    32
  0
VERTEX
  8
0
  5
1B573
 10
-387.190
 20
841.465
 30
0.000000
  70
    32
  0
VERTEX
  8
0
  5
1B574
 10
-387.188
 20
841.463
 30
0.000000
  70
    32
  0
VERTEX
  8
0
  5
1B575
 10
-387.187
 20
841.460
 30
0.000000
  70
    32
  0
VERTEX
  8
0
  5
1B576
 10
-387.185
 20
841.458
 30
0.000000
  70
    32
  0
VERTEX
  8
0
  5
1B577
 10
-387.183
 20
841.455
 30
0.000000
  70
    32
  0
VERTEX
  8
0
  5
1B578
 10
-387.182
 20
841.453
 30
0.000000
  70
    32
  0
VERTEX
  8
0
  5
1B579
 10
-387.180
 20
841.450
 30
0.000000
  70
    32
  0
VERTEX
  8
0
  5
1B57A
 10
-387.178
 20
841.448
 30
0.000000
  70
    32
  0
VERTEX
  8
0
  5
1B57B
 10
-387.176
 20
841.445
 30
0.000000
  70
    32
  0
VERTEX
  8
0
  5
1B57C
 10
-387.174
 20
841.443
 30
0.000000
  70
    32
  0
VERTEX
  8
0
  5
1B57D
 10
-387.173
 20
841.440
 30
0.000000
  70
    32
  0
VERTEX
  8
0
  5
1B57E
 10
-387.171
 20
841.438
 30
0.000000
  70
    32
  0
VERTEX
  8
0
  5
1B57F
 10
-387.169
 20
841.435
 30
0.000000
  70
    32
  0
VERTEX
  8
0
  5
1B580
 10
-387.167
 20
841.433
 30
0.000000
  70
    32
  0
VERTEX
  8
0
  5
1B581
 10
-387.165
 20
841.430
 30
0.000000
  70
    32
  0
VERTEX
  8
0
  5
1B582
 10
-387.164
 20
841.428
 30
0.000000
  70
    32
  0
VERTEX
  8
0
  5
1B583
 10
-387.162
 20
841.425
 30
0.000000
  70
    32
  0
VERTEX
  8
0
  5
1B584
 10
-387.160
 20
841.423
 30
0.000000
  70
    32
  0
VERTEX
  8
0
  5
1B585
 10
-387.158
 20
841.420
 30
0.000000
  70
    32
  0
VERTEX
  8
0
  5
1B586
 10
-387.156
 20
841.418
 30
0.000000
  70
    32
  0
VERTEX
  8
0
  5
1B587
 10
-387.154
 20
841.415
 30
0.000000
  70
    32
  0
VERTEX
  8
0
  5
1B588
 10
-387.152
 20
841.413
 30
0.000000
  70
    32
  0
VERTEX
  8
0
  5
1B589
 10
-387.150
 20
841.411
 30
0.000000
  70
    32
  0
VERTEX
  8
0
  5
1B58A
 10
-387.149
 20
841.408
 30
0.000000
  70
    32
  0
VERTEX
  8
0
  5
1B58B
 10
-387.147
 20
841.406
 30
0.000000
  70
    32
  0
VERTEX
  8
0
  5
1B58C
 10
-387.145
 20
841.403
 30
0.000000
  70
    32
  0
VERTEX
  8
0
  5
1B58D
 10
-387.143
 20
841.401
 30
0.000000
  70
    32
  0
VERTEX
  8
0
  5
1B58E
 10
-387.141
 20
841.399
 30
0.000000
  70
    32
  0
VERTEX
  8
0
  5
1B58F
 10
-387.139
 20
841.396
 30
0.000000
  70
    32
  0
VERTEX
  8
0
  5
1B590
 10
-387.137
 20
841.394
 30
0.000000
  70
    32
  0
VERTEX
  8
0
  5
1B591
 10
-387.135
 20
841.392
 30
0.000000
  70
    32
  0
VERTEX
  8
0
  5
1B592
 10
-387.133
 20
841.389
 30
0.000000
  70
    32
  0
VERTEX
  8
0
  5
1B593
 10
-387.131
 20
841.387
 30
0.000000
  70
    32
  0
VERTEX
  8
0
  5
1B594
 10
-387.129
 20
841.385
 30
0.000000
  70
    32
  0
VERTEX
  8
0
  5
1B595
 10
-387.127
 20
841.382
 30
0.000000
  70
    32
  0
VERTEX
  8
0
  5
1B596
 10
-387.125
 20
841.380
 30
0.000000
  70
    32
  0
VERTEX
  8
0
  5
1B597
 10
-387.123
 20
841.378
 30
0.000000
  70
    32
  0
VERTEX
  8
0
  5
1B598
 10
-387.120
 20
841.376
 30
0.000000
  70
    32
  0
VERTEX
  8
0
  5
1B599
 10
-387.118
 20
841.373
 30
0.000000
  70
    32
  0
VERTEX
  8
0
  5
1B59A
 10
-387.116
 20
841.371
 30
0.000000
  70
    32
  0
VERTEX
  8
0
  5
1B59B
 10
-387.114
 20
841.369
 30
0.000000
  70
    32
  0
VERTEX
  8
0
  5
1B59C
 10
-387.112
 20
841.366
 30
0.000000
  70
    32
  0
VERTEX
  8
0
  5
1B59D
 10
-387.110
 20
841.364
 30
0.000000
  70
    32
  0
VERTEX
  8
0
  5
1B59E
 10
-387.108
 20
841.362
 30
0.000000
  70
    32
  0
VERTEX
  8
0
  5
1B59F
 10
-387.106
 20
841.360
 30
0.000000
  70
    32
  0
VERTEX
  8
0
  5
1B5A0
 10
-387.104
 20
841.357
 30
0.000000
  70
    32
  0
VERTEX
  8
0
  5
1B5A1
 10
-387.102
 20
841.355
 30
0.000000
  70
    32
  0
VERTEX
  8
0
  5
1B5A2
 10
-387.100
 20
841.353
 30
0.000000
  70
    32
  0
VERTEX
  8
0
  5
1B5A3
 10
-387.098
 20
841.351
 30
0.000000
  70
    32
  0
VERTEX
  8
0
  5
1B5A4
 10
-387.096
 20
841.348
 30
0.000000
  70
    32
  0
VERTEX
  8
0
  5
1B5A5
 10
-387.093
 20
841.346
 30
0.000000
  70
    32
  0
VERTEX
  8
0
  5
1B5A6
 10
-387.091
 20
841.344
 30
0.000000
  70
    32
  0
VERTEX
  8
0
  5
1B5A7
 10
-387.089
 20
841.341
 30
0.000000
  70
    32
  0
VERTEX
  8
0
  5
1B5A8
 10
-387.087
 20
841.339
 30
0.000000
  70
    32
  0
VERTEX
  8
0
  5
1B5A9
 10
-387.085
 20
841.337
 30
0.000000
  70
    32
  0
VERTEX
  8
0
  5
1B5AA
 10
-387.083
 20
841.334
 30
0.000000
  70
    32
  0
VERTEX
  8
0
  5
1B5AB
 10
-387.081
 20
841.332
 30
0.000000
  70
    32
  0
VERTEX
  8
0
  5
1B5AC
 10
-387.079
 20
841.330
 30
0.000000
  70
    32
  0
VERTEX
  8
0
  5
1B5AD
 10
-387.077
 20
841.327
 30
0.000000
  70
    32
  0
VERTEX
  8
0
  5
1B5AE
 10
-387.075
 20
841.325
 30
0.000000
  70
    32
  0
VERTEX
  8
0
  5
1B5AF
 10
-387.073
 20
841.323
 30
0.000000
  70
    32
  0
VERTEX
  8
0
  5
1B5B0
 10
-387.071
 20
841.320
 30
0.000000
  70
    32
  0
VERTEX
  8
0
  5
1B5B1
 10
-387.069
 20
841.318
 30
0.000000
  70
    32
  0
VERTEX
  8
0
  5
1B5B2
 10
-387.068
 20
841.315
 30
0.000000
  70
    32
  0
VERTEX
  8
0
  5
1B5B3
 10
-387.066
 20
841.313
 30
0.000000
  70
    32
  0
VERTEX
  8
0
  5
1B5B4
 10
-387.064
 20
841.311
 30
0.000000
  70
    32
  0
VERTEX
  8
0
  5
1B5B5
 10
-387.062
 20
841.308
 30
0.000000
  70
    32
  0
VERTEX
  8
0
  5
1B5B6
 10
-387.060
 20
841.306
 30
0.000000
  70
    32
  0
VERTEX
  8
0
  5
1B5B7
 10
-387.058
 20
841.303
 30
0.000000
  70
    32
  0
VERTEX
  8
0
  5
1B5B8
 10
-387.056
 20
841.301
 30
0.000000
  70
    32
  0
VERTEX
  8
0
  5
1B5B9
 10
-387.054
 20
841.298
 30
0.000000
  70
    32
  0
VERTEX
  8
0
  5
1B5BA
 10
-387.053
 20
841.296
 30
0.000000
  70
    32
  0
VERTEX
  8
0
  5
1B5BB
 10
-387.051
 20
841.293
 30
0.000000
  70
    32
  0
VERTEX
  8
0
  5
1B5BC
 10
-387.049
 20
841.291
 30
0.000000
  70
    32
  0
VERTEX
  8
0
  5
1B5BD
 10
-387.047
 20
841.288
 30
0.000000
  70
    32
  0
VERTEX
  8
0
  5
1B5BE
 10
-387.046
 20
841.286
 30
0.000000
  70
    32
  0
VERTEX
  8
0
  5
1B5BF
 10
-387.044
 20
841.283
 30
0.000000
  70
    32
  0
VERTEX
  8
0
  5
1B5C0
 10
-387.042
 20
841.281
 30
0.000000
  70
    32
  0
VERTEX
  8
0
  5
1B5C1
 10
-387.040
 20
841.278
 30
0.000000
  70
    32
  0
VERTEX
  8
0
  5
1B5C2
 10
-387.039
 20
841.275
 30
0.000000
  70
    32
  0
VERTEX
  8
0
  5
1B5C3
 10
-387.037
 20
841.273
 30
0.000000
  70
    32
  0
VERTEX
  8
0
  5
1B5C4
 10
-387.035
 20
841.270
 30
0.000000
  70
    32
  0
VERTEX
  8
0
  5
1B5C5
 10
-387.034
 20
841.268
 30
0.000000
  70
    32
  0
VERTEX
  8
0
  5
1B5C6
 10
-387.032
 20
841.265
 30
0.000000
  70
    32
  0
VERTEX
  8
0
  5
1B5C7
 10
-387.031
 20
841.262
 30
0.000000
  70
    32
  0
VERTEX
  8
0
  5
1B5C8
 10
-387.029
 20
841.260
 30
0.000000
  70
    32
  0
VERTEX
  8
0
  5
1B5C9
 10
-387.028
 20
841.257
 30
0.000000
  70
    32
  0
VERTEX
  8
0
  5
1B5CA
 10
-387.026
 20
841.254
 30
0.000000
  70
    32
  0
VERTEX
  8
0
  5
1B5CB
 10
-387.024
 20
841.252
 30
0.000000
  70
    32
  0
VERTEX
  8
0
  5
1B5CC
 10
-387.023
 20
841.249
 30
0.000000
  70
    32
  0
VERTEX
  8
0
  5
1B5CD
 10
-387.022
 20
841.246
 30
0.000000
  70
    32
  0
VERTEX
  8
0
  5
1B5CE
 10
-387.020
 20
841.243
 30
0.000000
  70
    32
  0
VERTEX
  8
0
  5
1B5CF
 10
-387.019
 20
841.241
 30
0.000000
  70
    32
  0
VERTEX
  8
0
  5
1B5D0
 10
-387.017
 20
841.238
 30
0.000000
  70
    32
  0
VERTEX
  8
0
  5
1B5D1
 10
-387.016
 20
841.235
 30
0.000000
  70
    32
  0
VERTEX
  8
0
  5
1B5D2
 10
-387.015
 20
841.232
 30
0.000000
  70
    32
  0
VERTEX
  8
0
  5
1B5D3
 10
-387.013
 20
841.229
 30
0.000000
  70
    32
  0
VERTEX
  8
0
  5
1B5D4
 10
-387.012
 20
841.227
 30
0.000000
  70
    32
  0
VERTEX
  8
0
  5
1B5D5
 10
-387.011
 20
841.224
 30
0.000000
  70
    32
  0
VERTEX
  8
0
  5
1B5D6
 10
-387.009
 20
841.221
 30
0.000000
  70
    32
  0
VERTEX
  8
0
  5
1B5D7
 10
-387.008
 20
841.218
 30
0.000000
  70
    32
  0
VERTEX
  8
0
  5
1B5D8
 10
-387.007
 20
841.215
 30
0.000000
  70
    32
  0
VERTEX
  8
0
  5
1B5D9
 10
-387.006
 20
841.212
 30
0.000000
  70
    32
  0
VERTEX
  8
0
  5
1B5DA
 10
-387.005
 20
841.210
 30
0.000000
  70
    32
  0
VERTEX
  8
0
  5
1B5DB
 10
-387.003
 20
841.207
 30
0.000000
  70
    32
  0
VERTEX
  8
0
  5
1B5DC
 10
-387.002
 20
841.204
 30
0.000000
  70
    32
  0
VERTEX
  8
0
  5
1B5DD
 10
-387.001
 20
841.201
 30
0.000000
  70
    32
  0
VERTEX
  8
0
  5
1B5DE
 10
-387.000
 20
841.198
 30
0.000000
  70
    32
  0
VERTEX
  8
0
  5
1B5DF
 10
-386.999
 20
841.195
 30
0.000000
  70
    32
  0
VERTEX
  8
0
  5
1B5E0
 10
-386.998
 20
841.192
 30
0.000000
  70
    32
  0
VERTEX
  8
0
  5
1B5E1
 10
-386.997
 20
841.189
 30
0.000000
  70
    32
  0
VERTEX
  8
0
  5
1B5E2
 10
-386.996
 20
841.186
 30
0.000000
  70
    32
  0
VERTEX
  8
0
  5
1B5E3
 10
-386.995
 20
841.183
 30
0.000000
  70
    32
  0
VERTEX
  8
0
  5
1B5E4
 10
-386.994
 20
841.180
 30
0.000000
  70
    32
  0
VERTEX
  8
0
  5
1B5E5
 10
-386.993
 20
841.177
 30
0.000000
  70
    32
  0
VERTEX
  8
0
  5
1B5E6
 10
-386.992
 20
841.174
 30
0.000000
  70
    32
  0
VERTEX
  8
0
  5
1B5E7
 10
-386.992
 20
841.171
 30
0.000000
  70
    32
  0
VERTEX
  8
0
  5
1B5E8
 10
-386.991
 20
841.168
 30
0.000000
  70
    32
  0
VERTEX
  8
0
  5
1B5E9
 10
-386.990
 20
841.165
 30
0.000000
  70
    32
  0
VERTEX
  8
0
  5
1B5EA
 10
-386.989
 20
841.162
 30
0.000000
  70
    32
  0
VERTEX
  8
0
  5
1B5EB
 10
-386.989
 20
841.159
 30
0.000000
  70
    32
  0
VERTEX
  8
0
  5
1B5EC
 10
-386.988
 20
841.156
 30
0.000000
  70
    32
  0
VERTEX
  8
0
  5
1B5ED
 10
-386.987
 20
841.153
 30
0.000000
  70
    32
  0
VERTEX
  8
0
  5
1B5EE
 10
-386.986
 20
841.150
 30
0.000000
  70
    32
  0
VERTEX
  8
0
  5
1B5EF
 10
-386.986
 20
841.147
 30
0.000000
  70
    32
  0
VERTEX
  8
0
  5
1B5F0
 10
-386.985
 20
841.144
 30
0.000000
  70
    32
  0
VERTEX
  8
0
  5
1B5F1
 10
-386.985
 20
841.141
 30
0.000000
  70
    32
  0
VERTEX
  8
0
  5
1B5F2
 10
-386.984
 20
841.138
 30
0.000000
  70
    32
  0
VERTEX
  8
0
  5
1B5F3
 10
-386.984
 20
841.135
 30
0.000000
  70
    32
  0
VERTEX
  8
0
  5
1B5F4
 10
-386.983
 20
841.132
 30
0.000000
  70
    32
  0
VERTEX
  8
0
  5
1B5F5
 10
-386.983
 20
841.129
 30
0.000000
  70
    32
  0
VERTEX
  8
0
  5
1B5F6
 10
-386.982
 20
841.126
 30
0.000000
  70
    32
  0
VERTEX
  8
0
  5
1B5F7
 10
-386.982
 20
841.123
 30
0.000000
  70
    32
  0
VERTEX
  8
0
  5
1B5F8
 10
-386.981
 20
841.119
 30
0.000000
  70
    32
  0
VERTEX
  8
0
  5
1B5F9
 10
-386.981
 20
841.116
 30
0.000000
  70
    32
  0
VERTEX
  8
0
  5
1B5FA
 10
-386.981
 20
841.113
 30
0.000000
  70
    32
  0
VERTEX
  8
0
  5
1B5FB
 10
-386.981
 20
841.110
 30
0.000000
  70
    32
  0
VERTEX
  8
0
  5
1B5FC
 10
-386.980
 20
841.107
 30
0.000000
  70
    32
  0
VERTEX
  8
0
  5
1B5FD
 10
-386.980
 20
841.104
 30
0.000000
  70
    32
  0
VERTEX
  8
0
  5
1B5FE
 10
-386.980
 20
841.101
 30
0.000000
  70
    32
  0
VERTEX
  8
0
  5
1B5FF
 10
-386.980
 20
841.098
 30
0.000000
  70
    32
  0
VERTEX
  8
0
  5
1B600
 10
-386.980
 20
841.095
 30
0.000000
  70
    32
  0
VERTEX
  8
0
  5
1B601
 10
-386.980
 20
841.091
 30
0.000000
  70
    32
  0
VERTEX
  8
0
  5
1B602
 10
-386.979
 20
841.088
 30
0.000000
  70
    32
  0
VERTEX
  8
0
  5
1B603
 10
-386.979
 20
841.085
 30
0.000000
  70
    32
  0
VERTEX
  8
0
  5
1B604
 10
-386.979
 20
841.082
 30
0.000000
  70
    32
  0
VERTEX
  8
0
  5
1B605
 10
-386.979
 20
841.079
 30
0.000000
  70
    32
  0
VERTEX
  8
0
  5
1B606
 10
-386.980
 20
841.076
 30
0.000000
  70
    32
  0
VERTEX
  8
0
  5
1B607
 10
-386.980
 20
841.073
 30
0.000000
  70
    32
  0
VERTEX
  8
0
  5
1B608
 10
-386.980
 20
841.070
 30
0.000000
  70
    32
  0
VERTEX
  8
0
  5
1B609
 10
-386.980
 20
841.067
 30
0.000000
  70
    32
  0
VERTEX
  8
0
  5
1B60A
 10
-386.980
 20
841.063
 30
0.000000
  70
    32
  0
VERTEX
  8
0
  5
1B60B
 10
-386.980
 20
841.060
 30
0.000000
  70
    32
  0
VERTEX
  8
0
  5
1B60C
 10
-386.981
 20
841.057
 30
0.000000
  70
    32
  0
VERTEX
  8
0
  5
1B60D
 10
-386.981
 20
841.054
 30
0.000000
  70
    32
  0
VERTEX
  8
0
  5
1B60E
 10
-386.981
 20
841.051
 30
0.000000
  70
    32
  0
VERTEX
  8
0
  5
1B60F
 10
-386.982
 20
841.048
 30
0.000000
  70
    32
  0
VERTEX
  8
0
  5
1B610
 10
-386.982
 20
841.045
 30
0.000000
  70
    32
  0
VERTEX
  8
0
  5
1B611
 10
-386.982
 20
841.042
 30
0.000000
  70
    32
  0
VERTEX
  8
0
  5
1B612
 10
-386.983
 20
841.039
 30
0.000000
  70
    32
  0
VERTEX
  8
0
  5
1B613
 10
-386.983
 20
841.036
 30
0.000000
  70
    32
  0
VERTEX
  8
0
  5
1B614
 10
-386.984
 20
841.032
 30
0.000000
  70
    32
  0
VERTEX
  8
0
  5
1B615
 10
-386.984
 20
841.029
 30
0.000000
  70
    32
  0
VERTEX
  8
0
  5
1B616
 10
-386.985
 20
841.026
 30
0.000000
  70
    32
  0
VERTEX
  8
0
  5
1B617
 10
-386.986
 20
841.023
 30
0.000000
  70
    32
  0
VERTEX
  8
0
  5
1B618
 10
-386.986
 20
841.020
 30
0.000000
  70
    32
  0
VERTEX
  8
0
  5
1B619
 10
-386.987
 20
841.017
 30
0.000000
  70
    32
  0
VERTEX
  8
0
  5
1B61A
 10
-386.988
 20
841.014
 30
0.000000
  70
    32
  0
VERTEX
  8
0
  5
1B61B
 10
-386.988
 20
841.011
 30
0.000000
  70
    32
  0
VERTEX
  8
0
  5
1B61C
 10
-386.989
 20
841.008
 30
0.000000
  70
    32
  0
VERTEX
  8
0
  5
1B61D
 10
-386.990
 20
841.005
 30
0.000000
  70
    32
  0
VERTEX
  8
0
  5
1B61E
 10
-386.991
 20
841.002
 30
0.000000
  70
    32
  0
VERTEX
  8
0
  5
1B61F
 10
-386.992
 20
840.999
 30
0.000000
  70
    32
  0
VERTEX
  8
0
  5
1B620
 10
-386.993
 20
840.996
 30
0.000000
  70
    32
  0
VERTEX
  8
0
  5
1B621
 10
-386.994
 20
840.993
 30
0.000000
  70
    32
  0
VERTEX
  8
0
  5
1B622
 10
-386.995
 20
840.990
 30
0.000000
  70
    32
  0
VERTEX
  8
0
  5
1B623
 10
-386.996
 20
840.987
 30
0.000000
  70
    32
  0
VERTEX
  8
0
  5
1B624
 10
-386.997
 20
840.984
 30
0.000000
  70
    32
  0
VERTEX
  8
0
  5
1B625
 10
-386.998
 20
840.981
 30
0.000000
  70
    32
  0
VERTEX
  8
0
  5
1B626
 10
-386.999
 20
840.978
 30
0.000000
  70
    32
  0
VERTEX
  8
0
  5
1B627
 10
-387.000
 20
840.976
 30
0.000000
  70
    32
  0
VERTEX
  8
0
  5
1B628
 10
-387.001
 20
840.973
 30
0.000000
  70
    32
  0
VERTEX
  8
0
  5
1B629
 10
-387.002
 20
840.970
 30
0.000000
  70
    32
  0
VERTEX
  8
0
  5
1B62A
 10
-387.004
 20
840.967
 30
0.000000
  70
    32
  0
VERTEX
  8
0
  5
1B62B
 10
-387.005
 20
840.964
 30
0.000000
  70
    32
  0
VERTEX
  8
0
  5
1B62C
 10
-387.006
 20
840.961
 30
0.000000
  70
    32
  0
VERTEX
  8
0
  5
1B62D
 10
-387.008
 20
840.958
 30
0.000000
  70
    32
  0
VERTEX
  8
0
  5
1B62E
 10
-387.009
 20
840.956
 30
0.000000
  70
    32
  0
VERTEX
  8
0
  5
1B62F
 10
-387.010
 20
840.953
 30
0.000000
  70
    32
  0
VERTEX
  8
0
  5
1B630
 10
-387.012
 20
840.950
 30
0.000000
  70
    32
  0
VERTEX
  8
0
  5
1B631
 10
-387.013
 20
840.947
 30
0.000000
  70
    32
  0
VERTEX
  8
0
  5
1B632
 10
-387.015
 20
840.945
 30
0.000000
  70
    32
  0
VERTEX
  8
0
  5
1B633
 10
-387.017
 20
840.942
 30
0.000000
  70
    32
  0
VERTEX
  8
0
  5
1B634
 10
-387.018
 20
840.939
 30
0.000000
  70
    32
  0
VERTEX
  8
0
  5
1B635
 10
-387.020
 20
840.937
 30
0.000000
  70
    32
  0
VERTEX
  8
0
  5
1B636
 10
-387.021
 20
840.934
 30
0.000000
  70
    32
  0
VERTEX
  8
0
  5
1B637
 10
-387.023
 20
840.931
 30
0.000000
  70
    32
  0
VERTEX
  8
0
  5
1B638
 10
-387.025
 20
840.929
 30
0.000000
  70
    32
  0
VERTEX
  8
0
  5
1B639
 10
-387.027
 20
840.926
 30
0.000000
  70
    32
  0
VERTEX
  8
0
  5
1B63A
 10
-387.029
 20
840.924
 30
0.000000
  70
    32
  0
VERTEX
  8
0
  5
1B63B
 10
-387.030
 20
840.921
 30
0.000000
  70
    32
  0
VERTEX
  8
0
  5
1B63C
 10
-387.032
 20
840.919
 30
0.000000
  70
    32
  0
VERTEX
  8
0
  5
1B63D
 10
-387.034
 20
840.916
 30
0.000000
  70
    32
  0
VERTEX
  8
0
  5
1B63E
 10
-387.036
 20
840.914
 30
0.000000
  70
    32
  0
VERTEX
  8
0
  5
1B63F
 10
-387.038
 20
840.911
 30
0.000000
  70
    32
  0
VERTEX
  8
0
  5
1B640
 10
-387.040
 20
840.909
 30
0.000000
  70
    32
  0
VERTEX
  8
0
  5
1B641
 10
-387.042
 20
840.907
 30
0.000000
  70
    32
  0
VERTEX
  8
0
  5
1B642
 10
-387.044
 20
840.904
 30
0.000000
  70
    32
  0
VERTEX
  8
0
  5
1B643
 10
-387.046
 20
840.902
 30
0.000000
  70
    32
  0
VERTEX
  8
0
  5
1B644
 10
-387.049
 20
840.900
 30
0.000000
  70
    32
  0
VERTEX
  8
0
  5
1B645
 10
-387.051
 20
840.898
 30
0.000000
  70
    32
  0
VERTEX
  8
0
  5
1B646
 10
-387.053
 20
840.895
 30
0.000000
  70
    32
  0
VERTEX
  8
0
  5
1B647
 10
-387.055
 20
840.893
 30
0.000000
  70
    32
  0
VERTEX
  8
0
  5
1B648
 10
-387.058
 20
840.891
 30
0.000000
  70
    32
  0
VERTEX
  8
0
  5
1B649
 10
-387.060
 20
840.889
 30
0.000000
  70
    32
  0
VERTEX
  8
0
  5
1B64A
 10
-387.062
 20
840.887
 30
0.000000
  70
    32
  0
VERTEX
  8
0
  5
1B64B
 10
-387.065
 20
840.885
 30
0.000000
  70
    32
  0
VERTEX
  8
0
  5
1B64C
 10
-387.067
 20
840.883
 30
0.000000
  70
    32
  0
VERTEX
  8
0
  5
1B64D
 10
-387.069
 20
840.881
 30
0.000000
  70
    32
  0
VERTEX
  8
0
  5
1B64E
 10
-387.072
 20
840.879
 30
0.000000
  70
    32
  0
VERTEX
  8
0
  5
1B64F
 10
-387.074
 20
840.878
 30
0.000000
  70
    32
  0
VERTEX
  8
0
  5
1B650
 10
-387.077
 20
840.876
 30
0.000000
  70
    32
  0
VERTEX
  8
0
  5
1B651
 10
-387.079
 20
840.874
 30
0.000000
  70
    32
  0
VERTEX
  8
0
  5
1B652
 10
-387.082
 20
840.873
 30
0.000000
  70
    32
  0
VERTEX
  8
0
  5
1B653
 10
-387.085
 20
840.871
 30
0.000000
  70
    32
  0
VERTEX
  8
0
  5
1B654
 10
-387.087
 20
840.869
 30
0.000000
  70
    32
  0
VERTEX
  8
0
  5
1B655
 10
-387.090
 20
840.868
 30
0.000000
  70
    32
  0
VERTEX
  8
0
  5
1B656
 10
-387.093
 20
840.867
 30
0.000000
  70
    32
  0
VERTEX
  8
0
  5
1B657
 10
-387.095
 20
840.865
 30
0.000000
  70
    32
  0
VERTEX
  8
0
  5
1B658
 10
-387.098
 20
840.864
 30
0.000000
  70
    32
  0
VERTEX
  8
0
  5
1B659
 10
-387.101
 20
840.863
 30
0.000000
  70
    32
  0
VERTEX
  8
0
  5
1B65A
 10
-387.104
 20
840.861
 30
0.000000
  70
    32
  0
VERTEX
  8
0
  5
1B65B
 10
-387.106
 20
840.860
 30
0.000000
  70
    32
  0
VERTEX
  8
0
  5
1B65C
 10
-387.109
 20
840.859
 30
0.000000
  70
    32
  0
VERTEX
  8
0
  5
1B65D
 10
-387.112
 20
840.858
 30
0.000000
  70
    32
  0
VERTEX
  8
0
  5
1B65E
 10
-387.115
 20
840.857
 30
0.000000
  70
    32
  0
VERTEX
  8
0
  5
1B65F
 10
-387.118
 20
840.856
 30
0.000000
  70
    32
  0
VERTEX
  8
0
  5
1B660
 10
-387.121
 20
840.855
 30
0.000000
  70
    32
  0
VERTEX
  8
0
  5
1B661
 10
-387.124
 20
840.854
 30
0.000000
  70
    32
  0
VERTEX
  8
0
  5
1B662
 10
-387.127
 20
840.853
 30
0.000000
  70
    32
  0
VERTEX
  8
0
  5
1B663
 10
-387.130
 20
840.852
 30
0.000000
  70
    32
  0
VERTEX
  8
0
  5
1B664
 10
-387.133
 20
840.851
 30
0.000000
  70
    32
  0
VERTEX
  8
0
  5
1B665
 10
-387.136
 20
840.850
 30
0.000000
  70
    32
  0
VERTEX
  8
0
  5
1B666
 10
-387.139
 20
840.850
 30
0.000000
  70
    32
  0
VERTEX
  8
0
  5
1B667
 10
-387.142
 20
840.849
 30
0.000000
  70
    32
  0
VERTEX
  8
0
  5
1B668
 10
-387.145
 20
840.848
 30
0.000000
  70
    32
  0
VERTEX
  8
0
  5
1B669
 10
-387.148
 20
840.848
 30
0.000000
  70
    32
  0
VERTEX
  8
0
  5
1B66A
 10
-387.151
 20
840.847
 30
0.000000
  70
    32
  0
VERTEX
  8
0
  5
1B66B
 10
-387.154
 20
840.846
 30
0.000000
  70
    32
  0
VERTEX
  8
0
  5
1B66C
 10
-387.157
 20
840.846
 30
0.000000
  70
    32
  0
VERTEX
  8
0
  5
1B66D
 10
-387.160
 20
840.845
 30
0.000000
  70
    32
  0
VERTEX
  8
0
  5
1B66E
 10
-387.163
 20
840.845
 30
0.000000
  70
    32
  0
VERTEX
  8
0
  5
1B66F
 10
-387.166
 20
840.844
 30
0.000000
  70
    32
  0
VERTEX
  8
0
  5
1B670
 10
-387.169
 20
840.844
 30
0.000000
  70
    32
  0
VERTEX
  8
0
  5
1B671
 10
-387.173
 20
840.844
 30
0.000000
  70
    32
  0
VERTEX
  8
0
  5
1B672
 10
-387.176
 20
840.843
 30
0.000000
  70
    32
  0
VERTEX
  8
0
  5
1B673
 10
-387.179
 20
840.843
 30
0.000000
  70
    32
  0
VERTEX
  8
0
  5
1B674
 10
-387.182
 20
840.842
 30
0.000000
  70
    32
  0
VERTEX
  8
0
  5
1B675
 10
-387.185
 20
840.842
 30
0.000000
  70
    32
  0
VERTEX
  8
0
  5
1B676
 10
-387.188
 20
840.842
 30
0.000000
  70
    32
  0
VERTEX
  8
0
  5
1B677
 10
-387.191
 20
840.841
 30
0.000000
  70
    32
  0
VERTEX
  8
0
  5
1B678
 10
-387.195
 20
840.841
 30
0.000000
  70
    32
  0
VERTEX
  8
0
  5
1B679
 10
-387.198
 20
840.841
 30
0.000000
  70
    32
  0
VERTEX
  8
0
  5
1B67A
 10
-387.201
 20
840.841
 30
0.000000
  70
    32
  0
VERTEX
  8
0
  5
1B67B
 10
-387.204
 20
840.840
 30
0.000000
  70
    32
  0
VERTEX
  8
0
  5
1B67C
 10
-387.207
 20
840.840
 30
0.000000
  70
    32
  0
VERTEX
  8
0
  5
1B67D
 10
-387.210
 20
840.840
 30
0.000000
  70
    32
  0
VERTEX
  8
0
  5
1B67E
 10
-387.213
 20
840.840
 30
0.000000
  70
    32
  0
VERTEX
  8
0
  5
1B67F
 10
-387.216
 20
840.840
 30
0.000000
  70
    32
  0
VERTEX
  8
0
  5
1B680
 10
-387.220
 20
840.839
 30
0.000000
  70
    32
  0
VERTEX
  8
0
  5
1B681
 10
-387.223
 20
840.839
 30
0.000000
  70
    32
  0
VERTEX
  8
0
  5
1B682
 10
-387.226
 20
840.839
 30
0.000000
  70
    32
  0
VERTEX
  8
0
  5
1B683
 10
-387.229
 20
840.839
 30
0.000000
  70
    32
  0
VERTEX
  8
0
  5
1B684
 10
-387.232
 20
840.839
 30
0.000000
  70
    32
  0
VERTEX
  8
0
  5
1B685
 10
-387.235
 20
840.839
 30
0.000000
  70
    32
  0
VERTEX
  8
0
  5
1B686
 10
-387.238
 20
840.839
 30
0.000000
  70
    32
  0
VERTEX
  8
0
  5
1B687
 10
-387.241
 20
840.839
 30
0.000000
  70
    32
  0
VERTEX
  8
0
  5
1B688
 10
-387.244
 20
840.839
 30
0.000000
  70
    32
  0
VERTEX
  8
0
  5
1B689
 10
-387.247
 20
840.838
 30
0.000000
  70
    32
  0
VERTEX
  8
0
  5
1B68A
 10
-387.251
 20
840.838
 30
0.000000
  70
    32
  0
VERTEX
  8
0
  5
1B68B
 10
-387.254
 20
840.838
 30
0.000000
  70
    32
  0
VERTEX
  8
0
  5
1B68C
 10
-387.257
 20
840.838
 30
0.000000
  70
    32
  0
VERTEX
  8
0
  5
1B68D
 10
-387.260
 20
840.838
 30
0.000000
  70
    32
  0
VERTEX
  8
0
  5
1B68E
 10
-387.263
 20
840.838
 30
0.000000
  70
    32
  0
VERTEX
  8
0
  5
1B68F
 10
-387.266
 20
840.838
 30
0.000000
  70
    32
  0
VERTEX
  8
0
  5
1B690
 10
-387.269
 20
840.838
 30
0.000000
  70
    32
  0
VERTEX
  8
0
  5
1B691
 10
-387.272
 20
840.838
 30
0.000000
  70
    32
  0
VERTEX
  8
0
  5
1B692
 10
-387.275
 20
840.838
 30
0.000000
  70
    32
  0
VERTEX
  8
0
  5
1B693
 10
-387.278
 20
840.838
 30
0.000000
  70
    32
  0
VERTEX
  8
0
  5
1B694
 10
-387.281
 20
840.838
 30
0.000000
  70
    32
  0
VERTEX
  8
0
  5
1B695
 10
-387.284
 20
840.838
 30
0.000000
  70
    32
  0
VERTEX
  8
0
  5
1B696
 10
-387.287
 20
840.838
 30
0.000000
  70
    32
  0
VERTEX
  8
0
  5
1B697
 10
-387.290
 20
840.838
 30
0.000000
  70
    32
  0
VERTEX
  8
0
  5
1B698
 10
-387.294
 20
840.838
 30
0.000000
  70
    32
  0
VERTEX
  8
0
  5
1B699
 10
-387.297
 20
840.838
 30
0.000000
  70
    32
  0
VERTEX
  8
0
  5
1B69A
 10
-387.300
 20
840.838
 30
0.000000
  70
    32
  0
VERTEX
  8
0
  5
1B69B
 10
-387.303
 20
840.838
 30
0.000000
  70
    32
  0
VERTEX
  8
0
  5
1B69C
 10
-387.306
 20
840.838
 30
0.000000
  70
    32
  0
VERTEX
  8
0
  5
1B69D
 10
-387.309
 20
840.838
 30
0.000000
  70
    32
  0
VERTEX
  8
0
  5
1B69E
 10
-387.312
 20
840.838
 30
0.000000
  70
    32
  0
VERTEX
  8
0
  5
1B69F
 10
-387.315
 20
840.838
 30
0.000000
  70
    32
  0
VERTEX
  8
0
  5
1B6A0
 10
-387.318
 20
840.838
 30
0.000000
  70
    32
  0
VERTEX
  8
0
  5
1B6A1
 10
-387.321
 20
840.839
 30
0.000000
  70
    32
  0
VERTEX
  8
0
  5
1B6A2
 10
-387.324
 20
840.839
 30
0.000000
  70
    32
  0
VERTEX
  8
0
  5
1B6A3
 10
-387.327
 20
840.839
 30
0.000000
  70
    32
  0
VERTEX
  8
0
  5
1B6A4
 10
-387.330
 20
840.839
 30
0.000000
  70
    32
  0
SEQEND
  8
0
  5
1B6A5
  0
ARC
  5
1AEAB
  8
0
 10
-386.43238450248379
 20
842.10394773115536
 30
0.0
 40
0.9585490365971454
 50
90.0
 51
194.43188559600449
  0
ARC
  5
1AEAC
  8
0
 10
-385.21311470869063
 20
840.49490101183289
 30
0.0
 40
0.25
 50
0.0
 51
90.0
  0
ARC
  5
1AEAD
  8
0
 10
-386.11093858831691
 20
842.10394773115536
 30
0.0
 40
0.9585490365971454
 50
345.56811440399542
 51
90.0
  0
ARC
  5
1AEAE
  8
0
 10
-385.11941470869061
 20
840.213701011833
 30
0.0
 40
0.1563
 50
271.44928808431519
 51
0.0
  0
LINE
  5
1AEAF
  8
0
 10
-384.96311470869063
 20
840.213701011833
 30
0.0
 11
-384.96311470869063
 21
840.43240101183301
 31
0.0
  0
ARC
  5
1AEB0
  8
0
 10
-385.11941470869061
 20
839.838701011833
 30
0.0
 40
0.1563
 50
271.44928808431519
 51
88.550711915684815
  0
ARC
  5
1AEB1
  8
0
 10
-385.11941470869073
 20
839.088701011833
 30
0.0
 40
0.1563
 50
271.44928808431519
 51
88.550711915684815
  0
ARC
  5
1AEB2
  8
0
 10
-385.11941470869073
 20
838.71370101183322
 30
0.0
 40
0.1563
 50
271.44928808431519
 51
88.550711915684815
  0
ARC
  5
1AEB3
  8
0
 10
-385.11941470869073
 20
839.463701011833
 30
0.0
 40
0.1563
 50
271.44928808431519
 51
88.550711915684815
  0
LINE
  5
1AEB4
  8
0
 10
-387.58020838211007
 20
840.213701011833
 30
0.0
 11
-387.58020838211007
 21
840.43240101183301
 31
0.0
  0
ARC
  5
1AEB5
  8
0
 10
-387.42390838211008
 20
840.213701011833
 30
0.0
 40
0.1563
 50
180.0
 51
268.55071191568811
  0
ARC
  5
1AEB6
  8
0
 10
-387.42390838211003
 20
839.838701011833
 30
0.0
 40
0.1563
 50
91.449288084315157
 51
268.55071191568811
  0
ARC
  5
1AEB7
  8
0
 10
-387.42390838211003
 20
839.088701011833
 30
0.0
 40
0.1563
 50
91.449288084315157
 51
268.55071191568811
  0
ARC
  5
1AEB8
  8
0
 10
-387.42390838211003
 20
838.71370101183322
 30
0.0
 40
0.1563
 50
91.449288084315157
 51
268.55071191568811
  0
ARC
  5
1AEB9
  8
0
 10
-387.42390838211003
 20
839.463701011833
 30
0.0
 40
0.1563
 50
91.449288084315157
 51
268.55071191568811
  0
LINE
  5
1AEBA
  8
0
 10
-387.58020838211007
 20
840.49490101183289
 30
0.0
 11
-387.58020838211007
 21
840.43240101183301
 31
0.0
  0
LINE
  5
1AEBB
  8
0
 10
-384.96311470869063
 20
840.49490101183289
 30
0.0
 11
-384.96311470869063
 21
840.43240101183301
 31
0.0
  0
VIEWPORT
  5
BADA
 67
     1
  8
0
 10
5.2498666443542223
 20
5.4020608164228614
 30
0.0
 40
16.259611459837419
 41
10.78634323444059
 68
     2
 69
     1
1001
ACAD
1000
MVIEW
1002
{
1070
    16
1010
0.0
1020
0.0
1030
0.0
1010
0.0
1020
0.0
1030
1.0
1040
0.0
1040
10.78634323444059
1040
5.2498666443542223
1040
5.4020608164228614
1040
50.0
1040
0.0
1040
0.0
1070
     0
1070
   100
1070
     1
1070
     1
1070
     0
1070
     0
1070
     0
1070
     0
1040
0.0
1040
0.0
1040
0.0
1040
0.5
1040
0.5
1040
0.5
1040
0.5
1070
     0
1002
{
1002
}
1002
}
  0
VIEWPORT
  5
BADD
 67
     1
  8
0
 10
5.249999629487192
 20
4.0166741807634683
 30
0.0
 40
10.44245679893058
 41
7.8813805131999892
 68
     1
 69
     2
1001
ACAD
1000
MVIEW
1002
{
1070
    16
1010
0.0
1020
0.0
1030
0.0
1010
0.0
1020
0.0
1030
1.0
1040
0.0
1040
7.8813805116149052
1040
-385.07765484644949
1040
840.53347721117211
1040
50.0
1040
0.0
1040
0.0
1070
     0
1070
   100
1070
     1
1070
     2
1070
     0
1070
     0
1070
     0
1070
     0
1040
0.0
1040
0.0
1040
0.0
1040
0.5
1040
0.5
1040
0.5
1040
0.5
1070
     0
1002
{
1002
}
1002
}
  0
ENDSEC
  0
EOF
