  0
SECTION
  2
HEADER
  9
$ACADVER
  1
AC1009
  9
$INSBASE
 10
0.0
 20
0.0
 30
0.0
  9
$EXTMIN
 10
-363.47504804168608
 20
562.96826214656528
 30
0.0
  9
$EXTMAX
 10
-360.06941073682469
 20
569.59326214656539
 30
0.0
  9
$LIMMIN
 10
0.0
 20
0.0
  9
$LIMMAX
 10
1500.0
 20
1500.0
  9
$ORTHOMODE
 70
     1
  9
$REGENMODE
 70
     1
  9
$FILLMODE
 70
     1
  9
$QTEXTMODE
 70
     0
  9
$MIRRTEXT
 70
     1
  9
$DRAGMODE
 70
     2
  9
$LTSCALE
 40
1.0
  9
$OSMODE
 70
    63
  9
$ATTMODE
 70
     1
  9
$TEXTSIZE
 40
1.5
  9
$TRACEWID
 40
0.05
  9
$TEXTSTYLE
  7
STANDARD
  9
$CLAYER
  8
0
  9
$CELTYPE
  6
BYLAYER
  9
$CECOLOR
 62
   256
  9
$DIMSCALE
 40
1.0
  9
$DIMASZ
 40
0.75
  9
$DIMEXO
 40
1.5
  9
$DIMDLI
 40
2.0
  9
$DIMRND
 40
0.0
  9
$DIMDLE
 40
0.0
  9
$DIMEXE
 40
1.0
  9
$DIMTP
 40
0.0
  9
$DIMTM
 40
0.0
  9
$DIMTXT
 40
1.5
  9
$DIMCEN
 40
2.0
  9
$DIMTSZ
 40
0.0
  9
$DIMTOL
 70
     0
  9
$DIMLIM
 70
     0
  9
$DIMTIH
 70
     0
  9
$DIMTOH
 70
     0
  9
$DIMSE1
 70
     0
  9
$DIMSE2
 70
     0
  9
$DIMTAD
 70
     1
  9
$DIMZIN
 70
     0
  9
$DIMBLK
  1
ARCHTICK
  9
$DIMASO
 70
     1
  9
$DIMSHO
 70
     1
  9
$DIMPOST
  1
"
  9
$DIMAPOST
  1

  9
$DIMALT
 70
     0
  9
$DIMALTD
 70
     2
  9
$DIMALTF
 40
25.399999999999999
  9
$DIMLFAC
 40
1.0
  9
$DIMTOFL
 70
     0
  9
$DIMTVP
 40
0.0
  9
$DIMTIX
 70
     1
  9
$DIMSOXD
 70
     0
  9
$DIMSAH
 70
     0
  9
$DIMBLK1
  1

  9
$DIMBLK2
  1

  9
$DIMSTYLE
  2
THREE_QUARTER_INCH_SCALE
  9
$DIMCLRD
 70
     0
  9
$DIMCLRE
 70
     0
  9
$DIMCLRT
 70
     0
  9
$DIMTFAC
 40
1.0
  9
$DIMGAP
 40
1.0
  9
$LUNITS
 70
     2
  9
$LUPREC
 70
     4
  9
$SKETCHINC
 40
0.1
  9
$FILLETRAD
 40
0.0
  9
$AUNITS
 70
     0
  9
$AUPREC
 70
     0
  9
$MENU
  1
.
  9
$ELEVATION
 40
0.0
  9
$PELEVATION
 40
0.0
  9
$THICKNESS
 40
0.0
  9
$LIMCHECK
 70
     0
  9
$BLIPMODE
 70
     0
  9
$CHAMFERA
 40
0.5
  9
$CHAMFERB
 40
0.5
  9
$SKPOLY
 70
     0
  9
$TDCREATE
 40
2452089.395738773
  9
$TDUPDATE
 40
2453616.6534536919
  9
$TDINDWG
 40
2.4586618170999999
  9
$TDUSRTIMER
 40
2.4586618170999999
  9
$USRTIMER
 70
     1
  9
$ANGBASE
 50
0.0
  9
$ANGDIR
 70
     0
  9
$PDMODE
 70
     0
  9
$PDSIZE
 40
10.0
  9
$PLINEWID
 40
0.0
  9
$COORDS
 70
     0
  9
$SPLFRAME
 70
     0
  9
$SPLINETYPE
 70
     6
  9
$SPLINESEGS
 70
     8
  9
$ATTDIA
 70
     0
  9
$ATTREQ
 70
     1
  9
$HANDLING
 70
     1
  9
$HANDSEED
  5
D594
  9
$SURFTAB1
 70
     6
  9
$SURFTAB2
 70
     6
  9
$SURFTYPE
 70
     6
  9
$SURFU
 70
     6
  9
$SURFV
 70
     6
  9
$UCSNAME
  2

  9
$UCSORG
 10
0.0
 20
0.0
 30
0.0
  9
$UCSXDIR
 10
1.0
 20
0.0
 30
0.0
  9
$UCSYDIR
 10
0.0
 20
1.0
 30
0.0
  9
$PUCSNAME
  2

  9
$PUCSORG
 10
0.0
 20
0.0
 30
0.0
  9
$PUCSXDIR
 10
1.0
 20
0.0
 30
0.0
  9
$PUCSYDIR
 10
0.0
 20
1.0
 30
0.0
  9
$USERI1
 70
     0
  9
$USERI2
 70
     0
  9
$USERI3
 70
     0
  9
$USERI4
 70
     0
  9
$USERI5
 70
     0
  9
$USERR1
 40
0.0
  9
$USERR2
 40
0.0
  9
$USERR3
 40
0.0
  9
$USERR4
 40
0.0
  9
$USERR5
 40
0.0
  9
$WORLDVIEW
 70
     1
  9
$SHADEDGE
 70
     3
  9
$SHADEDIF
 70
    70
  9
$TILEMODE
 70
     0
  9
$MAXACTVP
 70
    64
  9
$PLIMCHECK
 70
     0
  9
$PEXTMIN
 10
0.0287712300219028
 20
0.0759839241634737
 30
0.0
  9
$PEXTMAX
 10
10.47122802895248
 20
7.957364437363462
 30
0.0
  9
$PLIMMIN
 10
-0.2500002402958907
 20
-0.2499999962453767
  9
$PLIMMAX
 10
10.74999951940821
 20
8.2499997634587316
  9
$UNITMODE
 70
     0
  9
$VISRETAIN
 70
     1
  9
$PLINEGEN
 70
     0
  9
$PSLTSCALE
 70
     1
  0
ENDSEC
  0
SECTION
  2
TABLES
  0
TABLE
  2
VPORT
 70
     3
  0
VPORT
  2
*ACTIVE
 70
     0
 10
0.0
 20
0.0
 11
1.0
 21
1.0
 12
-362.24640946744631
 22
565.4686465726403
 13
0.0
 23
0.0
 14
0.5
 24
0.5
 15
0.5
 25
0.5
 16
0.0
 26
0.0
 36
1.0
 17
0.0
 27
0.0
 37
0.0
 40
10.69641088799653
 41
1.507425742574257
 42
50.0
 43
0.0
 44
0.0
 50
0.0
 51
0.0
 71
     0
 72
   100
 73
     1
 74
     2
 75
     0
 76
     0
 77
     0
 78
     0
  0
ENDTAB
  0
TABLE
  2
LTYPE
 70
     1
  0
LTYPE
  2
CONTINUOUS
 70
     0
  3
Solid line
 72
    65
 73
     0
 40
0.0
  0
ENDTAB
  0
TABLE
  2
LAYER
 70
    10
  0
LAYER
  2
0
 70
     0
 62
     7
  6
CONTINUOUS
  0
LAYER
  2
DEFPOINTS
 70
     0
 62
     7
  6
CONTINUOUS
  0
LAYER
  2
FRAME_200
 70
     0
 62
     8
  6
CONTINUOUS
  0
LAYER
  2
FRAME_070
 70
     0
 62
     5
  6
CONTINUOUS
  0
LAYER
  2
FRAME_050
 70
     0
 62
     6
  6
CONTINUOUS
  0
LAYER
  2
TITLE_BLOCK
 70
     0
 62
     7
  6
CONTINUOUS
  0
LAYER
  2
FRAME_025
 70
     0
 62
     7
  6
CONTINUOUS
  0
LAYER
  2
VIEWPORT
 70
     0
 62
     7
  6
CONTINUOUS
  0
LAYER
  2
PROF
 70
     0
 62
     7
  6
CONTINUOUS
  0
LAYER
  2
PROFILE
 70
     0
 62
     7
  6
CONTINUOUS
  0
ENDTAB
  0
TABLE
  2
STYLE
 70
     2
  0
STYLE
  2
STANDARD
 70
     0
 40
0.0
 41
1.0
 50
0.0
 71
     0
 42
1.5
  3
txt
  4

  0
STYLE
  2
ISO_PROPORTIONAL
 70
     0
 40
0.0
 41
1.0
 50
0.0
 71
     0
 42
2.5
  3
isocp.shx
  4

  0
ENDTAB
  0
TABLE
  2
VIEW
 70
     1
  0
ENDTAB
  0
TABLE
  2
UCS
 70
     0
  0
ENDTAB
  0
TABLE
  2
APPID
 70
     6
  0
APPID
  2
ACAD
 70
     0
  0
APPID
  2
DCO15
 70
     0
  0
APPID
  2
ACAD_EXEMPT_FROM_CAD_STANDARDS
 70
     0
  0
APPID
  2
ACAD_PSEXT
 70
     0
  0
APPID
  2
CONTENTBLOCKDESCRIPTION
 70
     0
  0
APPID
  2
CONTENTBLOCKICON
 70
     0
  0
ENDTAB
  0
TABLE
  2
DIMSTYLE
 70
     5
  0
DIMSTYLE
  2
FULL_SCALE
 70
     0
  3
"
  4

  5
ARCHTICK
  6

  7

 40
1.0
 41
0.046875
 42
0.09375
 43
0.125
 44
0.0625
 45
0.0
 46
0.0
 47
0.0
 48
0.0
140
0.125
141
0.125
142
0.0
143
25.399999999999999
144
1.0
145
0.0
146
1.0
147
0.0625
 71
     0
 72
     0
 73
     0
 74
     0
 75
     0
 76
     0
 77
     1
 78
     0
170
     0
171
     2
172
     0
173
     0
174
     1
175
     0
176
     0
177
     0
178
     0
  0
DIMSTYLE
  2
HALF_SCALE
 70
     0
  3
"
  4

  5
ARCHTICK
  6

  7

 40
1.0
 41
0.09375
 42
0.1875
 43
0.25
 44
0.125
 45
0.0
 46
0.0
 47
0.0
 48
0.0
140
0.25
141
0.25
142
0.0
143
25.399999999999999
144
1.0
145
0.0
146
1.0
147
0.125
 71
     0
 72
     0
 73
     0
 74
     0
 75
     0
 76
     0
 77
     1
 78
     0
170
     0
171
     2
172
     0
173
     0
174
     1
175
     0
176
     0
177
     0
178
     0
  0
DIMSTYLE
  2
INCH_SCALE
 70
     0
  3
"
  4

  5
ARCHTICK
  6

  7

 40
1.0
 41
0.5625
 42
1.125
 43
1.5
 44
0.75
 45
0.0
 46
0.0
 47
0.0
 48
0.0
140
1.125
141
1.5
142
0.0
143
25.399999999999999
144
1.0
145
0.0
146
1.0
147
0.75
 71
     0
 72
     0
 73
     0
 74
     0
 75
     0
 76
     0
 77
     1
 78
     0
170
     0
171
     2
172
     0
173
     0
174
     1
175
     0
176
     0
177
     0
178
     0
  0
DIMSTYLE
  2
THREE_QUARTER_INCH_SCALE
 70
     0
  3
"
  4

  5
ARCHTICK
  6

  7

 40
1.0
 41
0.75
 42
1.5
 43
2.0
 44
1.0
 45
0.0
 46
0.0
 47
0.0
 48
0.0
140
1.5
141
2.0
142
0.0
143
25.399999999999999
144
1.0
145
0.0
146
1.0
147
1.0
 71
     0
 72
     0
 73
     0
 74
     0
 75
     0
 76
     0
 77
     1
 78
     0
170
     0
171
     2
172
     0
173
     0
174
     1
175
     0
176
     0
177
     0
178
     0
  0
DIMSTYLE
  2
ZHALF_INCH_SCALE
 70
     0
  3
"
  4

  5
ARCHTICK
  6

  7

 40
1.0
 41
1.125
 42
2.25
 43
3.0
 44
1.5
 45
0.0
 46
0.0
 47
0.0
 48
0.0
140
2.25
141
3.0
142
0.0
143
25.399999999999999
144
1.0
145
0.0
146
1.0
147
1.5
 71
     0
 72
     0
 73
     0
 74
     0
 75
     0
 76
     0
 77
     1
 78
     0
170
     0
171
     2
172
     0
173
     0
174
     1
175
     0
176
     0
177
     0
178
     0
  0
ENDTAB
  0
ENDSEC
  0
SECTION
  2
BLOCKS
  0
BLOCK
  8
0
  2
$MODEL_SPACE
 70
     0
 10
0.0
 20
0.0
 30
0.0
  3
$MODEL_SPACE
  1

  0
ENDBLK
  5
21
  8
0
  0
BLOCK
 67
     1
  8
0
  2
$PAPER_SPACE
 70
     0
 10
0.0
 20
0.0
 30
0.0
  3
$PAPER_SPACE
  1

  0
ENDBLK
  5
BAD5
 67
     1
  8
0
  0
BLOCK
  8
0
  2
_ARCHTICK
 70
     0
 10
0.0
 20
0.0
 30
0.0
  3
_ARCHTICK
  1

  0
POLYLINE
  5
158
  8
0
  6
BYBLOCK
 62
     0
 66
     1
 10
0.0
 20
0.0
 30
0.0
 40
0.15
 41
0.15
  0
VERTEX
  5
D230
  8
0
  6
BYBLOCK
 62
     0
 10
-0.5
 20
-0.5
 30
0.0
  0
VERTEX
  5
D231
  8
0
  6
BYBLOCK
 62
     0
 10
0.5
 20
0.5
 30
0.0
  0
SEQEND
  5
D232
  8
0
  6
BYBLOCK
 62
     0
  0
ENDBLK
  5
15A
  8
0
  0
BLOCK
  8
0
  2
_OPEN30
 70
     0
 10
0.0
 20
0.0
 30
0.0
  3
_OPEN30
  1

  0
LINE
  5
15C
  8
0
  6
BYBLOCK
 62
     0
 10
-1.0
 20
0.26794919
 30
0.0
 11
0.0
 21
0.0
 31
0.0
  0
LINE
  5
15D
  8
0
  6
BYBLOCK
 62
     0
 10
0.0
 20
0.0
 30
0.0
 11
-1.0
 21
-0.26794919
 31
0.0
  0
LINE
  5
15E
  8
0
  6
BYBLOCK
 62
     0
 10
0.0
 20
0.0
 30
0.0
 11
-1.0
 21
0.0
 31
0.0
  0
ENDBLK
  5
160
  8
0
  0
BLOCK
  8
0
  2
ISO_A2_TITLE_BLOCK
 70
     2
 10
0.0
 20
0.0
 30
0.0
  3
ISO_A2_TITLE_BLOCK
  1

  0
LINE
  5
BDD
  8
FRAME_050
 10
299.5
 20
12.5
 30
0.0
 11
297.0
 21
7.5
 31
0.0
  0
LINE
  5
BDE
  8
FRAME_050
 10
294.5
 20
12.5
 30
0.0
 11
299.5
 21
12.5
 31
0.0
  0
LINE
  5
BDF
  8
FRAME_050
 10
247.0
 20
5.0
 30
0.0
 11
347.0
 21
5.0
 31
0.0
  0
LINE
  5
BE0
  8
FRAME_070
 10
584.0
 20
410.0
 30
0.0
 11
10.0
 21
410.0
 31
0.0
  0
LINE
  5
BE1
  8
FRAME_070
 10
10.0
 20
10.0
 30
0.0
 11
584.0
 21
10.0
 31
0.0
  0
LINE
  5
BE2
  8
FRAME_050
 10
12.5
 20
207.5
 30
0.0
 11
7.5
 21
210.0
 31
0.0
  0
LINE
  5
BE3
  8
FRAME_050
 10
12.5
 20
212.5
 30
0.0
 11
12.5
 21
207.5
 31
0.0
  0
LINE
  5
BE4
  8
FRAME_070
 10
10.0
 20
410.0
 30
0.0
 11
10.0
 21
10.0
 31
0.0
  0
LINE
  5
BE5
  8
FRAME_200
 10
0.0
 20
0.0
 30
0.0
 11
0.0
 21
10.0
 31
0.0
  0
LINE
  5
BE6
  8
FRAME_200
 10
0.0
 20
0.0
 30
0.0
 11
10.0
 21
0.0
 31
0.0
  0
TEXT
  5
BE7
  8
FRAME_050
 10
5.9000000000000004
 20
35.0
 30
0.0
 40
4.0
  1
H
  7
ISO_PROPORTIONAL
 72
     4
 11
7.5
 21
37.0
 31
0.0
  0
LINE
  5
BE8
  8
FRAME_050
 10
10.0
 20
60.0
 30
0.0
 11
5.0
 21
60.0
 31
0.0
  0
LINE
  5
BE9
  8
FRAME_050
 10
81.75
 20
5.0
 30
0.0
 11
81.75
 21
10.0
 31
0.0
  0
TEXT
  5
BEA
  8
FRAME_050
 10
44.874999999999993
 20
5.5
 30
0.0
 40
4.0
  1
1
  7
ISO_PROPORTIONAL
 72
     4
 11
45.875
 21
7.5
 31
0.0
  0
TEXT
  5
BEB
  8
FRAME_050
 10
6.0035533905932743
 20
85.0
 30
0.0
 40
4.0
  1
G
  7
ISO_PROPORTIONAL
 72
     4
 11
7.5
 21
87.0
 31
0.0
  0
LINE
  5
BEC
  8
FRAME_050
 10
10.0
 20
110.0
 30
0.0
 11
5.0
 21
110.0
 31
0.0
  0
TEXT
  5
BED
  8
FRAME_050
 10
6.0999999999999988
 20
135.0
 30
0.0
 40
4.0
  1
F
  7
ISO_PROPORTIONAL
 72
     4
 11
7.5
 21
137.0
 31
0.0
  0
LINE
  5
BEE
  8
FRAME_050
 10
10.0
 20
160.0
 30
0.0
 11
5.0
 21
160.0
 31
0.0
  0
TEXT
  5
BEF
  8
FRAME_050
 10
6.0999999999999988
 20
185.0
 30
0.0
 40
4.0
  1
E
  7
ISO_PROPORTIONAL
 72
     4
 11
7.5
 21
187.0
 31
0.0
  0
LINE
  5
BF0
  8
FRAME_050
 10
153.5
 20
5.0
 30
0.0
 11
153.5
 21
10.0
 31
0.0
  0
TEXT
  5
BF1
  8
FRAME_050
 10
116.1556692913386
 20
5.3996062992125982
 30
0.0
 40
4.0
  1
2
  7
ISO_PROPORTIONAL
 72
     4
 11
117.625
 21
7.5
 31
0.0
  0
TEXT
  5
BF2
  8
FRAME_050
 10
187.89215728752529
 20
5.5828427124746138
 30
0.0
 40
4.0
  1
3
  7
ISO_PROPORTIONAL
 72
     4
 11
189.375
 21
7.5
 31
0.0
  0
LINE
  5
BF3
  8
FRAME_050
 10
225.25
 20
5.0
 30
0.0
 11
225.25
 21
10.0
 31
0.0
  0
LINE
  5
BF4
  8
FRAME_050
 10
297.0
 20
7.5
 30
0.0
 11
294.5
 21
12.5
 31
0.0
  0
LINE
  5
BF5
  8
FRAME_050
 10
287.0
 20
5.0
 30
0.0
 11
287.0
 21
10.0
 31
0.0
  0
LINE
  5
BF6
  8
FRAME_050
 10
277.0
 20
5.0
 30
0.0
 11
277.0
 21
10.0
 31
0.0
  0
LINE
  5
BF7
  8
FRAME_050
 10
267.0
 20
5.0
 30
0.0
 11
267.0
 21
10.0
 31
0.0
  0
LINE
  5
BF8
  8
FRAME_050
 10
257.0
 20
5.0
 30
0.0
 11
257.0
 21
10.0
 31
0.0
  0
LINE
  5
BF9
  8
FRAME_050
 10
247.0
 20
5.0
 30
0.0
 11
247.0
 21
10.0
 31
0.0
  0
LINE
  5
BFA
  8
FRAME_050
 10
297.0
 20
10.0
 30
0.0
 11
297.0
 21
5.0
 31
0.0
  0
LINE
  5
BFB
  8
FRAME_050
 10
297.0
 20
10.0
 30
0.0
 11
297.0
 21
15.0
 31
0.0
  0
LINE
  5
BFC
  8
FRAME_050
 10
5.0
 20
210.0
 30
0.0
 11
15.0
 21
210.0
 31
0.0
  0
LINE
  5
BFD
  8
FRAME_050
 10
7.5
 20
210.0
 30
0.0
 11
12.5
 21
212.5
 31
0.0
  0
TEXT
  5
BFE
  8
FRAME_050
 10
5.7860912703473977
 20
235.0
 30
0.0
 40
4.0
  1
D
  7
ISO_PROPORTIONAL
 72
     4
 11
7.5
 21
237.0
 31
0.0
  0
LINE
  5
BFF
  8
FRAME_050
 10
10.0
 20
260.0
 30
0.0
 11
5.0
 21
260.0
 31
0.0
  0
TEXT
  5
C00
  8
FRAME_050
 10
6.1931980515339466
 20
285.0
 30
0.0
 40
4.0
  1
C
  7
ISO_PROPORTIONAL
 72
     4
 11
7.5
 21
287.0
 31
0.0
  0
LINE
  5
C01
  8
FRAME_050
 10
10.0
 20
310.0
 30
0.0
 11
5.0
 21
310.0
 31
0.0
  0
TEXT
  5
C02
  8
FRAME_050
 10
5.8999999999999959
 20
335.0
 30
0.0
 40
4.0
  1
B
  7
ISO_PROPORTIONAL
 72
     4
 11
7.5
 21
337.0
 31
0.0
  0
LINE
  5
C03
  8
FRAME_050
 10
10.0
 20
360.0
 30
0.0
 11
5.0
 21
360.0
 31
0.0
  0
TEXT
  5
C04
  8
FRAME_050
 10
5.6999999999999993
 20
385.0
 30
0.0
 40
4.0
  1
A
  7
ISO_PROPORTIONAL
 72
     4
 11
7.5
 21
387.0
 31
0.0
  0
LINE
  5
C05
  8
FRAME_200
 10
10.0
 20
420.0
 30
0.0
 11
0.0
 21
420.0
 31
0.0
  0
LINE
  5
C06
  8
FRAME_200
 10
0.0
 20
420.0
 30
0.0
 11
0.0
 21
410.0
 31
0.0
  0
TEXT
  5
C07
  8
FRAME_050
 10
44.874999999999993
 20
410.5
 30
0.0
 40
4.0
  1
1
  7
ISO_PROPORTIONAL
 72
     4
 11
45.875
 21
412.5
 31
0.0
  0
LINE
  5
C08
  8
FRAME_050
 10
81.75
 20
410.0
 30
0.0
 11
81.75
 21
415.0
 31
0.0
  0
TEXT
  5
C09
  8
FRAME_050
 10
116.1556692913386
 20
410.39960629921262
 30
0.0
 40
4.0
  1
2
  7
ISO_PROPORTIONAL
 72
     4
 11
117.625
 21
412.5
 31
0.0
  0
LINE
  5
C0A
  8
FRAME_050
 10
153.5
 20
410.0
 30
0.0
 11
153.5
 21
415.0
 31
0.0
  0
TEXT
  5
C0B
  8
FRAME_050
 10
187.89215728752529
 20
410.58284271247459
 30
0.0
 40
4.0
  1
3
  7
ISO_PROPORTIONAL
 72
     4
 11
189.375
 21
412.5
 31
0.0
  0
LINE
  5
C0C
  8
FRAME_050
 10
297.0
 20
405.0
 30
0.0
 11
297.0
 21
415.0
 31
0.0
  0
LINE
  5
C0D
  8
FRAME_050
 10
225.25
 20
410.0
 30
0.0
 11
225.25
 21
415.0
 31
0.0
  0
TEXT
  5
C0E
  8
FRAME_050
 10
259.52499999999998
 20
410.5
 30
0.0
 40
4.0
  1
4
  7
ISO_PROPORTIONAL
 72
     4
 11
261.125
 21
412.5
 31
0.0
  0
LINE
  5
C0F
  8
FRAME_070
 10
584.0
 20
10.0
 30
0.0
 11
584.0
 21
410.0
 31
0.0
  0
ATTDEF
  5
C10
  8
FRAME_025
 10
473.0
 20
31.75
 30
0.0
 40
2.5
  1
XXX - 00/00/00
  7
ISO_PROPORTIONAL
 11
473.0
 21
33.0
 31
0.0
  3
Approved by - Date
  2
APPROVED_BY_DATE
 70
     8
 74
     2
  0
TEXT
  5
C11
  8
FRAME_025
 10
448.0
 20
41.749999999999993
 30
0.0
 40
2.5
  1
Title/Name, designation, material, dimension etc
  7
ISO_PROPORTIONAL
 11
448.0
 21
43.0
 31
0.0
 73
     2
  0
TEXT
  5
C12
  8
FRAME_025
 10
473.0
 20
35.75
 30
0.0
 40
2.5
  1
Approved by - date
  7
ISO_PROPORTIONAL
 11
473.0
 21
37.0
 31
0.0
 73
     2
  0
LINE
  5
C13
  8
FRAME_070
 10
414.0
 20
46.0
 30
0.0
 11
584.0
 21
46.0
 31
0.0
  0
LINE
  5
C14
  8
FRAME_070
 10
414.0
 20
40.0
 30
0.0
 11
584.0
 21
40.0
 31
0.0
  0
LINE
  5
C15
  8
FRAME_070
 10
414.0
 20
30.0
 30
0.0
 11
584.0
 21
30.0
 31
0.0
  0
LINE
  5
C16
  8
FRAME_050
 10
368.75
 20
5.0
 30
0.0
 11
368.75
 21
10.0
 31
0.0
  0
LINE
  5
C17
  8
FRAME_050
 10
337.0
 20
5.0
 30
0.0
 11
337.0
 21
10.0
 31
0.0
  0
LINE
  5
C18
  8
FRAME_050
 10
327.0
 20
5.0
 30
0.0
 11
327.0
 21
10.0
 31
0.0
  0
LINE
  5
C19
  8
FRAME_050
 10
317.0
 20
5.0
 30
0.0
 11
317.0
 21
10.0
 31
0.0
  0
LINE
  5
C1A
  8
FRAME_050
 10
307.0
 20
5.0
 30
0.0
 11
307.0
 21
10.0
 31
0.0
  0
LINE
  5
C1B
  8
FRAME_050
 10
347.0
 20
5.0
 30
0.0
 11
347.0
 21
10.0
 31
0.0
  0
LINE
  5
C1C
  8
FRAME_050
 10
440.5
 20
5.0
 30
0.0
 11
440.5
 21
10.0
 31
0.0
  0
TEXT
  5
C1D
  8
FRAME_050
 10
403.24547244094481
 20
5.4102362204724406
 30
0.0
 40
4.0
  1
6
  7
ISO_PROPORTIONAL
 72
     4
 11
404.62499999999989
 21
7.5
 31
0.0
  0
TEXT
  5
C1E
  8
FRAME_050
 10
474.97500000000002
 20
5.5
 30
0.0
 40
4.0
  1
7
  7
ISO_PROPORTIONAL
 72
     4
 11
476.37499999999989
 21
7.5
 31
0.0
  0
TEXT
  5
C1F
  8
FRAME_025
 10
431.0
 20
41.749999999999993
 30
0.0
 40
2.5
  1
Quantity
  7
ISO_PROPORTIONAL
 11
431.0
 21
43.0
 31
0.0
 73
     2
  0
TEXT
  5
C20
  8
FRAME_025
 10
416.0
 20
41.749999999999993
 30
0.0
 40
2.5
  1
Itemref
  7
ISO_PROPORTIONAL
 11
416.0
 21
43.0
 31
0.0
 73
     2
  0
LINE
  5
C21
  8
FRAME_070
 10
414.0
 20
40.0
 30
0.0
 11
414.0
 21
46.0
 31
0.0
  0
LINE
  5
C22
  8
FRAME_070
 10
429.0
 20
40.0
 30
0.0
 11
429.0
 21
46.0
 31
0.0
  0
LINE
  5
C23
  8
FRAME_070
 10
414.0
 20
10.0
 30
0.0
 11
414.0
 21
40.0
 31
0.0
  0
ATTDEF
  5
C24
  8
FRAME_025
 10
416.0
 20
31.75
 30
0.0
 40
2.5
  1
XXX
  7
ISO_PROPORTIONAL
 11
416.0
 21
33.0
 31
0.0
  3
Designed by
  2
DESIGNED_BY
 70
     8
 74
     2
  0
TEXT
  5
C25
  8
FRAME_025
 10
416.0
 20
35.75
 30
0.0
 40
2.5
  1
Designed by
  7
ISO_PROPORTIONAL
 11
416.0
 21
37.0
 31
0.0
 73
     2
  0
LINE
  5
C26
  8
FRAME_070
 10
446.0
 20
40.0
 30
0.0
 11
446.0
 21
46.0
 31
0.0
  0
ATTDEF
  5
C27
  8
FRAME_025
 10
448.0
 20
31.75
 30
0.0
 40
2.5
  1
XXX
  7
ISO_PROPORTIONAL
 11
448.0
 21
33.0
 31
0.0
  3
Checked by
  2
CHECKED_BY
 70
     8
 74
     2
  0
TEXT
  5
C28
  8
FRAME_025
 10
448.0
 20
35.75
 30
0.0
 40
2.5
  1
Checked by
  7
ISO_PROPORTIONAL
 11
448.0
 21
37.0
 31
0.0
 73
     2
  0
ATTDEF
  5
C29
  8
FRAME_050
 10
444.74999999999989
 20
17.5
 30
0.0
 40
5.0
  1
XXX
  7
ISO_PROPORTIONAL
 72
     4
 11
451.49999999999989
 21
20.0
 31
0.0
  3
Owner
  2
OWNER
 70
     8
  0
LINE
  5
C2A
  8
FRAME_070
 10
446.0
 20
30.0
 30
0.0
 11
446.0
 21
40.0
 31
0.0
  0
LINE
  5
C2B
  8
FRAME_070
 10
471.0
 20
30.0
 30
0.0
 11
471.0
 21
40.0
 31
0.0
  0
LINE
  5
C2C
  8
FRAME_070
 10
489.0
 20
20.0
 30
0.0
 11
584.0
 21
20.0
 31
0.0
  0
LINE
  5
C2D
  8
FRAME_050
 10
512.25
 20
5.0
 30
0.0
 11
512.25
 21
10.0
 31
0.0
  0
TEXT
  5
C2E
  8
FRAME_050
 10
546.72499999999991
 20
5.5
 30
0.0
 40
4.0
  1
8
  7
ISO_PROPORTIONAL
 72
     4
 11
548.125
 21
7.5
 31
0.0
  0
ATTDEF
  5
C2F
  8
FRAME_050
 10
517.64999999999986
 20
13.5
 30
0.0
 40
3.0
  1
X
  7
ISO_PROPORTIONAL
 72
     4
 11
519.0
 21
15.0
 31
0.0
  3
Drawing number
  2
DRAWING_NUMBER
 70
     8
  0
ATTDEF
  5
C30
  8
FRAME_050
 10
529.75
 20
22.5
 30
0.0
 40
5.0
  1
XXX
  7
ISO_PROPORTIONAL
 72
     4
 11
536.5
 21
25.0
 31
0.0
  3
Title / Name
  2
TITLE
 70
     8
  0
LINE
  5
C31
  8
FRAME_070
 10
489.0
 20
10.0
 30
0.0
 11
489.0
 21
30.0
 31
0.0
  0
ATTDEF
  5
C32
  8
FRAME_025
 10
511.0
 20
31.75
 30
0.0
 40
2.5
  1
XXX
  7
ISO_PROPORTIONAL
 11
511.0
 21
33.0
 31
0.0
  3
Filename
  2
FILENAME
 70
     8
 74
     2
  0
TEXT
  5
C33
  8
FRAME_025
 10
511.0
 20
35.75
 30
0.0
 40
2.5
  1
Filename
  7
ISO_PROPORTIONAL
 11
511.0
 21
37.0
 31
0.0
 73
     2
  0
LINE
  5
C34
  8
FRAME_070
 10
509.0
 20
30.0
 30
0.0
 11
509.0
 21
40.0
 31
0.0
  0
TEXT
  5
C35
  8
FRAME_025
 10
536.0
 20
41.749999999999993
 30
0.0
 40
2.5
  1
Article No./Reference
  7
ISO_PROPORTIONAL
 11
536.0
 21
43.0
 31
0.0
 73
     2
  0
LINE
  5
C36
  8
FRAME_070
 10
534.0
 20
40.0
 30
0.0
 11
534.0
 21
46.0
 31
0.0
  0
ATTDEF
  5
C37
  8
FRAME_025
 10
551.0
 20
11.75
 30
0.0
 40
2.5
  1
0
  7
ISO_PROPORTIONAL
 11
551.0
 21
13.0
 31
0.0
  3
Edition
  2
EDITION
 70
     8
 74
     2
  0
TEXT
  5
C38
  8
FRAME_025
 10
551.0
 20
15.75
 30
0.0
 40
2.5
  1
Edition
  7
ISO_PROPORTIONAL
 11
551.0
 21
17.0
 31
0.0
 73
     2
  0
LINE
  5
C39
  8
FRAME_070
 10
549.0
 20
10.0
 30
0.0
 11
549.0
 21
20.0
 31
0.0
  0
ATTDEF
  5
C3A
  8
FRAME_025
 10
536.0
 20
31.75
 30
0.0
 40
2.5
  1
00/00/00
  7
ISO_PROPORTIONAL
 11
536.0
 21
33.0
 31
0.0
  3
Date
  2
DATE
 70
     8
 74
     2
  0
TEXT
  5
C3B
  8
FRAME_025
 10
536.0
 20
35.75
 30
0.0
 40
2.5
  1
Date
  7
ISO_PROPORTIONAL
 11
536.0
 21
37.0
 31
0.0
 73
     2
  0
LINE
  5
C3C
  8
FRAME_070
 10
534.0
 20
30.0
 30
0.0
 11
534.0
 21
40.0
 31
0.0
  0
ATTDEF
  5
C3D
  8
FRAME_025
 10
566.0
 20
11.75
 30
0.0
 40
2.5
  1
1/1
  7
ISO_PROPORTIONAL
 11
566.0
 21
13.0
 31
0.0
  3
Sheet
  2
SHEET
 70
     8
 74
     2
  0
TEXT
  5
C3E
  8
FRAME_025
 10
566.0
 20
15.75
 30
0.0
 40
2.5
  1
Sheet
  7
ISO_PROPORTIONAL
 11
566.0
 21
17.0
 31
0.0
 73
     2
  0
LINE
  5
C3F
  8
FRAME_070
 10
564.0
 20
10.0
 30
0.0
 11
564.0
 21
20.0
 31
0.0
  0
ATTDEF
  5
C40
  8
FRAME_025
 10
566.0
 20
31.75
 30
0.0
 40
2.5
  1
1:1
  7
ISO_PROPORTIONAL
 11
566.0
 21
33.0
 31
0.0
  3
Scale
  2
SCALE
 70
     8
 74
     2
  0
TEXT
  5
C41
  8
FRAME_025
 10
566.0
 20
35.75
 30
0.0
 40
2.5
  1
Scale
  7
ISO_PROPORTIONAL
 11
566.0
 21
37.0
 31
0.0
 73
     2
  0
LINE
  5
C42
  8
FRAME_070
 10
564.0
 20
30.0
 30
0.0
 11
564.0
 21
40.0
 31
0.0
  0
LINE
  5
C43
  8
FRAME_200
 10
594.0
 20
0.0
 30
0.0
 11
594.0
 21
10.0
 31
0.0
  0
LINE
  5
C44
  8
FRAME_200
 10
594.0
 20
0.0
 30
0.0
 11
584.0
 21
0.0
 31
0.0
  0
TEXT
  5
C45
  8
FRAME_050
 10
584.89999999999998
 20
35.0
 30
0.0
 40
4.0
  1
H
  7
ISO_PROPORTIONAL
 72
     4
 11
586.5
 21
37.0
 31
0.0
  0
LINE
  5
C46
  8
FRAME_050
 10
589.0
 20
60.0
 30
0.0
 11
584.0
 21
60.0
 31
0.0
  0
TEXT
  5
C47
  8
FRAME_050
 10
585.0035533905932
 20
85.0
 30
0.0
 40
4.0
  1
G
  7
ISO_PROPORTIONAL
 72
     4
 11
586.5
 21
87.0
 31
0.0
  0
LINE
  5
C48
  8
FRAME_050
 10
589.0
 20
110.0
 30
0.0
 11
584.0
 21
110.0
 31
0.0
  0
TEXT
  5
C49
  8
FRAME_050
 10
585.09999999999991
 20
135.0
 30
0.0
 40
4.0
  1
F
  7
ISO_PROPORTIONAL
 72
     4
 11
586.5
 21
137.0
 31
0.0
  0
LINE
  5
C4A
  8
FRAME_050
 10
589.0
 20
160.0
 30
0.0
 11
584.0
 21
160.0
 31
0.0
  0
TEXT
  5
C4B
  8
FRAME_050
 10
585.09999999999991
 20
185.0
 30
0.0
 40
4.0
  1
E
  7
ISO_PROPORTIONAL
 72
     4
 11
586.5
 21
187.0
 31
0.0
  0
LINE
  5
C4C
  8
FRAME_070
 10
414.0
 20
404.0
 30
0.0
 11
584.0
 21
404.0
 31
0.0
  0
TEXT
  5
C4D
  8
FRAME_050
 10
331.39215728752538
 20
410.58284271247459
 30
0.0
 40
4.0
  1
5
  7
ISO_PROPORTIONAL
 72
     4
 11
332.875
 21
412.5
 31
0.0
  0
LINE
  5
C4E
  8
FRAME_050
 10
368.75
 20
410.0
 30
0.0
 11
368.75
 21
415.0
 31
0.0
  0
TEXT
  5
C4F
  8
FRAME_025
 10
428.0
 20
405.75
 30
0.0
 40
2.5
  1
Revision note
  7
ISO_PROPORTIONAL
 11
428.0
 21
407.0
 31
0.0
 73
     2
  0
TEXT
  5
C50
  8
FRAME_025
 10
416.0
 20
405.75
 30
0.0
 40
2.5
  1
RevNo
  7
ISO_PROPORTIONAL
 11
416.0
 21
407.0
 31
0.0
 73
     2
  0
LINE
  5
C51
  8
FRAME_070
 10
426.0
 20
404.0
 30
0.0
 11
426.0
 21
410.0
 31
0.0
  0
LINE
  5
C52
  8
FRAME_070
 10
414.0
 20
404.0
 30
0.0
 11
414.0
 21
410.0
 31
0.0
  0
TEXT
  5
C53
  8
FRAME_050
 10
403.24547244094481
 20
410.41023622047243
 30
0.0
 40
4.0
  1
6
  7
ISO_PROPORTIONAL
 72
     4
 11
404.62499999999989
 21
412.5
 31
0.0
  0
LINE
  5
C54
  8
FRAME_050
 10
440.5
 20
410.0
 30
0.0
 11
440.5
 21
415.0
 31
0.0
  0
TEXT
  5
C55
  8
FRAME_050
 10
474.97500000000002
 20
410.5
 30
0.0
 40
4.0
  1
7
  7
ISO_PROPORTIONAL
 72
     4
 11
476.37499999999989
 21
412.5
 31
0.0
  0
LINE
  5
C56
  8
FRAME_050
 10
579.0
 20
210.0
 30
0.0
 11
589.0
 21
210.0
 31
0.0
  0
TEXT
  5
C57
  8
FRAME_050
 10
584.78609127034736
 20
235.0
 30
0.0
 40
4.0
  1
D
  7
ISO_PROPORTIONAL
 72
     4
 11
586.5
 21
237.0
 31
0.0
  0
LINE
  5
C58
  8
FRAME_050
 10
589.0
 20
260.0
 30
0.0
 11
584.0
 21
260.0
 31
0.0
  0
TEXT
  5
C59
  8
FRAME_050
 10
585.19319805153395
 20
285.0
 30
0.0
 40
4.0
  1
C
  7
ISO_PROPORTIONAL
 72
     4
 11
586.5
 21
287.0
 31
0.0
  0
LINE
  5
C5A
  8
FRAME_050
 10
589.0
 20
310.0
 30
0.0
 11
584.0
 21
310.0
 31
0.0
  0
TEXT
  5
C5B
  8
FRAME_050
 10
584.89999999999998
 20
335.0
 30
0.0
 40
4.0
  1
B
  7
ISO_PROPORTIONAL
 72
     4
 11
586.5
 21
337.0
 31
0.0
  0
TEXT
  5
C5C
  8
FRAME_025
 10
571.08299391850551
 20
405.75
 30
0.0
 40
2.5
  1
Checked
  7
ISO_PROPORTIONAL
 11
571.08299391850551
 21
407.0
 31
0.0
 73
     2
  0
TEXT
  5
C5D
  8
FRAME_025
 10
555.36099797283532
 20
405.75
 30
0.0
 40
2.5
  1
Signature
  7
ISO_PROPORTIONAL
 11
555.36099797283532
 21
407.0
 31
0.0
 73
     2
  0
TEXT
  5
C5E
  8
FRAME_025
 10
537.0
 20
405.75
 30
0.0
 40
2.5
  1
Date
  7
ISO_PROPORTIONAL
 11
537.0
 21
407.0
 31
0.0
 73
     2
  0
LINE
  5
C5F
  8
FRAME_070
 10
570.0
 20
404.0
 30
0.0
 11
570.0
 21
410.0
 31
0.0
  0
LINE
  5
C60
  8
FRAME_070
 10
555.0
 20
404.0
 30
0.0
 11
555.0
 21
410.0
 31
0.0
  0
LINE
  5
C61
  8
FRAME_070
 10
535.0
 20
404.0
 30
0.0
 11
535.0
 21
410.0
 31
0.0
  0
LINE
  5
C62
  8
FRAME_050
 10
512.25
 20
410.0
 30
0.0
 11
512.25
 21
415.0
 31
0.0
  0
TEXT
  5
C63
  8
FRAME_050
 10
546.72499999999991
 20
410.5
 30
0.0
 40
4.0
  1
8
  7
ISO_PROPORTIONAL
 72
     4
 11
548.125
 21
412.5
 31
0.0
  0
LINE
  5
C64
  8
FRAME_050
 10
589.0
 20
360.0
 30
0.0
 11
584.0
 21
360.0
 31
0.0
  0
TEXT
  5
C65
  8
FRAME_050
 10
584.70000000000005
 20
385.0
 30
0.0
 40
4.0
  1
A
  7
ISO_PROPORTIONAL
 72
     4
 11
586.5
 21
387.0
 31
0.0
  0
LINE
  5
C66
  8
FRAME_200
 10
594.0
 20
420.0
 30
0.0
 11
584.0
 21
420.0
 31
0.0
  0
LINE
  5
C67
  8
FRAME_200
 10
594.0
 20
410.0
 30
0.0
 11
594.0
 21
420.0
 31
0.0
  0
ENDBLK
  5
C69
  8
0
  0
BLOCK
  8
0
  2
WOBB001END
 70
     0
 10
0.0
 20
0.0
 30
0.0
  3
WOBB001END
  1

  0
LINE
  5
4D66
  8
0
  6
CONTINUOUS
 10
0.0
 20
0.0
 30
0.0
 11
0.8749999999999998
 21
0.0
 31
0.0
  0
ARC
  5
4D67
  8
0
  6
CONTINUOUS
 10
0.0331648379439287
 20
-0.5087238935900232
 30
0.0
 40
0.8790130605592325
 50
284.06490243660443
 51
312.19222981924361
  0
ARC
  5
4D68
  8
0
  6
CONTINUOUS
 10
0.2841534338796767
 20
-1.510548310625538
 30
0.0
 40
0.1537731892806598
 50
104.0649024366044
 51
179.4721730735024
  0
LINE
  5
4D69
  8
0
  6
CONTINUOUS
 10
0.0
 20
0.0
 30
0.0
 11
-0.0000000000000003
 21
-1.7501564476661919
 31
0.0
  0
ARC
  5
4D6A
  8
0
  6
CONTINUOUS
 10
0.1404622019506122
 20
-1.6303137183546199
 30
0.0
 40
0.1198427293115722
 50
275.0
 51
85.000000000000057
  0
LINE
  5
4D6B
  8
0
  6
CONTINUOUS
 10
-0.0000000000000003
 20
-1.7501564476661919
 30
0.0
 11
0.1456946485130855
 21
-1.7501564476661919
 31
0.0
  0
LINE
  5
4D6C
  8
0
  6
CONTINUOUS
 10
0.1377603739254348
 20
-1.7508506067459131
 30
0.0
 11
0.150907184036669
 21
-1.749700409899652
 31
0.0
  0
LINE
  5
4D6D
  8
0
  6
CONTINUOUS
 10
0.1303867696719884
 20
-1.5091317231818231
 30
0.0
 11
0.1509071840366689
 21
-1.5109270268095869
 31
0.0
  0
LINE
  5
4D6E
  8
0
  6
CONTINUOUS
 10
0.8749999999999998
 20
0.0
 30
0.0
 11
0.8749999999999996
 21
-0.8649327026588228
 31
0.0
  0
LINE
  5
4D6F
  8
0
  6
CONTINUOUS
 10
0.727014513830997
 20
-0.8726882933550612
 30
0.0
 11
0.727014513830997
 21
-0.9264923397184784
 31
0.0
  0
ARC
  5
4D70
  8
0
  6
CONTINUOUS
 10
0.41187090827646
 20
-0.9264923397184784
 30
0.0
 40
0.315143605554537
 50
312.19222981924361
 51
0.0
  0
LINE
  5
4D71
  8
0
  6
CONTINUOUS
 10
0.727014513830997
 20
-0.8726882933550612
 30
0.0
 11
0.8749999999999996
 21
-0.8649327026588228
 31
0.0
  0
ENDBLK
  5
4D72
  8
0
  0
BLOCK
  8
0
  2
*D4
 70
     1
 10
0.0
 20
0.0
 30
0.0
  3
*D4
  1

  0
LINE
  5
BEDB
  8
0
 62
     0
 10
-333.06253212464071
 20
691.31508250487684
 30
0.0
 11
-333.06253212464071
 21
690.31118782663668
 31
0.0
  0
LINE
  5
BEDC
  8
0
 62
     0
 10
-332.18753212464071
 20
691.31508250487684
 30
0.0
 11
-332.18753212464071
 21
690.31118782663668
 31
0.0
  0
LINE
  5
BEDD
  8
0
 62
     0
 10
-333.06253212464071
 20
690.37368782663657
 30
0.0
 11
-332.18753212464071
 21
690.37368782663657
 31
0.0
  0
INSERT
  5
BEDE
  8
0
 62
     0
  2
_ARCHTICK
 10
-333.06253212464071
 20
690.37368782663657
 30
0.0
 41
0.046875
 42
0.046875
 43
0.046875
 50
180.0
  0
INSERT
  5
BEDF
  8
0
 62
     0
  2
_ARCHTICK
 10
-332.18753212464071
 20
690.37368782663657
 30
0.0
 41
0.046875
 42
0.046875
 43
0.046875
  0
INSERT
  5
BEE0
  8
0
  2
*U113
 10
0.0
 20
0.0
 30
0.0
  0
POINT
  5
BEE1
  8
DEFPOINTS
 62
     0
 10
-333.06253212464071
 20
691.40883250487684
 30
0.0
  0
POINT
  5
BEE2
  8
DEFPOINTS
 62
     0
 10
-332.18753212464071
 20
691.40883250487684
 30
0.0
  0
POINT
  5
BEE3
  8
DEFPOINTS
 62
     0
 10
-332.18753212464071
 20
690.37368782663657
 30
0.0
  0
ENDBLK
  5
99A3
  8
0
  0
BLOCK
  8
0
  2
*D5
 70
     1
 10
0.0
 20
0.0
 30
0.0
  3
*D5
  1

  0
LINE
  5
BEE4
  8
0
 62
     0
 10
-329.30718467573899
 20
692.63045633080719
 30
0.0
 11
-329.30718467573899
 21
691.30328520484045
 31
0.0
  0
LINE
  5
BEE5
  8
0
 62
     0
 10
-328.43218467573899
 20
692.63045633080719
 30
0.0
 11
-328.43218467573899
 21
691.30328520484045
 31
0.0
  0
LINE
  5
BEE6
  8
0
 62
     0
 10
-329.30718467573899
 20
691.36578520484045
 30
0.0
 11
-328.43218467573899
 21
691.36578520484045
 31
0.0
  0
INSERT
  5
BEE7
  8
0
 62
     0
  2
_ARCHTICK
 10
-329.30718467573899
 20
691.36578520484045
 30
0.0
 41
0.046875
 42
0.046875
 43
0.046875
 50
180.0
  0
INSERT
  5
BEE8
  8
0
 62
     0
  2
_ARCHTICK
 10
-328.43218467573899
 20
691.36578520484045
 30
0.0
 41
0.046875
 42
0.046875
 43
0.046875
  0
INSERT
  5
BEE9
  8
0
  2
*U114
 10
0.0
 20
0.0
 30
0.0
  0
POINT
  5
BEEA
  8
DEFPOINTS
 62
     0
 10
-329.30718467573899
 20
692.72420633080719
 30
0.0
  0
POINT
  5
BEEB
  8
DEFPOINTS
 62
     0
 10
-328.43218467573899
 20
692.72420633080719
 30
0.0
  0
POINT
  5
BEEC
  8
DEFPOINTS
 62
     0
 10
-328.43218467573899
 20
691.36578520484045
 30
0.0
  0
ENDBLK
  5
99AF
  8
0
  0
BLOCK
  8
0
  2
*D6
 70
     1
 10
0.0
 20
0.0
 30
0.0
  3
*D6
  1

  0
LINE
  5
BEED
  8
0
 62
     0
 10
-337.50284139718588
 20
696.59283965402699
 30
0.0
 11
-338.26658333522772
 21
696.59283965402699
 31
0.0
  0
LINE
  5
BEEE
  8
0
 62
     0
 10
-337.50284139718588
 20
694.8428396540271
 30
0.0
 11
-338.26658333522772
 21
694.8428396540271
 31
0.0
  0
LINE
  5
BEEF
  8
0
 62
     0
 10
-338.20408333522772
 20
696.59283965402699
 30
0.0
 11
-338.20408333522772
 21
694.8428396540271
 31
0.0
  0
INSERT
  5
BEF0
  8
0
 62
     0
  2
_ARCHTICK
 10
-338.20408333522772
 20
696.59283965402699
 30
0.0
 41
0.046875
 42
0.046875
 43
0.046875
 50
90.0
  0
INSERT
  5
BEF1
  8
0
 62
     0
  2
_ARCHTICK
 10
-338.20408333522772
 20
694.8428396540271
 30
0.0
 41
0.046875
 42
0.046875
 43
0.046875
 50
270.0
  0
INSERT
  5
BEF2
  8
0
  2
*U115
 10
0.0
 20
0.0
 30
0.0
  0
POINT
  5
BEF3
  8
DEFPOINTS
 62
     0
 10
-337.40909139718588
 20
696.59283965402699
 30
0.0
  0
POINT
  5
BEF4
  8
DEFPOINTS
 62
     0
 10
-337.40909139718588
 20
694.8428396540271
 30
0.0
  0
POINT
  5
BEF5
  8
DEFPOINTS
 62
     0
 10
-338.20408333522772
 20
694.8428396540271
 30
0.0
  0
ENDBLK
  5
99BB
  8
0
  0
BLOCK
  8
0
  2
*D7
 70
     1
 10
0.0
 20
0.0
 30
0.0
  3
*D7
  1

  0
LINE
  5
BEF6
  8
0
 62
     0
 10
-337.40909139718588
 20
696.68658965402699
 30
0.0
 11
-337.40909139718588
 21
696.77972743499947
 31
0.0
  0
LINE
  5
BEF7
  8
0
 62
     0
 10
-337.15909139718588
 20
696.1240896540271
 30
0.0
 11
-337.15909139718588
 21
696.77972743499947
 31
0.0
  0
LINE
  5
BEF8
  8
0
 62
     0
 10
-337.40909139718588
 20
696.71722743499936
 30
0.0
 11
-337.45596639718588
 21
696.71722743499936
 31
0.0
  0
LINE
  5
BEF9
  8
0
 62
     0
 10
-337.15909139718588
 20
696.71722743499936
 30
0.0
 11
-337.11221639718588
 21
696.71722743499936
 31
0.0
  0
INSERT
  5
BEFA
  8
0
 62
     0
  2
_ARCHTICK
 10
-337.40909139718588
 20
696.71722743499936
 30
0.0
 41
0.046875
 42
0.046875
 43
0.046875
  0
INSERT
  5
BEFB
  8
0
 62
     0
  2
_ARCHTICK
 10
-337.15909139718588
 20
696.71722743499936
 30
0.0
 41
0.046875
 42
0.046875
 43
0.046875
 50
180.0
  0
INSERT
  5
BEFC
  8
0
  2
*U116
 10
0.0
 20
0.0
 30
0.0
  0
POINT
  5
BEFD
  8
DEFPOINTS
 62
     0
 10
-337.40909139718588
 20
696.59283965402699
 30
0.0
  0
POINT
  5
BEFE
  8
DEFPOINTS
 62
     0
 10
-337.15909139718588
 20
696.0303396540271
 30
0.0
  0
POINT
  5
BEFF
  8
DEFPOINTS
 62
     0
 10
-337.15909139718588
 20
696.71722743499936
 30
0.0
  0
ENDBLK
  5
99C8
  8
0
  0
BLOCK
  8
0
  2
*D8
 70
     1
 10
0.0
 20
0.0
 30
0.0
  3
*D8
  1

  0
LINE
  5
BF00
  8
0
 62
     0
 10
-337.24468467573899
 20
692.63045633080719
 30
0.0
 11
-337.24468467573899
 21
691.30541334881241
 31
0.0
  0
LINE
  5
BF01
  8
0
 62
     0
 10
-336.36968467573899
 20
692.63045633080719
 30
0.0
 11
-336.36968467573899
 21
691.30541334881241
 31
0.0
  0
LINE
  5
BF02
  8
0
 62
     0
 10
-337.24468467573899
 20
691.36791334881229
 30
0.0
 11
-336.36968467573899
 21
691.36791334881229
 31
0.0
  0
INSERT
  5
BF03
  8
0
 62
     0
  2
_ARCHTICK
 10
-337.24468467573899
 20
691.36791334881229
 30
0.0
 41
0.046875
 42
0.046875
 43
0.046875
 50
180.0
  0
INSERT
  5
BF04
  8
0
 62
     0
  2
_ARCHTICK
 10
-336.36968467573899
 20
691.36791334881229
 30
0.0
 41
0.046875
 42
0.046875
 43
0.046875
  0
INSERT
  5
BF05
  8
0
  2
*U117
 10
0.0
 20
0.0
 30
0.0
  0
POINT
  5
BF06
  8
DEFPOINTS
 62
     0
 10
-337.24468467573899
 20
692.72420633080719
 30
0.0
  0
POINT
  5
BF07
  8
DEFPOINTS
 62
     0
 10
-336.36968467573899
 20
692.72420633080719
 30
0.0
  0
POINT
  5
BF08
  8
DEFPOINTS
 62
     0
 10
-336.36968467573899
 20
691.36791334881229
 30
0.0
  0
ENDBLK
  5
99D4
  8
0
  0
BLOCK
  8
0
  2
*D9
 70
     1
 10
0.0
 20
0.0
 30
0.0
  3
*D9
  1

  0
LINE
  5
BF09
  8
0
 62
     0
 10
-341.00003212464071
 20
691.31508250487684
 30
0.0
 11
-341.00003212464071
 21
690.35816037799145
 31
0.0
  0
LINE
  5
BF0A
  8
0
 62
     0
 10
-340.12503212464071
 20
691.31508250487684
 30
0.0
 11
-340.12503212464071
 21
690.35816037799145
 31
0.0
  0
LINE
  5
BF0B
  8
0
 62
     0
 10
-341.00003212464071
 20
690.42066037799145
 30
0.0
 11
-340.12503212464071
 21
690.42066037799145
 31
0.0
  0
INSERT
  5
BF0C
  8
0
 62
     0
  2
_ARCHTICK
 10
-341.00003212464071
 20
690.42066037799145
 30
0.0
 41
0.046875
 42
0.046875
 43
0.046875
 50
180.0
  0
INSERT
  5
BF0D
  8
0
 62
     0
  2
_ARCHTICK
 10
-340.12503212464071
 20
690.42066037799145
 30
0.0
 41
0.046875
 42
0.046875
 43
0.046875
  0
INSERT
  5
BF0E
  8
0
  2
*U118
 10
0.0
 20
0.0
 30
0.0
  0
POINT
  5
BF0F
  8
DEFPOINTS
 62
     0
 10
-341.00003212464071
 20
691.40883250487684
 30
0.0
  0
POINT
  5
BF10
  8
DEFPOINTS
 62
     0
 10
-340.12503212464071
 20
691.40883250487684
 30
0.0
  0
POINT
  5
BF11
  8
DEFPOINTS
 62
     0
 10
-340.12503212464071
 20
690.42066037799145
 30
0.0
  0
ENDBLK
  5
99E0
  8
0
  0
BLOCK
  8
0
  2
*D10
 70
     1
 10
0.0
 20
0.0
 30
0.0
  3
*D10
  1

  0
LINE
  5
BF12
  8
0
 62
     0
 10
-341.0000321246406
 20
694.10015903712292
 30
0.0
 11
-341.0000321246406
 21
694.87532564734113
 31
0.0
  0
LINE
  5
BF13
  8
0
 62
     0
 10
-340.1250321246406
 20
694.10015903712292
 30
0.0
 11
-340.1250321246406
 21
694.87532564734113
 31
0.0
  0
LINE
  5
BF14
  8
0
 62
     0
 10
-341.0000321246406
 20
694.81282564734113
 30
0.0
 11
-340.1250321246406
 21
694.81282564734113
 31
0.0
  0
INSERT
  5
BF15
  8
0
 62
     0
  2
_ARCHTICK
 10
-341.0000321246406
 20
694.81282564734113
 30
0.0
 41
0.046875
 42
0.046875
 43
0.046875
 50
180.0
  0
INSERT
  5
BF16
  8
0
 62
     0
  2
_ARCHTICK
 10
-340.1250321246406
 20
694.81282564734113
 30
0.0
 41
0.046875
 42
0.046875
 43
0.046875
  0
INSERT
  5
BF17
  8
0
  2
*U119
 10
0.0
 20
0.0
 30
0.0
  0
POINT
  5
BF18
  8
DEFPOINTS
 62
     0
 10
-341.0000321246406
 20
694.00640903712292
 30
0.0
  0
POINT
  5
BF19
  8
DEFPOINTS
 62
     0
 10
-340.1250321246406
 20
694.00640903712292
 30
0.0
  0
POINT
  5
BF1A
  8
DEFPOINTS
 62
     0
 10
-340.1250321246406
 20
694.81282564734113
 30
0.0
  0
ENDBLK
  5
99EC
  8
0
  0
BLOCK
  8
0
  2
*D11
 70
     1
 10
0.0
 20
0.0
 30
0.0
  3
*D11
  1

  0
LINE
  5
BF1B
  8
0
 62
     0
 10
-329.41439512161418
 20
696.59283965402699
 30
0.0
 11
-330.17813705965602
 21
696.59283965402699
 31
0.0
  0
LINE
  5
BF1C
  8
0
 62
     0
 10
-329.41439512161418
 20
694.8428396540271
 30
0.0
 11
-330.17813705965602
 21
694.8428396540271
 31
0.0
  0
LINE
  5
BF1D
  8
0
 62
     0
 10
-330.11563705965602
 20
696.59283965402699
 30
0.0
 11
-330.11563705965602
 21
694.8428396540271
 31
0.0
  0
INSERT
  5
BF1E
  8
0
 62
     0
  2
_ARCHTICK
 10
-330.11563705965602
 20
696.59283965402699
 30
0.0
 41
0.046875
 42
0.046875
 43
0.046875
 50
90.0
  0
INSERT
  5
BF1F
  8
0
 62
     0
  2
_ARCHTICK
 10
-330.11563705965602
 20
694.8428396540271
 30
0.0
 41
0.046875
 42
0.046875
 43
0.046875
 50
270.0
  0
INSERT
  5
BF20
  8
0
  2
*U120
 10
0.0
 20
0.0
 30
0.0
  0
POINT
  5
BF21
  8
DEFPOINTS
 62
     0
 10
-329.32064512161418
 20
696.59283965402699
 30
0.0
  0
POINT
  5
BF22
  8
DEFPOINTS
 62
     0
 10
-329.32064512161418
 20
694.8428396540271
 30
0.0
  0
POINT
  5
BF23
  8
DEFPOINTS
 62
     0
 10
-330.11563705965602
 20
694.8428396540271
 30
0.0
  0
ENDBLK
  5
99F8
  8
0
  0
BLOCK
  8
0
  2
*D12
 70
     1
 10
0.0
 20
0.0
 30
0.0
  3
*D12
  1

  0
LINE
  5
BF24
  8
0
 62
     0
 10
-329.32064512161418
 20
696.68658965402699
 30
0.0
 11
-329.32064512161418
 21
696.77972743499947
 31
0.0
  0
LINE
  5
BF25
  8
0
 62
     0
 10
-329.07064512161418
 20
696.1240896540271
 30
0.0
 11
-329.07064512161418
 21
696.77972743499947
 31
0.0
  0
LINE
  5
BF26
  8
0
 62
     0
 10
-329.32064512161418
 20
696.71722743499936
 30
0.0
 11
-329.36752012161418
 21
696.71722743499936
 31
0.0
  0
LINE
  5
BF27
  8
0
 62
     0
 10
-329.07064512161418
 20
696.71722743499936
 30
0.0
 11
-329.02377012161418
 21
696.71722743499936
 31
0.0
  0
INSERT
  5
BF28
  8
0
 62
     0
  2
_ARCHTICK
 10
-329.32064512161418
 20
696.71722743499936
 30
0.0
 41
0.046875
 42
0.046875
 43
0.046875
  0
INSERT
  5
BF29
  8
0
 62
     0
  2
_ARCHTICK
 10
-329.07064512161418
 20
696.71722743499936
 30
0.0
 41
0.046875
 42
0.046875
 43
0.046875
 50
180.0
  0
INSERT
  5
BF2A
  8
0
  2
*U121
 10
0.0
 20
0.0
 30
0.0
  0
POINT
  5
BF2B
  8
DEFPOINTS
 62
     0
 10
-329.32064512161418
 20
696.59283965402699
 30
0.0
  0
POINT
  5
BF2C
  8
DEFPOINTS
 62
     0
 10
-329.07064512161418
 20
696.0303396540271
 30
0.0
  0
POINT
  5
BF2D
  8
DEFPOINTS
 62
     0
 10
-329.07064512161418
 20
696.71722743499936
 30
0.0
  0
ENDBLK
  5
9A05
  8
0
  0
BLOCK
  8
0
  2
*D13
 70
     1
 10
0.0
 20
0.0
 30
0.0
  3
*D13
  1

  0
LINE
  5
BF2E
  8
0
 62
     0
 10
-333.0625321246406
 20
693.97545903712285
 30
0.0
 11
-333.0625321246406
 21
694.79379080893375
 31
0.0
  0
LINE
  5
BF2F
  8
0
 62
     0
 10
-332.1875321246406
 20
693.97545903712285
 30
0.0
 11
-332.1875321246406
 21
694.79379080893375
 31
0.0
  0
LINE
  5
BF30
  8
0
 62
     0
 10
-333.0625321246406
 20
694.73129080893375
 30
0.0
 11
-332.1875321246406
 21
694.73129080893375
 31
0.0
  0
INSERT
  5
BF31
  8
0
 62
     0
  2
_ARCHTICK
 10
-333.0625321246406
 20
694.73129080893375
 30
0.0
 41
0.046875
 42
0.046875
 43
0.046875
 50
180.0
  0
INSERT
  5
BF32
  8
0
 62
     0
  2
_ARCHTICK
 10
-332.1875321246406
 20
694.73129080893375
 30
0.0
 41
0.046875
 42
0.046875
 43
0.046875
  0
INSERT
  5
BF33
  8
0
  2
*U122
 10
0.0
 20
0.0
 30
0.0
  0
POINT
  5
BF34
  8
DEFPOINTS
 62
     0
 10
-333.0625321246406
 20
693.88170903712285
 30
0.0
  0
POINT
  5
BF35
  8
DEFPOINTS
 62
     0
 10
-332.1875321246406
 20
693.88170903712285
 30
0.0
  0
POINT
  5
BF36
  8
DEFPOINTS
 62
     0
 10
-332.1875321246406
 20
694.73129080893375
 30
0.0
  0
ENDBLK
  5
9A11
  8
0
  0
BLOCK
  8
0
  2
*D14
 70
     1
 10
0.0
 20
0.0
 30
0.0
  3
*D14
  1

  0
LINE
  5
BF37
  8
0
 62
     0
 10
-313.6794734585298
 20
696.23441480638724
 30
0.0
 11
-314.44321539657147
 21
696.23441480638724
 31
0.0
  0
LINE
  5
BF38
  8
0
 62
     0
 10
-313.6794734585298
 20
693.98441480638724
 30
0.0
 11
-314.44321539657147
 21
693.98441480638724
 31
0.0
  0
LINE
  5
BF39
  8
0
 62
     0
 10
-314.38071539657147
 20
696.23441480638724
 30
0.0
 11
-314.38071539657147
 21
693.98441480638724
 31
0.0
  0
INSERT
  5
BF3A
  8
0
 62
     0
  2
_ARCHTICK
 10
-314.38071539657147
 20
696.23441480638724
 30
0.0
 41
0.046875
 42
0.046875
 43
0.046875
 50
90.0
  0
INSERT
  5
BF3B
  8
0
 62
     0
  2
_ARCHTICK
 10
-314.38071539657147
 20
693.98441480638724
 30
0.0
 41
0.046875
 42
0.046875
 43
0.046875
 50
270.0
  0
INSERT
  5
BF3C
  8
0
  2
*U123
 10
0.0
 20
0.0
 30
0.0
  0
POINT
  5
BF3D
  8
DEFPOINTS
 62
     0
 10
-313.58572345852969
 20
696.23441480638724
 30
0.0
  0
POINT
  5
BF3E
  8
DEFPOINTS
 62
     0
 10
-313.58572345852969
 20
693.98441480638724
 30
0.0
  0
POINT
  5
BF3F
  8
DEFPOINTS
 62
     0
 10
-314.38071539657147
 20
693.98441480638724
 30
0.0
  0
ENDBLK
  5
9A1D
  8
0
  0
BLOCK
  8
0
  2
*D15
 70
     1
 10
0.0
 20
0.0
 30
0.0
  3
*D15
  1

  0
LINE
  5
BF40
  8
0
 62
     0
 10
-313.58572345852969
 20
696.32816480638724
 30
0.0
 11
-313.58572345852969
 21
696.42051822368535
 31
0.0
  0
LINE
  5
BF41
  8
0
 62
     0
 10
-313.08572345852951
 20
695.89066480638724
 30
0.0
 11
-313.08572345852951
 21
696.42051822368535
 31
0.0
  0
LINE
  5
BF42
  8
0
 62
     0
 10
-313.58572345852969
 20
696.35801822368535
 30
0.0
 11
-313.08572345852951
 21
696.35801822368535
 31
0.0
  0
INSERT
  5
BF43
  8
0
 62
     0
  2
_ARCHTICK
 10
-313.58572345852969
 20
696.35801822368535
 30
0.0
 41
0.046875
 42
0.046875
 43
0.046875
 50
180.0
  0
INSERT
  5
BF44
  8
0
 62
     0
  2
_ARCHTICK
 10
-313.08572345852951
 20
696.35801822368535
 30
0.0
 41
0.046875
 42
0.046875
 43
0.046875
  0
INSERT
  5
BF45
  8
0
  2
*U124
 10
0.0
 20
0.0
 30
0.0
  0
POINT
  5
BF46
  8
DEFPOINTS
 62
     0
 10
-313.58572345852969
 20
696.23441480638724
 30
0.0
  0
POINT
  5
BF47
  8
DEFPOINTS
 62
     0
 10
-313.08572345852951
 20
695.79691480638724
 30
0.0
  0
POINT
  5
BF48
  8
DEFPOINTS
 62
     0
 10
-313.08572345852951
 20
696.35801822368535
 30
0.0
  0
ENDBLK
  5
9A29
  8
0
  0
BLOCK
  8
0
  2
*D16
 70
     1
 10
0.0
 20
0.0
 30
0.0
  3
*D16
  1

  0
LINE
  5
BF49
  8
0
 62
     0
 10
-314.9877499949817
 20
691.52370933119914
 30
0.0
 11
-314.9877499949817
 21
690.68267634175641
 31
0.0
  0
LINE
  5
BF4A
  8
0
 62
     0
 10
-313.73774999498119
 20
691.52370933119914
 30
0.0
 11
-313.73774999498119
 21
690.68267634175641
 31
0.0
  0
LINE
  5
BF4B
  8
0
 62
     0
 10
-314.9877499949817
 20
690.74517634175629
 30
0.0
 11
-313.73774999498119
 21
690.74517634175629
 31
0.0
  0
INSERT
  5
BF4C
  8
0
 62
     0
  2
_ARCHTICK
 10
-314.9877499949817
 20
690.74517634175629
 30
0.0
 41
0.046875
 42
0.046875
 43
0.046875
 50
180.0
  0
INSERT
  5
BF4D
  8
0
 62
     0
  2
_ARCHTICK
 10
-313.73774999498119
 20
690.74517634175629
 30
0.0
 41
0.046875
 42
0.046875
 43
0.046875
  0
INSERT
  5
BF4E
  8
0
  2
*U125
 10
0.0
 20
0.0
 30
0.0
  0
POINT
  5
BF4F
  8
DEFPOINTS
 62
     0
 10
-314.9877499949817
 20
691.61745933119914
 30
0.0
  0
POINT
  5
BF50
  8
DEFPOINTS
 62
     0
 10
-313.73774999498119
 20
691.61745933119914
 30
0.0
  0
POINT
  5
BF51
  8
DEFPOINTS
 62
     0
 10
-313.73774999498119
 20
690.74517634175629
 30
0.0
  0
ENDBLK
  5
9A35
  8
0
  0
BLOCK
  8
0
  2
*D17
 70
     1
 10
0.0
 20
0.0
 30
0.0
  3
*D17
  1

  0
LINE
  5
BF52
  8
0
 62
     0
 10
-305.74197345852969
 20
696.23441480638724
 30
0.0
 11
-306.50571539657147
 21
696.23441480638724
 31
0.0
  0
LINE
  5
BF53
  8
0
 62
     0
 10
-305.74197345852969
 20
693.98441480638724
 30
0.0
 11
-306.50571539657147
 21
693.98441480638724
 31
0.0
  0
LINE
  5
BF54
  8
0
 62
     0
 10
-306.44321539657147
 20
696.23441480638724
 30
0.0
 11
-306.44321539657147
 21
693.98441480638724
 31
0.0
  0
INSERT
  5
BF55
  8
0
 62
     0
  2
_ARCHTICK
 10
-306.44321539657147
 20
696.23441480638724
 30
0.0
 41
0.046875
 42
0.046875
 43
0.046875
 50
90.0
  0
INSERT
  5
BF56
  8
0
 62
     0
  2
_ARCHTICK
 10
-306.44321539657147
 20
693.98441480638724
 30
0.0
 41
0.046875
 42
0.046875
 43
0.046875
 50
270.0
  0
INSERT
  5
BF57
  8
0
  2
*U126
 10
0.0
 20
0.0
 30
0.0
  0
POINT
  5
BF58
  8
DEFPOINTS
 62
     0
 10
-305.64822345852969
 20
696.23441480638724
 30
0.0
  0
POINT
  5
BF59
  8
DEFPOINTS
 62
     0
 10
-305.64822345852969
 20
693.98441480638724
 30
0.0
  0
POINT
  5
BF5A
  8
DEFPOINTS
 62
     0
 10
-306.44321539657147
 20
693.98441480638724
 30
0.0
  0
ENDBLK
  5
9A41
  8
0
  0
BLOCK
  8
0
  2
*D18
 70
     1
 10
0.0
 20
0.0
 30
0.0
  3
*D18
  1

  0
LINE
  5
BF5B
  8
0
 62
     0
 10
-305.64822345852969
 20
696.32816480638724
 30
0.0
 11
-305.64822345852969
 21
696.42051822368535
 31
0.0
  0
LINE
  5
BF5C
  8
0
 62
     0
 10
-305.1483291783656
 20
695.82816485031265
 30
0.0
 11
-305.1483291783656
 21
696.42051822368535
 31
0.0
  0
LINE
  5
BF5D
  8
0
 62
     0
 10
-305.64822345852969
 20
696.35801822368535
 30
0.0
 11
-305.1483291783656
 21
696.35801822368535
 31
0.0
  0
INSERT
  5
BF5E
  8
0
 62
     0
  2
_ARCHTICK
 10
-305.64822345852969
 20
696.35801822368535
 30
0.0
 41
0.046875
 42
0.046875
 43
0.046875
 50
180.0
  0
INSERT
  5
BF5F
  8
0
 62
     0
  2
_ARCHTICK
 10
-305.1483291783656
 20
696.35801822368535
 30
0.0
 41
0.046875
 42
0.046875
 43
0.046875
  0
INSERT
  5
BF60
  8
0
  2
*U127
 10
0.0
 20
0.0
 30
0.0
  0
POINT
  5
BF61
  8
DEFPOINTS
 62
     0
 10
-305.64822345852969
 20
696.23441480638724
 30
0.0
  0
POINT
  5
BF62
  8
DEFPOINTS
 62
     0
 10
-305.1483291783656
 20
695.73441485031265
 30
0.0
  0
POINT
  5
BF63
  8
DEFPOINTS
 62
     0
 10
-305.1483291783656
 20
696.35801822368535
 30
0.0
  0
ENDBLK
  5
9A4D
  8
0
  0
BLOCK
  8
0
  2
*D19
 70
     1
 10
0.0
 20
0.0
 30
0.0
  3
*D19
  1

  0
LINE
  5
BF64
  8
0
 62
     0
 10
-307.05024999498141
 20
691.58620933119914
 30
0.0
 11
-307.05024999498141
 21
690.68267634175641
 31
0.0
  0
LINE
  5
BF65
  8
0
 62
     0
 10
-305.80024999498141
 20
691.58620933119914
 30
0.0
 11
-305.80024999498141
 21
690.68267634175641
 31
0.0
  0
LINE
  5
BF66
  8
0
 62
     0
 10
-307.05024999498141
 20
690.74517634175629
 30
0.0
 11
-305.80024999498141
 21
690.74517634175629
 31
0.0
  0
INSERT
  5
BF67
  8
0
 62
     0
  2
_ARCHTICK
 10
-307.05024999498141
 20
690.74517634175629
 30
0.0
 41
0.046875
 42
0.046875
 43
0.046875
 50
180.0
  0
INSERT
  5
BF68
  8
0
 62
     0
  2
_ARCHTICK
 10
-305.80024999498141
 20
690.74517634175629
 30
0.0
 41
0.046875
 42
0.046875
 43
0.046875
  0
INSERT
  5
BF69
  8
0
  2
*U128
 10
0.0
 20
0.0
 30
0.0
  0
POINT
  5
BF6A
  8
DEFPOINTS
 62
     0
 10
-307.05024999498141
 20
691.67995933119914
 30
0.0
  0
POINT
  5
BF6B
  8
DEFPOINTS
 62
     0
 10
-305.80024999498141
 20
691.67995933119914
 30
0.0
  0
POINT
  5
BF6C
  8
DEFPOINTS
 62
     0
 10
-305.80024999498141
 20
690.74517634175629
 30
0.0
  0
ENDBLK
  5
9A59
  8
0
  0
BLOCK
  8
0
  2
*D20
 70
     1
 10
0.0
 20
0.0
 30
0.0
  3
*D20
  1

  0
LINE
  5
BF6D
  8
0
 62
     0
 10
-297.8044734585298
 20
696.23441480638724
 30
0.0
 11
-298.56821539657147
 21
696.23441480638724
 31
0.0
  0
LINE
  5
BF6E
  8
0
 62
     0
 10
-297.8044734585298
 20
693.98441480638724
 30
0.0
 11
-298.56821539657147
 21
693.98441480638724
 31
0.0
  0
LINE
  5
BF6F
  8
0
 62
     0
 10
-298.50571539657159
 20
696.23441480638724
 30
0.0
 11
-298.50571539657159
 21
693.98441480638724
 31
0.0
  0
INSERT
  5
BF70
  8
0
 62
     0
  2
_ARCHTICK
 10
-298.50571539657159
 20
696.23441480638724
 30
0.0
 41
0.046875
 42
0.046875
 43
0.046875
 50
90.0
  0
INSERT
  5
BF71
  8
0
 62
     0
  2
_ARCHTICK
 10
-298.50571539657159
 20
693.98441480638724
 30
0.0
 41
0.046875
 42
0.046875
 43
0.046875
 50
270.0
  0
INSERT
  5
BF72
  8
0
  2
*U129
 10
0.0
 20
0.0
 30
0.0
  0
POINT
  5
BF73
  8
DEFPOINTS
 62
     0
 10
-297.7107234585298
 20
696.23441480638724
 30
0.0
  0
POINT
  5
BF74
  8
DEFPOINTS
 62
     0
 10
-297.7107234585298
 20
693.98441480638724
 30
0.0
  0
POINT
  5
BF75
  8
DEFPOINTS
 62
     0
 10
-298.50571539657159
 20
693.98441480638724
 30
0.0
  0
ENDBLK
  5
9A65
  8
0
  0
BLOCK
  8
0
  2
*D21
 70
     1
 10
0.0
 20
0.0
 30
0.0
  3
*D21
  1

  0
LINE
  5
BF76
  8
0
 62
     0
 10
-297.7107234585298
 20
696.32816480638724
 30
0.0
 11
-297.7107234585298
 21
696.42051822368535
 31
0.0
  0
LINE
  5
BF77
  8
0
 62
     0
 10
-297.2107234585298
 20
695.82816480638724
 30
0.0
 11
-297.2107234585298
 21
696.42051822368535
 31
0.0
  0
LINE
  5
BF78
  8
0
 62
     0
 10
-297.7107234585298
 20
696.35801822368535
 30
0.0
 11
-297.2107234585298
 21
696.35801822368535
 31
0.0
  0
INSERT
  5
BF79
  8
0
 62
     0
  2
_ARCHTICK
 10
-297.7107234585298
 20
696.35801822368535
 30
0.0
 41
0.046875
 42
0.046875
 43
0.046875
 50
180.0
  0
INSERT
  5
BF7A
  8
0
 62
     0
  2
_ARCHTICK
 10
-297.2107234585298
 20
696.35801822368535
 30
0.0
 41
0.046875
 42
0.046875
 43
0.046875
  0
INSERT
  5
BF7B
  8
0
  2
*U130
 10
0.0
 20
0.0
 30
0.0
  0
POINT
  5
BF7C
  8
DEFPOINTS
 62
     0
 10
-297.7107234585298
 20
696.23441480638724
 30
0.0
  0
POINT
  5
BF7D
  8
DEFPOINTS
 62
     0
 10
-297.2107234585298
 20
695.73441480638724
 30
0.0
  0
POINT
  5
BF7E
  8
DEFPOINTS
 62
     0
 10
-297.2107234585298
 20
696.35801822368535
 30
0.0
  0
ENDBLK
  5
9A71
  8
0
  0
BLOCK
  8
0
  2
*D22
 70
     1
 10
0.0
 20
0.0
 30
0.0
  3
*D22
  1

  0
LINE
  5
BF7F
  8
0
 62
     0
 10
-299.11274999498141
 20
691.58620933119914
 30
0.0
 11
-299.11274999498141
 21
690.68267634175641
 31
0.0
  0
LINE
  5
BF80
  8
0
 62
     0
 10
-297.86274999498141
 20
691.58620933119914
 30
0.0
 11
-297.86274999498141
 21
690.68267634175641
 31
0.0
  0
LINE
  5
BF81
  8
0
 62
     0
 10
-299.11274999498141
 20
690.74517634175629
 30
0.0
 11
-297.86274999498141
 21
690.74517634175629
 31
0.0
  0
INSERT
  5
BF82
  8
0
 62
     0
  2
_ARCHTICK
 10
-299.11274999498141
 20
690.74517634175629
 30
0.0
 41
0.046875
 42
0.046875
 43
0.046875
 50
180.0
  0
INSERT
  5
BF83
  8
0
 62
     0
  2
_ARCHTICK
 10
-297.86274999498141
 20
690.74517634175629
 30
0.0
 41
0.046875
 42
0.046875
 43
0.046875
  0
INSERT
  5
BF84
  8
0
  2
*U131
 10
0.0
 20
0.0
 30
0.0
  0
POINT
  5
BF85
  8
DEFPOINTS
 62
     0
 10
-299.11274999498141
 20
691.67995933119914
 30
0.0
  0
POINT
  5
BF86
  8
DEFPOINTS
 62
     0
 10
-297.86274999498141
 20
691.67995933119914
 30
0.0
  0
POINT
  5
BF87
  8
DEFPOINTS
 62
     0
 10
-297.86274999498141
 20
690.74517634175629
 30
0.0
  0
ENDBLK
  5
9A7D
  8
0
  0
BLOCK
  8
0
  2
*D23
 70
     1
 10
0.0
 20
0.0
 30
0.0
  3
*D23
  1

  0
LINE
  5
BF88
  8
0
 62
     0
 10
-322.69253610846488
 20
696.31031870756135
 30
0.0
 11
-323.45627804650672
 21
696.31031870756135
 31
0.0
  0
LINE
  5
BF89
  8
0
 62
     0
 10
-322.69253610846488
 20
694.56031870756135
 30
0.0
 11
-323.45627804650672
 21
694.56031870756135
 31
0.0
  0
LINE
  5
BF8A
  8
0
 62
     0
 10
-323.39377804650672
 20
696.31031870756135
 30
0.0
 11
-323.39377804650672
 21
694.56031870756135
 31
0.0
  0
INSERT
  5
BF8B
  8
0
 62
     0
  2
_ARCHTICK
 10
-323.39377804650672
 20
696.31031870756135
 30
0.0
 41
0.046875
 42
0.046875
 43
0.046875
 50
90.0
  0
INSERT
  5
BF8C
  8
0
 62
     0
  2
_ARCHTICK
 10
-323.39377804650672
 20
694.56031870756135
 30
0.0
 41
0.046875
 42
0.046875
 43
0.046875
 50
270.0
  0
INSERT
  5
BF8D
  8
0
  2
*U132
 10
0.0
 20
0.0
 30
0.0
  0
POINT
  5
BF8E
  8
DEFPOINTS
 62
     0
 10
-322.59878610846488
 20
696.31031870756135
 30
0.0
  0
POINT
  5
BF8F
  8
DEFPOINTS
 62
     0
 10
-322.59878610846488
 20
694.56031870756135
 30
0.0
  0
POINT
  5
BF90
  8
DEFPOINTS
 62
     0
 10
-323.39377804650672
 20
694.56031870756135
 30
0.0
  0
ENDBLK
  5
9A89
  8
0
  0
BLOCK
  8
0
  2
*D24
 70
     1
 10
0.0
 20
0.0
 30
0.0
  3
*D24
  1

  0
LINE
  5
BF91
  8
0
 62
     0
 10
-322.59878610846488
 20
696.40406870756135
 30
0.0
 11
-322.59878610846488
 21
696.48460611983251
 31
0.0
  0
LINE
  5
BF92
  8
0
 62
     0
 10
-322.34878610846488
 20
696.02906870756135
 30
0.0
 11
-322.34878610846488
 21
696.48460611983251
 31
0.0
  0
LINE
  5
BF93
  8
0
 62
     0
 10
-322.59878610846488
 20
696.42210611983239
 30
0.0
 11
-322.64566110846488
 21
696.42210611983239
 31
0.0
  0
LINE
  5
BF94
  8
0
 62
     0
 10
-322.34878610846488
 20
696.42210611983239
 30
0.0
 11
-322.30191110846488
 21
696.42210611983239
 31
0.0
  0
INSERT
  5
BF95
  8
0
 62
     0
  2
_ARCHTICK
 10
-322.59878610846488
 20
696.42210611983239
 30
0.0
 41
0.046875
 42
0.046875
 43
0.046875
  0
INSERT
  5
BF96
  8
0
 62
     0
  2
_ARCHTICK
 10
-322.34878610846488
 20
696.42210611983239
 30
0.0
 41
0.046875
 42
0.046875
 43
0.046875
 50
180.0
  0
INSERT
  5
BF97
  8
0
  2
*U133
 10
0.0
 20
0.0
 30
0.0
  0
POINT
  5
BF98
  8
DEFPOINTS
 62
     0
 10
-322.59878610846488
 20
696.31031870756135
 30
0.0
  0
POINT
  5
BF99
  8
DEFPOINTS
 62
     0
 10
-322.34878610846488
 20
695.93531870756135
 30
0.0
  0
POINT
  5
BF9A
  8
DEFPOINTS
 62
     0
 10
-322.34878610846488
 20
696.42210611983239
 30
0.0
  0
ENDBLK
  5
9A96
  8
0
  0
BLOCK
  8
0
  2
*D25
 70
     1
 10
0.0
 20
0.0
 30
0.0
  3
*D25
  1

  0
LINE
  5
BDC2
  8
0
 62
     0
 10
-400.99197345852963
 20
696.31276865224265
 30
0.0
 11
-401.68202116602117
 21
696.31276865224265
 31
0.0
  0
LINE
  5
BDC3
  8
0
 62
     0
 10
-400.99197345852969
 20
694.93746865224261
 30
0.0
 11
-401.68202116602117
 21
694.93746865224261
 31
0.0
  0
LINE
  5
BDC4
  8
0
 62
     0
 10
-401.61952116602117
 20
696.31276865224265
 30
0.0
 11
-401.61952116602117
 21
694.93746865224261
 31
0.0
  0
INSERT
  5
BDC5
  8
0
 62
     0
  2
_ARCHTICK
 10
-401.61952116602117
 20
696.31276865224265
 30
0.0
 41
0.046875
 42
0.046875
 43
0.046875
 50
90.0
  0
INSERT
  5
BDC6
  8
0
 62
     0
  2
_ARCHTICK
 10
-401.61952116602117
 20
694.93746865224261
 30
0.0
 41
0.046875
 42
0.046875
 43
0.046875
 50
270.0
  0
INSERT
  5
BDC7
  8
0
  2
*U82
 10
0.0
 20
0.0
 30
0.0
  0
POINT
  5
BDC8
  8
DEFPOINTS
 62
     0
 10
-400.89822345852963
 20
696.31276865224265
 30
0.0
  0
POINT
  5
BDC9
  8
DEFPOINTS
 62
     0
 10
-400.89822345852969
 20
694.93746865224261
 30
0.0
  0
POINT
  5
BDCA
  8
DEFPOINTS
 62
     0
 10
-401.61952116602117
 20
694.93746865224261
 30
0.0
  0
ENDBLK
  5
9B36
  8
0
  0
BLOCK
  8
0
  2
*D26
 70
     1
 10
0.0
 20
0.0
 30
0.0
  3
*D26
  1

  0
LINE
  5
BDCB
  8
0
 62
     0
 10
-400.89822345852963
 20
696.40651865224265
 30
0.0
 11
-400.89822345852963
 21
696.53010580980913
 31
0.0
  0
LINE
  5
BDCC
  8
0
 62
     0
 10
-400.3982234585294
 20
696.03151865224265
 30
0.0
 11
-400.3982234585294
 21
696.53010580980913
 31
0.0
  0
LINE
  5
BDCD
  8
0
 62
     0
 10
-400.89822345852963
 20
696.46760580980913
 30
0.0
 11
-400.3982234585294
 21
696.46760580980913
 31
0.0
  0
INSERT
  5
BDCE
  8
0
 62
     0
  2
_ARCHTICK
 10
-400.89822345852963
 20
696.46760580980913
 30
0.0
 41
0.046875
 42
0.046875
 43
0.046875
 50
180.0
  0
INSERT
  5
BDCF
  8
0
 62
     0
  2
_ARCHTICK
 10
-400.3982234585294
 20
696.46760580980913
 30
0.0
 41
0.046875
 42
0.046875
 43
0.046875
  0
INSERT
  5
BDD0
  8
0
  2
*U83
 10
0.0
 20
0.0
 30
0.0
  0
POINT
  5
BDD1
  8
DEFPOINTS
 62
     0
 10
-400.89822345852963
 20
696.31276865224265
 30
0.0
  0
POINT
  5
BDD2
  8
DEFPOINTS
 62
     0
 10
-400.3982234585294
 20
695.93776865224265
 30
0.0
  0
POINT
  5
BDD3
  8
DEFPOINTS
 62
     0
 10
-400.3982234585294
 20
696.46760580980913
 30
0.0
  0
ENDBLK
  5
9B42
  8
0
  0
BLOCK
  8
0
  2
*D27
 70
     1
 10
0.0
 20
0.0
 30
0.0
  3
*D27
  1

  0
LINE
  5
BDD4
  8
0
 62
     0
 10
-402.34113575287807
 20
691.31508250487684
 30
0.0
 11
-402.34113575287807
 21
690.54644365915397
 31
0.0
  0
LINE
  5
BDD5
  8
0
 62
     0
 10
-401.09113575287779
 20
691.31508250487684
 30
0.0
 11
-401.09113575287779
 21
690.54644365915397
 31
0.0
  0
LINE
  5
BDD6
  8
0
 62
     0
 10
-402.34113575287807
 20
690.60894365915385
 30
0.0
 11
-401.09113575287779
 21
690.60894365915385
 31
0.0
  0
INSERT
  5
BDD7
  8
0
 62
     0
  2
_ARCHTICK
 10
-402.34113575287807
 20
690.60894365915385
 30
0.0
 41
0.046875
 42
0.046875
 43
0.046875
 50
180.0
  0
INSERT
  5
BDD8
  8
0
 62
     0
  2
_ARCHTICK
 10
-401.09113575287779
 20
690.60894365915385
 30
0.0
 41
0.046875
 42
0.046875
 43
0.046875
  0
INSERT
  5
BDD9
  8
0
  2
*U84
 10
0.0
 20
0.0
 30
0.0
  0
POINT
  5
BDDA
  8
DEFPOINTS
 62
     0
 10
-402.34113575287807
 20
691.40883250487684
 30
0.0
  0
POINT
  5
BDDB
  8
DEFPOINTS
 62
     0
 10
-401.09113575287779
 20
691.40883250487684
 30
0.0
  0
POINT
  5
BDDC
  8
DEFPOINTS
 62
     0
 10
-401.09113575287779
 20
690.60894365915385
 30
0.0
  0
ENDBLK
  5
9B4E
  8
0
  0
BLOCK
  8
0
  2
*D28
 70
     1
 10
0.0
 20
0.0
 30
0.0
  3
*D28
  1

  0
LINE
  5
BDDD
  8
0
 62
     0
 10
-402.34113575287807
 20
693.28765903712292
 30
0.0
 11
-402.34113575287807
 21
692.52811649224964
 31
0.0
  0
LINE
  5
BDDE
  8
0
 62
     0
 10
-401.09113575287768
 20
693.28765903712292
 30
0.0
 11
-401.09113575287768
 21
692.52811649224964
 31
0.0
  0
LINE
  5
BDDF
  8
0
 62
     0
 10
-402.34113575287807
 20
692.59061649224964
 30
0.0
 11
-401.09113575287768
 21
692.59061649224964
 31
0.0
  0
INSERT
  5
BDE0
  8
0
 62
     0
  2
_ARCHTICK
 10
-402.34113575287807
 20
692.59061649224964
 30
0.0
 41
0.046875
 42
0.046875
 43
0.046875
 50
180.0
  0
INSERT
  5
BDE1
  8
0
 62
     0
  2
_ARCHTICK
 10
-401.09113575287768
 20
692.59061649224964
 30
0.0
 41
0.046875
 42
0.046875
 43
0.046875
  0
INSERT
  5
BDE2
  8
0
  2
*U85
 10
0.0
 20
0.0
 30
0.0
  0
POINT
  5
BDE3
  8
DEFPOINTS
 62
     0
 10
-402.34113575287807
 20
693.38140903712292
 30
0.0
  0
POINT
  5
BDE4
  8
DEFPOINTS
 62
     0
 10
-401.09113575287768
 20
693.38140903712292
 30
0.0
  0
POINT
  5
BDE5
  8
DEFPOINTS
 62
     0
 10
-401.09113575287768
 20
692.59061649224964
 30
0.0
  0
ENDBLK
  5
9B5A
  8
0
  0
BLOCK
  8
0
  2
*D29
 70
     1
 10
0.0
 20
0.0
 30
0.0
  3
*D29
  1

  0
LINE
  5
BDE6
  8
0
 62
     0
 10
-392.97367375822307
 20
696.44873206025648
 30
0.0
 11
-392.97367375822307
 21
696.58531020216799
 31
0.0
  0
LINE
  5
BDE7
  8
0
 62
     0
 10
-392.47367375822307
 20
696.01123206025636
 30
0.0
 11
-392.47367375822307
 21
696.58531020216799
 31
0.0
  0
LINE
  5
BDE8
  8
0
 62
     0
 10
-392.97367375822307
 20
696.5228102021681
 30
0.0
 11
-392.47367375822307
 21
696.5228102021681
 31
0.0
  0
INSERT
  5
BDE9
  8
0
 62
     0
  2
_ARCHTICK
 10
-392.97367375822307
 20
696.5228102021681
 30
0.0
 41
0.046875
 42
0.046875
 43
0.046875
 50
180.0
  0
INSERT
  5
BDEA
  8
0
 62
     0
  2
_ARCHTICK
 10
-392.47367375822307
 20
696.5228102021681
 30
0.0
 41
0.046875
 42
0.046875
 43
0.046875
  0
INSERT
  5
BDEB
  8
0
  2
*U86
 10
0.0
 20
0.0
 30
0.0
  0
POINT
  5
BDEC
  8
DEFPOINTS
 62
     0
 10
-392.97367375822307
 20
696.35498206025636
 30
0.0
  0
POINT
  5
BDED
  8
DEFPOINTS
 62
     0
 10
-392.47367375822307
 20
695.91748206025636
 30
0.0
  0
POINT
  5
BDEE
  8
DEFPOINTS
 62
     0
 10
-392.47367375822307
 20
696.5228102021681
 30
0.0
  0
ENDBLK
  5
9B66
  8
0
  0
BLOCK
  8
0
  2
*D30
 70
     1
 10
0.0
 20
0.0
 30
0.0
  3
*D30
  1

  0
LINE
  5
BDEF
  8
0
 62
     0
 10
-393.06742375822307
 20
696.35498206025636
 30
0.0
 11
-393.87020007954243
 21
696.35498206025636
 31
0.0
  0
LINE
  5
BDF0
  8
0
 62
     0
 10
-393.06742375822307
 20
694.9796820602561
 30
0.0
 11
-393.87020007954243
 21
694.9796820602561
 31
0.0
  0
LINE
  5
BDF1
  8
0
 62
     0
 10
-393.80770007954243
 20
696.35498206025636
 30
0.0
 11
-393.80770007954243
 21
694.9796820602561
 31
0.0
  0
INSERT
  5
BDF2
  8
0
 62
     0
  2
_ARCHTICK
 10
-393.80770007954243
 20
696.35498206025636
 30
0.0
 41
0.046875
 42
0.046875
 43
0.046875
 50
90.0
  0
INSERT
  5
BDF3
  8
0
 62
     0
  2
_ARCHTICK
 10
-393.80770007954243
 20
694.9796820602561
 30
0.0
 41
0.046875
 42
0.046875
 43
0.046875
 50
270.0
  0
INSERT
  5
BDF4
  8
0
  2
*U87
 10
0.0
 20
0.0
 30
0.0
  0
POINT
  5
BDF5
  8
DEFPOINTS
 62
     0
 10
-392.97367375822307
 20
696.35498206025636
 30
0.0
  0
POINT
  5
BDF6
  8
DEFPOINTS
 62
     0
 10
-392.97367375822307
 20
694.9796820602561
 30
0.0
  0
POINT
  5
BDF7
  8
DEFPOINTS
 62
     0
 10
-393.80770007954243
 20
694.9796820602561
 30
0.0
  0
ENDBLK
  5
9B72
  8
0
  0
BLOCK
  8
0
  2
*D31
 70
     1
 10
0.0
 20
0.0
 30
0.0
  3
*D31
  1

  0
LINE
  5
BDF8
  8
0
 62
     0
 10
-394.36681152581792
 20
693.44103525182595
 30
0.0
 11
-394.36681152581792
 21
692.62633688000039
 31
0.0
  0
LINE
  5
BDF9
  8
0
 62
     0
 10
-393.11681152581792
 20
693.44103525182595
 30
0.0
 11
-393.11681152581792
 21
692.62633688000039
 31
0.0
  0
LINE
  5
BDFA
  8
0
 62
     0
 10
-394.36681152581792
 20
692.68883688000028
 30
0.0
 11
-393.11681152581792
 21
692.68883688000028
 31
0.0
  0
INSERT
  5
BDFB
  8
0
 62
     0
  2
_ARCHTICK
 10
-394.36681152581792
 20
692.68883688000028
 30
0.0
 41
0.046875
 42
0.046875
 43
0.046875
 50
180.0
  0
INSERT
  5
BDFC
  8
0
 62
     0
  2
_ARCHTICK
 10
-393.11681152581792
 20
692.68883688000028
 30
0.0
 41
0.046875
 42
0.046875
 43
0.046875
  0
INSERT
  5
BDFD
  8
0
  2
*U88
 10
0.0
 20
0.0
 30
0.0
  0
POINT
  5
BDFE
  8
DEFPOINTS
 62
     0
 10
-394.36681152581792
 20
693.53478525182595
 30
0.0
  0
POINT
  5
BDFF
  8
DEFPOINTS
 62
     0
 10
-393.11681152581792
 20
693.53478525182595
 30
0.0
  0
POINT
  5
BE00
  8
DEFPOINTS
 62
     0
 10
-393.11681152581792
 20
692.68883688000028
 30
0.0
  0
ENDBLK
  5
9B7E
  8
0
  0
BLOCK
  8
0
  2
*D32
 70
     1
 10
0.0
 20
0.0
 30
0.0
  3
*D32
  1

  0
LINE
  5
BE01
  8
0
 62
     0
 10
-394.36670580598212
 20
691.37758246095143
 30
0.0
 11
-394.36670580598212
 21
690.52886383904081
 31
0.0
  0
LINE
  5
BE02
  8
0
 62
     0
 10
-393.11681152581798
 20
691.37758250487673
 30
0.0
 11
-393.11681152581798
 21
690.52886383904081
 31
0.0
  0
LINE
  5
BE03
  8
0
 62
     0
 10
-394.36670580598212
 20
690.59136383904081
 30
0.0
 11
-393.11681152581798
 21
690.59136383904081
 31
0.0
  0
INSERT
  5
BE04
  8
0
 62
     0
  2
_ARCHTICK
 10
-394.36670580598212
 20
690.59136383904081
 30
0.0
 41
0.046875
 42
0.046875
 43
0.046875
 50
180.0
  0
INSERT
  5
BE05
  8
0
 62
     0
  2
_ARCHTICK
 10
-393.11681152581798
 20
690.59136383904081
 30
0.0
 41
0.046875
 42
0.046875
 43
0.046875
  0
INSERT
  5
BE06
  8
0
  2
*U89
 10
0.0
 20
0.0
 30
0.0
  0
POINT
  5
BE07
  8
DEFPOINTS
 62
     0
 10
-394.36670580598212
 20
691.47133246095143
 30
0.0
  0
POINT
  5
BE08
  8
DEFPOINTS
 62
     0
 10
-393.11681152581798
 20
691.47133250487673
 30
0.0
  0
POINT
  5
BE09
  8
DEFPOINTS
 62
     0
 10
-393.11681152581798
 20
690.59136383904081
 30
0.0
  0
ENDBLK
  5
9B8A
  8
0
  0
BLOCK
  8
0
  2
*D33
 70
     1
 10
0.0
 20
0.0
 30
0.0
  3
*D33
  1

  0
LINE
  5
BE0A
  8
0
 62
     0
 10
-385.19877196336859
 20
696.35498206025636
 30
0.0
 11
-385.91489941828769
 21
696.35498206025636
 31
0.0
  0
LINE
  5
BE0B
  8
0
 62
     0
 10
-385.19877196336859
 20
694.9796820602561
 30
0.0
 11
-385.91489941828769
 21
694.9796820602561
 31
0.0
  0
LINE
  5
BE0C
  8
0
 62
     0
 10
-385.85239941828769
 20
696.35498206025636
 30
0.0
 11
-385.85239941828769
 21
694.9796820602561
 31
0.0
  0
INSERT
  5
BE0D
  8
0
 62
     0
  2
_ARCHTICK
 10
-385.85239941828769
 20
696.35498206025636
 30
0.0
 41
0.046875
 42
0.046875
 43
0.046875
 50
90.0
  0
INSERT
  5
BE0E
  8
0
 62
     0
  2
_ARCHTICK
 10
-385.85239941828769
 20
694.9796820602561
 30
0.0
 41
0.046875
 42
0.046875
 43
0.046875
 50
270.0
  0
INSERT
  5
BE0F
  8
0
  2
*U90
 10
0.0
 20
0.0
 30
0.0
  0
POINT
  5
BE10
  8
DEFPOINTS
 62
     0
 10
-385.10502196336859
 20
696.35498206025636
 30
0.0
  0
POINT
  5
BE11
  8
DEFPOINTS
 62
     0
 10
-385.10502196336859
 20
694.9796820602561
 30
0.0
  0
POINT
  5
BE12
  8
DEFPOINTS
 62
     0
 10
-385.85239941828769
 20
694.9796820602561
 30
0.0
  0
ENDBLK
  5
9B96
  8
0
  0
BLOCK
  8
0
  2
*D34
 70
     1
 10
0.0
 20
0.0
 30
0.0
  3
*D34
  1

  0
LINE
  5
BE13
  8
0
 62
     0
 10
-385.10502196336859
 20
696.44873206025648
 30
0.0
 11
-385.10502196336859
 21
696.57234644218886
 31
0.0
  0
LINE
  5
BE14
  8
0
 62
     0
 10
-384.60502196336859
 20
696.01108206025629
 30
0.0
 11
-384.60502196336859
 21
696.57234644218886
 31
0.0
  0
LINE
  5
BE15
  8
0
 62
     0
 10
-385.10502196336859
 20
696.50984644218886
 30
0.0
 11
-384.60502196336859
 21
696.50984644218886
 31
0.0
  0
INSERT
  5
BE16
  8
0
 62
     0
  2
_ARCHTICK
 10
-385.10502196336859
 20
696.50984644218886
 30
0.0
 41
0.046875
 42
0.046875
 43
0.046875
 50
180.0
  0
INSERT
  5
BE17
  8
0
 62
     0
  2
_ARCHTICK
 10
-384.60502196336859
 20
696.50984644218886
 30
0.0
 41
0.046875
 42
0.046875
 43
0.046875
  0
INSERT
  5
BE18
  8
0
  2
*U91
 10
0.0
 20
0.0
 30
0.0
  0
POINT
  5
BE19
  8
DEFPOINTS
 62
     0
 10
-385.10502196336859
 20
696.35498206025636
 30
0.0
  0
POINT
  5
BE1A
  8
DEFPOINTS
 62
     0
 10
-384.60502196336859
 20
695.91733206025617
 30
0.0
  0
POINT
  5
BE1B
  8
DEFPOINTS
 62
     0
 10
-384.60502196336859
 20
696.50984644218886
 30
0.0
  0
ENDBLK
  5
9BA2
  8
0
  0
BLOCK
  8
0
  2
*D35
 70
     1
 10
0.0
 20
0.0
 30
0.0
  3
*D35
  1

  0
LINE
  5
BE1C
  8
0
 62
     0
 10
-386.42931152581792
 20
693.3718207873319
 30
0.0
 11
-386.42931152581792
 21
692.57676031911069
 31
0.0
  0
LINE
  5
BE1D
  8
0
 62
     0
 10
-385.17931152581792
 20
693.3718207873319
 30
0.0
 11
-385.17931152581792
 21
692.57676031911069
 31
0.0
  0
LINE
  5
BE1E
  8
0
 62
     0
 10
-386.42931152581792
 20
692.63926031911058
 30
0.0
 11
-385.17931152581792
 21
692.63926031911058
 31
0.0
  0
INSERT
  5
BE1F
  8
0
 62
     0
  2
_ARCHTICK
 10
-386.42931152581792
 20
692.63926031911058
 30
0.0
 41
0.046875
 42
0.046875
 43
0.046875
 50
180.0
  0
INSERT
  5
BE20
  8
0
 62
     0
  2
_ARCHTICK
 10
-385.17931152581792
 20
692.63926031911058
 30
0.0
 41
0.046875
 42
0.046875
 43
0.046875
  0
INSERT
  5
BE21
  8
0
  2
*U92
 10
0.0
 20
0.0
 30
0.0
  0
POINT
  5
BE22
  8
DEFPOINTS
 62
     0
 10
-386.42931152581792
 20
693.4655707873319
 30
0.0
  0
POINT
  5
BE23
  8
DEFPOINTS
 62
     0
 10
-385.17931152581792
 20
693.4655707873319
 30
0.0
  0
POINT
  5
BE24
  8
DEFPOINTS
 62
     0
 10
-385.17931152581792
 20
692.63926031911058
 30
0.0
  0
ENDBLK
  5
9BAE
  8
0
  0
BLOCK
  8
0
  2
*D36
 70
     1
 10
0.0
 20
0.0
 30
0.0
  3
*D36
  1

  0
LINE
  5
BE25
  8
0
 62
     0
 10
-386.42931152581798
 20
691.37773250487692
 30
0.0
 11
-386.42931152581798
 21
690.55818316174555
 31
0.0
  0
LINE
  5
BE26
  8
0
 62
     0
 10
-385.17931152581798
 20
691.37773250487692
 30
0.0
 11
-385.17931152581798
 21
690.55818316174555
 31
0.0
  0
LINE
  5
BE27
  8
0
 62
     0
 10
-386.42931152581798
 20
690.62068316174555
 30
0.0
 11
-385.17931152581798
 21
690.62068316174555
 31
0.0
  0
INSERT
  5
BE28
  8
0
 62
     0
  2
_ARCHTICK
 10
-386.42931152581798
 20
690.62068316174555
 30
0.0
 41
0.046875
 42
0.046875
 43
0.046875
 50
180.0
  0
INSERT
  5
BE29
  8
0
 62
     0
  2
_ARCHTICK
 10
-385.17931152581798
 20
690.62068316174555
 30
0.0
 41
0.046875
 42
0.046875
 43
0.046875
  0
INSERT
  5
BE2A
  8
0
  2
*U93
 10
0.0
 20
0.0
 30
0.0
  0
POINT
  5
BE2B
  8
DEFPOINTS
 62
     0
 10
-386.42931152581798
 20
691.4714825048768
 30
0.0
  0
POINT
  5
BE2C
  8
DEFPOINTS
 62
     0
 10
-385.17931152581798
 20
691.4714825048768
 30
0.0
  0
POINT
  5
BE2D
  8
DEFPOINTS
 62
     0
 10
-385.17931152581798
 20
690.62068316174555
 30
0.0
  0
ENDBLK
  5
9BBA
  8
0
  0
BLOCK
  8
0
  2
*D37
 70
     1
 10
0.0
 20
0.0
 30
0.0
  3
*D37
  1

  0
LINE
  5
BE2E
  8
0
 62
     0
 10
-377.17947345852969
 20
696.31276865224265
 30
0.0
 11
-377.86952116602117
 21
696.31276865224265
 31
0.0
  0
LINE
  5
BE2F
  8
0
 62
     0
 10
-377.17947345852969
 20
694.93746865224261
 30
0.0
 11
-377.86952116602117
 21
694.93746865224261
 31
0.0
  0
LINE
  5
BE30
  8
0
 62
     0
 10
-377.80702116602117
 20
696.31276865224265
 30
0.0
 11
-377.80702116602117
 21
694.93746865224261
 31
0.0
  0
INSERT
  5
BE31
  8
0
 62
     0
  2
_ARCHTICK
 10
-377.80702116602117
 20
696.31276865224265
 30
0.0
 41
0.046875
 42
0.046875
 43
0.046875
 50
90.0
  0
INSERT
  5
BE32
  8
0
 62
     0
  2
_ARCHTICK
 10
-377.80702116602117
 20
694.93746865224261
 30
0.0
 41
0.046875
 42
0.046875
 43
0.046875
 50
270.0
  0
INSERT
  5
BE33
  8
0
  2
*U94
 10
0.0
 20
0.0
 30
0.0
  0
POINT
  5
BE34
  8
DEFPOINTS
 62
     0
 10
-377.08572345852969
 20
696.31276865224265
 30
0.0
  0
POINT
  5
BE35
  8
DEFPOINTS
 62
     0
 10
-377.08572345852969
 20
694.93746865224261
 30
0.0
  0
POINT
  5
BE36
  8
DEFPOINTS
 62
     0
 10
-377.80702116602117
 20
694.93746865224261
 30
0.0
  0
ENDBLK
  5
9BC6
  8
0
  0
BLOCK
  8
0
  2
*D38
 70
     1
 10
0.0
 20
0.0
 30
0.0
  3
*D38
  1

  0
LINE
  5
BE37
  8
0
 62
     0
 10
-377.08572345852969
 20
696.40651865224265
 30
0.0
 11
-377.08572345852969
 21
696.575445454543
 31
0.0
  0
LINE
  5
BE38
  8
0
 62
     0
 10
-376.83572345852969
 20
695.96871865224261
 30
0.0
 11
-376.83572345852969
 21
696.575445454543
 31
0.0
  0
LINE
  5
BE39
  8
0
 62
     0
 10
-377.08572345852969
 20
696.51294545454289
 30
0.0
 11
-377.13259845852969
 21
696.51294545454289
 31
0.0
  0
LINE
  5
BE3A
  8
0
 62
     0
 10
-376.83572345852969
 20
696.51294545454289
 30
0.0
 11
-376.78884845852969
 21
696.51294545454289
 31
0.0
  0
INSERT
  5
BE3B
  8
0
 62
     0
  2
_ARCHTICK
 10
-377.08572345852969
 20
696.51294545454289
 30
0.0
 41
0.046875
 42
0.046875
 43
0.046875
  0
INSERT
  5
BE3C
  8
0
 62
     0
  2
_ARCHTICK
 10
-376.83572345852969
 20
696.51294545454289
 30
0.0
 41
0.046875
 42
0.046875
 43
0.046875
 50
180.0
  0
INSERT
  5
BE3D
  8
0
  2
*U95
 10
0.0
 20
0.0
 30
0.0
  0
POINT
  5
BE3E
  8
DEFPOINTS
 62
     0
 10
-377.08572345852969
 20
696.31276865224265
 30
0.0
  0
POINT
  5
BE3F
  8
DEFPOINTS
 62
     0
 10
-376.83572345852969
 20
695.87496865224261
 30
0.0
  0
POINT
  5
BE40
  8
DEFPOINTS
 62
     0
 10
-376.83572345852969
 20
696.51294545454289
 30
0.0
  0
ENDBLK
  5
9BD3
  8
0
  0
BLOCK
  8
0
  2
*D39
 70
     1
 10
0.0
 20
0.0
 30
0.0
  3
*D39
  1

  0
LINE
  5
BE41
  8
0
 62
     0
 10
-380.68753212464071
 20
691.37758250487684
 30
0.0
 11
-380.68753212464071
 21
690.54433638017838
 31
0.0
  0
LINE
  5
BE42
  8
0
 62
     0
 10
-379.81253212464071
 20
691.37758250487684
 30
0.0
 11
-379.81253212464071
 21
690.54433638017838
 31
0.0
  0
LINE
  5
BE43
  8
0
 62
     0
 10
-380.68753212464071
 20
690.60683638017827
 30
0.0
 11
-379.81253212464071
 21
690.60683638017827
 31
0.0
  0
INSERT
  5
BE44
  8
0
 62
     0
  2
_ARCHTICK
 10
-380.68753212464071
 20
690.60683638017827
 30
0.0
 41
0.046875
 42
0.046875
 43
0.046875
 50
180.0
  0
INSERT
  5
BE45
  8
0
 62
     0
  2
_ARCHTICK
 10
-379.81253212464071
 20
690.60683638017827
 30
0.0
 41
0.046875
 42
0.046875
 43
0.046875
  0
INSERT
  5
BE46
  8
0
  2
*U96
 10
0.0
 20
0.0
 30
0.0
  0
POINT
  5
BE47
  8
DEFPOINTS
 62
     0
 10
-380.68753212464071
 20
691.47133250487684
 30
0.0
  0
POINT
  5
BE48
  8
DEFPOINTS
 62
     0
 10
-379.81253212464071
 20
691.47133250487684
 30
0.0
  0
POINT
  5
BE49
  8
DEFPOINTS
 62
     0
 10
-379.81253212464071
 20
690.60683638017827
 30
0.0
  0
ENDBLK
  5
9BDF
  8
0
  0
BLOCK
  8
0
  2
*D40
 70
     1
 10
0.0
 20
0.0
 30
0.0
  3
*D40
  1

  0
LINE
  5
BE4A
  8
0
 62
     0
 10
-380.6875321246406
 20
693.35015903712281
 30
0.0
 11
-380.6875321246406
 21
692.51691291242435
 31
0.0
  0
LINE
  5
BE4B
  8
0
 62
     0
 10
-379.8125321246406
 20
693.35015903712281
 30
0.0
 11
-379.8125321246406
 21
692.51691291242435
 31
0.0
  0
LINE
  5
BE4C
  8
0
 62
     0
 10
-380.6875321246406
 20
692.57941291242435
 30
0.0
 11
-379.8125321246406
 21
692.57941291242435
 31
0.0
  0
INSERT
  5
BE4D
  8
0
 62
     0
  2
_ARCHTICK
 10
-380.6875321246406
 20
692.57941291242435
 30
0.0
 41
0.046875
 42
0.046875
 43
0.046875
 50
180.0
  0
INSERT
  5
BE4E
  8
0
 62
     0
  2
_ARCHTICK
 10
-379.8125321246406
 20
692.57941291242435
 30
0.0
 41
0.046875
 42
0.046875
 43
0.046875
  0
INSERT
  5
BE4F
  8
0
  2
*U97
 10
0.0
 20
0.0
 30
0.0
  0
POINT
  5
BE50
  8
DEFPOINTS
 62
     0
 10
-380.6875321246406
 20
693.44390903712281
 30
0.0
  0
POINT
  5
BE51
  8
DEFPOINTS
 62
     0
 10
-379.8125321246406
 20
693.44390903712281
 30
0.0
  0
POINT
  5
BE52
  8
DEFPOINTS
 62
     0
 10
-379.8125321246406
 20
692.57941291242435
 30
0.0
  0
ENDBLK
  5
9BEB
  8
0
  0
BLOCK
  8
0
  2
*D41
 70
     1
 10
0.0
 20
0.0
 30
0.0
  3
*D41
  1

  0
LINE
  5
BE53
  8
0
 62
     0
 10
-376.93218467573899
 20
692.63045633080719
 30
0.0
 11
-376.93218467573899
 21
691.5136190872114
 31
0.0
  0
LINE
  5
BE54
  8
0
 62
     0
 10
-376.05718467573899
 20
692.63045633080719
 30
0.0
 11
-376.05718467573899
 21
691.5136190872114
 31
0.0
  0
LINE
  5
BE55
  8
0
 62
     0
 10
-376.93218467573899
 20
691.57611908721151
 30
0.0
 11
-376.05718467573899
 21
691.57611908721151
 31
0.0
  0
INSERT
  5
BE56
  8
0
 62
     0
  2
_ARCHTICK
 10
-376.93218467573899
 20
691.57611908721151
 30
0.0
 41
0.046875
 42
0.046875
 43
0.046875
 50
180.0
  0
INSERT
  5
BE57
  8
0
 62
     0
  2
_ARCHTICK
 10
-376.05718467573899
 20
691.57611908721151
 30
0.0
 41
0.046875
 42
0.046875
 43
0.046875
  0
INSERT
  5
BE58
  8
0
  2
*U98
 10
0.0
 20
0.0
 30
0.0
  0
POINT
  5
BE59
  8
DEFPOINTS
 62
     0
 10
-376.93218467573899
 20
692.72420633080719
 30
0.0
  0
POINT
  5
BE5A
  8
DEFPOINTS
 62
     0
 10
-376.05718467573899
 20
692.72420633080719
 30
0.0
  0
POINT
  5
BE5B
  8
DEFPOINTS
 62
     0
 10
-376.05718467573899
 20
691.57611908721151
 30
0.0
  0
ENDBLK
  5
9BF7
  8
0
  0
BLOCK
  8
0
  2
*D42
 70
     1
 10
0.0
 20
0.0
 30
0.0
  3
*D42
  1

  0
LINE
  5
BE5C
  8
0
 62
     0
 10
-369.24197345852969
 20
696.31276865224265
 30
0.0
 11
-369.93202116602117
 21
696.31276865224265
 31
0.0
  0
LINE
  5
BE5D
  8
0
 62
     0
 10
-369.2419734585298
 20
694.93746865224261
 30
0.0
 11
-369.93202116602117
 21
694.93746865224261
 31
0.0
  0
LINE
  5
BE5E
  8
0
 62
     0
 10
-369.86952116602117
 20
696.31276865224265
 30
0.0
 11
-369.86952116602117
 21
694.93746865224261
 31
0.0
  0
INSERT
  5
BE5F
  8
0
 62
     0
  2
_ARCHTICK
 10
-369.86952116602117
 20
696.31276865224265
 30
0.0
 41
0.046875
 42
0.046875
 43
0.046875
 50
90.0
  0
INSERT
  5
BE60
  8
0
 62
     0
  2
_ARCHTICK
 10
-369.86952116602117
 20
694.93746865224261
 30
0.0
 41
0.046875
 42
0.046875
 43
0.046875
 50
270.0
  0
INSERT
  5
BE61
  8
0
  2
*U99
 10
0.0
 20
0.0
 30
0.0
  0
POINT
  5
BE62
  8
DEFPOINTS
 62
     0
 10
-369.14822345852969
 20
696.31276865224265
 30
0.0
  0
POINT
  5
BE63
  8
DEFPOINTS
 62
     0
 10
-369.1482234585298
 20
694.93746865224261
 30
0.0
  0
POINT
  5
BE64
  8
DEFPOINTS
 62
     0
 10
-369.86952116602117
 20
694.93746865224261
 30
0.0
  0
ENDBLK
  5
9C03
  8
0
  0
BLOCK
  8
0
  2
*D43
 70
     1
 10
0.0
 20
0.0
 30
0.0
  3
*D43
  1

  0
LINE
  5
BE65
  8
0
 62
     0
 10
-369.14822345852969
 20
696.40651865224265
 30
0.0
 11
-369.14822345852969
 21
696.575445454543
 31
0.0
  0
LINE
  5
BE66
  8
0
 62
     0
 10
-368.8982234585298
 20
695.9374686522425
 30
0.0
 11
-368.8982234585298
 21
696.575445454543
 31
0.0
  0
LINE
  5
BE67
  8
0
 62
     0
 10
-369.14822345852969
 20
696.51294545454289
 30
0.0
 11
-369.19509845852969
 21
696.51294545454289
 31
0.0
  0
LINE
  5
BE68
  8
0
 62
     0
 10
-368.8982234585298
 20
696.51294545454289
 30
0.0
 11
-368.8513484585298
 21
696.51294545454289
 31
0.0
  0
INSERT
  5
BE69
  8
0
 62
     0
  2
_ARCHTICK
 10
-369.14822345852969
 20
696.51294545454289
 30
0.0
 41
0.046875
 42
0.046875
 43
0.046875
  0
INSERT
  5
BE6A
  8
0
 62
     0
  2
_ARCHTICK
 10
-368.8982234585298
 20
696.51294545454289
 30
0.0
 41
0.046875
 42
0.046875
 43
0.046875
 50
180.0
  0
INSERT
  5
BE6B
  8
0
  2
*U100
 10
0.0
 20
0.0
 30
0.0
  0
POINT
  5
BE6C
  8
DEFPOINTS
 62
     0
 10
-369.14822345852969
 20
696.31276865224265
 30
0.0
  0
POINT
  5
BE6D
  8
DEFPOINTS
 62
     0
 10
-368.8982234585298
 20
695.8437186522425
 30
0.0
  0
POINT
  5
BE6E
  8
DEFPOINTS
 62
     0
 10
-368.8982234585298
 20
696.51294545454289
 30
0.0
  0
ENDBLK
  5
9C10
  8
0
  0
BLOCK
  8
0
  2
*D44
 70
     1
 10
0.0
 20
0.0
 30
0.0
  3
*D44
  1

  0
LINE
  5
BE6F
  8
0
 62
     0
 10
-372.75003212464071
 20
691.40883250487684
 30
0.0
 11
-372.75003212464071
 21
690.54433638017838
 31
0.0
  0
LINE
  5
BE70
  8
0
 62
     0
 10
-371.87503212464071
 20
691.40883250487684
 30
0.0
 11
-371.87503212464071
 21
690.54433638017838
 31
0.0
  0
LINE
  5
BE71
  8
0
 62
     0
 10
-372.75003212464071
 20
690.60683638017827
 30
0.0
 11
-371.87503212464071
 21
690.60683638017827
 31
0.0
  0
INSERT
  5
BE72
  8
0
 62
     0
  2
_ARCHTICK
 10
-372.75003212464071
 20
690.60683638017827
 30
0.0
 41
0.046875
 42
0.046875
 43
0.046875
 50
180.0
  0
INSERT
  5
BE73
  8
0
 62
     0
  2
_ARCHTICK
 10
-371.87503212464071
 20
690.60683638017827
 30
0.0
 41
0.046875
 42
0.046875
 43
0.046875
  0
INSERT
  5
BE74
  8
0
  2
*U101
 10
0.0
 20
0.0
 30
0.0
  0
POINT
  5
BE75
  8
DEFPOINTS
 62
     0
 10
-372.75003212464071
 20
691.50258250487684
 30
0.0
  0
POINT
  5
BE76
  8
DEFPOINTS
 62
     0
 10
-371.87503212464071
 20
691.50258250487684
 30
0.0
  0
POINT
  5
BE77
  8
DEFPOINTS
 62
     0
 10
-371.87503212464071
 20
690.60683638017827
 30
0.0
  0
ENDBLK
  5
9C1C
  8
0
  0
BLOCK
  8
0
  2
*D45
 70
     1
 10
0.0
 20
0.0
 30
0.0
  3
*D45
  1

  0
LINE
  5
BE78
  8
0
 62
     0
 10
-372.7500321246406
 20
693.38140903712292
 30
0.0
 11
-372.7500321246406
 21
692.51691291242435
 31
0.0
  0
LINE
  5
BE79
  8
0
 62
     0
 10
-371.8750321246406
 20
693.38140903712292
 30
0.0
 11
-371.8750321246406
 21
692.51691291242435
 31
0.0
  0
LINE
  5
BE7A
  8
0
 62
     0
 10
-372.7500321246406
 20
692.57941291242435
 30
0.0
 11
-371.8750321246406
 21
692.57941291242435
 31
0.0
  0
INSERT
  5
BE7B
  8
0
 62
     0
  2
_ARCHTICK
 10
-372.7500321246406
 20
692.57941291242435
 30
0.0
 41
0.046875
 42
0.046875
 43
0.046875
 50
180.0
  0
INSERT
  5
BE7C
  8
0
 62
     0
  2
_ARCHTICK
 10
-371.8750321246406
 20
692.57941291242435
 30
0.0
 41
0.046875
 42
0.046875
 43
0.046875
  0
INSERT
  5
BE7D
  8
0
  2
*U102
 10
0.0
 20
0.0
 30
0.0
  0
POINT
  5
BE7E
  8
DEFPOINTS
 62
     0
 10
-372.7500321246406
 20
693.47515903712292
 30
0.0
  0
POINT
  5
BE7F
  8
DEFPOINTS
 62
     0
 10
-371.8750321246406
 20
693.47515903712292
 30
0.0
  0
POINT
  5
BE80
  8
DEFPOINTS
 62
     0
 10
-371.8750321246406
 20
692.57941291242435
 30
0.0
  0
ENDBLK
  5
9C28
  8
0
  0
BLOCK
  8
0
  2
*D46
 70
     1
 10
0.0
 20
0.0
 30
0.0
  3
*D46
  1

  0
LINE
  5
BE81
  8
0
 62
     0
 10
-368.99468467573899
 20
692.63045633080719
 30
0.0
 11
-368.99468467573899
 21
691.5136190872114
 31
0.0
  0
LINE
  5
BE82
  8
0
 62
     0
 10
-368.11968467573899
 20
692.63045633080719
 30
0.0
 11
-368.11968467573899
 21
691.5136190872114
 31
0.0
  0
LINE
  5
BE83
  8
0
 62
     0
 10
-368.99468467573899
 20
691.57611908721151
 30
0.0
 11
-368.11968467573899
 21
691.57611908721151
 31
0.0
  0
INSERT
  5
BE84
  8
0
 62
     0
  2
_ARCHTICK
 10
-368.99468467573899
 20
691.57611908721151
 30
0.0
 41
0.046875
 42
0.046875
 43
0.046875
 50
180.0
  0
INSERT
  5
BE85
  8
0
 62
     0
  2
_ARCHTICK
 10
-368.11968467573899
 20
691.57611908721151
 30
0.0
 41
0.046875
 42
0.046875
 43
0.046875
  0
INSERT
  5
BE86
  8
0
  2
*U103
 10
0.0
 20
0.0
 30
0.0
  0
POINT
  5
BE87
  8
DEFPOINTS
 62
     0
 10
-368.99468467573899
 20
692.72420633080719
 30
0.0
  0
POINT
  5
BE88
  8
DEFPOINTS
 62
     0
 10
-368.11968467573899
 20
692.72420633080719
 30
0.0
  0
POINT
  5
BE89
  8
DEFPOINTS
 62
     0
 10
-368.11968467573899
 20
691.57611908721151
 30
0.0
  0
ENDBLK
  5
9C34
  8
0
  0
BLOCK
  8
0
  2
*D47
 70
     1
 10
0.0
 20
0.0
 30
0.0
  3
*D47
  1

  0
LINE
  5
BE8A
  8
0
 62
     0
 10
-361.30447345852969
 20
696.43482273605412
 30
0.0
 11
-362.06821539657147
 21
696.43482273605412
 31
0.0
  0
LINE
  5
BE8B
  8
0
 62
     0
 10
-361.30447345852969
 20
694.68482273605412
 30
0.0
 11
-362.06821539657147
 21
694.68482273605412
 31
0.0
  0
LINE
  5
BE8C
  8
0
 62
     0
 10
-362.00571539657147
 20
696.43482273605412
 30
0.0
 11
-362.00571539657147
 21
694.68482273605412
 31
0.0
  0
INSERT
  5
BE8D
  8
0
 62
     0
  2
_ARCHTICK
 10
-362.00571539657147
 20
696.43482273605412
 30
0.0
 41
0.046875
 42
0.046875
 43
0.046875
 50
90.0
  0
INSERT
  5
BE8E
  8
0
 62
     0
  2
_ARCHTICK
 10
-362.00571539657147
 20
694.68482273605412
 30
0.0
 41
0.046875
 42
0.046875
 43
0.046875
 50
270.0
  0
INSERT
  5
BE8F
  8
0
  2
*U104
 10
0.0
 20
0.0
 30
0.0
  0
POINT
  5
BE90
  8
DEFPOINTS
 62
     0
 10
-361.21072345852969
 20
696.43482273605412
 30
0.0
  0
POINT
  5
BE91
  8
DEFPOINTS
 62
     0
 10
-361.21072345852969
 20
694.68482273605412
 30
0.0
  0
POINT
  5
BE92
  8
DEFPOINTS
 62
     0
 10
-362.00571539657147
 20
694.68482273605412
 30
0.0
  0
ENDBLK
  5
9C40
  8
0
  0
BLOCK
  8
0
  2
*D48
 70
     1
 10
0.0
 20
0.0
 30
0.0
  3
*D48
  1

  0
LINE
  5
BE93
  8
0
 62
     0
 10
-361.21072345852969
 20
696.52857273605412
 30
0.0
 11
-361.21072345852969
 21
696.62092615335223
 31
0.0
  0
LINE
  5
BE94
  8
0
 62
     0
 10
-360.71072345852951
 20
696.09107273605412
 30
0.0
 11
-360.71072345852951
 21
696.62092615335223
 31
0.0
  0
LINE
  5
BE95
  8
0
 62
     0
 10
-361.21072345852969
 20
696.55842615335223
 30
0.0
 11
-360.71072345852951
 21
696.55842615335223
 31
0.0
  0
INSERT
  5
BE96
  8
0
 62
     0
  2
_ARCHTICK
 10
-361.21072345852969
 20
696.55842615335223
 30
0.0
 41
0.046875
 42
0.046875
 43
0.046875
 50
180.0
  0
INSERT
  5
BE97
  8
0
 62
     0
  2
_ARCHTICK
 10
-360.71072345852951
 20
696.55842615335223
 30
0.0
 41
0.046875
 42
0.046875
 43
0.046875
  0
INSERT
  5
BE98
  8
0
  2
*U105
 10
0.0
 20
0.0
 30
0.0
  0
POINT
  5
BE99
  8
DEFPOINTS
 62
     0
 10
-361.21072345852969
 20
696.43482273605412
 30
0.0
  0
POINT
  5
BE9A
  8
DEFPOINTS
 62
     0
 10
-360.71072345852951
 20
695.99732273605412
 30
0.0
  0
POINT
  5
BE9B
  8
DEFPOINTS
 62
     0
 10
-360.71072345852951
 20
696.55842615335223
 30
0.0
  0
ENDBLK
  5
9C4C
  8
0
  0
BLOCK
  8
0
  2
*D49
 70
     1
 10
0.0
 20
0.0
 30
0.0
  3
*D49
  1

  0
LINE
  5
BE9C
  8
0
 62
     0
 10
-362.61274999498158
 20
692.22411726086602
 30
0.0
 11
-362.61274999498158
 21
691.38308427142329
 31
0.0
  0
LINE
  5
BE9D
  8
0
 62
     0
 10
-361.36274999498119
 20
692.22411726086602
 30
0.0
 11
-361.36274999498119
 21
691.38308427142329
 31
0.0
  0
LINE
  5
BE9E
  8
0
 62
     0
 10
-362.61274999498158
 20
691.44558427142317
 30
0.0
 11
-361.36274999498119
 21
691.44558427142317
 31
0.0
  0
INSERT
  5
BE9F
  8
0
 62
     0
  2
_ARCHTICK
 10
-362.61274999498158
 20
691.44558427142317
 30
0.0
 41
0.046875
 42
0.046875
 43
0.046875
 50
180.0
  0
INSERT
  5
BEA0
  8
0
 62
     0
  2
_ARCHTICK
 10
-361.36274999498119
 20
691.44558427142317
 30
0.0
 41
0.046875
 42
0.046875
 43
0.046875
  0
INSERT
  5
BEA1
  8
0
  2
*U106
 10
0.0
 20
0.0
 30
0.0
  0
POINT
  5
BEA2
  8
DEFPOINTS
 62
     0
 10
-362.61274999498158
 20
692.31786726086602
 30
0.0
  0
POINT
  5
BEA3
  8
DEFPOINTS
 62
     0
 10
-361.36274999498119
 20
692.31786726086602
 30
0.0
  0
POINT
  5
BEA4
  8
DEFPOINTS
 62
     0
 10
-361.36274999498119
 20
691.44558427142317
 30
0.0
  0
ENDBLK
  5
9C58
  8
0
  0
BLOCK
  8
0
  2
*D50
 70
     1
 10
0.0
 20
0.0
 30
0.0
  3
*D50
  1

  0
LINE
  5
BEA5
  8
0
 62
     0
 10
-353.3669734585298
 20
696.43482273605412
 30
0.0
 11
-354.13071539657147
 21
696.43482273605412
 31
0.0
  0
LINE
  5
BEA6
  8
0
 62
     0
 10
-353.3669734585298
 20
694.68482273605412
 30
0.0
 11
-354.13071539657147
 21
694.68482273605412
 31
0.0
  0
LINE
  5
BEA7
  8
0
 62
     0
 10
-354.06821539657147
 20
696.43482273605412
 30
0.0
 11
-354.06821539657147
 21
694.68482273605412
 31
0.0
  0
INSERT
  5
BEA8
  8
0
 62
     0
  2
_ARCHTICK
 10
-354.06821539657147
 20
696.43482273605412
 30
0.0
 41
0.046875
 42
0.046875
 43
0.046875
 50
90.0
  0
INSERT
  5
BEA9
  8
0
 62
     0
  2
_ARCHTICK
 10
-354.06821539657147
 20
694.68482273605412
 30
0.0
 41
0.046875
 42
0.046875
 43
0.046875
 50
270.0
  0
INSERT
  5
BEAA
  8
0
  2
*U107
 10
0.0
 20
0.0
 30
0.0
  0
POINT
  5
BEAB
  8
DEFPOINTS
 62
     0
 10
-353.2732234585298
 20
696.43482273605412
 30
0.0
  0
POINT
  5
BEAC
  8
DEFPOINTS
 62
     0
 10
-353.2732234585298
 20
694.68482273605412
 30
0.0
  0
POINT
  5
BEAD
  8
DEFPOINTS
 62
     0
 10
-354.06821539657147
 20
694.68482273605412
 30
0.0
  0
ENDBLK
  5
9C64
  8
0
  0
BLOCK
  8
0
  2
*D51
 70
     1
 10
0.0
 20
0.0
 30
0.0
  3
*D51
  1

  0
LINE
  5
BEAE
  8
0
 62
     0
 10
-353.2732234585298
 20
696.52857273605412
 30
0.0
 11
-353.2732234585298
 21
696.62092615335223
 31
0.0
  0
LINE
  5
BEAF
  8
0
 62
     0
 10
-352.7733291783656
 20
696.02857277997987
 30
0.0
 11
-352.7733291783656
 21
696.62092615335223
 31
0.0
  0
LINE
  5
BEB0
  8
0
 62
     0
 10
-353.2732234585298
 20
696.55842615335223
 30
0.0
 11
-352.7733291783656
 21
696.55842615335223
 31
0.0
  0
INSERT
  5
BEB1
  8
0
 62
     0
  2
_ARCHTICK
 10
-353.2732234585298
 20
696.55842615335223
 30
0.0
 41
0.046875
 42
0.046875
 43
0.046875
 50
180.0
  0
INSERT
  5
BEB2
  8
0
 62
     0
  2
_ARCHTICK
 10
-352.7733291783656
 20
696.55842615335223
 30
0.0
 41
0.046875
 42
0.046875
 43
0.046875
  0
INSERT
  5
BEB3
  8
0
  2
*U108
 10
0.0
 20
0.0
 30
0.0
  0
POINT
  5
BEB4
  8
DEFPOINTS
 62
     0
 10
-353.2732234585298
 20
696.43482273605412
 30
0.0
  0
POINT
  5
BEB5
  8
DEFPOINTS
 62
     0
 10
-352.7733291783656
 20
695.93482277997987
 30
0.0
  0
POINT
  5
BEB6
  8
DEFPOINTS
 62
     0
 10
-352.7733291783656
 20
696.55842615335223
 30
0.0
  0
ENDBLK
  5
9C70
  8
0
  0
BLOCK
  8
0
  2
*D52
 70
     1
 10
0.0
 20
0.0
 30
0.0
  3
*D52
  1

  0
LINE
  5
BEB7
  8
0
 62
     0
 10
-354.67524999498141
 20
692.28661726086602
 30
0.0
 11
-354.67524999498141
 21
691.38308427142329
 31
0.0
  0
LINE
  5
BEB8
  8
0
 62
     0
 10
-353.42535571481727
 20
692.28661721694061
 30
0.0
 11
-353.42535571481727
 21
691.38308427142329
 31
0.0
  0
LINE
  5
BEB9
  8
0
 62
     0
 10
-354.67524999498141
 20
691.44558427142317
 30
0.0
 11
-353.42535571481727
 21
691.44558427142317
 31
0.0
  0
INSERT
  5
BEBA
  8
0
 62
     0
  2
_ARCHTICK
 10
-354.67524999498141
 20
691.44558427142317
 30
0.0
 41
0.046875
 42
0.046875
 43
0.046875
 50
180.0
  0
INSERT
  5
BEBB
  8
0
 62
     0
  2
_ARCHTICK
 10
-353.42535571481727
 20
691.44558427142317
 30
0.0
 41
0.046875
 42
0.046875
 43
0.046875
  0
INSERT
  5
BEBC
  8
0
  2
*U109
 10
0.0
 20
0.0
 30
0.0
  0
POINT
  5
BEBD
  8
DEFPOINTS
 62
     0
 10
-354.67524999498141
 20
692.38036726086602
 30
0.0
  0
POINT
  5
BEBE
  8
DEFPOINTS
 62
     0
 10
-353.42535571481727
 20
692.3803672169405
 30
0.0
  0
POINT
  5
BEBF
  8
DEFPOINTS
 62
     0
 10
-353.42535571481727
 20
691.44558427142317
 30
0.0
  0
ENDBLK
  5
9C7C
  8
0
  0
BLOCK
  8
0
  2
*D53
 70
     1
 10
0.0
 20
0.0
 30
0.0
  3
*D53
  1

  0
LINE
  5
BEC0
  8
0
 62
     0
 10
-345.42947345852969
 20
696.43482273605412
 30
0.0
 11
-346.19321539657147
 21
696.43482273605412
 31
0.0
  0
LINE
  5
BEC1
  8
0
 62
     0
 10
-345.42947345852969
 20
694.68482273605412
 30
0.0
 11
-346.19321539657147
 21
694.68482273605412
 31
0.0
  0
LINE
  5
BEC2
  8
0
 62
     0
 10
-346.13071539657147
 20
696.43482273605412
 30
0.0
 11
-346.13071539657147
 21
694.68482273605412
 31
0.0
  0
INSERT
  5
BEC3
  8
0
 62
     0
  2
_ARCHTICK
 10
-346.13071539657147
 20
696.43482273605412
 30
0.0
 41
0.046875
 42
0.046875
 43
0.046875
 50
90.0
  0
INSERT
  5
BEC4
  8
0
 62
     0
  2
_ARCHTICK
 10
-346.13071539657147
 20
694.68482273605412
 30
0.0
 41
0.046875
 42
0.046875
 43
0.046875
 50
270.0
  0
INSERT
  5
BEC5
  8
0
  2
*U110
 10
0.0
 20
0.0
 30
0.0
  0
POINT
  5
BEC6
  8
DEFPOINTS
 62
     0
 10
-345.33572345852969
 20
696.43482273605412
 30
0.0
  0
POINT
  5
BEC7
  8
DEFPOINTS
 62
     0
 10
-345.33572345852969
 20
694.68482273605412
 30
0.0
  0
POINT
  5
BEC8
  8
DEFPOINTS
 62
     0
 10
-346.13071539657147
 20
694.68482273605412
 30
0.0
  0
ENDBLK
  5
9C88
  8
0
  0
BLOCK
  8
0
  2
*D54
 70
     1
 10
0.0
 20
0.0
 30
0.0
  3
*D54
  1

  0
LINE
  5
BEC9
  8
0
 62
     0
 10
-345.33572345852969
 20
696.52857273605412
 30
0.0
 11
-345.33572345852969
 21
696.62092615335223
 31
0.0
  0
LINE
  5
BECA
  8
0
 62
     0
 10
-344.83572345852969
 20
696.02857273605412
 30
0.0
 11
-344.83572345852969
 21
696.62092615335223
 31
0.0
  0
LINE
  5
BECB
  8
0
 62
     0
 10
-345.33572345852969
 20
696.55842615335223
 30
0.0
 11
-344.83572345852969
 21
696.55842615335223
 31
0.0
  0
INSERT
  5
BECC
  8
0
 62
     0
  2
_ARCHTICK
 10
-345.33572345852969
 20
696.55842615335223
 30
0.0
 41
0.046875
 42
0.046875
 43
0.046875
 50
180.0
  0
INSERT
  5
BECD
  8
0
 62
     0
  2
_ARCHTICK
 10
-344.83572345852969
 20
696.55842615335223
 30
0.0
 41
0.046875
 42
0.046875
 43
0.046875
  0
INSERT
  5
BECE
  8
0
  2
*U111
 10
0.0
 20
0.0
 30
0.0
  0
POINT
  5
BECF
  8
DEFPOINTS
 62
     0
 10
-345.33572345852969
 20
696.43482273605412
 30
0.0
  0
POINT
  5
BED0
  8
DEFPOINTS
 62
     0
 10
-344.83572345852969
 20
695.93482273605412
 30
0.0
  0
POINT
  5
BED1
  8
DEFPOINTS
 62
     0
 10
-344.83572345852969
 20
696.55842615335223
 30
0.0
  0
ENDBLK
  5
9C94
  8
0
  0
BLOCK
  8
0
  2
*D55
 70
     1
 10
0.0
 20
0.0
 30
0.0
  3
*D55
  1

  0
LINE
  5
BED2
  8
0
 62
     0
 10
-346.73774999498141
 20
692.28661726086602
 30
0.0
 11
-346.73774999498141
 21
691.38308427142329
 31
0.0
  0
LINE
  5
BED3
  8
0
 62
     0
 10
-345.48774999498141
 20
692.28661726086602
 30
0.0
 11
-345.48774999498141
 21
691.38308427142329
 31
0.0
  0
LINE
  5
BED4
  8
0
 62
     0
 10
-346.73774999498141
 20
691.44558427142317
 30
0.0
 11
-345.48774999498141
 21
691.44558427142317
 31
0.0
  0
INSERT
  5
BED5
  8
0
 62
     0
  2
_ARCHTICK
 10
-346.73774999498141
 20
691.44558427142317
 30
0.0
 41
0.046875
 42
0.046875
 43
0.046875
 50
180.0
  0
INSERT
  5
BED6
  8
0
 62
     0
  2
_ARCHTICK
 10
-345.48774999498141
 20
691.44558427142317
 30
0.0
 41
0.046875
 42
0.046875
 43
0.046875
  0
INSERT
  5
BED7
  8
0
  2
*U112
 10
0.0
 20
0.0
 30
0.0
  0
POINT
  5
BED8
  8
DEFPOINTS
 62
     0
 10
-346.73774999498141
 20
692.38036726086602
 30
0.0
  0
POINT
  5
BED9
  8
DEFPOINTS
 62
     0
 10
-345.48774999498141
 20
692.38036726086602
 30
0.0
  0
POINT
  5
BEDA
  8
DEFPOINTS
 62
     0
 10
-345.48774999498141
 20
691.44558427142317
 30
0.0
  0
ENDBLK
  5
9CA0
  8
0
  0
BLOCK
  8
0
  2
A$C56122B34
 70
     0
 10
0.0
 20
0.0
 30
0.0
  3
A$C56122B34
  1

  0
INSERT
  5
BB52
  8
0
  2
*U79
 10
0.0
 20
0.0
 30
0.0
  0
LINE
  5
BB53
  8
PROF
  6
CONTINUOUS
 10
-0.0000012115294226
 20
6.0000907184370362
 30
0.0
 11
0.289222702745576
 21
6.0000907184370362
 31
0.0
  0
LINE
  5
BB54
  8
PROF
  6
CONTINUOUS
 10
0.6248652699956097
 20
4.9946184884212244
 30
0.0
 11
0.6248652699956097
 21
4.9901416844371624
 31
0.0
  0
LINE
  5
BB55
  8
PROF
  6
CONTINUOUS
 10
0.6248652699956097
 20
4.9901416844371624
 30
0.0
 11
0.6248652699956097
 21
4.9066430429371621
 31
0.0
  0
LINE
  5
BB56
  8
PROF
  6
CONTINUOUS
 10
0.4229853297956084
 20
5.1617770650074126
 30
0.0
 11
0.4525913660234551
 21
5.1617770650074126
 31
0.0
  0
ARC
  5
BB57
  8
PROF
  6
CONTINUOUS
 10
0.4562038991626878
 20
4.9931479749146774
 30
0.0
 40
0.1686677812186365
 50
0.4995339622628896
 51
91.227257090588395
  0
LINE
  5
BB58
  8
PROF
  6
CONTINUOUS
 10
0.4229853297956084
 20
5.522720193687177
 30
0.0
 11
0.4229853297956084
 21
5.1617770650074126
 31
0.0
  0
LINE
  5
BB59
  8
PROF
  6
CONTINUOUS
 10
0.6248652699956097
 20
4.1771285924370432
 30
0.0
 11
0.7586278969706087
 21
4.1771285924370432
 31
0.0
  0
LINE
  5
BB5A
  8
PROF
  6
CONTINUOUS
 10
0.6248652699956097
 20
4.765739084187202
 30
0.0
 11
0.6248652699956097
 21
4.1771285924370432
 31
0.0
  0
LINE
  5
BB5B
  8
PROF
  6
CONTINUOUS
 10
0.6248652699956097
 20
4.9066430429371621
 30
0.0
 11
0.6248652699956097
 21
4.765739084187202
 31
0.0
  0
LINE
  5
BB5C
  8
PROF
  6
CONTINUOUS
 10
0.0624987884705774
 20
4.999999163087181
 30
0.0
 11
-0.0000012115294226
 21
4.999999163087181
 31
0.0
  0
LINE
  5
BB5D
  8
PROF
  6
CONTINUOUS
 10
0.289222702745576
 20
5.522720193687177
 30
0.0
 11
0.4229853297956084
 21
5.522720193687177
 31
0.0
  0
LINE
  5
BB5E
  8
PROF
  6
CONTINUOUS
 10
-0.0000012115294226
 20
4.999999163087181
 30
0.0
 11
-0.0000012115294226
 21
6.0000907184370362
 31
0.0
  0
LINE
  5
BB5F
  8
PROF
  6
CONTINUOUS
 10
0.289222702745576
 20
6.0000907184370362
 30
0.0
 11
0.289222702745576
 21
5.522720193687177
 31
0.0
  0
LINE
  5
BB60
  8
PROF
  6
CONTINUOUS
 10
-0.0000012115294226
 20
0.749999163087182
 30
0.0
 11
0.0624987884705774
 21
0.749999163087182
 31
0.0
  0
LINE
  5
BB61
  8
PROF
  6
CONTINUOUS
 10
-0.0000012115294226
 20
-0.0000008369128182
 30
0.0
 11
-0.0000012115294226
 21
0.749999163087182
 31
0.0
  0
LINE
  5
BB62
  8
PROF
  6
CONTINUOUS
 10
0.7586278969706087
 20
-0.0000008369128182
 30
0.0
 11
-0.0000012115294226
 21
-0.0000008369128182
 31
0.0
  0
LINE
  5
BB63
  8
PROF
  6
CONTINUOUS
 10
0.7586278969706087
 20
4.1771285924370432
 30
0.0
 11
0.7586278969706087
 21
-0.0000008369128182
 31
0.0
  0
LINE
  5
BB64
  8
PROF
  6
CONTINUOUS
 10
0.0624987884705774
 20
0.749999163087182
 30
0.0
 11
0.0624987884705774
 21
4.999999163087181
 31
0.0
  0
ENDBLK
  5
BB66
  8
0
  0
BLOCK
  8
0
  2
A$C212248C0
 70
     0
 10
0.0
 20
0.0
 30
0.0
  3
A$C212248C0
  1

  0
LINE
  5
BC62
  8
0
 10
-0.0000002092490945
 20
10.41741894345523
 30
0.0
 11
-0.000000218823061
 21
12.91741894345523
 31
0.0
  0
LINE
  5
BC63
  8
0
 10
0.8061752779508424
 20
10.41741894654251
 30
0.0
 11
0.80617527442746
 21
11.337459194522349
 31
0.0
  0
LINE
  5
BC64
  8
0
 10
-0.0000002092490945
 20
10.41741894345523
 30
0.0
 11
0.8061752779508424
 21
10.41741894654251
 31
0.0
  0
LINE
  5
BC65
  8
0
 10
-0.000000218823061
 20
12.91741894345523
 30
0.0
 11
0.1835338022692099
 21
12.91741894415804
 31
0.0
  0
LINE
  5
BC66
  8
0
 10
0.5432593756756888
 20
11.33745919351543
 30
0.0
 11
0.8061752744275167
 21
11.337459194522349
 31
0.0
  0
LINE
  5
BC67
  8
0
 10
0.5432593756756888
 20
11.33745919351543
 30
0.0
 11
0.54325937522907
 21
11.454074799268589
 31
0.0
  0
ARC
  5
BC68
  8
0
 10
0.5406585726453841
 20
11.69407225899795
 30
0.0
 40
0.2400115514942006
 50
270.62087814899439
 51
10.065567101317541
  0
ARC
  5
BC69
  8
0
 10
0.3766221072655185
 20
12.57830290724473
 30
0.0
 40
0.1204493443528103
 50
92.075522465847911
 51
186.90606997904499
  0
ARC
  5
BC6A
  8
0
 10
0.3522648873053527
 20
11.66572609276443
 30
0.0
 40
0.4304889887359197
 50
9.3978639632316945
 51
32.979139282634932
  0
ARC
  5
BC6B
  8
0
 10
-3.1652042745943159
 20
9.0577862235478506
 30
0.0
 40
4.8085319198703189
 50
36.234313076985558
 51
42.402692063571678
  0
LINE
  5
BC6C
  8
0
 10
0.1835338022692099
 20
12.91741894415804
 30
0.0
 11
0.3722598200128004
 21
12.698673231681139
 31
0.0
  0
ARC
  5
BC6D
  8
0
 10
0.9319226152692294
 20
12.72987725098619
 30
0.0
 40
0.6950054723870779
 50
193.8233761419454
 51
218.1708864341492
  0
LINE
  5
BC6E
  8
0
 10
-0.0000002092490945
 20
10.41741894345523
 30
0.0
 11
-0.0000002092490945
 21
12.91741894345523
 31
0.0
  0
INSERT
  5
BC6F
  8
0
  2
*U80
 10
0.0
 20
0.0
 30
0.0
  0
LINE
  5
BC70
  8
FRAME_050
 10
6.2588202718825414
 20
17.993710579095019
 30
0.0
 11
6.2588202718825414
 21
0.0000000294007805
 31
0.0
  0
ENDBLK
  5
BC72
  8
0
  0
BLOCK
  8
0
  2
A$C648C41A8
 70
     0
 10
0.0
 20
0.0
 30
0.0
  3
A$C648C41A8
  1

  0
INSERT
  5
BCDA
  8
0
  2
*U81
 10
0.0
 20
0.0
 30
0.0
  0
LINE
  5
BCDB
  8
0
  6
CONTINUOUS
 10
4.3949918154868319
 20
5.096391318137079
 30
0.0
 11
4.3726359359629887
 21
4.537759960026392
 31
0.0
  0
LINE
  5
BCDC
  8
0
  6
CONTINUOUS
 10
3.6802624740830652
 20
5.0963913181369662
 30
0.0
 11
4.3949918154868319
 21
5.096391318137079
 31
0.0
  0
LINE
  5
BCDD
  8
0
  6
CONTINUOUS
 10
4.3726359359629887
 20
4.537759960026392
 30
0.0
 11
4.1714329670850239
 21
4.537759960026392
 31
0.0
  0
LINE
  5
BCDE
  8
0
  6
CONTINUOUS
 10
2.589820267441723
 20
2.957844887552596
 30
0.0
 11
2.589820267441723
 21
2.5320678046103922
 31
0.0
  0
LINE
  5
BCDF
  8
0
  6
CONTINUOUS
 10
0.242694173867676
 20
-0.0000003219063274
 30
0.0
 11
0.0000004691084428
 21
-0.0000003219063274
 31
0.0
  0
LINE
  5
BCE0
  8
0
  6
CONTINUOUS
 10
0.0000004691084428
 20
-0.0000003219063274
 30
0.0
 11
0.0000004691084428
 21
1.553264488445961
 31
0.0
  0
LINE
  5
BCE1
  8
0
  6
CONTINUOUS
 10
0.0000004691084428
 20
1.553264488445961
 30
0.0
 11
3.6802624740830652
 21
5.0963913181369662
 31
0.0
  0
POLYLINE
  8
0
  5
D472
  66
     1
 10
0.000000
 20
0.000000
 30
0.000000
  70
     8
  0
VERTEX
  8
0
  5
D473
 10
2.58982
 20
2.53207
 30
0.000000
  70
    32
  0
VERTEX
  8
0
  5
D474
 10
2.57659
 20
2.53032
 30
0.000000
  70
    32
  0
VERTEX
  8
0
  5
D475
 10
2.56338
 20
2.52849
 30
0.000000
  70
    32
  0
VERTEX
  8
0
  5
D476
 10
2.55018
 20
2.52657
 30
0.000000
  70
    32
  0
VERTEX
  8
0
  5
D477
 10
2.53700
 20
2.52458
 30
0.000000
  70
    32
  0
VERTEX
  8
0
  5
D478
 10
2.52383
 20
2.52250
 30
0.000000
  70
    32
  0
VERTEX
  8
0
  5
D479
 10
2.51067
 20
2.52035
 30
0.000000
  70
    32
  0
VERTEX
  8
0
  5
D47A
 10
2.49753
 20
2.51812
 30
0.000000
  70
    32
  0
VERTEX
  8
0
  5
D47B
 10
2.48440
 20
2.51582
 30
0.000000
  70
    32
  0
VERTEX
  8
0
  5
D47C
 10
2.47129
 20
2.51345
 30
0.000000
  70
    32
  0
VERTEX
  8
0
  5
D47D
 10
2.45819
 20
2.51100
 30
0.000000
  70
    32
  0
VERTEX
  8
0
  5
D47E
 10
2.44510
 20
2.50849
 30
0.000000
  70
    32
  0
VERTEX
  8
0
  5
D47F
 10
2.43202
 20
2.50590
 30
0.000000
  70
    32
  0
VERTEX
  8
0
  5
D480
 10
2.41896
 20
2.50325
 30
0.000000
  70
    32
  0
VERTEX
  8
0
  5
D481
 10
2.40591
 20
2.50053
 30
0.000000
  70
    32
  0
VERTEX
  8
0
  5
D482
 10
2.39287
 20
2.49775
 30
0.000000
  70
    32
  0
VERTEX
  8
0
  5
D483
 10
2.37984
 20
2.49490
 30
0.000000
  70
    32
  0
VERTEX
  8
0
  5
D484
 10
2.36682
 20
2.49200
 30
0.000000
  70
    32
  0
VERTEX
  8
0
  5
D485
 10
2.35381
 20
2.48903
 30
0.000000
  70
    32
  0
VERTEX
  8
0
  5
D486
 10
2.34082
 20
2.48600
 30
0.000000
  70
    32
  0
VERTEX
  8
0
  5
D487
 10
2.32783
 20
2.48292
 30
0.000000
  70
    32
  0
VERTEX
  8
0
  5
D488
 10
2.31486
 20
2.47978
 30
0.000000
  70
    32
  0
VERTEX
  8
0
  5
D489
 10
2.30190
 20
2.47659
 30
0.000000
  70
    32
  0
VERTEX
  8
0
  5
D48A
 10
2.28894
 20
2.47334
 30
0.000000
  70
    32
  0
VERTEX
  8
0
  5
D48B
 10
2.27600
 20
2.47005
 30
0.000000
  70
    32
  0
VERTEX
  8
0
  5
D48C
 10
2.26306
 20
2.46670
 30
0.000000
  70
    32
  0
VERTEX
  8
0
  5
D48D
 10
2.25014
 20
2.46330
 30
0.000000
  70
    32
  0
VERTEX
  8
0
  5
D48E
 10
2.23722
 20
2.45986
 30
0.000000
  70
    32
  0
VERTEX
  8
0
  5
D48F
 10
2.22431
 20
2.45637
 30
0.000000
  70
    32
  0
VERTEX
  8
0
  5
D490
 10
2.21141
 20
2.45284
 30
0.000000
  70
    32
  0
VERTEX
  8
0
  5
D491
 10
2.19852
 20
2.44926
 30
0.000000
  70
    32
  0
VERTEX
  8
0
  5
D492
 10
2.18564
 20
2.44565
 30
0.000000
  70
    32
  0
VERTEX
  8
0
  5
D493
 10
2.17276
 20
2.44199
 30
0.000000
  70
    32
  0
VERTEX
  8
0
  5
D494
 10
2.15989
 20
2.43829
 30
0.000000
  70
    32
  0
VERTEX
  8
0
  5
D495
 10
2.14703
 20
2.43456
 30
0.000000
  70
    32
  0
VERTEX
  8
0
  5
D496
 10
2.13418
 20
2.43079
 30
0.000000
  70
    32
  0
VERTEX
  8
0
  5
D497
 10
2.12133
 20
2.42699
 30
0.000000
  70
    32
  0
VERTEX
  8
0
  5
D498
 10
2.10849
 20
2.42315
 30
0.000000
  70
    32
  0
VERTEX
  8
0
  5
D499
 10
2.09565
 20
2.41929
 30
0.000000
  70
    32
  0
VERTEX
  8
0
  5
D49A
 10
2.08283
 20
2.41539
 30
0.000000
  70
    32
  0
VERTEX
  8
0
  5
D49B
 10
2.07000
 20
2.41146
 30
0.000000
  70
    32
  0
VERTEX
  8
0
  5
D49C
 10
2.05719
 20
2.40751
 30
0.000000
  70
    32
  0
VERTEX
  8
0
  5
D49D
 10
2.04438
 20
2.40353
 30
0.000000
  70
    32
  0
VERTEX
  8
0
  5
D49E
 10
2.03157
 20
2.39953
 30
0.000000
  70
    32
  0
VERTEX
  8
0
  5
D49F
 10
2.01877
 20
2.39551
 30
0.000000
  70
    32
  0
VERTEX
  8
0
  5
D4A0
 10
2.00597
 20
2.39146
 30
0.000000
  70
    32
  0
VERTEX
  8
0
  5
D4A1
 10
1.99318
 20
2.38739
 30
0.000000
  70
    32
  0
VERTEX
  8
0
  5
D4A2
 10
1.98039
 20
2.38331
 30
0.000000
  70
    32
  0
VERTEX
  8
0
  5
D4A3
 10
1.96761
 20
2.37919
 30
0.000000
  70
    32
  0
VERTEX
  8
0
  5
D4A4
 10
1.95484
 20
2.37506
 30
0.000000
  70
    32
  0
VERTEX
  8
0
  5
D4A5
 10
1.94207
 20
2.37090
 30
0.000000
  70
    32
  0
VERTEX
  8
0
  5
D4A6
 10
1.92931
 20
2.36672
 30
0.000000
  70
    32
  0
VERTEX
  8
0
  5
D4A7
 10
1.91656
 20
2.36250
 30
0.000000
  70
    32
  0
VERTEX
  8
0
  5
D4A8
 10
1.90382
 20
2.35827
 30
0.000000
  70
    32
  0
VERTEX
  8
0
  5
D4A9
 10
1.89109
 20
2.35400
 30
0.000000
  70
    32
  0
VERTEX
  8
0
  5
D4AA
 10
1.87837
 20
2.34970
 30
0.000000
  70
    32
  0
VERTEX
  8
0
  5
D4AB
 10
1.86566
 20
2.34538
 30
0.000000
  70
    32
  0
VERTEX
  8
0
  5
D4AC
 10
1.85296
 20
2.34102
 30
0.000000
  70
    32
  0
VERTEX
  8
0
  5
D4AD
 10
1.84028
 20
2.33663
 30
0.000000
  70
    32
  0
VERTEX
  8
0
  5
D4AE
 10
1.82760
 20
2.33221
 30
0.000000
  70
    32
  0
VERTEX
  8
0
  5
D4AF
 10
1.81495
 20
2.32775
 30
0.000000
  70
    32
  0
VERTEX
  8
0
  5
D4B0
 10
1.80230
 20
2.32326
 30
0.000000
  70
    32
  0
VERTEX
  8
0
  5
D4B1
 10
1.78967
 20
2.31873
 30
0.000000
  70
    32
  0
VERTEX
  8
0
  5
D4B2
 10
1.77706
 20
2.31416
 30
0.000000
  70
    32
  0
VERTEX
  8
0
  5
D4B3
 10
1.76446
 20
2.30956
 30
0.000000
  70
    32
  0
VERTEX
  8
0
  5
D4B4
 10
1.75188
 20
2.30492
 30
0.000000
  70
    32
  0
VERTEX
  8
0
  5
D4B5
 10
1.73932
 20
2.30024
 30
0.000000
  70
    32
  0
VERTEX
  8
0
  5
D4B6
 10
1.72677
 20
2.29552
 30
0.000000
  70
    32
  0
VERTEX
  8
0
  5
D4B7
 10
1.71425
 20
2.29076
 30
0.000000
  70
    32
  0
VERTEX
  8
0
  5
D4B8
 10
1.70174
 20
2.28595
 30
0.000000
  70
    32
  0
VERTEX
  8
0
  5
D4B9
 10
1.68925
 20
2.28110
 30
0.000000
  70
    32
  0
VERTEX
  8
0
  5
D4BA
 10
1.67679
 20
2.27621
 30
0.000000
  70
    32
  0
VERTEX
  8
0
  5
D4BB
 10
1.66434
 20
2.27127
 30
0.000000
  70
    32
  0
VERTEX
  8
0
  5
D4BC
 10
1.65192
 20
2.26629
 30
0.000000
  70
    32
  0
VERTEX
  8
0
  5
D4BD
 10
1.63952
 20
2.26125
 30
0.000000
  70
    32
  0
VERTEX
  8
0
  5
D4BE
 10
1.62715
 20
2.25617
 30
0.000000
  70
    32
  0
VERTEX
  8
0
  5
D4BF
 10
1.61479
 20
2.25104
 30
0.000000
  70
    32
  0
VERTEX
  8
0
  5
D4C0
 10
1.60247
 20
2.24587
 30
0.000000
  70
    32
  0
VERTEX
  8
0
  5
D4C1
 10
1.59016
 20
2.24063
 30
0.000000
  70
    32
  0
VERTEX
  8
0
  5
D4C2
 10
1.57789
 20
2.23535
 30
0.000000
  70
    32
  0
VERTEX
  8
0
  5
D4C3
 10
1.56564
 20
2.23002
 30
0.000000
  70
    32
  0
VERTEX
  8
0
  5
D4C4
 10
1.55342
 20
2.22463
 30
0.000000
  70
    32
  0
VERTEX
  8
0
  5
D4C5
 10
1.54122
 20
2.21918
 30
0.000000
  70
    32
  0
VERTEX
  8
0
  5
D4C6
 10
1.52905
 20
2.21368
 30
0.000000
  70
    32
  0
VERTEX
  8
0
  5
D4C7
 10
1.51692
 20
2.20813
 30
0.000000
  70
    32
  0
VERTEX
  8
0
  5
D4C8
 10
1.50481
 20
2.20251
 30
0.000000
  70
    32
  0
VERTEX
  8
0
  5
D4C9
 10
1.49273
 20
2.19684
 30
0.000000
  70
    32
  0
VERTEX
  8
0
  5
D4CA
 10
1.48069
 20
2.19111
 30
0.000000
  70
    32
  0
VERTEX
  8
0
  5
D4CB
 10
1.46867
 20
2.18532
 30
0.000000
  70
    32
  0
VERTEX
  8
0
  5
D4CC
 10
1.45669
 20
2.17946
 30
0.000000
  70
    32
  0
VERTEX
  8
0
  5
D4CD
 10
1.44474
 20
2.17355
 30
0.000000
  70
    32
  0
VERTEX
  8
0
  5
D4CE
 10
1.43282
 20
2.16757
 30
0.000000
  70
    32
  0
VERTEX
  8
0
  5
D4CF
 10
1.42094
 20
2.16152
 30
0.000000
  70
    32
  0
VERTEX
  8
0
  5
D4D0
 10
1.40909
 20
2.15541
 30
0.000000
  70
    32
  0
VERTEX
  8
0
  5
D4D1
 10
1.39728
 20
2.14924
 30
0.000000
  70
    32
  0
VERTEX
  8
0
  5
D4D2
 10
1.38551
 20
2.14300
 30
0.000000
  70
    32
  0
VERTEX
  8
0
  5
D4D3
 10
1.37377
 20
2.13669
 30
0.000000
  70
    32
  0
VERTEX
  8
0
  5
D4D4
 10
1.36207
 20
2.13031
 30
0.000000
  70
    32
  0
VERTEX
  8
0
  5
D4D5
 10
1.35040
 20
2.12386
 30
0.000000
  70
    32
  0
VERTEX
  8
0
  5
D4D6
 10
1.33878
 20
2.11734
 30
0.000000
  70
    32
  0
VERTEX
  8
0
  5
D4D7
 10
1.32720
 20
2.11074
 30
0.000000
  70
    32
  0
VERTEX
  8
0
  5
D4D8
 10
1.31565
 20
2.10408
 30
0.000000
  70
    32
  0
VERTEX
  8
0
  5
D4D9
 10
1.30415
 20
2.09734
 30
0.000000
  70
    32
  0
VERTEX
  8
0
  5
D4DA
 10
1.29268
 20
2.09053
 30
0.000000
  70
    32
  0
VERTEX
  8
0
  5
D4DB
 10
1.28126
 20
2.08364
 30
0.000000
  70
    32
  0
VERTEX
  8
0
  5
D4DC
 10
1.26988
 20
2.07667
 30
0.000000
  70
    32
  0
VERTEX
  8
0
  5
D4DD
 10
1.25855
 20
2.06963
 30
0.000000
  70
    32
  0
VERTEX
  8
0
  5
D4DE
 10
1.24726
 20
2.06252
 30
0.000000
  70
    32
  0
VERTEX
  8
0
  5
D4DF
 10
1.23601
 20
2.05532
 30
0.000000
  70
    32
  0
VERTEX
  8
0
  5
D4E0
 10
1.22480
 20
2.04806
 30
0.000000
  70
    32
  0
VERTEX
  8
0
  5
D4E1
 10
1.21364
 20
2.04071
 30
0.000000
  70
    32
  0
VERTEX
  8
0
  5
D4E2
 10
1.20253
 20
2.03330
 30
0.000000
  70
    32
  0
VERTEX
  8
0
  5
D4E3
 10
1.19146
 20
2.02581
 30
0.000000
  70
    32
  0
VERTEX
  8
0
  5
D4E4
 10
1.18044
 20
2.01825
 30
0.000000
  70
    32
  0
VERTEX
  8
0
  5
D4E5
 10
1.16946
 20
2.01061
 30
0.000000
  70
    32
  0
VERTEX
  8
0
  5
D4E6
 10
1.15853
 20
2.00291
 30
0.000000
  70
    32
  0
VERTEX
  8
0
  5
D4E7
 10
1.14765
 20
1.99513
 30
0.000000
  70
    32
  0
VERTEX
  8
0
  5
D4E8
 10
1.13681
 20
1.98728
 30
0.000000
  70
    32
  0
VERTEX
  8
0
  5
D4E9
 10
1.12603
 20
1.97936
 30
0.000000
  70
    32
  0
VERTEX
  8
0
  5
D4EA
 10
1.11529
 20
1.97138
 30
0.000000
  70
    32
  0
VERTEX
  8
0
  5
D4EB
 10
1.10460
 20
1.96332
 30
0.000000
  70
    32
  0
VERTEX
  8
0
  5
D4EC
 10
1.09396
 20
1.95519
 30
0.000000
  70
    32
  0
VERTEX
  8
0
  5
D4ED
 10
1.08337
 20
1.94700
 30
0.000000
  70
    32
  0
VERTEX
  8
0
  5
D4EE
 10
1.07283
 20
1.93873
 30
0.000000
  70
    32
  0
VERTEX
  8
0
  5
D4EF
 10
1.06233
 20
1.93040
 30
0.000000
  70
    32
  0
VERTEX
  8
0
  5
D4F0
 10
1.05190
 20
1.92200
 30
0.000000
  70
    32
  0
VERTEX
  8
0
  5
D4F1
 10
1.04151
 20
1.91354
 30
0.000000
  70
    32
  0
VERTEX
  8
0
  5
D4F2
 10
1.03117
 20
1.90501
 30
0.000000
  70
    32
  0
VERTEX
  8
0
  5
D4F3
 10
1.02089
 20
1.89641
 30
0.000000
  70
    32
  0
VERTEX
  8
0
  5
D4F4
 10
1.01066
 20
1.88775
 30
0.000000
  70
    32
  0
VERTEX
  8
0
  5
D4F5
 10
1.00048
 20
1.87903
 30
0.000000
  70
    32
  0
VERTEX
  8
0
  5
D4F6
 10
0.990353
 20
1.87024
 30
0.000000
  70
    32
  0
VERTEX
  8
0
  5
D4F7
 10
0.980281
 20
1.86139
 30
0.000000
  70
    32
  0
VERTEX
  8
0
  5
D4F8
 10
0.970265
 20
1.85247
 30
0.000000
  70
    32
  0
VERTEX
  8
0
  5
D4F9
 10
0.960302
 20
1.84350
 30
0.000000
  70
    32
  0
VERTEX
  8
0
  5
D4FA
 10
0.950395
 20
1.83446
 30
0.000000
  70
    32
  0
VERTEX
  8
0
  5
D4FB
 10
0.940544
 20
1.82535
 30
0.000000
  70
    32
  0
VERTEX
  8
0
  5
D4FC
 10
0.930748
 20
1.81619
 30
0.000000
  70
    32
  0
VERTEX
  8
0
  5
D4FD
 10
0.921009
 20
1.80697
 30
0.000000
  70
    32
  0
VERTEX
  8
0
  5
D4FE
 10
0.911327
 20
1.79769
 30
0.000000
  70
    32
  0
VERTEX
  8
0
  5
D4FF
 10
0.901702
 20
1.78834
 30
0.000000
  70
    32
  0
VERTEX
  8
0
  5
D500
 10
0.892134
 20
1.77894
 30
0.000000
  70
    32
  0
VERTEX
  8
0
  5
D501
 10
0.882624
 20
1.76948
 30
0.000000
  70
    32
  0
VERTEX
  8
0
  5
D502
 10
0.873173
 20
1.75996
 30
0.000000
  70
    32
  0
VERTEX
  8
0
  5
D503
 10
0.863781
 20
1.75039
 30
0.000000
  70
    32
  0
VERTEX
  8
0
  5
D504
 10
0.854448
 20
1.74076
 30
0.000000
  70
    32
  0
VERTEX
  8
0
  5
D505
 10
0.845175
 20
1.73107
 30
0.000000
  70
    32
  0
VERTEX
  8
0
  5
D506
 10
0.835961
 20
1.72132
 30
0.000000
  70
    32
  0
VERTEX
  8
0
  5
D507
 10
0.826809
 20
1.71152
 30
0.000000
  70
    32
  0
VERTEX
  8
0
  5
D508
 10
0.817717
 20
1.70166
 30
0.000000
  70
    32
  0
VERTEX
  8
0
  5
D509
 10
0.808687
 20
1.69175
 30
0.000000
  70
    32
  0
VERTEX
  8
0
  5
D50A
 10
0.799718
 20
1.68179
 30
0.000000
  70
    32
  0
VERTEX
  8
0
  5
D50B
 10
0.790812
 20
1.67177
 30
0.000000
  70
    32
  0
VERTEX
  8
0
  5
D50C
 10
0.781968
 20
1.66170
 30
0.000000
  70
    32
  0
VERTEX
  8
0
  5
D50D
 10
0.773187
 20
1.65157
 30
0.000000
  70
    32
  0
VERTEX
  8
0
  5
D50E
 10
0.764468
 20
1.64140
 30
0.000000
  70
    32
  0
VERTEX
  8
0
  5
D50F
 10
0.755813
 20
1.63117
 30
0.000000
  70
    32
  0
VERTEX
  8
0
  5
D510
 10
0.747221
 20
1.62089
 30
0.000000
  70
    32
  0
VERTEX
  8
0
  5
D511
 10
0.738692
 20
1.61056
 30
0.000000
  70
    32
  0
VERTEX
  8
0
  5
D512
 10
0.730227
 20
1.60017
 30
0.000000
  70
    32
  0
VERTEX
  8
0
  5
D513
 10
0.721826
 20
1.58974
 30
0.000000
  70
    32
  0
VERTEX
  8
0
  5
D514
 10
0.713489
 20
1.57925
 30
0.000000
  70
    32
  0
VERTEX
  8
0
  5
D515
 10
0.705216
 20
1.56872
 30
0.000000
  70
    32
  0
VERTEX
  8
0
  5
D516
 10
0.697007
 20
1.55814
 30
0.000000
  70
    32
  0
VERTEX
  8
0
  5
D517
 10
0.688864
 20
1.54750
 30
0.000000
  70
    32
  0
VERTEX
  8
0
  5
D518
 10
0.680785
 20
1.53682
 30
0.000000
  70
    32
  0
VERTEX
  8
0
  5
D519
 10
0.672771
 20
1.52609
 30
0.000000
  70
    32
  0
VERTEX
  8
0
  5
D51A
 10
0.664823
 20
1.51532
 30
0.000000
  70
    32
  0
VERTEX
  8
0
  5
D51B
 10
0.656940
 20
1.50449
 30
0.000000
  70
    32
  0
VERTEX
  8
0
  5
D51C
 10
0.649123
 20
1.49362
 30
0.000000
  70
    32
  0
VERTEX
  8
0
  5
D51D
 10
0.641371
 20
1.48270
 30
0.000000
  70
    32
  0
VERTEX
  8
0
  5
D51E
 10
0.633686
 20
1.47173
 30
0.000000
  70
    32
  0
VERTEX
  8
0
  5
D51F
 10
0.626068
 20
1.46072
 30
0.000000
  70
    32
  0
VERTEX
  8
0
  5
D520
 10
0.618515
 20
1.44966
 30
0.000000
  70
    32
  0
VERTEX
  8
0
  5
D521
 10
0.611030
 20
1.43856
 30
0.000000
  70
    32
  0
VERTEX
  8
0
  5
D522
 10
0.603611
 20
1.42741
 30
0.000000
  70
    32
  0
VERTEX
  8
0
  5
D523
 10
0.596260
 20
1.41622
 30
0.000000
  70
    32
  0
VERTEX
  8
0
  5
D524
 10
0.588976
 20
1.40498
 30
0.000000
  70
    32
  0
VERTEX
  8
0
  5
D525
 10
0.581760
 20
1.39370
 30
0.000000
  70
    32
  0
VERTEX
  8
0
  5
D526
 10
0.574611
 20
1.38238
 30
0.000000
  70
    32
  0
VERTEX
  8
0
  5
D527
 10
0.567530
 20
1.37101
 30
0.000000
  70
    32
  0
VERTEX
  8
0
  5
D528
 10
0.560518
 20
1.35960
 30
0.000000
  70
    32
  0
VERTEX
  8
0
  5
D529
 10
0.553574
 20
1.34815
 30
0.000000
  70
    32
  0
VERTEX
  8
0
  5
D52A
 10
0.546698
 20
1.33666
 30
0.000000
  70
    32
  0
VERTEX
  8
0
  5
D52B
 10
0.539892
 20
1.32512
 30
0.000000
  70
    32
  0
VERTEX
  8
0
  5
D52C
 10
0.533154
 20
1.31354
 30
0.000000
  70
    32
  0
VERTEX
  8
0
  5
D52D
 10
0.526486
 20
1.30192
 30
0.000000
  70
    32
  0
VERTEX
  8
0
  5
D52E
 10
0.519887
 20
1.29027
 30
0.000000
  70
    32
  0
VERTEX
  8
0
  5
D52F
 10
0.513357
 20
1.27857
 30
0.000000
  70
    32
  0
VERTEX
  8
0
  5
D530
 10
0.506898
 20
1.26683
 30
0.000000
  70
    32
  0
VERTEX
  8
0
  5
D531
 10
0.500508
 20
1.25505
 30
0.000000
  70
    32
  0
VERTEX
  8
0
  5
D532
 10
0.494189
 20
1.24324
 30
0.000000
  70
    32
  0
VERTEX
  8
0
  5
D533
 10
0.487940
 20
1.23138
 30
0.000000
  70
    32
  0
VERTEX
  8
0
  5
D534
 10
0.481762
 20
1.21949
 30
0.000000
  70
    32
  0
VERTEX
  8
0
  5
D535
 10
0.475655
 20
1.20755
 30
0.000000
  70
    32
  0
VERTEX
  8
0
  5
D536
 10
0.469619
 20
1.19559
 30
0.000000
  70
    32
  0
VERTEX
  8
0
  5
D537
 10
0.463654
 20
1.18358
 30
0.000000
  70
    32
  0
VERTEX
  8
0
  5
D538
 10
0.457761
 20
1.17154
 30
0.000000
  70
    32
  0
VERTEX
  8
0
  5
D539
 10
0.451939
 20
1.15946
 30
0.000000
  70
    32
  0
VERTEX
  8
0
  5
D53A
 10
0.446190
 20
1.14734
 30
0.000000
  70
    32
  0
VERTEX
  8
0
  5
D53B
 10
0.440512
 20
1.13519
 30
0.000000
  70
    32
  0
VERTEX
  8
0
  5
D53C
 10
0.434907
 20
1.12301
 30
0.000000
  70
    32
  0
VERTEX
  8
0
  5
D53D
 10
0.429374
 20
1.11079
 30
0.000000
  70
    32
  0
VERTEX
  8
0
  5
D53E
 10
0.423914
 20
1.09853
 30
0.000000
  70
    32
  0
VERTEX
  8
0
  5
D53F
 10
0.418527
 20
1.08624
 30
0.000000
  70
    32
  0
VERTEX
  8
0
  5
D540
 10
0.413215
 20
1.07392
 30
0.000000
  70
    32
  0
VERTEX
  8
0
  5
D541
 10
0.407977
 20
1.06156
 30
0.000000
  70
    32
  0
VERTEX
  8
0
  5
D542
 10
0.402815
 20
1.04918
 30
0.000000
  70
    32
  0
VERTEX
  8
0
  5
D543
 10
0.397729
 20
1.03676
 30
0.000000
  70
    32
  0
VERTEX
  8
0
  5
D544
 10
0.392721
 20
1.02431
 30
0.000000
  70
    32
  0
VERTEX
  8
0
  5
D545
 10
0.387789
 20
1.01183
 30
0.000000
  70
    32
  0
VERTEX
  8
0
  5
D546
 10
0.382936
 20
0.999316
 30
0.000000
  70
    32
  0
VERTEX
  8
0
  5
D547
 10
0.378162
 20
0.986775
 30
0.000000
  70
    32
  0
VERTEX
  8
0
  5
D548
 10
0.373467
 20
0.974205
 30
0.000000
  70
    32
  0
VERTEX
  8
0
  5
D549
 10
0.368853
 20
0.961607
 30
0.000000
  70
    32
  0
VERTEX
  8
0
  5
D54A
 10
0.364320
 20
0.948981
 30
0.000000
  70
    32
  0
VERTEX
  8
0
  5
D54B
 10
0.359869
 20
0.936328
 30
0.000000
  70
    32
  0
VERTEX
  8
0
  5
D54C
 10
0.355500
 20
0.923648
 30
0.000000
  70
    32
  0
VERTEX
  8
0
  5
D54D
 10
0.351214
 20
0.910942
 30
0.000000
  70
    32
  0
VERTEX
  8
0
  5
D54E
 10
0.347012
 20
0.898210
 30
0.000000
  70
    32
  0
VERTEX
  8
0
  5
D54F
 10
0.342895
 20
0.885452
 30
0.000000
  70
    32
  0
VERTEX
  8
0
  5
D550
 10
0.338862
 20
0.872671
 30
0.000000
  70
    32
  0
VERTEX
  8
0
  5
D551
 10
0.334916
 20
0.859865
 30
0.000000
  70
    32
  0
VERTEX
  8
0
  5
D552
 10
0.331056
 20
0.847036
 30
0.000000
  70
    32
  0
VERTEX
  8
0
  5
D553
 10
0.327283
 20
0.834183
 30
0.000000
  70
    32
  0
VERTEX
  8
0
  5
D554
 10
0.323599
 20
0.821309
 30
0.000000
  70
    32
  0
VERTEX
  8
0
  5
D555
 10
0.320002
 20
0.808412
 30
0.000000
  70
    32
  0
VERTEX
  8
0
  5
D556
 10
0.316496
 20
0.795494
 30
0.000000
  70
    32
  0
VERTEX
  8
0
  5
D557
 10
0.313079
 20
0.782556
 30
0.000000
  70
    32
  0
VERTEX
  8
0
  5
D558
 10
0.309753
 20
0.769597
 30
0.000000
  70
    32
  0
VERTEX
  8
0
  5
D559
 10
0.306519
 20
0.756619
 30
0.000000
  70
    32
  0
VERTEX
  8
0
  5
D55A
 10
0.303376
 20
0.743621
 30
0.000000
  70
    32
  0
VERTEX
  8
0
  5
D55B
 10
0.300326
 20
0.730605
 30
0.000000
  70
    32
  0
VERTEX
  8
0
  5
D55C
 10
0.297370
 20
0.717571
 30
0.000000
  70
    32
  0
VERTEX
  8
0
  5
D55D
 10
0.294508
 20
0.704519
 30
0.000000
  70
    32
  0
VERTEX
  8
0
  5
D55E
 10
0.291741
 20
0.691451
 30
0.000000
  70
    32
  0
VERTEX
  8
0
  5
D55F
 10
0.289069
 20
0.678366
 30
0.000000
  70
    32
  0
VERTEX
  8
0
  5
D560
 10
0.286494
 20
0.665265
 30
0.000000
  70
    32
  0
VERTEX
  8
0
  5
D561
 10
0.284016
 20
0.652149
 30
0.000000
  70
    32
  0
VERTEX
  8
0
  5
D562
 10
0.281635
 20
0.639019
 30
0.000000
  70
    32
  0
VERTEX
  8
0
  5
D563
 10
0.279352
 20
0.625874
 30
0.000000
  70
    32
  0
VERTEX
  8
0
  5
D564
 10
0.277169
 20
0.612715
 30
0.000000
  70
    32
  0
VERTEX
  8
0
  5
D565
 10
0.275085
 20
0.599544
 30
0.000000
  70
    32
  0
VERTEX
  8
0
  5
D566
 10
0.273102
 20
0.586360
 30
0.000000
  70
    32
  0
VERTEX
  8
0
  5
D567
 10
0.271219
 20
0.573164
 30
0.000000
  70
    32
  0
VERTEX
  8
0
  5
D568
 10
0.269436
 20
0.559956
 30
0.000000
  70
    32
  0
VERTEX
  8
0
  5
D569
 10
0.267750
 20
0.546737
 30
0.000000
  70
    32
  0
VERTEX
  8
0
  5
D56A
 10
0.266157
 20
0.533508
 30
0.000000
  70
    32
  0
VERTEX
  8
0
  5
D56B
 10
0.264654
 20
0.520268
 30
0.000000
  70
    32
  0
VERTEX
  8
0
  5
D56C
 10
0.263238
 20
0.507018
 30
0.000000
  70
    32
  0
VERTEX
  8
0
  5
D56D
 10
0.261906
 20
0.493759
 30
0.000000
  70
    32
  0
VERTEX
  8
0
  5
D56E
 10
0.260655
 20
0.480491
 30
0.000000
  70
    32
  0
VERTEX
  8
0
  5
D56F
 10
0.259481
 20
0.467213
 30
0.000000
  70
    32
  0
VERTEX
  8
0
  5
D570
 10
0.258382
 20
0.453928
 30
0.000000
  70
    32
  0
VERTEX
  8
0
  5
D571
 10
0.257353
 20
0.440634
 30
0.000000
  70
    32
  0
VERTEX
  8
0
  5
D572
 10
0.256393
 20
0.427333
 30
0.000000
  70
    32
  0
VERTEX
  8
0
  5
D573
 10
0.255498
 20
0.414024
 30
0.000000
  70
    32
  0
VERTEX
  8
0
  5
D574
 10
0.254664
 20
0.400709
 30
0.000000
  70
    32
  0
VERTEX
  8
0
  5
D575
 10
0.253889
 20
0.387387
 30
0.000000
  70
    32
  0
VERTEX
  8
0
  5
D576
 10
0.253169
 20
0.374059
 30
0.000000
  70
    32
  0
VERTEX
  8
0
  5
D577
 10
0.252502
 20
0.360725
 30
0.000000
  70
    32
  0
VERTEX
  8
0
  5
D578
 10
0.251884
 20
0.347386
 30
0.000000
  70
    32
  0
VERTEX
  8
0
  5
D579
 10
0.251311
 20
0.334043
 30
0.000000
  70
    32
  0
VERTEX
  8
0
  5
D57A
 10
0.250782
 20
0.320695
 30
0.000000
  70
    32
  0
VERTEX
  8
0
  5
D57B
 10
0.250292
 20
0.307342
 30
0.000000
  70
    32
  0
VERTEX
  8
0
  5
D57C
 10
0.249838
 20
0.293986
 30
0.000000
  70
    32
  0
VERTEX
  8
0
  5
D57D
 10
0.249418
 20
0.280627
 30
0.000000
  70
    32
  0
VERTEX
  8
0
  5
D57E
 10
0.249028
 20
0.267264
 30
0.000000
  70
    32
  0
VERTEX
  8
0
  5
D57F
 10
0.248665
 20
0.253899
 30
0.000000
  70
    32
  0
VERTEX
  8
0
  5
D580
 10
0.248326
 20
0.240532
 30
0.000000
  70
    32
  0
VERTEX
  8
0
  5
D581
 10
0.248007
 20
0.227164
 30
0.000000
  70
    32
  0
VERTEX
  8
0
  5
D582
 10
0.247706
 20
0.213793
 30
0.000000
  70
    32
  0
VERTEX
  8
0
  5
D583
 10
0.247420
 20
0.200422
 30
0.000000
  70
    32
  0
VERTEX
  8
0
  5
D584
 10
0.247144
 20
0.187050
 30
0.000000
  70
    32
  0
VERTEX
  8
0
  5
D585
 10
0.246877
 20
0.173678
 30
0.000000
  70
    32
  0
VERTEX
  8
0
  5
D586
 10
0.246614
 20
0.160306
 30
0.000000
  70
    32
  0
VERTEX
  8
0
  5
D587
 10
0.246353
 20
0.146935
 30
0.000000
  70
    32
  0
VERTEX
  8
0
  5
D588
 10
0.246091
 20
0.133565
 30
0.000000
  70
    32
  0
VERTEX
  8
0
  5
D589
 10
0.245824
 20
0.120196
 30
0.000000
  70
    32
  0
VERTEX
  8
0
  5
D58A
 10
0.245550
 20
0.106828
 30
0.000000
  70
    32
  0
VERTEX
  8
0
  5
D58B
 10
0.245264
 20
0.0934634
 30
0.000000
  70
    32
  0
VERTEX
  8
0
  5
D58C
 10
0.244964
 20
0.0801007
 30
0.000000
  70
    32
  0
VERTEX
  8
0
  5
D58D
 10
0.244648
 20
0.0667410
 30
0.000000
  70
    32
  0
VERTEX
  8
0
  5
D58E
 10
0.244310
 20
0.0533846
 30
0.000000
  70
    32
  0
VERTEX
  8
0
  5
D58F
 10
0.243949
 20
0.0400319
 30
0.000000
  70
    32
  0
VERTEX
  8
0
  5
D590
 10
0.243562
 20
0.0266832
 30
0.000000
  70
    32
  0
VERTEX
  8
0
  5
D591
 10
0.243145
 20
0.0133390
 30
0.000000
  70
    32
  0
VERTEX
  8
0
  5
D592
 10
0.242694
 20
-3.21896e-007
 30
0.000000
  70
    32
  0
SEQEND
  8
0
  5
D593
  0
ARC
  5
BCE3
  8
0
  6
CONTINUOUS
 10
2.522538028279655
 20
4.606813033537378
 30
0.0
 40
1.6503402213420939
 50
272.33652248055228
 51
357.60194596277029
  0
ENDBLK
  5
BCE5
  8
0
  0
BLOCK
  8
0
  2
*D59
 70
     1
 10
0.0
 20
0.0
 30
0.0
  3
*D59
  1

  0
LINE
  5
C842
  8
0
 62
     0
 10
-140.84226994868371
 20
663.25439198140964
 30
0.0
 11
-142.39199905341161
 21
663.25439198140964
 31
0.0
  0
LINE
  5
C843
  8
0
 62
     0
 10
-140.84226994868371
 20
661.50439198140964
 30
0.0
 11
-142.39199905341161
 21
661.50439198140964
 31
0.0
  0
LINE
  5
C844
  8
0
 62
     0
 10
-142.32949905341161
 20
663.25439198140964
 30
0.0
 11
-142.32949905341161
 21
661.50439198140964
 31
0.0
  0
INSERT
  5
C845
  8
0
 62
     0
  2
_ARCHTICK
 10
-142.32949905341161
 20
663.25439198140964
 30
0.0
 41
0.046875
 42
0.046875
 43
0.046875
 50
90.0
  0
INSERT
  5
C846
  8
0
 62
     0
  2
_ARCHTICK
 10
-142.32949905341161
 20
661.50439198140964
 30
0.0
 41
0.046875
 42
0.046875
 43
0.046875
 50
270.0
  0
INSERT
  5
C847
  8
0
  2
*U134
 10
0.0
 20
0.0
 30
0.0
  0
POINT
  5
C848
  8
DEFPOINTS
 62
     0
 10
-140.74851994868371
 20
663.25439198140964
 30
0.0
  0
POINT
  5
C849
  8
DEFPOINTS
 62
     0
 10
-140.74851994868371
 20
661.50439198140964
 30
0.0
  0
POINT
  5
C84A
  8
DEFPOINTS
 62
     0
 10
-142.32949905341161
 20
661.50439198140964
 30
0.0
  0
ENDBLK
  5
C7C7
  8
0
  0
BLOCK
  8
0
  2
*D60
 70
     1
 10
0.0
 20
0.0
 30
0.0
  3
*D60
  1

  0
LINE
  5
C84B
  8
0
 62
     0
 10
-138.62806013966929
 20
663.06689198140964
 30
0.0
 11
-137.75597899926441
 21
663.06689198140964
 31
0.0
  0
LINE
  5
C84C
  8
0
 62
     0
 10
-138.62806013966929
 20
661.69189198140964
 30
0.0
 11
-137.75597899926441
 21
661.69189198140964
 31
0.0
  0
LINE
  5
C84D
  8
0
 62
     0
 10
-137.81847899926441
 20
663.06689198140964
 30
0.0
 11
-137.81847899926441
 21
661.69189198140964
 31
0.0
  0
INSERT
  5
C84E
  8
0
 62
     0
  2
_ARCHTICK
 10
-137.81847899926441
 20
663.06689198140964
 30
0.0
 41
0.046875
 42
0.046875
 43
0.046875
 50
90.0
  0
INSERT
  5
C84F
  8
0
 62
     0
  2
_ARCHTICK
 10
-137.81847899926441
 20
661.69189198140964
 30
0.0
 41
0.046875
 42
0.046875
 43
0.046875
 50
270.0
  0
INSERT
  5
C850
  8
0
  2
*U135
 10
0.0
 20
0.0
 30
0.0
  0
POINT
  5
C851
  8
DEFPOINTS
 62
     0
 10
-138.72181013966929
 20
663.06689198140964
 30
0.0
  0
POINT
  5
C852
  8
DEFPOINTS
 62
     0
 10
-138.72181013966929
 20
661.69189198140964
 30
0.0
  0
POINT
  5
C853
  8
DEFPOINTS
 62
     0
 10
-137.81847899926441
 20
661.69189198140964
 30
0.0
  0
ENDBLK
  5
C7D3
  8
0
  0
BLOCK
  8
0
  2
*D61
 70
     1
 10
0.0
 20
0.0
 30
0.0
  3
*D61
  1

  0
LINE
  5
C854
  8
0
 62
     0
 10
-134.0822997738303
 20
637.65907286276615
 30
0.0
 11
-133.57076032817019
 21
637.65907286276615
 31
0.0
  0
LINE
  5
C855
  8
0
 62
     0
 10
-134.3947997738303
 20
638.28407286276615
 30
0.0
 11
-133.57076032817019
 21
638.28407286276615
 31
0.0
  0
LINE
  5
C856
  8
0
 62
     0
 10
-133.63326032817019
 20
637.65907286276615
 30
0.0
 11
-133.63326032817019
 21
638.28407286276615
 31
0.0
  0
INSERT
  5
C857
  8
0
 62
     0
  2
_ARCHTICK
 10
-133.63326032817019
 20
637.65907286276615
 30
0.0
 41
0.046875
 42
0.046875
 43
0.046875
 50
270.0
  0
INSERT
  5
C858
  8
0
 62
     0
  2
_ARCHTICK
 10
-133.63326032817019
 20
638.28407286276615
 30
0.0
 41
0.046875
 42
0.046875
 43
0.046875
 50
90.0
  0
INSERT
  5
C859
  8
0
  2
*U136
 10
0.0
 20
0.0
 30
0.0
  0
POINT
  5
C85A
  8
DEFPOINTS
 62
     0
 10
-134.1760497738303
 20
637.65907286276615
 30
0.0
  0
POINT
  5
C85B
  8
DEFPOINTS
 62
     0
 10
-134.4885497738303
 20
638.28407286276615
 30
0.0
  0
POINT
  5
C85C
  8
DEFPOINTS
 62
     0
 10
-133.63326032817019
 20
638.28407286276615
 30
0.0
  0
ENDBLK
  5
C7DF
  8
0
  0
BLOCK
  8
0
  2
*D62
 70
     1
 10
0.0
 20
0.0
 30
0.0
  3
*D62
  1

  0
LINE
  5
C85D
  8
0
 62
     0
 10
-134.3947997738303
 20
636.90907286276615
 30
0.0
 11
-133.57076032817019
 21
636.90907286276615
 31
0.0
  0
LINE
  5
C85E
  8
0
 62
     0
 10
-134.0822997738303
 20
637.53407286276615
 30
0.0
 11
-133.57076032817019
 21
637.53407286276615
 31
0.0
  0
LINE
  5
C85F
  8
0
 62
     0
 10
-133.63326032817019
 20
636.90907286276615
 30
0.0
 11
-133.63326032817019
 21
637.53407286276615
 31
0.0
  0
INSERT
  5
C860
  8
0
 62
     0
  2
_ARCHTICK
 10
-133.63326032817019
 20
636.90907286276615
 30
0.0
 41
0.046875
 42
0.046875
 43
0.046875
 50
270.0
  0
INSERT
  5
C861
  8
0
 62
     0
  2
_ARCHTICK
 10
-133.63326032817019
 20
637.53407286276615
 30
0.0
 41
0.046875
 42
0.046875
 43
0.046875
 50
90.0
  0
INSERT
  5
C862
  8
0
  2
*U137
 10
0.0
 20
0.0
 30
0.0
  0
POINT
  5
C863
  8
DEFPOINTS
 62
     0
 10
-134.4885497738303
 20
636.90907286276615
 30
0.0
  0
POINT
  5
C864
  8
DEFPOINTS
 62
     0
 10
-134.1760497738303
 20
637.53407286276615
 30
0.0
  0
POINT
  5
C865
  8
DEFPOINTS
 62
     0
 10
-133.63326032817019
 20
637.53407286276615
 30
0.0
  0
ENDBLK
  5
C7EB
  8
0
  0
BLOCK
  8
0
  2
*D63
 70
     1
 10
0.0
 20
0.0
 30
0.0
  3
*D63
  1

  0
LINE
  5
C866
  8
0
 62
     0
 10
-135.3010497738303
 20
637.28407286276615
 30
0.0
 11
-135.3010497738303
 21
635.75558060881167
 31
0.0
  0
LINE
  5
C867
  8
0
 62
     0
 10
-134.1760497738303
 20
637.28407286276615
 30
0.0
 11
-134.1760497738303
 21
635.75558060881167
 31
0.0
  0
LINE
  5
C868
  8
0
 62
     0
 10
-135.3010497738303
 20
635.81808060881167
 30
0.0
 11
-134.1760497738303
 21
635.81808060881167
 31
0.0
  0
INSERT
  5
C869
  8
0
 62
     0
  2
_ARCHTICK
 10
-135.3010497738303
 20
635.81808060881167
 30
0.0
 41
0.046875
 42
0.046875
 43
0.046875
 50
180.0
  0
INSERT
  5
C86A
  8
0
 62
     0
  2
_ARCHTICK
 10
-134.1760497738303
 20
635.81808060881167
 30
0.0
 41
0.046875
 42
0.046875
 43
0.046875
  0
INSERT
  5
C86B
  8
0
  2
*U138
 10
0.0
 20
0.0
 30
0.0
  0
POINT
  5
C86C
  8
DEFPOINTS
 62
     0
 10
-135.3010497738303
 20
637.37782286276615
 30
0.0
  0
POINT
  5
C86D
  8
DEFPOINTS
 62
     0
 10
-134.1760497738303
 20
637.37782286276615
 30
0.0
  0
POINT
  5
C86E
  8
DEFPOINTS
 62
     0
 10
-134.1760497738303
 20
635.81808060881167
 30
0.0
  0
ENDBLK
  5
C7F7
  8
0
  0
BLOCK
  8
0
  2
*D64
 70
     1
 10
0.0
 20
0.0
 30
0.0
  3
*D64
  1

  0
LINE
  5
C86F
  8
0
 62
     0
 10
-134.4885497738303
 20
636.81532286276615
 30
0.0
 11
-134.4885497738303
 21
636.30281909321013
 31
0.0
  0
LINE
  5
C870
  8
0
 62
     0
 10
-134.1760497738303
 20
637.28407286276615
 30
0.0
 11
-134.1760497738303
 21
636.30281909321013
 31
0.0
  0
LINE
  5
C871
  8
0
 62
     0
 10
-134.4885497738303
 20
636.36531909321013
 30
0.0
 11
-134.5354247738303
 21
636.36531909321013
 31
0.0
  0
LINE
  5
C872
  8
0
 62
     0
 10
-134.1760497738303
 20
636.36531909321013
 30
0.0
 11
-134.1291747738303
 21
636.36531909321013
 31
0.0
  0
INSERT
  5
C873
  8
0
 62
     0
  2
_ARCHTICK
 10
-134.4885497738303
 20
636.36531909321013
 30
0.0
 41
0.046875
 42
0.046875
 43
0.046875
  0
INSERT
  5
C874
  8
0
 62
     0
  2
_ARCHTICK
 10
-134.1760497738303
 20
636.36531909321013
 30
0.0
 41
0.046875
 42
0.046875
 43
0.046875
 50
180.0
  0
INSERT
  5
C875
  8
0
  2
*U139
 10
0.0
 20
0.0
 30
0.0
  0
POINT
  5
C876
  8
DEFPOINTS
 62
     0
 10
-134.4885497738303
 20
636.90907286276615
 30
0.0
  0
POINT
  5
C877
  8
DEFPOINTS
 62
     0
 10
-134.1760497738303
 20
637.37782286276615
 30
0.0
  0
POINT
  5
C878
  8
DEFPOINTS
 62
     0
 10
-134.1760497738303
 20
636.36531909321013
 30
0.0
  0
ENDBLK
  5
C804
  8
0
  0
BLOCK
  8
0
  2
*D65
 70
     1
 10
0.0
 20
0.0
 30
0.0
  3
*D65
  1

  0
LINE
  5
C879
  8
0
 62
     0
 10
-134.9885497738303
 20
636.81532286276615
 30
0.0
 11
-134.9885497738303
 21
636.30281909321013
 31
0.0
  0
LINE
  5
C87A
  8
0
 62
     0
 10
-134.4885497738303
 20
636.81532286276615
 30
0.0
 11
-134.4885497738303
 21
636.30281909321013
 31
0.0
  0
LINE
  5
C87B
  8
0
 62
     0
 10
-134.9885497738303
 20
636.36531909321013
 30
0.0
 11
-134.4885497738303
 21
636.36531909321013
 31
0.0
  0
INSERT
  5
C87C
  8
0
 62
     0
  2
_ARCHTICK
 10
-134.9885497738303
 20
636.36531909321013
 30
0.0
 41
0.046875
 42
0.046875
 43
0.046875
 50
180.0
  0
INSERT
  5
C87D
  8
0
 62
     0
  2
_ARCHTICK
 10
-134.4885497738303
 20
636.36531909321013
 30
0.0
 41
0.046875
 42
0.046875
 43
0.046875
  0
INSERT
  5
C87E
  8
0
  2
*U140
 10
0.0
 20
0.0
 30
0.0
  0
POINT
  5
C87F
  8
DEFPOINTS
 62
     0
 10
-134.9885497738303
 20
636.90907286276615
 30
0.0
  0
POINT
  5
C880
  8
DEFPOINTS
 62
     0
 10
-134.4885497738303
 20
636.90907286276615
 30
0.0
  0
POINT
  5
C881
  8
DEFPOINTS
 62
     0
 10
-134.4885497738303
 20
636.36531909321013
 30
0.0
  0
ENDBLK
  5
C810
  8
0
  0
BLOCK
  8
0
  2
*D66
 70
     1
 10
0.0
 20
0.0
 30
0.0
  3
*D66
  1

  0
LINE
  5
C882
  8
0
 62
     0
 10
-135.3010497738303
 20
637.28407286276615
 30
0.0
 11
-135.3010497738303
 21
636.30281909321013
 31
0.0
  0
LINE
  5
C883
  8
0
 62
     0
 10
-134.9885497738303
 20
636.81532286276615
 30
0.0
 11
-134.9885497738303
 21
636.30281909321013
 31
0.0
  0
LINE
  5
C884
  8
0
 62
     0
 10
-135.3010497738303
 20
636.36531909321013
 30
0.0
 11
-135.3479247738303
 21
636.36531909321013
 31
0.0
  0
LINE
  5
C885
  8
0
 62
     0
 10
-134.9885497738303
 20
636.36531909321013
 30
0.0
 11
-134.9416747738303
 21
636.36531909321013
 31
0.0
  0
INSERT
  5
C886
  8
0
 62
     0
  2
_ARCHTICK
 10
-135.3010497738303
 20
636.36531909321013
 30
0.0
 41
0.046875
 42
0.046875
 43
0.046875
  0
INSERT
  5
C887
  8
0
 62
     0
  2
_ARCHTICK
 10
-134.9885497738303
 20
636.36531909321013
 30
0.0
 41
0.046875
 42
0.046875
 43
0.046875
 50
180.0
  0
INSERT
  5
C888
  8
0
  2
*U141
 10
0.0
 20
0.0
 30
0.0
  0
POINT
  5
C889
  8
DEFPOINTS
 62
     0
 10
-135.3010497738303
 20
637.37782286276615
 30
0.0
  0
POINT
  5
C88A
  8
DEFPOINTS
 62
     0
 10
-134.9885497738303
 20
636.90907286276615
 30
0.0
  0
POINT
  5
C88B
  8
DEFPOINTS
 62
     0
 10
-134.9885497738303
 20
636.36531909321013
 30
0.0
  0
ENDBLK
  5
C81D
  8
0
  0
BLOCK
  8
0
  2
*D67
 70
     1
 10
0.0
 20
0.0
 30
0.0
  3
*D67
  1

  0
LINE
  5
C88C
  8
0
 62
     0
 10
-185.1636815205726
 20
664.49309886658659
 30
0.0
 11
-186.2850538911793
 21
664.49309886658659
 31
0.0
  0
LINE
  5
C88D
  8
0
 62
     0
 10
-185.1636815205726
 20
662.74309886658648
 30
0.0
 11
-186.2850538911793
 21
662.74309886658648
 31
0.0
  0
LINE
  5
C88E
  8
0
 62
     0
 10
-186.2225538911793
 20
664.49309886658659
 30
0.0
 11
-186.2225538911793
 21
662.74309886658648
 31
0.0
  0
INSERT
  5
C88F
  8
0
 62
     0
  2
_ARCHTICK
 10
-186.2225538911793
 20
664.49309886658659
 30
0.0
 41
0.046875
 42
0.046875
 43
0.046875
 50
90.0
  0
INSERT
  5
C890
  8
0
 62
     0
  2
_ARCHTICK
 10
-186.2225538911793
 20
662.74309886658648
 30
0.0
 41
0.046875
 42
0.046875
 43
0.046875
 50
270.0
  0
INSERT
  5
C891
  8
0
  2
*U142
 10
0.0
 20
0.0
 30
0.0
  0
POINT
  5
C892
  8
DEFPOINTS
 62
     0
 10
-185.0699315205726
 20
664.49309886658659
 30
0.0
  0
POINT
  5
C893
  8
DEFPOINTS
 62
     0
 10
-185.0699315205726
 20
662.74309886658648
 30
0.0
  0
POINT
  5
C894
  8
DEFPOINTS
 62
     0
 10
-186.2225538911793
 20
662.74309886658648
 30
0.0
  0
ENDBLK
  5
C829
  8
0
  0
BLOCK
  8
0
  2
*D68
 70
     1
 10
0.0
 20
0.0
 30
0.0
  3
*D68
  1

  0
LINE
  5
C895
  8
0
 62
     0
 10
-183.88967316602341
 20
663.35060580844799
 30
0.0
 11
-183.88967316602341
 21
662.13539376190909
 31
0.0
  0
LINE
  5
C896
  8
0
 62
     0
 10
-183.01467316602341
 20
663.35060580844799
 30
0.0
 11
-183.01467316602341
 21
662.13539376190909
 31
0.0
  0
LINE
  5
C897
  8
0
 62
     0
 10
-183.88967316602341
 20
662.1978937619092
 30
0.0
 11
-183.01467316602341
 21
662.1978937619092
 31
0.0
  0
INSERT
  5
C898
  8
0
 62
     0
  2
_ARCHTICK
 10
-183.88967316602341
 20
662.1978937619092
 30
0.0
 41
0.046875
 42
0.046875
 43
0.046875
 50
180.0
  0
INSERT
  5
C899
  8
0
 62
     0
  2
_ARCHTICK
 10
-183.01467316602341
 20
662.1978937619092
 30
0.0
 41
0.046875
 42
0.046875
 43
0.046875
  0
INSERT
  5
C89A
  8
0
  2
*U143
 10
0.0
 20
0.0
 30
0.0
  0
POINT
  5
C89B
  8
DEFPOINTS
 62
     0
 10
-183.88967316602341
 20
663.44435580844799
 30
0.0
  0
POINT
  5
C89C
  8
DEFPOINTS
 62
     0
 10
-183.01467316602341
 20
663.44435580844799
 30
0.0
  0
POINT
  5
C89D
  8
DEFPOINTS
 62
     0
 10
-183.01467316602341
 20
662.1978937619092
 30
0.0
  0
ENDBLK
  5
C835
  8
0
  0
BLOCK
  8
0
  2
*D69
 70
     1
 10
0.0
 20
0.0
 30
0.0
  3
*D69
  1

  0
LINE
  5
C89E
  8
0
 62
     0
 10
-183.23342316602341
 20
664.38185580844799
 30
0.0
 11
-182.282948475811
 21
664.38185580844799
 31
0.0
  0
LINE
  5
C89F
  8
0
 62
     0
 10
-183.35842316602361
 20
662.86809886658648
 30
0.0
 11
-182.282948475811
 21
662.86809886658648
 31
0.0
  0
LINE
  5
C8A0
  8
0
 62
     0
 10
-182.345448475811
 20
664.38185580844799
 30
0.0
 11
-182.345448475811
 21
662.86809886658648
 31
0.0
  0
INSERT
  5
C8A1
  8
0
 62
     0
  2
_ARCHTICK
 10
-182.345448475811
 20
664.38185580844799
 30
0.0
 41
0.046875
 42
0.046875
 43
0.046875
 50
90.0
  0
INSERT
  5
C8A2
  8
0
 62
     0
  2
_ARCHTICK
 10
-182.345448475811
 20
662.86809886658648
 30
0.0
 41
0.046875
 42
0.046875
 43
0.046875
 50
270.0
  0
INSERT
  5
C8A3
  8
0
  2
*U144
 10
0.0
 20
0.0
 30
0.0
  0
POINT
  5
C8A4
  8
DEFPOINTS
 62
     0
 10
-183.32717316602341
 20
664.38185580844799
 30
0.0
  0
POINT
  5
C8A5
  8
DEFPOINTS
 62
     0
 10
-183.45217316602361
 20
662.86809886658648
 30
0.0
  0
POINT
  5
C8A6
  8
DEFPOINTS
 62
     0
 10
-182.345448475811
 20
662.86809886658648
 30
0.0
  0
ENDBLK
  5
C841
  8
0
  0
BLOCK
  8
0
  2
*D70
 70
     1
 10
0.0
 20
0.0
 30
0.0
  3
*D70
  1

  0
LINE
  5
D086
  8
0
 62
     0
 10
-129.0292387648899
 20
759.18814869362325
 30
0.0
 11
-128.51769931922979
 21
759.18814869362325
 31
0.0
  0
LINE
  5
D087
  8
0
 62
     0
 10
-129.3417387648899
 20
759.81314869362325
 30
0.0
 11
-128.51769931922979
 21
759.81314869362325
 31
0.0
  0
LINE
  5
D088
  8
0
 62
     0
 10
-128.58019931922979
 20
759.18814869362325
 30
0.0
 11
-128.58019931922979
 21
759.81314869362325
 31
0.0
  0
INSERT
  5
D089
  8
0
 62
     0
  2
_ARCHTICK
 10
-128.58019931922979
 20
759.18814869362325
 30
0.0
 41
0.046875
 42
0.046875
 43
0.046875
 50
270.0
  0
INSERT
  5
D08A
  8
0
 62
     0
  2
_ARCHTICK
 10
-128.58019931922979
 20
759.81314869362325
 30
0.0
 41
0.046875
 42
0.046875
 43
0.046875
 50
90.0
  0
INSERT
  5
D08B
  8
0
  2
*U145
 10
0.0
 20
0.0
 30
0.0
  0
POINT
  5
D08C
  8
DEFPOINTS
 62
     0
 10
-129.1229887648899
 20
759.18814869362325
 30
0.0
  0
POINT
  5
D08D
  8
DEFPOINTS
 62
     0
 10
-129.4354887648899
 20
759.81314869362325
 30
0.0
  0
POINT
  5
D08E
  8
DEFPOINTS
 62
     0
 10
-128.58019931922979
 20
759.81314869362325
 30
0.0
  0
ENDBLK
  5
D011
  8
0
  0
BLOCK
  8
0
  2
*D71
 70
     1
 10
0.0
 20
0.0
 30
0.0
  3
*D71
  1

  0
LINE
  5
D08F
  8
0
 62
     0
 10
-129.3417387648899
 20
758.43814869362325
 30
0.0
 11
-128.51769931922979
 21
758.43814869362325
 31
0.0
  0
LINE
  5
D090
  8
0
 62
     0
 10
-129.0292387648899
 20
759.06314869362325
 30
0.0
 11
-128.51769931922979
 21
759.06314869362325
 31
0.0
  0
LINE
  5
D091
  8
0
 62
     0
 10
-128.58019931922979
 20
758.43814869362325
 30
0.0
 11
-128.58019931922979
 21
759.06314869362325
 31
0.0
  0
INSERT
  5
D092
  8
0
 62
     0
  2
_ARCHTICK
 10
-128.58019931922979
 20
758.43814869362325
 30
0.0
 41
0.046875
 42
0.046875
 43
0.046875
 50
270.0
  0
INSERT
  5
D093
  8
0
 62
     0
  2
_ARCHTICK
 10
-128.58019931922979
 20
759.06314869362325
 30
0.0
 41
0.046875
 42
0.046875
 43
0.046875
 50
90.0
  0
INSERT
  5
D094
  8
0
  2
*U146
 10
0.0
 20
0.0
 30
0.0
  0
POINT
  5
D095
  8
DEFPOINTS
 62
     0
 10
-129.4354887648899
 20
758.43814869362325
 30
0.0
  0
POINT
  5
D096
  8
DEFPOINTS
 62
     0
 10
-129.1229887648899
 20
759.06314869362325
 30
0.0
  0
POINT
  5
D097
  8
DEFPOINTS
 62
     0
 10
-128.58019931922979
 20
759.06314869362325
 30
0.0
  0
ENDBLK
  5
D01D
  8
0
  0
BLOCK
  8
0
  2
*D72
 70
     1
 10
0.0
 20
0.0
 30
0.0
  3
*D72
  1

  0
LINE
  5
D098
  8
0
 62
     0
 10
-130.2479887648899
 20
758.81314869362325
 30
0.0
 11
-130.2479887648899
 21
757.28465643966877
 31
0.0
  0
LINE
  5
D099
  8
0
 62
     0
 10
-129.1229887648899
 20
758.81314869362325
 30
0.0
 11
-129.1229887648899
 21
757.28465643966877
 31
0.0
  0
LINE
  5
D09A
  8
0
 62
     0
 10
-130.2479887648899
 20
757.34715643966888
 30
0.0
 11
-129.1229887648899
 21
757.34715643966888
 31
0.0
  0
INSERT
  5
D09B
  8
0
 62
     0
  2
_ARCHTICK
 10
-130.2479887648899
 20
757.34715643966888
 30
0.0
 41
0.046875
 42
0.046875
 43
0.046875
 50
180.0
  0
INSERT
  5
D09C
  8
0
 62
     0
  2
_ARCHTICK
 10
-129.1229887648899
 20
757.34715643966888
 30
0.0
 41
0.046875
 42
0.046875
 43
0.046875
  0
INSERT
  5
D09D
  8
0
  2
*U147
 10
0.0
 20
0.0
 30
0.0
  0
POINT
  5
D09E
  8
DEFPOINTS
 62
     0
 10
-130.2479887648899
 20
758.90689869362325
 30
0.0
  0
POINT
  5
D09F
  8
DEFPOINTS
 62
     0
 10
-129.1229887648899
 20
758.90689869362325
 30
0.0
  0
POINT
  5
D0A0
  8
DEFPOINTS
 62
     0
 10
-129.1229887648899
 20
757.34715643966888
 30
0.0
  0
ENDBLK
  5
D029
  8
0
  0
BLOCK
  8
0
  2
*D73
 70
     1
 10
0.0
 20
0.0
 30
0.0
  3
*D73
  1

  0
LINE
  5
D0A1
  8
0
 62
     0
 10
-129.4354887648899
 20
758.34439869362325
 30
0.0
 11
-129.4354887648899
 21
757.83189492406723
 31
0.0
  0
LINE
  5
D0A2
  8
0
 62
     0
 10
-129.1229887648899
 20
758.81314869362325
 30
0.0
 11
-129.1229887648899
 21
757.83189492406723
 31
0.0
  0
LINE
  5
D0A3
  8
0
 62
     0
 10
-129.4354887648899
 20
757.89439492406723
 30
0.0
 11
-129.4823637648899
 21
757.89439492406723
 31
0.0
  0
LINE
  5
D0A4
  8
0
 62
     0
 10
-129.1229887648899
 20
757.89439492406723
 30
0.0
 11
-129.0761137648899
 21
757.89439492406723
 31
0.0
  0
INSERT
  5
D0A5
  8
0
 62
     0
  2
_ARCHTICK
 10
-129.4354887648899
 20
757.89439492406723
 30
0.0
 41
0.046875
 42
0.046875
 43
0.046875
  0
INSERT
  5
D0A6
  8
0
 62
     0
  2
_ARCHTICK
 10
-129.1229887648899
 20
757.89439492406723
 30
0.0
 41
0.046875
 42
0.046875
 43
0.046875
 50
180.0
  0
INSERT
  5
D0A7
  8
0
  2
*U148
 10
0.0
 20
0.0
 30
0.0
  0
POINT
  5
D0A8
  8
DEFPOINTS
 62
     0
 10
-129.4354887648899
 20
758.43814869362325
 30
0.0
  0
POINT
  5
D0A9
  8
DEFPOINTS
 62
     0
 10
-129.1229887648899
 20
758.90689869362325
 30
0.0
  0
POINT
  5
D0AA
  8
DEFPOINTS
 62
     0
 10
-129.1229887648899
 20
757.89439492406723
 30
0.0
  0
ENDBLK
  5
D036
  8
0
  0
BLOCK
  8
0
  2
*D74
 70
     1
 10
0.0
 20
0.0
 30
0.0
  3
*D74
  1

  0
LINE
  5
D0AB
  8
0
 62
     0
 10
-129.9354887648899
 20
758.34439869362325
 30
0.0
 11
-129.9354887648899
 21
757.83189492406723
 31
0.0
  0
LINE
  5
D0AC
  8
0
 62
     0
 10
-129.4354887648899
 20
758.34439869362325
 30
0.0
 11
-129.4354887648899
 21
757.83189492406723
 31
0.0
  0
LINE
  5
D0AD
  8
0
 62
     0
 10
-129.9354887648899
 20
757.89439492406723
 30
0.0
 11
-129.4354887648899
 21
757.89439492406723
 31
0.0
  0
INSERT
  5
D0AE
  8
0
 62
     0
  2
_ARCHTICK
 10
-129.9354887648899
 20
757.89439492406723
 30
0.0
 41
0.046875
 42
0.046875
 43
0.046875
 50
180.0
  0
INSERT
  5
D0AF
  8
0
 62
     0
  2
_ARCHTICK
 10
-129.4354887648899
 20
757.89439492406723
 30
0.0
 41
0.046875
 42
0.046875
 43
0.046875
  0
INSERT
  5
D0B0
  8
0
  2
*U149
 10
0.0
 20
0.0
 30
0.0
  0
POINT
  5
D0B1
  8
DEFPOINTS
 62
     0
 10
-129.9354887648899
 20
758.43814869362325
 30
0.0
  0
POINT
  5
D0B2
  8
DEFPOINTS
 62
     0
 10
-129.4354887648899
 20
758.43814869362325
 30
0.0
  0
POINT
  5
D0B3
  8
DEFPOINTS
 62
     0
 10
-129.4354887648899
 20
757.89439492406723
 30
0.0
  0
ENDBLK
  5
D042
  8
0
  0
BLOCK
  8
0
  2
*D75
 70
     1
 10
0.0
 20
0.0
 30
0.0
  3
*D75
  1

  0
LINE
  5
D0B4
  8
0
 62
     0
 10
-130.2479887648899
 20
758.81314869362325
 30
0.0
 11
-130.2479887648899
 21
757.83189492406723
 31
0.0
  0
LINE
  5
D0B5
  8
0
 62
     0
 10
-129.9354887648899
 20
758.34439869362325
 30
0.0
 11
-129.9354887648899
 21
757.83189492406723
 31
0.0
  0
LINE
  5
D0B6
  8
0
 62
     0
 10
-130.2479887648899
 20
757.89439492406723
 30
0.0
 11
-130.2948637648899
 21
757.89439492406723
 31
0.0
  0
LINE
  5
D0B7
  8
0
 62
     0
 10
-129.9354887648899
 20
757.89439492406723
 30
0.0
 11
-129.8886137648899
 21
757.89439492406723
 31
0.0
  0
INSERT
  5
D0B8
  8
0
 62
     0
  2
_ARCHTICK
 10
-130.2479887648899
 20
757.89439492406723
 30
0.0
 41
0.046875
 42
0.046875
 43
0.046875
  0
INSERT
  5
D0B9
  8
0
 62
     0
  2
_ARCHTICK
 10
-129.9354887648899
 20
757.89439492406723
 30
0.0
 41
0.046875
 42
0.046875
 43
0.046875
 50
180.0
  0
INSERT
  5
D0BA
  8
0
  2
*U150
 10
0.0
 20
0.0
 30
0.0
  0
POINT
  5
D0BB
  8
DEFPOINTS
 62
     0
 10
-130.2479887648899
 20
758.90689869362325
 30
0.0
  0
POINT
  5
D0BC
  8
DEFPOINTS
 62
     0
 10
-129.9354887648899
 20
758.43814869362325
 30
0.0
  0
POINT
  5
D0BD
  8
DEFPOINTS
 62
     0
 10
-129.9354887648899
 20
757.89439492406723
 30
0.0
  0
ENDBLK
  5
D04F
  8
0
  0
BLOCK
  8
0
  2
*D76
 70
     1
 10
0.0
 20
0.0
 30
0.0
  3
*D76
  1

  0
LINE
  5
D165
  8
0
 62
     0
 10
-138.65260325564361
 20
570.71695379222604
 30
0.0
 11
-139.3426509631351
 21
570.71695379222604
 31
0.0
  0
LINE
  5
D166
  8
0
 62
     0
 10
-138.6526032556437
 20
569.34165379222577
 30
0.0
 11
-139.3426509631351
 21
569.34165379222577
 31
0.0
  0
LINE
  5
D167
  8
0
 62
     0
 10
-139.2801509631351
 20
570.71695379222604
 30
0.0
 11
-139.2801509631351
 21
569.34165379222577
 31
0.0
  0
INSERT
  5
D168
  8
0
 62
     0
  2
_ARCHTICK
 10
-139.2801509631351
 20
570.71695379222604
 30
0.0
 41
0.046875
 42
0.046875
 43
0.046875
 50
90.0
  0
INSERT
  5
D169
  8
0
 62
     0
  2
_ARCHTICK
 10
-139.2801509631351
 20
569.34165379222577
 30
0.0
 41
0.046875
 42
0.046875
 43
0.046875
 50
270.0
  0
INSERT
  5
D16A
  8
0
  2
*U151
 10
0.0
 20
0.0
 30
0.0
  0
POINT
  5
D16B
  8
DEFPOINTS
 62
     0
 10
-138.55885325564361
 20
570.71695379222604
 30
0.0
  0
POINT
  5
D16C
  8
DEFPOINTS
 62
     0
 10
-138.55885325564361
 20
569.34165379222577
 30
0.0
  0
POINT
  5
D16D
  8
DEFPOINTS
 62
     0
 10
-139.2801509631351
 20
569.34165379222577
 30
0.0
  0
ENDBLK
  5
D158
  8
0
  0
BLOCK
  8
0
  2
*D77
 70
     1
 10
0.0
 20
0.0
 30
0.0
  3
*D77
  1

  0
LINE
  5
D16E
  8
0
 62
     0
 10
-138.55885325564361
 20
570.81070379222604
 30
0.0
 11
-138.55885325564361
 21
570.9342909497924
 31
0.0
  0
LINE
  5
D16F
  8
0
 62
     0
 10
-138.05885325564341
 20
570.43570379222592
 30
0.0
 11
-138.05885325564341
 21
570.9342909497924
 31
0.0
  0
LINE
  5
D170
  8
0
 62
     0
 10
-138.55885325564361
 20
570.8717909497924
 30
0.0
 11
-138.05885325564341
 21
570.8717909497924
 31
0.0
  0
INSERT
  5
D171
  8
0
 62
     0
  2
_ARCHTICK
 10
-138.55885325564361
 20
570.8717909497924
 30
0.0
 41
0.046875
 42
0.046875
 43
0.046875
 50
180.0
  0
INSERT
  5
D172
  8
0
 62
     0
  2
_ARCHTICK
 10
-138.05885325564341
 20
570.8717909497924
 30
0.0
 41
0.046875
 42
0.046875
 43
0.046875
  0
INSERT
  5
D173
  8
0
  2
*U152
 10
0.0
 20
0.0
 30
0.0
  0
POINT
  5
D174
  8
DEFPOINTS
 62
     0
 10
-138.55885325564361
 20
570.71695379222604
 30
0.0
  0
POINT
  5
D175
  8
DEFPOINTS
 62
     0
 10
-138.05885325564341
 20
570.34195379222581
 30
0.0
  0
POINT
  5
D176
  8
DEFPOINTS
 62
     0
 10
-138.05885325564341
 20
570.8717909497924
 30
0.0
  0
ENDBLK
  5
D164
  8
0
  0
BLOCK
  8
0
  2
*U79
 70
     1
 10
0.0
 20
0.0
 30
0.0
  3
*U79
  1

  0
TEXT
  5
D23E
  8
0
 10
2.0536448317174449
 20
2.8674626560690508
 30
0.0
 40
0.125
  1
Base Board
  0
TEXT
  5
D23F
  8
0
 10
2.0623419667788361
 20
2.6586177265556361
 30
0.0
 40
0.125
  1
TL-AB205-1
  0
TEXT
  5
D240
  8
0
 10
2.0591018576383182
 20
2.4481527424719611
 30
0.0
 40
0.125
  1
3/4" x 6"
  0
TEXT
  5
D241
  8
0
 10
2.059357655728359
 20
2.237687758388287
 30
0.0
 40
0.125
  1
800.66.TAGUE
  0
ENDBLK
  5
D243
  8
0
  0
BLOCK
  8
0
  2
*U80
 70
     1
 10
0.0
 20
0.0
 30
0.0
  3
*U80
  1

  0
TEXT
  5
D245
  8
0
 10
1.9061884295105971
 20
11.78127341408482
 30
0.0
 40
0.125
  1
Casing
  0
TEXT
  5
D246
  8
0
 10
1.9107927951313339
 20
11.572428484571409
 30
0.0
 40
0.125
  1
TL-2318
  0
TEXT
  5
D247
  8
0
 10
1.8958712398789459
 20
11.361963500487731
 30
0.0
 40
0.125
  1
13/16" x 2-1/2"
  0
TEXT
  5
D248
  8
0
 10
1.907808484080856
 20
11.151498516404059
 30
0.0
 40
0.125
  1
800.66.TAGUE
  0
ENDBLK
  5
D24A
  8
0
  0
BLOCK
  8
0
  2
*U81
 70
     1
 10
0.0
 20
0.0
 30
0.0
  3
*U81
  1

  0
TEXT
  5
D24C
  8
0
 10
2.7666159371219452
 20
1.701425858604936
 30
0.0
 40
0.125
  1
Crown Moulding
  0
TEXT
  5
D24D
  8
0
 10
2.7712203027426821
 20
1.4925809290915211
 30
0.0
 40
0.125
  1
TL-604
  0
TEXT
  5
D24E
  8
0
 10
2.7562987474902951
 20
1.282115945007847
 30
0.0
 40
0.125
  1
1-5/16" x 6-3/4"
  0
TEXT
  5
D24F
  8
0
 10
2.768235991692205
 20
1.071650960924172
 30
0.0
 40
0.125
  1
800.66.TAGUE
  0
ENDBLK
  5
D251
  8
0
  0
BLOCK
  8
0
  2
*U82
 70
     1
 10
0.0
 20
0.0
 30
0.0
  3
*U82
  1

  0
TEXT
  5
D253
  8
0
 62
     0
 10
-401.76804037930009
 20
695.49478952536674
 30
0.0
 40
0.125
  1
1
 50
90.0
  0
TEXT
  5
D254
  8
0
 62
     0
 10
-401.8513737126334
 20
695.58483045306104
 30
0.0
 40
0.125
  1
3
 50
90.0
  0
LINE
  5
D255
  8
0
 62
     0
 10
-401.83054037930009
 20
695.59190753355222
 30
0.0
 11
-401.83054037930009
 21
695.6742745185453
 31
0.0
  0
TEXT
  5
D256
  8
0
 62
     0
 10
-401.68206379903631
 20
695.58483045306104
 30
0.0
 40
0.125
  1
8
 50
90.0
  0
TEXT
  5
D257
  8
0
 62
     0
 10
-401.76804037930009
 20
695.68263058948673
 30
0.0
 40
0.125
  1
"
 50
90.0
  0
ENDBLK
  5
D259
  8
0
  0
BLOCK
  8
0
  2
*U83
 70
     1
 10
0.0
 20
0.0
 30
0.0
  3
*U83
  1

  0
TEXT
  5
D25B
  8
0
 62
     0
 10
-400.72133907926627
 20
696.69728407265575
 30
0.0
 40
0.125
  1
1
  0
LINE
  5
D25C
  8
0
 62
     0
 10
-400.72069958404109
 20
696.67645073932238
 30
0.0
 11
-400.63790626889789
 21
696.67645073932238
 31
0.0
  0
TEXT
  5
D25D
  8
0
 62
     0
 10
-400.72581554584201
 20
696.53010580980913
 30
0.0
 40
0.125
  1
2
  0
TEXT
  5
D25E
  8
0
 62
     0
 10
-400.62955019795658
 20
696.61395073932249
 30
0.0
 40
0.125
  1
"
  0
ENDBLK
  5
D260
  8
0
  0
BLOCK
  8
0
  2
*U84
 70
     1
 10
0.0
 20
0.0
 30
0.0
  3
*U84
  1

  0
TEXT
  5
D262
  8
0
 62
     0
 10
-401.84851126447421
 20
690.75503279057739
 30
0.0
 40
0.125
  1
1
  0
TEXT
  5
D263
  8
0
 62
     0
 10
-401.75019953186842
 20
690.83836612391065
 30
0.0
 40
0.125
  1
1
  0
LINE
  5
D264
  8
0
 62
     0
 10
-401.75139325628862
 20
690.81753279057716
 30
0.0
 11
-401.66493350185482
 21
690.81753279057716
 31
0.0
  0
TEXT
  5
D265
  8
0
 62
     0
 10
-401.75361017306898
 20
690.67169945724402
 30
0.0
 40
0.125
  1
4
  0
TEXT
  5
D266
  8
0
 62
     0
 10
-401.65657743091339
 20
690.75503279057739
 30
0.0
 40
0.125
  1
"
  0
ENDBLK
  5
D268
  8
0
  0
BLOCK
  8
0
  2
*U85
 70
     1
 10
0.0
 20
0.0
 30
0.0
  3
*U85
  1

  0
TEXT
  5
D26A
  8
0
 62
     0
 10
-401.84851126447398
 20
692.73670562367306
 30
0.0
 40
0.125
  1
1
  0
TEXT
  5
D26B
  8
0
 62
     0
 10
-401.7501995318683
 20
692.82003895700632
 30
0.0
 40
0.125
  1
1
  0
LINE
  5
D26C
  8
0
 62
     0
 10
-401.75139325628851
 20
692.79920562367295
 30
0.0
 11
-401.6649335018547
 21
692.79920562367295
 31
0.0
  0
TEXT
  5
D26D
  8
0
 62
     0
 10
-401.75361017306892
 20
692.65337229033958
 30
0.0
 40
0.125
  1
4
  0
TEXT
  5
D26E
  8
0
 62
     0
 10
-401.65657743091339
 20
692.73670562367306
 30
0.0
 40
0.125
  1
"
  0
ENDBLK
  5
D270
  8
0
  0
BLOCK
  8
0
  2
*U86
 70
     1
 10
0.0
 20
0.0
 30
0.0
  3
*U86
  1

  0
TEXT
  5
D272
  8
0
 62
     0
 10
-392.79678937895977
 20
696.75248846501484
 30
0.0
 40
0.125
  1
1
  0
LINE
  5
D273
  8
0
 62
     0
 10
-392.79614988373459
 20
696.73165513168135
 30
0.0
 11
-392.71335656859139
 21
696.73165513168135
 31
0.0
  0
TEXT
  5
D274
  8
0
 62
     0
 10
-392.8012658455354
 20
696.58531020216799
 30
0.0
 40
0.125
  1
2
  0
TEXT
  5
D275
  8
0
 62
     0
 10
-392.70500049765008
 20
696.66915513168135
 30
0.0
 40
0.125
  1
"
  0
ENDBLK
  5
D277
  8
0
  0
BLOCK
  8
0
  2
*U87
 70
     1
 10
0.0
 20
0.0
 30
0.0
  3
*U87
  1

  0
TEXT
  5
D279
  8
0
 62
     0
 10
-393.95621929282117
 20
695.53700293338034
 30
0.0
 40
0.125
  1
1
 50
90.0
  0
TEXT
  5
D27A
  8
0
 62
     0
 10
-394.0395526261546
 20
695.62704386107464
 30
0.0
 40
0.125
  1
3
 50
90.0
  0
LINE
  5
D27B
  8
0
 62
     0
 10
-394.01871929282129
 20
695.63412094156581
 30
0.0
 11
-394.01871929282129
 21
695.71648792655901
 31
0.0
  0
TEXT
  5
D27C
  8
0
 62
     0
 10
-393.87024271255751
 20
695.62704386107464
 30
0.0
 40
0.125
  1
8
 50
90.0
  0
TEXT
  5
D27D
  8
0
 62
     0
 10
-393.95621929282117
 20
695.72484399750033
 30
0.0
 40
0.125
  1
"
 50
90.0
  0
ENDBLK
  5
D27F
  8
0
  0
BLOCK
  8
0
  2
*U88
 70
     1
 10
0.0
 20
0.0
 30
0.0
  3
*U88
  1

  0
TEXT
  5
D281
  8
0
 62
     0
 10
-393.87418703741412
 20
692.83492601142382
 30
0.0
 40
0.125
  1
1
  0
TEXT
  5
D282
  8
0
 62
     0
 10
-393.77587530480838
 20
692.91825934475708
 30
0.0
 40
0.125
  1
1
  0
LINE
  5
D283
  8
0
 62
     0
 10
-393.77706902922858
 20
692.8974260114237
 30
0.0
 11
-393.69060927479472
 21
692.8974260114237
 31
0.0
  0
TEXT
  5
D284
  8
0
 62
     0
 10
-393.77928594600888
 20
692.75159267809045
 30
0.0
 40
0.125
  1
4
  0
TEXT
  5
D285
  8
0
 62
     0
 10
-393.68225320385341
 20
692.83492601142382
 30
0.0
 40
0.125
  1
"
  0
ENDBLK
  5
D287
  8
0
  0
BLOCK
  8
0
  2
*U89
 70
     1
 10
0.0
 20
0.0
 30
0.0
  3
*U89
  1

  0
TEXT
  5
D289
  8
0
 62
     0
 10
-393.87413417749627
 20
690.73745297046423
 30
0.0
 40
0.125
  1
1
  0
TEXT
  5
D28A
  8
0
 62
     0
 10
-393.77582244489048
 20
690.82078630379749
 30
0.0
 40
0.125
  1
1
  0
LINE
  5
D28B
  8
0
 62
     0
 10
-393.77701616931068
 20
690.79995297046412
 30
0.0
 11
-393.69055641487688
 21
690.79995297046412
 31
0.0
  0
TEXT
  5
D28C
  8
0
 62
     0
 10
-393.7792330860911
 20
690.65411963713075
 30
0.0
 40
0.125
  1
4
  0
TEXT
  5
D28D
  8
0
 62
     0
 10
-393.68220034393562
 20
690.73745297046423
 30
0.0
 40
0.125
  1
"
  0
ENDBLK
  5
D28F
  8
0
  0
BLOCK
  8
0
  2
*U90
 70
     1
 10
0.0
 20
0.0
 30
0.0
  3
*U90
  1

  0
TEXT
  5
D291
  8
0
 62
     0
 10
-386.00091863156649
 20
695.53700293338034
 30
0.0
 40
0.125
  1
1
 50
90.0
  0
TEXT
  5
D292
  8
0
 62
     0
 10
-386.08425196489992
 20
695.62704386107464
 30
0.0
 40
0.125
  1
3
 50
90.0
  0
LINE
  5
D293
  8
0
 62
     0
 10
-386.06341863156661
 20
695.63412094156581
 30
0.0
 11
-386.06341863156661
 21
695.71648792655901
 31
0.0
  0
TEXT
  5
D294
  8
0
 62
     0
 10
-385.91494205130277
 20
695.62704386107464
 30
0.0
 40
0.125
  1
8
 50
90.0
  0
TEXT
  5
D295
  8
0
 62
     0
 10
-386.00091863156649
 20
695.72484399750033
 30
0.0
 40
0.125
  1
"
 50
90.0
  0
ENDBLK
  5
D297
  8
0
  0
BLOCK
  8
0
  2
*U91
 70
     1
 10
0.0
 20
0.0
 30
0.0
  3
*U91
  1

  0
TEXT
  5
D299
  8
0
 62
     0
 10
-384.92813758410529
 20
696.73952470503559
 30
0.0
 40
0.125
  1
1
  0
LINE
  5
D29A
  8
0
 62
     0
 10
-384.92749808888021
 20
696.71869137170233
 30
0.0
 11
-384.84470477373691
 21
696.71869137170233
 31
0.0
  0
TEXT
  5
D29B
  8
0
 62
     0
 10
-384.93261405068102
 20
696.57234644218886
 30
0.0
 40
0.125
  1
2
  0
TEXT
  5
D29C
  8
0
 62
     0
 10
-384.83634870279559
 20
696.65619137170233
 30
0.0
 40
0.125
  1
"
  0
ENDBLK
  5
D29E
  8
0
  0
BLOCK
  8
0
  2
*U92
 70
     1
 10
0.0
 20
0.0
 30
0.0
  3
*U92
  1

  0
TEXT
  5
D2A0
  8
0
 62
     0
 10
-385.93668703741412
 20
692.78534945053411
 30
0.0
 40
0.125
  1
1
  0
TEXT
  5
D2A1
  8
0
 62
     0
 10
-385.83837530480838
 20
692.86868278386726
 30
0.0
 40
0.125
  1
1
  0
LINE
  5
D2A2
  8
0
 62
     0
 10
-385.83956902922858
 20
692.84784945053389
 30
0.0
 11
-385.75310927479472
 21
692.84784945053389
 31
0.0
  0
TEXT
  5
D2A3
  8
0
 62
     0
 10
-385.84178594600888
 20
692.70201611720074
 30
0.0
 40
0.125
  1
4
  0
TEXT
  5
D2A4
  8
0
 62
     0
 10
-385.74475320385341
 20
692.78534945053411
 30
0.0
 40
0.125
  1
"
  0
ENDBLK
  5
D2A6
  8
0
  0
BLOCK
  8
0
  2
*U93
 70
     1
 10
0.0
 20
0.0
 30
0.0
  3
*U93
  1

  0
TEXT
  5
D2A8
  8
0
 62
     0
 10
-385.93668703741417
 20
690.76677229316886
 30
0.0
 40
0.125
  1
1
  0
TEXT
  5
D2A9
  8
0
 62
     0
 10
-385.83837530480849
 20
690.85010562650223
 30
0.0
 40
0.125
  1
1
  0
LINE
  5
D2AA
  8
0
 62
     0
 10
-385.8395690292287
 20
690.82927229316886
 30
0.0
 11
-385.75310927479478
 21
690.82927229316886
 31
0.0
  0
TEXT
  5
D2AB
  8
0
 62
     0
 10
-385.841785946009
 20
690.6834389598356
 30
0.0
 40
0.125
  1
4
  0
TEXT
  5
D2AC
  8
0
 62
     0
 10
-385.74475320385341
 20
690.76677229316886
 30
0.0
 40
0.125
  1
"
  0
ENDBLK
  5
D2AE
  8
0
  0
BLOCK
  8
0
  2
*U94
 70
     1
 10
0.0
 20
0.0
 30
0.0
  3
*U94
  1

  0
TEXT
  5
D2B0
  8
0
 62
     0
 10
-377.95554037930009
 20
695.49478952536674
 30
0.0
 40
0.125
  1
1
 50
90.0
  0
TEXT
  5
D2B1
  8
0
 62
     0
 10
-378.0388737126334
 20
695.58483045306104
 30
0.0
 40
0.125
  1
3
 50
90.0
  0
LINE
  5
D2B2
  8
0
 62
     0
 10
-378.01804037930009
 20
695.59190753355222
 30
0.0
 11
-378.01804037930009
 21
695.6742745185453
 31
0.0
  0
TEXT
  5
D2B3
  8
0
 62
     0
 10
-377.86956379903643
 20
695.58483045306104
 30
0.0
 40
0.125
  1
8
 50
90.0
  0
TEXT
  5
D2B4
  8
0
 62
     0
 10
-377.95554037930009
 20
695.68263058948673
 30
0.0
 40
0.125
  1
"
 50
90.0
  0
ENDBLK
  5
D2B6
  8
0
  0
BLOCK
  8
0
  2
*U95
 70
     1
 10
0.0
 20
0.0
 30
0.0
  3
*U95
  1

  0
TEXT
  5
D2B8
  8
0
 62
     0
 10
-377.0338390792665
 20
696.74236791929968
 30
0.0
 40
0.125
  1
1
  0
LINE
  5
D2B9
  8
0
 62
     0
 10
-377.0350328036867
 20
696.72153458596631
 30
0.0
 11
-376.94857304925279
 21
696.72153458596631
 31
0.0
  0
TEXT
  5
D2BA
  8
0
 62
     0
 10
-377.037249720467
 20
696.57570125263305
 30
0.0
 40
0.125
  1
4
  0
TEXT
  5
D2BB
  8
0
 62
     0
 10
-376.94021697831153
 20
696.65903458596642
 30
0.0
 40
0.125
  1
"
  0
ENDBLK
  5
D2BD
  8
0
  0
BLOCK
  8
0
  2
*U96
 70
     1
 10
0.0
 20
0.0
 30
0.0
  3
*U96
  1

  0
TEXT
  5
D2BF
  8
0
 62
     0
 10
-380.32984112873351
 20
690.836514643025
 30
0.0
 40
0.125
  1
7
  0
LINE
  5
D2C0
  8
0
 62
     0
 10
-380.32229508507731
 20
690.81568130969174
 30
0.0
 11
-380.23992810008411
 21
690.81568130969174
 31
0.0
  0
TEXT
  5
D2C1
  8
0
 62
     0
 10
-380.32937216556837
 20
690.66720472942791
 30
0.0
 40
0.125
  1
8
  0
TEXT
  5
D2C2
  8
0
 62
     0
 10
-380.2315720291428
 20
690.75318130969174
 30
0.0
 40
0.125
  1
"
  0
ENDBLK
  5
D2C4
  8
0
  0
BLOCK
  8
0
  2
*U97
 70
     1
 10
0.0
 20
0.0
 30
0.0
  3
*U97
  1

  0
TEXT
  5
D2C6
  8
0
 62
     0
 10
-380.32984112873328
 20
692.80909117527108
 30
0.0
 40
0.125
  1
7
  0
LINE
  5
D2C7
  8
0
 62
     0
 10
-380.32229508507709
 20
692.78825784193782
 30
0.0
 11
-380.23992810008389
 21
692.78825784193782
 31
0.0
  0
TEXT
  5
D2C8
  8
0
 62
     0
 10
-380.32937216556832
 20
692.6397812616741
 30
0.0
 40
0.125
  1
8
  0
TEXT
  5
D2C9
  8
0
 62
     0
 10
-380.23157202914263
 20
692.72575784193782
 30
0.0
 40
0.125
  1
"
  0
ENDBLK
  5
D2CB
  8
0
  0
BLOCK
  8
0
  2
*U98
 70
     1
 10
0.0
 20
0.0
 30
0.0
  3
*U98
  1

  0
TEXT
  5
D2CD
  8
0
 62
     0
 10
-376.57449367983168
 20
691.80579735005824
 30
0.0
 40
0.125
  1
7
  0
LINE
  5
D2CE
  8
0
 62
     0
 10
-376.56694763617548
 20
691.78496401672476
 30
0.0
 11
-376.48458065118228
 21
691.78496401672476
 31
0.0
  0
TEXT
  5
D2CF
  8
0
 62
     0
 10
-376.57402471666671
 20
691.63648743646115
 30
0.0
 40
0.125
  1
8
  0
TEXT
  5
D2D0
  8
0
 62
     0
 10
-376.47622458024102
 20
691.72246401672487
 30
0.0
 40
0.125
  1
"
  0
ENDBLK
  5
D2D2
  8
0
  0
BLOCK
  8
0
  2
*U99
 70
     1
 10
0.0
 20
0.0
 30
0.0
  3
*U99
  1

  0
TEXT
  5
D2D4
  8
0
 62
     0
 10
-370.01804037930009
 20
695.49478952536674
 30
0.0
 40
0.125
  1
1
 50
90.0
  0
TEXT
  5
D2D5
  8
0
 62
     0
 10
-370.10137371263352
 20
695.58483045306104
 30
0.0
 40
0.125
  1
3
 50
90.0
  0
LINE
  5
D2D6
  8
0
 62
     0
 10
-370.0805403793002
 20
695.59190753355222
 30
0.0
 11
-370.0805403793002
 21
695.6742745185453
 31
0.0
  0
TEXT
  5
D2D7
  8
0
 62
     0
 10
-369.93206379903643
 20
695.58483045306104
 30
0.0
 40
0.125
  1
8
 50
90.0
  0
TEXT
  5
D2D8
  8
0
 62
     0
 10
-370.01804037930009
 20
695.68263058948673
 30
0.0
 40
0.125
  1
"
 50
90.0
  0
ENDBLK
  5
D2DA
  8
0
  0
BLOCK
  8
0
  2
*U100
 70
     1
 10
0.0
 20
0.0
 30
0.0
  3
*U100
  1

  0
TEXT
  5
D2DC
  8
0
 62
     0
 10
-369.09633907926639
 20
696.74236791929968
 30
0.0
 40
0.125
  1
1
  0
LINE
  5
D2DD
  8
0
 62
     0
 10
-369.09753280368659
 20
696.72153458596631
 30
0.0
 11
-369.01107304925279
 21
696.72153458596631
 31
0.0
  0
TEXT
  5
D2DE
  8
0
 62
     0
 10
-369.099749720467
 20
696.57570125263305
 30
0.0
 40
0.125
  1
4
  0
TEXT
  5
D2DF
  8
0
 62
     0
 10
-369.00271697831153
 20
696.65903458596642
 30
0.0
 40
0.125
  1
"
  0
ENDBLK
  5
D2E1
  8
0
  0
BLOCK
  8
0
  2
*U101
 70
     1
 10
0.0
 20
0.0
 30
0.0
  3
*U101
  1

  0
TEXT
  5
D2E3
  8
0
 62
     0
 10
-372.39234112873339
 20
690.836514643025
 30
0.0
 40
0.125
  1
7
  0
LINE
  5
D2E4
  8
0
 62
     0
 10
-372.3847950850772
 20
690.81568130969174
 30
0.0
 11
-372.302428100084
 21
690.81568130969174
 31
0.0
  0
TEXT
  5
D2E5
  8
0
 62
     0
 10
-372.39187216556837
 20
690.66720472942791
 30
0.0
 40
0.125
  1
8
  0
TEXT
  5
D2E6
  8
0
 62
     0
 10
-372.29407202914268
 20
690.75318130969174
 30
0.0
 40
0.125
  1
"
  0
ENDBLK
  5
D2E8
  8
0
  0
BLOCK
  8
0
  2
*U102
 70
     1
 10
0.0
 20
0.0
 30
0.0
  3
*U102
  1

  0
TEXT
  5
D2EA
  8
0
 62
     0
 10
-372.39234112873339
 20
692.80909117527108
 30
0.0
 40
0.125
  1
7
  0
LINE
  5
D2EB
  8
0
 62
     0
 10
-372.3847950850772
 20
692.78825784193782
 30
0.0
 11
-372.302428100084
 21
692.78825784193782
 31
0.0
  0
TEXT
  5
D2EC
  8
0
 62
     0
 10
-372.39187216556832
 20
692.6397812616741
 30
0.0
 40
0.125
  1
8
  0
TEXT
  5
D2ED
  8
0
 62
     0
 10
-372.29407202914263
 20
692.72575784193782
 30
0.0
 40
0.125
  1
"
  0
ENDBLK
  5
D2EF
  8
0
  0
BLOCK
  8
0
  2
*U103
 70
     1
 10
0.0
 20
0.0
 30
0.0
  3
*U103
  1

  0
TEXT
  5
D2F1
  8
0
 62
     0
 10
-368.63699367983179
 20
691.80579735005824
 30
0.0
 40
0.125
  1
7
  0
LINE
  5
D2F2
  8
0
 62
     0
 10
-368.6294476361756
 20
691.78496401672476
 30
0.0
 11
-368.5470806511824
 21
691.78496401672476
 31
0.0
  0
TEXT
  5
D2F3
  8
0
 62
     0
 10
-368.63652471666671
 20
691.63648743646115
 30
0.0
 40
0.125
  1
8
  0
TEXT
  5
D2F4
  8
0
 62
     0
 10
-368.53872458024102
 20
691.72246401672487
 30
0.0
 40
0.125
  1
"
  0
ENDBLK
  5
D2F6
  8
0
  0
BLOCK
  8
0
  2
*U104
 70
     1
 10
0.0
 20
0.0
 30
0.0
  3
*U104
  1

  0
TEXT
  5
D2F8
  8
0
 62
     0
 10
-362.15291298638522
 20
695.42744722445775
 30
0.0
 40
0.125
  1
1
 50
90.0
  0
TEXT
  5
D2F9
  8
0
 62
     0
 10
-362.23624631971848
 20
695.51953453687236
 30
0.0
 40
0.125
  1
3
 50
90.0
  0
LINE
  5
D2FA
  8
0
 62
     0
 10
-362.21541298638522
 20
695.52456523264334
 30
0.0
 11
-362.21541298638522
 21
695.61102498707714
 31
0.0
  0
TEXT
  5
D2FB
  8
0
 62
     0
 10
-362.06957965305179
 20
695.52234831586304
 30
0.0
 40
0.125
  1
4
 50
90.0
  0
TEXT
  5
D2FC
  8
0
 62
     0
 10
-362.15291298638522
 20
695.61938105801846
 30
0.0
 40
0.125
  1
"
 50
90.0
  0
ENDBLK
  5
D2FE
  8
0
  0
BLOCK
  8
0
  2
*U105
 70
     1
 10
0.0
 20
0.0
 30
0.0
  3
*U105
  1

  0
TEXT
  5
D300
  8
0
 62
     0
 10
-361.03383907926627
 20
696.78810441619885
 30
0.0
 40
0.125
  1
1
  0
LINE
  5
D301
  8
0
 62
     0
 10
-361.0331995840412
 20
696.76727108286548
 30
0.0
 11
-360.95040626889801
 21
696.76727108286548
 31
0.0
  0
TEXT
  5
D302
  8
0
 62
     0
 10
-361.03831554584201
 20
696.62092615335223
 30
0.0
 40
0.125
  1
2
  0
TEXT
  5
D303
  8
0
 62
     0
 10
-360.94205019795658
 20
696.70477108286559
 30
0.0
 40
0.125
  1
"
  0
ENDBLK
  5
D305
  8
0
  0
BLOCK
  8
0
  2
*U106
 70
     1
 10
0.0
 20
0.0
 30
0.0
  3
*U106
  1

  0
TEXT
  5
D307
  8
0
 62
     0
 10
-362.12012550657761
 20
691.59167340284671
 30
0.0
 40
0.125
  1
1
  0
TEXT
  5
D308
  8
0
 62
     0
 10
-362.02181377397193
 20
691.67500673617997
 30
0.0
 40
0.125
  1
1
  0
LINE
  5
D309
  8
0
 62
     0
 10
-362.02300749839208
 20
691.6541734028466
 30
0.0
 11
-361.93654774395822
 21
691.6541734028466
 31
0.0
  0
TEXT
  5
D30A
  8
0
 62
     0
 10
-362.02522441517237
 20
691.50834006951334
 30
0.0
 40
0.125
  1
4
  0
TEXT
  5
D30B
  8
0
 62
     0
 10
-361.9281916730169
 20
691.59167340284671
 30
0.0
 40
0.125
  1
"
  0
ENDBLK
  5
D30D
  8
0
  0
BLOCK
  8
0
  2
*U107
 70
     1
 10
0.0
 20
0.0
 30
0.0
  3
*U107
  1

  0
TEXT
  5
D30F
  8
0
 62
     0
 10
-354.21541298638522
 20
695.42744722445775
 30
0.0
 40
0.125
  1
1
 50
90.0
  0
TEXT
  5
D310
  8
0
 62
     0
 10
-354.29874631971859
 20
695.51953453687236
 30
0.0
 40
0.125
  1
3
 50
90.0
  0
LINE
  5
D311
  8
0
 62
     0
 10
-354.27791298638522
 20
695.52456523264334
 30
0.0
 11
-354.27791298638522
 21
695.61102498707714
 31
0.0
  0
TEXT
  5
D312
  8
0
 62
     0
 10
-354.1320796530519
 20
695.52234831586304
 30
0.0
 40
0.125
  1
4
 50
90.0
  0
TEXT
  5
D313
  8
0
 62
     0
 10
-354.21541298638522
 20
695.61938105801846
 30
0.0
 40
0.125
  1
"
 50
90.0
  0
ENDBLK
  5
D315
  8
0
  0
BLOCK
  8
0
  2
*U108
 70
     1
 10
0.0
 20
0.0
 30
0.0
  3
*U108
  1

  0
TEXT
  5
D317
  8
0
 62
     0
 10
-353.09639193918429
 20
696.78810441619885
 30
0.0
 40
0.125
  1
1
  0
LINE
  5
D318
  8
0
 62
     0
 10
-353.09575244395921
 20
696.76727108286548
 30
0.0
 11
-353.01295912881602
 21
696.76727108286548
 31
0.0
  0
TEXT
  5
D319
  8
0
 62
     0
 10
-353.10086840576002
 20
696.62092615335223
 30
0.0
 40
0.125
  1
2
  0
TEXT
  5
D31A
  8
0
 62
     0
 10
-353.0046030578747
 20
696.70477108286559
 30
0.0
 40
0.125
  1
"
  0
ENDBLK
  5
D31C
  8
0
  0
BLOCK
  8
0
  2
*U109
 70
     1
 10
0.0
 20
0.0
 30
0.0
  3
*U109
  1

  0
TEXT
  5
D31E
  8
0
 62
     0
 10
-354.18267836649551
 20
691.59167340284671
 30
0.0
 40
0.125
  1
1
  0
TEXT
  5
D31F
  8
0
 62
     0
 10
-354.08436663388977
 20
691.67500673617997
 30
0.0
 40
0.125
  1
1
  0
LINE
  5
D320
  8
0
 62
     0
 10
-354.08556035830998
 20
691.6541734028466
 30
0.0
 11
-353.99910060387612
 21
691.6541734028466
 31
0.0
  0
TEXT
  5
D321
  8
0
 62
     0
 10
-354.08777727509027
 20
691.50834006951334
 30
0.0
 40
0.125
  1
4
  0
TEXT
  5
D322
  8
0
 62
     0
 10
-353.9907445329348
 20
691.59167340284671
 30
0.0
 40
0.125
  1
"
  0
ENDBLK
  5
D324
  8
0
  0
BLOCK
  8
0
  2
*U110
 70
     1
 10
0.0
 20
0.0
 30
0.0
  3
*U110
  1

  0
TEXT
  5
D326
  8
0
 62
     0
 10
-346.27791298638522
 20
695.42744722445775
 30
0.0
 40
0.125
  1
1
 50
90.0
  0
TEXT
  5
D327
  8
0
 62
     0
 10
-346.36124631971848
 20
695.51953453687236
 30
0.0
 40
0.125
  1
3
 50
90.0
  0
LINE
  5
D328
  8
0
 62
     0
 10
-346.34041298638522
 20
695.52456523264334
 30
0.0
 11
-346.34041298638522
 21
695.61102498707714
 31
0.0
  0
TEXT
  5
D329
  8
0
 62
     0
 10
-346.19457965305179
 20
695.52234831586304
 30
0.0
 40
0.125
  1
4
 50
90.0
  0
TEXT
  5
D32A
  8
0
 62
     0
 10
-346.27791298638522
 20
695.61938105801846
 30
0.0
 40
0.125
  1
"
 50
90.0
  0
ENDBLK
  5
D32C
  8
0
  0
BLOCK
  8
0
  2
*U111
 70
     1
 10
0.0
 20
0.0
 30
0.0
  3
*U111
  1

  0
TEXT
  5
D32E
  8
0
 62
     0
 10
-345.15883907926639
 20
696.78810441619885
 30
0.0
 40
0.125
  1
1
  0
LINE
  5
D32F
  8
0
 62
     0
 10
-345.15819958404131
 20
696.76727108286548
 30
0.0
 11
-345.07540626889801
 21
696.76727108286548
 31
0.0
  0
TEXT
  5
D330
  8
0
 62
     0
 10
-345.16331554584212
 20
696.62092615335223
 30
0.0
 40
0.125
  1
2
  0
TEXT
  5
D331
  8
0
 62
     0
 10
-345.06705019795669
 20
696.70477108286559
 30
0.0
 40
0.125
  1
"
  0
ENDBLK
  5
D333
  8
0
  0
BLOCK
  8
0
  2
*U112
 70
     1
 10
0.0
 20
0.0
 30
0.0
  3
*U112
  1

  0
TEXT
  5
D335
  8
0
 62
     0
 10
-346.24512550657761
 20
691.59167340284671
 30
0.0
 40
0.125
  1
1
  0
TEXT
  5
D336
  8
0
 62
     0
 10
-346.14681377397193
 20
691.67500673617997
 30
0.0
 40
0.125
  1
1
  0
LINE
  5
D337
  8
0
 62
     0
 10
-346.14800749839208
 20
691.6541734028466
 30
0.0
 11
-346.06154774395822
 21
691.6541734028466
 31
0.0
  0
TEXT
  5
D338
  8
0
 62
     0
 10
-346.15022441517237
 20
691.50834006951334
 30
0.0
 40
0.125
  1
4
  0
TEXT
  5
D339
  8
0
 62
     0
 10
-346.0531916730169
 20
691.59167340284671
 30
0.0
 40
0.125
  1
"
  0
ENDBLK
  5
D33B
  8
0
  0
BLOCK
  8
0
  2
*U113
 70
     1
 10
0.0
 20
0.0
 30
0.0
  3
*U113
  1

  0
TEXT
  5
D33D
  8
0
 62
     0
 10
-332.70484112873339
 20
690.60336608948342
 30
0.0
 40
0.125
  1
7
  0
LINE
  5
D33E
  8
0
 62
     0
 10
-332.69729508507731
 20
690.58253275615004
 30
0.0
 11
-332.61492810008411
 21
690.58253275615004
 31
0.0
  0
TEXT
  5
D33F
  8
0
 62
     0
 10
-332.70437216556837
 20
690.43405617588633
 30
0.0
 40
0.125
  1
8
  0
TEXT
  5
D340
  8
0
 62
     0
 10
-332.6065720291428
 20
690.52003275615004
 30
0.0
 40
0.125
  1
"
  0
ENDBLK
  5
D342
  8
0
  0
BLOCK
  8
0
  2
*U114
 70
     1
 10
0.0
 20
0.0
 30
0.0
  3
*U114
  1

  0
TEXT
  5
D344
  8
0
 62
     0
 10
-328.94949367983168
 20
691.59546346768718
 30
0.0
 40
0.125
  1
7
  0
LINE
  5
D345
  8
0
 62
     0
 10
-328.94194763617548
 20
691.57463013435381
 30
0.0
 11
-328.85958065118228
 21
691.57463013435381
 31
0.0
  0
TEXT
  5
D346
  8
0
 62
     0
 10
-328.9490247166666
 20
691.42615355409009
 30
0.0
 40
0.125
  1
8
  0
TEXT
  5
D347
  8
0
 62
     0
 10
-328.85122458024102
 20
691.51213013435381
 30
0.0
 40
0.125
  1
"
  0
ENDBLK
  5
D349
  8
0
  0
BLOCK
  8
0
  2
*U115
 70
     1
 10
0.0
 20
0.0
 30
0.0
  3
*U115
  1

  0
TEXT
  5
D34B
  8
0
 62
     0
 10
-338.35128092504129
 20
695.58546414243085
 30
0.0
 40
0.125
  1
1
 50
90.0
  0
TEXT
  5
D34C
  8
0
 62
     0
 10
-338.43461425837472
 20
695.67755145484546
 30
0.0
 40
0.125
  1
3
 50
90.0
  0
LINE
  5
D34D
  8
0
 62
     0
 10
-338.41378092504141
 20
695.68258215061633
 30
0.0
 11
-338.41378092504141
 21
695.76904190505013
 31
0.0
  0
TEXT
  5
D34E
  8
0
 62
     0
 10
-338.26794759170798
 20
695.68036523383603
 30
0.0
 40
0.125
  1
4
 50
90.0
  0
TEXT
  5
D34F
  8
0
 62
     0
 10
-338.35128092504129
 20
695.77739797599145
 30
0.0
 40
0.125
  1
"
 50
90.0
  0
ENDBLK
  5
D351
  8
0
  0
BLOCK
  8
0
  2
*U116
 70
     1
 10
0.0
 20
0.0
 30
0.0
  3
*U116
  1

  0
TEXT
  5
D353
  8
0
 62
     0
 10
-337.35720701792258
 20
696.94664989975615
 30
0.0
 40
0.125
  1
1
  0
LINE
  5
D354
  8
0
 62
     0
 10
-337.35840074234278
 20
696.92581656642278
 30
0.0
 11
-337.27194098790892
 21
696.92581656642278
 31
0.0
  0
TEXT
  5
D355
  8
0
 62
     0
 10
-337.36061765912308
 20
696.77998323308952
 30
0.0
 40
0.125
  1
4
  0
TEXT
  5
D356
  8
0
 62
     0
 10
-337.2635849169676
 20
696.8633165664229
 30
0.0
 40
0.125
  1
"
  0
ENDBLK
  5
D358
  8
0
  0
BLOCK
  8
0
  2
*U117
 70
     1
 10
0.0
 20
0.0
 30
0.0
  3
*U117
  1

  0
TEXT
  5
D35A
  8
0
 62
     0
 10
-336.88699367983168
 20
691.59759161165914
 30
0.0
 40
0.125
  1
7
  0
LINE
  5
D35B
  8
0
 62
     0
 10
-336.8794476361756
 20
691.57675827832566
 30
0.0
 11
-336.7970806511824
 21
691.57675827832566
 31
0.0
  0
TEXT
  5
D35C
  8
0
 62
     0
 10
-336.88652471666671
 20
691.42828169806205
 30
0.0
 40
0.125
  1
8
  0
TEXT
  5
D35D
  8
0
 62
     0
 10
-336.78872458024102
 20
691.51425827832566
 30
0.0
 40
0.125
  1
"
  0
ENDBLK
  5
D35F
  8
0
  0
BLOCK
  8
0
  2
*U118
 70
     1
 10
0.0
 20
0.0
 30
0.0
  3
*U118
  1

  0
TEXT
  5
D361
  8
0
 62
     0
 10
-340.64234112873351
 20
690.65033864083807
 30
0.0
 40
0.125
  1
7
  0
LINE
  5
D362
  8
0
 62
     0
 10
-340.63479508507731
 20
690.62950530750481
 30
0.0
 11
-340.55242810008411
 21
690.62950530750481
 31
0.0
  0
TEXT
  5
D363
  8
0
 62
     0
 10
-340.64187216556837
 20
690.4810287272411
 30
0.0
 40
0.125
  1
8
  0
TEXT
  5
D364
  8
0
 62
     0
 10
-340.54407202914268
 20
690.56700530750481
 30
0.0
 40
0.125
  1
"
  0
ENDBLK
  5
D366
  8
0
  0
BLOCK
  8
0
  2
*U119
 70
     1
 10
0.0
 20
0.0
 30
0.0
  3
*U119
  1

  0
TEXT
  5
D368
  8
0
 62
     0
 10
-340.64234112873328
 20
695.04250391018786
 30
0.0
 40
0.125
  1
7
  0
LINE
  5
D369
  8
0
 62
     0
 10
-340.6347950850772
 20
695.02167057685449
 30
0.0
 11
-340.552428100084
 21
695.02167057685449
 31
0.0
  0
TEXT
  5
D36A
  8
0
 62
     0
 10
-340.64187216556832
 20
694.87319399659077
 30
0.0
 40
0.125
  1
8
  0
TEXT
  5
D36B
  8
0
 62
     0
 10
-340.54407202914263
 20
694.95917057685438
 30
0.0
 40
0.125
  1
"
  0
ENDBLK
  5
D36D
  8
0
  0
BLOCK
  8
0
  2
*U120
 70
     1
 10
0.0
 20
0.0
 30
0.0
  3
*U120
  1

  0
TEXT
  5
D36F
  8
0
 62
     0
 10
-330.26283464946971
 20
695.58546414243085
 30
0.0
 40
0.125
  1
1
 50
90.0
  0
TEXT
  5
D370
  8
0
 62
     0
 10
-330.34616798280302
 20
695.67755145484546
 30
0.0
 40
0.125
  1
3
 50
90.0
  0
LINE
  5
D371
  8
0
 62
     0
 10
-330.32533464946971
 20
695.68258215061633
 30
0.0
 11
-330.32533464946971
 21
695.76904190505013
 31
0.0
  0
TEXT
  5
D372
  8
0
 62
     0
 10
-330.17950131613628
 20
695.68036523383603
 30
0.0
 40
0.125
  1
4
 50
90.0
  0
TEXT
  5
D373
  8
0
 62
     0
 10
-330.26283464946971
 20
695.77739797599145
 30
0.0
 40
0.125
  1
"
 50
90.0
  0
ENDBLK
  5
D375
  8
0
  0
BLOCK
  8
0
  2
*U121
 70
     1
 10
0.0
 20
0.0
 30
0.0
  3
*U121
  1

  0
TEXT
  5
D377
  8
0
 62
     0
 10
-329.26876074235099
 20
696.94664989975615
 30
0.0
 40
0.125
  1
1
  0
LINE
  5
D378
  8
0
 62
     0
 10
-329.2699544667712
 20
696.92581656642278
 30
0.0
 11
-329.18349471233728
 21
696.92581656642278
 31
0.0
  0
TEXT
  5
D379
  8
0
 62
     0
 10
-329.27217138355149
 20
696.77998323308952
 30
0.0
 40
0.125
  1
4
  0
TEXT
  5
D37A
  8
0
 62
     0
 10
-329.17513864139602
 20
696.8633165664229
 30
0.0
 40
0.125
  1
"
  0
ENDBLK
  5
D37C
  8
0
  0
BLOCK
  8
0
  2
*U122
 70
     1
 10
0.0
 20
0.0
 30
0.0
  3
*U122
  1

  0
TEXT
  5
D37E
  8
0
 62
     0
 10
-332.70484112873328
 20
694.96096907178048
 30
0.0
 40
0.125
  1
7
  0
LINE
  5
D37F
  8
0
 62
     0
 10
-332.69729508507709
 20
694.94013573844711
 30
0.0
 11
-332.61492810008389
 21
694.94013573844711
 31
0.0
  0
TEXT
  5
D380
  8
0
 62
     0
 10
-332.7043721655682
 20
694.79165915818339
 30
0.0
 40
0.125
  1
8
  0
TEXT
  5
D381
  8
0
 62
     0
 10
-332.60657202914263
 20
694.877635738447
 30
0.0
 40
0.125
  1
"
  0
ENDBLK
  5
D383
  8
0
  0
BLOCK
  8
0
  2
*U123
 70
     1
 10
0.0
 20
0.0
 30
0.0
  3
*U123
  1

  0
TEXT
  5
D385
  8
0
 62
     0
 10
-314.52680452799501
 20
694.98398847623696
 30
0.0
 40
0.125
  1
2
 50
90.0
  0
TEXT
  5
D386
  8
0
 62
     0
 10
-314.61013786132833
 20
695.08230020884275
 30
0.0
 40
0.125
  1
1
 50
90.0
  0
LINE
  5
D387
  8
0
 62
     0
 10
-314.58930452799501
 20
695.08110648442255
 30
0.0
 11
-314.58930452799501
 21
695.16756623885635
 31
0.0
  0
TEXT
  5
D388
  8
0
 62
     0
 10
-314.44347119466158
 20
695.07888956764225
 30
0.0
 40
0.125
  1
4
 50
90.0
  0
TEXT
  5
D389
  8
0
 62
     0
 10
-314.52680452799501
 20
695.17592230979778
 30
0.0
 40
0.125
  1
"
 50
90.0
  0
ENDBLK
  5
D38B
  8
0
  0
BLOCK
  8
0
  2
*U124
 70
     1
 10
0.0
 20
0.0
 30
0.0
  3
*U124
  1

  0
TEXT
  5
D38D
  8
0
 62
     0
 10
-313.40883907926627
 20
696.58769648653197
 30
0.0
 40
0.125
  1
1
  0
LINE
  5
D38E
  8
0
 62
     0
 10
-313.4081995840412
 20
696.56686315319871
 30
0.0
 11
-313.32540626889801
 21
696.56686315319871
 31
0.0
  0
TEXT
  5
D38F
  8
0
 62
     0
 10
-313.41331554584201
 20
696.42051822368535
 30
0.0
 40
0.125
  1
2
  0
TEXT
  5
D390
  8
0
 62
     0
 10
-313.31705019795669
 20
696.50436315319871
 30
0.0
 40
0.125
  1
"
  0
ENDBLK
  5
D392
  8
0
  0
BLOCK
  8
0
  2
*U125
 70
     1
 10
0.0
 20
0.0
 30
0.0
  3
*U125
  1

  0
TEXT
  5
D394
  8
0
 62
     0
 10
-314.49512550657761
 20
690.89126547317983
 30
0.0
 40
0.125
  1
1
  0
TEXT
  5
D395
  8
0
 62
     0
 10
-314.39681377397193
 20
690.97459880651309
 30
0.0
 40
0.125
  1
1
  0
LINE
  5
D396
  8
0
 62
     0
 10
-314.39800749839208
 20
690.95376547317971
 30
0.0
 11
-314.31154774395822
 21
690.95376547317971
 31
0.0
  0
TEXT
  5
D397
  8
0
 62
     0
 10
-314.40022441517249
 20
690.80793213984646
 30
0.0
 40
0.125
  1
4
  0
TEXT
  5
D398
  8
0
 62
     0
 10
-314.3031916730169
 20
690.89126547317983
 30
0.0
 40
0.125
  1
"
  0
ENDBLK
  5
D39A
  8
0
  0
BLOCK
  8
0
  2
*U126
 70
     1
 10
0.0
 20
0.0
 30
0.0
  3
*U126
  1

  0
TEXT
  5
D39C
  8
0
 62
     0
 10
-306.58930452799501
 20
694.98398847623696
 30
0.0
 40
0.125
  1
2
 50
90.0
  0
TEXT
  5
D39D
  8
0
 62
     0
 10
-306.67263786132833
 20
695.08230020884275
 30
0.0
 40
0.125
  1
1
 50
90.0
  0
LINE
  5
D39E
  8
0
 62
     0
 10
-306.65180452799501
 20
695.08110648442255
 30
0.0
 11
-306.65180452799501
 21
695.16756623885635
 31
0.0
  0
TEXT
  5
D39F
  8
0
 62
     0
 10
-306.50597119466158
 20
695.07888956764225
 30
0.0
 40
0.125
  1
4
 50
90.0
  0
TEXT
  5
D3A0
  8
0
 62
     0
 10
-306.58930452799501
 20
695.17592230979778
 30
0.0
 40
0.125
  1
"
 50
90.0
  0
ENDBLK
  5
D3A2
  8
0
  0
BLOCK
  8
0
  2
*U127
 70
     1
 10
0.0
 20
0.0
 30
0.0
  3
*U127
  1

  0
TEXT
  5
D3A4
  8
0
 62
     0
 10
-305.4713919391844
 20
696.58769648653197
 30
0.0
 40
0.125
  1
1
  0
LINE
  5
D3A5
  8
0
 62
     0
 10
-305.47075244395921
 20
696.56686315319871
 30
0.0
 11
-305.38795912881602
 21
696.56686315319871
 31
0.0
  0
TEXT
  5
D3A6
  8
0
 62
     0
 10
-305.47586840576002
 20
696.42051822368535
 30
0.0
 40
0.125
  1
2
  0
TEXT
  5
D3A7
  8
0
 62
     0
 10
-305.37960305787459
 20
696.50436315319871
 30
0.0
 40
0.125
  1
"
  0
ENDBLK
  5
D3A9
  8
0
  0
BLOCK
  8
0
  2
*U128
 70
     1
 10
0.0
 20
0.0
 30
0.0
  3
*U128
  1

  0
TEXT
  5
D3AB
  8
0
 62
     0
 10
-306.55762550657761
 20
690.89126547317983
 30
0.0
 40
0.125
  1
1
  0
TEXT
  5
D3AC
  8
0
 62
     0
 10
-306.45931377397193
 20
690.97459880651309
 30
0.0
 40
0.125
  1
1
  0
LINE
  5
D3AD
  8
0
 62
     0
 10
-306.46050749839208
 20
690.95376547317971
 30
0.0
 11
-306.37404774395822
 21
690.95376547317971
 31
0.0
  0
TEXT
  5
D3AE
  8
0
 62
     0
 10
-306.46272441517237
 20
690.80793213984646
 30
0.0
 40
0.125
  1
4
  0
TEXT
  5
D3AF
  8
0
 62
     0
 10
-306.3656916730169
 20
690.89126547317983
 30
0.0
 40
0.125
  1
"
  0
ENDBLK
  5
D3B1
  8
0
  0
BLOCK
  8
0
  2
*U129
 70
     1
 10
0.0
 20
0.0
 30
0.0
  3
*U129
  1

  0
TEXT
  5
D3B3
  8
0
 62
     0
 10
-298.65180452799501
 20
694.98398847623696
 30
0.0
 40
0.125
  1
2
 50
90.0
  0
TEXT
  5
D3B4
  8
0
 62
     0
 10
-298.73513786132833
 20
695.08230020884275
 30
0.0
 40
0.125
  1
1
 50
90.0
  0
LINE
  5
D3B5
  8
0
 62
     0
 10
-298.71430452799501
 20
695.08110648442255
 30
0.0
 11
-298.71430452799501
 21
695.16756623885635
 31
0.0
  0
TEXT
  5
D3B6
  8
0
 62
     0
 10
-298.56847119466158
 20
695.07888956764225
 30
0.0
 40
0.125
  1
4
 50
90.0
  0
TEXT
  5
D3B7
  8
0
 62
     0
 10
-298.65180452799501
 20
695.17592230979778
 30
0.0
 40
0.125
  1
"
 50
90.0
  0
ENDBLK
  5
D3B9
  8
0
  0
BLOCK
  8
0
  2
*U130
 70
     1
 10
0.0
 20
0.0
 30
0.0
  3
*U130
  1

  0
TEXT
  5
D3BB
  8
0
 62
     0
 10
-297.53383907926639
 20
696.58769648653197
 30
0.0
 40
0.125
  1
1
  0
LINE
  5
D3BC
  8
0
 62
     0
 10
-297.53319958404131
 20
696.56686315319871
 30
0.0
 11
-297.45040626889812
 21
696.56686315319871
 31
0.0
  0
TEXT
  5
D3BD
  8
0
 62
     0
 10
-297.53831554584212
 20
696.42051822368535
 30
0.0
 40
0.125
  1
2
  0
TEXT
  5
D3BE
  8
0
 62
     0
 10
-297.44205019795669
 20
696.50436315319871
 30
0.0
 40
0.125
  1
"
  0
ENDBLK
  5
D3C0
  8
0
  0
BLOCK
  8
0
  2
*U131
 70
     1
 10
0.0
 20
0.0
 30
0.0
  3
*U131
  1

  0
TEXT
  5
D3C2
  8
0
 62
     0
 10
-298.62012550657761
 20
690.89126547317983
 30
0.0
 40
0.125
  1
1
  0
TEXT
  5
D3C3
  8
0
 62
     0
 10
-298.52181377397193
 20
690.97459880651309
 30
0.0
 40
0.125
  1
1
  0
LINE
  5
D3C4
  8
0
 62
     0
 10
-298.52300749839208
 20
690.95376547317971
 30
0.0
 11
-298.43654774395822
 21
690.95376547317971
 31
0.0
  0
TEXT
  5
D3C5
  8
0
 62
     0
 10
-298.52522441517237
 20
690.80793213984646
 30
0.0
 40
0.125
  1
4
  0
TEXT
  5
D3C6
  8
0
 62
     0
 10
-298.4281916730169
 20
690.89126547317983
 30
0.0
 40
0.125
  1
"
  0
ENDBLK
  5
D3C8
  8
0
  0
BLOCK
  8
0
  2
*U132
 70
     1
 10
0.0
 20
0.0
 30
0.0
  3
*U132
  1

  0
TEXT
  5
D3CA
  8
0
 62
     0
 10
-323.54097563632041
 20
695.3029431959651
 30
0.0
 40
0.125
  1
1
 50
90.0
  0
TEXT
  5
D3CB
  8
0
 62
     0
 10
-323.62430896965373
 20
695.3950305083797
 30
0.0
 40
0.125
  1
3
 50
90.0
  0
LINE
  5
D3CC
  8
0
 62
     0
 10
-323.60347563632041
 20
695.40006120415057
 30
0.0
 11
-323.60347563632041
 21
695.48652095858426
 31
0.0
  0
TEXT
  5
D3CD
  8
0
 62
     0
 10
-323.45764230298698
 20
695.39784428737028
 30
0.0
 40
0.125
  1
4
 50
90.0
  0
TEXT
  5
D3CE
  8
0
 62
     0
 10
-323.54097563632041
 20
695.49487702952581
 30
0.0
 40
0.125
  1
"
 50
90.0
  0
ENDBLK
  5
D3D0
  8
0
  0
BLOCK
  8
0
  2
*U133
 70
     1
 10
0.0
 20
0.0
 30
0.0
  3
*U133
  1

  0
TEXT
  5
D3D2
  8
0
 62
     0
 10
-322.54690172920158
 20
696.65152858458919
 30
0.0
 40
0.125
  1
1
  0
LINE
  5
D3D3
  8
0
 62
     0
 10
-322.54809545362178
 20
696.63069525125582
 30
0.0
 11
-322.46163569918792
 21
696.63069525125582
 31
0.0
  0
TEXT
  5
D3D4
  8
0
 62
     0
 10
-322.55031237040208
 20
696.48486191792256
 30
0.0
 40
0.125
  1
4
  0
TEXT
  5
D3D5
  8
0
 62
     0
 10
-322.45327962824661
 20
696.56819525125593
 30
0.0
 40
0.125
  1
"
  0
ENDBLK
  5
D3D7
  8
0
  0
BLOCK
  8
0
  2
*U134
 70
     1
 10
0.0
 20
0.0
 30
0.0
  3
*U134
  1

  0
TEXT
  5
D3D9
  8
0
 62
     0
 10
-142.47669664322521
 20
662.24701646981339
 30
0.0
 40
0.125
  1
1
 50
90.0
  0
TEXT
  5
D3DA
  8
0
 62
     0
 10
-142.56002997655861
 20
662.33910378222811
 30
0.0
 40
0.125
  1
3
 50
90.0
  0
LINE
  5
D3DB
  8
0
 62
     0
 10
-142.53919664322521
 20
662.34413447799898
 30
0.0
 11
-142.53919664322521
 21
662.43059423243267
 31
0.0
  0
TEXT
  5
D3DC
  8
0
 62
     0
 10
-142.3933633098919
 20
662.34191756121868
 30
0.0
 40
0.125
  1
4
 50
90.0
  0
TEXT
  5
D3DD
  8
0
 62
     0
 10
-142.47669664322521
 20
662.43895030337421
 30
0.0
 40
0.125
  1
"
 50
90.0
  0
ENDBLK
  5
D3DF
  8
0
  0
BLOCK
  8
0
  2
*U135
 70
     1
 10
0.0
 20
0.0
 30
0.0
  3
*U135
  1

  0
TEXT
  5
D3E1
  8
0
 62
     0
 10
-137.9669982125433
 20
662.2490628545338
 30
0.0
 40
0.125
  1
1
 50
90.0
  0
TEXT
  5
D3E2
  8
0
 62
     0
 10
-138.05033154587659
 20
662.33910378222811
 30
0.0
 40
0.125
  1
3
 50
90.0
  0
LINE
  5
D3E3
  8
0
 62
     0
 10
-138.02949821254319
 20
662.34618086271917
 30
0.0
 11
-138.02949821254319
 21
662.42854784771248
 31
0.0
  0
TEXT
  5
D3E4
  8
0
 62
     0
 10
-137.8810216322795
 20
662.33910378222811
 30
0.0
 40
0.125
  1
8
 50
90.0
  0
TEXT
  5
D3E5
  8
0
 62
     0
 10
-137.9669982125433
 20
662.4369039186538
 30
0.0
 40
0.125
  1
"
 50
90.0
  0
ENDBLK
  5
D3E7
  8
0
  0
BLOCK
  8
0
  2
*U136
 70
     1
 10
0.0
 20
0.0
 30
0.0
  3
*U136
  1

  0
TEXT
  5
D3E9
  8
0
 62
     0
 10
-133.86396178337719
 20
637.89180649168827
 30
0.0
 40
0.125
  1
5
 50
90.0
  0
LINE
  5
D3EA
  8
0
 62
     0
 10
-133.84312845004391
 20
637.89905410423955
 30
0.0
 11
-133.84312845004391
 21
637.98193268541286
 31
0.0
  0
TEXT
  5
D3EB
  8
0
 62
     0
 10
-133.69465186978019
 20
637.89223282183843
 30
0.0
 40
0.125
  1
8
 50
90.0
  0
TEXT
  5
D3EC
  8
0
 62
     0
 10
-133.78062845004391
 20
637.99028875635418
 30
0.0
 40
0.125
  1
"
 50
90.0
  0
ENDBLK
  5
D3EE
  8
0
  0
BLOCK
  8
0
  2
*U137
 70
     1
 10
0.0
 20
0.0
 30
0.0
  3
*U137
  1

  0
TEXT
  5
D3F0
  8
0
 62
     0
 10
-133.86396178337719
 20
637.14180649168827
 30
0.0
 40
0.125
  1
5
 50
90.0
  0
LINE
  5
D3F1
  8
0
 62
     0
 10
-133.84312845004391
 20
637.14905410423955
 30
0.0
 11
-133.84312845004391
 21
637.23193268541274
 31
0.0
  0
TEXT
  5
D3F2
  8
0
 62
     0
 10
-133.6946518697801
 20
637.14223282183843
 30
0.0
 40
0.125
  1
8
 50
90.0
  0
TEXT
  5
D3F3
  8
0
 62
     0
 10
-133.78062845004391
 20
637.24028875635406
 30
0.0
 40
0.125
  1
"
 50
90.0
  0
ENDBLK
  5
D3F5
  8
0
  0
BLOCK
  8
0
  2
*U138
 70
     1
 10
0.0
 20
0.0
 30
0.0
  3
*U138
  1

  0
TEXT
  5
D3F7
  8
0
 62
     0
 10
-134.86887890070611
 20
635.96549136370038
 30
0.0
 40
0.125
  1
1
  0
TEXT
  5
D3F8
  8
0
 62
     0
 10
-134.77261355282079
 20
636.04882469703375
 30
0.0
 40
0.125
  1
1
  0
LINE
  5
D3F9
  8
0
 62
     0
 10
-134.7717608925206
 20
636.02799136370027
 30
0.0
 11
-134.6893939075274
 21
636.02799136370027
 31
0.0
  0
TEXT
  5
D3FA
  8
0
 62
     0
 10
-134.7788379730118
 20
635.87951478343655
 30
0.0
 40
0.125
  1
8
  0
TEXT
  5
D3FB
  8
0
 62
     0
 10
-134.68103783658611
 20
635.96549136370038
 30
0.0
 40
0.125
  1
"
  0
ENDBLK
  5
D3FD
  8
0
  0
BLOCK
  8
0
  2
*U139
 70
     1
 10
0.0
 20
0.0
 30
0.0
  3
*U139
  1

  0
TEXT
  5
D3FF
  8
0
 62
     0
 10
-134.41206614490801
 20
636.59602054841707
 30
0.0
 40
0.125
  1
5
  0
LINE
  5
D400
  8
0
 62
     0
 10
-134.44698258419859
 20
636.5751872150837
 30
0.0
 11
-134.2797758993419
 21
636.5751872150837
 31
0.0
  0
TEXT
  5
D401
  8
0
 62
     0
 10
-134.4659969088917
 20
636.42671063481998
 30
0.0
 40
0.125
  1
16
  0
TEXT
  5
D402
  8
0
 62
     0
 10
-134.2714198284005
 20
636.51268721508359
 30
0.0
 40
0.125
  1
"
  0
ENDBLK
  5
D404
  8
0
  0
BLOCK
  8
0
  2
*U140
 70
     1
 10
0.0
 20
0.0
 30
0.0
  3
*U140
  1

  0
TEXT
  5
D406
  8
0
 62
     0
 10
-134.811665394567
 20
636.59499735605675
 30
0.0
 40
0.125
  1
1
  0
LINE
  5
D407
  8
0
 62
     0
 10
-134.8110258993419
 20
636.57416402272338
 30
0.0
 11
-134.72823258419859
 21
636.57416402272338
 31
0.0
  0
TEXT
  5
D408
  8
0
 62
     0
 10
-134.81614186114271
 20
636.42781909321013
 30
0.0
 40
0.125
  1
2
  0
TEXT
  5
D409
  8
0
 62
     0
 10
-134.7198765132573
 20
636.51166402272349
 30
0.0
 40
0.125
  1
"
  0
ENDBLK
  5
D40B
  8
0
  0
BLOCK
  8
0
  2
*U141
 70
     1
 10
0.0
 20
0.0
 30
0.0
  3
*U141
  1

  0
TEXT
  5
D40D
  8
0
 62
     0
 10
-135.22456614490801
 20
636.59602054841707
 30
0.0
 40
0.125
  1
5
  0
LINE
  5
D40E
  8
0
 62
     0
 10
-135.25948258419859
 20
636.5751872150837
 30
0.0
 11
-135.0922758993419
 21
636.5751872150837
 31
0.0
  0
TEXT
  5
D40F
  8
0
 62
     0
 10
-135.2784969088917
 20
636.42671063481998
 30
0.0
 40
0.125
  1
16
  0
TEXT
  5
D410
  8
0
 62
     0
 10
-135.0839198284005
 20
636.51268721508359
 30
0.0
 40
0.125
  1
"
  0
ENDBLK
  5
D412
  8
0
  0
BLOCK
  8
0
  2
*U142
 70
     1
 10
0.0
 20
0.0
 30
0.0
  3
*U142
  1

  0
TEXT
  5
D414
  8
0
 62
     0
 10
-186.3697514809929
 20
663.48572335499045
 30
0.0
 40
0.125
  1
1
 50
90.0
  0
TEXT
  5
D415
  8
0
 62
     0
 10
-186.4530848143263
 20
663.57781066740506
 30
0.0
 40
0.125
  1
3
 50
90.0
  0
LINE
  5
D416
  8
0
 62
     0
 10
-186.4322514809929
 20
663.58284136317593
 30
0.0
 11
-186.4322514809929
 21
663.66930111760973
 31
0.0
  0
TEXT
  5
D417
  8
0
 62
     0
 10
-186.28641814765959
 20
663.58062444639563
 30
0.0
 40
0.125
  1
4
 50
90.0
  0
TEXT
  5
D418
  8
0
 62
     0
 10
-186.3697514809929
 20
663.67765718855105
 30
0.0
 40
0.125
  1
"
 50
90.0
  0
ENDBLK
  5
D41A
  8
0
  0
BLOCK
  8
0
  2
*U143
 70
     1
 10
0.0
 20
0.0
 30
0.0
  3
*U143
  1

  0
TEXT
  5
D41C
  8
0
 62
     0
 10
-183.53198217011621
 20
662.42757202475593
 30
0.0
 40
0.125
  1
7
  0
LINE
  5
D41D
  8
0
 62
     0
 10
-183.52443612645999
 20
662.40673869142256
 30
0.0
 11
-183.44206914146679
 21
662.40673869142256
 31
0.0
  0
TEXT
  5
D41E
  8
0
 62
     0
 10
-183.5315132069511
 20
662.25826211115884
 30
0.0
 40
0.125
  1
8
  0
TEXT
  5
D41F
  8
0
 62
     0
 10
-183.4337130705255
 20
662.34423869142245
 30
0.0
 40
0.125
  1
"
  0
ENDBLK
  5
D421
  8
0
  0
BLOCK
  8
0
  2
*U144
 70
     1
 10
0.0
 20
0.0
 30
0.0
  3
*U144
  1

  0
TEXT
  5
D423
  8
0
 62
     0
 10
-182.49179340532459
 20
663.49443504556643
 30
0.0
 40
0.125
  1
1
 50
90.0
  0
TEXT
  5
D424
  8
0
 62
     0
 10
-182.5751267386579
 20
663.59091355852684
 30
0.0
 40
0.125
  1
1
 50
90.0
  0
LINE
  5
D425
  8
0
 62
     0
 10
-182.55429340532459
 20
663.59155305375191
 30
0.0
 11
-182.55429340532459
 21
663.67434636889504
 31
0.0
  0
TEXT
  5
D426
  8
0
 62
     0
 10
-182.40794847581111
 20
663.58643709195098
 30
0.0
 40
0.125
  1
2
 50
90.0
  0
TEXT
  5
D427
  8
0
 62
     0
 10
-182.49179340532459
 20
663.68270243983636
 30
0.0
 40
0.125
  1
"
 50
90.0
  0
ENDBLK
  5
D429
  8
0
  0
BLOCK
  8
0
  2
*U145
 70
     1
 10
0.0
 20
0.0
 30
0.0
  3
*U145
  1

  0
TEXT
  5
D42B
  8
0
 62
     0
 10
-128.8109007744369
 20
759.42088232254537
 30
0.0
 40
0.125
  1
5
 50
90.0
  0
LINE
  5
D42C
  8
0
 62
     0
 10
-128.7900674411035
 20
759.42812993509665
 30
0.0
 11
-128.7900674411035
 21
759.51100851626995
 31
0.0
  0
TEXT
  5
D42D
  8
0
 62
     0
 10
-128.64159086083981
 20
759.42130865269553
 30
0.0
 40
0.125
  1
8
 50
90.0
  0
TEXT
  5
D42E
  8
0
 62
     0
 10
-128.7275674411035
 20
759.51936458721127
 30
0.0
 40
0.125
  1
"
 50
90.0
  0
ENDBLK
  5
D430
  8
0
  0
BLOCK
  8
0
  2
*U146
 70
     1
 10
0.0
 20
0.0
 30
0.0
  3
*U146
  1

  0
TEXT
  5
D432
  8
0
 62
     0
 10
-128.81090077443679
 20
758.67088232254537
 30
0.0
 40
0.125
  1
5
 50
90.0
  0
LINE
  5
D433
  8
0
 62
     0
 10
-128.7900674411035
 20
758.67812993509665
 30
0.0
 11
-128.7900674411035
 21
758.76100851626995
 31
0.0
  0
TEXT
  5
D434
  8
0
 62
     0
 10
-128.6415908608397
 20
758.67130865269553
 30
0.0
 40
0.125
  1
8
 50
90.0
  0
TEXT
  5
D435
  8
0
 62
     0
 10
-128.72756744110339
 20
758.76936458721116
 30
0.0
 40
0.125
  1
"
 50
90.0
  0
ENDBLK
  5
D437
  8
0
  0
BLOCK
  8
0
  2
*U147
 70
     1
 10
0.0
 20
0.0
 30
0.0
  3
*U147
  1

  0
TEXT
  5
D439
  8
0
 62
     0
 10
-129.8158178917657
 20
757.49456719455748
 30
0.0
 40
0.125
  1
1
  0
TEXT
  5
D43A
  8
0
 62
     0
 10
-129.71955254388041
 20
757.57790052789085
 30
0.0
 40
0.125
  1
1
  0
LINE
  5
D43B
  8
0
 62
     0
 10
-129.7186998835802
 20
757.55706719455736
 30
0.0
 11
-129.636332898587
 21
757.55706719455736
 31
0.0
  0
TEXT
  5
D43C
  8
0
 62
     0
 10
-129.72577696407129
 20
757.40859061429364
 30
0.0
 40
0.125
  1
8
  0
TEXT
  5
D43D
  8
0
 62
     0
 10
-129.62797682764571
 20
757.49456719455748
 30
0.0
 40
0.125
  1
"
  0
ENDBLK
  5
D43F
  8
0
  0
BLOCK
  8
0
  2
*U148
 70
     1
 10
0.0
 20
0.0
 30
0.0
  3
*U148
  1

  0
TEXT
  5
D441
  8
0
 62
     0
 10
-129.35900513596761
 20
758.12509637927405
 30
0.0
 40
0.125
  1
5
  0
LINE
  5
D442
  8
0
 62
     0
 10
-129.39392157525819
 20
758.1042630459408
 30
0.0
 11
-129.2267148904015
 21
758.1042630459408
 31
0.0
  0
TEXT
  5
D443
  8
0
 62
     0
 10
-129.41293589995129
 20
757.95578646567697
 30
0.0
 40
0.125
  1
16
  0
TEXT
  5
D444
  8
0
 62
     0
 10
-129.21835881946009
 20
758.04176304594068
 30
0.0
 40
0.125
  1
"
  0
ENDBLK
  5
D446
  8
0
  0
BLOCK
  8
0
  2
*U149
 70
     1
 10
0.0
 20
0.0
 30
0.0
  3
*U149
  1

  0
TEXT
  5
D448
  8
0
 62
     0
 10
-129.7586043856266
 20
758.12407318691385
 30
0.0
 40
0.125
  1
1
  0
LINE
  5
D449
  8
0
 62
     0
 10
-129.7579648904015
 20
758.10323985358048
 30
0.0
 11
-129.67517157525819
 21
758.10323985358048
 31
0.0
  0
TEXT
  5
D44A
  8
0
 62
     0
 10
-129.76308085220231
 20
757.95689492406723
 30
0.0
 40
0.125
  1
2
  0
TEXT
  5
D44B
  8
0
 62
     0
 10
-129.6668155043169
 20
758.04073985358059
 30
0.0
 40
0.125
  1
"
  0
ENDBLK
  5
D44D
  8
0
  0
BLOCK
  8
0
  2
*U150
 70
     1
 10
0.0
 20
0.0
 30
0.0
  3
*U150
  1

  0
TEXT
  5
D44F
  8
0
 62
     0
 10
-130.17150513596761
 20
758.12509637927405
 30
0.0
 40
0.125
  1
5
  0
LINE
  5
D450
  8
0
 62
     0
 10
-130.20642157525819
 20
758.1042630459408
 30
0.0
 11
-130.0392148904015
 21
758.1042630459408
 31
0.0
  0
TEXT
  5
D451
  8
0
 62
     0
 10
-130.22543589995129
 20
757.95578646567697
 30
0.0
 40
0.125
  1
16
  0
TEXT
  5
D452
  8
0
 62
     0
 10
-130.03085881946009
 20
758.04176304594068
 30
0.0
 40
0.125
  1
"
  0
ENDBLK
  5
D454
  8
0
  0
BLOCK
  8
0
  2
*U151
 70
     1
 10
0.0
 20
0.0
 30
0.0
  3
*U151
  1

  0
TEXT
  5
D456
  8
0
 62
     0
 10
-139.42867017641399
 20
569.89897466535012
 30
0.0
 40
0.125
  1
1
 50
90.0
  0
TEXT
  5
D457
  8
0
 62
     0
 10
-139.5120035097473
 20
569.98901559304443
 30
0.0
 40
0.125
  1
3
 50
90.0
  0
LINE
  5
D458
  8
0
 62
     0
 10
-139.49117017641399
 20
569.99609267353549
 30
0.0
 11
-139.49117017641399
 21
570.0784596585288
 31
0.0
  0
TEXT
  5
D459
  8
0
 62
     0
 10
-139.34269359615021
 20
569.98901559304443
 30
0.0
 40
0.125
  1
8
 50
90.0
  0
TEXT
  5
D45A
  8
0
 62
     0
 10
-139.42867017641399
 20
570.08681572947012
 30
0.0
 40
0.125
  1
"
 50
90.0
  0
ENDBLK
  5
D45C
  8
0
  0
BLOCK
  8
0
  2
*U152
 70
     1
 10
0.0
 20
0.0
 30
0.0
  3
*U152
  1

  0
TEXT
  5
D45E
  8
0
 62
     0
 10
-138.3819688763802
 20
571.10146921263913
 30
0.0
 40
0.125
  1
1
  0
LINE
  5
D45F
  8
0
 62
     0
 10
-138.3813293811551
 20
571.08063587930565
 30
0.0
 11
-138.29853606601191
 21
571.08063587930565
 31
0.0
  0
TEXT
  5
D460
  8
0
 62
     0
 10
-138.38644534295591
 20
570.9342909497924
 30
0.0
 40
0.125
  1
2
  0
TEXT
  5
D461
  8
0
 62
     0
 10
-138.2901799950705
 20
571.01813587930565
 30
0.0
 40
0.125
  1
"
  0
ENDBLK
  5
D463
  8
0
  0
BLOCK
  8
0
  2
*U153
 70
     1
 10
0.0
 20
0.0
 30
0.0
  3
*U153
  1

  0
TEXT
  5
D465
  8
0
 10
2.214726223485084
 20
3.7215676944549609
 30
0.0
 40
0.125
  1
Exterior Jamb
  0
TEXT
  5
D466
  8
0
 10
2.2244465509066398
 20
3.5127227649415458
 30
0.0
 40
0.125
  1
TL-2126
  0
TEXT
  5
D467
  8
0
 10
2.209524995654252
 20
3.3022577808578708
 30
0.0
 40
0.125
  1
1-1/4" x 6-5/8"
  0
TEXT
  5
D468
  8
0
 10
2.2206948455860389
 20
3.0917927967741972
 30
0.0
 40
0.125
  1
Spanish Cedar Stock
  0
ENDBLK
  5
D46A
  8
0
  0
BLOCK
  8
0
  2
*U154
 70
     1
 10
0.0
 20
0.0
 30
0.0
  3
*U154
  1

  0
TEXT
  5
D46C
  8
0
 10
-361.26032137802531
 20
566.68982969598449
 30
0.0
 40
0.125
  1
Exterior Jamb
  0
TEXT
  5
D46D
  8
0
 10
-361.25060105060379
 20
566.48098476647124
 30
0.0
 40
0.125
  1
TL-2126
  0
TEXT
  5
D46E
  8
0
 10
-361.26552260585612
 20
566.27051978238751
 30
0.0
 40
0.125
  1
1-1/4" x 6-5/8"
  0
TEXT
  5
D46F
  8
0
 10
-361.25358536165419
 20
566.06005479830378
 30
0.0
 40
0.125
  1
800.66.TAGUE
  0
ENDBLK
  5
D471
  8
0
  0
ENDSEC
  0
SECTION
  2
ENTITIES
  0
INSERT
  5
D21A
  8
0
  2
*U154
 10
0.0
 20
0.0
 30
0.0
  0
LINE
  5
D21B
  8
0
 10
-362.22504804168608
 20
567.59326214656539
 30
0.0
 11
-362.22504804168608
 21
562.96826214656528
 31
0.0
  0
LINE
  5
D21C
  8
0
 10
-362.72504804168608
 20
569.59326214656539
 30
0.0
 11
-362.72504804168608
 21
567.15576214656539
 31
0.0
  0
LINE
  5
D21D
  8
0
 10
-363.47504804168608
 20
562.96826214656528
 30
0.0
 11
-363.47504804168608
 21
569.59326214656539
 31
0.0
  0
LINE
  5
D21E
  8
0
 10
-363.47504804168608
 20
562.96826214656528
 30
0.0
 11
-362.22504804168608
 21
562.96826214656528
 31
0.0
  0
LINE
  5
D21F
  8
0
 10
-362.60004804168608
 20
567.59326214656539
 30
0.0
 11
-362.22504804168608
 21
567.59326214656539
 31
0.0
  0
LINE
  5
D220
  8
0
 10
-362.72504804168608
 20
567.15576214656539
 30
0.0
 11
-362.60004804168608
 21
567.15576214656539
 31
0.0
  0
LINE
  5
D221
  8
0
 10
-362.72504804168608
 20
569.59326214656539
 30
0.0
 11
-363.47504804168608
 21
569.59326214656539
 31
0.0
  0
LINE
  5
D222
  8
0
  6
CONTINUOUS
 10
-362.60004804168608
 20
567.15576214656539
 30
0.0
 11
-362.60004804168608
 21
567.59326214656539
 31
0.0
  0
VIEWPORT
  5
BADA
 67
     1
  8
0
 10
5.8558029163554677
 20
5.686789748338402
 30
0.0
 40
18.86659932927649
 41
12.515773610882921
 68
     2
 69
     1
1001
ACAD
1000
MVIEW
1002
{
1070
    16
1010
0.0
1020
0.0
1030
0.0
1010
0.0
1020
0.0
1030
1.0
1040
0.0
1040
12.515773610882921
1040
5.8558029163554677
1040
5.686789748338402
1040
50.0
1040
0.0
1040
0.0
1070
     0
1070
   100
1070
     1
1070
     1
1070
     0
1070
     0
1070
     0
1070
     0
1040
0.0
1040
0.0
1040
0.0
1040
0.5
1040
0.5
1040
0.5
1040
0.5
1070
     0
1002
{
1002
}
1002
}
  0
VIEWPORT
  5
BADD
 67
     1
  8
0
 10
5.2499996294871929
 20
4.0166741807634683
 30
0.0
 40
10.44245679893058
 41
7.8813805131999892
 68
     1
 69
     2
1001
ACAD
1000
MVIEW
1002
{
1070
    16
1010
0.0
1020
0.0
1030
0.0
1010
0.0
1020
0.0
1030
1.0
1040
0.0
1040
7.8813800775308689
1040
-362.65693192033262
1040
566.25439176805503
1040
50.0
1040
0.0
1040
0.0
1070
     0
1070
   100
1070
     1
1070
     2
1070
     0
1070
     0
1070
     0
1070
     0
1040
0.0
1040
0.0
1040
0.0
1040
0.5
1040
0.5
1040
0.5
1040
0.5
1070
     0
1002
{
1002
}
1002
}
  0
ENDSEC
  0
EOF
