  0
SECTION
  2
HEADER
  9
$ACADVER
  1
AC1009
  9
$INSBASE
 10
0.0
 20
0.0
 30
0.0
  9
$EXTMIN
 10
-388.0615153254812
 20
830.71141642465341
 30
-0.0015258207003583
  9
$EXTMAX
 10
-379.52287259496342
 20
854.92308910391705
 30
0.0000000349246037
  9
$LIMMIN
 10
0.0
 20
0.0
  9
$LIMMAX
 10
1500.0
 20
1500.0
  9
$ORTHOMODE
 70
     0
  9
$REGENMODE
 70
     1
  9
$FILLMODE
 70
     1
  9
$QTEXTMODE
 70
     0
  9
$MIRRTEXT
 70
     1
  9
$DRAGMODE
 70
     2
  9
$LTSCALE
 40
1.0
  9
$OSMODE
 70
    37
  9
$ATTMODE
 70
     1
  9
$TEXTSIZE
 40
1.5
  9
$TRACEWID
 40
0.05
  9
$TEXTSTYLE
  7
STANDARD
  9
$CLAYER
  8
0
  9
$CELTYPE
  6
BYLAYER
  9
$CECOLOR
 62
   256
  9
$DIMSCALE
 40
1.0
  9
$DIMASZ
 40
0.75
  9
$DIMEXO
 40
1.5
  9
$DIMDLI
 40
2.0
  9
$DIMRND
 40
0.0
  9
$DIMDLE
 40
0.0
  9
$DIMEXE
 40
1.0
  9
$DIMTP
 40
0.0
  9
$DIMTM
 40
0.0
  9
$DIMTXT
 40
1.5
  9
$DIMCEN
 40
2.0
  9
$DIMTSZ
 40
0.0
  9
$DIMTOL
 70
     0
  9
$DIMLIM
 70
     0
  9
$DIMTIH
 70
     0
  9
$DIMTOH
 70
     0
  9
$DIMSE1
 70
     0
  9
$DIMSE2
 70
     0
  9
$DIMTAD
 70
     1
  9
$DIMZIN
 70
     0
  9
$DIMBLK
  1
ARCHTICK
  9
$DIMASO
 70
     1
  9
$DIMSHO
 70
     1
  9
$DIMPOST
  1
"
  9
$DIMAPOST
  1

  9
$DIMALT
 70
     0
  9
$DIMALTD
 70
     2
  9
$DIMALTF
 40
25.399999999999999
  9
$DIMLFAC
 40
1.0
  9
$DIMTOFL
 70
     0
  9
$DIMTVP
 40
0.0
  9
$DIMTIX
 70
     1
  9
$DIMSOXD
 70
     0
  9
$DIMSAH
 70
     0
  9
$DIMBLK1
  1

  9
$DIMBLK2
  1

  9
$DIMSTYLE
  2
THREE_QUARTER_INCH_SCALE
  9
$DIMCLRD
 70
     0
  9
$DIMCLRE
 70
     0
  9
$DIMCLRT
 70
     0
  9
$DIMTFAC
 40
1.0
  9
$DIMGAP
 40
1.0
  9
$LUNITS
 70
     2
  9
$LUPREC
 70
     4
  9
$SKETCHINC
 40
0.1
  9
$FILLETRAD
 40
0.0
  9
$AUNITS
 70
     0
  9
$AUPREC
 70
     0
  9
$MENU
  1
.
  9
$ELEVATION
 40
0.0
  9
$PELEVATION
 40
0.0
  9
$THICKNESS
 40
0.0
  9
$LIMCHECK
 70
     0
  9
$BLIPMODE
 70
     0
  9
$CHAMFERA
 40
0.5
  9
$CHAMFERB
 40
0.5
  9
$SKPOLY
 70
     0
  9
$TDCREATE
 40
2452089.395738773
  9
$TDUPDATE
 40
2453607.5309293522
  9
$TDINDWG
 40
1.2102621181
  9
$TDUSRTIMER
 40
1.2102621181
  9
$USRTIMER
 70
     1
  9
$ANGBASE
 50
0.0
  9
$ANGDIR
 70
     0
  9
$PDMODE
 70
     0
  9
$PDSIZE
 40
10.0
  9
$PLINEWID
 40
0.0
  9
$COORDS
 70
     1
  9
$SPLFRAME
 70
     0
  9
$SPLINETYPE
 70
     6
  9
$SPLINESEGS
 70
     8
  9
$ATTDIA
 70
     0
  9
$ATTREQ
 70
     1
  9
$HANDLING
 70
     1
  9
$HANDSEED
  5
1BE66
  9
$SURFTAB1
 70
     6
  9
$SURFTAB2
 70
     6
  9
$SURFTYPE
 70
     6
  9
$SURFU
 70
     6
  9
$SURFV
 70
     6
  9
$UCSNAME
  2

  9
$UCSORG
 10
0.0
 20
0.0
 30
0.0
  9
$UCSXDIR
 10
1.0
 20
0.0
 30
0.0
  9
$UCSYDIR
 10
0.0
 20
1.0
 30
0.0
  9
$PUCSNAME
  2

  9
$PUCSORG
 10
0.0
 20
0.0
 30
0.0
  9
$PUCSXDIR
 10
1.0
 20
0.0
 30
0.0
  9
$PUCSYDIR
 10
0.0
 20
1.0
 30
0.0
  9
$USERI1
 70
     0
  9
$USERI2
 70
     0
  9
$USERI3
 70
     0
  9
$USERI4
 70
     0
  9
$USERI5
 70
     0
  9
$USERR1
 40
0.0
  9
$USERR2
 40
0.0
  9
$USERR3
 40
0.0
  9
$USERR4
 40
0.0
  9
$USERR5
 40
0.0
  9
$WORLDVIEW
 70
     1
  9
$SHADEDGE
 70
     3
  9
$SHADEDIF
 70
    70
  9
$TILEMODE
 70
     0
  9
$MAXACTVP
 70
    64
  9
$PLIMCHECK
 70
     0
  9
$PEXTMIN
 10
0.0287712300219028
 20
0.0759839241634737
 30
0.0
  9
$PEXTMAX
 10
10.47122802895248
 20
7.957364437363462
 30
0.0
  9
$PLIMMIN
 10
-0.2500002402958907
 20
-0.2499999962453767
  9
$PLIMMAX
 10
10.74999951940821
 20
8.2499997634587316
  9
$UNITMODE
 70
     0
  9
$VISRETAIN
 70
     1
  9
$PLINEGEN
 70
     0
  9
$PSLTSCALE
 70
     1
  0
ENDSEC
  0
SECTION
  2
TABLES
  0
TABLE
  2
VPORT
 70
   107
  0
VPORT
  2
*ACTIVE
 70
     0
 10
0.0
 20
0.0
 11
1.0
 21
1.0
 12
-381.9741129214903
 22
844.25551152692162
 13
0.0
 23
0.0
 14
0.5
 24
0.5
 15
0.5
 25
0.5
 16
0.0
 26
0.0
 36
1.0
 17
0.0
 27
0.0
 37
0.0
 40
5.9961537773087912
 41
2.0284090909090899
 42
50.0
 43
0.0
 44
0.0
 50
0.0
 51
0.0
 71
     0
 72
   100
 73
     1
 74
     2
 75
     0
 76
     0
 77
     0
 78
     0
  0
ENDTAB
  0
TABLE
  2
LTYPE
 70
     1
  0
LTYPE
  2
CONTINUOUS
 70
     0
  3
Solid line
 72
    65
 73
     0
 40
0.0
  0
ENDTAB
  0
TABLE
  2
LAYER
 70
    10
  0
LAYER
  2
0
 70
     0
 62
     7
  6
CONTINUOUS
  0
LAYER
  2
DEFPOINTS
 70
     0
 62
     7
  6
CONTINUOUS
  0
LAYER
  2
FRAME_200
 70
     0
 62
     8
  6
CONTINUOUS
  0
LAYER
  2
FRAME_070
 70
     0
 62
     5
  6
CONTINUOUS
  0
LAYER
  2
FRAME_050
 70
     0
 62
     6
  6
CONTINUOUS
  0
LAYER
  2
TITLE_BLOCK
 70
     0
 62
     7
  6
CONTINUOUS
  0
LAYER
  2
FRAME_025
 70
     0
 62
     7
  6
CONTINUOUS
  0
LAYER
  2
VIEWPORT
 70
     0
 62
     7
  6
CONTINUOUS
  0
LAYER
  2
PROF
 70
     0
 62
     7
  6
CONTINUOUS
  0
LAYER
  2
PROFILE
 70
     0
 62
     7
  6
CONTINUOUS
  0
ENDTAB
  0
TABLE
  2
STYLE
 70
     2
  0
STYLE
  2
STANDARD
 70
     0
 40
0.0
 41
1.0
 50
0.0
 71
     0
 42
1.5
  3
txt
  4

  0
STYLE
  2
ISO_PROPORTIONAL
 70
     0
 40
0.0
 41
1.0
 50
0.0
 71
     0
 42
2.5
  3
isocp.shx
  4

  0
ENDTAB
  0
TABLE
  2
VIEW
 70
   112
  0
ENDTAB
  0
TABLE
  2
UCS
 70
     0
  0
ENDTAB
  0
TABLE
  2
APPID
 70
     6
  0
APPID
  2
ACAD
 70
     0
  0
APPID
  2
DCO15
 70
     0
  0
APPID
  2
ACAD_EXEMPT_FROM_CAD_STANDARDS
 70
     0
  0
APPID
  2
ACAD_PSEXT
 70
     0
  0
APPID
  2
CONTENTBLOCKDESCRIPTION
 70
     0
  0
APPID
  2
CONTENTBLOCKICON
 70
     0
  0
ENDTAB
  0
TABLE
  2
DIMSTYLE
 70
     5
  0
DIMSTYLE
  2
FULL_SCALE
 70
     0
  3
"
  4

  5
ARCHTICK
  6

  7

 40
1.0
 41
0.046875
 42
0.09375
 43
0.125
 44
0.0625
 45
0.0
 46
0.0
 47
0.0
 48
0.0
140
0.125
141
0.125
142
0.0
143
25.399999999999999
144
1.0
145
0.0
146
1.0
147
0.0625
 71
     0
 72
     0
 73
     0
 74
     0
 75
     0
 76
     0
 77
     1
 78
     0
170
     0
171
     2
172
     0
173
     0
174
     1
175
     0
176
     0
177
     0
178
     0
  0
DIMSTYLE
  2
HALF_SCALE
 70
     0
  3
"
  4

  5
ARCHTICK
  6

  7

 40
1.0
 41
0.09375
 42
0.1875
 43
0.25
 44
0.125
 45
0.0
 46
0.0
 47
0.0
 48
0.0
140
0.25
141
0.25
142
0.0
143
25.399999999999999
144
1.0
145
0.0
146
1.0
147
0.125
 71
     0
 72
     0
 73
     0
 74
     0
 75
     0
 76
     0
 77
     1
 78
     0
170
     0
171
     2
172
     0
173
     0
174
     1
175
     0
176
     0
177
     0
178
     0
  0
DIMSTYLE
  2
INCH_SCALE
 70
     0
  3
"
  4

  5
ARCHTICK
  6

  7

 40
1.0
 41
0.5625
 42
1.125
 43
1.5
 44
0.75
 45
0.0
 46
0.0
 47
0.0
 48
0.0
140
1.125
141
1.5
142
0.0
143
25.399999999999999
144
1.0
145
0.0
146
1.0
147
0.75
 71
     0
 72
     0
 73
     0
 74
     0
 75
     0
 76
     0
 77
     1
 78
     0
170
     0
171
     2
172
     0
173
     0
174
     1
175
     0
176
     0
177
     0
178
     0
  0
DIMSTYLE
  2
THREE_QUARTER_INCH_SCALE
 70
     0
  3
"
  4

  5
ARCHTICK
  6

  7

 40
1.0
 41
0.75
 42
1.5
 43
2.0
 44
1.0
 45
0.0
 46
0.0
 47
0.0
 48
0.0
140
1.5
141
2.0
142
0.0
143
25.399999999999999
144
1.0
145
0.0
146
1.0
147
1.0
 71
     0
 72
     0
 73
     0
 74
     0
 75
     0
 76
     0
 77
     1
 78
     0
170
     0
171
     2
172
     0
173
     0
174
     1
175
     0
176
     0
177
     0
178
     0
  0
DIMSTYLE
  2
ZHALF_INCH_SCALE
 70
     0
  3
"
  4

  5
ARCHTICK
  6

  7

 40
1.0
 41
1.125
 42
2.25
 43
3.0
 44
1.5
 45
0.0
 46
0.0
 47
0.0
 48
0.0
140
2.25
141
3.0
142
0.0
143
25.399999999999999
144
1.0
145
0.0
146
1.0
147
1.5
 71
     0
 72
     0
 73
     0
 74
     0
 75
     0
 76
     0
 77
     1
 78
     0
170
     0
171
     2
172
     0
173
     0
174
     1
175
     0
176
     0
177
     0
178
     0
  0
ENDTAB
  0
ENDSEC
  0
SECTION
  2
BLOCKS
  0
BLOCK
  8
0
  2
$MODEL_SPACE
 70
     0
 10
0.0
 20
0.0
 30
0.0
  3
$MODEL_SPACE
  1

  0
ENDBLK
  5
21
  8
0
  0
BLOCK
 67
     1
  8
0
  2
$PAPER_SPACE
 70
     0
 10
0.0
 20
0.0
 30
0.0
  3
$PAPER_SPACE
  1

  0
ENDBLK
  5
BAD5
 67
     1
  8
0
  0
BLOCK
  8
0
  2
_ARCHTICK
 70
     0
 10
0.0
 20
0.0
 30
0.0
  3
_ARCHTICK
  1

  0
POLYLINE
  5
158
  8
0
  6
BYBLOCK
 62
     0
 66
     1
 10
0.0
 20
0.0
 30
0.0
 40
0.15
 41
0.15
  0
VERTEX
  5
1B857
  8
0
  6
BYBLOCK
 62
     0
 10
-0.5
 20
-0.5
 30
0.0
  0
VERTEX
  5
1B858
  8
0
  6
BYBLOCK
 62
     0
 10
0.5
 20
0.5
 30
0.0
  0
SEQEND
  5
1B859
  8
0
  6
BYBLOCK
 62
     0
  0
ENDBLK
  5
15A
  8
0
  0
BLOCK
  8
0
  2
_OPEN30
 70
     0
 10
0.0
 20
0.0
 30
0.0
  3
_OPEN30
  1

  0
LINE
  5
15C
  8
0
  6
BYBLOCK
 62
     0
 10
-1.0
 20
0.26794919
 30
0.0
 11
0.0
 21
0.0
 31
0.0
  0
LINE
  5
15D
  8
0
  6
BYBLOCK
 62
     0
 10
0.0
 20
0.0
 30
0.0
 11
-1.0
 21
-0.26794919
 31
0.0
  0
LINE
  5
15E
  8
0
  6
BYBLOCK
 62
     0
 10
0.0
 20
0.0
 30
0.0
 11
-1.0
 21
0.0
 31
0.0
  0
ENDBLK
  5
160
  8
0
  0
BLOCK
  8
0
  2
ISO_A2_TITLE_BLOCK
 70
     2
 10
0.0
 20
0.0
 30
0.0
  3
ISO_A2_TITLE_BLOCK
  1

  0
LINE
  5
BDD
  8
FRAME_050
 10
299.5
 20
12.5
 30
0.0
 11
297.0
 21
7.5
 31
0.0
  0
LINE
  5
BDE
  8
FRAME_050
 10
294.5
 20
12.5
 30
0.0
 11
299.5
 21
12.5
 31
0.0
  0
LINE
  5
BDF
  8
FRAME_050
 10
247.0
 20
5.0
 30
0.0
 11
347.0
 21
5.0
 31
0.0
  0
LINE
  5
BE0
  8
FRAME_070
 10
584.0
 20
410.0
 30
0.0
 11
10.0
 21
410.0
 31
0.0
  0
LINE
  5
BE1
  8
FRAME_070
 10
10.0
 20
10.0
 30
0.0
 11
584.0
 21
10.0
 31
0.0
  0
LINE
  5
BE2
  8
FRAME_050
 10
12.5
 20
207.5
 30
0.0
 11
7.5
 21
210.0
 31
0.0
  0
LINE
  5
BE3
  8
FRAME_050
 10
12.5
 20
212.5
 30
0.0
 11
12.5
 21
207.5
 31
0.0
  0
LINE
  5
BE4
  8
FRAME_070
 10
10.0
 20
410.0
 30
0.0
 11
10.0
 21
10.0
 31
0.0
  0
LINE
  5
BE5
  8
FRAME_200
 10
0.0
 20
0.0
 30
0.0
 11
0.0
 21
10.0
 31
0.0
  0
LINE
  5
BE6
  8
FRAME_200
 10
0.0
 20
0.0
 30
0.0
 11
10.0
 21
0.0
 31
0.0
  0
TEXT
  5
BE7
  8
FRAME_050
 10
5.9000000000000004
 20
35.0
 30
0.0
 40
4.0
  1
H
  7
ISO_PROPORTIONAL
 72
     4
 11
7.5
 21
37.0
 31
0.0
  0
LINE
  5
BE8
  8
FRAME_050
 10
10.0
 20
60.0
 30
0.0
 11
5.0
 21
60.0
 31
0.0
  0
LINE
  5
BE9
  8
FRAME_050
 10
81.75
 20
5.0
 30
0.0
 11
81.75
 21
10.0
 31
0.0
  0
TEXT
  5
BEA
  8
FRAME_050
 10
44.874999999999993
 20
5.5
 30
0.0
 40
4.0
  1
1
  7
ISO_PROPORTIONAL
 72
     4
 11
45.875
 21
7.5
 31
0.0
  0
TEXT
  5
BEB
  8
FRAME_050
 10
6.0035533905932743
 20
85.0
 30
0.0
 40
4.0
  1
G
  7
ISO_PROPORTIONAL
 72
     4
 11
7.5
 21
87.0
 31
0.0
  0
LINE
  5
BEC
  8
FRAME_050
 10
10.0
 20
110.0
 30
0.0
 11
5.0
 21
110.0
 31
0.0
  0
TEXT
  5
BED
  8
FRAME_050
 10
6.0999999999999988
 20
135.0
 30
0.0
 40
4.0
  1
F
  7
ISO_PROPORTIONAL
 72
     4
 11
7.5
 21
137.0
 31
0.0
  0
LINE
  5
BEE
  8
FRAME_050
 10
10.0
 20
160.0
 30
0.0
 11
5.0
 21
160.0
 31
0.0
  0
TEXT
  5
BEF
  8
FRAME_050
 10
6.0999999999999988
 20
185.0
 30
0.0
 40
4.0
  1
E
  7
ISO_PROPORTIONAL
 72
     4
 11
7.5
 21
187.0
 31
0.0
  0
LINE
  5
BF0
  8
FRAME_050
 10
153.5
 20
5.0
 30
0.0
 11
153.5
 21
10.0
 31
0.0
  0
TEXT
  5
BF1
  8
FRAME_050
 10
116.1556692913386
 20
5.3996062992125982
 30
0.0
 40
4.0
  1
2
  7
ISO_PROPORTIONAL
 72
     4
 11
117.625
 21
7.5
 31
0.0
  0
TEXT
  5
BF2
  8
FRAME_050
 10
187.89215728752529
 20
5.5828427124746138
 30
0.0
 40
4.0
  1
3
  7
ISO_PROPORTIONAL
 72
     4
 11
189.375
 21
7.5
 31
0.0
  0
LINE
  5
BF3
  8
FRAME_050
 10
225.25
 20
5.0
 30
0.0
 11
225.25
 21
10.0
 31
0.0
  0
LINE
  5
BF4
  8
FRAME_050
 10
297.0
 20
7.5
 30
0.0
 11
294.5
 21
12.5
 31
0.0
  0
LINE
  5
BF5
  8
FRAME_050
 10
287.0
 20
5.0
 30
0.0
 11
287.0
 21
10.0
 31
0.0
  0
LINE
  5
BF6
  8
FRAME_050
 10
277.0
 20
5.0
 30
0.0
 11
277.0
 21
10.0
 31
0.0
  0
LINE
  5
BF7
  8
FRAME_050
 10
267.0
 20
5.0
 30
0.0
 11
267.0
 21
10.0
 31
0.0
  0
LINE
  5
BF8
  8
FRAME_050
 10
257.0
 20
5.0
 30
0.0
 11
257.0
 21
10.0
 31
0.0
  0
LINE
  5
BF9
  8
FRAME_050
 10
247.0
 20
5.0
 30
0.0
 11
247.0
 21
10.0
 31
0.0
  0
LINE
  5
BFA
  8
FRAME_050
 10
297.0
 20
10.0
 30
0.0
 11
297.0
 21
5.0
 31
0.0
  0
LINE
  5
BFB
  8
FRAME_050
 10
297.0
 20
10.0
 30
0.0
 11
297.0
 21
15.0
 31
0.0
  0
LINE
  5
BFC
  8
FRAME_050
 10
5.0
 20
210.0
 30
0.0
 11
15.0
 21
210.0
 31
0.0
  0
LINE
  5
BFD
  8
FRAME_050
 10
7.5
 20
210.0
 30
0.0
 11
12.5
 21
212.5
 31
0.0
  0
TEXT
  5
BFE
  8
FRAME_050
 10
5.7860912703473977
 20
235.0
 30
0.0
 40
4.0
  1
D
  7
ISO_PROPORTIONAL
 72
     4
 11
7.5
 21
237.0
 31
0.0
  0
LINE
  5
BFF
  8
FRAME_050
 10
10.0
 20
260.0
 30
0.0
 11
5.0
 21
260.0
 31
0.0
  0
TEXT
  5
C00
  8
FRAME_050
 10
6.1931980515339466
 20
285.0
 30
0.0
 40
4.0
  1
C
  7
ISO_PROPORTIONAL
 72
     4
 11
7.5
 21
287.0
 31
0.0
  0
LINE
  5
C01
  8
FRAME_050
 10
10.0
 20
310.0
 30
0.0
 11
5.0
 21
310.0
 31
0.0
  0
TEXT
  5
C02
  8
FRAME_050
 10
5.8999999999999959
 20
335.0
 30
0.0
 40
4.0
  1
B
  7
ISO_PROPORTIONAL
 72
     4
 11
7.5
 21
337.0
 31
0.0
  0
LINE
  5
C03
  8
FRAME_050
 10
10.0
 20
360.0
 30
0.0
 11
5.0
 21
360.0
 31
0.0
  0
TEXT
  5
C04
  8
FRAME_050
 10
5.6999999999999993
 20
385.0
 30
0.0
 40
4.0
  1
A
  7
ISO_PROPORTIONAL
 72
     4
 11
7.5
 21
387.0
 31
0.0
  0
LINE
  5
C05
  8
FRAME_200
 10
10.0
 20
420.0
 30
0.0
 11
0.0
 21
420.0
 31
0.0
  0
LINE
  5
C06
  8
FRAME_200
 10
0.0
 20
420.0
 30
0.0
 11
0.0
 21
410.0
 31
0.0
  0
TEXT
  5
C07
  8
FRAME_050
 10
44.874999999999993
 20
410.5
 30
0.0
 40
4.0
  1
1
  7
ISO_PROPORTIONAL
 72
     4
 11
45.875
 21
412.5
 31
0.0
  0
LINE
  5
C08
  8
FRAME_050
 10
81.75
 20
410.0
 30
0.0
 11
81.75
 21
415.0
 31
0.0
  0
TEXT
  5
C09
  8
FRAME_050
 10
116.1556692913386
 20
410.39960629921262
 30
0.0
 40
4.0
  1
2
  7
ISO_PROPORTIONAL
 72
     4
 11
117.625
 21
412.5
 31
0.0
  0
LINE
  5
C0A
  8
FRAME_050
 10
153.5
 20
410.0
 30
0.0
 11
153.5
 21
415.0
 31
0.0
  0
TEXT
  5
C0B
  8
FRAME_050
 10
187.89215728752529
 20
410.58284271247459
 30
0.0
 40
4.0
  1
3
  7
ISO_PROPORTIONAL
 72
     4
 11
189.375
 21
412.5
 31
0.0
  0
LINE
  5
C0C
  8
FRAME_050
 10
297.0
 20
405.0
 30
0.0
 11
297.0
 21
415.0
 31
0.0
  0
LINE
  5
C0D
  8
FRAME_050
 10
225.25
 20
410.0
 30
0.0
 11
225.25
 21
415.0
 31
0.0
  0
TEXT
  5
C0E
  8
FRAME_050
 10
259.52499999999998
 20
410.5
 30
0.0
 40
4.0
  1
4
  7
ISO_PROPORTIONAL
 72
     4
 11
261.125
 21
412.5
 31
0.0
  0
LINE
  5
C0F
  8
FRAME_070
 10
584.0
 20
10.0
 30
0.0
 11
584.0
 21
410.0
 31
0.0
  0
ATTDEF
  5
C10
  8
FRAME_025
 10
473.0
 20
31.75
 30
0.0
 40
2.5
  1
XXX - 00/00/00
  7
ISO_PROPORTIONAL
 11
473.0
 21
33.0
 31
0.0
  3
Approved by - Date
  2
APPROVED_BY_DATE
 70
     8
 74
     2
  0
TEXT
  5
C11
  8
FRAME_025
 10
448.0
 20
41.749999999999993
 30
0.0
 40
2.5
  1
Title/Name, designation, material, dimension etc
  7
ISO_PROPORTIONAL
 11
448.0
 21
43.0
 31
0.0
 73
     2
  0
TEXT
  5
C12
  8
FRAME_025
 10
473.0
 20
35.75
 30
0.0
 40
2.5
  1
Approved by - date
  7
ISO_PROPORTIONAL
 11
473.0
 21
37.0
 31
0.0
 73
     2
  0
LINE
  5
C13
  8
FRAME_070
 10
414.0
 20
46.0
 30
0.0
 11
584.0
 21
46.0
 31
0.0
  0
LINE
  5
C14
  8
FRAME_070
 10
414.0
 20
40.0
 30
0.0
 11
584.0
 21
40.0
 31
0.0
  0
LINE
  5
C15
  8
FRAME_070
 10
414.0
 20
30.0
 30
0.0
 11
584.0
 21
30.0
 31
0.0
  0
LINE
  5
C16
  8
FRAME_050
 10
368.75
 20
5.0
 30
0.0
 11
368.75
 21
10.0
 31
0.0
  0
LINE
  5
C17
  8
FRAME_050
 10
337.0
 20
5.0
 30
0.0
 11
337.0
 21
10.0
 31
0.0
  0
LINE
  5
C18
  8
FRAME_050
 10
327.0
 20
5.0
 30
0.0
 11
327.0
 21
10.0
 31
0.0
  0
LINE
  5
C19
  8
FRAME_050
 10
317.0
 20
5.0
 30
0.0
 11
317.0
 21
10.0
 31
0.0
  0
LINE
  5
C1A
  8
FRAME_050
 10
307.0
 20
5.0
 30
0.0
 11
307.0
 21
10.0
 31
0.0
  0
LINE
  5
C1B
  8
FRAME_050
 10
347.0
 20
5.0
 30
0.0
 11
347.0
 21
10.0
 31
0.0
  0
LINE
  5
C1C
  8
FRAME_050
 10
440.5
 20
5.0
 30
0.0
 11
440.5
 21
10.0
 31
0.0
  0
TEXT
  5
C1D
  8
FRAME_050
 10
403.24547244094481
 20
5.4102362204724406
 30
0.0
 40
4.0
  1
6
  7
ISO_PROPORTIONAL
 72
     4
 11
404.62499999999989
 21
7.5
 31
0.0
  0
TEXT
  5
C1E
  8
FRAME_050
 10
474.97500000000002
 20
5.5
 30
0.0
 40
4.0
  1
7
  7
ISO_PROPORTIONAL
 72
     4
 11
476.37499999999989
 21
7.5
 31
0.0
  0
TEXT
  5
C1F
  8
FRAME_025
 10
431.0
 20
41.749999999999993
 30
0.0
 40
2.5
  1
Quantity
  7
ISO_PROPORTIONAL
 11
431.0
 21
43.0
 31
0.0
 73
     2
  0
TEXT
  5
C20
  8
FRAME_025
 10
416.0
 20
41.749999999999993
 30
0.0
 40
2.5
  1
Itemref
  7
ISO_PROPORTIONAL
 11
416.0
 21
43.0
 31
0.0
 73
     2
  0
LINE
  5
C21
  8
FRAME_070
 10
414.0
 20
40.0
 30
0.0
 11
414.0
 21
46.0
 31
0.0
  0
LINE
  5
C22
  8
FRAME_070
 10
429.0
 20
40.0
 30
0.0
 11
429.0
 21
46.0
 31
0.0
  0
LINE
  5
C23
  8
FRAME_070
 10
414.0
 20
10.0
 30
0.0
 11
414.0
 21
40.0
 31
0.0
  0
ATTDEF
  5
C24
  8
FRAME_025
 10
416.0
 20
31.75
 30
0.0
 40
2.5
  1
XXX
  7
ISO_PROPORTIONAL
 11
416.0
 21
33.0
 31
0.0
  3
Designed by
  2
DESIGNED_BY
 70
     8
 74
     2
  0
TEXT
  5
C25
  8
FRAME_025
 10
416.0
 20
35.75
 30
0.0
 40
2.5
  1
Designed by
  7
ISO_PROPORTIONAL
 11
416.0
 21
37.0
 31
0.0
 73
     2
  0
LINE
  5
C26
  8
FRAME_070
 10
446.0
 20
40.0
 30
0.0
 11
446.0
 21
46.0
 31
0.0
  0
ATTDEF
  5
C27
  8
FRAME_025
 10
448.0
 20
31.75
 30
0.0
 40
2.5
  1
XXX
  7
ISO_PROPORTIONAL
 11
448.0
 21
33.0
 31
0.0
  3
Checked by
  2
CHECKED_BY
 70
     8
 74
     2
  0
TEXT
  5
C28
  8
FRAME_025
 10
448.0
 20
35.75
 30
0.0
 40
2.5
  1
Checked by
  7
ISO_PROPORTIONAL
 11
448.0
 21
37.0
 31
0.0
 73
     2
  0
ATTDEF
  5
C29
  8
FRAME_050
 10
444.74999999999989
 20
17.5
 30
0.0
 40
5.0
  1
XXX
  7
ISO_PROPORTIONAL
 72
     4
 11
451.49999999999989
 21
20.0
 31
0.0
  3
Owner
  2
OWNER
 70
     8
  0
LINE
  5
C2A
  8
FRAME_070
 10
446.0
 20
30.0
 30
0.0
 11
446.0
 21
40.0
 31
0.0
  0
LINE
  5
C2B
  8
FRAME_070
 10
471.0
 20
30.0
 30
0.0
 11
471.0
 21
40.0
 31
0.0
  0
LINE
  5
C2C
  8
FRAME_070
 10
489.0
 20
20.0
 30
0.0
 11
584.0
 21
20.0
 31
0.0
  0
LINE
  5
C2D
  8
FRAME_050
 10
512.25
 20
5.0
 30
0.0
 11
512.25
 21
10.0
 31
0.0
  0
TEXT
  5
C2E
  8
FRAME_050
 10
546.72499999999991
 20
5.5
 30
0.0
 40
4.0
  1
8
  7
ISO_PROPORTIONAL
 72
     4
 11
548.125
 21
7.5
 31
0.0
  0
ATTDEF
  5
C2F
  8
FRAME_050
 10
517.64999999999986
 20
13.5
 30
0.0
 40
3.0
  1
X
  7
ISO_PROPORTIONAL
 72
     4
 11
519.0
 21
15.0
 31
0.0
  3
Drawing number
  2
DRAWING_NUMBER
 70
     8
  0
ATTDEF
  5
C30
  8
FRAME_050
 10
529.75
 20
22.5
 30
0.0
 40
5.0
  1
XXX
  7
ISO_PROPORTIONAL
 72
     4
 11
536.5
 21
25.0
 31
0.0
  3
Title / Name
  2
TITLE
 70
     8
  0
LINE
  5
C31
  8
FRAME_070
 10
489.0
 20
10.0
 30
0.0
 11
489.0
 21
30.0
 31
0.0
  0
ATTDEF
  5
C32
  8
FRAME_025
 10
511.0
 20
31.75
 30
0.0
 40
2.5
  1
XXX
  7
ISO_PROPORTIONAL
 11
511.0
 21
33.0
 31
0.0
  3
Filename
  2
FILENAME
 70
     8
 74
     2
  0
TEXT
  5
C33
  8
FRAME_025
 10
511.0
 20
35.75
 30
0.0
 40
2.5
  1
Filename
  7
ISO_PROPORTIONAL
 11
511.0
 21
37.0
 31
0.0
 73
     2
  0
LINE
  5
C34
  8
FRAME_070
 10
509.0
 20
30.0
 30
0.0
 11
509.0
 21
40.0
 31
0.0
  0
TEXT
  5
C35
  8
FRAME_025
 10
536.0
 20
41.749999999999993
 30
0.0
 40
2.5
  1
Article No./Reference
  7
ISO_PROPORTIONAL
 11
536.0
 21
43.0
 31
0.0
 73
     2
  0
LINE
  5
C36
  8
FRAME_070
 10
534.0
 20
40.0
 30
0.0
 11
534.0
 21
46.0
 31
0.0
  0
ATTDEF
  5
C37
  8
FRAME_025
 10
551.0
 20
11.75
 30
0.0
 40
2.5
  1
0
  7
ISO_PROPORTIONAL
 11
551.0
 21
13.0
 31
0.0
  3
Edition
  2
EDITION
 70
     8
 74
     2
  0
TEXT
  5
C38
  8
FRAME_025
 10
551.0
 20
15.75
 30
0.0
 40
2.5
  1
Edition
  7
ISO_PROPORTIONAL
 11
551.0
 21
17.0
 31
0.0
 73
     2
  0
LINE
  5
C39
  8
FRAME_070
 10
549.0
 20
10.0
 30
0.0
 11
549.0
 21
20.0
 31
0.0
  0
ATTDEF
  5
C3A
  8
FRAME_025
 10
536.0
 20
31.75
 30
0.0
 40
2.5
  1
00/00/00
  7
ISO_PROPORTIONAL
 11
536.0
 21
33.0
 31
0.0
  3
Date
  2
DATE
 70
     8
 74
     2
  0
TEXT
  5
C3B
  8
FRAME_025
 10
536.0
 20
35.75
 30
0.0
 40
2.5
  1
Date
  7
ISO_PROPORTIONAL
 11
536.0
 21
37.0
 31
0.0
 73
     2
  0
LINE
  5
C3C
  8
FRAME_070
 10
534.0
 20
30.0
 30
0.0
 11
534.0
 21
40.0
 31
0.0
  0
ATTDEF
  5
C3D
  8
FRAME_025
 10
566.0
 20
11.75
 30
0.0
 40
2.5
  1
1/1
  7
ISO_PROPORTIONAL
 11
566.0
 21
13.0
 31
0.0
  3
Sheet
  2
SHEET
 70
     8
 74
     2
  0
TEXT
  5
C3E
  8
FRAME_025
 10
566.0
 20
15.75
 30
0.0
 40
2.5
  1
Sheet
  7
ISO_PROPORTIONAL
 11
566.0
 21
17.0
 31
0.0
 73
     2
  0
LINE
  5
C3F
  8
FRAME_070
 10
564.0
 20
10.0
 30
0.0
 11
564.0
 21
20.0
 31
0.0
  0
ATTDEF
  5
C40
  8
FRAME_025
 10
566.0
 20
31.75
 30
0.0
 40
2.5
  1
1:1
  7
ISO_PROPORTIONAL
 11
566.0
 21
33.0
 31
0.0
  3
Scale
  2
SCALE
 70
     8
 74
     2
  0
TEXT
  5
C41
  8
FRAME_025
 10
566.0
 20
35.75
 30
0.0
 40
2.5
  1
Scale
  7
ISO_PROPORTIONAL
 11
566.0
 21
37.0
 31
0.0
 73
     2
  0
LINE
  5
C42
  8
FRAME_070
 10
564.0
 20
30.0
 30
0.0
 11
564.0
 21
40.0
 31
0.0
  0
LINE
  5
C43
  8
FRAME_200
 10
594.0
 20
0.0
 30
0.0
 11
594.0
 21
10.0
 31
0.0
  0
LINE
  5
C44
  8
FRAME_200
 10
594.0
 20
0.0
 30
0.0
 11
584.0
 21
0.0
 31
0.0
  0
TEXT
  5
C45
  8
FRAME_050
 10
584.89999999999998
 20
35.0
 30
0.0
 40
4.0
  1
H
  7
ISO_PROPORTIONAL
 72
     4
 11
586.5
 21
37.0
 31
0.0
  0
LINE
  5
C46
  8
FRAME_050
 10
589.0
 20
60.0
 30
0.0
 11
584.0
 21
60.0
 31
0.0
  0
TEXT
  5
C47
  8
FRAME_050
 10
585.0035533905932
 20
85.0
 30
0.0
 40
4.0
  1
G
  7
ISO_PROPORTIONAL
 72
     4
 11
586.5
 21
87.0
 31
0.0
  0
LINE
  5
C48
  8
FRAME_050
 10
589.0
 20
110.0
 30
0.0
 11
584.0
 21
110.0
 31
0.0
  0
TEXT
  5
C49
  8
FRAME_050
 10
585.09999999999991
 20
135.0
 30
0.0
 40
4.0
  1
F
  7
ISO_PROPORTIONAL
 72
     4
 11
586.5
 21
137.0
 31
0.0
  0
LINE
  5
C4A
  8
FRAME_050
 10
589.0
 20
160.0
 30
0.0
 11
584.0
 21
160.0
 31
0.0
  0
TEXT
  5
C4B
  8
FRAME_050
 10
585.09999999999991
 20
185.0
 30
0.0
 40
4.0
  1
E
  7
ISO_PROPORTIONAL
 72
     4
 11
586.5
 21
187.0
 31
0.0
  0
LINE
  5
C4C
  8
FRAME_070
 10
414.0
 20
404.0
 30
0.0
 11
584.0
 21
404.0
 31
0.0
  0
TEXT
  5
C4D
  8
FRAME_050
 10
331.39215728752538
 20
410.58284271247459
 30
0.0
 40
4.0
  1
5
  7
ISO_PROPORTIONAL
 72
     4
 11
332.875
 21
412.5
 31
0.0
  0
LINE
  5
C4E
  8
FRAME_050
 10
368.75
 20
410.0
 30
0.0
 11
368.75
 21
415.0
 31
0.0
  0
TEXT
  5
C4F
  8
FRAME_025
 10
428.0
 20
405.75
 30
0.0
 40
2.5
  1
Revision note
  7
ISO_PROPORTIONAL
 11
428.0
 21
407.0
 31
0.0
 73
     2
  0
TEXT
  5
C50
  8
FRAME_025
 10
416.0
 20
405.75
 30
0.0
 40
2.5
  1
RevNo
  7
ISO_PROPORTIONAL
 11
416.0
 21
407.0
 31
0.0
 73
     2
  0
LINE
  5
C51
  8
FRAME_070
 10
426.0
 20
404.0
 30
0.0
 11
426.0
 21
410.0
 31
0.0
  0
LINE
  5
C52
  8
FRAME_070
 10
414.0
 20
404.0
 30
0.0
 11
414.0
 21
410.0
 31
0.0
  0
TEXT
  5
C53
  8
FRAME_050
 10
403.24547244094481
 20
410.41023622047243
 30
0.0
 40
4.0
  1
6
  7
ISO_PROPORTIONAL
 72
     4
 11
404.62499999999989
 21
412.5
 31
0.0
  0
LINE
  5
C54
  8
FRAME_050
 10
440.5
 20
410.0
 30
0.0
 11
440.5
 21
415.0
 31
0.0
  0
TEXT
  5
C55
  8
FRAME_050
 10
474.97500000000002
 20
410.5
 30
0.0
 40
4.0
  1
7
  7
ISO_PROPORTIONAL
 72
     4
 11
476.37499999999989
 21
412.5
 31
0.0
  0
LINE
  5
C56
  8
FRAME_050
 10
579.0
 20
210.0
 30
0.0
 11
589.0
 21
210.0
 31
0.0
  0
TEXT
  5
C57
  8
FRAME_050
 10
584.78609127034736
 20
235.0
 30
0.0
 40
4.0
  1
D
  7
ISO_PROPORTIONAL
 72
     4
 11
586.5
 21
237.0
 31
0.0
  0
LINE
  5
C58
  8
FRAME_050
 10
589.0
 20
260.0
 30
0.0
 11
584.0
 21
260.0
 31
0.0
  0
TEXT
  5
C59
  8
FRAME_050
 10
585.19319805153395
 20
285.0
 30
0.0
 40
4.0
  1
C
  7
ISO_PROPORTIONAL
 72
     4
 11
586.5
 21
287.0
 31
0.0
  0
LINE
  5
C5A
  8
FRAME_050
 10
589.0
 20
310.0
 30
0.0
 11
584.0
 21
310.0
 31
0.0
  0
TEXT
  5
C5B
  8
FRAME_050
 10
584.89999999999998
 20
335.0
 30
0.0
 40
4.0
  1
B
  7
ISO_PROPORTIONAL
 72
     4
 11
586.5
 21
337.0
 31
0.0
  0
TEXT
  5
C5C
  8
FRAME_025
 10
571.08299391850551
 20
405.75
 30
0.0
 40
2.5
  1
Checked
  7
ISO_PROPORTIONAL
 11
571.08299391850551
 21
407.0
 31
0.0
 73
     2
  0
TEXT
  5
C5D
  8
FRAME_025
 10
555.36099797283532
 20
405.75
 30
0.0
 40
2.5
  1
Signature
  7
ISO_PROPORTIONAL
 11
555.36099797283532
 21
407.0
 31
0.0
 73
     2
  0
TEXT
  5
C5E
  8
FRAME_025
 10
537.0
 20
405.75
 30
0.0
 40
2.5
  1
Date
  7
ISO_PROPORTIONAL
 11
537.0
 21
407.0
 31
0.0
 73
     2
  0
LINE
  5
C5F
  8
FRAME_070
 10
570.0
 20
404.0
 30
0.0
 11
570.0
 21
410.0
 31
0.0
  0
LINE
  5
C60
  8
FRAME_070
 10
555.0
 20
404.0
 30
0.0
 11
555.0
 21
410.0
 31
0.0
  0
LINE
  5
C61
  8
FRAME_070
 10
535.0
 20
404.0
 30
0.0
 11
535.0
 21
410.0
 31
0.0
  0
LINE
  5
C62
  8
FRAME_050
 10
512.25
 20
410.0
 30
0.0
 11
512.25
 21
415.0
 31
0.0
  0
TEXT
  5
C63
  8
FRAME_050
 10
546.72499999999991
 20
410.5
 30
0.0
 40
4.0
  1
8
  7
ISO_PROPORTIONAL
 72
     4
 11
548.125
 21
412.5
 31
0.0
  0
LINE
  5
C64
  8
FRAME_050
 10
589.0
 20
360.0
 30
0.0
 11
584.0
 21
360.0
 31
0.0
  0
TEXT
  5
C65
  8
FRAME_050
 10
584.70000000000005
 20
385.0
 30
0.0
 40
4.0
  1
A
  7
ISO_PROPORTIONAL
 72
     4
 11
586.5
 21
387.0
 31
0.0
  0
LINE
  5
C66
  8
FRAME_200
 10
594.0
 20
420.0
 30
0.0
 11
584.0
 21
420.0
 31
0.0
  0
LINE
  5
C67
  8
FRAME_200
 10
594.0
 20
410.0
 30
0.0
 11
594.0
 21
420.0
 31
0.0
  0
ENDBLK
  5
C69
  8
0
  0
BLOCK
  8
0
  2
WOBB001END
 70
     0
 10
0.0
 20
0.0
 30
0.0
  3
WOBB001END
  1

  0
LINE
  5
4D66
  8
0
  6
CONTINUOUS
 10
0.0
 20
0.0
 30
0.0
 11
0.8749999999999998
 21
0.0
 31
0.0
  0
ARC
  5
4D67
  8
0
  6
CONTINUOUS
 10
0.0331648379439287
 20
-0.5087238935900232
 30
0.0
 40
0.8790130605592325
 50
284.06490243660443
 51
312.19222981924361
  0
ARC
  5
4D68
  8
0
  6
CONTINUOUS
 10
0.2841534338796767
 20
-1.510548310625538
 30
0.0
 40
0.1537731892806598
 50
104.0649024366044
 51
179.4721730735024
  0
LINE
  5
4D69
  8
0
  6
CONTINUOUS
 10
0.0
 20
0.0
 30
0.0
 11
-0.0000000000000003
 21
-1.7501564476661919
 31
0.0
  0
ARC
  5
4D6A
  8
0
  6
CONTINUOUS
 10
0.1404622019506122
 20
-1.6303137183546199
 30
0.0
 40
0.1198427293115722
 50
275.0
 51
85.000000000000057
  0
LINE
  5
4D6B
  8
0
  6
CONTINUOUS
 10
-0.0000000000000003
 20
-1.7501564476661919
 30
0.0
 11
0.1456946485130855
 21
-1.7501564476661919
 31
0.0
  0
LINE
  5
4D6C
  8
0
  6
CONTINUOUS
 10
0.1377603739254348
 20
-1.7508506067459131
 30
0.0
 11
0.150907184036669
 21
-1.749700409899652
 31
0.0
  0
LINE
  5
4D6D
  8
0
  6
CONTINUOUS
 10
0.1303867696719884
 20
-1.5091317231818231
 30
0.0
 11
0.1509071840366689
 21
-1.5109270268095869
 31
0.0
  0
LINE
  5
4D6E
  8
0
  6
CONTINUOUS
 10
0.8749999999999998
 20
0.0
 30
0.0
 11
0.8749999999999996
 21
-0.8649327026588228
 31
0.0
  0
LINE
  5
4D6F
  8
0
  6
CONTINUOUS
 10
0.727014513830997
 20
-0.8726882933550612
 30
0.0
 11
0.727014513830997
 21
-0.9264923397184784
 31
0.0
  0
ARC
  5
4D70
  8
0
  6
CONTINUOUS
 10
0.41187090827646
 20
-0.9264923397184784
 30
0.0
 40
0.315143605554537
 50
312.19222981924361
 51
0.0
  0
LINE
  5
4D71
  8
0
  6
CONTINUOUS
 10
0.727014513830997
 20
-0.8726882933550612
 30
0.0
 11
0.8749999999999996
 21
-0.8649327026588228
 31
0.0
  0
ENDBLK
  5
4D72
  8
0
  0
BLOCK
  8
0
  2
A$C0A61123B
 70
     0
 10
0.0
 20
0.0
 30
0.0
  3
A$C0A61123B
  1

  0
LINE
  5
C0AD
  8
PROF
  6
CONTINUOUS
 10
4.9012016798694162
 20
13.325025853350891
 30
0.0000000000000002
 11
4.9012016798694162
 21
12.88585218805485
 31
0.0000000000000003
  0
INSERT
  5
C0AE
  8
0
  2
*U102
 10
0.0
 20
0.0
 30
0.0
  0
LINE
  5
C0AF
  8
PROF
 10
4.5198575031869259
 20
12.72227734589444
 30
0.0000000000000001
 11
4.5198575031869259
 21
12.88585218805485
 31
0.0000000000000001
  0
LINE
  5
C0B0
  8
PROF
  6
CONTINUOUS
 10
3.6306271195888371
 20
13.325025853350891
 30
0.0000000000000002
 11
4.9012016798694162
 21
13.325025853350891
 31
0.0000000000000002
  0
LINE
  5
C0B1
  8
PROF
 10
1.9750295148747341
 20
10.37671325491794
 30
0.0000000000000002
 11
1.9750295148747341
 21
10.11391186758919
 31
0.0000000000000002
  0
LINE
  5
C0B2
  8
PROF
 10
1.607967335755631
 20
10.11391186758919
 30
0.0000000000000001
 11
1.9750295148747341
 21
10.11391186758919
 31
0.0000000000000001
  0
LINE
  5
C0B3
  8
PROF
 10
1.9750295148747341
 20
10.11391186758919
 30
0.0000000000000001
 11
1.944958486898144
 21
10.11391186758919
 31
0.0000000000000001
  0
LINE
  5
C0B4
  8
PROF
 10
1.9750295148747341
 20
10.11391186758919
 30
0.0000000000000001
 11
1.944958486898144
 21
10.11391186758919
 31
0.0000000000000001
  0
LINE
  5
C0B5
  8
PROF
 10
0.3222605517169654
 20
7.5247473351056442
 30
-0.0000000000000002
 11
-0.0000008570117416
 21
7.5247473351056442
 31
0.0
  0
LINE
  5
C0B6
  8
PROF
 10
-0.0000008570117416
 20
7.5247473351056442
 30
0.0
 11
-0.0000008570117416
 21
9.1943336957369866
 31
0.0
  0
POLYLINE
  5
C0B7
  8
PROF
 66
     1
 10
0.0
 20
0.0
 30
0.0000000000000001
 70
     4
 75
     6
  0
VERTEX
  5
C0B8
  8
PROF
 10
1.607967335755631
 20
10.11391186758919
 30
0.0000000000000001
 70
    16
  0
VERTEX
  5
C0B9
  8
PROF
 10
1.607967335755631
 20
10.11391186758919
 30
0.0000000000000001
 70
     8
  0
VERTEX
  5
C0BA
  8
PROF
 10
1.646813232648582
 20
10.02198069336111
 30
0.0000000000000001
 70
     8
  0
VERTEX
  5
C0BB
  8
PROF
 10
1.67335966680929
 20
9.9344134163010267
 30
0.0000000000000001
 70
     8
  0
VERTEX
  5
C0BC
  8
PROF
 10
1.689008640046324
 20
9.8512576644480987
 30
0.0000000000000001
 70
     8
  0
VERTEX
  5
C0BD
  8
PROF
 10
1.695162154168258
 20
9.7725610658417281
 30
0.0000000000000001
 70
     8
  0
VERTEX
  5
C0BE
  8
PROF
 10
1.6932222109836059
 20
9.6983712485214255
 30
0.0000000000000001
 70
     8
  0
VERTEX
  5
C0BF
  8
PROF
 10
1.6845908123009961
 20
9.6287358405263603
 30
0.0000000000000001
 70
     8
  0
VERTEX
  5
C0C0
  8
PROF
 10
1.6706699599288859
 20
9.5637024698960431
 30
0.0000000000000001
 70
     8
  0
VERTEX
  5
C0C1
  8
PROF
 10
1.6528616556759621
 20
9.503318764669757
 30
0.0000000000000001
 70
     8
  0
VERTEX
  5
C0C2
  8
PROF
 10
1.6323562992730549
 20
9.4475843259650674
 30
0.0000000000000001
 70
     8
  0
VERTEX
  5
C0C3
  8
PROF
 10
1.609497882140658
 20
9.3963066472123273
 30
0.0000000000000001
 70
     8
  0
VERTEX
  5
C0C4
  8
PROF
 10
1.584418793621637
 20
9.3492451949202842
 30
0.0000000000000001
 70
     8
  0
VERTEX
  5
C0C5
  8
PROF
 10
1.557251423058744
 20
9.3061594355972375
 30
0.0000000000000001
 70
     8
  0
VERTEX
  5
C0C6
  8
PROF
 10
1.5281281597949601
 20
9.2668088357519292
 30
0.0000000000000001
 70
     8
  0
VERTEX
  5
C0C7
  8
PROF
 10
1.4971813931729789
 20
9.2309528618930017
 30
0.0000000000000001
 70
     8
  0
VERTEX
  5
C0C8
  8
PROF
 10
1.464543512535726
 20
9.1983509805288577
 30
0.0000000000000001
 70
     8
  0
VERTEX
  5
C0C9
  8
PROF
 10
1.4303469072260091
 20
9.1687626581682462
 30
0.0000000000000001
 70
     8
  0
VERTEX
  5
C0CA
  8
PROF
 10
1.3947360332574019
 20
9.1419547918675335
 30
0.0000000000000001
 70
     8
  0
VERTEX
  5
C0CB
  8
PROF
 10
1.3579036133264131
 20
9.1177240008747731
 30
0.0000000000000001
 70
     8
  0
VERTEX
  5
C0CC
  8
PROF
 10
1.3200544368004321
 20
9.0958743349860924
 30
0.0000000000000001
 70
     8
  0
VERTEX
  5
C0CD
  8
PROF
 10
1.281393293046676
 20
9.0762098439975034
 30
0.0000000000000001
 70
     8
  0
VERTEX
  5
C0CE
  8
PROF
 10
1.242124971432417
 20
9.0585345777049042
 30
0.0000000000000001
 70
     8
  0
VERTEX
  5
C0CF
  8
PROF
 10
1.2024542613249869
 20
9.0426525859044204
 30
0.0000000000000001
 70
     8
  0
VERTEX
  5
C0D0
  8
PROF
 10
1.1625859520916599
 20
9.0283679183919503
 30
0.0000000000000001
 70
     8
  0
VERTEX
  5
C0D1
  8
PROF
 10
1.1227248330997091
 20
9.0154846249635057
 30
0.0000000000000001
 70
     8
  0
VERTEX
  5
C0D2
  8
PROF
 10
1.0829726247361
 20
9.0034643862466055
 30
0.0000000000000001
 70
     8
  0
VERTEX
  5
C0D3
  8
PROF
 10
1.043018771466222
 20
8.9903994061946833
 30
0.0000000000000001
 70
     8
  0
VERTEX
  5
C0D4
  8
PROF
 10
1.002449648775211
 20
8.9740395195925657
 30
0.0000000000000001
 70
     8
  0
VERTEX
  5
C0D5
  8
PROF
 10
0.9608516321480919
 20
8.9521345612251935
 30
0.0000000000000001
 70
     8
  0
VERTEX
  5
C0D6
  8
PROF
 10
0.9178110970699435
 20
8.9224343658775052
 30
0.0000000000000001
 70
     8
  0
VERTEX
  5
C0D7
  8
PROF
 10
0.8729144190259034
 20
8.8826887683343312
 30
0.0000000000000001
 70
     8
  0
VERTEX
  5
C0D8
  8
PROF
 10
0.8257479735009951
 20
8.8306476033806121
 30
0.0000000000000001
 70
     8
  0
VERTEX
  5
C0D9
  8
PROF
 10
0.7758981359802988
 20
8.764060705801171
 30
0.0000000000000001
 70
     8
  0
VERTEX
  5
C0DA
  8
PROF
 10
1.729201901609656
 20
9.8629858761255491
 30
0.0000000000000001
 70
    16
  0
VERTEX
  5
C0DB
  8
PROF
 10
1.6793731231140889
 20
9.4532143012734196
 30
0.0000000000000001
 70
    16
  0
VERTEX
  5
C0DC
  8
PROF
 10
1.4455611507419801
 20
9.1391837193732481
 30
0.0000000000000001
 70
    16
  0
VERTEX
  5
C0DD
  8
PROF
 10
1.120463717273821
 20
9.0026267702428413
 30
0.0000000000000001
 70
    16
  0
VERTEX
  5
C0DE
  8
PROF
 10
0.9127765582653638
 20
8.9630202230383702
 30
0.0000000000000001
 70
    16
  0
VERTEX
  5
C0DF
  8
PROF
 10
0.7758981359802988
 20
8.764060705801171
 30
0.0000000000000001
 70
    16
  0
SEQEND
  5
C0E0
  8
PROF
  0
ARC
  5
C0E1
  8
PROF
 10
0.733429816733235
 20
8.4849506952165257
 30
0.0000000000000001
 40
0.2823224329524727
 50
269.73652020831901
 51
81.348449993176914
  0
LINE
  5
C0E2
  8
PROF
  6
CONTINUOUS
 10
-0.0000008570117416
 20
9.1943336957369866
 30
-0.0000000000000001
 11
3.6306271195888371
 21
13.325025853350891
 31
0.0000000000000002
  0
POLYLINE
  5
C0E3
  8
PROF
 66
     1
 10
0.0
 20
0.0
 30
0.0000000000000001
 70
     4
 75
     6
  0
VERTEX
  5
C0E4
  8
PROF
 10
4.5198575031869259
 20
12.72227734589444
 30
0.0000000000000001
 70
    16
  0
VERTEX
  5
C0E5
  8
PROF
 10
4.5198575031869259
 20
12.72227734589444
 30
0.0000000000000001
 70
     8
  0
VERTEX
  5
C0E6
  8
PROF
 10
4.4467035366886298
 20
12.741128108778071
 30
0.0000000000000001
 70
     8
  0
VERTEX
  5
C0E7
  8
PROF
 10
4.3786645761268801
 20
12.754675269913941
 30
0.0000000000000001
 70
     8
  0
VERTEX
  5
C0E8
  8
PROF
 10
4.3154364111440477
 20
12.76334314092332
 30
0.0000000000000001
 70
     8
  0
VERTEX
  5
C0E9
  8
PROF
 10
4.256714831382566
 20
12.76755603342724
 30
0.0000000000000001
 70
     8
  0
VERTEX
  5
C0EA
  8
PROF
 10
4.2021956264849791
 20
12.76773825904672
 30
0.0000000000000001
 70
     8
  0
VERTEX
  5
C0EB
  8
PROF
 10
4.1515745860935453
 20
12.764314129403139
 30
0.0000000000000001
 70
     8
  0
VERTEX
  5
C0EC
  8
PROF
 10
4.1045474998508658
 20
12.75770795611743
 30
0.0000000000000001
 70
     8
  0
VERTEX
  5
C0ED
  8
PROF
 10
4.0608101573993158
 20
12.748344050810831
 30
0.0000000000000001
 70
     8
  0
VERTEX
  5
C0EE
  8
PROF
 10
4.0200583483813261
 20
12.736646725104491
 30
0.0000000000000001
 70
     8
  0
VERTEX
  5
C0EF
  8
PROF
 10
3.9819878624393819
 20
12.72304029061945
 30
0.0000000000000001
 70
     8
  0
VERTEX
  5
C0F0
  8
PROF
 10
3.946294489215858
 20
12.707949058976959
 30
0.0000000000000001
 70
     8
  0
VERTEX
  5
C0F1
  8
PROF
 10
3.9126740183532429
 20
12.691797341798059
 30
0.0000000000000001
 70
     8
  0
VERTEX
  5
C0F2
  8
PROF
 10
3.8808638350742508
 20
12.67494295718654
 30
0.0000000000000001
 70
     8
  0
VERTEX
  5
C0F3
  8
PROF
 10
3.850767706922738
 20
12.65747774917668
 30
0.0000000000000001
 70
     8
  0
VERTEX
  5
C0F4
  8
PROF
 10
3.8223309970228452
 20
12.639427068285499
 30
0.0000000000000001
 70
     8
  0
VERTEX
  5
C0F5
  8
PROF
 10
3.7954990684987129
 20
12.62081626503004
 30
0.0000000000000001
 70
     8
  0
VERTEX
  5
C0F6
  8
PROF
 10
3.7702172844744828
 20
12.601670689926999
 30
0.0000000000000001
 70
     8
  0
VERTEX
  5
C0F7
  8
PROF
 10
3.746431008074353
 20
12.58201569349364
 30
0.0000000000000001
 70
     8
  0
VERTEX
  5
C0F8
  8
PROF
 10
3.7240856024224618
 20
12.56187662624666
 30
0.0000000000000001
 70
     8
  0
VERTEX
  5
C0F9
  8
PROF
 10
3.7031264306428961
 20
12.541278838703191
 30
0.0000000000000001
 70
     8
  0
VERTEX
  5
C0FA
  8
PROF
 10
3.6834988558599089
 20
12.520247681380051
 30
0.0000000000000001
 70
     8
  0
VERTEX
  5
C0FB
  8
PROF
 10
3.665148241197528
 20
12.49880850479428
 30
0.0000000000000001
 70
     8
  0
VERTEX
  5
C0FC
  8
PROF
 10
3.6480199497799499
 20
12.47698665946279
 30
0.0000000000000001
 70
     8
  0
VERTEX
  5
C0FD
  8
PROF
 10
3.6320593447313172
 20
12.45480749590263
 30
0.0000000000000001
 70
     8
  0
VERTEX
  5
C0FE
  8
PROF
 10
3.6171895848866589
 20
12.43223790353807
 30
0.0000000000000001
 70
     8
  0
VERTEX
  5
C0FF
  8
PROF
 10
3.6032450119242858
 20
12.40901092742285
 30
0.0000000000000001
 70
     8
  0
VERTEX
  5
C100
  8
PROF
 10
3.590037763233453
 20
12.38480115151844
 30
0.0000000000000001
 70
     8
  0
VERTEX
  5
C101
  8
PROF
 10
3.5773799762033032
 20
12.35928315978594
 30
0.0000000000000001
 70
     8
  0
VERTEX
  5
C102
  8
PROF
 10
3.5650837882230908
 20
12.33213153618658
 30
0.0000000000000001
 70
     8
  0
VERTEX
  5
C103
  8
PROF
 10
3.5529613366819599
 20
12.303020864681571
 30
0.0000000000000001
 70
     8
  0
VERTEX
  5
C104
  8
PROF
 10
3.540824758969165
 20
12.271625729232371
 30
0.0000000000000001
 70
     8
  0
VERTEX
  5
C105
  8
PROF
 10
3.5284861924738489
 20
12.23762071379997
 30
0.0000000000000001
 70
     8
  0
VERTEX
  5
C106
  8
PROF
 10
3.5157577745852668
 20
12.200680402345711
 30
0.0000000000000001
 70
     8
  0
VERTEX
  5
C107
  8
PROF
 10
3.5024516426926189
 20
12.16047937883093
 30
0.0000000000000001
 70
     8
  0
VERTEX
  5
C108
  8
PROF
 10
3.4883799341851041
 20
12.116692227216619
 30
0.0000000000000001
 70
     8
  0
VERTEX
  5
C109
  8
PROF
 10
3.4733547864519201
 20
12.06899353146423
 30
0.0000000000000001
 70
     8
  0
VERTEX
  5
C10A
  8
PROF
 10
3.45723654619428
 20
12.0172095445447
 30
0.0000000000000001
 70
     8
  0
VERTEX
  5
C10B
  8
PROF
 10
3.4400783973613889
 20
11.961773195467799
 30
0.0000000000000001
 70
     8
  0
VERTEX
  5
C10C
  8
PROF
 10
3.421981733214579
 20
11.90326908225302
 30
0.0000000000000001
 70
     8
  0
VERTEX
  5
C10D
  8
PROF
 10
3.4030479470150108
 20
11.842281802919951
 30
0.0000000000000001
 70
     8
  0
VERTEX
  5
C10E
  8
PROF
 10
3.383378432024017
 20
11.779395955487979
 30
0.0000000000000001
 70
     8
  0
VERTEX
  5
C10F
  8
PROF
 10
3.3630745815028709
 20
11.715196137976809
 30
0.0000000000000001
 70
     8
  0
VERTEX
  5
C110
  8
PROF
 10
3.3422377887127359
 20
11.650266948405831
 30
0.0000000000000001
 70
     8
  0
VERTEX
  5
C111
  8
PROF
 10
3.320969446915
 20
11.58519298479461
 30
0.0000000000000001
 70
     8
  0
VERTEX
  5
C112
  8
PROF
 10
3.2993709493707679
 20
11.520558845162549
 30
0.0000000000000001
 70
     8
  0
VERTEX
  5
C113
  8
PROF
 10
3.277543689341428
 20
11.456949127529469
 30
0.0000000000000001
 70
     8
  0
VERTEX
  5
C114
  8
PROF
 10
3.2555890600881412
 20
11.3949484299145
 30
0.0000000000000001
 70
     8
  0
VERTEX
  5
C115
  8
PROF
 10
3.233608454872182
 20
11.335141350337491
 30
0.0000000000000001
 70
     8
  0
VERTEX
  5
C116
  8
PROF
 10
3.2116715641212181
 20
11.27799544797778
 30
0.0000000000000001
 70
     8
  0
VERTEX
  5
C117
  8
PROF
 10
3.189721266927847
 20
11.22351012665467
 30
0.0000000000000001
 70
     8
  0
VERTEX
  5
C118
  8
PROF
 10
3.1676687395512881
 20
11.17156775134765
 30
0.0000000000000001
 70
     8
  0
VERTEX
  5
C119
  8
PROF
 10
3.1454251582505321
 20
11.12205068703588
 30
0.0000000000000001
 70
     8
  0
VERTEX
  5
C11A
  8
PROF
 10
3.122901699284625
 20
11.07484129869874
 30
0.0000000000000001
 70
     8
  0
VERTEX
  5
C11B
  8
PROF
 10
3.1000095389127291
 20
11.02982195131551
 30
0.0000000000000001
 70
     8
  0
VERTEX
  5
C11C
  8
PROF
 10
3.0766598533938909
 20
10.986875009865679
 30
0.0000000000000001
 70
     8
  0
VERTEX
  5
C11D
  8
PROF
 10
3.0527638189871591
 20
10.9458828393283
 30
0.0000000000000001
 70
     8
  0
VERTEX
  5
C11E
  8
PROF
 10
3.0282326119516361
 20
10.90672780468298
 30
0.0000000000000001
 70
     8
  0
VERTEX
  5
C11F
  8
PROF
 10
3.002977408546371
 20
10.869292270908771
 30
0.0000000000000001
 70
     8
  0
VERTEX
  5
C120
  8
PROF
 10
2.9769093850304098
 20
10.833458602985161
 30
0.0000000000000001
 70
     8
  0
VERTEX
  5
C121
  8
PROF
 10
2.9499397176628568
 20
10.799109165891419
 30
0.0000000000000001
 70
     8
  0
VERTEX
  5
C122
  8
PROF
 10
2.9220006098404379
 20
10.76614363969508
 30
0.0000000000000001
 70
     8
  0
VERTEX
  5
C123
  8
PROF
 10
2.8931083735103011
 20
10.7345309648158
 30
0.0000000000000001
 70
     8
  0
VERTEX
  5
C124
  8
PROF
 10
2.8633003477572738
 20
10.70425739676193
 30
0.0000000000000001
 70
     8
  0
VERTEX
  5
C125
  8
PROF
 10
2.8326138716660689
 20
10.67530919104115
 30
0.0000000000000001
 70
     8
  0
VERTEX
  5
C126
  8
PROF
 10
2.8010862843216269
 20
10.647672603161711
 30
0.0000000000000001
 70
     8
  0
VERTEX
  5
C127
  8
PROF
 10
2.7687549248087171
 20
10.62133388863162
 30
0.0000000000000001
 70
     8
  0
VERTEX
  5
C128
  8
PROF
 10
2.735657132212054
 20
10.5962793029588
 30
0.0000000000000001
 70
     8
  0
VERTEX
  5
C129
  8
PROF
 10
2.7018302456165202
 20
10.572495101651381
 30
0.0000000000000001
 70
     8
  0
VERTEX
  5
C12A
  8
PROF
 10
2.6673116041068852
 20
10.54996754021726
 30
0.0000000000000001
 70
     8
  0
VERTEX
  5
C12B
  8
PROF
 10
2.6321385467680321
 20
10.528682874164581
 30
0.0000000000000001
 70
     8
  0
VERTEX
  5
C12C
  8
PROF
 10
2.5963484126846188
 20
10.508627359001251
 30
0.0000000000000001
 70
     8
  0
VERTEX
  5
C12D
  8
PROF
 10
2.5599785409415849
 20
10.489787250235279
 30
0.0000000000000001
 70
     8
  0
VERTEX
  5
C12E
  8
PROF
 10
2.522998630314361
 20
10.472162234281081
 30
0.0000000000000001
 70
     8
  0
VERTEX
  5
C12F
  8
PROF
 10
2.4851078183409072
 20
10.455805721177621
 30
0.0000000000000001
 70
     8
  0
VERTEX
  5
C130
  8
PROF
 10
2.4459376022498982
 20
10.44078455187036
 30
0.0000000000000001
 70
     8
  0
VERTEX
  5
C131
  8
PROF
 10
2.4051194792701258
 20
10.42716556730465
 30
0.0000000000000001
 70
     8
  0
VERTEX
  5
C132
  8
PROF
 10
2.3622849466301541
 20
10.415015608425851
 30
0.0000000000000001
 70
     8
  0
VERTEX
  5
C133
  8
PROF
 10
2.3170655015587149
 20
10.40440151617929
 30
0.0000000000000001
 70
     8
  0
VERTEX
  5
C134
  8
PROF
 10
2.2690926412844301
 20
10.395390131510339
 30
0.0000000000000001
 70
     8
  0
VERTEX
  5
C135
  8
PROF
 10
2.2179978630360888
 20
10.388048295364451
 30
0.0000000000000001
 70
     8
  0
VERTEX
  5
C136
  8
PROF
 10
2.1634126640422551
 20
10.38244284868688
 30
0.0000000000000001
 70
     8
  0
VERTEX
  5
C137
  8
PROF
 10
2.104968541531604
 20
10.37864063242295
 30
0.0000000000000001
 70
     8
  0
VERTEX
  5
C138
  8
PROF
 10
2.0422969927328718
 20
10.37670848751816
 30
0.0000000000000001
 70
     8
  0
VERTEX
  5
C139
  8
PROF
 10
1.9750295148747341
 20
10.37671325491794
 30
0.0000000000000001
 70
     8
  0
VERTEX
  5
C13A
  8
PROF
 10
4.2166060115107484
 20
12.80885334975255
 30
0.0000000000000001
 70
    16
  0
VERTEX
  5
C13B
  8
PROF
 10
3.8702254102732918
 20
12.707065515763929
 30
0.0000000000000001
 70
    16
  0
VERTEX
  5
C13C
  8
PROF
 10
3.605346156896871
 20
12.46277472098552
 30
0.0000000000000001
 70
    16
  0
VERTEX
  5
C13D
  8
PROF
 10
3.500746030527238
 20
12.170680575709749
 30
0.0000000000000001
 70
    16
  0
VERTEX
  5
C13E
  8
PROF
 10
3.231798439705698
 20
11.26846416496107
 30
0.0000000000000001
 70
    16
  0
VERTEX
  5
C13F
  8
PROF
 10
2.9737109398832891
 20
10.76631086647069
 30
0.0000000000000001
 70
    16
  0
VERTEX
  5
C140
  8
PROF
 10
2.5729961067384011
 20
10.460947364504699
 30
0.0000000000000001
 70
    16
  0
VERTEX
  5
C141
  8
PROF
 10
2.253782621454604
 20
10.372731239449759
 30
0.0000000000000001
 70
    16
  0
VERTEX
  5
C142
  8
PROF
 10
1.9750295148747341
 20
10.37671325491794
 30
0.0000000000000001
 70
    16
  0
SEQEND
  5
C143
  8
PROF
  0
LINE
  5
C144
  8
PROF
 10
4.9012016798694162
 20
12.88585218805485
 30
0.0000000000000003
 11
4.5198575031869259
 21
12.88585218805485
 31
0.0000000000000003
  0
LINE
  5
C145
  8
PROF
 10
0.7321315362267457
 20
8.2026312473991538
 30
0.0000000000000006
 11
0.7321315362267457
 21
8.0511853963434987
 31
0.0000000000000006
  0
ARC
  5
C146
  8
PROF
 10
0.7977322214551919
 20
7.5773339332026799
 30
0.0000000000000006
 40
0.4783708383912012
 50
97.882010168942529
 51
186.31119505698649
  0
LINE
  5
C147
  8
FRAME_050
 10
7.8016377197432121
 20
17.99371054969447
 30
0.0
 11
7.8016377197432121
 21
0.0000000000002274
 31
0.0
  0
ENDBLK
  5
C149
  8
0
  0
BLOCK
  8
0
  2
A$C3A7C6791
 70
     0
 10
0.0
 20
0.0
 30
0.0
  3
A$C3A7C6791
  1

  0
ARC
  5
1A561
  8
0
 10
1.0342682520551421
 20
11.169869575314801
 30
0.0
 40
0.3900479059662017
 50
183.5871702804647
 51
250.12003892297869
  0
ARC
  5
1A562
  8
0
 10
0.3331235273064408
 20
14.96835148878222
 30
0.0
 40
0.279776987736341
 50
290.26301102890392
 51
72.509116341854423
  0
ARC
  5
1A563
  8
0
 10
0.7948887850711232
 20
10.60700392177659
 30
0.0
 40
0.2232361910347119
 50
300.2914142988875
 51
61.434469032044603
  0
LINE
  5
1A564
  8
0
 10
-0.0000015027120526
 20
9.7351929270671462
 30
0.0
 11
1.0332573394856579
 21
9.7351929270671462
 31
0.0
  0
LINE
  5
1A565
  8
0
 10
1.0332573394856579
 20
10.377304601683591
 30
0.0
 11
0.9074887268004658
 21
10.377304601683591
 31
0.0
  0
LINE
  5
1A566
  8
0
 10
0.6449845421777241
 20
11.145465432783791
 30
0.0
 11
0.5554296092705046
 21
11.181249222917581
 31
0.0
  0
LINE
  5
1A567
  8
0
 10
0.5554296092705046
 20
14.67010534946894
 30
0.0
 11
0.430018718777319
 21
14.67010534946894
 31
0.0
  0
LINE
  5
1A568
  8
0
 10
0.4172116339615855
 20
15.235192927067139
 30
0.0
 11
-0.0000015027120526
 21
15.235192927067139
 31
0.0
  0
LINE
  5
1A569
  8
0
 10
-0.0000015027120526
 20
15.235192927067139
 30
0.0
 11
-0.0000015027120526
 21
9.7351929270671462
 31
0.0
  0
LINE
  5
1A56A
  8
0
 10
1.0332573394856579
 20
9.7351929270671462
 30
0.0
 11
1.0332573394856579
 21
10.377304601683591
 31
0.0
  0
LINE
  5
1A56B
  8
0
 10
0.9074887268004658
 20
10.377304601683591
 30
0.0
 11
0.9074887268003521
 21
10.414245912577821
 31
0.0
  0
LINE
  5
1A56C
  8
0
 10
0.5554296092705046
 20
11.181249222917581
 30
0.0
 11
0.5554296092705046
 21
14.67010534946894
 31
0.0
  0
LINE
  5
1A56D
  8
0
 10
0.430018718777319
 20
14.67010534946894
 30
0.0
 11
0.4300187187771485
 21
14.705889139602959
 31
0.0
  0
INSERT
  5
1A56E
  8
0
  2
*U227
 10
0.0
 20
0.0
 30
0.0
  0
LINE
  5
1A56F
  8
FRAME_050
 10
5.1382720395286006
 20
17.993710579095019
 30
0.0
 11
5.1382720395286006
 21
0.0000000294007805
 31
0.0
  0
ENDBLK
  5
1A571
  8
0
  0
BLOCK
  8
0
  2
*U102
 70
     1
 10
0.0
 20
0.0
 30
0.0
  3
*U102
  1

  0
TEXT
  5
1B865
  8
0
 10
3.5177832928899071
 20
10.38601584255777
 30
0.0
 40
0.125
  1
Crown Moulding
  0
TEXT
  5
1B866
  8
0
 10
3.5223876585106431
 20
10.17717091304435
 30
0.0
 40
0.125
  1
TL-AB509
  0
TEXT
  5
1B867
  8
0
 10
3.5074661032582561
 20
9.9667059289606801
 30
0.0
 40
0.125
  1
1-5/16" x 7-9/16"
  0
TEXT
  5
1B868
  8
0
 10
3.519403347460166
 20
9.7562409448770051
 30
0.0
 40
0.125
  1
800.66.TAGUE
  0
ENDBLK
  5
1B86A
  8
0
  0
BLOCK
  8
0
  2
*U103
 70
     1
 10
0.0
 20
0.0
 30
0.0
  3
*U103
  1

  0
TEXT
  5
1B86C
  8
0
 10
5.3066868277875692
 20
1.767659498411035
 30
0.0
 40
0.125
  1
Back Band
  0
TEXT
  5
1B86D
  8
0
 10
5.3153839628489603
 20
1.55881456889762
 30
0.0
 40
0.125
  1
TL-1
  0
TEXT
  5
1B86E
  8
0
 10
5.3004624075965721
 20
1.3483495848139451
 30
0.0
 40
0.125
  1
1-3/8" x 1-9/16"
  0
TEXT
  5
1B86F
  8
0
 10
5.3123996517984819
 20
1.137884600730271
 30
0.0
 40
0.125
  1
800.66.TAGUE
  0
ENDBLK
  5
1B871
  8
0
  0
BLOCK
  8
0
  2
*U104
 70
     1
 10
0.0
 20
0.0
 30
0.0
  3
*U104
  1

  0
TEXT
  5
1B873
  8
0
 10
2.551252809835812
 20
0.9623111621543785
 30
0.0
 40
0.125
  1
Back Band
  0
TEXT
  5
1B874
  8
0
 10
2.5599499448972041
 20
0.7534662326409634
 30
0.0
 40
0.125
  1
TL-288
  0
TEXT
  5
1B875
  8
0
 10
2.5450283896448158
 20
0.5430012485572889
 30
0.0
 40
0.125
  1
1-11/16" x 1-13/16"
  0
TEXT
  5
1B876
  8
0
 10
2.5569656338467261
 20
0.3325362644736145
 30
0.0
 40
0.125
  1
800.66.TAGUE
  0
ENDBLK
  5
1B878
  8
0
  0
BLOCK
  8
0
  2
*U105
 70
     1
 10
0.0
 20
0.0
 30
0.0
  3
*U105
  1

  0
TEXT
  5
1B87A
  8
0
 10
1.8364329238504911
 20
0.882982778245946
 30
0.0
 40
0.125
  1
Back Band
  0
TEXT
  5
1B87B
  8
0
 10
1.845130058911882
 20
0.6741378487325309
 30
0.0
 40
0.125
  1
TL-289
  0
TEXT
  5
1B87C
  8
0
 10
1.8302085036594951
 20
0.4636728646488565
 30
0.0
 40
0.125
  1
1-1/16" x 1-11/16"
  0
TEXT
  5
1B87D
  8
0
 10
1.8421457478614049
 20
0.2532078805651821
 30
0.0
 40
0.125
  1
800.66.TAGUE
  0
ENDBLK
  5
1B87F
  8
0
  0
BLOCK
  8
0
  2
*U106
 70
     1
 10
0.0
 20
0.0
 30
0.0
  3
*U106
  1

  0
TEXT
  5
1B881
  8
0
 10
1.929931786774016
 20
0.8512665098620573
 30
0.0
 40
0.125
  1
Back Band
  0
TEXT
  5
1B882
  8
0
 10
1.9386289218354069
 20
0.6424215803486422
 30
0.0
 40
0.125
  1
TL-601
  0
TEXT
  5
1B883
  8
0
 10
1.92370736658302
 20
0.4319565962649678
 30
0.0
 40
0.125
  1
1-5/16" x 1-3/8"
  0
TEXT
  5
1B884
  8
0
 10
1.9356446107849301
 20
0.2214916121812933
 30
0.0
 40
0.125
  1
800.66.TAGUE
  0
ENDBLK
  5
1B886
  8
0
  0
BLOCK
  8
0
  2
*U107
 70
     1
 10
0.0
 20
0.0
 30
0.0
  3
*U107
  1

  0
TEXT
  5
1B888
  8
0
 10
1.8237739904796331
 20
0.9081704084311468
 30
0.0
 40
0.125
  1
Back Band
  0
TEXT
  5
1B889
  8
0
 10
1.832471125541024
 20
0.6993254789177317
 30
0.0
 40
0.125
  1
TL-2075
  0
TEXT
  5
1B88A
  8
0
 10
1.8175495702886371
 20
0.4888604948340573
 30
0.0
 40
0.125
  1
1-5/16" x 1-5/8"
  0
TEXT
  5
1B88B
  8
0
 10
1.829486814490547
 20
0.2783955107503828
 30
0.0
 40
0.125
  1
800.66.TAGUE
  0
ENDBLK
  5
1B88D
  8
0
  0
BLOCK
  8
0
  2
*U108
 70
     1
 10
0.0
 20
0.0
 30
0.0
  3
*U108
  1

  0
TEXT
  5
1B88F
  8
0
 10
1.9545668919090351
 20
0.8644213446237927
 30
0.0
 40
0.125
  1
Back Band
  0
TEXT
  5
1B890
  8
0
 10
1.963264026970426
 20
0.6555764151103776
 30
0.0
 40
0.125
  1
TL-2208 
  0
TEXT
  5
1B891
  8
0
 10
1.9483424717180391
 20
0.4451114310267032
 30
0.0
 40
0.125
  1
1-3/8" x 1-5/8"
  0
TEXT
  5
1B892
  8
0
 10
1.960279715919949
 20
0.2346464469430287
 30
0.0
 40
0.125
  1
800.66.TAGUE
  0
ENDBLK
  5
1B894
  8
0
  0
BLOCK
  8
0
  2
*U109
 70
     1
 10
0.0
 20
0.0
 30
0.0
  3
*U109
  1

  0
TEXT
  5
1B896
  8
0
 10
2.7644474121262692
 20
0.8344220463493456
 30
0.0
 40
0.125
  1
Back Band
  0
TEXT
  5
1B897
  8
0
 10
2.7731445471876608
 20
0.6255771168359307
 30
0.0
 40
0.125
  1
TL-2221 
  0
TEXT
  5
1B898
  8
0
 10
2.7689665117169922
 20
0.4151121327522561
 30
0.0
 40
0.125
  1
7/8" x 1-3/4"
  0
TEXT
  5
1B899
  8
0
 10
2.7701602361371829
 20
0.2046471486685817
 30
0.0
 40
0.125
  1
800.66.TAGUE
  0
ENDBLK
  5
1B89B
  8
0
  0
BLOCK
  8
0
  2
*U110
 70
     1
 10
0.0
 20
0.0
 30
0.0
  3
*U110
  1

  0
TEXT
  5
1B89D
  8
0
 10
2.6915324485008609
 20
1.1836703361148011
 30
0.0
 40
0.125
  1
Back Band
  0
TEXT
  5
1B89E
  8
0
 10
2.700229583562253
 20
0.974825406601386
 30
0.0
 40
0.125
  1
TL-2266
  0
TEXT
  5
1B89F
  8
0
 10
2.685308028309866
 20
0.7643604225177115
 30
0.0
 40
0.125
  1
1-11/32" x 1-15/32"
  0
TEXT
  5
1B8A0
  8
0
 10
2.697245272511775
 20
0.5538954384340372
 30
0.0
 40
0.125
  1
800.66.TAGUE
  0
ENDBLK
  5
1B8A2
  8
0
  0
BLOCK
  8
0
  2
*U111
 70
     1
 10
0.0
 20
0.0
 30
0.0
  3
*U111
  1

  0
TEXT
  5
1B8A4
  8
0
 10
3.1852595440213172
 20
1.4826139655959869
 30
0.0
 40
0.125
  1
Back Band
  0
TEXT
  5
1B8A5
  8
0
 10
3.1939566790827079
 20
1.273769036082572
 30
0.0
 40
0.125
  1
TL-2293
  0
TEXT
  5
1B8A6
  8
0
 10
3.1790351238303209
 20
1.0147194680971241
 30
0.0
 40
0.125
  1
1-
  0
TEXT
  5
1B8A7
  8
0
 10
3.3285150010472382
 20
1.1040697409484199
 30
0.0
 40
0.0875
  1
7
  0
LINE
  5
1B8A8
  8
0
 10
3.3553421833758441
 20
1.032393937073133
 30
0.0
 11
3.4557180597372761
 21
1.1757455448237071
 31
0.0
  0
TEXT
  5
1B8A9
  8
0
 10
3.4151594985461009
 20
0.9855528014304578
 30
0.0
 40
0.0875
  1
8
  0
TEXT
  5
1B8AA
  8
0
 10
3.483619594044054
 20
1.0147194680971241
 30
0.0
 40
0.125
  1
" x 2-
  0
TEXT
  5
1B8AB
  8
0
 10
3.8794330319703851
 20
1.1040697409484199
 30
0.0
 40
0.0875
  1
7
  0
LINE
  5
1B8AC
  8
0
 10
3.9062602142989902
 20
1.032393937073133
 30
0.0
 11
4.0066360906604244
 21
1.1757455448237071
 31
0.0
  0
TEXT
  5
1B8AD
  8
0
 10
3.957721458527911
 20
0.9855528014304578
 30
0.0
 40
0.0875
  1
16
  0
TEXT
  5
1B8AE
  8
0
 10
4.0939254148717028
 20
1.0147194680971241
 30
0.0
 40
0.125
  1
"
  0
TEXT
  5
1B8AF
  8
0
 10
3.1909723680322308
 20
0.8459211506801169
 30
0.0
 40
0.125
  1
800.66.TAGUE
  0
ENDBLK
  5
1B8B1
  8
0
  0
BLOCK
  8
0
  2
*U112
 70
     1
 10
0.0
 20
0.0
 30
0.0
  3
*U112
  1

  0
TEXT
  5
1B8B3
  8
0
 10
2.4900996379053408
 20
1.0092498715596481
 30
0.0
 40
0.125
  1
Baluster Stock
  0
TEXT
  5
1B8B4
  8
0
 10
2.4987967729667329
 20
0.800404942046233
 30
0.0
 40
0.125
  1
TL-236
  0
TEXT
  5
1B8B5
  8
0
 10
2.4838752177143451
 20
0.5899399579625585
 30
0.0
 40
0.125
  1
1-9/16" x 1-9/16"
  0
TEXT
  5
1B8B6
  8
0
 10
2.4958124619162549
 20
0.3794749738788841
 30
0.0
 40
0.125
  1
800.66.TAGUE
  0
ENDBLK
  5
1B8B8
  8
0
  0
BLOCK
  8
0
  2
*U113
 70
     1
 10
0.0
 20
0.0
 30
0.0
  3
*U113
  1

  0
TEXT
  5
1B8BA
  8
0
 10
2.3591545502839431
 20
0.9010435759007737
 30
0.0
 40
0.125
  1
Baluster Stock
  0
TEXT
  5
1B8BB
  8
0
 10
2.3678516853453342
 20
0.6921986463873587
 30
0.0
 40
0.125
  1
TL-237
  0
TEXT
  5
1B8BC
  8
0
 10
2.3529301300929468
 20
0.4817336623036842
 30
0.0
 40
0.125
  1
1-5/16" x 1-5/16"
  0
TEXT
  5
1B8BD
  8
0
 10
2.3648673742948572
 20
0.2712686782200098
 30
0.0
 40
0.125
  1
800.66.TAGUE
  0
ENDBLK
  5
1B8BF
  8
0
  0
BLOCK
  8
0
  2
*U114
 70
     1
 10
0.0
 20
0.0
 30
0.0
  3
*U114
  1

  0
TEXT
  5
1B8C1
  8
0
 10
2.098510450655322
 20
0.7826568183311498
 30
0.0
 40
0.125
  1
Baluster Stock
  0
TEXT
  5
1B8C2
  8
0
 10
2.1072075857167132
 20
0.5738118888177346
 30
0.0
 40
0.125
  1
TL-238
  0
TEXT
  5
1B8C3
  8
0
 10
2.0922860304643258
 20
0.3633469047340601
 30
0.0
 40
0.125
  1
1-1/16" x 1-1/16"
  0
TEXT
  5
1B8C4
  8
0
 10
2.1042232746662362
 20
0.1528819206503857
 30
0.0
 40
0.125
  1
800.66.TAGUE
  0
ENDBLK
  5
1B8C6
  8
0
  0
BLOCK
  8
0
  2
*U115
 70
     1
 10
0.0
 20
0.0
 30
0.0
  3
*U115
  1

  0
TEXT
  5
1B8C8
  8
0
 10
1.7835912292499461
 20
0.6784890753194919
 30
0.0
 40
0.125
  1
Baluster Stock
  0
TEXT
  5
1B8C9
  8
0
 10
1.792288364311337
 20
0.4696441458060768
 30
0.0
 40
0.125
  1
TL-239
  0
TEXT
  5
1B8CA
  8
0
 10
1.7890482551708189
 20
0.2591791617224023
 30
0.0
 40
0.125
  1
3/4" x 3/4"
  0
TEXT
  5
1B8CB
  8
0
 10
1.78930405326086
 20
0.0487141776387279
 30
0.0
 40
0.125
  1
800.66.TAGUE
  0
ENDBLK
  5
1B8CD
  8
0
  0
BLOCK
  8
0
  2
*U116
 70
     1
 10
0.0
 20
0.0
 30
0.0
  3
*U116
  1

  0
TEXT
  5
1B8CF
  8
0
 10
2.750346038648086
 20
1.209669783574115
 30
0.0
 40
0.125
  1
Baluster Stock
  0
TEXT
  5
1B8D0
  8
0
 10
2.7590431737094772
 20
1.0008248540607001
 30
0.0
 40
0.125
  1
TL-526
  0
TEXT
  5
1B8D1
  8
0
 10
2.7441216184570898
 20
0.7903598699770261
 30
0.0
 40
0.125
  1
1-3/4" x 1-3/4"
  0
TEXT
  5
1B8D2
  8
0
 10
2.7560588626590001
 20
0.5798948858933518
 30
0.0
 40
0.125
  1
800.66.TAGUE
  0
ENDBLK
  5
1B8D4
  8
0
  0
BLOCK
  8
0
  2
*U117
 70
     1
 10
0.0
 20
0.0
 30
0.0
  3
*U117
  1

  0
TEXT
  5
1B8D6
  8
0
 10
4.1934393821158942
 20
3.6154353709422362
 30
0.0
 40
0.125
  1
Bar Rail
  0
TEXT
  5
1B8D7
  8
0
 10
4.2021365171772853
 20
3.4065904414288211
 30
0.0
 40
0.125
  1
TL-13
  0
TEXT
  5
1B8D8
  8
0
 10
4.19898167406678
 20
3.1961254573451461
 30
0.0
 40
0.125
  1
5-1/2" x 1-5/8"
  0
TEXT
  5
1B8D9
  8
0
 10
4.199152206126807
 20
2.985660473261472
 30
0.0
 40
0.125
  1
800.66.TAGUE
  0
ENDBLK
  5
1B8DB
  8
0
  0
BLOCK
  8
0
  2
*U118
 70
     1
 10
0.0
 20
0.0
 30
0.0
  3
*U118
  1

  0
TEXT
  5
1B8DD
  8
0
 10
2.7915496004018041
 20
1.6928133759646471
 30
0.0
 40
0.125
  1
Bar Rail
  0
TEXT
  5
1B8DE
  8
0
 10
2.8002467354631961
 20
1.483968446451231
 30
0.0
 40
0.125
  1
TL-130
  0
TEXT
  5
1B8DF
  8
0
 10
2.7853251802108079
 20
1.273503462367557
 30
0.0
 40
0.125
  1
1-11/16" x 2-1/4"
  0
TEXT
  5
1B8E0
  8
0
 10
2.7972624244127182
 20
1.0630384782838831
 30
0.0
 40
0.125
  1
800.66.TAGUE
  0
ENDBLK
  5
1B8E2
  8
0
  0
BLOCK
  8
0
  2
*U119
 70
     1
 10
0.0
 20
0.0
 30
0.0
  3
*U119
  1

  0
TEXT
  5
1B8E4
  8
0
 10
0.7422973615718824
 20
1.83447380854534
 30
0.0
 40
0.125
  1
Bar Rail
  0
TEXT
  5
1B8E5
  8
0
 10
0.750994496633274
 20
1.625628879031924
 30
0.0
 40
0.125
  1
TL-537
  0
TEXT
  5
1B8E6
  8
0
 10
0.7360729413808864
 20
1.4151638949482499
 30
0.0
 40
0.125
  1
1-5/16" x 5-3/16" / 7/8" x 3-1/16"
  0
TEXT
  5
1B8E7
  8
0
 10
0.7480101855827965
 20
1.204698910864576
 30
0.0
 40
0.125
  1
800.66.TAGUE
  0
ENDBLK
  5
1B8E9
  8
0
  0
BLOCK
  8
0
  2
*U120
 70
     1
 10
0.0
 20
0.0
 30
0.0
  3
*U120
  1

  0
TEXT
  5
1B8EB
  8
0
 10
1.8164004611375999
 20
3.819697741885534
 30
0.0
 40
0.125
  1
Base Board Assembly
  0
TEXT
  5
1B8EC
  8
0
 10
1.8250975961989919
 20
3.610852812372118
 30
0.0
 40
0.125
  1
TL-680
  0
TEXT
  5
1B8ED
  8
0
 10
1.8101760409466039
 20
3.4003878282884439
 30
0.0
 40
0.125
  1
1-1/16" x 6-3/4"
  0
TEXT
  5
1B8EE
  8
0
 10
1.822113285148514
 20
3.1899228442047698
 30
0.0
 40
0.125
  1
800.66.TAGUE
  0
ENDBLK
  5
1B8F0
  8
0
  0
BLOCK
  8
0
  2
*U121
 70
     1
 10
0.0
 20
0.0
 30
0.0
  3
*U121
  1

  0
TEXT
  5
1B8F2
  8
0
 10
1.880121442934813
 20
2.5708737061797931
 30
0.0
 40
0.125
  1
TL-541
  0
ENDBLK
  5
1B8F4
  8
0
  0
BLOCK
  8
0
  2
*U122
 70
     1
 10
0.0
 20
0.0
 30
0.0
  3
*U122
  1

  0
INSERT
  5
1B8F6
  8
0
  2
_OPEN30
 10
0.9370004965966245
 20
1.998969839043752
 30
0.0
 41
0.046875
 42
0.046875
 43
0.046875
 50
220.2352165150823
  0
POLYLINE
  5
1B8F7
  8
0
 66
     1
 10
0.0
 20
0.0
 30
0.0
  0
VERTEX
  5
1B8F8
  8
0
 10
0.9727848321090522
 20
2.0292476685058189
 30
0.0
  0
VERTEX
  5
1B8F9
  8
0
 10
1.687083141229663
 20
2.633629504269833
 30
0.0
  0
VERTEX
  5
1B8FA
  8
0
 10
1.8217142123754679
 20
2.633629504269833
 30
0.0
  0
SEQEND
  5
1B8FB
  8
0
  0
ENDBLK
  5
1B8FD
  8
0
  0
BLOCK
  8
0
  2
*U123
 70
     1
 10
0.0
 20
0.0
 30
0.0
  3
*U123
  1

  0
TEXT
  5
1B8FF
  8
0
 10
1.8608875418177091
 20
6.6078272811635204
 30
0.0
 40
0.125
  1
TL-540
  0
TEXT
  5
1B900
  8
0
 10
1.8649803112583641
 20
6.399238149740146
 30
0.0
 40
0.125
  1
 
  0
ENDBLK
  5
1B902
  8
0
  0
BLOCK
  8
0
  2
*U124
 70
     1
 10
0.0
 20
0.0
 30
0.0
  3
*U124
  1

  0
INSERT
  5
1B904
  8
0
  2
_OPEN30
 10
0.8157519259211198
 20
5.9858143171212532
 30
0.0
 41
0.046875
 42
0.046875
 43
0.046875
 50
218.1633806826421
  0
POLYLINE
  5
1B905
  8
0
 66
     1
 10
0.0
 20
0.0
 30
0.0
  0
VERTEX
  5
1B906
  8
0
 10
0.8526074872282775
 20
6.0147786611624072
 30
0.0
  0
VERTEX
  5
1B907
  8
0
 10
1.687083141229663
 20
6.6705830792535599
 30
0.0
  0
VERTEX
  5
1B908
  8
0
 10
1.8024803112583641
 20
6.6705830792535599
 30
0.0
  0
SEQEND
  5
1B909
  8
0
  0
ENDBLK
  5
1B90B
  8
0
  0
BLOCK
  8
0
  2
*U125
 70
     1
 10
0.0
 20
0.0
 30
0.0
  3
*U125
  1

  0
TEXT
  5
1B90D
  8
0
 10
1.200091944455248
 20
3.6095250915403758
 30
0.0
 40
0.125
  1
Base Board Assembly
  0
TEXT
  5
1B90E
  8
0
 10
1.2087890795166401
 20
3.4006801620269611
 30
0.0
 40
0.125
  1
TL-681
  0
TEXT
  5
1B90F
  8
0
 10
1.193867524264252
 20
3.190215177943287
 30
0.0
 40
0.125
  1
1" x 9-1/4"
  0
TEXT
  5
1B910
  8
0
 10
1.2058047684661619
 20
2.979750193859612
 30
0.0
 40
0.125
  1
800.66.TAGUE
  0
ENDBLK
  5
1B912
  8
0
  0
BLOCK
  8
0
  2
*U126
 70
     1
 10
0.0
 20
0.0
 30
0.0
  3
*U126
  1

  0
INSERT
  5
1B914
  8
0
  6
CONTINUOUS
  2
_OPEN30
 10
0.7500005591156196
 20
6.587852449929982
 30
0.0
 41
0.046875
 42
0.046875
 43
0.046875
 50
224.09146837719419
  0
POLYLINE
  5
1B915
  8
0
  6
CONTINUOUS
 66
     1
 10
0.0
 20
0.0
 30
0.0
  0
VERTEX
  5
1B916
  8
0
  6
CONTINUOUS
 10
0.7836675863640283
 20
6.6204683494462451
 30
0.0
  0
VERTEX
  5
1B917
  8
0
  6
CONTINUOUS
 10
1.7133956757769511
 20
7.5211691365396973
 30
0.0
  0
VERTEX
  5
1B918
  8
0
  6
CONTINUOUS
 10
1.9000752793112949
 20
7.5211691365396973
 30
0.0
  0
SEQEND
  5
1B919
  8
0
  6
CONTINUOUS
  0
ENDBLK
  5
1B91B
  8
0
  0
BLOCK
  8
0
  2
*U127
 70
     1
 10
0.0
 20
0.0
 30
0.0
  3
*U127
  1

  0
TEXT
  5
1B91D
  8
0
 10
1.95848250987064
 20
7.458413338449656
 30
0.0
 40
0.125
  1
TL-602
  0
ENDBLK
  5
1B91F
  8
0
  0
BLOCK
  8
0
  2
*U128
 70
     1
 10
0.0
 20
0.0
 30
0.0
  3
*U128
  1

  0
INSERT
  5
1B921
  8
0
  6
CONTINUOUS
  2
_OPEN30
 10
1.0000005591156189
 20
0.8124995480944789
 30
0.0
 41
0.046875
 42
0.046875
 43
0.046875
 50
224.09146837719419
  0
POLYLINE
  5
1B922
  8
0
  6
CONTINUOUS
 66
     1
 10
0.0
 20
0.0
 30
0.0
  0
VERTEX
  5
1B923
  8
0
  6
CONTINUOUS
 10
1.0336675863640279
 20
0.8451154476107411
 30
0.0
  0
VERTEX
  5
1B924
  8
0
  6
CONTINUOUS
 10
1.9633956757769511
 20
1.745816234704193
 30
0.0
  0
VERTEX
  5
1B925
  8
0
  6
CONTINUOUS
 10
2.1500752793112952
 20
1.745816234704193
 30
0.0
  0
SEQEND
  5
1B926
  8
0
  6
CONTINUOUS
  0
ENDBLK
  5
1B928
  8
0
  0
BLOCK
  8
0
  2
*U129
 70
     1
 10
0.0
 20
0.0
 30
0.0
  3
*U129
  1

  0
TEXT
  5
1B92A
  8
0
 10
2.20848250987064
 20
1.6828046385241111
 30
0.0
 40
0.125
  1
TL-266
  0
ENDBLK
  5
1B92C
  8
0
  0
BLOCK
  8
0
  2
*U130
 70
     1
 10
0.0
 20
0.0
 30
0.0
  3
*U130
  1

  0
INSERT
  5
1B92E
  8
0
  6
CONTINUOUS
  2
_OPEN30
 10
0.7500004105942253
 20
6.3960963538685291
 30
0.0
 41
0.046875
 42
0.046875
 43
0.046875
 50
219.47434747209351
  0
POLYLINE
  5
1B92F
  8
0
  6
CONTINUOUS
 66
     1
 10
0.0
 20
0.0
 30
0.0
  0
VERTEX
  5
1B930
  8
0
  6
CONTINUOUS
 10
0.7861836586409798
 20
6.4258963234286979
 30
0.0
  0
VERTEX
  5
1B931
  8
0
  6
CONTINUOUS
 10
1.374056000801033
 20
6.9100589911637371
 30
0.0
  0
VERTEX
  5
1B932
  8
0
  6
CONTINUOUS
 10
1.5384924777565061
 20
6.9100589911637371
 30
0.0
  0
SEQEND
  5
1B933
  8
0
  6
CONTINUOUS
  0
ENDBLK
  5
1B935
  8
0
  0
BLOCK
  8
0
  2
*U131
 70
     1
 10
0.0
 20
0.0
 30
0.0
  3
*U131
  1

  0
TEXT
  5
1B937
  8
0
 10
1.5968997083158509
 20
6.8473031930736958
 30
0.0
 40
0.125
  1
TL-550
  0
ENDBLK
  5
1B939
  8
0
  0
BLOCK
  8
0
  2
*U132
 70
     1
 10
0.0
 20
0.0
 30
0.0
  3
*U132
  1

  0
INSERT
  5
1B93B
  8
0
  6
CONTINUOUS
  2
_OPEN30
 10
0.7500004105942253
 20
2.53267018701797
 30
0.0
 41
0.046875
 42
0.046875
 43
0.046875
 50
222.22478218143399
  0
POLYLINE
  5
1B93C
  8
0
  6
CONTINUOUS
 66
     1
 10
0.0
 20
0.0
 30
0.0
  0
VERTEX
  5
1B93D
  8
0
  6
CONTINUOUS
 10
0.7847120037465148
 20
2.5641721064171099
 30
0.0
  0
VERTEX
  5
1B93E
  8
0
  6
CONTINUOUS
 10
1.5311175519539111
 20
3.2415598401215671
 30
0.0
  0
VERTEX
  5
1B93F
  8
0
  6
CONTINUOUS
 10
1.6247289838881891
 20
3.2416177465441929
 30
0.0
  0
SEQEND
  5
1B940
  8
0
  6
CONTINUOUS
  0
ENDBLK
  5
1B942
  8
0
  0
BLOCK
  8
0
  2
*U133
 70
     1
 10
0.0
 20
0.0
 30
0.0
  3
*U133
  1

  0
TEXT
  5
1B944
  8
0
 10
1.6831362144475339
 20
3.178861948454152
 30
0.0
 40
0.125
  1
TL-551
  0
ENDBLK
  5
1B946
  8
0
  0
BLOCK
  8
0
  2
*U134
 70
     1
 10
0.0
 20
0.0
 30
0.0
  3
*U134
  1

  0
INSERT
  5
1B948
  8
0
  6
CONTINUOUS
  2
_OPEN30
 10
1.04738175721161
 20
0.4967917735383481
 30
0.0
 41
0.046875
 42
0.046875
 43
0.046875
 50
212.67418530855349
  0
POLYLINE
  5
1B949
  8
0
  6
CONTINUOUS
 66
     1
 10
0.0
 20
0.0
 30
0.0
  0
VERTEX
  5
1B94A
  8
0
  6
CONTINUOUS
 10
1.0868389807680281
 20
0.5220977636240739
 30
0.0
  0
VERTEX
  5
1B94B
  8
0
  6
CONTINUOUS
 10
1.4785839895729389
 20
0.7733444154513336
 30
0.0
  0
VERTEX
  5
1B94C
  8
0
  6
CONTINUOUS
 10
1.535363721355395
 20
0.7733444154513336
 30
0.0
  0
SEQEND
  5
1B94D
  8
0
  6
CONTINUOUS
  0
ENDBLK
  5
1B94F
  8
0
  0
BLOCK
  8
0
  2
*U135
 70
     1
 10
0.0
 20
0.0
 30
0.0
  3
*U135
  1

  0
TEXT
  5
1B951
  8
0
 10
1.5937709519147401
 20
0.7105886173612928
 30
0.0
 40
0.125
  1
TL-127
  0
ENDBLK
  5
1B953
  8
0
  0
BLOCK
  8
0
  2
*U136
 70
     1
 10
0.0
 20
0.0
 30
0.0
  3
*U136
  1

  0
TEXT
  5
1B955
  8
0
 10
2.1409458709672249
 20
2.6869009874993699
 30
0.0
 40
0.125
  1
Base Board Assembly
  0
TEXT
  5
1B956
  8
0
 10
2.1496430060286169
 20
2.4780560579859552
 30
0.0
 40
0.125
  1
TL-682
  0
TEXT
  5
1B957
  8
0
 10
2.1347214507762291
 20
2.2675910739022811
 30
0.0
 40
0.125
  1
1-1/16" x 7-3/8"
  0
TEXT
  5
1B958
  8
0
 10
2.146658694978139
 20
2.057126089818607
 30
0.0
 40
0.125
  1
800.66.TAGUE
  0
ENDBLK
  5
1B95A
  8
0
  0
BLOCK
  8
0
  2
*U137
 70
     1
 10
0.0
 20
0.0
 30
0.0
  3
*U137
  1

  0
TEXT
  5
1B95C
  8
0
 10
2.290801695922692
 20
2.6689022993974731
 30
0.0
 40
0.125
  1
Base Board Assembly
  0
TEXT
  5
1B95D
  8
0
 10
2.2994988309840831
 20
2.4600573698840571
 30
0.0
 40
0.125
  1
TL-683
  0
TEXT
  5
1B95E
  8
0
 10
2.2845772757316962
 20
2.249592385800383
 30
0.0
 40
0.125
  1
1-1/8" x 5-15/16"
  0
TEXT
  5
1B95F
  8
0
 10
2.2965145199336061
 20
2.0391274017167089
 30
0.0
 40
0.125
  1
800.66.TAGUE
  0
ENDBLK
  5
1B961
  8
0
  0
BLOCK
  8
0
  2
*U138
 70
     1
 10
0.0
 20
0.0
 30
0.0
  3
*U138
  1

  0
INSERT
  5
1B963
  8
0
  6
CONTINUOUS
  2
_OPEN30
 10
1.12500054900903
 20
5.65624955358237
 30
0.0
 41
0.046875
 42
0.046875
 43
0.046875
 50
212.76268937863
  0
POLYLINE
  5
1B964
  8
0
  6
CONTINUOUS
 66
     1
 10
0.0
 20
0.0
 30
0.0
  0
VERTEX
  5
1B965
  8
0
  6
CONTINUOUS
 10
1.164418635662722
 20
5.6816164625300907
 30
0.0
  0
VERTEX
  5
1B966
  8
0
  6
CONTINUOUS
 10
1.5566905795914741
 20
5.9340570939541522
 30
0.0
  0
VERTEX
  5
1B967
  8
0
  6
CONTINUOUS
 10
1.625384535953855
 20
5.9340570939541522
 30
0.0
  0
SEQEND
  5
1B968
  8
0
  6
CONTINUOUS
  0
ENDBLK
  5
1B96A
  8
0
  0
BLOCK
  8
0
  2
*U139
 70
     1
 10
0.0
 20
0.0
 30
0.0
  3
*U139
  1

  0
TEXT
  5
1B96C
  8
0
 10
1.6837917665132001
 20
5.8710454977740696
 30
0.0
 40
0.125
  1
TL-522
  0
ENDBLK
  5
1B96E
  8
0
  0
BLOCK
  8
0
  2
*U140
 70
     1
 10
0.0
 20
0.0
 30
0.0
  3
*U140
  1

  0
INSERT
  5
1B970
  8
0
  6
CONTINUOUS
  2
_OPEN30
 10
1.2500005459876879
 20
0.2499995505611423
 30
0.0
 41
0.046875
 42
0.046875
 43
0.046875
 50
202.31861548713121
  0
POLYLINE
  5
1B971
  8
0
  6
CONTINUOUS
 66
     1
 10
0.0
 20
0.0
 30
0.0
  0
VERTEX
  5
1B972
  8
0
  6
CONTINUOUS
 10
1.293363970221912
 20
0.2678006478217807
 30
0.0
  0
VERTEX
  5
1B973
  8
0
  6
CONTINUOUS
 10
2.1572010681318261
 20
0.6224139761923198
 30
0.0
  0
VERTEX
  5
1B974
  8
0
  6
CONTINUOUS
 10
2.2687807536349851
 20
0.626210466030102
 30
0.0
  0
SEQEND
  5
1B975
  8
0
  6
CONTINUOUS
  0
ENDBLK
  5
1B977
  8
0
  0
BLOCK
  8
0
  2
*U141
 70
     1
 10
0.0
 20
0.0
 30
0.0
  3
*U141
  1

  0
TEXT
  5
1B979
  8
0
 10
2.3271879841943299
 20
0.5634546679400611
 30
0.0
 40
0.125
  1
TL-126
  0
ENDBLK
  5
1B97B
  8
0
  0
BLOCK
  8
0
  2
*U142
 70
     1
 10
0.0
 20
0.0
 30
0.0
  3
*U142
  1

  0
INSERT
  5
1B97D
  8
0
  6
CONTINUOUS
  2
_OPEN30
 10
0.7500005490090304
 20
2.74999955358237
 30
0.0
 41
0.046875
 42
0.046875
 43
0.046875
 50
202.16313132933621
  0
POLYLINE
  5
1B97E
  8
0
  6
CONTINUOUS
 66
     1
 10
0.0
 20
0.0
 30
0.0
  0
VERTEX
  5
1B97F
  8
0
  6
CONTINUOUS
 10
0.7934121205394016
 20
2.7676829096626911
 30
0.0
  0
VERTEX
  5
1B980
  8
0
  6
CONTINUOUS
 10
1.403356379662966
 20
3.0161388199879862
 30
0.0
  0
VERTEX
  5
1B981
  8
0
  6
CONTINUOUS
 10
1.4759478210543191
 20
3.0161388199879862
 30
0.0
  0
SEQEND
  5
1B982
  8
0
  6
CONTINUOUS
  0
ENDBLK
  5
1B984
  8
0
  0
BLOCK
  8
0
  2
*U143
 70
     1
 10
0.0
 20
0.0
 30
0.0
  3
*U143
  1

  0
TEXT
  5
1B986
  8
0
 10
1.5194334963612759
 20
2.9533830218979449
 30
0.0
 40
0.125
  1
1 x 6
  0
ENDBLK
  5
1B988
  8
0
  0
BLOCK
  8
0
  2
*U144
 70
     1
 10
0.0
 20
0.0
 30
0.0
  3
*U144
  1

  0
TEXT
  5
1B98A
  8
0
 10
2.704137288033603
 20
3.332115229613577
 30
0.0
 40
0.125
  1
Base Board Assembly
  0
TEXT
  5
1B98B
  8
0
 10
2.712834423094995
 20
3.1232703001001618
 30
0.0
 40
0.125
  1
TL-684
  0
TEXT
  5
1B98C
  8
0
 10
2.6979128678426072
 20
2.9128053160164882
 30
0.0
 40
0.125
  1
1-1/4" x 7-1/8"
  0
TEXT
  5
1B98D
  8
0
 10
2.7098501120445171
 20
2.7023403319328141
 30
0.0
 40
0.125
  1
800.66.TAGUE
  0
ENDBLK
  5
1B98F
  8
0
  0
BLOCK
  8
0
  2
*U145
 70
     1
 10
0.0
 20
0.0
 30
0.0
  3
*U145
  1

  0
INSERT
  5
1B991
  8
0
  6
CONTINUOUS
  2
_OPEN30
 10
0.7451914169819816
 20
2.7500006434855768
 30
0.0
 41
0.046875
 42
0.046875
 43
0.046875
 50
202.16313132933621
  0
POLYLINE
  5
1B992
  8
0
  6
CONTINUOUS
 66
     1
 10
0.0
 20
0.0
 30
0.0
  0
VERTEX
  5
1B993
  8
0
  6
CONTINUOUS
 10
0.7886029885123529
 20
2.7676839995658988
 30
0.0
  0
VERTEX
  5
1B994
  8
0
  6
CONTINUOUS
 10
1.3985472476359171
 20
3.0161399098911938
 30
0.0
  0
VERTEX
  5
1B995
  8
0
  6
CONTINUOUS
 10
1.47113868902727
 20
3.0161399098911938
 30
0.0
  0
SEQEND
  5
1B996
  8
0
  6
CONTINUOUS
  0
ENDBLK
  5
1B998
  8
0
  0
BLOCK
  8
0
  2
*U146
 70
     1
 10
0.0
 20
0.0
 30
0.0
  3
*U146
  1

  0
TEXT
  5
1B99A
  8
0
 10
1.5146243643342281
 20
2.953384111801153
 30
0.0
 40
0.125
  1
1 x 6
  0
ENDBLK
  5
1B99C
  8
0
  0
BLOCK
  8
0
  2
*U147
 70
     1
 10
0.0
 20
0.0
 30
0.0
  3
*U147
  1

  0
INSERT
  5
1B99E
  8
0
  6
CONTINUOUS
  2
_OPEN30
 10
1.1801914169819829
 20
0.4698936434855341
 30
0.0
 41
0.046875
 42
0.046875
 43
0.046875
 50
202.3186154871324
  0
POLYLINE
  5
1B99F
  8
0
  6
CONTINUOUS
 66
     1
 10
0.0
 20
0.0
 30
0.0
  0
VERTEX
  5
1B9A0
  8
0
  6
CONTINUOUS
 10
1.2235548412162069
 20
0.4876947407461734
 30
0.0
  0
VERTEX
  5
1B9A1
  8
0
  6
CONTINUOUS
 10
2.0873919391260638
 20
0.8423080691167115
 30
0.0
  0
VERTEX
  5
1B9A2
  8
0
  6
CONTINUOUS
 10
2.1989716246292801
 20
0.8461045589546075
 30
0.0
  0
SEQEND
  5
1B9A3
  8
0
  6
CONTINUOUS
  0
ENDBLK
  5
1B9A5
  8
0
  0
BLOCK
  8
0
  2
*U148
 70
     1
 10
0.0
 20
0.0
 30
0.0
  3
*U148
  1

  0
TEXT
  5
1B9A7
  8
0
 10
2.2573788551886249
 20
0.7830929627745256
 30
0.0
 40
0.125
  1
TL-936
  0
ENDBLK
  5
1B9A9
  8
0
  0
BLOCK
  8
0
  2
*U149
 70
     1
 10
0.0
 20
0.0
 30
0.0
  3
*U149
  1

  0
INSERT
  5
1B9AB
  8
0
  6
CONTINUOUS
  2
_OPEN30
 10
1.1140370353124349
 20
6.0172615651794104
 30
0.0
 41
0.046875
 42
0.046875
 43
0.046875
 50
212.76268937861931
  0
POLYLINE
  5
1B9AC
  8
0
  6
CONTINUOUS
 66
     1
 10
0.0
 20
0.0
 30
0.0
  0
VERTEX
  5
1B9AD
  8
0
  6
CONTINUOUS
 10
1.153455121966132
 20
6.0426284741271239
 30
0.0
  0
VERTEX
  5
1B9AE
  8
0
  6
CONTINUOUS
 10
1.5457270658948801
 20
6.2950691055510779
 30
0.0
  0
VERTEX
  5
1B9AF
  8
0
  6
CONTINUOUS
 10
1.614421022257261
 20
6.2950691055510779
 30
0.0
  0
SEQEND
  5
1B9B0
  8
0
  6
CONTINUOUS
  0
ENDBLK
  5
1B9B2
  8
0
  0
BLOCK
  8
0
  2
*U150
 70
     1
 10
0.0
 20
0.0
 30
0.0
  3
*U150
  1

  0
TEXT
  5
1B9B4
  8
0
 10
1.6728282528166061
 20
6.2320575093709971
 30
0.0
 40
0.125
  1
TL-64
  0
ENDBLK
  5
1B9B6
  8
0
  0
BLOCK
  8
0
  2
*U151
 70
     1
 10
0.0
 20
0.0
 30
0.0
  3
*U151
  1

  0
INSERT
  5
1B9B8
  8
0
  2
_OPEN30
 10
0.7499984483362711
 20
3.323717158281283
 30
0.0
 41
0.046875
 42
0.046875
 43
0.046875
 50
223.3453603417224
  0
POLYLINE
  5
1B9B9
  8
0
 66
     1
 10
0.0
 20
0.0
 30
0.0
  0
VERTEX
  5
1B9BA
  8
0
 10
0.7840873347090377
 20
3.3558918913938451
 30
0.0
  0
VERTEX
  5
1B9BB
  8
0
 10
1.5886209634041959
 20
4.1152494867193354
 30
0.0
  0
VERTEX
  5
1B9BC
  8
0
 10
1.696609421136031
 20
4.1152494867193354
 30
0.0
  0
SEQEND
  5
1B9BD
  8
0
  0
ENDBLK
  5
1B9BF
  8
0
  0
BLOCK
  8
0
  2
*U152
 70
     1
 10
0.0
 20
0.0
 30
0.0
  3
*U152
  1

  0
TEXT
  5
1B9C1
  8
0
 10
1.755016651695376
 20
4.0522378905392529
 30
0.0
 40
0.125
  1
TL-AB212
  0
ENDBLK
  5
1B9C3
  8
0
  0
BLOCK
  8
0
  2
*U153
 70
     1
 10
0.0
 20
0.0
 30
0.0
  3
*U153
  1

  0
INSERT
  5
1B9C5
  8
0
  2
_OPEN30
 10
1.044936595452554
 20
0.5089059855812366
 30
0.0
 41
0.046875
 42
0.046875
 43
0.046875
 50
218.32432662178419
  0
POLYLINE
  5
1B9C6
  8
0
 66
     1
 10
0.0
 20
0.0
 30
0.0
  0
VERTEX
  5
1B9C7
  8
0
 10
1.0817106495577451
 20
0.5379737438310308
 30
0.0
  0
VERTEX
  5
1B9C8
  8
0
 10
1.624617115981436
 20
0.9671098372601819
 30
0.0
  0
VERTEX
  5
1B9C9
  8
0
 10
1.7056084592803691
 20
0.9671098372601819
 30
0.0
  0
SEQEND
  5
1B9CA
  8
0
  0
ENDBLK
  5
1B9CC
  8
0
  0
BLOCK
  8
0
  2
*U154
 70
     1
 10
0.0
 20
0.0
 30
0.0
  3
*U154
  1

  0
TEXT
  5
1B9CE
  8
0
 10
1.7640156898397139
 20
0.9043540391701409
 30
0.0
 40
0.125
  1
TL-AB027
  0
ENDBLK
  5
1B9D0
  8
0
  0
BLOCK
  8
0
  2
*U155
 70
     1
 10
0.0
 20
0.0
 30
0.0
  3
*U155
  1

  0
TEXT
  5
1B9D2
  8
0
 10
2.1745549234235391
 20
2.6225473309813192
 30
0.0
 40
0.125
  1
Base Board Assembly
  0
TEXT
  5
1B9D3
  8
0
 10
2.1832520584849302
 20
2.413702401467904
 30
0.0
 40
0.125
  1
TL-685
  0
TEXT
  5
1B9D4
  8
0
 10
2.1683305032325428
 20
2.2032374173842291
 30
0.0
 40
0.125
  1
1-1/4" x 5-1/2"
  0
TEXT
  5
1B9D5
  8
0
 10
2.1802677474344532
 20
1.992772433300555
 30
0.0
 40
0.125
  1
800.66.TAGUE
  0
ENDBLK
  5
1B9D7
  8
0
  0
BLOCK
  8
0
  2
*U156
 70
     1
 10
0.0
 20
0.0
 30
0.0
  3
*U156
  1

  0
INSERT
  5
1B9D9
  8
0
  2
_OPEN30
 10
1.237403731795552
 20
0.7228374639378217
 30
0.0
 41
0.046875
 42
0.046875
 43
0.046875
 50
218.32432662178419
  0
POLYLINE
  5
1B9DA
  8
0
 66
     1
 10
0.0
 20
0.0
 30
0.0
  0
VERTEX
  5
1B9DB
  8
0
 10
1.274177785900743
 20
0.7519052221876159
 30
0.0
  0
VERTEX
  5
1B9DC
  8
0
 10
1.8170842523244339
 20
1.1810413156167661
 30
0.0
  0
VERTEX
  5
1B9DD
  8
0
 10
1.898075595623367
 20
1.1810413156167661
 30
0.0
  0
SEQEND
  5
1B9DE
  8
0
  0
ENDBLK
  5
1B9E0
  8
0
  0
BLOCK
  8
0
  2
*U157
 70
     1
 10
0.0
 20
0.0
 30
0.0
  3
*U157
  1

  0
TEXT
  5
1B9E2
  8
0
 10
1.9564828261827121
 20
1.1180297194366851
 30
0.0
 40
0.125
  1
TL-AB205-2
  0
ENDBLK
  5
1B9E4
  8
0
  0
BLOCK
  8
0
  2
*U158
 70
     1
 10
0.0
 20
0.0
 30
0.0
  3
*U158
  1

  0
INSERT
  5
1B9E6
  8
0
  2
_OPEN30
 10
0.7805394140341379
 20
3.428009497764946
 30
0.0
 41
0.046875
 42
0.046875
 43
0.046875
 50
223.3453603417224
  0
POLYLINE
  5
1B9E7
  8
0
 66
     1
 10
0.0
 20
0.0
 30
0.0
  0
VERTEX
  5
1B9E8
  8
0
 10
0.8146283004069044
 20
3.460184230877509
 30
0.0
  0
VERTEX
  5
1B9E9
  8
0
 10
1.619161929102062
 20
4.219541826202998
 30
0.0
  0
VERTEX
  5
1B9EA
  8
0
 10
1.727150386833898
 20
4.219541826202998
 30
0.0
  0
SEQEND
  5
1B9EB
  8
0
  0
ENDBLK
  5
1B9ED
  8
0
  0
BLOCK
  8
0
  2
*U159
 70
     1
 10
0.0
 20
0.0
 30
0.0
  3
*U159
  1

  0
TEXT
  5
1B9EF
  8
0
 10
1.785557617393243
 20
4.1565302300229172
 30
0.0
 40
0.125
  1
TL-AB205-1
  0
ENDBLK
  5
1B9F1
  8
0
  0
BLOCK
  8
0
  2
*U160
 70
     1
 10
0.0
 20
0.0
 30
0.0
  3
*U160
  1

  0
TEXT
  5
1B9F3
  8
0
 10
1.775461282784117
 20
2.9617887573592721
 30
0.0
 40
0.125
  1
Base Board Assembly
  0
TEXT
  5
1B9F4
  8
0
 10
1.784158417845509
 20
2.7529438278458569
 30
0.0
 40
0.125
  1
TL-686
  0
TEXT
  5
1B9F5
  8
0
 10
1.769236862593121
 20
2.5424788437621819
 30
0.0
 40
0.125
  1
1-1/4" x 6"
  0
TEXT
  5
1B9F6
  8
0
 10
1.7811741067950311
 20
2.3320138596785078
 30
0.0
 40
0.125
  1
800.66.TAGUE
  0
ENDBLK
  5
1B9F8
  8
0
  0
BLOCK
  8
0
  2
*U161
 70
     1
 10
0.0
 20
0.0
 30
0.0
  3
*U161
  1

  0
TEXT
  5
1B9FA
  8
0
 10
1.8629812104003169
 20
1.3751718201384611
 30
0.0
 40
0.125
  1
Base Board
  0
TEXT
  5
1B9FB
  8
0
 10
1.8716783454617081
 20
1.1663268906250459
 30
0.0
 40
0.125
  1
TL-540
  0
TEXT
  5
1B9FC
  8
0
 10
1.8567567902093209
 20
0.9558619065413724
 30
0.0
 40
0.125
  1
1-1/16" x 1-7/8"
  0
TEXT
  5
1B9FD
  8
0
 10
1.8686940344112311
 20
0.745396922457698
 30
0.0
 40
0.125
  1
800.66.TAGUE
  0
ENDBLK
  5
1B9FF
  8
0
  0
BLOCK
  8
0
  2
*U162
 70
     1
 10
0.0
 20
0.0
 30
0.0
  3
*U162
  1

  0
TEXT
  5
1BA01
  8
0
 10
2.095166123738732
 20
2.843700788541923
 30
0.0
 40
0.125
  1
Base Board
  0
TEXT
  5
1BA02
  8
0
 10
2.1038632588001231
 20
2.6348558590285078
 30
0.0
 40
0.125
  1
TL-541
  0
TEXT
  5
1BA03
  8
0
 10
2.0889417035477358
 20
2.4243908749448329
 30
0.0
 40
0.125
  1
1-5/16" x 5-1/8"
  0
TEXT
  5
1BA04
  8
0
 10
2.1008789477496461
 20
2.2139258908611592
 30
0.0
 40
0.125
  1
800.66.TAGUE
  0
ENDBLK
  5
1BA06
  8
0
  0
BLOCK
  8
0
  2
*U163
 70
     1
 10
0.0
 20
0.0
 30
0.0
  3
*U163
  1

  0
TEXT
  5
1BA08
  8
0
 10
1.3029084100507859
 20
2.5127676930541152
 30
0.0
 40
0.125
  1
Base Board
  0
TEXT
  5
1BA09
  8
0
 10
1.3116055451121771
 20
2.3039227635407
 30
0.0
 40
0.125
  1
TL-36
  0
TEXT
  5
1BA0A
  8
0
 10
1.3084507020016729
 20
2.093457779457025
 30
0.0
 40
0.125
  1
9/16" x 5-1/16"
  0
TEXT
  5
1BA0B
  8
0
 10
1.3086212340617001
 20
1.882992795373351
 30
0.0
 40
0.125
  1
800.66.TAGUE
  0
ENDBLK
  5
1BA0D
  8
0
  0
BLOCK
  8
0
  2
*U164
 70
     1
 10
0.0
 20
0.0
 30
0.0
  3
*U164
  1

  0
TEXT
  5
1BA0F
  8
0
 10
1.1612344098374301
 20
2.1628857347385511
 30
0.0
 40
0.125
  1
Base Board
  0
TEXT
  5
1BA10
  8
0
 10
1.169931544898821
 20
1.9540408052251359
 30
0.0
 40
0.125
  1
TL-543
  0
TEXT
  5
1BA11
  8
0
 10
1.1667767017883159
 20
1.743575821141462
 30
0.0
 40
0.125
  1
9/16" x 4-3/16"
  0
TEXT
  5
1BA12
  8
0
 10
1.1669472338483431
 20
1.5331108370577871
 30
0.0
 40
0.125
  1
800.66.TAGUE
  0
ENDBLK
  5
1BA14
  8
0
  0
BLOCK
  8
0
  2
*U165
 70
     1
 10
0.0
 20
0.0
 30
0.0
  3
*U165
  1

  0
TEXT
  5
1BA16
  8
0
 10
1.038992604214154
 20
2.7540114932149891
 30
0.0
 40
0.125
  1
Base Board
  0
TEXT
  5
1BA17
  8
0
 10
1.0476897392755451
 20
2.545166563701573
 30
0.0
 40
0.125
  1
TL-618
  0
TEXT
  5
1BA18
  8
0
 10
1.0445348961650409
 20
2.3347015796178989
 30
0.0
 40
0.125
  1
9/16" x 5-1/4"
  0
TEXT
  5
1BA19
  8
0
 10
1.0447054282250681
 20
2.1242365955342248
 30
0.0
 40
0.125
  1
800.66.TAGUE
  0
ENDBLK
  5
1BA1B
  8
0
  0
BLOCK
  8
0
  2
*U166
 70
     1
 10
0.0
 20
0.0
 30
0.0
  3
*U166
  1

  0
TEXT
  5
1BA1D
  8
0
 10
1.182401194441109
 20
1.819766214437663
 30
0.0
 40
0.125
  1
Base Board
  0
TEXT
  5
1BA1E
  8
0
 10
1.1910983295024999
 20
1.610921284924248
 30
0.0
 40
0.125
  1
TL-623
  0
TEXT
  5
1BA1F
  8
0
 10
1.1879434863919951
 20
1.400456300840573
 30
0.0
 40
0.125
  1
9/16" x 3-1/2"
  0
TEXT
  5
1BA20
  8
0
 10
1.188114018452022
 20
1.189991316756899
 30
0.0
 40
0.125
  1
800.66.TAGUE
  0
ENDBLK
  5
1BA22
  8
0
  0
BLOCK
  8
0
  2
*U167
 70
     1
 10
0.0
 20
0.0
 30
0.0
  3
*U167
  1

  0
TEXT
  5
1BA24
  8
0
 10
1.300654159433843
 20
1.884782119222677
 30
0.0
 40
0.125
  1
Base Board
  0
TEXT
  5
1BA25
  8
0
 10
1.309351294495235
 20
1.6759371897092621
 30
0.0
 40
0.125
  1
TL-713
  0
TEXT
  5
1BA26
  8
0
 10
1.30619645138473
 20
1.4654722056255871
 30
0.0
 40
0.125
  1
9/16" x 3-1/4"
  0
TEXT
  5
1BA27
  8
0
 10
1.3063669834447571
 20
1.255007221541913
 30
0.0
 40
0.125
  1
800.66.TAGUE
  0
ENDBLK
  5
1BA29
  8
0
  0
BLOCK
  8
0
  2
*U168
 70
     1
 10
0.0
 20
0.0
 30
0.0
  3
*U168
  1

  0
TEXT
  5
1BA2B
  8
0
 10
1.5968605762384229
 20
3.9529851600731258
 30
0.0
 40
0.125
  1
Base Board
  0
TEXT
  5
1BA2C
  8
0
 10
1.6055577112998141
 20
3.7441402305597111
 30
0.0
 40
0.125
  1
TL-602
  0
TEXT
  5
1BA2D
  8
0
 10
1.602317602159296
 20
3.5336752464760361
 30
0.0
 40
0.125
  1
3/4" x 9-1/4"
  0
TEXT
  5
1BA2E
  8
0
 10
1.602573400249337
 20
3.3232102623923621
 30
0.0
 40
0.125
  1
800.66.TAGUE
  0
ENDBLK
  5
1BA30
  8
0
  0
BLOCK
  8
0
  2
*U169
 70
     1
 10
0.0
 20
0.0
 30
0.0
  3
*U169
  1

  0
TEXT
  5
1BA32
  8
0
 10
1.524246887462577
 20
2.1988362265429942
 30
0.0
 40
0.125
  1
Base Board
  0
TEXT
  5
1BA33
  8
0
 10
1.532944022523969
 20
1.989991297029579
 30
0.0
 40
0.125
  1
TL-603
  0
TEXT
  5
1BA34
  8
0
 10
1.52970391338345
 20
1.779526312945904
 30
0.0
 40
0.125
  1
3/4" x 4-1/2"
  0
TEXT
  5
1BA35
  8
0
 10
1.5299597114734911
 20
1.5690613288622299
 30
0.0
 40
0.125
  1
800.66.TAGUE
  0
ENDBLK
  5
1BA37
  8
0
  0
BLOCK
  8
0
  2
*U170
 70
     1
 10
0.0
 20
0.0
 30
0.0
  3
*U170
  1

  0
TEXT
  5
1BA39
  8
0
 10
1.222563432627662
 20
2.8332029065544471
 30
0.0
 40
0.125
  1
Base Board
  0
TEXT
  5
1BA3A
  8
0
 10
1.231260567689054
 20
2.6243579770410319
 30
0.0
 40
0.125
  1
TL-2143
  0
TEXT
  5
1BA3B
  8
0
 10
1.228020458548535
 20
2.4138929929573569
 30
0.0
 40
0.125
  1
3/4" x 5-1/4"
  0
TEXT
  5
1BA3C
  8
0
 10
1.2282762566385761
 20
2.2034280088736828
 30
0.0
 40
0.125
  1
800.66.TAGUE
  0
ENDBLK
  5
1BA3E
  8
0
  0
BLOCK
  8
0
  2
*U171
 70
     1
 10
0.0
 20
0.0
 30
0.0
  3
*U171
  1

  0
TEXT
  5
1BA40
  8
0
 10
1.40527247153032
 20
2.9709364495405448
 30
0.0
 40
0.125
  1
Base Board
  0
TEXT
  5
1BA41
  8
0
 10
1.4139696065917109
 20
2.7620915200271301
 30
0.0
 40
0.125
  1
TL-2001
  0
TEXT
  5
1BA42
  8
0
 10
1.410729497451193
 20
2.5516265359434551
 30
0.0
 40
0.125
  1
3/4" x 7-1/4"
  0
TEXT
  5
1BA43
  8
0
 10
1.4109852955412341
 20
2.341161551859781
 30
0.0
 40
0.125
  1
800.66.TAGUE
  0
ENDBLK
  5
1BA45
  8
0
  0
BLOCK
  8
0
  2
*U172
 70
     1
 10
0.0
 20
0.0
 30
0.0
  3
*U172
  1

  0
TEXT
  5
1BA47
  8
0
 10
1.28063331752558
 20
2.7081572525072479
 30
0.0
 40
0.125
  1
Base Board
  0
TEXT
  5
1BA48
  8
0
 10
1.289330452586972
 20
2.4993123229938332
 30
0.0
 40
0.125
  1
TL-2022
  0
TEXT
  5
1BA49
  8
0
 10
1.286090343446453
 20
2.2888473389101591
 30
0.0
 40
0.125
  1
3/4" x 5-1/2"
  0
TEXT
  5
1BA4A
  8
0
 10
1.2863461415364941
 20
2.078382354826485
 30
0.0
 40
0.125
  1
800.66.TAGUE
  0
ENDBLK
  5
1BA4C
  8
0
  0
BLOCK
  8
0
  2
*U173
 70
     1
 10
0.0
 20
0.0
 30
0.0
  3
*U173
  1

  0
TEXT
  5
1BA4E
  8
0
 10
1.3261446082858399
 20
3.4366400904110601
 30
0.0
 40
0.125
  1
Base Board
  0
TEXT
  5
1BA4F
  8
0
 10
1.334841743347231
 20
3.227795160897645
 30
0.0
 40
0.125
  1
TL-2153
  0
TEXT
  5
1BA50
  8
0
 10
1.3338185509870679
 20
3.01733017681397
 30
0.0
 40
0.125
  1
27/32" x 7-1/4"
  0
TEXT
  5
1BA51
  8
0
 10
1.331857432296754
 20
2.8068651927302959
 30
0.0
 40
0.125
  1
800.66.TAGUE
  0
ENDBLK
  5
1BA53
  8
0
  0
BLOCK
  8
0
  2
*U174
 70
     1
 10
0.0
 20
0.0
 30
0.0
  3
*U174
  1

  0
TEXT
  5
1BA55
  8
0
 10
1.503489615688391
 20
2.5863204410039771
 30
0.0
 40
0.125
  1
Base Board
  0
TEXT
  5
1BA56
  8
0
 10
1.5121867507497819
 20
2.377475511490561
 30
0.0
 40
0.125
  1
TL-2165
  0
TEXT
  5
1BA57
  8
0
 10
1.5080087152791131
 20
2.1670105274068869
 30
0.0
 40
0.125
  1
7/8" x 6"
  0
TEXT
  5
1BA58
  8
0
 10
1.509202439699304
 20
1.9565455433232131
 30
0.0
 40
0.125
  1
800.66.TAGUE
  0
ENDBLK
  5
1BA5A
  8
0
  0
BLOCK
  8
0
  2
*U175
 70
     1
 10
0.0
 20
0.0
 30
0.0
  3
*U175
  1

  0
TEXT
  5
1BA5C
  8
0
 10
1.5064754642446401
 20
2.3208047060226131
 30
0.0
 40
0.125
  1
Base Board
  0
TEXT
  5
1BA5D
  8
0
 10
1.5151725993060321
 20
2.111959776509198
 30
0.0
 40
0.125
  1
TL-2189
  0
TEXT
  5
1BA5E
  8
0
 10
1.511932490165514
 20
1.901494792425523
 30
0.0
 40
0.125
  1
3/4" x 4-7/8"
  0
TEXT
  5
1BA5F
  8
0
 10
1.512188288255554
 20
1.6910298083418489
 30
0.0
 40
0.125
  1
800.66.TAGUE
  0
ENDBLK
  5
1BA61
  8
0
  0
BLOCK
  8
0
  2
*U176
 70
     1
 10
0.0
 20
0.0
 30
0.0
  3
*U176
  1

  0
TEXT
  5
1BA63
  8
0
 10
1.548400335642536
 20
1.277467791325875
 30
0.0
 40
0.125
  1
Base Board
  0
TEXT
  5
1BA64
  8
0
 10
1.557097470703928
 20
1.06862286181246
 30
0.0
 40
0.125
  1
TL-550
  0
TEXT
  5
1BA65
  8
0
 10
1.553857361563409
 20
0.858157877728786
 30
0.0
 40
0.125
  1
3/4" x 2-3/16"
  0
TEXT
  5
1BA66
  8
0
 10
1.5541131596534501
 20
0.6476928936451117
 30
0.0
 40
0.125
  1
800.66.TAGUE
  0
ENDBLK
  5
1BA68
  8
0
  0
BLOCK
  8
0
  2
*U177
 70
     1
 10
0.0
 20
0.0
 30
0.0
  3
*U177
  1

  0
TEXT
  5
1BA6A
  8
0
 10
1.288066291210707
 20
2.8139586047301459
 30
0.0
 40
0.125
  1
Base Board
  0
TEXT
  5
1BA6B
  8
0
 10
1.2967634262720991
 20
2.6051136752167312
 30
0.0
 40
0.125
  1
TL-551
  0
TEXT
  5
1BA6C
  8
0
 10
1.2935233171315801
 20
2.3946486911330558
 30
0.0
 40
0.125
  1
3/4" x 5-1/2"
  0
TEXT
  5
1BA6D
  8
0
 10
1.2937791152216209
 20
2.1841837070493821
 30
0.0
 40
0.125
  1
800.66.TAGUE
  0
ENDBLK
  5
1BA6F
  8
0
  0
BLOCK
  8
0
  2
*U178
 70
     1
 10
0.0
 20
0.0
 30
0.0
  3
*U178
  1

  0
TEXT
  5
1BA71
  8
0
 10
1.8159948421621079
 20
3.2870887232147652
 30
0.0
 40
0.125
  1
Base Board
  0
TEXT
  5
1BA72
  8
0
 10
1.8246919772235
 20
3.07824379370135
 30
0.0
 40
0.125
  1
TL-2231
  0
TEXT
  5
1BA73
  8
0
 10
1.8205139417528311
 20
2.8677788096176751
 30
0.0
 40
0.125
  1
7/8" x 6-3/8"
  0
TEXT
  5
1BA74
  8
0
 10
1.821707666173022
 20
2.657313825534001
 30
0.0
 40
0.125
  1
800.66.TAGUE
  0
ENDBLK
  5
1BA76
  8
0
  0
BLOCK
  8
0
  2
*U179
 70
     1
 10
0.0
 20
0.0
 30
0.0
  3
*U179
  1

  0
TEXT
  5
1BA78
  8
0
 10
1.78408614611963
 20
2.2765211976219462
 30
0.0
 40
0.125
  1
Base Board
  0
TEXT
  5
1BA79
  8
0
 10
1.7927832811810209
 20
2.067676268108531
 30
0.0
 40
0.125
  1
TL-2266
  0
TEXT
  5
1BA7A
  8
0
 10
1.7895431720405031
 20
1.857211284024856
 30
0.0
 40
0.125
  1
3/4" x 5-1/2"
  0
TEXT
  5
1BA7B
  8
0
 10
1.7897989701305439
 20
1.6467462999411819
 30
0.0
 40
0.125
  1
800.66.TAGUE
  0
ENDBLK
  5
1BA7D
  8
0
  0
BLOCK
  8
0
  2
*U180
 70
     1
 10
0.0
 20
0.0
 30
0.0
  3
*U180
  1

  0
TEXT
  5
1BA7F
  8
0
 10
1.6156709723986571
 20
2.0615835911685281
 30
0.0
 40
0.125
  1
Base Board
  0
TEXT
  5
1BA80
  8
0
 10
1.624368107460048
 20
1.8527386616551129
 30
0.0
 40
0.125
  1
TL-2284
  0
TEXT
  5
1BA81
  8
0
 10
1.623327861893882
 20
1.6799953692494729
 30
0.0
 40
0.0875
  1
3
  0
LINE
  5
1BA82
  8
0
 10
1.6501550442224879
 20
1.6083195653741871
 30
0.0
 11
1.750530920583921
 21
1.7516711731247601
 31
0.0
  0
TEXT
  5
1BA83
  8
0
 10
1.713374473990289
 20
1.5633287025828071
 30
0.0
 40
0.0875
  1
4
  0
TEXT
  5
1BA84
  8
0
 10
1.7812973934991569
 20
1.592495369249473
 30
0.0
 40
0.125
  1
" x 4"
  0
TEXT
  5
1BA85
  8
0
 10
1.621383796409571
 20
1.4236970518324661
 30
0.0
 40
0.125
  1
800.66.TAGUE
  0
ENDBLK
  5
1BA87
  8
0
  0
BLOCK
  8
0
  2
*U181
 70
     1
 10
0.0
 20
0.0
 30
0.0
  3
*U181
  1

  0
TEXT
  5
1BA89
  8
0
 10
1.985809015314014
 20
3.2420859682381429
 30
0.0
 40
0.125
  1
Base Board
  0
TEXT
  5
1BA8A
  8
0
 10
1.9945061503754049
 20
3.0332410387247282
 30
0.0
 40
0.125
  1
TL-2312
  0
TEXT
  5
1BA8B
  8
0
 10
1.991266041234887
 20
2.8227760546410532
 30
0.0
 40
0.125
  1
3/4" x 5-1/2"
  0
TEXT
  5
1BA8C
  8
0
 10
1.9915218393249281
 20
2.6123110705573791
 30
0.0
 40
0.125
  1
800.66.TAGUE
  0
ENDBLK
  5
1BA8E
  8
0
  0
BLOCK
  8
0
  2
*U182
 70
     1
 10
0.0
 20
0.0
 30
0.0
  3
*U182
  1

  0
TEXT
  5
1BA90
  8
0
 10
1.5904625436382209
 20
1.187343171125592
 30
0.0
 40
0.125
  1
Base Cap
  0
TEXT
  5
1BA91
  8
0
 10
1.5991596786996121
 20
0.9784982416121771
 30
0.0
 40
0.125
  1
TL-19
  0
TEXT
  5
1BA92
  8
0
 10
1.595919569559094
 20
0.7680332575285026
 30
0.0
 40
0.125
  1
3/4" x 1-11/16"
  0
TEXT
  5
1BA93
  8
0
 10
1.5961753676491339
 20
0.5575682734448283
 30
0.0
 40
0.125
  1
800.66.TAGUE
  0
ENDBLK
  5
1BA95
  8
0
  0
BLOCK
  8
0
  2
*U183
 70
     1
 10
0.0
 20
0.0
 30
0.0
  3
*U183
  1

  0
TEXT
  5
1BA97
  8
0
 10
1.4253430714126509
 20
0.9125752017053105
 30
0.0
 40
0.125
  1
Base Cap
  0
TEXT
  5
1BA98
  8
0
 10
1.4340402064740421
 20
0.7037302721918956
 30
0.0
 40
0.125
  1
TL-163
  0
TEXT
  5
1BA99
  8
0
 10
1.4191186512216549
 20
0.493265288108221
 30
0.0
 40
0.125
  1
11/16" x 1-3/8"
  0
TEXT
  5
1BA9A
  8
0
 10
1.431055895423565
 20
0.2828003040245466
 30
0.0
 40
0.125
  1
800.66.TAGUE
  0
ENDBLK
  5
1BA9C
  8
0
  0
BLOCK
  8
0
  2
*U184
 70
     1
 10
0.0
 20
0.0
 30
0.0
  3
*U184
  1

  0
TEXT
  5
1BA9E
  8
0
 10
1.7853447687182711
 20
1.162173847628553
 30
0.0
 40
0.125
  1
Base Cap
  0
TEXT
  5
1BA9F
  8
0
 10
1.794041903779662
 20
0.9533289181151381
 30
0.0
 40
0.125
  1
TL-215
  0
TEXT
  5
1BAA0
  8
0
 10
1.789863868308994
 20
0.7428639340314637
 30
0.0
 40
0.125
  1
7/8" x 1-15/16"
  0
TEXT
  5
1BAA1
  8
0
 10
1.791057592729185
 20
0.5323989499477893
 30
0.0
 40
0.125
  1
800.66.TAGUE
  0
ENDBLK
  5
1BAA3
  8
0
  0
BLOCK
  8
0
  2
*U185
 70
     1
 10
0.0
 20
0.0
 30
0.0
  3
*U185
  1

  0
TEXT
  5
1BAA5
  8
0
 10
1.5358763075020461
 20
8.1022165940801347
 30
0.0
 40
0.125
  1
Base Cap
  0
TEXT
  5
1BAA6
  8
0
 10
1.5445734425634381
 20
7.89337166456672
 30
0.0
 40
0.125
  1
TL-230
  0
TEXT
  5
1BAA7
  8
0
 10
1.540395407092769
 20
7.682906680483045
 30
0.0
 40
0.125
  1
7/8" x 1-15/16"
  0
TEXT
  5
1BAA8
  8
0
 10
1.54158913151296
 20
7.4724416963993701
 30
0.0
 40
0.125
  1
800.66.TAGUE
  0
ENDBLK
  5
1BAAA
  8
0
  0
BLOCK
  8
0
  2
*U186
 70
     1
 10
0.0
 20
0.0
 30
0.0
  3
*U186
  1

  0
TEXT
  5
1BAAC
  8
0
 10
1.6109911707451761
 20
1.18025645756599
 30
0.0
 40
0.125
  1
Base Cap
  0
TEXT
  5
1BAAD
  8
0
 10
1.619688305806567
 20
0.9714115280525753
 30
0.0
 40
0.125
  1
TL-406
  0
TEXT
  5
1BAAE
  8
0
 10
1.615510270335899
 20
0.7609465439689008
 30
0.0
 40
0.125
  1
7/8" x 1-11/16"
  0
TEXT
  5
1BAAF
  8
0
 10
1.6167039947560899
 20
0.5504815598852265
 30
0.0
 40
0.125
  1
800.66.TAGUE
  0
ENDBLK
  5
1BAB1
  8
0
  0
BLOCK
  8
0
  2
*U187
 70
     1
 10
0.0
 20
0.0
 30
0.0
  3
*U187
  1

  0
TEXT
  5
1BAB3
  8
0
 10
1.322001327344235
 20
1.081186133431872
 30
0.0
 40
0.125
  1
Base Cap
  0
TEXT
  5
1BAB4
  8
0
 10
1.3306984624056259
 20
0.8723412039184573
 30
0.0
 40
0.125
  1
TL-314
  0
TEXT
  5
1BAB5
  8
0
 10
1.3274583532651081
 20
0.661876219834783
 30
0.0
 40
0.125
  1
3/4" x 1-3/8"
  0
TEXT
  5
1BAB6
  8
0
 10
1.3277141513551489
 20
0.4514112357511085
 30
0.0
 40
0.125
  1
800.66.TAGUE
  0
ENDBLK
  5
1BAB8
  8
0
  0
BLOCK
  8
0
  2
*U188
 70
     1
 10
0.0
 20
0.0
 30
0.0
  3
*U188
  1

  0
TEXT
  5
1BABA
  8
0
 10
1.545356558052088
 20
0.8011638535049475
 30
0.0
 40
0.125
  1
Base Cap
  0
TEXT
  5
1BABB
  8
0
 10
1.554053693113479
 20
0.5923189239915323
 30
0.0
 40
0.125
  1
TL-2021
  0
TEXT
  5
1BABC
  8
0
 10
1.5498756576428101
 20
0.3818539399078579
 30
0.0
 40
0.125
  1
7/8" x 1"
  0
TEXT
  5
1BABD
  8
0
 10
1.551069382063001
 20
0.1713889558241834
 30
0.0
 40
0.125
  1
800.66.TAGUE
  0
ENDBLK
  5
1BABF
  8
0
  0
BLOCK
  8
0
  2
*U189
 70
     1
 10
0.0
 20
0.0
 30
0.0
  3
*U189
  1

  0
TEXT
  5
1BAC1
  8
0
 10
1.849024073205253
 20
1.552839362160755
 30
0.0
 40
0.125
  1
Base Cap
  0
TEXT
  5
1BAC2
  8
0
 10
1.8577212082666441
 20
1.3439944326473401
 30
0.0
 40
0.125
  1
TL-2025
  0
TEXT
  5
1BAC3
  8
0
 10
1.842799653014257
 20
1.1335294485636651
 30
0.0
 40
0.125
  1
1-1/4" x 2"
  0
TEXT
  5
1BAC4
  8
0
 10
1.8547368972161671
 20
0.9230644644799912
 30
0.0
 40
0.125
  1
800.66.TAGUE
  0
ENDBLK
  5
1BAC6
  8
0
  0
BLOCK
  8
0
  2
*U190
 70
     1
 10
0.0
 20
0.0
 30
0.0
  3
*U190
  1

  0
TEXT
  5
1BAC8
  8
0
 10
1.3718096514217379
 20
1.0633370050964159
 30
0.0
 40
0.125
  1
Base Cap
  0
TEXT
  5
1BAC9
  8
0
 10
1.3805067864831291
 20
0.8544920755830013
 30
0.0
 40
0.125
  1
TL-2085
  0
TEXT
  5
1BACA
  8
0
 10
1.377266677342611
 20
0.6440270914993268
 30
0.0
 40
0.125
  1
3/4" x 1-5/16"
  0
TEXT
  5
1BACB
  8
0
 10
1.377522475432652
 20
0.4335621074156525
 30
0.0
 40
0.125
  1
800.66.TAGUE
  0
ENDBLK
  5
1BACD
  8
0
  0
BLOCK
  8
0
  2
*U191
 70
     1
 10
0.0
 20
0.0
 30
0.0
  3
*U191
  1

  0
TEXT
  5
1BACF
  8
0
 10
1.464885786847087
 20
0.8118267597790396
 30
0.0
 40
0.125
  1
Base Cap
  0
TEXT
  5
1BAD0
  8
0
 10
1.4735829219084791
 20
0.6029818302656245
 30
0.0
 40
0.125
  1
TL-2147
  0
TEXT
  5
1BAD1
  8
0
 10
1.4703428127679601
 20
0.39251684618195
 30
0.0
 40
0.125
  1
3/4" x 1-1/4"
  0
TEXT
  5
1BAD2
  8
0
 10
1.4705986108580009
 20
0.1820518620982756
 30
0.0
 40
0.125
  1
800.66.TAGUE
  0
ENDBLK
  5
1BAD4
  8
0
  0
BLOCK
  8
0
  2
*U192
 70
     1
 10
0.0
 20
0.0
 30
0.0
  3
*U192
  1

  0
TEXT
  5
1BAD6
  8
0
 10
1.771984131257607
 20
0.8092216071741109
 30
0.0
 40
0.125
  1
Base Cap
  0
TEXT
  5
1BAD7
  8
0
 10
1.7806812663189979
 20
0.6003766776606958
 30
0.0
 40
0.125
  1
TL-2086
  0
TEXT
  5
1BAD8
  8
0
 10
1.7774411571784801
 20
0.3899116935770214
 30
0.0
 40
0.125
  1
3/4" x 1-1/4"
  0
TEXT
  5
1BAD9
  8
0
 10
1.7776969552685209
 20
0.179446709493347
 30
0.0
 40
0.125
  1
800.66.TAGUE
  0
ENDBLK
  5
1BADB
  8
0
  0
BLOCK
  8
0
  2
*U193
 70
     1
 10
0.0
 20
0.0
 30
0.0
  3
*U193
  1

  0
TEXT
  5
1BADD
  8
0
 10
1.5885997392245299
 20
0.7688960449700222
 30
0.0
 40
0.125
  1
Base Cap
  0
TEXT
  5
1BADE
  8
0
 10
1.5972968742859219
 20
0.5600511154566071
 30
0.0
 40
0.125
  1
TL-2140
  0
TEXT
  5
1BADF
  8
0
 10
1.5941420311754171
 20
0.3495861313729326
 30
0.0
 40
0.125
  1
5/8" x 1-1/8"
  0
TEXT
  5
1BAE0
  8
0
 10
1.594312563235444
 20
0.1391211472892582
 30
0.0
 40
0.125
  1
800.66.TAGUE
  0
ENDBLK
  5
1BAE2
  8
0
  0
BLOCK
  8
0
  2
*U194
 70
     1
 10
0.0
 20
0.0
 30
0.0
  3
*U194
  1

  0
TEXT
  5
1BAE4
  8
0
 10
1.599800712551807
 20
0.7455601950585038
 30
0.0
 40
0.125
  1
Base Cap
  0
TEXT
  5
1BAE5
  8
0
 10
1.608497847613199
 20
0.5367152655450888
 30
0.0
 40
0.125
  1
TL-2177
  0
TEXT
  5
1BAE6
  8
0
 10
1.593576292360811
 20
0.3262502814614142
 30
0.0
 40
0.125
  1
11/16" x 13/16"
  0
TEXT
  5
1BAE7
  8
0
 10
1.6055135365627211
 20
0.1157852973777398
 30
0.0
 40
0.125
  1
800.66.TAGUE
  0
ENDBLK
  5
1BAE9
  8
0
  0
BLOCK
  8
0
  2
*U195
 70
     1
 10
0.0
 20
0.0
 30
0.0
  3
*U195
  1

  0
TEXT
  5
1BAEB
  8
0
 10
1.409121497152835
 20
1.100665305216368
 30
0.0
 40
0.125
  1
Base Cap
  0
TEXT
  5
1BAEC
  8
0
 10
1.4178186322142261
 20
0.8918203757029537
 30
0.0
 40
0.125
  1
TL-2223
  0
TEXT
  5
1BAED
  8
0
 10
1.4167954398540621
 20
0.6813553916192793
 30
0.0
 40
0.125
  1
23/32" x 1-21/32"
  0
TEXT
  5
1BAEE
  8
0
 10
1.4148343211637491
 20
0.4708904075356049
 30
0.0
 40
0.125
  1
800.66.TAGUE
  0
ENDBLK
  5
1BAF0
  8
0
  0
BLOCK
  8
0
  2
*U196
 70
     1
 10
0.0
 20
0.0
 30
0.0
  3
*U196
  1

  0
TEXT
  5
1BAF2
  8
0
 10
1.5836197280722599
 20
0.9903470469529498
 30
0.0
 40
0.125
  1
Base Cap
  0
TEXT
  5
1BAF3
  8
0
 10
1.5923168631336519
 20
0.7815021174395347
 30
0.0
 40
0.125
  1
TL-2305
  0
TEXT
  5
1BAF4
  8
0
 10
1.5881388276629831
 20
0.5710371333558603
 30
0.0
 40
0.125
  1
7/8" x 1-5/8"
  0
TEXT
  5
1BAF5
  8
0
 10
1.589332552083174
 20
0.3605721492721858
 30
0.0
 40
0.125
  1
800.66.TAGUE
  0
ENDBLK
  5
1BAF7
  8
0
  0
BLOCK
  8
0
  2
*U197
 70
     1
 10
0.0
 20
0.0
 30
0.0
  3
*U197
  1

  0
TEXT
  5
1BAF9
  8
0
 10
1.6244313742592269
 20
0.7971099757234175
 30
0.0
 40
0.125
  1
Base Cap
  0
TEXT
  5
1BAFA
  8
0
 10
1.633128509320618
 20
0.5882650462100023
 30
0.0
 40
0.125
  1
TL-2316
  0
TEXT
  5
1BAFB
  8
0
 10
1.6299736662101141
 20
0.3778000621263279
 30
0.0
 40
0.125
  1
9/16" x 1"
  0
TEXT
  5
1BAFC
  8
0
 10
1.630144198270141
 20
0.1673350780426535
 30
0.0
 40
0.125
  1
800.66.TAGUE
  0
ENDBLK
  5
1BAFE
  8
0
  0
BLOCK
  8
0
  2
*U198
 70
     1
 10
0.0
 20
0.0
 30
0.0
  3
*U198
  1

  0
TEXT
  5
1BB00
  8
0
 10
2.115043862769066
 20
1.229933704569248
 30
0.0
 40
0.125
  1
Bed Moulding
  0
TEXT
  5
1BB01
  8
0
 10
2.123740997830458
 20
1.0216003712359141
 30
0.0
 40
0.125
  1
TL-5
  0
TEXT
  5
1BB02
  8
0
 10
2.1088194425780711
 20
0.8111353871522405
 30
0.0
 40
0.125
  1
11/16" x 4-1/4"
  0
TEXT
  5
1BB03
  8
0
 10
2.1207566867799801
 20
0.6006704030685662
 30
0.0
 40
0.125
  1
800.66.TAGUE
  0
ENDBLK
  5
1BB05
  8
0
  0
BLOCK
  8
0
  2
*U199
 70
     1
 10
0.0
 20
0.0
 30
0.0
  3
*U199
  1

  0
TEXT
  5
1BB07
  8
0
 10
1.629515168649714
 20
0.7172567633590461
 30
0.0
 40
0.125
  1
Bed Moulding
  0
TEXT
  5
1BB08
  8
0
 10
1.6382123037111049
 20
0.508411833845631
 30
0.0
 40
0.125
  1
TL-71
  0
TEXT
  5
1BB09
  8
0
 10
1.6350574606006001
 20
0.2979468497619565
 30
0.0
 40
0.125
  1
9/16" x 2-5/8"
  0
TEXT
  5
1BB0A
  8
0
 10
1.6352279926606279
 20
0.0874818656782821
 30
0.0
 40
0.125
  1
800.66.TAGUE
  0
ENDBLK
  5
1BB0C
  8
0
  0
BLOCK
  8
0
  2
*U200
 70
     1
 10
0.0
 20
0.0
 30
0.0
  3
*U200
  1

  0
TEXT
  5
1BB0E
  8
0
 10
7.9006361773201483
 20
3.2038315196236899
 30
0.0
 40
0.125
  1
Bed Moulding
  0
TEXT
  5
1BB0F
  8
0
 10
7.9093333123815386
 20
2.9954981862903569
 30
0.0
 40
0.125
  1
TL-75
  0
TEXT
  5
1BB10
  8
0
 10
7.9061784692710351
 20
2.7850332022066828
 30
0.0
 40
0.125
  1
9/16" x 1-5/8"
  0
TEXT
  5
1BB11
  8
0
 10
7.9063490013310611
 20
2.5745682181230078
 30
0.0
 40
0.125
  1
800.66.TAGUE
  0
ENDBLK
  5
1BB13
  8
0
  0
BLOCK
  8
0
  2
*U201
 70
     1
 10
0.0
 20
0.0
 30
0.0
  3
*U201
  1

  0
TEXT
  5
1BB15
  8
0
 10
2.2408914082736651
 20
1.3092809657421181
 30
0.0
 40
0.125
  1
Bed Moulding
  0
TEXT
  5
1BB16
  8
0
 10
2.2495885433350562
 20
1.1004360362287029
 30
0.0
 40
0.125
  1
TL-2029
  0
TEXT
  5
1BB17
  8
0
 10
2.2346669880826688
 20
0.8899710521450289
 30
0.0
 40
0.125
  1
1-5/16" x 5-1/2"
  0
TEXT
  5
1BB18
  8
0
 10
2.2466042322845792
 20
0.6795060680613546
 30
0.0
 40
0.125
  1
800.66.TAGUE
  0
ENDBLK
  5
1BB1A
  8
0
  0
BLOCK
  8
0
  2
*U202
 70
     1
 10
0.0
 20
0.0
 30
0.0
  3
*U202
  1

  0
TEXT
  5
1BB1C
  8
0
 10
1.741152150489806
 20
0.8721200061611398
 30
0.0
 40
0.125
  1
Bed Moulding
  0
TEXT
  5
1BB1D
  8
0
 10
1.749849285551198
 20
0.6632750766477247
 30
0.0
 40
0.125
  1
TL-2131
  0
TEXT
  5
1BB1E
  8
0
 10
1.73492773029881
 20
0.4528100925640503
 30
0.0
 40
0.125
  1
11/16" x 1-3/4"
  0
TEXT
  5
1BB1F
  8
0
 10
1.7468649745007201
 20
0.2423451084803758
 30
0.0
 40
0.125
  1
800.66.TAGUE
  0
ENDBLK
  5
1BB21
  8
0
  0
BLOCK
  8
0
  2
*U203
 70
     1
 10
0.0
 20
0.0
 30
0.0
  3
*U203
  1

  0
TEXT
  5
1BB23
  8
0
 10
1.736669936528789
 20
1.087407220742322
 30
0.0
 40
0.125
  1
Cabinet Head
  0
TEXT
  5
1BB24
  8
0
 10
1.7412743021495249
 20
0.8785622912289078
 30
0.0
 40
0.125
  1
TL-39
  0
TEXT
  5
1BB25
  8
0
 10
1.726352746897138
 20
0.6680973071452333
 30
0.0
 40
0.125
  1
1-1/8" x 2-1/4"
  0
TEXT
  5
1BB26
  8
0
 10
1.7382899910990479
 20
0.457632323061559
 30
0.0
 40
0.125
  1
800.66.TAGUE
  0
ENDBLK
  5
1BB28
  8
0
  0
BLOCK
  8
0
  2
*U204
 70
     1
 10
0.0
 20
0.0
 30
0.0
  3
*U204
  1

  0
TEXT
  5
1BB2A
  8
0
 10
1.360420595476431
 20
0.9856411059979723
 30
0.0
 40
0.125
  1
Cabinet Head
  0
TEXT
  5
1BB2B
  8
0
 10
1.3650249610971681
 20
0.7767961764845573
 30
0.0
 40
0.125
  1
TL-210
  0
TEXT
  5
1BB2C
  8
0
 10
1.3501034058447801
 20
0.5663311924008828
 30
0.0
 40
0.125
  1
11/16" x 1-5/8"
  0
TEXT
  5
1BB2D
  8
0
 10
1.3620406500466899
 20
0.3558662083172084
 30
0.0
 40
0.125
  1
800.66.TAGUE
  0
ENDBLK
  5
1BB2F
  8
0
  0
BLOCK
  8
0
  2
*U205
 70
     1
 10
0.0
 20
0.0
 30
0.0
  3
*U205
  1

  0
TEXT
  5
1BB31
  8
0
 10
1.689513912791232
 20
1.0073053043701219
 30
0.0
 40
0.125
  1
Cap Moulding
  0
TEXT
  5
1BB32
  8
0
 10
1.6941182784119679
 20
0.7984603748567074
 30
0.0
 40
0.125
  1
TL-290
  0
TEXT
  5
1BB33
  8
0
 10
1.679196723159581
 20
0.587995390773033
 30
0.0
 40
0.125
  1
11/16" x 1-3/8"
  0
TEXT
  5
1BB34
  8
0
 10
1.6911339673614909
 20
0.3775304066893585
 30
0.0
 40
0.125
  1
800.66.TAGUE
  0
ENDBLK
  5
1BB36
  8
0
  0
BLOCK
  8
0
  2
*U206
 70
     1
 10
0.0
 20
0.0
 30
0.0
  3
*U206
  1

  0
TEXT
  5
1BB38
  8
0
 10
2.5350454110569318
 20
1.19171859651705
 30
0.0
 40
0.125
  1
Cap Moulding
  0
TEXT
  5
1BB39
  8
0
 10
2.5396497766776691
 20
0.9828736670036357
 30
0.0
 40
0.125
  1
TL-2194
  0
TEXT
  5
1BB3A
  8
0
 10
2.5247282214252809
 20
0.7724086829199611
 30
0.0
 40
0.125
  1
1-5/8" x 2"
  0
TEXT
  5
1BB3B
  8
0
 10
2.5366654656271912
 20
0.5619436988362868
 30
0.0
 40
0.125
  1
800.66.TAGUE
  0
ENDBLK
  5
1BB3D
  8
0
  0
BLOCK
  8
0
  2
*U207
 70
     1
 10
0.0
 20
0.0
 30
0.0
  3
*U207
  1

  0
TEXT
  5
1BB3F
  8
0
 10
1.5935373926513181
 20
2.083424344800862
 30
0.0
 40
0.125
  1
Casing
  0
TEXT
  5
1BB40
  8
0
 10
1.598141758272055
 20
1.8745794152874471
 30
0.0
 40
0.125
  1
TL-34
  0
TEXT
  5
1BB41
  8
0
 10
1.5939637228013861
 20
1.6641144312037719
 30
0.0
 40
0.125
  1
7/8" x 3-11/16"
  0
TEXT
  5
1BB42
  8
0
 10
1.595157447221577
 20
1.453649447120098
 30
0.0
 40
0.125
  1
800.66.TAGUE
  0
ENDBLK
  5
1BB44
  8
0
  0
BLOCK
  8
0
  2
*U208
 70
     1
 10
0.0
 20
0.0
 30
0.0
  3
*U208
  1

  0
TEXT
  5
1BB46
  8
0
 10
1.5662690242219
 20
2.1084973644994012
 30
0.0
 40
0.125
  1
Casing
  0
TEXT
  5
1BB47
  8
0
 10
1.570873389842637
 20
1.899652434985986
 30
0.0
 40
0.125
  1
TL-38
  0
TEXT
  5
1BB48
  8
0
 10
1.5666953543719679
 20
1.689187450902311
 30
0.0
 40
0.125
  1
7/8" x 3-13/16"
  0
TEXT
  5
1BB49
  8
0
 10
1.5678890787921591
 20
1.4787224668186369
 30
0.0
 40
0.125
  1
800.66.TAGUE
  0
ENDBLK
  5
1BB4B
  8
0
  0
BLOCK
  8
0
  2
*U209
 70
     1
 10
0.0
 20
0.0
 30
0.0
  3
*U209
  1

  0
TEXT
  5
1BB4D
  8
0
 10
1.444573544634953
 20
1.9934166265428681
 30
0.0
 40
0.125
  1
Casing
  0
TEXT
  5
1BB4E
  8
0
 10
1.4491779102556901
 20
1.784571697029453
 30
0.0
 40
0.125
  1
TL-212
  0
TEXT
  5
1BB4F
  8
0
 10
1.445937801115172
 20
1.5741067129457791
 30
0.0
 40
0.125
  1
3/4" x 3-3/4"
  0
TEXT
  5
1BB50
  8
0
 10
1.446193599205212
 20
1.3636417288621041
 30
0.0
 40
0.125
  1
800.66.TAGUE
  0
ENDBLK
  5
1BB52
  8
0
  0
BLOCK
  8
0
  2
*U210
 70
     1
 10
0.0
 20
0.0
 30
0.0
  3
*U210
  1

  0
TEXT
  5
1BB54
  8
0
 10
1.7897927446773321
 20
1.8760126601283831
 30
0.0
 40
0.125
  1
Casing
  0
TEXT
  5
1BB55
  8
0
 10
1.7943971102980689
 20
1.6671677306149679
 30
0.0
 40
0.125
  1
TL-310
  0
TEXT
  5
1BB56
  8
0
 10
1.779475555045682
 20
1.4567027465312929
 30
0.0
 40
0.125
  1
1-1/16" x 3-7/16"
  0
TEXT
  5
1BB57
  8
0
 10
1.7914127992475919
 20
1.2462377624476191
 30
0.0
 40
0.125
  1
800.66.TAGUE
  0
ENDBLK
  5
1BB59
  8
0
  0
BLOCK
  8
0
  2
*U211
 70
     1
 10
0.0
 20
0.0
 30
0.0
  3
*U211
  1

  0
TEXT
  5
1BB5B
  8
0
 10
1.6846224502081431
 20
1.926744489349987
 30
0.0
 40
0.125
  1
Casing
  0
TEXT
  5
1BB5C
  8
0
 10
1.689226815828879
 20
1.7178995598365721
 30
0.0
 40
0.125
  1
TL-311
  0
TEXT
  5
1BB5D
  8
0
 10
1.6743052605764921
 20
1.5074345757528971
 30
0.0
 40
0.125
  1
1" x 3-1/2"
  0
TEXT
  5
1BB5E
  8
0
 10
1.686242504778402
 20
1.296969591669223
 30
0.0
 40
0.125
  1
800.66.TAGUE
  0
ENDBLK
  5
1BB60
  8
0
  0
BLOCK
  8
0
  2
*U212
 70
     1
 10
0.0
 20
0.0
 30
0.0
  3
*U212
  1

  0
TEXT
  5
1BB62
  8
0
 10
1.520306519003928
 20
2.0258391013684491
 30
0.0
 40
0.125
  1
Casing
  0
TEXT
  5
1BB63
  8
0
 10
1.5249108846246651
 20
1.816994171855034
 30
0.0
 40
0.125
  1
TL-312
  0
TEXT
  5
1BB64
  8
0
 10
1.5207328491539971
 20
1.606529187771359
 30
0.0
 40
0.125
  1
7/8" x 3-7/8"
  0
TEXT
  5
1BB65
  8
0
 10
1.5219265735741869
 20
1.3960642036876849
 30
0.0
 40
0.125
  1
800.66.TAGUE
  0
ENDBLK
  5
1BB67
  8
0
  0
BLOCK
  8
0
  2
*U213
 70
     1
 10
0.0
 20
0.0
 30
0.0
  3
*U213
  1

  0
TEXT
  5
1BB69
  8
0
 10
1.3328973168081331
 20
2.164714518610837
 30
0.0
 40
0.125
  1
Casing
  0
TEXT
  5
1BB6A
  8
0
 10
1.3375016824288699
 20
1.955869589097422
 30
0.0
 40
0.125
  1
TL-322
  0
TEXT
  5
1BB6B
  8
0
 10
1.334261573288352
 20
1.7454046050137479
 30
0.0
 40
0.125
  1
3/4" x 4"
  0
TEXT
  5
1BB6C
  8
0
 10
1.3345173713783931
 20
1.534939620930073
 30
0.0
 40
0.125
  1
800.66.TAGUE
  0
ENDBLK
  5
1BB6E
  8
0
  0
BLOCK
  8
0
  2
*U214
 70
     1
 10
0.0
 20
0.0
 30
0.0
  3
*U214
  1

  0
TEXT
  5
1BB70
  8
0
 10
1.752676654927062
 20
1.326106447528802
 30
0.0
 40
0.125
  1
Casing
  0
TEXT
  5
1BB71
  8
0
 10
1.7572810205477991
 20
1.1172615180153871
 30
0.0
 40
0.125
  1
TL-327
  0
TEXT
  5
1BB72
  8
0
 10
1.7423594652954111
 20
0.9067965339317131
 30
0.0
 40
0.125
  1
11/16" x 2-1/4"
  0
TEXT
  5
1BB73
  8
0
 10
1.754296709497321
 20
0.6963315498480388
 30
0.0
 40
0.125
  1
800.66.TAGUE
  0
ENDBLK
  5
1BB75
  8
0
  0
BLOCK
  8
0
  2
*U215
 70
     1
 10
0.0
 20
0.0
 30
0.0
  3
*U215
  1

  0
TEXT
  5
1BB77
  8
0
 10
1.353741116408945
 20
1.5097483307285
 30
0.0
 40
0.125
  1
Casing
  0
TEXT
  5
1BB78
  8
0
 10
1.3583454820296821
 20
1.3009034012150851
 30
0.0
 40
0.125
  1
TL-331
  0
TEXT
  5
1BB79
  8
0
 10
1.3434239267772941
 20
1.0904384171314101
 30
0.0
 40
0.125
  1
11/16" x 2-1/2"
  0
TEXT
  5
1BB7A
  8
0
 10
1.3553611709792039
 20
0.8799734330477367
 30
0.0
 40
0.125
  1
800.66.TAGUE
  0
ENDBLK
  5
1BB7C
  8
0
  0
BLOCK
  8
0
  2
*U216
 70
     1
 10
0.0
 20
0.0
 30
0.0
  3
*U216
  1

  0
TEXT
  5
1BB7E
  8
0
 10
1.5202473442910549
 20
2.054431738326131
 30
0.0
 40
0.125
  1
Casing
  0
TEXT
  5
1BB7F
  8
0
 10
1.5248517099117911
 20
1.8455868088127161
 30
0.0
 40
0.125
  1
TL-332
  0
TEXT
  5
1BB80
  8
0
 10
1.5099301546594039
 20
1.635121824729042
 30
0.0
 40
0.125
  1
11/16" x 3-1/2"
  0
TEXT
  5
1BB81
  8
0
 10
1.5218673988613141
 20
1.424656840645367
 30
0.0
 40
0.125
  1
800.66.TAGUE
  0
ENDBLK
  5
1BB83
  8
0
  0
BLOCK
  8
0
  2
*U217
 70
     1
 10
0.0
 20
0.0
 30
0.0
  3
*U217
  1

  0
TEXT
  5
1BB85
  8
0
 10
1.5320253747036969
 20
1.863596215278805
 30
0.0
 40
0.125
  1
Casing
  0
TEXT
  5
1BB86
  8
0
 10
1.536629740324434
 20
1.6547512857653901
 30
0.0
 40
0.125
  1
TL-361
  0
TEXT
  5
1BB87
  8
0
 10
1.5217081850720471
 20
1.444286301681716
 30
0.0
 40
0.125
  1
11/16" x 3-1/2"
  0
TEXT
  5
1BB88
  8
0
 10
1.5336454292739561
 20
1.233821317598041
 30
0.0
 40
0.125
  1
800.66.TAGUE
  0
ENDBLK
  5
1BB8A
  8
0
  0
BLOCK
  8
0
  2
*U218
 70
     1
 10
0.0
 20
0.0
 30
0.0
  3
*U218
  1

  0
TEXT
  5
1BB8C
  8
0
 10
1.863826117951793
 20
1.4722460830886499
 30
0.0
 40
0.125
  1
Casing
  0
TEXT
  5
1BB8D
  8
0
 10
1.8684304835725289
 20
1.263401153575235
 30
0.0
 40
0.125
  1
TL-366
  0
TEXT
  5
1BB8E
  8
0
 10
1.853508928320142
 20
1.0529361694915611
 30
0.0
 40
0.125
  1
11/16" x 2-1/4"
  0
TEXT
  5
1BB8F
  8
0
 10
1.8654461725220519
 20
0.8424711854078868
 30
0.0
 40
0.125
  1
800.66.TAGUE
  0
ENDBLK
  5
1BB91
  8
0
  0
BLOCK
  8
0
  2
*U219
 70
     1
 10
0.0
 20
0.0
 30
0.0
  3
*U219
  1

  0
TEXT
  5
1BB93
  8
0
 10
1.5351274959142289
 20
1.561715576145063
 30
0.0
 40
0.125
  1
Casing
  0
TEXT
  5
1BB94
  8
0
 10
1.5397318615349651
 20
1.352870646631648
 30
0.0
 40
0.125
  1
TL-376
  0
TEXT
  5
1BB95
  8
0
 10
1.524810306282578
 20
1.142405662547973
 30
0.0
 40
0.125
  1
11/16" x 2-1/4"
  0
TEXT
  5
1BB96
  8
0
 10
1.5367475504844881
 20
0.9319406784642996
 30
0.0
 40
0.125
  1
800.66.TAGUE
  0
ENDBLK
  5
1BB98
  8
0
  0
BLOCK
  8
0
  2
*U220
 70
     1
 10
0.0
 20
0.0
 30
0.0
  3
*U220
  1

  0
TEXT
  5
1BB9A
  8
0
 10
1.521284911425572
 20
1.8194457406072091
 30
0.0
 40
0.125
  1
Casing
  0
TEXT
  5
1BB9B
  8
0
 10
1.5258892770463091
 20
1.6106008110937939
 30
0.0
 40
0.125
  1
TL-412
  0
TEXT
  5
1BB9C
  8
0
 10
1.510967721793921
 20
1.400135827010119
 30
0.0
 40
0.125
  1
11/16" x 3-1/2"
  0
TEXT
  5
1BB9D
  8
0
 10
1.5229049659958309
 20
1.1896708429264451
 30
0.0
 40
0.125
  1
800.66.TAGUE
  0
ENDBLK
  5
1BB9F
  8
0
  0
BLOCK
  8
0
  2
*U221
 70
     1
 10
0.0
 20
0.0
 30
0.0
  3
*U221
  1

  0
TEXT
  5
1BBA1
  8
0
 10
1.449823263841812
 20
2.0149514255241612
 30
0.0
 40
0.125
  1
Casing
  0
TEXT
  5
1BBA2
  8
0
 10
1.454427629462548
 20
1.8066180921908279
 30
0.0
 40
0.125
  1
TL-445
  0
TEXT
  5
1BBA3
  8
0
 10
1.4395060742101611
 20
1.5961531081071541
 30
0.0
 40
0.125
  1
11/16" x 3-1/4"
  0
TEXT
  5
1BBA4
  8
0
 10
1.451443318412071
 20
1.3856881240234791
 30
0.0
 40
0.125
  1
800.66.TAGUE
  0
ENDBLK
  5
1BBA6
  8
0
  0
BLOCK
  8
0
  2
*U222
 70
     1
 10
0.0
 20
0.0
 30
0.0
  3
*U222
  1

  0
TEXT
  5
1BBA8
  8
0
 10
1.715600805711323
 20
1.45748262831252
 30
0.0
 40
0.125
  1
Casing
  0
TEXT
  5
1BBA9
  8
0
 10
1.720205171332059
 20
1.248637698799105
 30
0.0
 40
0.125
  1
TL-452
  0
TEXT
  5
1BBAA
  8
0
 10
1.705283616079672
 20
1.0381727147154309
 30
0.0
 40
0.125
  1
11/16" x 2-1/2"
  0
TEXT
  5
1BBAB
  8
0
 10
1.7172208602815819
 20
0.8277077306317568
 30
0.0
 40
0.125
  1
800.66.TAGUE
  0
ENDBLK
  5
1BBAD
  8
0
  0
BLOCK
  8
0
  2
*U223
 70
     1
 10
0.0
 20
0.0
 30
0.0
  3
*U223
  1

  0
TEXT
  5
1BBAF
  8
0
 10
1.644662863092297
 20
2.4324649629210331
 30
0.0
 40
0.125
  1
Casing
  0
TEXT
  5
1BBB0
  8
0
 10
1.6492672287130341
 20
2.2241316295876992
 30
0.0
 40
0.125
  1
TL-545
  0
TEXT
  5
1BBB1
  8
0
 10
1.646027119572516
 20
2.0136666455040251
 30
0.0
 40
0.125
  1
3/4" x 5"
  0
TEXT
  5
1BBB2
  8
0
 10
1.6462829176625571
 20
1.8032016614203501
 30
0.0
 40
0.125
  1
800.66.TAGUE
  0
ENDBLK
  5
1BBB4
  8
0
  0
BLOCK
  8
0
  2
*U224
 70
     1
 10
0.0
 20
0.0
 30
0.0
  3
*U224
  1

  0
TEXT
  5
1BBB6
  8
0
 10
1.6083821826148079
 20
1.7190042649612149
 30
0.0
 40
0.125
  1
Casing
  0
TEXT
  5
1BBB7
  8
0
 10
1.612986548235545
 20
1.5101593354478
 30
0.0
 40
0.125
  1
TL-546
  0
TEXT
  5
1BBB8
  8
0
 10
1.6097464390950269
 20
1.299694351364125
 30
0.0
 40
0.125
  1
3/4" x 2-7/8"
  0
TEXT
  5
1BBB9
  8
0
 10
1.6100022371850671
 20
1.0892293672804509
 30
0.0
 40
0.125
  1
800.66.TAGUE
  0
ENDBLK
  5
1BBBB
  8
0
  0
BLOCK
  8
0
  2
*U225
 70
     1
 10
0.0
 20
0.0
 30
0.0
  3
*U225
  1

  0
TEXT
  5
1BBBD
  8
0
 10
1.611826571413677
 20
2.1893163161727371
 30
0.0
 40
0.125
  1
Casing
  0
TEXT
  5
1BBBE
  8
0
 10
1.6164309370344141
 20
1.980471386659322
 30
0.0
 40
0.125
  1
TL-548
  0
TEXT
  5
1BBBF
  8
0
 10
1.6131908278938949
 20
1.770006402575647
 30
0.0
 40
0.125
  1
3/4" x 3-7/16"
  0
TEXT
  5
1BBC0
  8
0
 10
1.613446625983936
 20
1.5595414184919729
 30
0.0
 40
0.125
  1
800.66.TAGUE
  0
ENDBLK
  5
1BBC2
  8
0
  0
BLOCK
  8
0
  2
*U226
 70
     1
 10
0.0
 20
0.0
 30
0.0
  3
*U226
  1

  0
TEXT
  5
1BBC4
  8
0
 10
1.2473910737773839
 20
2.7744627332396181
 30
0.0
 40
0.125
  1
Casing
  0
TEXT
  5
1BBC5
  8
0
 10
1.2519954393981201
 20
2.5656178037262021
 30
0.0
 40
0.125
  1
TL-2018
  0
TEXT
  5
1BBC6
  8
0
 10
1.2370738841457329
 20
2.355152819642528
 30
0.0
 40
0.125
  1
1-1/16" x 4-1/2"
  0
TEXT
  5
1BBC7
  8
0
 10
1.2490111283476431
 20
2.1446878355588539
 30
0.0
 40
0.125
  1
800.66.TAGUE
  0
ENDBLK
  5
1BBC9
  8
0
  0
BLOCK
  8
0
  2
*U227
 70
     1
 10
0.0
 20
0.0
 30
0.0
  3
*U227
  1

  0
TEXT
  5
1BBCB
  8
0
 10
1.4086740032724709
 20
13.04264108713495
 30
0.0
 40
0.125
  1
Casing
  0
TEXT
  5
1BBCC
  8
0
 10
1.4132783688932069
 20
12.83379615762154
 30
0.0
 40
0.125
  1
TL-2019
  0
TEXT
  5
1BBCD
  8
0
 10
1.39835681364082
 20
12.62333117353786
 30
0.0
 40
0.125
  1
1-1/16" x 5-1/2"
  0
TEXT
  5
1BBCE
  8
0
 10
1.4102940578427301
 20
12.41286618945419
 30
0.0
 40
0.125
  1
800.66.TAGUE
  0
ENDBLK
  5
1BBD0
  8
0
  0
BLOCK
  8
0
  2
*U228
 70
     1
 10
0.0
 20
0.0
 30
0.0
  3
*U228
  1

  0
TEXT
  5
1BBD2
  8
0
 10
1.4086740032724709
 20
3.3074481400532401
 30
0.0
 40
0.125
  1
Casing
  0
TEXT
  5
1BBD3
  8
0
 10
1.4132783688932069
 20
3.0986032105398249
 30
0.0
 40
0.125
  1
TL-2019
  0
TEXT
  5
1BBD4
  8
0
 10
1.39835681364082
 20
2.8881382264561508
 30
0.0
 40
0.125
  1
1-1/16" x 5-1/2"
  0
TEXT
  5
1BBD5
  8
0
 10
1.4102940578427301
 20
2.6776732423724772
 30
0.0
 40
0.125
  1
800.66.TAGUE
  0
ENDBLK
  5
1BBD7
  8
0
  0
BLOCK
  8
0
  2
*U229
 70
     1
 10
0.0
 20
0.0
 30
0.0
  3
*U229
  1

  0
TEXT
  5
1BBD9
  8
0
 10
1.507291999899484
 20
1.8983804600503771
 30
0.0
 40
0.125
  1
Casing
  0
TEXT
  5
1BBDA
  8
0
 10
1.51189636552022
 20
1.6895355305369619
 30
0.0
 40
0.125
  1
TL-B3
  0
TEXT
  5
1BBDB
  8
0
 10
1.5086562563797019
 20
1.4790705464532881
 30
0.0
 40
0.125
  1
3/4" x 3-1/2"
  0
TEXT
  5
1BBDC
  8
0
 10
1.508912054469743
 20
1.2686055623696131
 30
0.0
 40
0.125
  1
800.66.TAGUE
  0
ENDBLK
  5
1BBDE
  8
0
  0
BLOCK
  8
0
  2
*U230
 70
     1
 10
0.0
 20
0.0
 30
0.0
  3
*U230
  1

  0
TEXT
  5
1BBE0
  8
0
 10
1.63765621551588
 20
2.2121098391850338
 30
0.0
 40
0.125
  1
Casing
  0
TEXT
  5
1BBE1
  8
0
 10
1.642260581136616
 20
2.0032649096716191
 30
0.0
 40
0.125
  1
TL-600
  0
TEXT
  5
1BBE2
  8
0
 10
1.638082545665948
 20
1.7927999255879441
 30
0.0
 40
0.125
  1
7/8" x 3-3/4"
  0
TEXT
  5
1BBE3
  8
0
 10
1.639276270086139
 20
1.58233494150427
 30
0.0
 40
0.125
  1
800.66.TAGUE
  0
ENDBLK
  5
1BBE5
  8
0
  0
BLOCK
  8
0
  2
*U231
 70
     1
 10
0.0
 20
0.0
 30
0.0
  3
*U231
  1

  0
TEXT
  5
1BBE7
  8
0
 10
1.181403088863225
 20
2.596347862400437
 30
0.0
 40
0.125
  1
Casing
  0
TEXT
  5
1BBE8
  8
0
 10
1.1860074544839609
 20
2.387502932887021
 30
0.0
 40
0.125
  1
TL-2056
  0
TEXT
  5
1BBE9
  8
0
 10
1.171085899231574
 20
2.1770379488033469
 30
0.0
 40
0.125
  1
1" x 4-1/4"
  0
TEXT
  5
1BBEA
  8
0
 10
1.1830231434334839
 20
1.966572964719673
 30
0.0
 40
0.125
  1
800.66.TAGUE
  0
ENDBLK
  5
1BBEC
  8
0
  0
BLOCK
  8
0
  2
*U232
 70
     1
 10
0.0
 20
0.0
 30
0.0
  3
*U232
  1

  0
TEXT
  5
1BBEE
  8
0
 10
1.566807269343802
 20
2.1619067565476531
 30
0.0
 40
0.125
  1
Casing
  0
TEXT
  5
1BBEF
  8
0
 10
1.5714116349645391
 20
1.9530618270342379
 30
0.0
 40
0.125
  1
TL-2008
  0
TEXT
  5
1BBF0
  8
0
 10
1.56723359949387
 20
1.7425968429505629
 30
0.0
 40
0.125
  1
7/8" x 3-3/4"
  0
TEXT
  5
1BBF1
  8
0
 10
1.5684273239140609
 20
1.5321318588668891
 30
0.0
 40
0.125
  1
800.66.TAGUE
  0
ENDBLK
  5
1BBF3
  8
0
  0
BLOCK
  8
0
  2
*U233
 70
     1
 10
0.0
 20
0.0
 30
0.0
  3
*U233
  1

  0
TEXT
  5
1BBF5
  8
0
 10
1.7608832556955789
 20
2.6231890073942319
 30
0.0
 40
0.125
  1
Casing
  0
TEXT
  5
1BBF6
  8
0
 10
1.765487621316316
 20
2.4143440778808172
 30
0.0
 40
0.125
  1
TL-2113
  0
TEXT
  5
1BBF7
  8
0
 10
1.750566066063928
 20
2.2038790937971431
 30
0.0
 40
0.125
  1
1-3/8" x 3-3/4"
  0
TEXT
  5
1BBF8
  8
0
 10
1.7625033102658381
 20
1.9934141097134681
 30
0.0
 40
0.125
  1
800.66.TAGUE
  0
ENDBLK
  5
1BBFA
  8
0
  0
BLOCK
  8
0
  2
*U234
 70
     1
 10
0.0
 20
0.0
 30
0.0
  3
*U234
  1

  0
TEXT
  5
1BBFC
  8
0
 10
-381.0807755260015
 20
845.19705966547485
 30
0.0
 40
0.125
  1
Casing
  0
TEXT
  5
1BBFD
  8
0
 10
-381.0761711603808
 20
844.98821473596161
 30
0.0
 40
0.125
  1
TL-2113
  0
TEXT
  5
1BBFE
  8
0
 10
-381.09109271563318
 20
844.77774975187776
 30
0.0
 40
0.125
  1
1-3/8" x 3-3/4"
  0
TEXT
  5
1BBFF
  8
0
 10
-381.07915547143131
 20
844.56728476779415
 30
0.0
 40
0.125
  1
800.66.TAGUE
  0
ENDBLK
  5
1BC01
  8
0
  0
ENDSEC
  0
SECTION
  2
ENTITIES
  0
INSERT
  5
1B84A
  8
0
  2
*U234
 10
0.0
 20
0.0
 30
0.0
  0
LINE
  5
1B84B
  8
0
 10
-382.84165857287121
 20
842.57387051794387
 30
0.0
 11
-381.46339743366042
 21
842.57387051794387
 31
0.0
  0
LINE
  5
1B84C
  8
0
 10
-381.46339743366042
 20
842.57387051794387
 30
0.0
 11
-381.46339743366042
 21
843.35505269776581
 31
0.0
  0
LINE
  5
1B84D
  8
0
 10
-381.46339743366042
 20
843.35505269776581
 30
0.0
 11
-381.53378972794559
 21
843.41726264561305
 31
0.0
  0
POLYLINE
  8
0
  5
1BC02
  66
     1
 10
0.000000
 20
0.000000
 30
0.000000
  70
     8
  0
VERTEX
  8
0
  5
1BC03
 10
-382.842
 20
846.324
 30
0.000000
  70
    32
  0
VERTEX
  8
0
  5
1BC04
 10
-382.838
 20
846.324
 30
0.000000
  70
    32
  0
VERTEX
  8
0
  5
1BC05
 10
-382.834
 20
846.323
 30
0.000000
  70
    32
  0
VERTEX
  8
0
  5
1BC06
 10
-382.831
 20
846.323
 30
0.000000
  70
    32
  0
VERTEX
  8
0
  5
1BC07
 10
-382.827
 20
846.323
 30
0.000000
  70
    32
  0
VERTEX
  8
0
  5
1BC08
 10
-382.823
 20
846.323
 30
0.000000
  70
    32
  0
VERTEX
  8
0
  5
1BC09
 10
-382.820
 20
846.322
 30
0.000000
  70
    32
  0
VERTEX
  8
0
  5
1BC0A
 10
-382.816
 20
846.322
 30
0.000000
  70
    32
  0
VERTEX
  8
0
  5
1BC0B
 10
-382.812
 20
846.322
 30
0.000000
  70
    32
  0
VERTEX
  8
0
  5
1BC0C
 10
-382.809
 20
846.322
 30
0.000000
  70
    32
  0
VERTEX
  8
0
  5
1BC0D
 10
-382.805
 20
846.321
 30
0.000000
  70
    32
  0
VERTEX
  8
0
  5
1BC0E
 10
-382.801
 20
846.321
 30
0.000000
  70
    32
  0
VERTEX
  8
0
  5
1BC0F
 10
-382.798
 20
846.321
 30
0.000000
  70
    32
  0
VERTEX
  8
0
  5
1BC10
 10
-382.794
 20
846.321
 30
0.000000
  70
    32
  0
VERTEX
  8
0
  5
1BC11
 10
-382.790
 20
846.320
 30
0.000000
  70
    32
  0
VERTEX
  8
0
  5
1BC12
 10
-382.787
 20
846.320
 30
0.000000
  70
    32
  0
VERTEX
  8
0
  5
1BC13
 10
-382.783
 20
846.320
 30
0.000000
  70
    32
  0
VERTEX
  8
0
  5
1BC14
 10
-382.779
 20
846.319
 30
0.000000
  70
    32
  0
VERTEX
  8
0
  5
1BC15
 10
-382.775
 20
846.319
 30
0.000000
  70
    32
  0
VERTEX
  8
0
  5
1BC16
 10
-382.772
 20
846.319
 30
0.000000
  70
    32
  0
VERTEX
  8
0
  5
1BC17
 10
-382.768
 20
846.318
 30
0.000000
  70
    32
  0
VERTEX
  8
0
  5
1BC18
 10
-382.764
 20
846.318
 30
0.000000
  70
    32
  0
VERTEX
  8
0
  5
1BC19
 10
-382.761
 20
846.318
 30
0.000000
  70
    32
  0
VERTEX
  8
0
  5
1BC1A
 10
-382.757
 20
846.317
 30
0.000000
  70
    32
  0
VERTEX
  8
0
  5
1BC1B
 10
-382.753
 20
846.317
 30
0.000000
  70
    32
  0
VERTEX
  8
0
  5
1BC1C
 10
-382.750
 20
846.317
 30
0.000000
  70
    32
  0
VERTEX
  8
0
  5
1BC1D
 10
-382.746
 20
846.316
 30
0.000000
  70
    32
  0
VERTEX
  8
0
  5
1BC1E
 10
-382.742
 20
846.316
 30
0.000000
  70
    32
  0
VERTEX
  8
0
  5
1BC1F
 10
-382.739
 20
846.315
 30
0.000000
  70
    32
  0
VERTEX
  8
0
  5
1BC20
 10
-382.735
 20
846.315
 30
0.000000
  70
    32
  0
VERTEX
  8
0
  5
1BC21
 10
-382.731
 20
846.315
 30
0.000000
  70
    32
  0
VERTEX
  8
0
  5
1BC22
 10
-382.728
 20
846.314
 30
0.000000
  70
    32
  0
VERTEX
  8
0
  5
1BC23
 10
-382.724
 20
846.314
 30
0.000000
  70
    32
  0
VERTEX
  8
0
  5
1BC24
 10
-382.720
 20
846.313
 30
0.000000
  70
    32
  0
VERTEX
  8
0
  5
1BC25
 10
-382.717
 20
846.313
 30
0.000000
  70
    32
  0
VERTEX
  8
0
  5
1BC26
 10
-382.713
 20
846.312
 30
0.000000
  70
    32
  0
VERTEX
  8
0
  5
1BC27
 10
-382.709
 20
846.312
 30
0.000000
  70
    32
  0
VERTEX
  8
0
  5
1BC28
 10
-382.706
 20
846.311
 30
0.000000
  70
    32
  0
VERTEX
  8
0
  5
1BC29
 10
-382.702
 20
846.311
 30
0.000000
  70
    32
  0
VERTEX
  8
0
  5
1BC2A
 10
-382.698
 20
846.310
 30
0.000000
  70
    32
  0
VERTEX
  8
0
  5
1BC2B
 10
-382.695
 20
846.310
 30
0.000000
  70
    32
  0
VERTEX
  8
0
  5
1BC2C
 10
-382.691
 20
846.309
 30
0.000000
  70
    32
  0
VERTEX
  8
0
  5
1BC2D
 10
-382.688
 20
846.308
 30
0.000000
  70
    32
  0
VERTEX
  8
0
  5
1BC2E
 10
-382.684
 20
846.308
 30
0.000000
  70
    32
  0
VERTEX
  8
0
  5
1BC2F
 10
-382.680
 20
846.307
 30
0.000000
  70
    32
  0
VERTEX
  8
0
  5
1BC30
 10
-382.677
 20
846.307
 30
0.000000
  70
    32
  0
VERTEX
  8
0
  5
1BC31
 10
-382.673
 20
846.306
 30
0.000000
  70
    32
  0
VERTEX
  8
0
  5
1BC32
 10
-382.669
 20
846.305
 30
0.000000
  70
    32
  0
VERTEX
  8
0
  5
1BC33
 10
-382.666
 20
846.304
 30
0.000000
  70
    32
  0
VERTEX
  8
0
  5
1BC34
 10
-382.662
 20
846.304
 30
0.000000
  70
    32
  0
VERTEX
  8
0
  5
1BC35
 10
-382.659
 20
846.303
 30
0.000000
  70
    32
  0
VERTEX
  8
0
  5
1BC36
 10
-382.655
 20
846.302
 30
0.000000
  70
    32
  0
VERTEX
  8
0
  5
1BC37
 10
-382.651
 20
846.302
 30
0.000000
  70
    32
  0
VERTEX
  8
0
  5
1BC38
 10
-382.648
 20
846.301
 30
0.000000
  70
    32
  0
VERTEX
  8
0
  5
1BC39
 10
-382.644
 20
846.300
 30
0.000000
  70
    32
  0
VERTEX
  8
0
  5
1BC3A
 10
-382.641
 20
846.299
 30
0.000000
  70
    32
  0
VERTEX
  8
0
  5
1BC3B
 10
-382.637
 20
846.298
 30
0.000000
  70
    32
  0
VERTEX
  8
0
  5
1BC3C
 10
-382.633
 20
846.298
 30
0.000000
  70
    32
  0
VERTEX
  8
0
  5
1BC3D
 10
-382.630
 20
846.297
 30
0.000000
  70
    32
  0
VERTEX
  8
0
  5
1BC3E
 10
-382.626
 20
846.296
 30
0.000000
  70
    32
  0
VERTEX
  8
0
  5
1BC3F
 10
-382.623
 20
846.295
 30
0.000000
  70
    32
  0
VERTEX
  8
0
  5
1BC40
 10
-382.619
 20
846.294
 30
0.000000
  70
    32
  0
VERTEX
  8
0
  5
1BC41
 10
-382.616
 20
846.293
 30
0.000000
  70
    32
  0
VERTEX
  8
0
  5
1BC42
 10
-382.612
 20
846.292
 30
0.000000
  70
    32
  0
VERTEX
  8
0
  5
1BC43
 10
-382.608
 20
846.291
 30
0.000000
  70
    32
  0
VERTEX
  8
0
  5
1BC44
 10
-382.605
 20
846.290
 30
0.000000
  70
    32
  0
VERTEX
  8
0
  5
1BC45
 10
-382.601
 20
846.289
 30
0.000000
  70
    32
  0
VERTEX
  8
0
  5
1BC46
 10
-382.598
 20
846.288
 30
0.000000
  70
    32
  0
VERTEX
  8
0
  5
1BC47
 10
-382.594
 20
846.287
 30
0.000000
  70
    32
  0
VERTEX
  8
0
  5
1BC48
 10
-382.591
 20
846.286
 30
0.000000
  70
    32
  0
VERTEX
  8
0
  5
1BC49
 10
-382.587
 20
846.285
 30
0.000000
  70
    32
  0
VERTEX
  8
0
  5
1BC4A
 10
-382.584
 20
846.284
 30
0.000000
  70
    32
  0
VERTEX
  8
0
  5
1BC4B
 10
-382.580
 20
846.282
 30
0.000000
  70
    32
  0
VERTEX
  8
0
  5
1BC4C
 10
-382.577
 20
846.281
 30
0.000000
  70
    32
  0
VERTEX
  8
0
  5
1BC4D
 10
-382.573
 20
846.280
 30
0.000000
  70
    32
  0
VERTEX
  8
0
  5
1BC4E
 10
-382.570
 20
846.279
 30
0.000000
  70
    32
  0
VERTEX
  8
0
  5
1BC4F
 10
-382.566
 20
846.278
 30
0.000000
  70
    32
  0
VERTEX
  8
0
  5
1BC50
 10
-382.563
 20
846.276
 30
0.000000
  70
    32
  0
VERTEX
  8
0
  5
1BC51
 10
-382.559
 20
846.275
 30
0.000000
  70
    32
  0
VERTEX
  8
0
  5
1BC52
 10
-382.556
 20
846.274
 30
0.000000
  70
    32
  0
VERTEX
  8
0
  5
1BC53
 10
-382.552
 20
846.272
 30
0.000000
  70
    32
  0
VERTEX
  8
0
  5
1BC54
 10
-382.549
 20
846.271
 30
0.000000
  70
    32
  0
VERTEX
  8
0
  5
1BC55
 10
-382.546
 20
846.269
 30
0.000000
  70
    32
  0
VERTEX
  8
0
  5
1BC56
 10
-382.542
 20
846.268
 30
0.000000
  70
    32
  0
VERTEX
  8
0
  5
1BC57
 10
-382.539
 20
846.267
 30
0.000000
  70
    32
  0
VERTEX
  8
0
  5
1BC58
 10
-382.535
 20
846.265
 30
0.000000
  70
    32
  0
VERTEX
  8
0
  5
1BC59
 10
-382.532
 20
846.264
 30
0.000000
  70
    32
  0
VERTEX
  8
0
  5
1BC5A
 10
-382.529
 20
846.262
 30
0.000000
  70
    32
  0
VERTEX
  8
0
  5
1BC5B
 10
-382.525
 20
846.261
 30
0.000000
  70
    32
  0
VERTEX
  8
0
  5
1BC5C
 10
-382.522
 20
846.259
 30
0.000000
  70
    32
  0
VERTEX
  8
0
  5
1BC5D
 10
-382.519
 20
846.257
 30
0.000000
  70
    32
  0
VERTEX
  8
0
  5
1BC5E
 10
-382.515
 20
846.256
 30
0.000000
  70
    32
  0
VERTEX
  8
0
  5
1BC5F
 10
-382.512
 20
846.254
 30
0.000000
  70
    32
  0
VERTEX
  8
0
  5
1BC60
 10
-382.509
 20
846.252
 30
0.000000
  70
    32
  0
VERTEX
  8
0
  5
1BC61
 10
-382.505
 20
846.251
 30
0.000000
  70
    32
  0
VERTEX
  8
0
  5
1BC62
 10
-382.502
 20
846.249
 30
0.000000
  70
    32
  0
VERTEX
  8
0
  5
1BC63
 10
-382.499
 20
846.247
 30
0.000000
  70
    32
  0
VERTEX
  8
0
  5
1BC64
 10
-382.496
 20
846.245
 30
0.000000
  70
    32
  0
VERTEX
  8
0
  5
1BC65
 10
-382.492
 20
846.244
 30
0.000000
  70
    32
  0
VERTEX
  8
0
  5
1BC66
 10
-382.489
 20
846.242
 30
0.000000
  70
    32
  0
VERTEX
  8
0
  5
1BC67
 10
-382.486
 20
846.240
 30
0.000000
  70
    32
  0
VERTEX
  8
0
  5
1BC68
 10
-382.483
 20
846.238
 30
0.000000
  70
    32
  0
VERTEX
  8
0
  5
1BC69
 10
-382.480
 20
846.236
 30
0.000000
  70
    32
  0
VERTEX
  8
0
  5
1BC6A
 10
-382.476
 20
846.234
 30
0.000000
  70
    32
  0
VERTEX
  8
0
  5
1BC6B
 10
-382.473
 20
846.232
 30
0.000000
  70
    32
  0
VERTEX
  8
0
  5
1BC6C
 10
-382.470
 20
846.230
 30
0.000000
  70
    32
  0
VERTEX
  8
0
  5
1BC6D
 10
-382.467
 20
846.228
 30
0.000000
  70
    32
  0
VERTEX
  8
0
  5
1BC6E
 10
-382.464
 20
846.226
 30
0.000000
  70
    32
  0
VERTEX
  8
0
  5
1BC6F
 10
-382.461
 20
846.224
 30
0.000000
  70
    32
  0
VERTEX
  8
0
  5
1BC70
 10
-382.458
 20
846.222
 30
0.000000
  70
    32
  0
VERTEX
  8
0
  5
1BC71
 10
-382.455
 20
846.220
 30
0.000000
  70
    32
  0
VERTEX
  8
0
  5
1BC72
 10
-382.452
 20
846.218
 30
0.000000
  70
    32
  0
VERTEX
  8
0
  5
1BC73
 10
-382.449
 20
846.216
 30
0.000000
  70
    32
  0
VERTEX
  8
0
  5
1BC74
 10
-382.446
 20
846.213
 30
0.000000
  70
    32
  0
VERTEX
  8
0
  5
1BC75
 10
-382.443
 20
846.211
 30
0.000000
  70
    32
  0
VERTEX
  8
0
  5
1BC76
 10
-382.440
 20
846.209
 30
0.000000
  70
    32
  0
VERTEX
  8
0
  5
1BC77
 10
-382.437
 20
846.207
 30
0.000000
  70
    32
  0
VERTEX
  8
0
  5
1BC78
 10
-382.434
 20
846.204
 30
0.000000
  70
    32
  0
VERTEX
  8
0
  5
1BC79
 10
-382.431
 20
846.202
 30
0.000000
  70
    32
  0
VERTEX
  8
0
  5
1BC7A
 10
-382.428
 20
846.200
 30
0.000000
  70
    32
  0
VERTEX
  8
0
  5
1BC7B
 10
-382.425
 20
846.197
 30
0.000000
  70
    32
  0
VERTEX
  8
0
  5
1BC7C
 10
-382.423
 20
846.195
 30
0.000000
  70
    32
  0
VERTEX
  8
0
  5
1BC7D
 10
-382.420
 20
846.192
 30
0.000000
  70
    32
  0
VERTEX
  8
0
  5
1BC7E
 10
-382.417
 20
846.190
 30
0.000000
  70
    32
  0
VERTEX
  8
0
  5
1BC7F
 10
-382.414
 20
846.187
 30
0.000000
  70
    32
  0
VERTEX
  8
0
  5
1BC80
 10
-382.412
 20
846.185
 30
0.000000
  70
    32
  0
VERTEX
  8
0
  5
1BC81
 10
-382.409
 20
846.182
 30
0.000000
  70
    32
  0
VERTEX
  8
0
  5
1BC82
 10
-382.406
 20
846.180
 30
0.000000
  70
    32
  0
VERTEX
  8
0
  5
1BC83
 10
-382.404
 20
846.177
 30
0.000000
  70
    32
  0
VERTEX
  8
0
  5
1BC84
 10
-382.401
 20
846.174
 30
0.000000
  70
    32
  0
VERTEX
  8
0
  5
1BC85
 10
-382.398
 20
846.172
 30
0.000000
  70
    32
  0
VERTEX
  8
0
  5
1BC86
 10
-382.396
 20
846.169
 30
0.000000
  70
    32
  0
VERTEX
  8
0
  5
1BC87
 10
-382.393
 20
846.166
 30
0.000000
  70
    32
  0
VERTEX
  8
0
  5
1BC88
 10
-382.391
 20
846.163
 30
0.000000
  70
    32
  0
VERTEX
  8
0
  5
1BC89
 10
-382.388
 20
846.161
 30
0.000000
  70
    32
  0
VERTEX
  8
0
  5
1BC8A
 10
-382.386
 20
846.158
 30
0.000000
  70
    32
  0
VERTEX
  8
0
  5
1BC8B
 10
-382.383
 20
846.155
 30
0.000000
  70
    32
  0
VERTEX
  8
0
  5
1BC8C
 10
-382.381
 20
846.152
 30
0.000000
  70
    32
  0
VERTEX
  8
0
  5
1BC8D
 10
-382.379
 20
846.149
 30
0.000000
  70
    32
  0
VERTEX
  8
0
  5
1BC8E
 10
-382.376
 20
846.146
 30
0.000000
  70
    32
  0
VERTEX
  8
0
  5
1BC8F
 10
-382.374
 20
846.143
 30
0.000000
  70
    32
  0
VERTEX
  8
0
  5
1BC90
 10
-382.372
 20
846.140
 30
0.000000
  70
    32
  0
VERTEX
  8
0
  5
1BC91
 10
-382.370
 20
846.137
 30
0.000000
  70
    32
  0
VERTEX
  8
0
  5
1BC92
 10
-382.367
 20
846.134
 30
0.000000
  70
    32
  0
VERTEX
  8
0
  5
1BC93
 10
-382.365
 20
846.131
 30
0.000000
  70
    32
  0
VERTEX
  8
0
  5
1BC94
 10
-382.363
 20
846.128
 30
0.000000
  70
    32
  0
VERTEX
  8
0
  5
1BC95
 10
-382.361
 20
846.125
 30
0.000000
  70
    32
  0
VERTEX
  8
0
  5
1BC96
 10
-382.359
 20
846.122
 30
0.000000
  70
    32
  0
VERTEX
  8
0
  5
1BC97
 10
-382.357
 20
846.119
 30
0.000000
  70
    32
  0
VERTEX
  8
0
  5
1BC98
 10
-382.355
 20
846.116
 30
0.000000
  70
    32
  0
VERTEX
  8
0
  5
1BC99
 10
-382.353
 20
846.113
 30
0.000000
  70
    32
  0
VERTEX
  8
0
  5
1BC9A
 10
-382.351
 20
846.110
 30
0.000000
  70
    32
  0
VERTEX
  8
0
  5
1BC9B
 10
-382.349
 20
846.106
 30
0.000000
  70
    32
  0
VERTEX
  8
0
  5
1BC9C
 10
-382.347
 20
846.103
 30
0.000000
  70
    32
  0
VERTEX
  8
0
  5
1BC9D
 10
-382.345
 20
846.100
 30
0.000000
  70
    32
  0
VERTEX
  8
0
  5
1BC9E
 10
-382.343
 20
846.097
 30
0.000000
  70
    32
  0
VERTEX
  8
0
  5
1BC9F
 10
-382.342
 20
846.093
 30
0.000000
  70
    32
  0
VERTEX
  8
0
  5
1BCA0
 10
-382.340
 20
846.090
 30
0.000000
  70
    32
  0
VERTEX
  8
0
  5
1BCA1
 10
-382.338
 20
846.087
 30
0.000000
  70
    32
  0
VERTEX
  8
0
  5
1BCA2
 10
-382.336
 20
846.084
 30
0.000000
  70
    32
  0
VERTEX
  8
0
  5
1BCA3
 10
-382.335
 20
846.080
 30
0.000000
  70
    32
  0
VERTEX
  8
0
  5
1BCA4
 10
-382.333
 20
846.077
 30
0.000000
  70
    32
  0
VERTEX
  8
0
  5
1BCA5
 10
-382.332
 20
846.073
 30
0.000000
  70
    32
  0
VERTEX
  8
0
  5
1BCA6
 10
-382.330
 20
846.070
 30
0.000000
  70
    32
  0
VERTEX
  8
0
  5
1BCA7
 10
-382.329
 20
846.067
 30
0.000000
  70
    32
  0
VERTEX
  8
0
  5
1BCA8
 10
-382.327
 20
846.063
 30
0.000000
  70
    32
  0
VERTEX
  8
0
  5
1BCA9
 10
-382.326
 20
846.060
 30
0.000000
  70
    32
  0
VERTEX
  8
0
  5
1BCAA
 10
-382.325
 20
846.056
 30
0.000000
  70
    32
  0
VERTEX
  8
0
  5
1BCAB
 10
-382.323
 20
846.053
 30
0.000000
  70
    32
  0
VERTEX
  8
0
  5
1BCAC
 10
-382.322
 20
846.050
 30
0.000000
  70
    32
  0
VERTEX
  8
0
  5
1BCAD
 10
-382.321
 20
846.046
 30
0.000000
  70
    32
  0
VERTEX
  8
0
  5
1BCAE
 10
-382.320
 20
846.043
 30
0.000000
  70
    32
  0
VERTEX
  8
0
  5
1BCAF
 10
-382.319
 20
846.039
 30
0.000000
  70
    32
  0
VERTEX
  8
0
  5
1BCB0
 10
-382.318
 20
846.036
 30
0.000000
  70
    32
  0
VERTEX
  8
0
  5
1BCB1
 10
-382.317
 20
846.032
 30
0.000000
  70
    32
  0
VERTEX
  8
0
  5
1BCB2
 10
-382.316
 20
846.029
 30
0.000000
  70
    32
  0
VERTEX
  8
0
  5
1BCB3
 10
-382.315
 20
846.025
 30
0.000000
  70
    32
  0
VERTEX
  8
0
  5
1BCB4
 10
-382.314
 20
846.021
 30
0.000000
  70
    32
  0
VERTEX
  8
0
  5
1BCB5
 10
-382.313
 20
846.018
 30
0.000000
  70
    32
  0
VERTEX
  8
0
  5
1BCB6
 10
-382.312
 20
846.014
 30
0.000000
  70
    32
  0
VERTEX
  8
0
  5
1BCB7
 10
-382.311
 20
846.011
 30
0.000000
  70
    32
  0
VERTEX
  8
0
  5
1BCB8
 10
-382.310
 20
846.007
 30
0.000000
  70
    32
  0
VERTEX
  8
0
  5
1BCB9
 10
-382.310
 20
846.004
 30
0.000000
  70
    32
  0
VERTEX
  8
0
  5
1BCBA
 10
-382.309
 20
846.000
 30
0.000000
  70
    32
  0
VERTEX
  8
0
  5
1BCBB
 10
-382.308
 20
845.996
 30
0.000000
  70
    32
  0
VERTEX
  8
0
  5
1BCBC
 10
-382.308
 20
845.993
 30
0.000000
  70
    32
  0
VERTEX
  8
0
  5
1BCBD
 10
-382.307
 20
845.989
 30
0.000000
  70
    32
  0
VERTEX
  8
0
  5
1BCBE
 10
-382.307
 20
845.985
 30
0.000000
  70
    32
  0
VERTEX
  8
0
  5
1BCBF
 10
-382.306
 20
845.982
 30
0.000000
  70
    32
  0
VERTEX
  8
0
  5
1BCC0
 10
-382.306
 20
845.978
 30
0.000000
  70
    32
  0
VERTEX
  8
0
  5
1BCC1
 10
-382.305
 20
845.975
 30
0.000000
  70
    32
  0
VERTEX
  8
0
  5
1BCC2
 10
-382.305
 20
845.971
 30
0.000000
  70
    32
  0
VERTEX
  8
0
  5
1BCC3
 10
-382.304
 20
845.967
 30
0.000000
  70
    32
  0
VERTEX
  8
0
  5
1BCC4
 10
-382.304
 20
845.964
 30
0.000000
  70
    32
  0
VERTEX
  8
0
  5
1BCC5
 10
-382.304
 20
845.960
 30
0.000000
  70
    32
  0
VERTEX
  8
0
  5
1BCC6
 10
-382.303
 20
845.956
 30
0.000000
  70
    32
  0
VERTEX
  8
0
  5
1BCC7
 10
-382.303
 20
845.953
 30
0.000000
  70
    32
  0
VERTEX
  8
0
  5
1BCC8
 10
-382.303
 20
845.949
 30
0.000000
  70
    32
  0
VERTEX
  8
0
  5
1BCC9
 10
-382.302
 20
845.945
 30
0.000000
  70
    32
  0
VERTEX
  8
0
  5
1BCCA
 10
-382.302
 20
845.941
 30
0.000000
  70
    32
  0
VERTEX
  8
0
  5
1BCCB
 10
-382.302
 20
845.938
 30
0.000000
  70
    32
  0
VERTEX
  8
0
  5
1BCCC
 10
-382.302
 20
845.934
 30
0.000000
  70
    32
  0
VERTEX
  8
0
  5
1BCCD
 10
-382.302
 20
845.930
 30
0.000000
  70
    32
  0
VERTEX
  8
0
  5
1BCCE
 10
-382.301
 20
845.927
 30
0.000000
  70
    32
  0
VERTEX
  8
0
  5
1BCCF
 10
-382.301
 20
845.923
 30
0.000000
  70
    32
  0
VERTEX
  8
0
  5
1BCD0
 10
-382.301
 20
845.919
 30
0.000000
  70
    32
  0
VERTEX
  8
0
  5
1BCD1
 10
-382.301
 20
845.916
 30
0.000000
  70
    32
  0
VERTEX
  8
0
  5
1BCD2
 10
-382.301
 20
845.912
 30
0.000000
  70
    32
  0
VERTEX
  8
0
  5
1BCD3
 10
-382.301
 20
845.908
 30
0.000000
  70
    32
  0
VERTEX
  8
0
  5
1BCD4
 10
-382.301
 20
845.904
 30
0.000000
  70
    32
  0
VERTEX
  8
0
  5
1BCD5
 10
-382.300
 20
845.901
 30
0.000000
  70
    32
  0
VERTEX
  8
0
  5
1BCD6
 10
-382.300
 20
845.897
 30
0.000000
  70
    32
  0
VERTEX
  8
0
  5
1BCD7
 10
-382.300
 20
845.893
 30
0.000000
  70
    32
  0
VERTEX
  8
0
  5
1BCD8
 10
-382.300
 20
845.890
 30
0.000000
  70
    32
  0
VERTEX
  8
0
  5
1BCD9
 10
-382.300
 20
845.886
 30
0.000000
  70
    32
  0
VERTEX
  8
0
  5
1BCDA
 10
-382.300
 20
845.882
 30
0.000000
  70
    32
  0
VERTEX
  8
0
  5
1BCDB
 10
-382.300
 20
845.878
 30
0.000000
  70
    32
  0
VERTEX
  8
0
  5
1BCDC
 10
-382.300
 20
845.875
 30
0.000000
  70
    32
  0
VERTEX
  8
0
  5
1BCDD
 10
-382.300
 20
845.871
 30
0.000000
  70
    32
  0
VERTEX
  8
0
  5
1BCDE
 10
-382.300
 20
845.867
 30
0.000000
  70
    32
  0
VERTEX
  8
0
  5
1BCDF
 10
-382.300
 20
845.864
 30
0.000000
  70
    32
  0
VERTEX
  8
0
  5
1BCE0
 10
-382.299
 20
845.860
 30
0.000000
  70
    32
  0
VERTEX
  8
0
  5
1BCE1
 10
-382.299
 20
845.856
 30
0.000000
  70
    32
  0
VERTEX
  8
0
  5
1BCE2
 10
-382.299
 20
845.853
 30
0.000000
  70
    32
  0
SEQEND
  8
0
  5
1BCE3
  0
POLYLINE
  8
0
  5
1BCE4
  66
     1
 10
0.000000
 20
0.000000
 30
0.000000
  70
     8
  0
VERTEX
  8
0
  5
1BCE5
 10
-382.221
 20
845.796
 30
0.000000
  70
    32
  0
VERTEX
  8
0
  5
1BCE6
 10
-382.222
 20
845.789
 30
0.000000
  70
    32
  0
VERTEX
  8
0
  5
1BCE7
 10
-382.223
 20
845.783
 30
0.000000
  70
    32
  0
VERTEX
  8
0
  5
1BCE8
 10
-382.224
 20
845.777
 30
0.000000
  70
    32
  0
VERTEX
  8
0
  5
1BCE9
 10
-382.225
 20
845.770
 30
0.000000
  70
    32
  0
VERTEX
  8
0
  5
1BCEA
 10
-382.227
 20
845.764
 30
0.000000
  70
    32
  0
VERTEX
  8
0
  5
1BCEB
 10
-382.228
 20
845.757
 30
0.000000
  70
    32
  0
VERTEX
  8
0
  5
1BCEC
 10
-382.229
 20
845.751
 30
0.000000
  70
    32
  0
VERTEX
  8
0
  5
1BCED
 10
-382.230
 20
845.744
 30
0.000000
  70
    32
  0
VERTEX
  8
0
  5
1BCEE
 10
-382.232
 20
845.738
 30
0.000000
  70
    32
  0
VERTEX
  8
0
  5
1BCEF
 10
-382.233
 20
845.731
 30
0.000000
  70
    32
  0
VERTEX
  8
0
  5
1BCF0
 10
-382.235
 20
845.725
 30
0.000000
  70
    32
  0
VERTEX
  8
0
  5
1BCF1
 10
-382.236
 20
845.718
 30
0.000000
  70
    32
  0
VERTEX
  8
0
  5
1BCF2
 10
-382.237
 20
845.711
 30
0.000000
  70
    32
  0
VERTEX
  8
0
  5
1BCF3
 10
-382.239
 20
845.705
 30
0.000000
  70
    32
  0
VERTEX
  8
0
  5
1BCF4
 10
-382.241
 20
845.698
 30
0.000000
  70
    32
  0
VERTEX
  8
0
  5
1BCF5
 10
-382.242
 20
845.692
 30
0.000000
  70
    32
  0
VERTEX
  8
0
  5
1BCF6
 10
-382.244
 20
845.685
 30
0.000000
  70
    32
  0
VERTEX
  8
0
  5
1BCF7
 10
-382.245
 20
845.679
 30
0.000000
  70
    32
  0
VERTEX
  8
0
  5
1BCF8
 10
-382.247
 20
845.672
 30
0.000000
  70
    32
  0
VERTEX
  8
0
  5
1BCF9
 10
-382.249
 20
845.666
 30
0.000000
  70
    32
  0
VERTEX
  8
0
  5
1BCFA
 10
-382.250
 20
845.659
 30
0.000000
  70
    32
  0
VERTEX
  8
0
  5
1BCFB
 10
-382.252
 20
845.652
 30
0.000000
  70
    32
  0
VERTEX
  8
0
  5
1BCFC
 10
-382.254
 20
845.646
 30
0.000000
  70
    32
  0
VERTEX
  8
0
  5
1BCFD
 10
-382.255
 20
845.639
 30
0.000000
  70
    32
  0
VERTEX
  8
0
  5
1BCFE
 10
-382.257
 20
845.633
 30
0.000000
  70
    32
  0
VERTEX
  8
0
  5
1BCFF
 10
-382.259
 20
845.626
 30
0.000000
  70
    32
  0
VERTEX
  8
0
  5
1BD00
 10
-382.260
 20
845.619
 30
0.000000
  70
    32
  0
VERTEX
  8
0
  5
1BD01
 10
-382.262
 20
845.613
 30
0.000000
  70
    32
  0
VERTEX
  8
0
  5
1BD02
 10
-382.264
 20
845.606
 30
0.000000
  70
    32
  0
VERTEX
  8
0
  5
1BD03
 10
-382.265
 20
845.600
 30
0.000000
  70
    32
  0
VERTEX
  8
0
  5
1BD04
 10
-382.267
 20
845.593
 30
0.000000
  70
    32
  0
VERTEX
  8
0
  5
1BD05
 10
-382.269
 20
845.586
 30
0.000000
  70
    32
  0
VERTEX
  8
0
  5
1BD06
 10
-382.270
 20
845.580
 30
0.000000
  70
    32
  0
VERTEX
  8
0
  5
1BD07
 10
-382.272
 20
845.573
 30
0.000000
  70
    32
  0
VERTEX
  8
0
  5
1BD08
 10
-382.274
 20
845.566
 30
0.000000
  70
    32
  0
VERTEX
  8
0
  5
1BD09
 10
-382.275
 20
845.560
 30
0.000000
  70
    32
  0
VERTEX
  8
0
  5
1BD0A
 10
-382.277
 20
845.553
 30
0.000000
  70
    32
  0
VERTEX
  8
0
  5
1BD0B
 10
-382.278
 20
845.546
 30
0.000000
  70
    32
  0
VERTEX
  8
0
  5
1BD0C
 10
-382.280
 20
845.540
 30
0.000000
  70
    32
  0
VERTEX
  8
0
  5
1BD0D
 10
-382.281
 20
845.533
 30
0.000000
  70
    32
  0
VERTEX
  8
0
  5
1BD0E
 10
-382.283
 20
845.526
 30
0.000000
  70
    32
  0
VERTEX
  8
0
  5
1BD0F
 10
-382.284
 20
845.519
 30
0.000000
  70
    32
  0
VERTEX
  8
0
  5
1BD10
 10
-382.286
 20
845.513
 30
0.000000
  70
    32
  0
VERTEX
  8
0
  5
1BD11
 10
-382.287
 20
845.506
 30
0.000000
  70
    32
  0
VERTEX
  8
0
  5
1BD12
 10
-382.288
 20
845.499
 30
0.000000
  70
    32
  0
VERTEX
  8
0
  5
1BD13
 10
-382.290
 20
845.493
 30
0.000000
  70
    32
  0
VERTEX
  8
0
  5
1BD14
 10
-382.291
 20
845.486
 30
0.000000
  70
    32
  0
VERTEX
  8
0
  5
1BD15
 10
-382.292
 20
845.479
 30
0.000000
  70
    32
  0
VERTEX
  8
0
  5
1BD16
 10
-382.293
 20
845.472
 30
0.000000
  70
    32
  0
VERTEX
  8
0
  5
1BD17
 10
-382.295
 20
845.465
 30
0.000000
  70
    32
  0
VERTEX
  8
0
  5
1BD18
 10
-382.296
 20
845.459
 30
0.000000
  70
    32
  0
VERTEX
  8
0
  5
1BD19
 10
-382.297
 20
845.452
 30
0.000000
  70
    32
  0
VERTEX
  8
0
  5
1BD1A
 10
-382.298
 20
845.445
 30
0.000000
  70
    32
  0
VERTEX
  8
0
  5
1BD1B
 10
-382.299
 20
845.438
 30
0.000000
  70
    32
  0
VERTEX
  8
0
  5
1BD1C
 10
-382.299
 20
845.431
 30
0.000000
  70
    32
  0
VERTEX
  8
0
  5
1BD1D
 10
-382.300
 20
845.425
 30
0.000000
  70
    32
  0
VERTEX
  8
0
  5
1BD1E
 10
-382.301
 20
845.418
 30
0.000000
  70
    32
  0
VERTEX
  8
0
  5
1BD1F
 10
-382.302
 20
845.411
 30
0.000000
  70
    32
  0
VERTEX
  8
0
  5
1BD20
 10
-382.303
 20
845.404
 30
0.000000
  70
    32
  0
VERTEX
  8
0
  5
1BD21
 10
-382.303
 20
845.397
 30
0.000000
  70
    32
  0
VERTEX
  8
0
  5
1BD22
 10
-382.304
 20
845.390
 30
0.000000
  70
    32
  0
VERTEX
  8
0
  5
1BD23
 10
-382.304
 20
845.383
 30
0.000000
  70
    32
  0
VERTEX
  8
0
  5
1BD24
 10
-382.305
 20
845.377
 30
0.000000
  70
    32
  0
VERTEX
  8
0
  5
1BD25
 10
-382.305
 20
845.370
 30
0.000000
  70
    32
  0
VERTEX
  8
0
  5
1BD26
 10
-382.306
 20
845.363
 30
0.000000
  70
    32
  0
VERTEX
  8
0
  5
1BD27
 10
-382.306
 20
845.356
 30
0.000000
  70
    32
  0
VERTEX
  8
0
  5
1BD28
 10
-382.306
 20
845.349
 30
0.000000
  70
    32
  0
VERTEX
  8
0
  5
1BD29
 10
-382.307
 20
845.342
 30
0.000000
  70
    32
  0
VERTEX
  8
0
  5
1BD2A
 10
-382.307
 20
845.335
 30
0.000000
  70
    32
  0
VERTEX
  8
0
  5
1BD2B
 10
-382.307
 20
845.328
 30
0.000000
  70
    32
  0
VERTEX
  8
0
  5
1BD2C
 10
-382.307
 20
845.322
 30
0.000000
  70
    32
  0
VERTEX
  8
0
  5
1BD2D
 10
-382.307
 20
845.315
 30
0.000000
  70
    32
  0
VERTEX
  8
0
  5
1BD2E
 10
-382.307
 20
845.308
 30
0.000000
  70
    32
  0
VERTEX
  8
0
  5
1BD2F
 10
-382.307
 20
845.301
 30
0.000000
  70
    32
  0
VERTEX
  8
0
  5
1BD30
 10
-382.307
 20
845.294
 30
0.000000
  70
    32
  0
VERTEX
  8
0
  5
1BD31
 10
-382.307
 20
845.287
 30
0.000000
  70
    32
  0
VERTEX
  8
0
  5
1BD32
 10
-382.307
 20
845.280
 30
0.000000
  70
    32
  0
VERTEX
  8
0
  5
1BD33
 10
-382.307
 20
845.273
 30
0.000000
  70
    32
  0
VERTEX
  8
0
  5
1BD34
 10
-382.307
 20
845.266
 30
0.000000
  70
    32
  0
VERTEX
  8
0
  5
1BD35
 10
-382.306
 20
845.260
 30
0.000000
  70
    32
  0
VERTEX
  8
0
  5
1BD36
 10
-382.306
 20
845.253
 30
0.000000
  70
    32
  0
VERTEX
  8
0
  5
1BD37
 10
-382.306
 20
845.246
 30
0.000000
  70
    32
  0
VERTEX
  8
0
  5
1BD38
 10
-382.305
 20
845.239
 30
0.000000
  70
    32
  0
VERTEX
  8
0
  5
1BD39
 10
-382.305
 20
845.232
 30
0.000000
  70
    32
  0
VERTEX
  8
0
  5
1BD3A
 10
-382.304
 20
845.225
 30
0.000000
  70
    32
  0
VERTEX
  8
0
  5
1BD3B
 10
-382.304
 20
845.218
 30
0.000000
  70
    32
  0
VERTEX
  8
0
  5
1BD3C
 10
-382.303
 20
845.211
 30
0.000000
  70
    32
  0
VERTEX
  8
0
  5
1BD3D
 10
-382.302
 20
845.205
 30
0.000000
  70
    32
  0
VERTEX
  8
0
  5
1BD3E
 10
-382.302
 20
845.198
 30
0.000000
  70
    32
  0
VERTEX
  8
0
  5
1BD3F
 10
-382.301
 20
845.191
 30
0.000000
  70
    32
  0
VERTEX
  8
0
  5
1BD40
 10
-382.300
 20
845.184
 30
0.000000
  70
    32
  0
VERTEX
  8
0
  5
1BD41
 10
-382.300
 20
845.177
 30
0.000000
  70
    32
  0
VERTEX
  8
0
  5
1BD42
 10
-382.299
 20
845.170
 30
0.000000
  70
    32
  0
VERTEX
  8
0
  5
1BD43
 10
-382.298
 20
845.164
 30
0.000000
  70
    32
  0
VERTEX
  8
0
  5
1BD44
 10
-382.297
 20
845.157
 30
0.000000
  70
    32
  0
VERTEX
  8
0
  5
1BD45
 10
-382.296
 20
845.150
 30
0.000000
  70
    32
  0
VERTEX
  8
0
  5
1BD46
 10
-382.295
 20
845.143
 30
0.000000
  70
    32
  0
VERTEX
  8
0
  5
1BD47
 10
-382.294
 20
845.136
 30
0.000000
  70
    32
  0
VERTEX
  8
0
  5
1BD48
 10
-382.293
 20
845.130
 30
0.000000
  70
    32
  0
VERTEX
  8
0
  5
1BD49
 10
-382.291
 20
845.123
 30
0.000000
  70
    32
  0
VERTEX
  8
0
  5
1BD4A
 10
-382.290
 20
845.116
 30
0.000000
  70
    32
  0
VERTEX
  8
0
  5
1BD4B
 10
-382.289
 20
845.109
 30
0.000000
  70
    32
  0
VERTEX
  8
0
  5
1BD4C
 10
-382.288
 20
845.103
 30
0.000000
  70
    32
  0
VERTEX
  8
0
  5
1BD4D
 10
-382.286
 20
845.096
 30
0.000000
  70
    32
  0
VERTEX
  8
0
  5
1BD4E
 10
-382.285
 20
845.089
 30
0.000000
  70
    32
  0
VERTEX
  8
0
  5
1BD4F
 10
-382.284
 20
845.082
 30
0.000000
  70
    32
  0
VERTEX
  8
0
  5
1BD50
 10
-382.282
 20
845.076
 30
0.000000
  70
    32
  0
VERTEX
  8
0
  5
1BD51
 10
-382.281
 20
845.069
 30
0.000000
  70
    32
  0
VERTEX
  8
0
  5
1BD52
 10
-382.279
 20
845.062
 30
0.000000
  70
    32
  0
VERTEX
  8
0
  5
1BD53
 10
-382.278
 20
845.056
 30
0.000000
  70
    32
  0
VERTEX
  8
0
  5
1BD54
 10
-382.276
 20
845.049
 30
0.000000
  70
    32
  0
VERTEX
  8
0
  5
1BD55
 10
-382.274
 20
845.042
 30
0.000000
  70
    32
  0
VERTEX
  8
0
  5
1BD56
 10
-382.273
 20
845.036
 30
0.000000
  70
    32
  0
VERTEX
  8
0
  5
1BD57
 10
-382.271
 20
845.029
 30
0.000000
  70
    32
  0
VERTEX
  8
0
  5
1BD58
 10
-382.269
 20
845.022
 30
0.000000
  70
    32
  0
VERTEX
  8
0
  5
1BD59
 10
-382.267
 20
845.016
 30
0.000000
  70
    32
  0
VERTEX
  8
0
  5
1BD5A
 10
-382.265
 20
845.009
 30
0.000000
  70
    32
  0
VERTEX
  8
0
  5
1BD5B
 10
-382.264
 20
845.002
 30
0.000000
  70
    32
  0
VERTEX
  8
0
  5
1BD5C
 10
-382.262
 20
844.996
 30
0.000000
  70
    32
  0
VERTEX
  8
0
  5
1BD5D
 10
-382.260
 20
844.989
 30
0.000000
  70
    32
  0
VERTEX
  8
0
  5
1BD5E
 10
-382.258
 20
844.983
 30
0.000000
  70
    32
  0
VERTEX
  8
0
  5
1BD5F
 10
-382.256
 20
844.976
 30
0.000000
  70
    32
  0
VERTEX
  8
0
  5
1BD60
 10
-382.253
 20
844.970
 30
0.000000
  70
    32
  0
VERTEX
  8
0
  5
1BD61
 10
-382.251
 20
844.963
 30
0.000000
  70
    32
  0
VERTEX
  8
0
  5
1BD62
 10
-382.249
 20
844.957
 30
0.000000
  70
    32
  0
VERTEX
  8
0
  5
1BD63
 10
-382.247
 20
844.950
 30
0.000000
  70
    32
  0
VERTEX
  8
0
  5
1BD64
 10
-382.245
 20
844.944
 30
0.000000
  70
    32
  0
VERTEX
  8
0
  5
1BD65
 10
-382.242
 20
844.937
 30
0.000000
  70
    32
  0
VERTEX
  8
0
  5
1BD66
 10
-382.240
 20
844.931
 30
0.000000
  70
    32
  0
VERTEX
  8
0
  5
1BD67
 10
-382.238
 20
844.924
 30
0.000000
  70
    32
  0
VERTEX
  8
0
  5
1BD68
 10
-382.235
 20
844.918
 30
0.000000
  70
    32
  0
VERTEX
  8
0
  5
1BD69
 10
-382.233
 20
844.911
 30
0.000000
  70
    32
  0
VERTEX
  8
0
  5
1BD6A
 10
-382.230
 20
844.905
 30
0.000000
  70
    32
  0
VERTEX
  8
0
  5
1BD6B
 10
-382.228
 20
844.898
 30
0.000000
  70
    32
  0
VERTEX
  8
0
  5
1BD6C
 10
-382.225
 20
844.892
 30
0.000000
  70
    32
  0
VERTEX
  8
0
  5
1BD6D
 10
-382.223
 20
844.886
 30
0.000000
  70
    32
  0
VERTEX
  8
0
  5
1BD6E
 10
-382.220
 20
844.879
 30
0.000000
  70
    32
  0
VERTEX
  8
0
  5
1BD6F
 10
-382.217
 20
844.873
 30
0.000000
  70
    32
  0
VERTEX
  8
0
  5
1BD70
 10
-382.215
 20
844.867
 30
0.000000
  70
    32
  0
VERTEX
  8
0
  5
1BD71
 10
-382.212
 20
844.860
 30
0.000000
  70
    32
  0
VERTEX
  8
0
  5
1BD72
 10
-382.209
 20
844.854
 30
0.000000
  70
    32
  0
VERTEX
  8
0
  5
1BD73
 10
-382.206
 20
844.848
 30
0.000000
  70
    32
  0
VERTEX
  8
0
  5
1BD74
 10
-382.203
 20
844.841
 30
0.000000
  70
    32
  0
VERTEX
  8
0
  5
1BD75
 10
-382.200
 20
844.835
 30
0.000000
  70
    32
  0
VERTEX
  8
0
  5
1BD76
 10
-382.197
 20
844.829
 30
0.000000
  70
    32
  0
VERTEX
  8
0
  5
1BD77
 10
-382.194
 20
844.823
 30
0.000000
  70
    32
  0
VERTEX
  8
0
  5
1BD78
 10
-382.191
 20
844.817
 30
0.000000
  70
    32
  0
VERTEX
  8
0
  5
1BD79
 10
-382.188
 20
844.810
 30
0.000000
  70
    32
  0
VERTEX
  8
0
  5
1BD7A
 10
-382.185
 20
844.804
 30
0.000000
  70
    32
  0
VERTEX
  8
0
  5
1BD7B
 10
-382.182
 20
844.798
 30
0.000000
  70
    32
  0
VERTEX
  8
0
  5
1BD7C
 10
-382.179
 20
844.792
 30
0.000000
  70
    32
  0
VERTEX
  8
0
  5
1BD7D
 10
-382.176
 20
844.786
 30
0.000000
  70
    32
  0
VERTEX
  8
0
  5
1BD7E
 10
-382.172
 20
844.780
 30
0.000000
  70
    32
  0
VERTEX
  8
0
  5
1BD7F
 10
-382.169
 20
844.774
 30
0.000000
  70
    32
  0
VERTEX
  8
0
  5
1BD80
 10
-382.166
 20
844.768
 30
0.000000
  70
    32
  0
VERTEX
  8
0
  5
1BD81
 10
-382.162
 20
844.762
 30
0.000000
  70
    32
  0
VERTEX
  8
0
  5
1BD82
 10
-382.159
 20
844.756
 30
0.000000
  70
    32
  0
VERTEX
  8
0
  5
1BD83
 10
-382.156
 20
844.750
 30
0.000000
  70
    32
  0
VERTEX
  8
0
  5
1BD84
 10
-382.152
 20
844.744
 30
0.000000
  70
    32
  0
VERTEX
  8
0
  5
1BD85
 10
-382.149
 20
844.738
 30
0.000000
  70
    32
  0
VERTEX
  8
0
  5
1BD86
 10
-382.145
 20
844.732
 30
0.000000
  70
    32
  0
VERTEX
  8
0
  5
1BD87
 10
-382.141
 20
844.726
 30
0.000000
  70
    32
  0
VERTEX
  8
0
  5
1BD88
 10
-382.138
 20
844.720
 30
0.000000
  70
    32
  0
VERTEX
  8
0
  5
1BD89
 10
-382.134
 20
844.715
 30
0.000000
  70
    32
  0
VERTEX
  8
0
  5
1BD8A
 10
-382.130
 20
844.709
 30
0.000000
  70
    32
  0
VERTEX
  8
0
  5
1BD8B
 10
-382.127
 20
844.703
 30
0.000000
  70
    32
  0
VERTEX
  8
0
  5
1BD8C
 10
-382.123
 20
844.697
 30
0.000000
  70
    32
  0
VERTEX
  8
0
  5
1BD8D
 10
-382.119
 20
844.692
 30
0.000000
  70
    32
  0
VERTEX
  8
0
  5
1BD8E
 10
-382.115
 20
844.686
 30
0.000000
  70
    32
  0
VERTEX
  8
0
  5
1BD8F
 10
-382.111
 20
844.680
 30
0.000000
  70
    32
  0
VERTEX
  8
0
  5
1BD90
 10
-382.107
 20
844.675
 30
0.000000
  70
    32
  0
VERTEX
  8
0
  5
1BD91
 10
-382.103
 20
844.669
 30
0.000000
  70
    32
  0
VERTEX
  8
0
  5
1BD92
 10
-382.099
 20
844.664
 30
0.000000
  70
    32
  0
VERTEX
  8
0
  5
1BD93
 10
-382.095
 20
844.658
 30
0.000000
  70
    32
  0
VERTEX
  8
0
  5
1BD94
 10
-382.091
 20
844.653
 30
0.000000
  70
    32
  0
VERTEX
  8
0
  5
1BD95
 10
-382.087
 20
844.647
 30
0.000000
  70
    32
  0
VERTEX
  8
0
  5
1BD96
 10
-382.083
 20
844.642
 30
0.000000
  70
    32
  0
VERTEX
  8
0
  5
1BD97
 10
-382.079
 20
844.636
 30
0.000000
  70
    32
  0
VERTEX
  8
0
  5
1BD98
 10
-382.075
 20
844.631
 30
0.000000
  70
    32
  0
VERTEX
  8
0
  5
1BD99
 10
-382.070
 20
844.625
 30
0.000000
  70
    32
  0
VERTEX
  8
0
  5
1BD9A
 10
-382.066
 20
844.620
 30
0.000000
  70
    32
  0
VERTEX
  8
0
  5
1BD9B
 10
-382.062
 20
844.615
 30
0.000000
  70
    32
  0
VERTEX
  8
0
  5
1BD9C
 10
-382.058
 20
844.609
 30
0.000000
  70
    32
  0
VERTEX
  8
0
  5
1BD9D
 10
-382.053
 20
844.604
 30
0.000000
  70
    32
  0
VERTEX
  8
0
  5
1BD9E
 10
-382.049
 20
844.599
 30
0.000000
  70
    32
  0
VERTEX
  8
0
  5
1BD9F
 10
-382.044
 20
844.594
 30
0.000000
  70
    32
  0
VERTEX
  8
0
  5
1BDA0
 10
-382.040
 20
844.588
 30
0.000000
  70
    32
  0
VERTEX
  8
0
  5
1BDA1
 10
-382.035
 20
844.583
 30
0.000000
  70
    32
  0
VERTEX
  8
0
  5
1BDA2
 10
-382.031
 20
844.578
 30
0.000000
  70
    32
  0
VERTEX
  8
0
  5
1BDA3
 10
-382.026
 20
844.573
 30
0.000000
  70
    32
  0
VERTEX
  8
0
  5
1BDA4
 10
-382.022
 20
844.568
 30
0.000000
  70
    32
  0
VERTEX
  8
0
  5
1BDA5
 10
-382.017
 20
844.563
 30
0.000000
  70
    32
  0
VERTEX
  8
0
  5
1BDA6
 10
-382.013
 20
844.558
 30
0.000000
  70
    32
  0
VERTEX
  8
0
  5
1BDA7
 10
-382.008
 20
844.553
 30
0.000000
  70
    32
  0
VERTEX
  8
0
  5
1BDA8
 10
-382.003
 20
844.547
 30
0.000000
  70
    32
  0
VERTEX
  8
0
  5
1BDA9
 10
-381.999
 20
844.542
 30
0.000000
  70
    32
  0
VERTEX
  8
0
  5
1BDAA
 10
-381.994
 20
844.537
 30
0.000000
  70
    32
  0
VERTEX
  8
0
  5
1BDAB
 10
-381.989
 20
844.532
 30
0.000000
  70
    32
  0
VERTEX
  8
0
  5
1BDAC
 10
-381.985
 20
844.527
 30
0.000000
  70
    32
  0
VERTEX
  8
0
  5
1BDAD
 10
-381.980
 20
844.522
 30
0.000000
  70
    32
  0
VERTEX
  8
0
  5
1BDAE
 10
-381.975
 20
844.517
 30
0.000000
  70
    32
  0
VERTEX
  8
0
  5
1BDAF
 10
-381.970
 20
844.512
 30
0.000000
  70
    32
  0
VERTEX
  8
0
  5
1BDB0
 10
-381.966
 20
844.507
 30
0.000000
  70
    32
  0
VERTEX
  8
0
  5
1BDB1
 10
-381.961
 20
844.503
 30
0.000000
  70
    32
  0
VERTEX
  8
0
  5
1BDB2
 10
-381.956
 20
844.498
 30
0.000000
  70
    32
  0
VERTEX
  8
0
  5
1BDB3
 10
-381.951
 20
844.493
 30
0.000000
  70
    32
  0
VERTEX
  8
0
  5
1BDB4
 10
-381.946
 20
844.488
 30
0.000000
  70
    32
  0
VERTEX
  8
0
  5
1BDB5
 10
-381.942
 20
844.483
 30
0.000000
  70
    32
  0
VERTEX
  8
0
  5
1BDB6
 10
-381.937
 20
844.478
 30
0.000000
  70
    32
  0
VERTEX
  8
0
  5
1BDB7
 10
-381.932
 20
844.473
 30
0.000000
  70
    32
  0
VERTEX
  8
0
  5
1BDB8
 10
-381.927
 20
844.468
 30
0.000000
  70
    32
  0
VERTEX
  8
0
  5
1BDB9
 10
-381.922
 20
844.463
 30
0.000000
  70
    32
  0
VERTEX
  8
0
  5
1BDBA
 10
-381.917
 20
844.459
 30
0.000000
  70
    32
  0
VERTEX
  8
0
  5
1BDBB
 10
-381.912
 20
844.454
 30
0.000000
  70
    32
  0
VERTEX
  8
0
  5
1BDBC
 10
-381.907
 20
844.449
 30
0.000000
  70
    32
  0
VERTEX
  8
0
  5
1BDBD
 10
-381.902
 20
844.444
 30
0.000000
  70
    32
  0
VERTEX
  8
0
  5
1BDBE
 10
-381.897
 20
844.439
 30
0.000000
  70
    32
  0
VERTEX
  8
0
  5
1BDBF
 10
-381.892
 20
844.434
 30
0.000000
  70
    32
  0
VERTEX
  8
0
  5
1BDC0
 10
-381.887
 20
844.430
 30
0.000000
  70
    32
  0
VERTEX
  8
0
  5
1BDC1
 10
-381.883
 20
844.425
 30
0.000000
  70
    32
  0
VERTEX
  8
0
  5
1BDC2
 10
-381.878
 20
844.420
 30
0.000000
  70
    32
  0
VERTEX
  8
0
  5
1BDC3
 10
-381.873
 20
844.415
 30
0.000000
  70
    32
  0
VERTEX
  8
0
  5
1BDC4
 10
-381.868
 20
844.410
 30
0.000000
  70
    32
  0
VERTEX
  8
0
  5
1BDC5
 10
-381.863
 20
844.406
 30
0.000000
  70
    32
  0
VERTEX
  8
0
  5
1BDC6
 10
-381.858
 20
844.401
 30
0.000000
  70
    32
  0
VERTEX
  8
0
  5
1BDC7
 10
-381.853
 20
844.396
 30
0.000000
  70
    32
  0
VERTEX
  8
0
  5
1BDC8
 10
-381.848
 20
844.391
 30
0.000000
  70
    32
  0
VERTEX
  8
0
  5
1BDC9
 10
-381.843
 20
844.386
 30
0.000000
  70
    32
  0
VERTEX
  8
0
  5
1BDCA
 10
-381.838
 20
844.382
 30
0.000000
  70
    32
  0
VERTEX
  8
0
  5
1BDCB
 10
-381.833
 20
844.377
 30
0.000000
  70
    32
  0
VERTEX
  8
0
  5
1BDCC
 10
-381.828
 20
844.372
 30
0.000000
  70
    32
  0
VERTEX
  8
0
  5
1BDCD
 10
-381.823
 20
844.367
 30
0.000000
  70
    32
  0
VERTEX
  8
0
  5
1BDCE
 10
-381.818
 20
844.362
 30
0.000000
  70
    32
  0
VERTEX
  8
0
  5
1BDCF
 10
-381.814
 20
844.357
 30
0.000000
  70
    32
  0
VERTEX
  8
0
  5
1BDD0
 10
-381.809
 20
844.352
 30
0.000000
  70
    32
  0
VERTEX
  8
0
  5
1BDD1
 10
-381.804
 20
844.348
 30
0.000000
  70
    32
  0
VERTEX
  8
0
  5
1BDD2
 10
-381.799
 20
844.343
 30
0.000000
  70
    32
  0
VERTEX
  8
0
  5
1BDD3
 10
-381.794
 20
844.338
 30
0.000000
  70
    32
  0
VERTEX
  8
0
  5
1BDD4
 10
-381.790
 20
844.333
 30
0.000000
  70
    32
  0
VERTEX
  8
0
  5
1BDD5
 10
-381.785
 20
844.328
 30
0.000000
  70
    32
  0
VERTEX
  8
0
  5
1BDD6
 10
-381.780
 20
844.323
 30
0.000000
  70
    32
  0
VERTEX
  8
0
  5
1BDD7
 10
-381.775
 20
844.318
 30
0.000000
  70
    32
  0
VERTEX
  8
0
  5
1BDD8
 10
-381.771
 20
844.313
 30
0.000000
  70
    32
  0
VERTEX
  8
0
  5
1BDD9
 10
-381.766
 20
844.308
 30
0.000000
  70
    32
  0
VERTEX
  8
0
  5
1BDDA
 10
-381.762
 20
844.303
 30
0.000000
  70
    32
  0
VERTEX
  8
0
  5
1BDDB
 10
-381.757
 20
844.298
 30
0.000000
  70
    32
  0
VERTEX
  8
0
  5
1BDDC
 10
-381.752
 20
844.292
 30
0.000000
  70
    32
  0
VERTEX
  8
0
  5
1BDDD
 10
-381.748
 20
844.287
 30
0.000000
  70
    32
  0
VERTEX
  8
0
  5
1BDDE
 10
-381.743
 20
844.282
 30
0.000000
  70
    32
  0
VERTEX
  8
0
  5
1BDDF
 10
-381.739
 20
844.277
 30
0.000000
  70
    32
  0
VERTEX
  8
0
  5
1BDE0
 10
-381.735
 20
844.272
 30
0.000000
  70
    32
  0
VERTEX
  8
0
  5
1BDE1
 10
-381.730
 20
844.267
 30
0.000000
  70
    32
  0
VERTEX
  8
0
  5
1BDE2
 10
-381.726
 20
844.261
 30
0.000000
  70
    32
  0
VERTEX
  8
0
  5
1BDE3
 10
-381.722
 20
844.256
 30
0.000000
  70
    32
  0
VERTEX
  8
0
  5
1BDE4
 10
-381.717
 20
844.251
 30
0.000000
  70
    32
  0
VERTEX
  8
0
  5
1BDE5
 10
-381.713
 20
844.245
 30
0.000000
  70
    32
  0
VERTEX
  8
0
  5
1BDE6
 10
-381.709
 20
844.240
 30
0.000000
  70
    32
  0
VERTEX
  8
0
  5
1BDE7
 10
-381.705
 20
844.234
 30
0.000000
  70
    32
  0
VERTEX
  8
0
  5
1BDE8
 10
-381.701
 20
844.229
 30
0.000000
  70
    32
  0
VERTEX
  8
0
  5
1BDE9
 10
-381.697
 20
844.223
 30
0.000000
  70
    32
  0
VERTEX
  8
0
  5
1BDEA
 10
-381.693
 20
844.218
 30
0.000000
  70
    32
  0
VERTEX
  8
0
  5
1BDEB
 10
-381.689
 20
844.212
 30
0.000000
  70
    32
  0
VERTEX
  8
0
  5
1BDEC
 10
-381.685
 20
844.207
 30
0.000000
  70
    32
  0
VERTEX
  8
0
  5
1BDED
 10
-381.681
 20
844.201
 30
0.000000
  70
    32
  0
VERTEX
  8
0
  5
1BDEE
 10
-381.677
 20
844.195
 30
0.000000
  70
    32
  0
VERTEX
  8
0
  5
1BDEF
 10
-381.673
 20
844.190
 30
0.000000
  70
    32
  0
VERTEX
  8
0
  5
1BDF0
 10
-381.670
 20
844.184
 30
0.000000
  70
    32
  0
VERTEX
  8
0
  5
1BDF1
 10
-381.666
 20
844.178
 30
0.000000
  70
    32
  0
VERTEX
  8
0
  5
1BDF2
 10
-381.662
 20
844.172
 30
0.000000
  70
    32
  0
VERTEX
  8
0
  5
1BDF3
 10
-381.659
 20
844.166
 30
0.000000
  70
    32
  0
VERTEX
  8
0
  5
1BDF4
 10
-381.655
 20
844.161
 30
0.000000
  70
    32
  0
VERTEX
  8
0
  5
1BDF5
 10
-381.652
 20
844.155
 30
0.000000
  70
    32
  0
VERTEX
  8
0
  5
1BDF6
 10
-381.648
 20
844.149
 30
0.000000
  70
    32
  0
VERTEX
  8
0
  5
1BDF7
 10
-381.645
 20
844.143
 30
0.000000
  70
    32
  0
VERTEX
  8
0
  5
1BDF8
 10
-381.642
 20
844.137
 30
0.000000
  70
    32
  0
VERTEX
  8
0
  5
1BDF9
 10
-381.638
 20
844.131
 30
0.000000
  70
    32
  0
VERTEX
  8
0
  5
1BDFA
 10
-381.635
 20
844.125
 30
0.000000
  70
    32
  0
VERTEX
  8
0
  5
1BDFB
 10
-381.632
 20
844.119
 30
0.000000
  70
    32
  0
VERTEX
  8
0
  5
1BDFC
 10
-381.629
 20
844.113
 30
0.000000
  70
    32
  0
VERTEX
  8
0
  5
1BDFD
 10
-381.625
 20
844.107
 30
0.000000
  70
    32
  0
VERTEX
  8
0
  5
1BDFE
 10
-381.622
 20
844.100
 30
0.000000
  70
    32
  0
VERTEX
  8
0
  5
1BDFF
 10
-381.619
 20
844.094
 30
0.000000
  70
    32
  0
VERTEX
  8
0
  5
1BE00
 10
-381.616
 20
844.088
 30
0.000000
  70
    32
  0
VERTEX
  8
0
  5
1BE01
 10
-381.613
 20
844.082
 30
0.000000
  70
    32
  0
VERTEX
  8
0
  5
1BE02
 10
-381.610
 20
844.076
 30
0.000000
  70
    32
  0
VERTEX
  8
0
  5
1BE03
 10
-381.607
 20
844.069
 30
0.000000
  70
    32
  0
VERTEX
  8
0
  5
1BE04
 10
-381.604
 20
844.063
 30
0.000000
  70
    32
  0
VERTEX
  8
0
  5
1BE05
 10
-381.602
 20
844.057
 30
0.000000
  70
    32
  0
VERTEX
  8
0
  5
1BE06
 10
-381.599
 20
844.050
 30
0.000000
  70
    32
  0
VERTEX
  8
0
  5
1BE07
 10
-381.596
 20
844.044
 30
0.000000
  70
    32
  0
VERTEX
  8
0
  5
1BE08
 10
-381.593
 20
844.038
 30
0.000000
  70
    32
  0
VERTEX
  8
0
  5
1BE09
 10
-381.591
 20
844.031
 30
0.000000
  70
    32
  0
VERTEX
  8
0
  5
1BE0A
 10
-381.588
 20
844.025
 30
0.000000
  70
    32
  0
VERTEX
  8
0
  5
1BE0B
 10
-381.585
 20
844.018
 30
0.000000
  70
    32
  0
VERTEX
  8
0
  5
1BE0C
 10
-381.583
 20
844.012
 30
0.000000
  70
    32
  0
VERTEX
  8
0
  5
1BE0D
 10
-381.580
 20
844.006
 30
0.000000
  70
    32
  0
VERTEX
  8
0
  5
1BE0E
 10
-381.578
 20
843.999
 30
0.000000
  70
    32
  0
VERTEX
  8
0
  5
1BE0F
 10
-381.575
 20
843.993
 30
0.000000
  70
    32
  0
VERTEX
  8
0
  5
1BE10
 10
-381.573
 20
843.986
 30
0.000000
  70
    32
  0
VERTEX
  8
0
  5
1BE11
 10
-381.571
 20
843.980
 30
0.000000
  70
    32
  0
VERTEX
  8
0
  5
1BE12
 10
-381.568
 20
843.973
 30
0.000000
  70
    32
  0
VERTEX
  8
0
  5
1BE13
 10
-381.566
 20
843.966
 30
0.000000
  70
    32
  0
VERTEX
  8
0
  5
1BE14
 10
-381.564
 20
843.960
 30
0.000000
  70
    32
  0
VERTEX
  8
0
  5
1BE15
 10
-381.562
 20
843.953
 30
0.000000
  70
    32
  0
VERTEX
  8
0
  5
1BE16
 10
-381.559
 20
843.947
 30
0.000000
  70
    32
  0
VERTEX
  8
0
  5
1BE17
 10
-381.557
 20
843.940
 30
0.000000
  70
    32
  0
VERTEX
  8
0
  5
1BE18
 10
-381.555
 20
843.933
 30
0.000000
  70
    32
  0
VERTEX
  8
0
  5
1BE19
 10
-381.553
 20
843.927
 30
0.000000
  70
    32
  0
VERTEX
  8
0
  5
1BE1A
 10
-381.551
 20
843.920
 30
0.000000
  70
    32
  0
VERTEX
  8
0
  5
1BE1B
 10
-381.549
 20
843.913
 30
0.000000
  70
    32
  0
VERTEX
  8
0
  5
1BE1C
 10
-381.547
 20
843.907
 30
0.000000
  70
    32
  0
VERTEX
  8
0
  5
1BE1D
 10
-381.545
 20
843.900
 30
0.000000
  70
    32
  0
VERTEX
  8
0
  5
1BE1E
 10
-381.543
 20
843.893
 30
0.000000
  70
    32
  0
VERTEX
  8
0
  5
1BE1F
 10
-381.541
 20
843.887
 30
0.000000
  70
    32
  0
VERTEX
  8
0
  5
1BE20
 10
-381.540
 20
843.880
 30
0.000000
  70
    32
  0
VERTEX
  8
0
  5
1BE21
 10
-381.538
 20
843.873
 30
0.000000
  70
    32
  0
VERTEX
  8
0
  5
1BE22
 10
-381.536
 20
843.867
 30
0.000000
  70
    32
  0
VERTEX
  8
0
  5
1BE23
 10
-381.534
 20
843.860
 30
0.000000
  70
    32
  0
VERTEX
  8
0
  5
1BE24
 10
-381.533
 20
843.853
 30
0.000000
  70
    32
  0
VERTEX
  8
0
  5
1BE25
 10
-381.531
 20
843.846
 30
0.000000
  70
    32
  0
VERTEX
  8
0
  5
1BE26
 10
-381.530
 20
843.840
 30
0.000000
  70
    32
  0
VERTEX
  8
0
  5
1BE27
 10
-381.528
 20
843.833
 30
0.000000
  70
    32
  0
VERTEX
  8
0
  5
1BE28
 10
-381.527
 20
843.826
 30
0.000000
  70
    32
  0
VERTEX
  8
0
  5
1BE29
 10
-381.525
 20
843.819
 30
0.000000
  70
    32
  0
VERTEX
  8
0
  5
1BE2A
 10
-381.524
 20
843.812
 30
0.000000
  70
    32
  0
VERTEX
  8
0
  5
1BE2B
 10
-381.522
 20
843.806
 30
0.000000
  70
    32
  0
VERTEX
  8
0
  5
1BE2C
 10
-381.521
 20
843.799
 30
0.000000
  70
    32
  0
VERTEX
  8
0
  5
1BE2D
 10
-381.520
 20
843.792
 30
0.000000
  70
    32
  0
VERTEX
  8
0
  5
1BE2E
 10
-381.519
 20
843.785
 30
0.000000
  70
    32
  0
VERTEX
  8
0
  5
1BE2F
 10
-381.517
 20
843.778
 30
0.000000
  70
    32
  0
VERTEX
  8
0
  5
1BE30
 10
-381.516
 20
843.771
 30
0.000000
  70
    32
  0
VERTEX
  8
0
  5
1BE31
 10
-381.515
 20
843.765
 30
0.000000
  70
    32
  0
VERTEX
  8
0
  5
1BE32
 10
-381.514
 20
843.758
 30
0.000000
  70
    32
  0
VERTEX
  8
0
  5
1BE33
 10
-381.513
 20
843.751
 30
0.000000
  70
    32
  0
VERTEX
  8
0
  5
1BE34
 10
-381.512
 20
843.744
 30
0.000000
  70
    32
  0
VERTEX
  8
0
  5
1BE35
 10
-381.512
 20
843.737
 30
0.000000
  70
    32
  0
VERTEX
  8
0
  5
1BE36
 10
-381.511
 20
843.730
 30
0.000000
  70
    32
  0
VERTEX
  8
0
  5
1BE37
 10
-381.510
 20
843.724
 30
0.000000
  70
    32
  0
VERTEX
  8
0
  5
1BE38
 10
-381.509
 20
843.717
 30
0.000000
  70
    32
  0
VERTEX
  8
0
  5
1BE39
 10
-381.509
 20
843.710
 30
0.000000
  70
    32
  0
VERTEX
  8
0
  5
1BE3A
 10
-381.508
 20
843.703
 30
0.000000
  70
    32
  0
VERTEX
  8
0
  5
1BE3B
 10
-381.507
 20
843.696
 30
0.000000
  70
    32
  0
VERTEX
  8
0
  5
1BE3C
 10
-381.507
 20
843.689
 30
0.000000
  70
    32
  0
VERTEX
  8
0
  5
1BE3D
 10
-381.506
 20
843.682
 30
0.000000
  70
    32
  0
VERTEX
  8
0
  5
1BE3E
 10
-381.506
 20
843.676
 30
0.000000
  70
    32
  0
VERTEX
  8
0
  5
1BE3F
 10
-381.506
 20
843.669
 30
0.000000
  70
    32
  0
VERTEX
  8
0
  5
1BE40
 10
-381.505
 20
843.662
 30
0.000000
  70
    32
  0
VERTEX
  8
0
  5
1BE41
 10
-381.505
 20
843.655
 30
0.000000
  70
    32
  0
VERTEX
  8
0
  5
1BE42
 10
-381.505
 20
843.648
 30
0.000000
  70
    32
  0
VERTEX
  8
0
  5
1BE43
 10
-381.505
 20
843.641
 30
0.000000
  70
    32
  0
VERTEX
  8
0
  5
1BE44
 10
-381.505
 20
843.634
 30
0.000000
  70
    32
  0
VERTEX
  8
0
  5
1BE45
 10
-381.505
 20
843.627
 30
0.000000
  70
    32
  0
VERTEX
  8
0
  5
1BE46
 10
-381.505
 20
843.621
 30
0.000000
  70
    32
  0
VERTEX
  8
0
  5
1BE47
 10
-381.505
 20
843.614
 30
0.000000
  70
    32
  0
VERTEX
  8
0
  5
1BE48
 10
-381.505
 20
843.607
 30
0.000000
  70
    32
  0
VERTEX
  8
0
  5
1BE49
 10
-381.506
 20
843.600
 30
0.000000
  70
    32
  0
VERTEX
  8
0
  5
1BE4A
 10
-381.506
 20
843.593
 30
0.000000
  70
    32
  0
VERTEX
  8
0
  5
1BE4B
 10
-381.506
 20
843.586
 30
0.000000
  70
    32
  0
VERTEX
  8
0
  5
1BE4C
 10
-381.507
 20
843.580
 30
0.000000
  70
    32
  0
VERTEX
  8
0
  5
1BE4D
 10
-381.507
 20
843.573
 30
0.000000
  70
    32
  0
VERTEX
  8
0
  5
1BE4E
 10
-381.508
 20
843.566
 30
0.000000
  70
    32
  0
VERTEX
  8
0
  5
1BE4F
 10
-381.508
 20
843.559
 30
0.000000
  70
    32
  0
VERTEX
  8
0
  5
1BE50
 10
-381.509
 20
843.552
 30
0.000000
  70
    32
  0
VERTEX
  8
0
  5
1BE51
 10
-381.510
 20
843.545
 30
0.000000
  70
    32
  0
VERTEX
  8
0
  5
1BE52
 10
-381.511
 20
843.539
 30
0.000000
  70
    32
  0
VERTEX
  8
0
  5
1BE53
 10
-381.512
 20
843.532
 30
0.000000
  70
    32
  0
VERTEX
  8
0
  5
1BE54
 10
-381.512
 20
843.525
 30
0.000000
  70
    32
  0
VERTEX
  8
0
  5
1BE55
 10
-381.513
 20
843.518
 30
0.000000
  70
    32
  0
VERTEX
  8
0
  5
1BE56
 10
-381.515
 20
843.511
 30
0.000000
  70
    32
  0
VERTEX
  8
0
  5
1BE57
 10
-381.516
 20
843.505
 30
0.000000
  70
    32
  0
VERTEX
  8
0
  5
1BE58
 10
-381.517
 20
843.498
 30
0.000000
  70
    32
  0
VERTEX
  8
0
  5
1BE59
 10
-381.518
 20
843.491
 30
0.000000
  70
    32
  0
VERTEX
  8
0
  5
1BE5A
 10
-381.519
 20
843.484
 30
0.000000
  70
    32
  0
VERTEX
  8
0
  5
1BE5B
 10
-381.521
 20
843.478
 30
0.000000
  70
    32
  0
VERTEX
  8
0
  5
1BE5C
 10
-381.522
 20
843.471
 30
0.000000
  70
    32
  0
VERTEX
  8
0
  5
1BE5D
 10
-381.523
 20
843.464
 30
0.000000
  70
    32
  0
VERTEX
  8
0
  5
1BE5E
 10
-381.525
 20
843.457
 30
0.000000
  70
    32
  0
VERTEX
  8
0
  5
1BE5F
 10
-381.526
 20
843.451
 30
0.000000
  70
    32
  0
VERTEX
  8
0
  5
1BE60
 10
-381.528
 20
843.444
 30
0.000000
  70
    32
  0
VERTEX
  8
0
  5
1BE61
 10
-381.529
 20
843.437
 30
0.000000
  70
    32
  0
VERTEX
  8
0
  5
1BE62
 10
-381.531
 20
843.431
 30
0.000000
  70
    32
  0
VERTEX
  8
0
  5
1BE63
 10
-381.532
 20
843.424
 30
0.000000
  70
    32
  0
VERTEX
  8
0
  5
1BE64
 10
-381.534
 20
843.417
 30
0.000000
  70
    32
  0
SEQEND
  8
0
  5
1BE65
  0
LINE
  5
1B850
  8
0
 10
-382.84165857287121
 20
846.32387051794399
 30
0.0
 11
-382.84165857287121
 21
842.57387051794387
 31
0.0
  0
LINE
  5
1B851
  8
0
 10
-382.29926641622569
 20
845.85266368104385
 30
0.0
 11
-382.22113470682092
 21
845.79593974167699
 31
0.0
  0
VIEWPORT
  5
BADA
 67
     1
  8
0
 10
5.249999665167536
 20
4.016860864854312
 30
0.0
 40
16.259362384438411
 41
8.0158201110956853
 68
     1
 69
     1
1001
ACAD
1000
MVIEW
1002
{
1070
    16
1010
0.0
1020
0.0
1030
0.0
1010
0.0
1020
0.0
1030
1.0
1040
0.0
1040
8.0158201110956853
1040
5.249999665167536
1040
4.016860864854312
1040
50.0
1040
0.0
1040
0.0
1070
     0
1070
   100
1070
     1
1070
     1
1070
     0
1070
     0
1070
     0
1070
     0
1040
0.0
1040
0.0
1040
0.0
1040
0.5
1040
0.5
1040
0.5
1040
0.5
1070
     0
1002
{
1002
}
1002
}
  0
VIEWPORT
  5
BADD
 67
     1
  8
0
 10
5.2499996294871929
 20
4.0166741807634683
 30
0.0
 40
10.44245679893058
 41
7.8813805131999892
 68
     2
 69
     2
1001
ACAD
1000
MVIEW
1002
{
1070
    16
1010
0.0
1020
0.0
1030
0.0
1010
0.0
1020
0.0
1030
1.0
1040
0.0
1040
7.8813805544890707
1040
-381.70087438977413
1040
844.51303943423261
1040
50.0
1040
0.0
1040
0.0
1070
     0
1070
   100
1070
     1
1070
     2
1070
     0
1070
     0
1070
     0
1070
     0
1040
0.0
1040
0.0
1040
0.0
1040
0.5
1040
0.5
1040
0.5
1040
0.5
1070
     0
1002
{
1002
}
1002
}
  0
ENDSEC
  0
EOF
