  0
SECTION
  2
HEADER
  9
$ACADVER
  1
AC1009
  9
$INSBASE
 10
0.0
 20
0.0
 30
0.0
  9
$EXTMIN
 10
-391.51728314063951
 20
836.65541167751871
 30
0.0
  9
$EXTMAX
 10
-384.02191113970707
 20
839.59921045291765
 30
0.0
  9
$LIMMIN
 10
0.0
 20
0.0
  9
$LIMMAX
 10
1500.0
 20
1500.0
  9
$ORTHOMODE
 70
     0
  9
$REGENMODE
 70
     1
  9
$FILLMODE
 70
     1
  9
$QTEXTMODE
 70
     0
  9
$MIRRTEXT
 70
     1
  9
$DRAGMODE
 70
     2
  9
$LTSCALE
 40
1.0
  9
$OSMODE
 70
    37
  9
$ATTMODE
 70
     1
  9
$TEXTSIZE
 40
1.5
  9
$TRACEWID
 40
0.05
  9
$TEXTSTYLE
  7
STANDARD
  9
$CLAYER
  8
0
  9
$CELTYPE
  6
BYLAYER
  9
$CECOLOR
 62
   256
  9
$DIMSCALE
 40
1.0
  9
$DIMASZ
 40
0.75
  9
$DIMEXO
 40
1.5
  9
$DIMDLI
 40
2.0
  9
$DIMRND
 40
0.0
  9
$DIMDLE
 40
0.0
  9
$DIMEXE
 40
1.0
  9
$DIMTP
 40
0.0
  9
$DIMTM
 40
0.0
  9
$DIMTXT
 40
1.5
  9
$DIMCEN
 40
2.0
  9
$DIMTSZ
 40
0.0
  9
$DIMTOL
 70
     0
  9
$DIMLIM
 70
     0
  9
$DIMTIH
 70
     0
  9
$DIMTOH
 70
     0
  9
$DIMSE1
 70
     0
  9
$DIMSE2
 70
     0
  9
$DIMTAD
 70
     1
  9
$DIMZIN
 70
     0
  9
$DIMBLK
  1
ARCHTICK
  9
$DIMASO
 70
     1
  9
$DIMSHO
 70
     1
  9
$DIMPOST
  1
"
  9
$DIMAPOST
  1

  9
$DIMALT
 70
     0
  9
$DIMALTD
 70
     2
  9
$DIMALTF
 40
25.399999999999999
  9
$DIMLFAC
 40
1.0
  9
$DIMTOFL
 70
     0
  9
$DIMTVP
 40
0.0
  9
$DIMTIX
 70
     1
  9
$DIMSOXD
 70
     0
  9
$DIMSAH
 70
     0
  9
$DIMBLK1
  1

  9
$DIMBLK2
  1

  9
$DIMSTYLE
  2
THREE_QUARTER_INCH_SCALE
  9
$DIMCLRD
 70
     0
  9
$DIMCLRE
 70
     0
  9
$DIMCLRT
 70
     0
  9
$DIMTFAC
 40
1.0
  9
$DIMGAP
 40
1.0
  9
$LUNITS
 70
     2
  9
$LUPREC
 70
     4
  9
$SKETCHINC
 40
0.1
  9
$FILLETRAD
 40
0.0
  9
$AUNITS
 70
     0
  9
$AUPREC
 70
     0
  9
$MENU
  1
.
  9
$ELEVATION
 40
0.0
  9
$PELEVATION
 40
0.0
  9
$THICKNESS
 40
0.0
  9
$LIMCHECK
 70
     0
  9
$BLIPMODE
 70
     0
  9
$CHAMFERA
 40
0.5
  9
$CHAMFERB
 40
0.5
  9
$SKPOLY
 70
     0
  9
$TDCREATE
 40
2452089.395738773
  9
$TDUPDATE
 40
2453613.326722905
  9
$TDINDWG
 40
1.0006080670999999
  9
$TDUSRTIMER
 40
1.0006078935
  9
$USRTIMER
 70
     1
  9
$ANGBASE
 50
0.0
  9
$ANGDIR
 70
     0
  9
$PDMODE
 70
     0
  9
$PDSIZE
 40
10.0
  9
$PLINEWID
 40
0.0
  9
$COORDS
 70
     1
  9
$SPLFRAME
 70
     0
  9
$SPLINETYPE
 70
     6
  9
$SPLINESEGS
 70
     8
  9
$ATTDIA
 70
     0
  9
$ATTREQ
 70
     1
  9
$HANDLING
 70
     1
  9
$HANDSEED
  5
DF2A
  9
$SURFTAB1
 70
     6
  9
$SURFTAB2
 70
     6
  9
$SURFTYPE
 70
     6
  9
$SURFU
 70
     6
  9
$SURFV
 70
     6
  9
$UCSNAME
  2

  9
$UCSORG
 10
0.0
 20
0.0
 30
0.0
  9
$UCSXDIR
 10
1.0
 20
0.0
 30
0.0
  9
$UCSYDIR
 10
0.0
 20
1.0
 30
0.0
  9
$PUCSNAME
  2

  9
$PUCSORG
 10
0.0
 20
0.0
 30
0.0
  9
$PUCSXDIR
 10
1.0
 20
0.0
 30
0.0
  9
$PUCSYDIR
 10
0.0
 20
1.0
 30
0.0
  9
$USERI1
 70
     0
  9
$USERI2
 70
     0
  9
$USERI3
 70
     0
  9
$USERI4
 70
     0
  9
$USERI5
 70
     0
  9
$USERR1
 40
0.0
  9
$USERR2
 40
0.0
  9
$USERR3
 40
0.0
  9
$USERR4
 40
0.0
  9
$USERR5
 40
0.0
  9
$WORLDVIEW
 70
     1
  9
$SHADEDGE
 70
     3
  9
$SHADEDIF
 70
    70
  9
$TILEMODE
 70
     0
  9
$MAXACTVP
 70
    64
  9
$PLIMCHECK
 70
     0
  9
$PEXTMIN
 10
0.0287712300219028
 20
0.0759839241634737
 30
0.0
  9
$PEXTMAX
 10
10.47122802895248
 20
7.957364437363462
 30
0.0
  9
$PLIMMIN
 10
-0.1682389550263349
 20
-0.2033427855578579
  9
$PLIMMAX
 10
10.754640548407011
 20
8.2370640492290015
  9
$UNITMODE
 70
     0
  9
$VISRETAIN
 70
     1
  9
$PLINEGEN
 70
     0
  9
$PSLTSCALE
 70
     1
  0
ENDSEC
  0
SECTION
  2
TABLES
  0
TABLE
  2
VPORT
 70
     1
  0
VPORT
  2
*ACTIVE
 70
     0
 10
0.0
 20
0.0
 11
1.0
 21
1.0
 12
-386.52380251144001
 22
838.09204166179234
 13
0.0
 23
0.0
 14
0.5
 24
0.5
 15
0.5
 25
0.5
 16
0.0
 26
0.0
 36
1.0
 17
0.0
 27
0.0
 37
0.0
 40
3.930952126162941
 41
2.0226628895184122
 42
50.0
 43
0.0
 44
0.0
 50
0.0
 51
0.0
 71
     0
 72
   100
 73
     1
 74
     2
 75
     0
 76
     0
 77
     0
 78
     0
  0
ENDTAB
  0
TABLE
  2
LTYPE
 70
     1
  0
LTYPE
  2
CONTINUOUS
 70
     0
  3
Solid line
 72
    65
 73
     0
 40
0.0
  0
ENDTAB
  0
TABLE
  2
LAYER
 70
    11
  0
LAYER
  2
0
 70
     0
 62
     7
  6
CONTINUOUS
  0
LAYER
  2
DEFPOINTS
 70
     0
 62
     7
  6
CONTINUOUS
  0
LAYER
  2
FRAME_200
 70
     0
 62
     8
  6
CONTINUOUS
  0
LAYER
  2
FRAME_070
 70
     0
 62
     5
  6
CONTINUOUS
  0
LAYER
  2
FRAME_050
 70
     0
 62
     6
  6
CONTINUOUS
  0
LAYER
  2
TITLE_BLOCK
 70
     0
 62
     7
  6
CONTINUOUS
  0
LAYER
  2
FRAME_025
 70
     0
 62
     7
  6
CONTINUOUS
  0
LAYER
  2
VIEWPORT
 70
     0
 62
     7
  6
CONTINUOUS
  0
LAYER
  2
PROF
 70
     0
 62
     7
  6
CONTINUOUS
  0
LAYER
  2
PROFILE
 70
     0
 62
     7
  6
CONTINUOUS
  0
LAYER
  2
FRAME_0500
 70
     0
 62
     6
  6
CONTINUOUS
  0
ENDTAB
  0
TABLE
  2
STYLE
 70
     2
  0
STYLE
  2
STANDARD
 70
     0
 40
0.0
 41
1.0
 50
0.0
 71
     0
 42
1.5
  3
txt
  4

  0
STYLE
  2
ISO_PROPORTIONAL
 70
     0
 40
0.0
 41
1.0
 50
0.0
 71
     0
 42
2.5
  3
isocp.shx
  4

  0
ENDTAB
  0
TABLE
  2
VIEW
 70
     0
  0
ENDTAB
  0
TABLE
  2
UCS
 70
     0
  0
ENDTAB
  0
TABLE
  2
APPID
 70
     6
  0
APPID
  2
ACAD
 70
     0
  0
APPID
  2
DCO15
 70
     0
  0
APPID
  2
ACAD_EXEMPT_FROM_CAD_STANDARDS
 70
     0
  0
APPID
  2
ACAD_PSEXT
 70
     0
  0
APPID
  2
CONTENTBLOCKDESCRIPTION
 70
     0
  0
APPID
  2
CONTENTBLOCKICON
 70
     0
  0
ENDTAB
  0
TABLE
  2
DIMSTYLE
 70
    10
  0
DIMSTYLE
  2
FULL_SCALE
 70
     0
  3
"
  4

  5

  6

  7

 40
1.0
 41
0.046875
 42
0.09375
 43
0.125
 44
0.0625
 45
0.0
 46
0.0
 47
0.0
 48
0.0
140
0.125
141
0.125
142
0.0
143
25.399999999999999
144
1.0
145
0.0
146
1.0
147
0.0625
 71
     0
 72
     0
 73
     0
 74
     0
 75
     0
 76
     0
 77
     1
 78
     0
170
     0
171
     2
172
     0
173
     0
174
     1
175
     0
176
     0
177
     0
178
     0
  0
DIMSTYLE
  2
HALF_SCALE
 70
     0
  3
"
  4

  5

  6

  7

 40
1.0
 41
0.09375
 42
0.1875
 43
0.25
 44
0.125
 45
0.0
 46
0.0
 47
0.0
 48
0.0
140
0.25
141
0.25
142
0.0
143
25.399999999999999
144
1.0
145
0.0
146
1.0
147
0.125
 71
     0
 72
     0
 73
     0
 74
     0
 75
     0
 76
     0
 77
     1
 78
     0
170
     0
171
     2
172
     0
173
     0
174
     1
175
     0
176
     0
177
     0
178
     0
  0
DIMSTYLE
  2
INCH_SCALE
 70
     0
  3
"
  4

  5

  6

  7

 40
1.0
 41
0.5625
 42
1.125
 43
1.5
 44
0.75
 45
0.0
 46
0.0
 47
0.0
 48
0.0
140
1.125
141
1.5
142
0.0
143
25.399999999999999
144
1.0
145
0.0
146
1.0
147
0.75
 71
     0
 72
     0
 73
     0
 74
     0
 75
     0
 76
     0
 77
     1
 78
     0
170
     0
171
     2
172
     0
173
     0
174
     1
175
     0
176
     0
177
     0
178
     0
  0
DIMSTYLE
  2
THREE_QUARTER_INCH_SCALE
 70
     0
  3
"
  4

  5

  6

  7

 40
1.0
 41
0.75
 42
1.5
 43
2.0
 44
1.0
 45
0.0
 46
0.0
 47
0.0
 48
0.0
140
1.5
141
2.0
142
0.0
143
25.399999999999999
144
1.0
145
0.0
146
1.0
147
1.0
 71
     0
 72
     0
 73
     0
 74
     0
 75
     0
 76
     0
 77
     1
 78
     0
170
     0
171
     2
172
     0
173
     0
174
     1
175
     0
176
     0
177
     0
178
     0
  0
DIMSTYLE
  2
ZHALF_INCH_SCALE
 70
     0
  3
"
  4

  5

  6

  7

 40
1.0
 41
1.125
 42
2.25
 43
3.0
 44
1.5
 45
0.0
 46
0.0
 47
0.0
 48
0.0
140
2.25
141
3.0
142
0.0
143
25.399999999999999
144
1.0
145
0.0
146
1.0
147
1.5
 71
     0
 72
     0
 73
     0
 74
     0
 75
     0
 76
     0
 77
     1
 78
     0
170
     0
171
     2
172
     0
173
     0
174
     1
175
     0
176
     0
177
     0
178
     0
  0
DIMSTYLE
  2
FULL_SCALE0
 70
     0
  3
"
  4

  5
ARCHTICK
  6

  7

 40
1.0
 41
0.046875
 42
0.09375
 43
0.125
 44
0.0625
 45
0.0
 46
0.0
 47
0.0
 48
0.0
140
0.125
141
0.125
142
0.0
143
25.399999999999999
144
1.0
145
0.0
146
1.0
147
0.0625
 71
     0
 72
     0
 73
     0
 74
     0
 75
     0
 76
     0
 77
     1
 78
     0
170
     0
171
     2
172
     0
173
     0
174
     1
175
     0
176
     0
177
     0
178
     0
  0
DIMSTYLE
  2
HALF_SCALE0
 70
     0
  3
"
  4

  5
ARCHTICK
  6

  7

 40
1.0
 41
0.09375
 42
0.1875
 43
0.25
 44
0.125
 45
0.0
 46
0.0
 47
0.0
 48
0.0
140
0.25
141
0.25
142
0.0
143
25.399999999999999
144
1.0
145
0.0
146
1.0
147
0.125
 71
     0
 72
     0
 73
     0
 74
     0
 75
     0
 76
     0
 77
     1
 78
     0
170
     0
171
     2
172
     0
173
     0
174
     1
175
     0
176
     0
177
     0
178
     0
  0
DIMSTYLE
  2
INCH_SCALE0
 70
     0
  3
"
  4

  5
ARCHTICK
  6

  7

 40
1.0
 41
0.5625
 42
1.125
 43
1.5
 44
0.75
 45
0.0
 46
0.0
 47
0.0
 48
0.0
140
1.125
141
1.5
142
0.0
143
25.399999999999999
144
1.0
145
0.0
146
1.0
147
0.75
 71
     0
 72
     0
 73
     0
 74
     0
 75
     0
 76
     0
 77
     1
 78
     0
170
     0
171
     2
172
     0
173
     0
174
     1
175
     0
176
     0
177
     0
178
     0
  0
DIMSTYLE
  2
THREE_QUARTER_INCH_SCALE0
 70
     0
  3
"
  4

  5
ARCHTICK
  6

  7

 40
1.0
 41
0.75
 42
1.5
 43
2.0
 44
1.0
 45
0.0
 46
0.0
 47
0.0
 48
0.0
140
1.5
141
2.0
142
0.0
143
25.399999999999999
144
1.0
145
0.0
146
1.0
147
1.0
 71
     0
 72
     0
 73
     0
 74
     0
 75
     0
 76
     0
 77
     1
 78
     0
170
     0
171
     2
172
     0
173
     0
174
     1
175
     0
176
     0
177
     0
178
     0
  0
DIMSTYLE
  2
ZHALF_INCH_SCALE0
 70
     0
  3
"
  4

  5
ARCHTICK
  6

  7

 40
1.0
 41
1.125
 42
2.25
 43
3.0
 44
1.5
 45
0.0
 46
0.0
 47
0.0
 48
0.0
140
2.25
141
3.0
142
0.0
143
25.399999999999999
144
1.0
145
0.0
146
1.0
147
1.5
 71
     0
 72
     0
 73
     0
 74
     0
 75
     0
 76
     0
 77
     1
 78
     0
170
     0
171
     2
172
     0
173
     0
174
     1
175
     0
176
     0
177
     0
178
     0
  0
ENDTAB
  0
ENDSEC
  0
SECTION
  2
BLOCKS
  0
BLOCK
  8
0
  2
$MODEL_SPACE
 70
     0
 10
0.0
 20
0.0
 30
0.0
  3
$MODEL_SPACE
  1

  0
ENDBLK
  5
C9DC
  8
0
  0
BLOCK
 67
     1
  8
0
  2
$PAPER_SPACE
 70
     0
 10
0.0
 20
0.0
 30
0.0
  3
$PAPER_SPACE
  1

  0
ENDBLK
  5
C9D8
 67
     1
  8
0
  0
BLOCK
  8
0
  2
_ARCHTICK
 70
     0
 10
0.0
 20
0.0
 30
0.0
  3
_ARCHTICK
  1

  0
POLYLINE
  5
158
  8
0
  6
BYBLOCK
 62
     0
 66
     1
 10
0.0
 20
0.0
 30
0.0
 40
0.15
 41
0.15
  0
VERTEX
  5
DAE9
  8
0
  6
BYBLOCK
 62
     0
 10
-0.5
 20
-0.5
 30
0.0
  0
VERTEX
  5
DAEA
  8
0
  6
BYBLOCK
 62
     0
 10
0.5
 20
0.5
 30
0.0
  0
SEQEND
  5
DAEB
  8
0
  6
BYBLOCK
 62
     0
  0
ENDBLK
  5
15A
  8
0
  0
BLOCK
  8
0
  2
_OPEN30
 70
     0
 10
0.0
 20
0.0
 30
0.0
  3
_OPEN30
  1

  0
LINE
  5
15C
  8
0
  6
BYBLOCK
 62
     0
 10
-1.0
 20
0.26794919
 30
0.0
 11
0.0
 21
0.0
 31
0.0
  0
LINE
  5
15D
  8
0
  6
BYBLOCK
 62
     0
 10
0.0
 20
0.0
 30
0.0
 11
-1.0
 21
-0.26794919
 31
0.0
  0
LINE
  5
15E
  8
0
  6
BYBLOCK
 62
     0
 10
0.0
 20
0.0
 30
0.0
 11
-1.0
 21
0.0
 31
0.0
  0
ENDBLK
  5
160
  8
0
  0
BLOCK
  8
0
  2
ISO_A2_TITLE_BLOCK
 70
     2
 10
0.0
 20
0.0
 30
0.0
  3
ISO_A2_TITLE_BLOCK
  1

  0
LINE
  5
BDD
  8
FRAME_050
 10
299.5
 20
12.5
 30
0.0
 11
297.0
 21
7.5
 31
0.0
  0
LINE
  5
BDE
  8
FRAME_050
 10
294.5
 20
12.5
 30
0.0
 11
299.5
 21
12.5
 31
0.0
  0
LINE
  5
BDF
  8
FRAME_050
 10
247.0
 20
5.0
 30
0.0
 11
347.0
 21
5.0
 31
0.0
  0
LINE
  5
BE0
  8
FRAME_070
 10
584.0
 20
410.0
 30
0.0
 11
10.0
 21
410.0
 31
0.0
  0
LINE
  5
BE1
  8
FRAME_070
 10
10.0
 20
10.0
 30
0.0
 11
584.0
 21
10.0
 31
0.0
  0
LINE
  5
BE2
  8
FRAME_050
 10
12.5
 20
207.5
 30
0.0
 11
7.5
 21
210.0
 31
0.0
  0
LINE
  5
BE3
  8
FRAME_050
 10
12.5
 20
212.5
 30
0.0
 11
12.5
 21
207.5
 31
0.0
  0
LINE
  5
BE4
  8
FRAME_070
 10
10.0
 20
410.0
 30
0.0
 11
10.0
 21
10.0
 31
0.0
  0
LINE
  5
BE5
  8
FRAME_200
 10
0.0
 20
0.0
 30
0.0
 11
0.0
 21
10.0
 31
0.0
  0
LINE
  5
BE6
  8
FRAME_200
 10
0.0
 20
0.0
 30
0.0
 11
10.0
 21
0.0
 31
0.0
  0
TEXT
  5
BE7
  8
FRAME_050
 10
5.9000000000000004
 20
35.0
 30
0.0
 40
4.0
  1
H
  7
ISO_PROPORTIONAL
 72
     4
 11
7.5
 21
37.0
 31
0.0
  0
LINE
  5
BE8
  8
FRAME_050
 10
10.0
 20
60.0
 30
0.0
 11
5.0
 21
60.0
 31
0.0
  0
LINE
  5
BE9
  8
FRAME_050
 10
81.75
 20
5.0
 30
0.0
 11
81.75
 21
10.0
 31
0.0
  0
TEXT
  5
BEA
  8
FRAME_050
 10
44.874999999999993
 20
5.5
 30
0.0
 40
4.0
  1
1
  7
ISO_PROPORTIONAL
 72
     4
 11
45.875
 21
7.5
 31
0.0
  0
TEXT
  5
BEB
  8
FRAME_050
 10
6.0035533905932743
 20
85.0
 30
0.0
 40
4.0
  1
G
  7
ISO_PROPORTIONAL
 72
     4
 11
7.5
 21
87.0
 31
0.0
  0
LINE
  5
BEC
  8
FRAME_050
 10
10.0
 20
110.0
 30
0.0
 11
5.0
 21
110.0
 31
0.0
  0
TEXT
  5
BED
  8
FRAME_050
 10
6.0999999999999988
 20
135.0
 30
0.0
 40
4.0
  1
F
  7
ISO_PROPORTIONAL
 72
     4
 11
7.5
 21
137.0
 31
0.0
  0
LINE
  5
BEE
  8
FRAME_050
 10
10.0
 20
160.0
 30
0.0
 11
5.0
 21
160.0
 31
0.0
  0
TEXT
  5
BEF
  8
FRAME_050
 10
6.0999999999999988
 20
185.0
 30
0.0
 40
4.0
  1
E
  7
ISO_PROPORTIONAL
 72
     4
 11
7.5
 21
187.0
 31
0.0
  0
LINE
  5
BF0
  8
FRAME_050
 10
153.5
 20
5.0
 30
0.0
 11
153.5
 21
10.0
 31
0.0
  0
TEXT
  5
BF1
  8
FRAME_050
 10
116.1556692913386
 20
5.3996062992125982
 30
0.0
 40
4.0
  1
2
  7
ISO_PROPORTIONAL
 72
     4
 11
117.625
 21
7.5
 31
0.0
  0
TEXT
  5
BF2
  8
FRAME_050
 10
187.89215728752529
 20
5.5828427124746138
 30
0.0
 40
4.0
  1
3
  7
ISO_PROPORTIONAL
 72
     4
 11
189.375
 21
7.5
 31
0.0
  0
LINE
  5
BF3
  8
FRAME_050
 10
225.25
 20
5.0
 30
0.0
 11
225.25
 21
10.0
 31
0.0
  0
LINE
  5
BF4
  8
FRAME_050
 10
297.0
 20
7.5
 30
0.0
 11
294.5
 21
12.5
 31
0.0
  0
LINE
  5
BF5
  8
FRAME_050
 10
287.0
 20
5.0
 30
0.0
 11
287.0
 21
10.0
 31
0.0
  0
LINE
  5
BF6
  8
FRAME_050
 10
277.0
 20
5.0
 30
0.0
 11
277.0
 21
10.0
 31
0.0
  0
LINE
  5
BF7
  8
FRAME_050
 10
267.0
 20
5.0
 30
0.0
 11
267.0
 21
10.0
 31
0.0
  0
LINE
  5
BF8
  8
FRAME_050
 10
257.0
 20
5.0
 30
0.0
 11
257.0
 21
10.0
 31
0.0
  0
LINE
  5
BF9
  8
FRAME_050
 10
247.0
 20
5.0
 30
0.0
 11
247.0
 21
10.0
 31
0.0
  0
LINE
  5
BFA
  8
FRAME_050
 10
297.0
 20
10.0
 30
0.0
 11
297.0
 21
5.0
 31
0.0
  0
LINE
  5
BFB
  8
FRAME_050
 10
297.0
 20
10.0
 30
0.0
 11
297.0
 21
15.0
 31
0.0
  0
LINE
  5
BFC
  8
FRAME_050
 10
5.0
 20
210.0
 30
0.0
 11
15.0
 21
210.0
 31
0.0
  0
LINE
  5
BFD
  8
FRAME_050
 10
7.5
 20
210.0
 30
0.0
 11
12.5
 21
212.5
 31
0.0
  0
TEXT
  5
BFE
  8
FRAME_050
 10
5.7860912703473977
 20
235.0
 30
0.0
 40
4.0
  1
D
  7
ISO_PROPORTIONAL
 72
     4
 11
7.5
 21
237.0
 31
0.0
  0
LINE
  5
BFF
  8
FRAME_050
 10
10.0
 20
260.0
 30
0.0
 11
5.0
 21
260.0
 31
0.0
  0
TEXT
  5
C00
  8
FRAME_050
 10
6.1931980515339466
 20
285.0
 30
0.0
 40
4.0
  1
C
  7
ISO_PROPORTIONAL
 72
     4
 11
7.5
 21
287.0
 31
0.0
  0
LINE
  5
C01
  8
FRAME_050
 10
10.0
 20
310.0
 30
0.0
 11
5.0
 21
310.0
 31
0.0
  0
TEXT
  5
C02
  8
FRAME_050
 10
5.8999999999999959
 20
335.0
 30
0.0
 40
4.0
  1
B
  7
ISO_PROPORTIONAL
 72
     4
 11
7.5
 21
337.0
 31
0.0
  0
LINE
  5
C03
  8
FRAME_050
 10
10.0
 20
360.0
 30
0.0
 11
5.0
 21
360.0
 31
0.0
  0
TEXT
  5
C04
  8
FRAME_050
 10
5.6999999999999993
 20
385.0
 30
0.0
 40
4.0
  1
A
  7
ISO_PROPORTIONAL
 72
     4
 11
7.5
 21
387.0
 31
0.0
  0
LINE
  5
C05
  8
FRAME_200
 10
10.0
 20
420.0
 30
0.0
 11
0.0
 21
420.0
 31
0.0
  0
LINE
  5
C06
  8
FRAME_200
 10
0.0
 20
420.0
 30
0.0
 11
0.0
 21
410.0
 31
0.0
  0
TEXT
  5
C07
  8
FRAME_050
 10
44.874999999999993
 20
410.5
 30
0.0
 40
4.0
  1
1
  7
ISO_PROPORTIONAL
 72
     4
 11
45.875
 21
412.5
 31
0.0
  0
LINE
  5
C08
  8
FRAME_050
 10
81.75
 20
410.0
 30
0.0
 11
81.75
 21
415.0
 31
0.0
  0
TEXT
  5
C09
  8
FRAME_050
 10
116.1556692913386
 20
410.39960629921262
 30
0.0
 40
4.0
  1
2
  7
ISO_PROPORTIONAL
 72
     4
 11
117.625
 21
412.5
 31
0.0
  0
LINE
  5
C0A
  8
FRAME_050
 10
153.5
 20
410.0
 30
0.0
 11
153.5
 21
415.0
 31
0.0
  0
TEXT
  5
C0B
  8
FRAME_050
 10
187.89215728752529
 20
410.58284271247459
 30
0.0
 40
4.0
  1
3
  7
ISO_PROPORTIONAL
 72
     4
 11
189.375
 21
412.5
 31
0.0
  0
LINE
  5
C0C
  8
FRAME_050
 10
297.0
 20
405.0
 30
0.0
 11
297.0
 21
415.0
 31
0.0
  0
LINE
  5
C0D
  8
FRAME_050
 10
225.25
 20
410.0
 30
0.0
 11
225.25
 21
415.0
 31
0.0
  0
TEXT
  5
C0E
  8
FRAME_050
 10
259.52499999999998
 20
410.5
 30
0.0
 40
4.0
  1
4
  7
ISO_PROPORTIONAL
 72
     4
 11
261.125
 21
412.5
 31
0.0
  0
LINE
  5
C0F
  8
FRAME_070
 10
584.0
 20
10.0
 30
0.0
 11
584.0
 21
410.0
 31
0.0
  0
ATTDEF
  5
C10
  8
FRAME_025
 10
473.0
 20
31.75
 30
0.0
 40
2.5
  1
XXX - 00/00/00
  7
ISO_PROPORTIONAL
 11
473.0
 21
33.0
 31
0.0
  3
Approved by - Date
  2
APPROVED_BY_DATE
 70
     8
 74
     2
  0
TEXT
  5
C11
  8
FRAME_025
 10
448.0
 20
41.749999999999993
 30
0.0
 40
2.5
  1
Title/Name, designation, material, dimension etc
  7
ISO_PROPORTIONAL
 11
448.0
 21
43.0
 31
0.0
 73
     2
  0
TEXT
  5
C12
  8
FRAME_025
 10
473.0
 20
35.75
 30
0.0
 40
2.5
  1
Approved by - date
  7
ISO_PROPORTIONAL
 11
473.0
 21
37.0
 31
0.0
 73
     2
  0
LINE
  5
C13
  8
FRAME_070
 10
414.0
 20
46.0
 30
0.0
 11
584.0
 21
46.0
 31
0.0
  0
LINE
  5
C14
  8
FRAME_070
 10
414.0
 20
40.0
 30
0.0
 11
584.0
 21
40.0
 31
0.0
  0
LINE
  5
C15
  8
FRAME_070
 10
414.0
 20
30.0
 30
0.0
 11
584.0
 21
30.0
 31
0.0
  0
LINE
  5
C16
  8
FRAME_050
 10
368.75
 20
5.0
 30
0.0
 11
368.75
 21
10.0
 31
0.0
  0
LINE
  5
C17
  8
FRAME_050
 10
337.0
 20
5.0
 30
0.0
 11
337.0
 21
10.0
 31
0.0
  0
LINE
  5
C18
  8
FRAME_050
 10
327.0
 20
5.0
 30
0.0
 11
327.0
 21
10.0
 31
0.0
  0
LINE
  5
C19
  8
FRAME_050
 10
317.0
 20
5.0
 30
0.0
 11
317.0
 21
10.0
 31
0.0
  0
LINE
  5
C1A
  8
FRAME_050
 10
307.0
 20
5.0
 30
0.0
 11
307.0
 21
10.0
 31
0.0
  0
LINE
  5
C1B
  8
FRAME_050
 10
347.0
 20
5.0
 30
0.0
 11
347.0
 21
10.0
 31
0.0
  0
LINE
  5
C1C
  8
FRAME_050
 10
440.5
 20
5.0
 30
0.0
 11
440.5
 21
10.0
 31
0.0
  0
TEXT
  5
C1D
  8
FRAME_050
 10
403.24547244094481
 20
5.4102362204724406
 30
0.0
 40
4.0
  1
6
  7
ISO_PROPORTIONAL
 72
     4
 11
404.62499999999989
 21
7.5
 31
0.0
  0
TEXT
  5
C1E
  8
FRAME_050
 10
474.97499999999991
 20
5.5
 30
0.0
 40
4.0
  1
7
  7
ISO_PROPORTIONAL
 72
     4
 11
476.37499999999989
 21
7.5
 31
0.0
  0
TEXT
  5
C1F
  8
FRAME_025
 10
431.0
 20
41.749999999999993
 30
0.0
 40
2.5
  1
Quantity
  7
ISO_PROPORTIONAL
 11
431.0
 21
43.0
 31
0.0
 73
     2
  0
TEXT
  5
C20
  8
FRAME_025
 10
416.0
 20
41.749999999999993
 30
0.0
 40
2.5
  1
Itemref
  7
ISO_PROPORTIONAL
 11
416.0
 21
43.0
 31
0.0
 73
     2
  0
LINE
  5
C21
  8
FRAME_070
 10
414.0
 20
40.0
 30
0.0
 11
414.0
 21
46.0
 31
0.0
  0
LINE
  5
C22
  8
FRAME_070
 10
429.0
 20
40.0
 30
0.0
 11
429.0
 21
46.0
 31
0.0
  0
LINE
  5
C23
  8
FRAME_070
 10
414.0
 20
10.0
 30
0.0
 11
414.0
 21
40.0
 31
0.0
  0
ATTDEF
  5
C24
  8
FRAME_025
 10
416.0
 20
31.75
 30
0.0
 40
2.5
  1
XXX
  7
ISO_PROPORTIONAL
 11
416.0
 21
33.0
 31
0.0
  3
Designed by
  2
DESIGNED_BY
 70
     8
 74
     2
  0
TEXT
  5
C25
  8
FRAME_025
 10
416.0
 20
35.75
 30
0.0
 40
2.5
  1
Designed by
  7
ISO_PROPORTIONAL
 11
416.0
 21
37.0
 31
0.0
 73
     2
  0
LINE
  5
C26
  8
FRAME_070
 10
446.0
 20
40.0
 30
0.0
 11
446.0
 21
46.0
 31
0.0
  0
ATTDEF
  5
C27
  8
FRAME_025
 10
448.0
 20
31.75
 30
0.0
 40
2.5
  1
XXX
  7
ISO_PROPORTIONAL
 11
448.0
 21
33.0
 31
0.0
  3
Checked by
  2
CHECKED_BY
 70
     8
 74
     2
  0
TEXT
  5
C28
  8
FRAME_025
 10
448.0
 20
35.75
 30
0.0
 40
2.5
  1
Checked by
  7
ISO_PROPORTIONAL
 11
448.0
 21
37.0
 31
0.0
 73
     2
  0
ATTDEF
  5
C29
  8
FRAME_050
 10
444.74999999999989
 20
17.5
 30
0.0
 40
5.0
  1
XXX
  7
ISO_PROPORTIONAL
 72
     4
 11
451.49999999999989
 21
20.0
 31
0.0
  3
Owner
  2
OWNER
 70
     8
  0
LINE
  5
C2A
  8
FRAME_070
 10
446.0
 20
30.0
 30
0.0
 11
446.0
 21
40.0
 31
0.0
  0
LINE
  5
C2B
  8
FRAME_070
 10
471.0
 20
30.0
 30
0.0
 11
471.0
 21
40.0
 31
0.0
  0
LINE
  5
C2C
  8
FRAME_070
 10
489.0
 20
20.0
 30
0.0
 11
584.0
 21
20.0
 31
0.0
  0
LINE
  5
C2D
  8
FRAME_050
 10
512.25
 20
5.0
 30
0.0
 11
512.25
 21
10.0
 31
0.0
  0
TEXT
  5
C2E
  8
FRAME_050
 10
546.72499999999991
 20
5.5
 30
0.0
 40
4.0
  1
8
  7
ISO_PROPORTIONAL
 72
     4
 11
548.125
 21
7.5
 31
0.0
  0
ATTDEF
  5
C2F
  8
FRAME_050
 10
517.64999999999986
 20
13.5
 30
0.0
 40
3.0
  1
X
  7
ISO_PROPORTIONAL
 72
     4
 11
519.0
 21
15.0
 31
0.0
  3
Drawing number
  2
DRAWING_NUMBER
 70
     8
  0
ATTDEF
  5
C30
  8
FRAME_050
 10
529.75
 20
22.5
 30
0.0
 40
5.0
  1
XXX
  7
ISO_PROPORTIONAL
 72
     4
 11
536.5
 21
25.0
 31
0.0
  3
Title / Name
  2
TITLE
 70
     8
  0
LINE
  5
C31
  8
FRAME_070
 10
489.0
 20
10.0
 30
0.0
 11
489.0
 21
30.0
 31
0.0
  0
ATTDEF
  5
C32
  8
FRAME_025
 10
511.0
 20
31.75
 30
0.0
 40
2.5
  1
XXX
  7
ISO_PROPORTIONAL
 11
511.0
 21
33.0
 31
0.0
  3
Filename
  2
FILENAME
 70
     8
 74
     2
  0
TEXT
  5
C33
  8
FRAME_025
 10
511.0
 20
35.75
 30
0.0
 40
2.5
  1
Filename
  7
ISO_PROPORTIONAL
 11
511.0
 21
37.0
 31
0.0
 73
     2
  0
LINE
  5
C34
  8
FRAME_070
 10
509.0
 20
30.0
 30
0.0
 11
509.0
 21
40.0
 31
0.0
  0
TEXT
  5
C35
  8
FRAME_025
 10
536.0
 20
41.749999999999993
 30
0.0
 40
2.5
  1
Article No./Reference
  7
ISO_PROPORTIONAL
 11
536.0
 21
43.0
 31
0.0
 73
     2
  0
LINE
  5
C36
  8
FRAME_070
 10
534.0
 20
40.0
 30
0.0
 11
534.0
 21
46.0
 31
0.0
  0
ATTDEF
  5
C37
  8
FRAME_025
 10
551.0
 20
11.75
 30
0.0
 40
2.5
  1
0
  7
ISO_PROPORTIONAL
 11
551.0
 21
13.0
 31
0.0
  3
Edition
  2
EDITION
 70
     8
 74
     2
  0
TEXT
  5
C38
  8
FRAME_025
 10
551.0
 20
15.75
 30
0.0
 40
2.5
  1
Edition
  7
ISO_PROPORTIONAL
 11
551.0
 21
17.0
 31
0.0
 73
     2
  0
LINE
  5
C39
  8
FRAME_070
 10
549.0
 20
10.0
 30
0.0
 11
549.0
 21
20.0
 31
0.0
  0
ATTDEF
  5
C3A
  8
FRAME_025
 10
536.0
 20
31.75
 30
0.0
 40
2.5
  1
00/00/00
  7
ISO_PROPORTIONAL
 11
536.0
 21
33.0
 31
0.0
  3
Date
  2
DATE
 70
     8
 74
     2
  0
TEXT
  5
C3B
  8
FRAME_025
 10
536.0
 20
35.75
 30
0.0
 40
2.5
  1
Date
  7
ISO_PROPORTIONAL
 11
536.0
 21
37.0
 31
0.0
 73
     2
  0
LINE
  5
C3C
  8
FRAME_070
 10
534.0
 20
30.0
 30
0.0
 11
534.0
 21
40.0
 31
0.0
  0
ATTDEF
  5
C3D
  8
FRAME_025
 10
566.0
 20
11.75
 30
0.0
 40
2.5
  1
1/1
  7
ISO_PROPORTIONAL
 11
566.0
 21
13.0
 31
0.0
  3
Sheet
  2
SHEET
 70
     8
 74
     2
  0
TEXT
  5
C3E
  8
FRAME_025
 10
566.0
 20
15.75
 30
0.0
 40
2.5
  1
Sheet
  7
ISO_PROPORTIONAL
 11
566.0
 21
17.0
 31
0.0
 73
     2
  0
LINE
  5
C3F
  8
FRAME_070
 10
564.0
 20
10.0
 30
0.0
 11
564.0
 21
20.0
 31
0.0
  0
ATTDEF
  5
C40
  8
FRAME_025
 10
566.0
 20
31.75
 30
0.0
 40
2.5
  1
1:1
  7
ISO_PROPORTIONAL
 11
566.0
 21
33.0
 31
0.0
  3
Scale
  2
SCALE
 70
     8
 74
     2
  0
TEXT
  5
C41
  8
FRAME_025
 10
566.0
 20
35.75
 30
0.0
 40
2.5
  1
Scale
  7
ISO_PROPORTIONAL
 11
566.0
 21
37.0
 31
0.0
 73
     2
  0
LINE
  5
C42
  8
FRAME_070
 10
564.0
 20
30.0
 30
0.0
 11
564.0
 21
40.0
 31
0.0
  0
LINE
  5
C43
  8
FRAME_200
 10
594.0
 20
0.0
 30
0.0
 11
594.0
 21
10.0
 31
0.0
  0
LINE
  5
C44
  8
FRAME_200
 10
594.0
 20
0.0
 30
0.0
 11
584.0
 21
0.0
 31
0.0
  0
TEXT
  5
C45
  8
FRAME_050
 10
584.89999999999998
 20
35.0
 30
0.0
 40
4.0
  1
H
  7
ISO_PROPORTIONAL
 72
     4
 11
586.5
 21
37.0
 31
0.0
  0
LINE
  5
C46
  8
FRAME_050
 10
589.0
 20
60.0
 30
0.0
 11
584.0
 21
60.0
 31
0.0
  0
TEXT
  5
C47
  8
FRAME_050
 10
585.0035533905932
 20
85.0
 30
0.0
 40
4.0
  1
G
  7
ISO_PROPORTIONAL
 72
     4
 11
586.5
 21
87.0
 31
0.0
  0
LINE
  5
C48
  8
FRAME_050
 10
589.0
 20
110.0
 30
0.0
 11
584.0
 21
110.0
 31
0.0
  0
TEXT
  5
C49
  8
FRAME_050
 10
585.09999999999991
 20
135.0
 30
0.0
 40
4.0
  1
F
  7
ISO_PROPORTIONAL
 72
     4
 11
586.5
 21
137.0
 31
0.0
  0
LINE
  5
C4A
  8
FRAME_050
 10
589.0
 20
160.0
 30
0.0
 11
584.0
 21
160.0
 31
0.0
  0
TEXT
  5
C4B
  8
FRAME_050
 10
585.09999999999991
 20
185.0
 30
0.0
 40
4.0
  1
E
  7
ISO_PROPORTIONAL
 72
     4
 11
586.5
 21
187.0
 31
0.0
  0
LINE
  5
C4C
  8
FRAME_070
 10
414.0
 20
404.0
 30
0.0
 11
584.0
 21
404.0
 31
0.0
  0
TEXT
  5
C4D
  8
FRAME_050
 10
331.39215728752538
 20
410.58284271247459
 30
0.0
 40
4.0
  1
5
  7
ISO_PROPORTIONAL
 72
     4
 11
332.875
 21
412.5
 31
0.0
  0
LINE
  5
C4E
  8
FRAME_050
 10
368.75
 20
410.0
 30
0.0
 11
368.75
 21
415.0
 31
0.0
  0
TEXT
  5
C4F
  8
FRAME_025
 10
428.0
 20
405.75
 30
0.0
 40
2.5
  1
Revision note
  7
ISO_PROPORTIONAL
 11
428.0
 21
407.0
 31
0.0
 73
     2
  0
TEXT
  5
C50
  8
FRAME_025
 10
416.0
 20
405.75
 30
0.0
 40
2.5
  1
RevNo
  7
ISO_PROPORTIONAL
 11
416.0
 21
407.0
 31
0.0
 73
     2
  0
LINE
  5
C51
  8
FRAME_070
 10
426.0
 20
404.0
 30
0.0
 11
426.0
 21
410.0
 31
0.0
  0
LINE
  5
C52
  8
FRAME_070
 10
414.0
 20
404.0
 30
0.0
 11
414.0
 21
410.0
 31
0.0
  0
TEXT
  5
C53
  8
FRAME_050
 10
403.24547244094481
 20
410.41023622047243
 30
0.0
 40
4.0
  1
6
  7
ISO_PROPORTIONAL
 72
     4
 11
404.62499999999989
 21
412.5
 31
0.0
  0
LINE
  5
C54
  8
FRAME_050
 10
440.5
 20
410.0
 30
0.0
 11
440.5
 21
415.0
 31
0.0
  0
TEXT
  5
C55
  8
FRAME_050
 10
474.97499999999991
 20
410.5
 30
0.0
 40
4.0
  1
7
  7
ISO_PROPORTIONAL
 72
     4
 11
476.37499999999989
 21
412.5
 31
0.0
  0
LINE
  5
C56
  8
FRAME_050
 10
579.0
 20
210.0
 30
0.0
 11
589.0
 21
210.0
 31
0.0
  0
TEXT
  5
C57
  8
FRAME_050
 10
584.78609127034736
 20
235.0
 30
0.0
 40
4.0
  1
D
  7
ISO_PROPORTIONAL
 72
     4
 11
586.5
 21
237.0
 31
0.0
  0
LINE
  5
C58
  8
FRAME_050
 10
589.0
 20
260.0
 30
0.0
 11
584.0
 21
260.0
 31
0.0
  0
TEXT
  5
C59
  8
FRAME_050
 10
585.19319805153395
 20
285.0
 30
0.0
 40
4.0
  1
C
  7
ISO_PROPORTIONAL
 72
     4
 11
586.5
 21
287.0
 31
0.0
  0
LINE
  5
C5A
  8
FRAME_050
 10
589.0
 20
310.0
 30
0.0
 11
584.0
 21
310.0
 31
0.0
  0
TEXT
  5
C5B
  8
FRAME_050
 10
584.89999999999998
 20
335.0
 30
0.0
 40
4.0
  1
B
  7
ISO_PROPORTIONAL
 72
     4
 11
586.5
 21
337.0
 31
0.0
  0
TEXT
  5
C5C
  8
FRAME_025
 10
571.08299391850551
 20
405.75
 30
0.0
 40
2.5
  1
Checked
  7
ISO_PROPORTIONAL
 11
571.08299391850551
 21
407.0
 31
0.0
 73
     2
  0
TEXT
  5
C5D
  8
FRAME_025
 10
555.36099797283521
 20
405.75
 30
0.0
 40
2.5
  1
Signature
  7
ISO_PROPORTIONAL
 11
555.36099797283521
 21
407.0
 31
0.0
 73
     2
  0
TEXT
  5
C5E
  8
FRAME_025
 10
537.0
 20
405.75
 30
0.0
 40
2.5
  1
Date
  7
ISO_PROPORTIONAL
 11
537.0
 21
407.0
 31
0.0
 73
     2
  0
LINE
  5
C5F
  8
FRAME_070
 10
570.0
 20
404.0
 30
0.0
 11
570.0
 21
410.0
 31
0.0
  0
LINE
  5
C60
  8
FRAME_070
 10
555.0
 20
404.0
 30
0.0
 11
555.0
 21
410.0
 31
0.0
  0
LINE
  5
C61
  8
FRAME_070
 10
535.0
 20
404.0
 30
0.0
 11
535.0
 21
410.0
 31
0.0
  0
LINE
  5
C62
  8
FRAME_050
 10
512.25
 20
410.0
 30
0.0
 11
512.25
 21
415.0
 31
0.0
  0
TEXT
  5
C63
  8
FRAME_050
 10
546.72499999999991
 20
410.5
 30
0.0
 40
4.0
  1
8
  7
ISO_PROPORTIONAL
 72
     4
 11
548.125
 21
412.5
 31
0.0
  0
LINE
  5
C64
  8
FRAME_050
 10
589.0
 20
360.0
 30
0.0
 11
584.0
 21
360.0
 31
0.0
  0
TEXT
  5
C65
  8
FRAME_050
 10
584.70000000000005
 20
385.0
 30
0.0
 40
4.0
  1
A
  7
ISO_PROPORTIONAL
 72
     4
 11
586.5
 21
387.0
 31
0.0
  0
LINE
  5
C66
  8
FRAME_200
 10
594.0
 20
420.0
 30
0.0
 11
584.0
 21
420.0
 31
0.0
  0
LINE
  5
C67
  8
FRAME_200
 10
594.0
 20
410.0
 30
0.0
 11
594.0
 21
420.0
 31
0.0
  0
ENDBLK
  5
C69
  8
0
  0
BLOCK
  8
0
  2
WOBB001END
 70
     0
 10
0.0
 20
0.0
 30
0.0
  3
WOBB001END
  1

  0
LINE
  5
4D66
  8
0
  6
CONTINUOUS
 10
0.0
 20
0.0
 30
0.0
 11
0.8749999999999998
 21
0.0
 31
0.0
  0
ARC
  5
4D67
  8
0
  6
CONTINUOUS
 10
0.0331648379439287
 20
-0.5087238935900234
 30
0.0
 40
0.8790130605592325
 50
284.06490243660443
 51
312.19222981924361
  0
ARC
  5
4D68
  8
0
  6
CONTINUOUS
 10
0.2841534338796767
 20
-1.510548310625538
 30
0.0
 40
0.1537731892806598
 50
104.0649024366044
 51
179.4721730735024
  0
LINE
  5
4D69
  8
0
  6
CONTINUOUS
 10
0.0
 20
0.0
 30
0.0
 11
-0.0000000000000003
 21
-1.7501564476661911
 31
0.0
  0
ARC
  5
4D6A
  8
0
  6
CONTINUOUS
 10
0.1404622019506122
 20
-1.630313718354619
 30
0.0
 40
0.1198427293115722
 50
275.0
 51
85.000000000000057
  0
LINE
  5
4D6B
  8
0
  6
CONTINUOUS
 10
-0.0000000000000003
 20
-1.7501564476661911
 30
0.0
 11
0.1456946485130855
 21
-1.7501564476661911
 31
0.0
  0
LINE
  5
4D6C
  8
0
  6
CONTINUOUS
 10
0.1377603739254348
 20
-1.7508506067459131
 30
0.0
 11
0.150907184036669
 21
-1.7497004098996509
 31
0.0
  0
LINE
  5
4D6D
  8
0
  6
CONTINUOUS
 10
0.1303867696719884
 20
-1.5091317231818231
 30
0.0
 11
0.1509071840366689
 21
-1.510927026809586
 31
0.0
  0
LINE
  5
4D6E
  8
0
  6
CONTINUOUS
 10
0.8749999999999998
 20
0.0
 30
0.0
 11
0.8749999999999996
 21
-0.8649327026588228
 31
0.0
  0
LINE
  5
4D6F
  8
0
  6
CONTINUOUS
 10
0.727014513830997
 20
-0.872688293355061
 30
0.0
 11
0.727014513830997
 21
-0.9264923397184784
 31
0.0
  0
ARC
  5
4D70
  8
0
  6
CONTINUOUS
 10
0.41187090827646
 20
-0.9264923397184784
 30
0.0
 40
0.3151436055545369
 50
312.19222981924361
 51
0.0
  0
LINE
  5
4D71
  8
0
  6
CONTINUOUS
 10
0.727014513830997
 20
-0.872688293355061
 30
0.0
 11
0.8749999999999996
 21
-0.8649327026588228
 31
0.0
  0
ENDBLK
  5
4D72
  8
0
  0
BLOCK
  8
0
  2
A$C0A61123B
 70
     0
 10
0.0
 20
0.0
 30
0.0
  3
A$C0A61123B
  1

  0
LINE
  5
C0AD
  8
PROF
  6
CONTINUOUS
 10
4.9012016798694162
 20
13.325025853350891
 30
0.0000000000000002
 11
4.9012016798694162
 21
12.88585218805485
 31
0.0000000000000003
  0
INSERT
  5
C0AE
  8
0
  2
*U7
 10
0.0
 20
0.0
 30
0.0
  0
LINE
  5
C0AF
  8
PROF
 10
4.519857503186925
 20
12.72227734589444
 30
0.0000000000000001
 11
4.519857503186925
 21
12.88585218805485
 31
0.0000000000000001
  0
LINE
  5
C0B0
  8
PROF
  6
CONTINUOUS
 10
3.6306271195888362
 20
13.325025853350891
 30
0.0000000000000002
 11
4.9012016798694162
 21
13.325025853350891
 31
0.0000000000000002
  0
LINE
  5
C0B1
  8
PROF
 10
1.9750295148747341
 20
10.37671325491794
 30
0.0000000000000002
 11
1.9750295148747341
 21
10.11391186758919
 31
0.0000000000000002
  0
LINE
  5
C0B2
  8
PROF
 10
1.6079673357556299
 20
10.11391186758919
 30
0.0000000000000001
 11
1.9750295148747341
 21
10.11391186758919
 31
0.0000000000000001
  0
LINE
  5
C0B3
  8
PROF
 10
1.9750295148747341
 20
10.11391186758919
 30
0.0000000000000001
 11
1.944958486898144
 21
10.11391186758919
 31
0.0000000000000001
  0
LINE
  5
C0B4
  8
PROF
 10
1.9750295148747341
 20
10.11391186758919
 30
0.0000000000000001
 11
1.944958486898144
 21
10.11391186758919
 31
0.0000000000000001
  0
LINE
  5
C0B5
  8
PROF
 10
0.3222605517169654
 20
7.5247473351056451
 30
-0.0000000000000002
 11
-0.0000008570117416
 21
7.5247473351056451
 31
0.0
  0
LINE
  5
C0B6
  8
PROF
 10
-0.0000008570117416
 20
7.5247473351056451
 30
0.0
 11
-0.0000008570117416
 21
9.1943336957369848
 31
0.0
  0
POLYLINE
  5
C0B7
  8
PROF
 66
     1
 10
0.0
 20
0.0
 30
0.0000000000000001
 70
     4
 75
     6
  0
VERTEX
  5
C0B8
  8
PROF
 10
1.6079673357556299
 20
10.11391186758919
 30
0.0000000000000001
 70
    16
  0
VERTEX
  5
C0B9
  8
PROF
 10
1.6079673357556299
 20
10.11391186758919
 30
0.0000000000000001
 70
     8
  0
VERTEX
  5
C0BA
  8
PROF
 10
1.6468132326485809
 20
10.02198069336111
 30
0.0000000000000001
 70
     8
  0
VERTEX
  5
C0BB
  8
PROF
 10
1.67335966680929
 20
9.9344134163010231
 30
0.0000000000000001
 70
     8
  0
VERTEX
  5
C0BC
  8
PROF
 10
1.6890086400463229
 20
9.8512576644480951
 30
0.0000000000000001
 70
     8
  0
VERTEX
  5
C0BD
  8
PROF
 10
1.6951621541682571
 20
9.7725610658417281
 30
0.0000000000000001
 70
     8
  0
VERTEX
  5
C0BE
  8
PROF
 10
1.693222210983605
 20
9.6983712485214237
 30
0.0000000000000001
 70
     8
  0
VERTEX
  5
C0BF
  8
PROF
 10
1.6845908123009961
 20
9.6287358405263603
 30
0.0000000000000001
 70
     8
  0
VERTEX
  5
C0C0
  8
PROF
 10
1.670669959928885
 20
9.5637024698960431
 30
0.0000000000000001
 70
     8
  0
VERTEX
  5
C0C1
  8
PROF
 10
1.6528616556759621
 20
9.5033187646697552
 30
0.0000000000000001
 70
     8
  0
VERTEX
  5
C0C2
  8
PROF
 10
1.632356299273054
 20
9.4475843259650691
 30
0.0000000000000001
 70
     8
  0
VERTEX
  5
C0C3
  8
PROF
 10
1.609497882140658
 20
9.3963066472123273
 30
0.0000000000000001
 70
     8
  0
VERTEX
  5
C0C4
  8
PROF
 10
1.584418793621637
 20
9.3492451949202842
 30
0.0000000000000001
 70
     8
  0
VERTEX
  5
C0C5
  8
PROF
 10
1.5572514230587431
 20
9.3061594355972357
 30
0.0000000000000001
 70
     8
  0
VERTEX
  5
C0C6
  8
PROF
 10
1.5281281597949601
 20
9.2668088357519274
 30
0.0000000000000001
 70
     8
  0
VERTEX
  5
C0C7
  8
PROF
 10
1.497181393172978
 20
9.2309528618929981
 30
0.0000000000000001
 70
     8
  0
VERTEX
  5
C0C8
  8
PROF
 10
1.4645435125357249
 20
9.1983509805288541
 30
0.0000000000000001
 70
     8
  0
VERTEX
  5
C0C9
  8
PROF
 10
1.4303469072260091
 20
9.1687626581682462
 30
0.0000000000000001
 70
     8
  0
VERTEX
  5
C0CA
  8
PROF
 10
1.394736033257401
 20
9.1419547918675335
 30
0.0000000000000001
 70
     8
  0
VERTEX
  5
C0CB
  8
PROF
 10
1.3579036133264131
 20
9.1177240008747713
 30
0.0000000000000001
 70
     8
  0
VERTEX
  5
C0CC
  8
PROF
 10
1.3200544368004321
 20
9.0958743349860924
 30
0.0000000000000001
 70
     8
  0
VERTEX
  5
C0CD
  8
PROF
 10
1.281393293046676
 20
9.0762098439975034
 30
0.0000000000000001
 70
     8
  0
VERTEX
  5
C0CE
  8
PROF
 10
1.2421249714324161
 20
9.0585345777049042
 30
0.0000000000000001
 70
     8
  0
VERTEX
  5
C0CF
  8
PROF
 10
1.202454261324986
 20
9.0426525859044187
 30
0.0000000000000001
 70
     8
  0
VERTEX
  5
C0D0
  8
PROF
 10
1.162585952091659
 20
9.0283679183919503
 30
0.0000000000000001
 70
     8
  0
VERTEX
  5
C0D1
  8
PROF
 10
1.1227248330997091
 20
9.0154846249635021
 30
0.0000000000000001
 70
     8
  0
VERTEX
  5
C0D2
  8
PROF
 10
1.0829726247361
 20
9.0034643862466055
 30
0.0000000000000001
 70
     8
  0
VERTEX
  5
C0D3
  8
PROF
 10
1.043018771466222
 20
8.9903994061946833
 30
0.0000000000000001
 70
     8
  0
VERTEX
  5
C0D4
  8
PROF
 10
1.002449648775211
 20
8.9740395195925622
 30
0.0000000000000001
 70
     8
  0
VERTEX
  5
C0D5
  8
PROF
 10
0.9608516321480919
 20
8.9521345612251935
 30
0.0000000000000001
 70
     8
  0
VERTEX
  5
C0D6
  8
PROF
 10
0.9178110970699435
 20
8.9224343658775052
 30
0.0000000000000001
 70
     8
  0
VERTEX
  5
C0D7
  8
PROF
 10
0.8729144190259033
 20
8.8826887683343312
 30
0.0000000000000001
 70
     8
  0
VERTEX
  5
C0D8
  8
PROF
 10
0.8257479735009949
 20
8.8306476033806121
 30
0.0000000000000001
 70
     8
  0
VERTEX
  5
C0D9
  8
PROF
 10
0.7758981359802988
 20
8.764060705801171
 30
0.0000000000000001
 70
     8
  0
VERTEX
  5
C0DA
  8
PROF
 10
1.7292019016096549
 20
9.8629858761255491
 30
0.0000000000000001
 70
    16
  0
VERTEX
  5
C0DB
  8
PROF
 10
1.679373123114088
 20
9.4532143012734213
 30
0.0000000000000001
 70
    16
  0
VERTEX
  5
C0DC
  8
PROF
 10
1.4455611507419801
 20
9.1391837193732481
 30
0.0000000000000001
 70
    16
  0
VERTEX
  5
C0DD
  8
PROF
 10
1.1204637172738201
 20
9.0026267702428413
 30
0.0000000000000001
 70
    16
  0
VERTEX
  5
C0DE
  8
PROF
 10
0.9127765582653638
 20
8.9630202230383702
 30
0.0000000000000001
 70
    16
  0
VERTEX
  5
C0DF
  8
PROF
 10
0.7758981359802988
 20
8.764060705801171
 30
0.0000000000000001
 70
    16
  0
SEQEND
  5
C0E0
  8
PROF
  0
ARC
  5
C0E1
  8
PROF
 10
0.733429816733235
 20
8.4849506952165257
 30
0.0000000000000001
 40
0.2823224329524727
 50
269.73652020831901
 51
81.348449993176914
  0
LINE
  5
C0E2
  8
PROF
  6
CONTINUOUS
 10
-0.0000008570117416
 20
9.1943336957369848
 30
-0.0000000000000001
 11
3.6306271195888362
 21
13.325025853350891
 31
0.0000000000000002
  0
POLYLINE
  5
C0E3
  8
PROF
 66
     1
 10
0.0
 20
0.0
 30
0.0000000000000001
 70
     4
 75
     6
  0
VERTEX
  5
C0E4
  8
PROF
 10
4.519857503186925
 20
12.72227734589444
 30
0.0000000000000001
 70
    16
  0
VERTEX
  5
C0E5
  8
PROF
 10
4.519857503186925
 20
12.72227734589444
 30
0.0000000000000001
 70
     8
  0
VERTEX
  5
C0E6
  8
PROF
 10
4.4467035366886289
 20
12.741128108778071
 30
0.0000000000000001
 70
     8
  0
VERTEX
  5
C0E7
  8
PROF
 10
4.3786645761268801
 20
12.754675269913941
 30
0.0000000000000001
 70
     8
  0
VERTEX
  5
C0E8
  8
PROF
 10
4.3154364111440469
 20
12.76334314092332
 30
0.0000000000000001
 70
     8
  0
VERTEX
  5
C0E9
  8
PROF
 10
4.256714831382566
 20
12.76755603342724
 30
0.0000000000000001
 70
     8
  0
VERTEX
  5
C0EA
  8
PROF
 10
4.2021956264849791
 20
12.76773825904672
 30
0.0000000000000001
 70
     8
  0
VERTEX
  5
C0EB
  8
PROF
 10
4.1515745860935436
 20
12.764314129403139
 30
0.0000000000000001
 70
     8
  0
VERTEX
  5
C0EC
  8
PROF
 10
4.1045474998508649
 20
12.75770795611743
 30
0.0000000000000001
 70
     8
  0
VERTEX
  5
C0ED
  8
PROF
 10
4.0608101573993149
 20
12.748344050810831
 30
0.0000000000000001
 70
     8
  0
VERTEX
  5
C0EE
  8
PROF
 10
4.0200583483813261
 20
12.736646725104491
 30
0.0000000000000001
 70
     8
  0
VERTEX
  5
C0EF
  8
PROF
 10
3.981987862439381
 20
12.72304029061945
 30
0.0000000000000001
 70
     8
  0
VERTEX
  5
C0F0
  8
PROF
 10
3.946294489215858
 20
12.707949058976959
 30
0.0000000000000001
 70
     8
  0
VERTEX
  5
C0F1
  8
PROF
 10
3.912674018353242
 20
12.691797341798059
 30
0.0000000000000001
 70
     8
  0
VERTEX
  5
C0F2
  8
PROF
 10
3.8808638350742499
 20
12.67494295718654
 30
0.0000000000000001
 70
     8
  0
VERTEX
  5
C0F3
  8
PROF
 10
3.850767706922738
 20
12.65747774917668
 30
0.0000000000000001
 70
     8
  0
VERTEX
  5
C0F4
  8
PROF
 10
3.8223309970228438
 20
12.639427068285499
 30
0.0000000000000001
 70
     8
  0
VERTEX
  5
C0F5
  8
PROF
 10
3.795499068498712
 20
12.62081626503004
 30
0.0000000000000001
 70
     8
  0
VERTEX
  5
C0F6
  8
PROF
 10
3.7702172844744819
 20
12.601670689926999
 30
0.0000000000000001
 70
     8
  0
VERTEX
  5
C0F7
  8
PROF
 10
3.7464310080743521
 20
12.58201569349364
 30
0.0000000000000001
 70
     8
  0
VERTEX
  5
C0F8
  8
PROF
 10
3.7240856024224609
 20
12.56187662624666
 30
0.0000000000000001
 70
     8
  0
VERTEX
  5
C0F9
  8
PROF
 10
3.7031264306428961
 20
12.541278838703191
 30
0.0000000000000001
 70
     8
  0
VERTEX
  5
C0FA
  8
PROF
 10
3.683498855859908
 20
12.520247681380051
 30
0.0000000000000001
 70
     8
  0
VERTEX
  5
C0FB
  8
PROF
 10
3.665148241197528
 20
12.49880850479428
 30
0.0000000000000001
 70
     8
  0
VERTEX
  5
C0FC
  8
PROF
 10
3.648019949779949
 20
12.47698665946279
 30
0.0000000000000001
 70
     8
  0
VERTEX
  5
C0FD
  8
PROF
 10
3.6320593447313159
 20
12.45480749590263
 30
0.0000000000000001
 70
     8
  0
VERTEX
  5
C0FE
  8
PROF
 10
3.617189584886658
 20
12.43223790353807
 30
0.0000000000000001
 70
     8
  0
VERTEX
  5
C0FF
  8
PROF
 10
3.6032450119242849
 20
12.40901092742285
 30
0.0000000000000001
 70
     8
  0
VERTEX
  5
C100
  8
PROF
 10
3.590037763233453
 20
12.38480115151844
 30
0.0000000000000001
 70
     8
  0
VERTEX
  5
C101
  8
PROF
 10
3.5773799762033032
 20
12.35928315978594
 30
0.0000000000000001
 70
     8
  0
VERTEX
  5
C102
  8
PROF
 10
3.5650837882230899
 20
12.33213153618658
 30
0.0000000000000001
 70
     8
  0
VERTEX
  5
C103
  8
PROF
 10
3.552961336681959
 20
12.303020864681571
 30
0.0000000000000001
 70
     8
  0
VERTEX
  5
C104
  8
PROF
 10
3.540824758969165
 20
12.271625729232371
 30
0.0000000000000001
 70
     8
  0
VERTEX
  5
C105
  8
PROF
 10
3.528486192473848
 20
12.23762071379997
 30
0.0000000000000001
 70
     8
  0
VERTEX
  5
C106
  8
PROF
 10
3.5157577745852659
 20
12.200680402345711
 30
0.0000000000000001
 70
     8
  0
VERTEX
  5
C107
  8
PROF
 10
3.502451642692618
 20
12.16047937883093
 30
0.0000000000000001
 70
     8
  0
VERTEX
  5
C108
  8
PROF
 10
3.4883799341851041
 20
12.116692227216619
 30
0.0000000000000001
 70
     8
  0
VERTEX
  5
C109
  8
PROF
 10
3.4733547864519201
 20
12.06899353146423
 30
0.0000000000000001
 70
     8
  0
VERTEX
  5
C10A
  8
PROF
 10
3.45723654619428
 20
12.0172095445447
 30
0.0000000000000001
 70
     8
  0
VERTEX
  5
C10B
  8
PROF
 10
3.440078397361388
 20
11.961773195467799
 30
0.0000000000000001
 70
     8
  0
VERTEX
  5
C10C
  8
PROF
 10
3.4219817332145781
 20
11.90326908225302
 30
0.0000000000000001
 70
     8
  0
VERTEX
  5
C10D
  8
PROF
 10
3.4030479470150099
 20
11.842281802919951
 30
0.0000000000000001
 70
     8
  0
VERTEX
  5
C10E
  8
PROF
 10
3.383378432024017
 20
11.779395955487979
 30
0.0000000000000001
 70
     8
  0
VERTEX
  5
C10F
  8
PROF
 10
3.36307458150287
 20
11.7151961379768
 30
0.0000000000000001
 70
     8
  0
VERTEX
  5
C110
  8
PROF
 10
3.342237788712735
 20
11.650266948405831
 30
0.0000000000000001
 70
     8
  0
VERTEX
  5
C111
  8
PROF
 10
3.3209694469149991
 20
11.58519298479461
 30
0.0000000000000001
 70
     8
  0
VERTEX
  5
C112
  8
PROF
 10
3.299370949370767
 20
11.52055884516254
 30
0.0000000000000001
 70
     8
  0
VERTEX
  5
C113
  8
PROF
 10
3.277543689341428
 20
11.456949127529461
 30
0.0000000000000001
 70
     8
  0
VERTEX
  5
C114
  8
PROF
 10
3.2555890600881399
 20
11.3949484299145
 30
0.0000000000000001
 70
     8
  0
VERTEX
  5
C115
  8
PROF
 10
3.2336084548721811
 20
11.335141350337491
 30
0.0000000000000001
 70
     8
  0
VERTEX
  5
C116
  8
PROF
 10
3.2116715641212181
 20
11.277995447977769
 30
0.0000000000000001
 70
     8
  0
VERTEX
  5
C117
  8
PROF
 10
3.1897212669278461
 20
11.22351012665467
 30
0.0000000000000001
 70
     8
  0
VERTEX
  5
C118
  8
PROF
 10
3.1676687395512881
 20
11.17156775134765
 30
0.0000000000000001
 70
     8
  0
VERTEX
  5
C119
  8
PROF
 10
3.1454251582505321
 20
11.12205068703588
 30
0.0000000000000001
 70
     8
  0
VERTEX
  5
C11A
  8
PROF
 10
3.122901699284625
 20
11.07484129869874
 30
0.0000000000000001
 70
     8
  0
VERTEX
  5
C11B
  8
PROF
 10
3.1000095389127278
 20
11.02982195131551
 30
0.0000000000000001
 70
     8
  0
VERTEX
  5
C11C
  8
PROF
 10
3.07665985339389
 20
10.986875009865679
 30
0.0000000000000001
 70
     8
  0
VERTEX
  5
C11D
  8
PROF
 10
3.0527638189871591
 20
10.9458828393283
 30
0.0000000000000001
 70
     8
  0
VERTEX
  5
C11E
  8
PROF
 10
3.0282326119516361
 20
10.90672780468298
 30
0.0000000000000001
 70
     8
  0
VERTEX
  5
C11F
  8
PROF
 10
3.0029774085463701
 20
10.869292270908771
 30
0.0000000000000001
 70
     8
  0
VERTEX
  5
C120
  8
PROF
 10
2.9769093850304089
 20
10.833458602985161
 30
0.0000000000000001
 70
     8
  0
VERTEX
  5
C121
  8
PROF
 10
2.9499397176628559
 20
10.799109165891419
 30
0.0000000000000001
 70
     8
  0
VERTEX
  5
C122
  8
PROF
 10
2.922000609840437
 20
10.76614363969508
 30
0.0000000000000001
 70
     8
  0
VERTEX
  5
C123
  8
PROF
 10
2.8931083735102998
 20
10.7345309648158
 30
0.0000000000000001
 70
     8
  0
VERTEX
  5
C124
  8
PROF
 10
2.8633003477572729
 20
10.70425739676193
 30
0.0000000000000001
 70
     8
  0
VERTEX
  5
C125
  8
PROF
 10
2.8326138716660689
 20
10.67530919104115
 30
0.0000000000000001
 70
     8
  0
VERTEX
  5
C126
  8
PROF
 10
2.801086284321626
 20
10.647672603161711
 30
0.0000000000000001
 70
     8
  0
VERTEX
  5
C127
  8
PROF
 10
2.7687549248087162
 20
10.62133388863162
 30
0.0000000000000001
 70
     8
  0
VERTEX
  5
C128
  8
PROF
 10
2.7356571322120531
 20
10.5962793029588
 30
0.0000000000000001
 70
     8
  0
VERTEX
  5
C129
  8
PROF
 10
2.7018302456165202
 20
10.572495101651381
 30
0.0000000000000001
 70
     8
  0
VERTEX
  5
C12A
  8
PROF
 10
2.6673116041068838
 20
10.54996754021726
 30
0.0000000000000001
 70
     8
  0
VERTEX
  5
C12B
  8
PROF
 10
2.6321385467680321
 20
10.528682874164581
 30
0.0000000000000001
 70
     8
  0
VERTEX
  5
C12C
  8
PROF
 10
2.5963484126846179
 20
10.508627359001251
 30
0.0000000000000001
 70
     8
  0
VERTEX
  5
C12D
  8
PROF
 10
2.5599785409415841
 20
10.489787250235279
 30
0.0000000000000001
 70
     8
  0
VERTEX
  5
C12E
  8
PROF
 10
2.522998630314361
 20
10.472162234281081
 30
0.0000000000000001
 70
     8
  0
VERTEX
  5
C12F
  8
PROF
 10
2.4851078183409072
 20
10.455805721177621
 30
0.0000000000000001
 70
     8
  0
VERTEX
  5
C130
  8
PROF
 10
2.4459376022498982
 20
10.44078455187036
 30
0.0000000000000001
 70
     8
  0
VERTEX
  5
C131
  8
PROF
 10
2.4051194792701249
 20
10.42716556730465
 30
0.0000000000000001
 70
     8
  0
VERTEX
  5
C132
  8
PROF
 10
2.3622849466301541
 20
10.415015608425851
 30
0.0000000000000001
 70
     8
  0
VERTEX
  5
C133
  8
PROF
 10
2.317065501558714
 20
10.40440151617929
 30
0.0000000000000001
 70
     8
  0
VERTEX
  5
C134
  8
PROF
 10
2.2690926412844301
 20
10.395390131510339
 30
0.0000000000000001
 70
     8
  0
VERTEX
  5
C135
  8
PROF
 10
2.2179978630360879
 20
10.388048295364451
 30
0.0000000000000001
 70
     8
  0
VERTEX
  5
C136
  8
PROF
 10
2.1634126640422551
 20
10.38244284868688
 30
0.0000000000000001
 70
     8
  0
VERTEX
  5
C137
  8
PROF
 10
2.1049685415316031
 20
10.37864063242295
 30
0.0000000000000001
 70
     8
  0
VERTEX
  5
C138
  8
PROF
 10
2.0422969927328709
 20
10.37670848751816
 30
0.0000000000000001
 70
     8
  0
VERTEX
  5
C139
  8
PROF
 10
1.9750295148747341
 20
10.37671325491794
 30
0.0000000000000001
 70
     8
  0
VERTEX
  5
C13A
  8
PROF
 10
4.2166060115107484
 20
12.80885334975255
 30
0.0000000000000001
 70
    16
  0
VERTEX
  5
C13B
  8
PROF
 10
3.8702254102732909
 20
12.707065515763929
 30
0.0000000000000001
 70
    16
  0
VERTEX
  5
C13C
  8
PROF
 10
3.605346156896871
 20
12.46277472098552
 30
0.0000000000000001
 70
    16
  0
VERTEX
  5
C13D
  8
PROF
 10
3.500746030527238
 20
12.170680575709749
 30
0.0000000000000001
 70
    16
  0
VERTEX
  5
C13E
  8
PROF
 10
3.231798439705698
 20
11.26846416496107
 30
0.0000000000000001
 70
    16
  0
VERTEX
  5
C13F
  8
PROF
 10
2.9737109398832882
 20
10.76631086647069
 30
0.0000000000000001
 70
    16
  0
VERTEX
  5
C140
  8
PROF
 10
2.5729961067384002
 20
10.460947364504699
 30
0.0000000000000001
 70
    16
  0
VERTEX
  5
C141
  8
PROF
 10
2.2537826214546031
 20
10.372731239449759
 30
0.0000000000000001
 70
    16
  0
VERTEX
  5
C142
  8
PROF
 10
1.9750295148747341
 20
10.37671325491794
 30
0.0000000000000001
 70
    16
  0
SEQEND
  5
C143
  8
PROF
  0
LINE
  5
C144
  8
PROF
 10
4.9012016798694162
 20
12.88585218805485
 30
0.0000000000000003
 11
4.519857503186925
 21
12.88585218805485
 31
0.0000000000000003
  0
LINE
  5
C145
  8
PROF
 10
0.7321315362267457
 20
8.2026312473991556
 30
0.0000000000000006
 11
0.7321315362267457
 21
8.0511853963434952
 31
0.0000000000000006
  0
ARC
  5
C146
  8
PROF
 10
0.7977322214551919
 20
7.577333933202679
 30
0.0000000000000006
 40
0.4783708383912013
 50
97.882010168942557
 51
186.31119505698641
  0
LINE
  5
C147
  8
FRAME_050
 10
7.8016377197432121
 20
17.99371054969447
 30
0.0
 11
7.8016377197432121
 21
0.0000000000002274
 31
0.0
  0
ENDBLK
  5
C149
  8
0
  0
BLOCK
  8
0
  2
*U7
 70
     1
 10
0.0
 20
0.0
 30
0.0
  3
*U7
  1

  0
TEXT
  5
C8C3
  8
0
 10
3.5177832928899071
 20
10.38601584255777
 30
0.0
 40
0.125
  1
Crown Moulding
  0
TEXT
  5
C8C4
  8
0
 10
3.5223876585106431
 20
10.17717091304435
 30
0.0
 40
0.125
  1
TL-AB509
  0
TEXT
  5
C8C5
  8
0
 10
3.5074661032582561
 20
9.9667059289606801
 30
0.0
 40
0.125
  1
1-5/16" x 7-9/16"
  0
TEXT
  5
C8C6
  8
0
 10
3.519403347460166
 20
9.7562409448770051
 30
0.0
 40
0.125
  1
800.66.TAGUE
  0
ENDBLK
  5
C8C8
  8
0
  0
BLOCK
  8
0
  2
*U8
 70
     1
 10
0.0
 20
0.0
 30
0.0
  3
*U8
  1

  0
TEXT
  5
C8CA
  8
0
 10
5.3066868277875692
 20
1.767659498411035
 30
0.0
 40
0.125
  1
Back Band
  0
TEXT
  5
C8CB
  8
0
 10
5.3153839628489603
 20
1.55881456889762
 30
0.0
 40
0.125
  1
TL-1
  0
TEXT
  5
C8CC
  8
0
 10
5.3004624075965721
 20
1.3483495848139451
 30
0.0
 40
0.125
  1
1-3/8" x 1-9/16"
  0
TEXT
  5
C8CD
  8
0
 10
5.3123996517984811
 20
1.1378846007302701
 30
0.0
 40
0.125
  1
800.66.TAGUE
  0
ENDBLK
  5
C8CF
  8
0
  0
BLOCK
  8
0
  2
*U9
 70
     1
 10
0.0
 20
0.0
 30
0.0
  3
*U9
  1

  0
TEXT
  5
C8D1
  8
0
 10
-385.7580743253551
 20
838.2627455404056
 30
0.0
 40
0.125
  1
Back Band
  0
TEXT
  5
C8D2
  8
0
 10
-385.74937719029373
 20
838.05390061089247
 30
0.0
 40
0.125
  1
TL-1
  0
TEXT
  5
C8D3
  8
0
 10
-385.76429874554611
 20
837.84343562680851
 30
0.0
 40
0.125
  1
1-3/8" x 1-9/16"
  0
TEXT
  5
C8D4
  8
0
 10
-385.75236150134418
 20
837.63297064272513
 30
0.0
 40
0.125
  1
800.66.TAGUE
  0
ENDBLK
  5
C8D6
  8
0
  0
BLOCK
  8
0
  2
A$C34D373A9
 70
     0
 10
0.0
 20
0.0
 30
0.0
  3
A$C34D373A9
  1

  0
INSERT
  5
D39C
  8
0
  2
*U59
 10
0.0
 20
0.0
 30
0.0
  0
LINE
  5
D39D
  8
0
 10
1.4999991446591701
 20
7.1602295468413777
 30
0.0
 11
1.4999991446591701
 21
6.7227295468413777
 31
0.0
  0
LINE
  5
D39E
  8
0
 10
-0.0000008553408293
 20
6.8789795468413777
 30
0.0
 11
-0.0000008553408293
 21
7.7539795468413777
 31
0.0
  0
LINE
  5
D39F
  8
0
 10
1.4999991446591701
 20
6.7227295468413777
 30
0.0
 11
3.5885796249544342
 21
6.7227295468413777
 31
0.0
  0
LINE
  5
D3A0
  8
0
 10
-0.0000008553408293
 20
6.8789795468413777
 30
0.0
 11
1.4999991446591701
 21
7.1602295468413777
 31
0.0
  0
LINE
  5
D3A1
  8
0
 10
-0.0000008553408293
 20
7.7539795468413777
 30
0.0
 11
3.8746939987630631
 21
7.7539795468413777
 31
0.0
  0
POLYLINE
  8
0
  5
DC04
  66
     1
 10
0.000000
 20
0.000000
 30
0.000000
  70
     8
  0
VERTEX
  8
0
  5
DC05
 10
3.87469
 20
7.75398
 30
0.000000
  70
    32
  0
VERTEX
  8
0
  5
DC06
 10
3.87928
 20
7.75298
 30
0.000000
  70
    32
  0
VERTEX
  8
0
  5
DC07
 10
3.88385
 20
7.75188
 30
0.000000
  70
    32
  0
VERTEX
  8
0
  5
DC08
 10
3.88839
 20
7.75068
 30
0.000000
  70
    32
  0
VERTEX
  8
0
  5
DC09
 10
3.89289
 20
7.74938
 30
0.000000
  70
    32
  0
VERTEX
  8
0
  5
DC0A
 10
3.89738
 20
7.74799
 30
0.000000
  70
    32
  0
VERTEX
  8
0
  5
DC0B
 10
3.90183
 20
7.74650
 30
0.000000
  70
    32
  0
VERTEX
  8
0
  5
DC0C
 10
3.90626
 20
7.74492
 30
0.000000
  70
    32
  0
VERTEX
  8
0
  5
DC0D
 10
3.91065
 20
7.74325
 30
0.000000
  70
    32
  0
VERTEX
  8
0
  5
DC0E
 10
3.91502
 20
7.74148
 30
0.000000
  70
    32
  0
VERTEX
  8
0
  5
DC0F
 10
3.91935
 20
7.73963
 30
0.000000
  70
    32
  0
VERTEX
  8
0
  5
DC10
 10
3.92366
 20
7.73770
 30
0.000000
  70
    32
  0
VERTEX
  8
0
  5
DC11
 10
3.92793
 20
7.73568
 30
0.000000
  70
    32
  0
VERTEX
  8
0
  5
DC12
 10
3.93217
 20
7.73358
 30
0.000000
  70
    32
  0
VERTEX
  8
0
  5
DC13
 10
3.93638
 20
7.73140
 30
0.000000
  70
    32
  0
VERTEX
  8
0
  5
DC14
 10
3.94055
 20
7.72913
 30
0.000000
  70
    32
  0
VERTEX
  8
0
  5
DC15
 10
3.94470
 20
7.72680
 30
0.000000
  70
    32
  0
VERTEX
  8
0
  5
DC16
 10
3.94880
 20
7.72438
 30
0.000000
  70
    32
  0
VERTEX
  8
0
  5
DC17
 10
3.95288
 20
7.72190
 30
0.000000
  70
    32
  0
VERTEX
  8
0
  5
DC18
 10
3.95692
 20
7.71934
 30
0.000000
  70
    32
  0
VERTEX
  8
0
  5
DC19
 10
3.96092
 20
7.71671
 30
0.000000
  70
    32
  0
VERTEX
  8
0
  5
DC1A
 10
3.96489
 20
7.71402
 30
0.000000
  70
    32
  0
VERTEX
  8
0
  5
DC1B
 10
3.96882
 20
7.71125
 30
0.000000
  70
    32
  0
VERTEX
  8
0
  5
DC1C
 10
3.97271
 20
7.70843
 30
0.000000
  70
    32
  0
VERTEX
  8
0
  5
DC1D
 10
3.97657
 20
7.70554
 30
0.000000
  70
    32
  0
VERTEX
  8
0
  5
DC1E
 10
3.98038
 20
7.70259
 30
0.000000
  70
    32
  0
VERTEX
  8
0
  5
DC1F
 10
3.98416
 20
7.69958
 30
0.000000
  70
    32
  0
VERTEX
  8
0
  5
DC20
 10
3.98790
 20
7.69651
 30
0.000000
  70
    32
  0
VERTEX
  8
0
  5
DC21
 10
3.99161
 20
7.69339
 30
0.000000
  70
    32
  0
VERTEX
  8
0
  5
DC22
 10
3.99527
 20
7.69021
 30
0.000000
  70
    32
  0
VERTEX
  8
0
  5
DC23
 10
3.99889
 20
7.68698
 30
0.000000
  70
    32
  0
VERTEX
  8
0
  5
DC24
 10
4.00247
 20
7.68370
 30
0.000000
  70
    32
  0
VERTEX
  8
0
  5
DC25
 10
4.00600
 20
7.68038
 30
0.000000
  70
    32
  0
VERTEX
  8
0
  5
DC26
 10
4.00950
 20
7.67700
 30
0.000000
  70
    32
  0
VERTEX
  8
0
  5
DC27
 10
4.01295
 20
7.67358
 30
0.000000
  70
    32
  0
VERTEX
  8
0
  5
DC28
 10
4.01636
 20
7.67012
 30
0.000000
  70
    32
  0
VERTEX
  8
0
  5
DC29
 10
4.01973
 20
7.66661
 30
0.000000
  70
    32
  0
VERTEX
  8
0
  5
DC2A
 10
4.02305
 20
7.66307
 30
0.000000
  70
    32
  0
VERTEX
  8
0
  5
DC2B
 10
4.02633
 20
7.65949
 30
0.000000
  70
    32
  0
VERTEX
  8
0
  5
DC2C
 10
4.02956
 20
7.65587
 30
0.000000
  70
    32
  0
VERTEX
  8
0
  5
DC2D
 10
4.03274
 20
7.65222
 30
0.000000
  70
    32
  0
VERTEX
  8
0
  5
DC2E
 10
4.03588
 20
7.64853
 30
0.000000
  70
    32
  0
VERTEX
  8
0
  5
DC2F
 10
4.03898
 20
7.64481
 30
0.000000
  70
    32
  0
VERTEX
  8
0
  5
DC30
 10
4.04202
 20
7.64106
 30
0.000000
  70
    32
  0
VERTEX
  8
0
  5
DC31
 10
4.04502
 20
7.63728
 30
0.000000
  70
    32
  0
VERTEX
  8
0
  5
DC32
 10
4.04797
 20
7.63347
 30
0.000000
  70
    32
  0
VERTEX
  8
0
  5
DC33
 10
4.05087
 20
7.62963
 30
0.000000
  70
    32
  0
VERTEX
  8
0
  5
DC34
 10
4.05373
 20
7.62575
 30
0.000000
  70
    32
  0
VERTEX
  8
0
  5
DC35
 10
4.05653
 20
7.62185
 30
0.000000
  70
    32
  0
VERTEX
  8
0
  5
DC36
 10
4.05928
 20
7.61792
 30
0.000000
  70
    32
  0
VERTEX
  8
0
  5
DC37
 10
4.06199
 20
7.61396
 30
0.000000
  70
    32
  0
VERTEX
  8
0
  5
DC38
 10
4.06464
 20
7.60997
 30
0.000000
  70
    32
  0
VERTEX
  8
0
  5
DC39
 10
4.06724
 20
7.60595
 30
0.000000
  70
    32
  0
VERTEX
  8
0
  5
DC3A
 10
4.06979
 20
7.60190
 30
0.000000
  70
    32
  0
VERTEX
  8
0
  5
DC3B
 10
4.07228
 20
7.59783
 30
0.000000
  70
    32
  0
VERTEX
  8
0
  5
DC3C
 10
4.07473
 20
7.59373
 30
0.000000
  70
    32
  0
VERTEX
  8
0
  5
DC3D
 10
4.07712
 20
7.58960
 30
0.000000
  70
    32
  0
VERTEX
  8
0
  5
DC3E
 10
4.07946
 20
7.58545
 30
0.000000
  70
    32
  0
VERTEX
  8
0
  5
DC3F
 10
4.08174
 20
7.58128
 30
0.000000
  70
    32
  0
VERTEX
  8
0
  5
DC40
 10
4.08397
 20
7.57707
 30
0.000000
  70
    32
  0
VERTEX
  8
0
  5
DC41
 10
4.08614
 20
7.57285
 30
0.000000
  70
    32
  0
VERTEX
  8
0
  5
DC42
 10
4.08826
 20
7.56859
 30
0.000000
  70
    32
  0
VERTEX
  8
0
  5
DC43
 10
4.09032
 20
7.56432
 30
0.000000
  70
    32
  0
VERTEX
  8
0
  5
DC44
 10
4.09233
 20
7.56002
 30
0.000000
  70
    32
  0
VERTEX
  8
0
  5
DC45
 10
4.09428
 20
7.55570
 30
0.000000
  70
    32
  0
VERTEX
  8
0
  5
DC46
 10
4.09617
 20
7.55135
 30
0.000000
  70
    32
  0
VERTEX
  8
0
  5
DC47
 10
4.09800
 20
7.54699
 30
0.000000
  70
    32
  0
VERTEX
  8
0
  5
DC48
 10
4.09978
 20
7.54260
 30
0.000000
  70
    32
  0
VERTEX
  8
0
  5
DC49
 10
4.10149
 20
7.53819
 30
0.000000
  70
    32
  0
VERTEX
  8
0
  5
DC4A
 10
4.10315
 20
7.53376
 30
0.000000
  70
    32
  0
VERTEX
  8
0
  5
DC4B
 10
4.10475
 20
7.52931
 30
0.000000
  70
    32
  0
VERTEX
  8
0
  5
DC4C
 10
4.10628
 20
7.52484
 30
0.000000
  70
    32
  0
VERTEX
  8
0
  5
DC4D
 10
4.10776
 20
7.52035
 30
0.000000
  70
    32
  0
VERTEX
  8
0
  5
DC4E
 10
4.10918
 20
7.51584
 30
0.000000
  70
    32
  0
VERTEX
  8
0
  5
DC4F
 10
4.11053
 20
7.51131
 30
0.000000
  70
    32
  0
VERTEX
  8
0
  5
DC50
 10
4.11182
 20
7.50676
 30
0.000000
  70
    32
  0
VERTEX
  8
0
  5
DC51
 10
4.11305
 20
7.50220
 30
0.000000
  70
    32
  0
VERTEX
  8
0
  5
DC52
 10
4.11422
 20
7.49761
 30
0.000000
  70
    32
  0
VERTEX
  8
0
  5
DC53
 10
4.11532
 20
7.49301
 30
0.000000
  70
    32
  0
VERTEX
  8
0
  5
DC54
 10
4.11636
 20
7.48840
 30
0.000000
  70
    32
  0
VERTEX
  8
0
  5
DC55
 10
4.11734
 20
7.48377
 30
0.000000
  70
    32
  0
VERTEX
  8
0
  5
DC56
 10
4.11825
 20
7.47912
 30
0.000000
  70
    32
  0
VERTEX
  8
0
  5
DC57
 10
4.11909
 20
7.47445
 30
0.000000
  70
    32
  0
VERTEX
  8
0
  5
DC58
 10
4.11987
 20
7.46977
 30
0.000000
  70
    32
  0
VERTEX
  8
0
  5
DC59
 10
4.12059
 20
7.46508
 30
0.000000
  70
    32
  0
VERTEX
  8
0
  5
DC5A
 10
4.12123
 20
7.46037
 30
0.000000
  70
    32
  0
VERTEX
  8
0
  5
DC5B
 10
4.12181
 20
7.45565
 30
0.000000
  70
    32
  0
VERTEX
  8
0
  5
DC5C
 10
4.12233
 20
7.45092
 30
0.000000
  70
    32
  0
VERTEX
  8
0
  5
DC5D
 10
4.12278
 20
7.44618
 30
0.000000
  70
    32
  0
VERTEX
  8
0
  5
DC5E
 10
4.12316
 20
7.44142
 30
0.000000
  70
    32
  0
VERTEX
  8
0
  5
DC5F
 10
4.12348
 20
7.43666
 30
0.000000
  70
    32
  0
VERTEX
  8
0
  5
DC60
 10
4.12374
 20
7.43189
 30
0.000000
  70
    32
  0
VERTEX
  8
0
  5
DC61
 10
4.12393
 20
7.42711
 30
0.000000
  70
    32
  0
VERTEX
  8
0
  5
DC62
 10
4.12406
 20
7.42232
 30
0.000000
  70
    32
  0
VERTEX
  8
0
  5
DC63
 10
4.12412
 20
7.41753
 30
0.000000
  70
    32
  0
VERTEX
  8
0
  5
DC64
 10
4.12412
 20
7.41273
 30
0.000000
  70
    32
  0
VERTEX
  8
0
  5
DC65
 10
4.12406
 20
7.40793
 30
0.000000
  70
    32
  0
VERTEX
  8
0
  5
DC66
 10
4.12394
 20
7.40313
 30
0.000000
  70
    32
  0
VERTEX
  8
0
  5
DC67
 10
4.12375
 20
7.39832
 30
0.000000
  70
    32
  0
VERTEX
  8
0
  5
DC68
 10
4.12350
 20
7.39352
 30
0.000000
  70
    32
  0
VERTEX
  8
0
  5
DC69
 10
4.12319
 20
7.38871
 30
0.000000
  70
    32
  0
VERTEX
  8
0
  5
DC6A
 10
4.12282
 20
7.38390
 30
0.000000
  70
    32
  0
VERTEX
  8
0
  5
DC6B
 10
4.12238
 20
7.37910
 30
0.000000
  70
    32
  0
VERTEX
  8
0
  5
DC6C
 10
4.12189
 20
7.37430
 30
0.000000
  70
    32
  0
VERTEX
  8
0
  5
DC6D
 10
4.12134
 20
7.36950
 30
0.000000
  70
    32
  0
VERTEX
  8
0
  5
DC6E
 10
4.12072
 20
7.36470
 30
0.000000
  70
    32
  0
VERTEX
  8
0
  5
DC6F
 10
4.12005
 20
7.35991
 30
0.000000
  70
    32
  0
VERTEX
  8
0
  5
DC70
 10
4.11932
 20
7.35513
 30
0.000000
  70
    32
  0
VERTEX
  8
0
  5
DC71
 10
4.11853
 20
7.35035
 30
0.000000
  70
    32
  0
VERTEX
  8
0
  5
DC72
 10
4.11767
 20
7.34559
 30
0.000000
  70
    32
  0
VERTEX
  8
0
  5
DC73
 10
4.11677
 20
7.34083
 30
0.000000
  70
    32
  0
VERTEX
  8
0
  5
DC74
 10
4.11580
 20
7.33608
 30
0.000000
  70
    32
  0
VERTEX
  8
0
  5
DC75
 10
4.11477
 20
7.33134
 30
0.000000
  70
    32
  0
VERTEX
  8
0
  5
DC76
 10
4.11369
 20
7.32661
 30
0.000000
  70
    32
  0
VERTEX
  8
0
  5
DC77
 10
4.11255
 20
7.32189
 30
0.000000
  70
    32
  0
VERTEX
  8
0
  5
DC78
 10
4.11136
 20
7.31719
 30
0.000000
  70
    32
  0
VERTEX
  8
0
  5
DC79
 10
4.11010
 20
7.31251
 30
0.000000
  70
    32
  0
VERTEX
  8
0
  5
DC7A
 10
4.10879
 20
7.30783
 30
0.000000
  70
    32
  0
VERTEX
  8
0
  5
DC7B
 10
4.10743
 20
7.30318
 30
0.000000
  70
    32
  0
VERTEX
  8
0
  5
DC7C
 10
4.10601
 20
7.29854
 30
0.000000
  70
    32
  0
VERTEX
  8
0
  5
DC7D
 10
4.10453
 20
7.29392
 30
0.000000
  70
    32
  0
VERTEX
  8
0
  5
DC7E
 10
4.10300
 20
7.28932
 30
0.000000
  70
    32
  0
VERTEX
  8
0
  5
DC7F
 10
4.10142
 20
7.28474
 30
0.000000
  70
    32
  0
VERTEX
  8
0
  5
DC80
 10
4.09978
 20
7.28017
 30
0.000000
  70
    32
  0
VERTEX
  8
0
  5
DC81
 10
4.09808
 20
7.27563
 30
0.000000
  70
    32
  0
VERTEX
  8
0
  5
DC82
 10
4.09634
 20
7.27112
 30
0.000000
  70
    32
  0
VERTEX
  8
0
  5
DC83
 10
4.09454
 20
7.26662
 30
0.000000
  70
    32
  0
VERTEX
  8
0
  5
DC84
 10
4.09268
 20
7.26216
 30
0.000000
  70
    32
  0
VERTEX
  8
0
  5
DC85
 10
4.09078
 20
7.25771
 30
0.000000
  70
    32
  0
VERTEX
  8
0
  5
DC86
 10
4.08882
 20
7.25329
 30
0.000000
  70
    32
  0
VERTEX
  8
0
  5
DC87
 10
4.08681
 20
7.24890
 30
0.000000
  70
    32
  0
VERTEX
  8
0
  5
DC88
 10
4.08474
 20
7.24454
 30
0.000000
  70
    32
  0
VERTEX
  8
0
  5
DC89
 10
4.08263
 20
7.24021
 30
0.000000
  70
    32
  0
VERTEX
  8
0
  5
DC8A
 10
4.08047
 20
7.23591
 30
0.000000
  70
    32
  0
VERTEX
  8
0
  5
DC8B
 10
4.07825
 20
7.23163
 30
0.000000
  70
    32
  0
VERTEX
  8
0
  5
DC8C
 10
4.07598
 20
7.22739
 30
0.000000
  70
    32
  0
VERTEX
  8
0
  5
DC8D
 10
4.07367
 20
7.22318
 30
0.000000
  70
    32
  0
VERTEX
  8
0
  5
DC8E
 10
4.07130
 20
7.21901
 30
0.000000
  70
    32
  0
VERTEX
  8
0
  5
DC8F
 10
4.06889
 20
7.21487
 30
0.000000
  70
    32
  0
VERTEX
  8
0
  5
DC90
 10
4.06642
 20
7.21076
 30
0.000000
  70
    32
  0
VERTEX
  8
0
  5
DC91
 10
4.06391
 20
7.20670
 30
0.000000
  70
    32
  0
VERTEX
  8
0
  5
DC92
 10
4.06135
 20
7.20266
 30
0.000000
  70
    32
  0
VERTEX
  8
0
  5
DC93
 10
4.05874
 20
7.19867
 30
0.000000
  70
    32
  0
VERTEX
  8
0
  5
DC94
 10
4.05608
 20
7.19472
 30
0.000000
  70
    32
  0
VERTEX
  8
0
  5
DC95
 10
4.05337
 20
7.19080
 30
0.000000
  70
    32
  0
VERTEX
  8
0
  5
DC96
 10
4.05062
 20
7.18693
 30
0.000000
  70
    32
  0
VERTEX
  8
0
  5
DC97
 10
4.04782
 20
7.18310
 30
0.000000
  70
    32
  0
VERTEX
  8
0
  5
DC98
 10
4.04497
 20
7.17931
 30
0.000000
  70
    32
  0
VERTEX
  8
0
  5
DC99
 10
4.04208
 20
7.17556
 30
0.000000
  70
    32
  0
VERTEX
  8
0
  5
DC9A
 10
4.03914
 20
7.17185
 30
0.000000
  70
    32
  0
VERTEX
  8
0
  5
DC9B
 10
4.03616
 20
7.16818
 30
0.000000
  70
    32
  0
VERTEX
  8
0
  5
DC9C
 10
4.03314
 20
7.16455
 30
0.000000
  70
    32
  0
VERTEX
  8
0
  5
DC9D
 10
4.03008
 20
7.16096
 30
0.000000
  70
    32
  0
VERTEX
  8
0
  5
DC9E
 10
4.02697
 20
7.15741
 30
0.000000
  70
    32
  0
VERTEX
  8
0
  5
DC9F
 10
4.02382
 20
7.15390
 30
0.000000
  70
    32
  0
VERTEX
  8
0
  5
DCA0
 10
4.02063
 20
7.15043
 30
0.000000
  70
    32
  0
VERTEX
  8
0
  5
DCA1
 10
4.01741
 20
7.14699
 30
0.000000
  70
    32
  0
VERTEX
  8
0
  5
DCA2
 10
4.01414
 20
7.14359
 30
0.000000
  70
    32
  0
VERTEX
  8
0
  5
DCA3
 10
4.01084
 20
7.14022
 30
0.000000
  70
    32
  0
VERTEX
  8
0
  5
DCA4
 10
4.00750
 20
7.13690
 30
0.000000
  70
    32
  0
VERTEX
  8
0
  5
DCA5
 10
4.00413
 20
7.13360
 30
0.000000
  70
    32
  0
VERTEX
  8
0
  5
DCA6
 10
4.00072
 20
7.13035
 30
0.000000
  70
    32
  0
VERTEX
  8
0
  5
DCA7
 10
3.99728
 20
7.12712
 30
0.000000
  70
    32
  0
VERTEX
  8
0
  5
DCA8
 10
3.99380
 20
7.12394
 30
0.000000
  70
    32
  0
VERTEX
  8
0
  5
DCA9
 10
3.99029
 20
7.12078
 30
0.000000
  70
    32
  0
VERTEX
  8
0
  5
DCAA
 10
3.98675
 20
7.11766
 30
0.000000
  70
    32
  0
VERTEX
  8
0
  5
DCAB
 10
3.98318
 20
7.11457
 30
0.000000
  70
    32
  0
VERTEX
  8
0
  5
DCAC
 10
3.97957
 20
7.11152
 30
0.000000
  70
    32
  0
VERTEX
  8
0
  5
DCAD
 10
3.97594
 20
7.10849
 30
0.000000
  70
    32
  0
VERTEX
  8
0
  5
DCAE
 10
3.97228
 20
7.10550
 30
0.000000
  70
    32
  0
VERTEX
  8
0
  5
DCAF
 10
3.96859
 20
7.10254
 30
0.000000
  70
    32
  0
VERTEX
  8
0
  5
DCB0
 10
3.96488
 20
7.09961
 30
0.000000
  70
    32
  0
VERTEX
  8
0
  5
DCB1
 10
3.96114
 20
7.09670
 30
0.000000
  70
    32
  0
VERTEX
  8
0
  5
DCB2
 10
3.95737
 20
7.09383
 30
0.000000
  70
    32
  0
VERTEX
  8
0
  5
DCB3
 10
3.95358
 20
7.09099
 30
0.000000
  70
    32
  0
VERTEX
  8
0
  5
DCB4
 10
3.94976
 20
7.08818
 30
0.000000
  70
    32
  0
VERTEX
  8
0
  5
DCB5
 10
3.94592
 20
7.08539
 30
0.000000
  70
    32
  0
VERTEX
  8
0
  5
DCB6
 10
3.94206
 20
7.08263
 30
0.000000
  70
    32
  0
VERTEX
  8
0
  5
DCB7
 10
3.93818
 20
7.07990
 30
0.000000
  70
    32
  0
VERTEX
  8
0
  5
DCB8
 10
3.93428
 20
7.07720
 30
0.000000
  70
    32
  0
VERTEX
  8
0
  5
DCB9
 10
3.93036
 20
7.07452
 30
0.000000
  70
    32
  0
VERTEX
  8
0
  5
DCBA
 10
3.92641
 20
7.07187
 30
0.000000
  70
    32
  0
VERTEX
  8
0
  5
DCBB
 10
3.92245
 20
7.06924
 30
0.000000
  70
    32
  0
VERTEX
  8
0
  5
DCBC
 10
3.91848
 20
7.06664
 30
0.000000
  70
    32
  0
VERTEX
  8
0
  5
DCBD
 10
3.91448
 20
7.06406
 30
0.000000
  70
    32
  0
VERTEX
  8
0
  5
DCBE
 10
3.91047
 20
7.06151
 30
0.000000
  70
    32
  0
VERTEX
  8
0
  5
DCBF
 10
3.90645
 20
7.05898
 30
0.000000
  70
    32
  0
VERTEX
  8
0
  5
DCC0
 10
3.90241
 20
7.05647
 30
0.000000
  70
    32
  0
VERTEX
  8
0
  5
DCC1
 10
3.89836
 20
7.05399
 30
0.000000
  70
    32
  0
VERTEX
  8
0
  5
DCC2
 10
3.89430
 20
7.05153
 30
0.000000
  70
    32
  0
VERTEX
  8
0
  5
DCC3
 10
3.89022
 20
7.04909
 30
0.000000
  70
    32
  0
VERTEX
  8
0
  5
DCC4
 10
3.88613
 20
7.04667
 30
0.000000
  70
    32
  0
VERTEX
  8
0
  5
DCC5
 10
3.88203
 20
7.04427
 30
0.000000
  70
    32
  0
VERTEX
  8
0
  5
DCC6
 10
3.87793
 20
7.04190
 30
0.000000
  70
    32
  0
VERTEX
  8
0
  5
DCC7
 10
3.87381
 20
7.03954
 30
0.000000
  70
    32
  0
VERTEX
  8
0
  5
DCC8
 10
3.86969
 20
7.03719
 30
0.000000
  70
    32
  0
VERTEX
  8
0
  5
DCC9
 10
3.86557
 20
7.03486
 30
0.000000
  70
    32
  0
VERTEX
  8
0
  5
DCCA
 10
3.86143
 20
7.03254
 30
0.000000
  70
    32
  0
VERTEX
  8
0
  5
DCCB
 10
3.85730
 20
7.03023
 30
0.000000
  70
    32
  0
VERTEX
  8
0
  5
DCCC
 10
3.85316
 20
7.02793
 30
0.000000
  70
    32
  0
VERTEX
  8
0
  5
DCCD
 10
3.84903
 20
7.02563
 30
0.000000
  70
    32
  0
VERTEX
  8
0
  5
DCCE
 10
3.84489
 20
7.02334
 30
0.000000
  70
    32
  0
VERTEX
  8
0
  5
DCCF
 10
3.84075
 20
7.02105
 30
0.000000
  70
    32
  0
VERTEX
  8
0
  5
DCD0
 10
3.83662
 20
7.01876
 30
0.000000
  70
    32
  0
VERTEX
  8
0
  5
DCD1
 10
3.83249
 20
7.01647
 30
0.000000
  70
    32
  0
VERTEX
  8
0
  5
DCD2
 10
3.82837
 20
7.01418
 30
0.000000
  70
    32
  0
VERTEX
  8
0
  5
DCD3
 10
3.82425
 20
7.01188
 30
0.000000
  70
    32
  0
VERTEX
  8
0
  5
DCD4
 10
3.82014
 20
7.00957
 30
0.000000
  70
    32
  0
VERTEX
  8
0
  5
DCD5
 10
3.81604
 20
7.00726
 30
0.000000
  70
    32
  0
VERTEX
  8
0
  5
DCD6
 10
3.81194
 20
7.00493
 30
0.000000
  70
    32
  0
VERTEX
  8
0
  5
DCD7
 10
3.80786
 20
7.00260
 30
0.000000
  70
    32
  0
VERTEX
  8
0
  5
DCD8
 10
3.80379
 20
7.00024
 30
0.000000
  70
    32
  0
VERTEX
  8
0
  5
DCD9
 10
3.79973
 20
6.99788
 30
0.000000
  70
    32
  0
VERTEX
  8
0
  5
DCDA
 10
3.79569
 20
6.99549
 30
0.000000
  70
    32
  0
VERTEX
  8
0
  5
DCDB
 10
3.79166
 20
6.99308
 30
0.000000
  70
    32
  0
VERTEX
  8
0
  5
DCDC
 10
3.78765
 20
6.99065
 30
0.000000
  70
    32
  0
VERTEX
  8
0
  5
DCDD
 10
3.78366
 20
6.98820
 30
0.000000
  70
    32
  0
VERTEX
  8
0
  5
DCDE
 10
3.77968
 20
6.98572
 30
0.000000
  70
    32
  0
VERTEX
  8
0
  5
DCDF
 10
3.77573
 20
6.98321
 30
0.000000
  70
    32
  0
VERTEX
  8
0
  5
DCE0
 10
3.77180
 20
6.98068
 30
0.000000
  70
    32
  0
VERTEX
  8
0
  5
DCE1
 10
3.76789
 20
6.97811
 30
0.000000
  70
    32
  0
VERTEX
  8
0
  5
DCE2
 10
3.76400
 20
6.97551
 30
0.000000
  70
    32
  0
VERTEX
  8
0
  5
DCE3
 10
3.76014
 20
6.97287
 30
0.000000
  70
    32
  0
VERTEX
  8
0
  5
DCE4
 10
3.75630
 20
6.97020
 30
0.000000
  70
    32
  0
VERTEX
  8
0
  5
DCE5
 10
3.75249
 20
6.96749
 30
0.000000
  70
    32
  0
VERTEX
  8
0
  5
DCE6
 10
3.74871
 20
6.96473
 30
0.000000
  70
    32
  0
VERTEX
  8
0
  5
DCE7
 10
3.74496
 20
6.96194
 30
0.000000
  70
    32
  0
VERTEX
  8
0
  5
DCE8
 10
3.74124
 20
6.95910
 30
0.000000
  70
    32
  0
VERTEX
  8
0
  5
DCE9
 10
3.73756
 20
6.95621
 30
0.000000
  70
    32
  0
VERTEX
  8
0
  5
DCEA
 10
3.73390
 20
6.95327
 30
0.000000
  70
    32
  0
VERTEX
  8
0
  5
DCEB
 10
3.73028
 20
6.95029
 30
0.000000
  70
    32
  0
VERTEX
  8
0
  5
DCEC
 10
3.72669
 20
6.94725
 30
0.000000
  70
    32
  0
VERTEX
  8
0
  5
DCED
 10
3.72314
 20
6.94417
 30
0.000000
  70
    32
  0
VERTEX
  8
0
  5
DCEE
 10
3.71962
 20
6.94104
 30
0.000000
  70
    32
  0
VERTEX
  8
0
  5
DCEF
 10
3.71614
 20
6.93786
 30
0.000000
  70
    32
  0
VERTEX
  8
0
  5
DCF0
 10
3.71269
 20
6.93463
 30
0.000000
  70
    32
  0
VERTEX
  8
0
  5
DCF1
 10
3.70928
 20
6.93136
 30
0.000000
  70
    32
  0
VERTEX
  8
0
  5
DCF2
 10
3.70591
 20
6.92804
 30
0.000000
  70
    32
  0
VERTEX
  8
0
  5
DCF3
 10
3.70257
 20
6.92468
 30
0.000000
  70
    32
  0
VERTEX
  8
0
  5
DCF4
 10
3.69927
 20
6.92128
 30
0.000000
  70
    32
  0
VERTEX
  8
0
  5
DCF5
 10
3.69601
 20
6.91783
 30
0.000000
  70
    32
  0
VERTEX
  8
0
  5
DCF6
 10
3.69278
 20
6.91434
 30
0.000000
  70
    32
  0
VERTEX
  8
0
  5
DCF7
 10
3.68959
 20
6.91081
 30
0.000000
  70
    32
  0
VERTEX
  8
0
  5
DCF8
 10
3.68644
 20
6.90724
 30
0.000000
  70
    32
  0
VERTEX
  8
0
  5
DCF9
 10
3.68332
 20
6.90363
 30
0.000000
  70
    32
  0
VERTEX
  8
0
  5
DCFA
 10
3.68024
 20
6.89998
 30
0.000000
  70
    32
  0
VERTEX
  8
0
  5
DCFB
 10
3.67720
 20
6.89629
 30
0.000000
  70
    32
  0
VERTEX
  8
0
  5
DCFC
 10
3.67420
 20
6.89257
 30
0.000000
  70
    32
  0
VERTEX
  8
0
  5
DCFD
 10
3.67124
 20
6.88881
 30
0.000000
  70
    32
  0
VERTEX
  8
0
  5
DCFE
 10
3.66832
 20
6.88502
 30
0.000000
  70
    32
  0
VERTEX
  8
0
  5
DCFF
 10
3.66544
 20
6.88119
 30
0.000000
  70
    32
  0
VERTEX
  8
0
  5
DD00
 10
3.66259
 20
6.87733
 30
0.000000
  70
    32
  0
VERTEX
  8
0
  5
DD01
 10
3.65979
 20
6.87343
 30
0.000000
  70
    32
  0
VERTEX
  8
0
  5
DD02
 10
3.65702
 20
6.86950
 30
0.000000
  70
    32
  0
VERTEX
  8
0
  5
DD03
 10
3.65430
 20
6.86555
 30
0.000000
  70
    32
  0
VERTEX
  8
0
  5
DD04
 10
3.65162
 20
6.86156
 30
0.000000
  70
    32
  0
VERTEX
  8
0
  5
DD05
 10
3.64897
 20
6.85754
 30
0.000000
  70
    32
  0
VERTEX
  8
0
  5
DD06
 10
3.64637
 20
6.85349
 30
0.000000
  70
    32
  0
VERTEX
  8
0
  5
DD07
 10
3.64381
 20
6.84942
 30
0.000000
  70
    32
  0
VERTEX
  8
0
  5
DD08
 10
3.64129
 20
6.84531
 30
0.000000
  70
    32
  0
VERTEX
  8
0
  5
DD09
 10
3.63881
 20
6.84119
 30
0.000000
  70
    32
  0
VERTEX
  8
0
  5
DD0A
 10
3.63638
 20
6.83703
 30
0.000000
  70
    32
  0
VERTEX
  8
0
  5
DD0B
 10
3.63399
 20
6.83285
 30
0.000000
  70
    32
  0
VERTEX
  8
0
  5
DD0C
 10
3.63163
 20
6.82865
 30
0.000000
  70
    32
  0
VERTEX
  8
0
  5
DD0D
 10
3.62933
 20
6.82442
 30
0.000000
  70
    32
  0
VERTEX
  8
0
  5
DD0E
 10
3.62706
 20
6.82018
 30
0.000000
  70
    32
  0
VERTEX
  8
0
  5
DD0F
 10
3.62484
 20
6.81591
 30
0.000000
  70
    32
  0
VERTEX
  8
0
  5
DD10
 10
3.62266
 20
6.81162
 30
0.000000
  70
    32
  0
VERTEX
  8
0
  5
DD11
 10
3.62052
 20
6.80731
 30
0.000000
  70
    32
  0
VERTEX
  8
0
  5
DD12
 10
3.61843
 20
6.80298
 30
0.000000
  70
    32
  0
VERTEX
  8
0
  5
DD13
 10
3.61639
 20
6.79863
 30
0.000000
  70
    32
  0
VERTEX
  8
0
  5
DD14
 10
3.61438
 20
6.79427
 30
0.000000
  70
    32
  0
VERTEX
  8
0
  5
DD15
 10
3.61243
 20
6.78989
 30
0.000000
  70
    32
  0
VERTEX
  8
0
  5
DD16
 10
3.61051
 20
6.78549
 30
0.000000
  70
    32
  0
VERTEX
  8
0
  5
DD17
 10
3.60864
 20
6.78108
 30
0.000000
  70
    32
  0
VERTEX
  8
0
  5
DD18
 10
3.60682
 20
6.77665
 30
0.000000
  70
    32
  0
VERTEX
  8
0
  5
DD19
 10
3.60504
 20
6.77221
 30
0.000000
  70
    32
  0
VERTEX
  8
0
  5
DD1A
 10
3.60331
 20
6.76776
 30
0.000000
  70
    32
  0
VERTEX
  8
0
  5
DD1B
 10
3.60163
 20
6.76330
 30
0.000000
  70
    32
  0
VERTEX
  8
0
  5
DD1C
 10
3.59999
 20
6.75882
 30
0.000000
  70
    32
  0
VERTEX
  8
0
  5
DD1D
 10
3.59840
 20
6.75434
 30
0.000000
  70
    32
  0
VERTEX
  8
0
  5
DD1E
 10
3.59685
 20
6.74984
 30
0.000000
  70
    32
  0
VERTEX
  8
0
  5
DD1F
 10
3.59535
 20
6.74534
 30
0.000000
  70
    32
  0
VERTEX
  8
0
  5
DD20
 10
3.59390
 20
6.74083
 30
0.000000
  70
    32
  0
VERTEX
  8
0
  5
DD21
 10
3.59250
 20
6.73631
 30
0.000000
  70
    32
  0
VERTEX
  8
0
  5
DD22
 10
3.59115
 20
6.73179
 30
0.000000
  70
    32
  0
VERTEX
  8
0
  5
DD23
 10
3.58984
 20
6.72726
 30
0.000000
  70
    32
  0
VERTEX
  8
0
  5
DD24
 10
3.58858
 20
6.72273
 30
0.000000
  70
    32
  0
SEQEND
  8
0
  5
DD25
  0
LINE
  5
D3A3
  8
FRAME_0500
 10
7.0314568728199438
 20
12.260003544241041
 30
0.0
 11
7.0314568728199438
 21
0.000000749505034
 31
0.0
  0
ENDBLK
  5
D3A5
  8
0
  0
BLOCK
  8
0
  2
*U34
 70
     1
 10
0.0
 20
0.0
 30
0.0
  3
*U34
  1

  0
TEXT
  5
DAF9
  8
0
 10
1.801309719190612
 20
0.7422271098238867
 30
0.0
 40
0.125
  1
Solid Crown
  0
TEXT
  5
DAFA
  8
0
 10
1.801309719190612
 20
0.5338937764905534
 30
0.0
 40
0.125
  1
TL-2182
  0
TEXT
  5
DAFB
  8
0
 10
1.801309719190612
 20
0.32556044315722
 30
0.0
 40
0.125
  1
1-1/32" x 1-5/16"
  0
TEXT
  5
DAFC
  8
0
 10
1.801309719190612
 20
0.1172271098238866
 30
0.0
 40
0.125
  1
800.66.TAGUE
  0
ENDBLK
  5
DAFE
  8
0
  0
BLOCK
  8
0
  2
*U35
 70
     1
 10
0.0
 20
0.0
 30
0.0
  3
*U35
  1

  0
TEXT
  5
DB00
  8
0
 10
1.625113436446326
 20
0.9370028111704301
 30
0.0
 40
0.125
  1
Solid Crown
  0
TEXT
  5
DB01
  8
0
 10
1.625113436446326
 20
0.7286694778370969
 30
0.0
 40
0.125
  1
TL-2157
  0
TEXT
  5
DB02
  8
0
 10
1.625113436446326
 20
0.5203361445037635
 30
0.0
 40
0.125
  1
1-9/32" x 2"
  0
TEXT
  5
DB03
  8
0
 10
1.625113436446326
 20
0.31200281117043
 30
0.0
 40
0.125
  1
800.66.TAGUE
  0
ENDBLK
  5
DB05
  8
0
  0
BLOCK
  8
0
  2
*U36
 70
     1
 10
0.0
 20
0.0
 30
0.0
  3
*U36
  1

  0
TEXT
  5
DB07
  8
0
 10
1.920486779030625
 20
0.9014428381942138
 30
0.0
 40
0.125
  1
Solid Crown
  0
TEXT
  5
DB08
  8
0
 10
1.920486779030625
 20
0.6931095048608807
 30
0.0
 40
0.125
  1
TL-2188
  0
TEXT
  5
DB09
  8
0
 10
1.920486779030625
 20
0.4847761715275473
 30
0.0
 40
0.125
  1
1-5/8" x 2"
  0
TEXT
  5
DB0A
  8
0
 10
1.920486779030625
 20
0.2764428381942139
 30
0.0
 40
0.125
  1
800.66.TAGUE
  0
ENDBLK
  5
DB0C
  8
0
  0
BLOCK
  8
0
  2
*U37
 70
     1
 10
0.0
 20
0.0
 30
0.0
  3
*U37
  1

  0
TEXT
  5
DB0E
  8
0
 10
1.746815334566576
 20
0.7356822575717957
 30
0.0
 40
0.125
  1
Solid Crown
  0
TEXT
  5
DB0F
  8
0
 10
1.746815334566576
 20
0.5273489242384624
 30
0.0
 40
0.125
  1
TL-2235
  0
TEXT
  5
DB10
  8
0
 10
1.746815334566576
 20
0.319015590905129
 30
0.0
 40
0.125
  1
11/16" x 15/16"
  0
TEXT
  5
DB11
  8
0
 10
1.746815334566576
 20
0.1106822575717956
 30
0.0
 40
0.125
  1
800.66.TAGUE
  0
ENDBLK
  5
DB13
  8
0
  0
BLOCK
  8
0
  2
*U38
 70
     1
 10
0.0
 20
0.0
 30
0.0
  3
*U38
  1

  0
TEXT
  5
DB15
  8
0
 10
2.0509945988744671
 20
1.365453408895575
 30
0.0
 40
0.125
  1
Solid Crown
  0
TEXT
  5
DB16
  8
0
 10
2.0509945988744671
 20
1.1571200755622419
 30
0.0
 40
0.125
  1
TL-339
  0
TEXT
  5
DB17
  8
0
 10
2.0509945988744671
 20
0.948786742228909
 30
0.0
 40
0.125
  1
1-5/8" x 2-5/8"
  0
TEXT
  5
DB18
  8
0
 10
2.0509945988744671
 20
0.7404534088955757
 30
0.0
 40
0.125
  1
800.66.TAGUE
  0
ENDBLK
  5
DB1A
  8
0
  0
BLOCK
  8
0
  2
*U39
 70
     1
 10
0.0
 20
0.0
 30
0.0
  3
*U39
  1

  0
TEXT
  5
DB1C
  8
0
 10
2.0562685683860868
 20
1.1925432374321749
 30
0.0
 40
0.125
  1
Solid Crown
  0
TEXT
  5
DB1D
  8
0
 10
2.0562685683860868
 20
0.9842099040988426
 30
0.0
 40
0.125
  1
TL-2249
  0
TEXT
  5
DB1E
  8
0
 10
2.0562685683860868
 20
0.7758765707655093
 30
0.0
 40
0.125
  1
1-1/8" x 1-7/8"
  0
TEXT
  5
DB1F
  8
0
 10
2.0562685683860868
 20
0.5675432374321759
 30
0.0
 40
0.125
  1
800.66.TAGUE
  0
ENDBLK
  5
DB21
  8
0
  0
BLOCK
  8
0
  2
*U40
 70
     1
 10
0.0
 20
0.0
 30
0.0
  3
*U40
  1

  0
TEXT
  5
DB23
  8
0
 10
1.34401033534931
 20
0.6780822238238784
 30
0.0
 40
0.125
  1
Solid Crown
  0
TEXT
  5
DB24
  8
0
 10
1.34401033534931
 20
0.4697488904905451
 30
0.0
 40
0.125
  1
TL-2258
  0
TEXT
  5
DB25
  8
0
 10
1.34401033534931
 20
0.2614155571572118
 30
0.0
 40
0.125
  1
5/8" x 3/4"
  0
TEXT
  5
DB26
  8
0
 10
1.34401033534931
 20
0.0530822238238784
 30
0.0
 40
0.125
  1
800.66.TAGUE
  0
ENDBLK
  5
DB28
  8
0
  0
BLOCK
  8
0
  2
*U41
 70
     1
 10
0.0
 20
0.0
 30
0.0
  3
*U41
  1

  0
TEXT
  5
DB2A
  8
0
 10
2.0597898518844882
 20
1.5819740602258321
 30
0.0
 40
0.125
  1
Solid Crown 
  0
TEXT
  5
DB2B
  8
0
 10
2.0597898518844882
 20
1.3736407268924979
 30
0.0
 40
0.125
  1
TL-2279
  0
TEXT
  5
DB2C
  8
0
 10
2.0597898518844882
 20
1.1653073935591649
 30
0.0
 40
0.125
  1
1-3/4"  x 2-3/4"
  0
TEXT
  5
DB2D
  8
0
 10
2.0597898518844882
 20
0.956974060225832
 30
0.0
 40
0.125
  1
800.66.TAGUE
  0
ENDBLK
  5
DB2F
  8
0
  0
BLOCK
  8
0
  2
*U42
 70
     1
 10
0.0
 20
0.0
 30
0.0
  3
*U42
  1

  0
TEXT
  5
DB31
  8
0
 10
0.5926592555372281
 20
0.6780822487964429
 30
0.0
 40
0.125
  1
Solid Crown
  0
TEXT
  5
DB32
  8
0
 10
0.5926592555372281
 20
0.4697489154631096
 30
0.0
 40
0.125
  1
TL-2321
  0
TEXT
  5
DB33
  8
0
 10
0.5926592555372281
 20
0.2614155821297762
 30
0.0
 40
0.125
  1
1-7/8" x 2-1/4"
  0
TEXT
  5
DB34
  8
0
 10
0.5926592555372281
 20
0.0530822487964429
 30
0.0
 40
0.125
  1
800.66.TAGUE
  0
ENDBLK
  5
DB36
  8
0
  0
BLOCK
  8
0
  2
*U43
 70
     1
 10
0.0
 20
0.0
 30
0.0
  3
*U43
  1

  0
TEXT
  5
DB38
  8
0
 10
0.054571907909974
 20
0.6780827931436875
 30
0.0
 40
0.125
  1
Solid Crown
  0
TEXT
  5
DB39
  8
0
 10
0.054571907909974
 20
0.4697494598103542
 30
0.0
 40
0.125
  1
TL-2322
  0
TEXT
  5
DB3A
  8
0
 10
0.054571907909974
 20
0.2614161264770209
 30
0.0
 40
0.125
  1
1-1/4" x 2"
  0
TEXT
  5
DB3B
  8
0
 10
0.054571907909974
 20
0.0530827931436875
 30
0.0
 40
0.125
  1
800.66.TAGUE
  0
ENDBLK
  5
DB3D
  8
0
  0
BLOCK
  8
0
  2
*U44
 70
     1
 10
0.0
 20
0.0
 30
0.0
  3
*U44
  1

  0
TEXT
  5
DB3F
  8
0
 10
2.812997521113572
 20
1.5103095468846841
 30
0.0
 40
0.125
  1
Solid Crown
  0
TEXT
  5
DB40
  8
0
 10
2.812997521113572
 20
1.3019762135513511
 30
0.0
 40
0.125
  1
TL-2325
  0
TEXT
  5
DB41
  8
0
 10
2.812997521113572
 20
1.093642880218018
 30
0.0
 40
0.125
  1
1-3/4" x 2-7/8"
  0
TEXT
  5
DB42
  8
0
 10
2.812997521113572
 20
0.8853095468846846
 30
0.0
 40
0.125
  1
800.66.TAGUE
  0
ENDBLK
  5
DB44
  8
0
  0
BLOCK
  8
0
  2
*U45
 70
     1
 10
0.0
 20
0.0
 30
0.0
  3
*U45
  1

  0
INSERT
  5
DB46
  8
0
  6
CONTINUOUS
  2
_OPEN30
 10
4.25007583112773
 20
4.0458778811966161
 30
0.0
 41
0.046875
 42
0.046875
 43
0.046875
 50
206.86004097467
  0
POLYLINE
  5
DB47
  8
0
  6
CONTINUOUS
 66
     1
 10
0.0
 20
0.0
 30
0.0
  0
VERTEX
  5
DB48
  8
0
  6
CONTINUOUS
 10
4.2918936208850731
 20
4.0670565989295362
 30
0.0
  0
VERTEX
  5
DB49
  8
0
  6
CONTINUOUS
 10
4.7925223938993318
 20
4.3206012155668807
 30
0.0
  0
VERTEX
  5
DB4A
  8
0
  6
CONTINUOUS
 10
4.8767298800405001
 20
4.3228722330817666
 30
0.0
  0
SEQEND
  5
DB4B
  8
0
  6
CONTINUOUS
  0
ENDBLK
  5
DB4D
  8
0
  0
BLOCK
  8
0
  2
*U46
 70
     1
 10
0.0
 20
0.0
 30
0.0
  3
*U46
  1

  0
TEXT
  5
DB4F
  8
0
 10
4.9392298800405001
 20
4.2603722330817666
 30
0.0
 40
0.125
  1
TL-1169
  0
ENDBLK
  5
DB51
  8
0
  0
BLOCK
  8
0
  2
*U47
 70
     1
 10
0.0
 20
0.0
 30
0.0
  3
*U47
  1

  0
INSERT
  5
DB53
  8
0
  6
CONTINUOUS
  2
_OPEN30
 10
3.015727299021818
 20
3.1861523687388451
 30
0.0
 41
0.046875
 42
0.046875
 43
0.046875
 50
136.65142556006271
  0
POLYLINE
  5
DB54
  8
0
  6
CONTINUOUS
 66
     1
 10
0.0
 20
0.0
 30
0.0
  0
VERTEX
  5
DB55
  8
0
  6
CONTINUOUS
 10
3.0498143804479341
 20
3.1539757234064099
 30
0.0
  0
VERTEX
  5
DB56
  8
0
  6
CONTINUOUS
 10
3.5070580539338598
 20
2.722358615202352
 30
0.0
  0
VERTEX
  5
DB57
  8
0
  6
CONTINUOUS
 10
3.6019889170380561
 20
2.722358615202352
 30
0.0
  0
SEQEND
  5
DB58
  8
0
  6
CONTINUOUS
  0
ENDBLK
  5
DB5A
  8
0
  0
BLOCK
  8
0
  2
*U48
 70
     1
 10
0.0
 20
0.0
 30
0.0
  3
*U48
  1

  0
TEXT
  5
DB5C
  8
0
 10
3.6644889170380561
 20
2.659858615202352
 30
0.0
 40
0.125
  1
TL-100
  0
ENDBLK
  5
DB5E
  8
0
  0
BLOCK
  8
0
  2
*U49
 70
     1
 10
0.0
 20
0.0
 30
0.0
  3
*U49
  1

  0
INSERT
  5
DB60
  8
0
  6
CONTINUOUS
  2
_OPEN30
 10
2.6870017865641098
 20
1.8450005331302739
 30
0.0
 41
0.046875
 42
0.046875
 43
0.046875
 50
136.3900499074297
  0
POLYLINE
  5
DB61
  8
0
  6
CONTINUOUS
 66
     1
 10
0.0
 20
0.0
 30
0.0
  0
VERTEX
  5
DB62
  8
0
  6
CONTINUOUS
 10
2.720941728277904
 20
1.812668722456199
 30
0.0
  0
VERTEX
  5
DB63
  8
0
  6
CONTINUOUS
 10
3.1314267320642548
 20
1.4216331827111901
 30
0.0
  0
VERTEX
  5
DB64
  8
0
  6
CONTINUOUS
 10
3.2316706730279061
 20
1.4132916418840571
 30
0.0
  0
SEQEND
  5
DB65
  8
0
  6
CONTINUOUS
  0
ENDBLK
  5
DB67
  8
0
  0
BLOCK
  8
0
  2
*U50
 70
     1
 10
0.0
 20
0.0
 30
0.0
  3
*U50
  1

  0
TEXT
  5
DB69
  8
0
 10
3.2941706730279061
 20
1.3507916418840571
 30
0.0
 40
0.125
  1
TL-412
  0
ENDBLK
  5
DB6B
  8
0
  0
BLOCK
  8
0
  2
*U51
 70
     1
 10
0.0
 20
0.0
 30
0.0
  3
*U51
  1

  0
TEXT
  5
DB6D
  8
0
 10
0.1283225761480367
 20
1.8963519740894119
 30
0.0
 40
0.125
  1
Stool Assembly
  0
TEXT
  5
DB6E
  8
0
 10
0.1283225761480367
 20
1.6880186407560791
 30
0.0
 40
0.125
  1
TL-640
  0
TEXT
  5
DB6F
  8
0
 10
0.1283225761480367
 20
1.4796853074227461
 30
0.0
 40
0.125
  1
4-1/4" x 4-9/16"
  0
TEXT
  5
DB70
  8
0
 10
0.1283225761480367
 20
1.2713519740894119
 30
0.0
 40
0.125
  1
800.66.TAGUE
  0
ENDBLK
  5
DB72
  8
0
  0
BLOCK
  8
0
  2
*U52
 70
     1
 10
0.0
 20
0.0
 30
0.0
  3
*U52
  1

  0
TEXT
  5
DB74
  8
0
 10
0.3052749355636024
 20
1.3133121278941919
 30
0.0
 40
0.125
  1
Stool Assembly
  0
TEXT
  5
DB75
  8
0
 10
0.3052749355636024
 20
1.1049787945608589
 30
0.0
 40
0.125
  1
TL-642
  0
TEXT
  5
DB76
  8
0
 10
0.3052749355636024
 20
0.8966454612275262
 30
0.0
 40
0.125
  1
3-9/16" x 4-1/4"
  0
TEXT
  5
DB77
  8
0
 10
0.3052749355636024
 20
0.6883121278941929
 30
0.0
 40
0.125
  1
800.66.TAGUE
  0
ENDBLK
  5
DB79
  8
0
  0
BLOCK
  8
0
  2
*U53
 70
     1
 10
0.0
 20
0.0
 30
0.0
  3
*U53
  1

  0
INSERT
  5
DB7B
  8
0
  6
CONTINUOUS
  2
_OPEN30
 10
4.2500004173678567
 20
3.125000325262504
 30
0.0
 41
0.046875
 42
0.046875
 43
0.046875
 50
220.9039207528615
  0
POLYLINE
  5
DB7C
  8
0
  6
CONTINUOUS
 66
     1
 10
0.0
 20
0.0
 30
0.0
  0
VERTEX
  5
DB7D
  8
0
  6
CONTINUOUS
 10
4.285428948467243
 20
3.1556937253533999
 30
0.0
  0
VERTEX
  5
DB7E
  8
0
  6
CONTINUOUS
 10
4.8218309318424408
 20
3.620403951106169
 30
0.0
  0
VERTEX
  5
DB7F
  8
0
  6
CONTINUOUS
 10
4.8826737540601917
 20
3.620403951106169
 30
0.0
  0
SEQEND
  5
DB80
  8
0
  6
CONTINUOUS
  0
ENDBLK
  5
DB82
  8
0
  0
BLOCK
  8
0
  2
*U54
 70
     1
 10
0.0
 20
0.0
 30
0.0
  3
*U54
  1

  0
TEXT
  5
DB84
  8
0
 10
4.9451737540601917
 20
3.557903951106169
 30
0.0
 40
0.125
  1
1-1/16" x 1-3/4" w/
  0
TEXT
  5
DB85
  8
0
 10
4.9451737540601917
 20
3.349570617772835
 30
0.0
 40
0.125
  1
1/4" Bead
  0
ENDBLK
  5
DB87
  8
0
  0
BLOCK
  8
0
  2
*U55
 70
     1
 10
0.0
 20
0.0
 30
0.0
  3
*U55
  1

  0
INSERT
  5
DB89
  8
0
  6
CONTINUOUS
  2
_OPEN30
 10
3.2579528869749188
 20
1.406250325262504
 30
0.0
 41
0.046875
 42
0.046875
 43
0.046875
 50
156.86838037646939
  0
POLYLINE
  5
DB8A
  8
0
  6
CONTINUOUS
 66
     1
 10
0.0
 20
0.0
 30
0.0
  0
VERTEX
  5
DB8B
  8
0
  6
CONTINUOUS
 10
3.3010593638282271
 20
1.387835731096593
 30
0.0
  0
VERTEX
  5
DB8C
  8
0
  6
CONTINUOUS
 10
4.0288058775305444
 20
1.0769507392405151
 30
0.0
  0
VERTEX
  5
DB8D
  8
0
  6
CONTINUOUS
 10
4.1146926397061634
 20
1.0769507392405151
 30
0.0
  0
SEQEND
  5
DB8E
  8
0
  6
CONTINUOUS
  0
ENDBLK
  5
DB90
  8
0
  0
BLOCK
  8
0
  2
*U56
 70
     1
 10
0.0
 20
0.0
 30
0.0
  3
*U56
  1

  0
TEXT
  5
DB92
  8
0
 10
4.1771926397061634
 20
1.0144507392405151
 30
0.0
 40
0.125
  1
3/4" x 2-1/2" w/
  0
TEXT
  5
DB93
  8
0
 10
4.1771926397061634
 20
0.8061174059071825
 30
0.0
 40
0.125
  1
1/4" Bead
  0
ENDBLK
  5
DB95
  8
0
  0
BLOCK
  8
0
  2
*U57
 70
     1
 10
0.0
 20
0.0
 30
0.0
  3
*U57
  1

  0
TEXT
  5
DB97
  8
0
 10
2.2482544924862391
 20
2.450263826582272
 30
0.0
 40
0.125
  1
Stool
  0
TEXT
  5
DB98
  8
0
 10
2.2482544924862391
 20
2.241930493248939
 30
0.0
 40
0.125
  1
TL-1159
  0
TEXT
  5
DB99
  8
0
 10
2.2482544924862391
 20
2.0335971599156051
 30
0.0
 40
0.125
  1
1-1/16" x 5-1/2"
  0
TEXT
  5
DB9A
  8
0
 10
2.2482544924862391
 20
1.825263826582272
 30
0.0
 40
0.125
  1
800.66.TAGUE
  0
ENDBLK
  5
DB9C
  8
0
  0
BLOCK
  8
0
  2
*U58
 70
     1
 10
0.0
 20
0.0
 30
0.0
  3
*U58
  1

  0
TEXT
  5
DB9E
  8
0
 10
0.8191625160812918
 20
2.6766317664879571
 30
0.0
 40
0.125
  1
Stool
  0
TEXT
  5
DB9F
  8
0
 10
0.8191625160812918
 20
2.468298433154624
 30
0.0
 40
0.125
  1
TL-1163
  0
TEXT
  5
DBA0
  8
0
 10
0.8191625160812918
 20
2.259965099821291
 30
0.0
 40
0.125
  1
1-1/16" x 3-1/4"
  0
TEXT
  5
DBA1
  8
0
 10
0.8191625160812918
 20
2.0516317664879571
 30
0.0
 40
0.125
  1
800.66.TAGUE
  0
ENDBLK
  5
DBA3
  8
0
  0
BLOCK
  8
0
  2
*U59
 70
     1
 10
0.0
 20
0.0
 30
0.0
  3
*U59
  1

  0
TEXT
  5
DBA5
  8
0
 10
1.349062628679462
 20
9.5573777296123126
 30
0.0
 40
0.125
  1
Stool
  0
TEXT
  5
DBA6
  8
0
 10
1.349062628679462
 20
9.3490443962789787
 30
0.0
 40
0.125
  1
TL-1165
  0
TEXT
  5
DBA7
  8
0
 10
1.349062628679462
 20
9.1407110629456465
 30
0.0
 40
0.125
  1
1-1/16" x 4-3/16"
  0
TEXT
  5
DBA8
  8
0
 10
1.349062628679462
 20
8.9323777296123126
 30
0.0
 40
0.125
  1
800.66.TAGUE
  0
ENDBLK
  5
DBAA
  8
0
  0
BLOCK
  8
0
  2
*U60
 70
     1
 10
0.0
 20
0.0
 30
0.0
  3
*U60
  1

  0
TEXT
  5
DBAC
  8
0
 10
1.349062628679462
 20
2.8346475372353548
 30
0.0
 40
0.125
  1
Stool
  0
TEXT
  5
DBAD
  8
0
 10
1.349062628679462
 20
2.6263142039020209
 30
0.0
 40
0.125
  1
TL-1165
  0
TEXT
  5
DBAE
  8
0
 10
1.349062628679462
 20
2.4179808705686878
 30
0.0
 40
0.125
  1
1-1/16" x 4-3/16"
  0
TEXT
  5
DBAF
  8
0
 10
1.349062628679462
 20
2.2096475372353548
 30
0.0
 40
0.125
  1
800.66.TAGUE
  0
ENDBLK
  5
DBB1
  8
0
  0
BLOCK
  8
0
  2
*U61
 70
     1
 10
0.0
 20
0.0
 30
0.0
  3
*U61
  1

  0
TEXT
  5
DBB3
  8
0
 10
2.1131596426620258
 20
2.6458930357011918
 30
0.0
 40
0.125
  1
Stool
  0
TEXT
  5
DBB4
  8
0
 10
2.1131596426620258
 20
2.4375597023678579
 30
0.0
 40
0.125
  1
TL-1166
  0
TEXT
  5
DBB5
  8
0
 10
2.1131596426620258
 20
2.2292263690345249
 30
0.0
 40
0.125
  1
1-1/16" x 5-1/2"
  0
TEXT
  5
DBB6
  8
0
 10
2.1131596426620258
 20
2.0208930357011918
 30
0.0
 40
0.125
  1
800.66.TAGUE
  0
ENDBLK
  5
DBB8
  8
0
  0
BLOCK
  8
0
  2
*U62
 70
     1
 10
0.0
 20
0.0
 30
0.0
  3
*U62
  1

  0
TEXT
  5
DBBA
  8
0
 10
2.2456546718724431
 20
2.642895428088309
 30
0.0
 40
0.125
  1
Stool
  0
TEXT
  5
DBBB
  8
0
 10
2.2456546718724431
 20
2.4345620947549751
 30
0.0
 40
0.125
  1
TL-1167
  0
TEXT
  5
DBBC
  8
0
 10
2.2456546718724431
 20
2.2262287614216421
 30
0.0
 40
0.125
  1
1-1/16" x 5-1/2"
  0
TEXT
  5
DBBD
  8
0
 10
2.2456546718724431
 20
2.017895428088309
 30
0.0
 40
0.125
  1
800.66.TAGUE
  0
ENDBLK
  5
DBBF
  8
0
  0
BLOCK
  8
0
  2
*U63
 70
     1
 10
0.0
 20
0.0
 30
0.0
  3
*U63
  1

  0
TEXT
  5
DBC1
  8
0
 10
2.0133018041836972
 20
2.5882703042445878
 30
0.0
 40
0.125
  1
Stool
  0
TEXT
  5
DBC2
  8
0
 10
2.0133018041836972
 20
2.3799369709112539
 30
0.0
 40
0.125
  1
TL-1168
  0
TEXT
  5
DBC3
  8
0
 10
2.0133018041836972
 20
2.1716036375779209
 30
0.0
 40
0.125
  1
1-1/16" x 5-1/2"
  0
TEXT
  5
DBC4
  8
0
 10
2.0133018041836972
 20
1.963270304244588
 30
0.0
 40
0.125
  1
800.66.TAGUE
  0
ENDBLK
  5
DBC6
  8
0
  0
BLOCK
  8
0
  2
*U64
 70
     1
 10
0.0
 20
0.0
 30
0.0
  3
*U64
  1

  0
TEXT
  5
DBC8
  8
0
 10
2.055829634173278
 20
2.4805333809745198
 30
0.0
 40
0.125
  1
Stool
  0
TEXT
  5
DBC9
  8
0
 10
2.055829634173278
 20
2.2722000476411872
 30
0.0
 40
0.125
  1
TL-1169
  0
TEXT
  5
DBCA
  8
0
 10
2.055829634173278
 20
2.0638667143078542
 30
0.0
 40
0.125
  1
1-1/16" x 5-1/2"
  0
TEXT
  5
DBCB
  8
0
 10
2.055829634173278
 20
1.85553338097452
 30
0.0
 40
0.125
  1
800.66.TAGUE
  0
ENDBLK
  5
DBCD
  8
0
  0
BLOCK
  8
0
  2
*U65
 70
     1
 10
0.0
 20
0.0
 30
0.0
  3
*U65
  1

  0
TEXT
  5
DBCF
  8
0
 10
2.2535945867782621
 20
1.42055978726475
 30
0.0
 40
0.125
  1
T-Astragal
  0
TEXT
  5
DBD0
  8
0
 10
2.2535945867782621
 20
1.212226453931416
 30
0.0
 40
0.125
  1
TL-1300
  0
TEXT
  5
DBD1
  8
0
 10
2.2535945867782621
 20
1.003893120598083
 30
0.0
 40
0.125
  1
1-1/4" x 2-1/4"
  0
TEXT
  5
DBD2
  8
0
 10
2.2535945867782621
 20
0.7955597872647502
 30
0.0
 40
0.125
  1
800.66.TAGUE
  0
ENDBLK
  5
DBD4
  8
0
  0
BLOCK
  8
0
  2
*U66
 70
     1
 10
0.0
 20
0.0
 30
0.0
  3
*U66
  1

  0
TEXT
  5
DBD6
  8
0
 10
1.93660943774762
 20
1.3948922377437321
 30
0.0
 40
0.125
  1
T-Astragal
  0
TEXT
  5
DBD7
  8
0
 10
1.93660943774762
 20
1.186558904410399
 30
0.0
 40
0.125
  1
TL-1305
  0
TEXT
  5
DBD8
  8
0
 10
1.93660943774762
 20
0.9782255710770661
 30
0.0
 40
0.125
  1
1-1/4" x 2"
  0
TEXT
  5
DBD9
  8
0
 10
1.93660943774762
 20
0.7698922377437328
 30
0.0
 40
0.125
  1
800.66.TAGUE
  0
ENDBLK
  5
DBDB
  8
0
  0
BLOCK
  8
0
  2
*U67
 70
     1
 10
0.0
 20
0.0
 30
0.0
  3
*U67
  1

  0
TEXT
  5
DBDD
  8
0
 10
4.8392669093670966
 20
1.7952652163690741
 30
0.0
 40
0.125
  1
T-Astragal
  0
TEXT
  5
DBDE
  8
0
 10
4.8392669093670966
 20
1.58693188303574
 30
0.0
 40
0.125
  1
TL-2089
  0
TEXT
  5
DBDF
  8
0
 10
4.8392669093670966
 20
1.3785985497024069
 30
0.0
 40
0.125
  1
1-5/8" x 2-15/16"
  0
TEXT
  5
DBE0
  8
0
 10
4.8392669093670966
 20
1.1702652163690741
 30
0.0
 40
0.125
  1
800.66.TAGUE
  0
ENDBLK
  5
DBE2
  8
0
  0
BLOCK
  8
0
  2
*U68
 70
     1
 10
0.0
 20
0.0
 30
0.0
  3
*U68
  1

  0
INSERT
  5
DBE4
  8
0
  6
CONTINUOUS
  2
_OPEN30
 10
2.609022505026473
 20
2.0302358065314081
 30
0.0
 41
0.046875
 42
0.046875
 43
0.046875
 50
309.7026190376086
  0
POLYLINE
  5
DBE5
  8
0
  6
CONTINUOUS
 66
     1
 10
0.0
 20
0.0
 30
0.0
  0
VERTEX
  5
DBE6
  8
0
  6
CONTINUOUS
 10
2.5790786150230298
 20
2.066300041951858
 30
0.0
  0
VERTEX
  5
DBE7
  8
0
  6
CONTINUOUS
 10
2.212258879372996
 20
2.5080954567035572
 30
0.0
  0
VERTEX
  5
DBE8
  8
0
  6
CONTINUOUS
 10
2.114728241768034
 20
2.5080954567035572
 30
0.0
  0
SEQEND
  5
DBE9
  8
0
  6
CONTINUOUS
  0
ENDBLK
  5
DBEB
  8
0
  0
BLOCK
  8
0
  2
*U69
 70
     1
 10
0.0
 20
0.0
 30
0.0
  3
*U69
  1

  0
TEXT
  5
DBED
  8
0
 10
-0.7811050915652995
 20
2.4872621233702241
 30
0.0
 40
0.125
  1
Beige Q-Lon Weatherstrip
  0
ENDBLK
  5
DBEF
  8
0
  0
BLOCK
  8
0
  2
*U70
 70
     1
 10
0.0
 20
0.0
 30
0.0
  3
*U70
  1

  0
TEXT
  5
DBF1
  8
0
 10
-385.89691113970707
 20
838.45067628223194
 30
0.0
 40
0.125
  1
T-Astragal
  0
TEXT
  5
DBF2
  8
0
 10
-385.89691113970707
 20
838.24234294889845
 30
0.0
 40
0.125
  1
TL-2089
  0
TEXT
  5
DBF3
  8
0
 10
-385.89691113970707
 20
838.0340096155652
 30
0.0
 40
0.125
  1
1-5/8" x 2-15/16"
  0
TEXT
  5
DBF4
  8
0
 10
-385.89691113970707
 20
837.82567628223171
 30
0.0
 40
0.125
  1
800.66.TAGUE
  0
ENDBLK
  5
DBF6
  8
0
  0
BLOCK
  8
0
  2
*U71
 70
     1
 10
0.0
 20
0.0
 30
0.0
  3
*U71
  1

  0
INSERT
  5
DBF8
  8
0
  6
CONTINUOUS
  2
_OPEN30
 10
-388.1271555440477
 20
838.68564687239405
 30
0.0
 41
0.046875
 42
0.046875
 43
0.046875
 50
309.7026190376086
  0
POLYLINE
  5
DBF9
  8
0
  6
CONTINUOUS
 66
     1
 10
0.0
 20
0.0
 30
0.0
  0
VERTEX
  5
DBFA
  8
0
  6
CONTINUOUS
 10
-388.15709943405119
 20
838.72171110781449
 30
0.0
  0
VERTEX
  5
DBFB
  8
0
  6
CONTINUOUS
 10
-388.52391916970117
 20
839.16350652256631
 30
0.0
  0
VERTEX
  5
DBFC
  8
0
  6
CONTINUOUS
 10
-388.62144980730619
 20
839.16350652256631
 30
0.0
  0
SEQEND
  5
DBFD
  8
0
  6
CONTINUOUS
  0
ENDBLK
  5
DBFF
  8
0
  0
BLOCK
  8
0
  2
*U72
 70
     1
 10
0.0
 20
0.0
 30
0.0
  3
*U72
  1

  0
TEXT
  5
DC01
  8
0
 10
-391.51728314063951
 20
839.14267318923294
 30
0.0
 40
0.125
  1
Beige Q-Lon Weatherstrip
  0
ENDBLK
  5
DC03
  8
0
  0
ENDSEC
  0
SECTION
  2
ENTITIES
  0
INSERT
  5
DABA
  8
0
  2
*U70
 10
0.0
 20
0.0
 30
0.0
  0
LINE
  5
DABB
  8
0
  6
CONTINUOUS
 10
-386.46696562099947
 20
839.12548116182415
 30
0.0
 11
-386.46696562099947
 21
838.57738293881027
 31
0.0
  0
LINE
  5
DABC
  8
0
  6
CONTINUOUS
 10
-387.01788204305848
 20
839.49134468737577
 30
0.0
 11
-387.01788204305848
 21
839.59921045291765
 31
0.0
  0
LINE
  5
DABD
  8
0
  6
CONTINUOUS
 10
-387.51788204305848
 20
839.59921045291765
 30
0.0
 11
-387.51788204305848
 21
839.49134468737577
 31
0.0
  0
LINE
  5
DABE
  8
0
 10
-387.5490305440477
 20
839.14694510924505
 30
0.0
 11
-387.50215554404758
 21
839.14694510924505
 31
0.0
  0
LINE
  5
DABF
  8
0
 10
-387.5490305440477
 20
839.14694510924505
 30
0.0
 11
-387.58028054404781
 21
839.14694510924505
 31
0.0
  0
LINE
  5
DAC0
  8
0
 10
-387.5490305440477
 20
839.14694510924505
 30
0.0
 11
-387.50215554404758
 21
839.14694510924505
 31
0.0
  0
LINE
  5
DAC1
  8
0
 10
-387.5490305440477
 20
839.14694510924505
 30
0.0
 11
-387.58028054404758
 21
839.14694510924505
 31
0.0
  0
LINE
  5
DAC2
  8
0
  6
CONTINUOUS
 10
-387.62715554404781
 20
839.14694510924505
 30
0.0
 11
-387.50445895568339
 21
839.14694510924505
 31
0.0
  0
LINE
  5
DAC3
  8
0
 10
-387.58028054404781
 20
839.14694510924505
 30
0.0
 11
-387.62715554404781
 21
839.14694510924505
 31
0.0
  0
LINE
  5
DAC4
  8
0
 10
-387.58028054404758
 20
839.14694510924505
 30
0.0
 11
-387.62715554404758
 21
839.14694510924505
 31
0.0
  0
LINE
  5
DAC5
  8
0
  6
CONTINUOUS
 10
-387.01788204305848
 20
839.59921045291765
 30
0.0
 11
-387.51788204305848
 21
839.59921045291765
 31
0.0
  0
POLYLINE
  8
0
  5
DD26
  66
     1
 10
0.000000
 20
0.000000
 30
0.000000
  70
     8
  0
VERTEX
  8
0
  5
DD27
 10
-387.518
 20
839.491
 30
0.000000
  70
    32
  0
VERTEX
  8
0
  5
DD28
 10
-387.521
 20
839.491
 30
0.000000
  70
    32
  0
VERTEX
  8
0
  5
DD29
 10
-387.523
 20
839.491
 30
0.000000
  70
    32
  0
VERTEX
  8
0
  5
DD2A
 10
-387.526
 20
839.491
 30
0.000000
  70
    32
  0
VERTEX
  8
0
  5
DD2B
 10
-387.529
 20
839.490
 30
0.000000
  70
    32
  0
VERTEX
  8
0
  5
DD2C
 10
-387.531
 20
839.490
 30
0.000000
  70
    32
  0
VERTEX
  8
0
  5
DD2D
 10
-387.534
 20
839.490
 30
0.000000
  70
    32
  0
VERTEX
  8
0
  5
DD2E
 10
-387.536
 20
839.489
 30
0.000000
  70
    32
  0
VERTEX
  8
0
  5
DD2F
 10
-387.539
 20
839.489
 30
0.000000
  70
    32
  0
VERTEX
  8
0
  5
DD30
 10
-387.542
 20
839.489
 30
0.000000
  70
    32
  0
VERTEX
  8
0
  5
DD31
 10
-387.544
 20
839.488
 30
0.000000
  70
    32
  0
VERTEX
  8
0
  5
DD32
 10
-387.547
 20
839.488
 30
0.000000
  70
    32
  0
VERTEX
  8
0
  5
DD33
 10
-387.550
 20
839.488
 30
0.000000
  70
    32
  0
VERTEX
  8
0
  5
DD34
 10
-387.552
 20
839.487
 30
0.000000
  70
    32
  0
VERTEX
  8
0
  5
DD35
 10
-387.555
 20
839.487
 30
0.000000
  70
    32
  0
VERTEX
  8
0
  5
DD36
 10
-387.558
 20
839.486
 30
0.000000
  70
    32
  0
VERTEX
  8
0
  5
DD37
 10
-387.560
 20
839.486
 30
0.000000
  70
    32
  0
VERTEX
  8
0
  5
DD38
 10
-387.563
 20
839.485
 30
0.000000
  70
    32
  0
VERTEX
  8
0
  5
DD39
 10
-387.566
 20
839.485
 30
0.000000
  70
    32
  0
VERTEX
  8
0
  5
DD3A
 10
-387.568
 20
839.485
 30
0.000000
  70
    32
  0
VERTEX
  8
0
  5
DD3B
 10
-387.571
 20
839.484
 30
0.000000
  70
    32
  0
VERTEX
  8
0
  5
DD3C
 10
-387.574
 20
839.484
 30
0.000000
  70
    32
  0
VERTEX
  8
0
  5
DD3D
 10
-387.576
 20
839.483
 30
0.000000
  70
    32
  0
VERTEX
  8
0
  5
DD3E
 10
-387.579
 20
839.483
 30
0.000000
  70
    32
  0
VERTEX
  8
0
  5
DD3F
 10
-387.581
 20
839.482
 30
0.000000
  70
    32
  0
VERTEX
  8
0
  5
DD40
 10
-387.584
 20
839.482
 30
0.000000
  70
    32
  0
VERTEX
  8
0
  5
DD41
 10
-387.587
 20
839.481
 30
0.000000
  70
    32
  0
VERTEX
  8
0
  5
DD42
 10
-387.589
 20
839.480
 30
0.000000
  70
    32
  0
VERTEX
  8
0
  5
DD43
 10
-387.592
 20
839.480
 30
0.000000
  70
    32
  0
VERTEX
  8
0
  5
DD44
 10
-387.594
 20
839.479
 30
0.000000
  70
    32
  0
VERTEX
  8
0
  5
DD45
 10
-387.597
 20
839.479
 30
0.000000
  70
    32
  0
VERTEX
  8
0
  5
DD46
 10
-387.600
 20
839.478
 30
0.000000
  70
    32
  0
VERTEX
  8
0
  5
DD47
 10
-387.602
 20
839.477
 30
0.000000
  70
    32
  0
VERTEX
  8
0
  5
DD48
 10
-387.605
 20
839.477
 30
0.000000
  70
    32
  0
VERTEX
  8
0
  5
DD49
 10
-387.608
 20
839.476
 30
0.000000
  70
    32
  0
VERTEX
  8
0
  5
DD4A
 10
-387.610
 20
839.475
 30
0.000000
  70
    32
  0
VERTEX
  8
0
  5
DD4B
 10
-387.613
 20
839.475
 30
0.000000
  70
    32
  0
VERTEX
  8
0
  5
DD4C
 10
-387.615
 20
839.474
 30
0.000000
  70
    32
  0
VERTEX
  8
0
  5
DD4D
 10
-387.618
 20
839.473
 30
0.000000
  70
    32
  0
VERTEX
  8
0
  5
DD4E
 10
-387.620
 20
839.473
 30
0.000000
  70
    32
  0
VERTEX
  8
0
  5
DD4F
 10
-387.623
 20
839.472
 30
0.000000
  70
    32
  0
VERTEX
  8
0
  5
DD50
 10
-387.626
 20
839.471
 30
0.000000
  70
    32
  0
VERTEX
  8
0
  5
DD51
 10
-387.628
 20
839.470
 30
0.000000
  70
    32
  0
VERTEX
  8
0
  5
DD52
 10
-387.631
 20
839.470
 30
0.000000
  70
    32
  0
VERTEX
  8
0
  5
DD53
 10
-387.633
 20
839.469
 30
0.000000
  70
    32
  0
VERTEX
  8
0
  5
DD54
 10
-387.636
 20
839.468
 30
0.000000
  70
    32
  0
VERTEX
  8
0
  5
DD55
 10
-387.638
 20
839.467
 30
0.000000
  70
    32
  0
VERTEX
  8
0
  5
DD56
 10
-387.641
 20
839.467
 30
0.000000
  70
    32
  0
VERTEX
  8
0
  5
DD57
 10
-387.644
 20
839.466
 30
0.000000
  70
    32
  0
VERTEX
  8
0
  5
DD58
 10
-387.646
 20
839.465
 30
0.000000
  70
    32
  0
VERTEX
  8
0
  5
DD59
 10
-387.649
 20
839.464
 30
0.000000
  70
    32
  0
VERTEX
  8
0
  5
DD5A
 10
-387.651
 20
839.463
 30
0.000000
  70
    32
  0
VERTEX
  8
0
  5
DD5B
 10
-387.654
 20
839.462
 30
0.000000
  70
    32
  0
VERTEX
  8
0
  5
DD5C
 10
-387.656
 20
839.461
 30
0.000000
  70
    32
  0
VERTEX
  8
0
  5
DD5D
 10
-387.659
 20
839.460
 30
0.000000
  70
    32
  0
VERTEX
  8
0
  5
DD5E
 10
-387.661
 20
839.459
 30
0.000000
  70
    32
  0
VERTEX
  8
0
  5
DD5F
 10
-387.664
 20
839.458
 30
0.000000
  70
    32
  0
VERTEX
  8
0
  5
DD60
 10
-387.666
 20
839.458
 30
0.000000
  70
    32
  0
VERTEX
  8
0
  5
DD61
 10
-387.669
 20
839.457
 30
0.000000
  70
    32
  0
VERTEX
  8
0
  5
DD62
 10
-387.671
 20
839.456
 30
0.000000
  70
    32
  0
VERTEX
  8
0
  5
DD63
 10
-387.674
 20
839.455
 30
0.000000
  70
    32
  0
VERTEX
  8
0
  5
DD64
 10
-387.676
 20
839.453
 30
0.000000
  70
    32
  0
VERTEX
  8
0
  5
DD65
 10
-387.679
 20
839.452
 30
0.000000
  70
    32
  0
VERTEX
  8
0
  5
DD66
 10
-387.681
 20
839.451
 30
0.000000
  70
    32
  0
VERTEX
  8
0
  5
DD67
 10
-387.684
 20
839.450
 30
0.000000
  70
    32
  0
VERTEX
  8
0
  5
DD68
 10
-387.686
 20
839.449
 30
0.000000
  70
    32
  0
VERTEX
  8
0
  5
DD69
 10
-387.689
 20
839.448
 30
0.000000
  70
    32
  0
VERTEX
  8
0
  5
DD6A
 10
-387.691
 20
839.447
 30
0.000000
  70
    32
  0
VERTEX
  8
0
  5
DD6B
 10
-387.694
 20
839.446
 30
0.000000
  70
    32
  0
VERTEX
  8
0
  5
DD6C
 10
-387.696
 20
839.445
 30
0.000000
  70
    32
  0
VERTEX
  8
0
  5
DD6D
 10
-387.699
 20
839.444
 30
0.000000
  70
    32
  0
VERTEX
  8
0
  5
DD6E
 10
-387.701
 20
839.442
 30
0.000000
  70
    32
  0
VERTEX
  8
0
  5
DD6F
 10
-387.704
 20
839.441
 30
0.000000
  70
    32
  0
VERTEX
  8
0
  5
DD70
 10
-387.706
 20
839.440
 30
0.000000
  70
    32
  0
VERTEX
  8
0
  5
DD71
 10
-387.708
 20
839.439
 30
0.000000
  70
    32
  0
VERTEX
  8
0
  5
DD72
 10
-387.711
 20
839.438
 30
0.000000
  70
    32
  0
VERTEX
  8
0
  5
DD73
 10
-387.713
 20
839.436
 30
0.000000
  70
    32
  0
VERTEX
  8
0
  5
DD74
 10
-387.716
 20
839.435
 30
0.000000
  70
    32
  0
VERTEX
  8
0
  5
DD75
 10
-387.718
 20
839.434
 30
0.000000
  70
    32
  0
VERTEX
  8
0
  5
DD76
 10
-387.720
 20
839.432
 30
0.000000
  70
    32
  0
VERTEX
  8
0
  5
DD77
 10
-387.723
 20
839.431
 30
0.000000
  70
    32
  0
VERTEX
  8
0
  5
DD78
 10
-387.725
 20
839.430
 30
0.000000
  70
    32
  0
VERTEX
  8
0
  5
DD79
 10
-387.728
 20
839.428
 30
0.000000
  70
    32
  0
VERTEX
  8
0
  5
DD7A
 10
-387.730
 20
839.427
 30
0.000000
  70
    32
  0
VERTEX
  8
0
  5
DD7B
 10
-387.732
 20
839.426
 30
0.000000
  70
    32
  0
VERTEX
  8
0
  5
DD7C
 10
-387.735
 20
839.424
 30
0.000000
  70
    32
  0
VERTEX
  8
0
  5
DD7D
 10
-387.737
 20
839.423
 30
0.000000
  70
    32
  0
VERTEX
  8
0
  5
DD7E
 10
-387.739
 20
839.421
 30
0.000000
  70
    32
  0
VERTEX
  8
0
  5
DD7F
 10
-387.741
 20
839.420
 30
0.000000
  70
    32
  0
VERTEX
  8
0
  5
DD80
 10
-387.744
 20
839.419
 30
0.000000
  70
    32
  0
VERTEX
  8
0
  5
DD81
 10
-387.746
 20
839.417
 30
0.000000
  70
    32
  0
VERTEX
  8
0
  5
DD82
 10
-387.748
 20
839.416
 30
0.000000
  70
    32
  0
VERTEX
  8
0
  5
DD83
 10
-387.750
 20
839.414
 30
0.000000
  70
    32
  0
VERTEX
  8
0
  5
DD84
 10
-387.753
 20
839.413
 30
0.000000
  70
    32
  0
VERTEX
  8
0
  5
DD85
 10
-387.755
 20
839.411
 30
0.000000
  70
    32
  0
VERTEX
  8
0
  5
DD86
 10
-387.757
 20
839.409
 30
0.000000
  70
    32
  0
VERTEX
  8
0
  5
DD87
 10
-387.759
 20
839.408
 30
0.000000
  70
    32
  0
VERTEX
  8
0
  5
DD88
 10
-387.761
 20
839.406
 30
0.000000
  70
    32
  0
VERTEX
  8
0
  5
DD89
 10
-387.764
 20
839.405
 30
0.000000
  70
    32
  0
VERTEX
  8
0
  5
DD8A
 10
-387.766
 20
839.403
 30
0.000000
  70
    32
  0
VERTEX
  8
0
  5
DD8B
 10
-387.768
 20
839.401
 30
0.000000
  70
    32
  0
VERTEX
  8
0
  5
DD8C
 10
-387.770
 20
839.400
 30
0.000000
  70
    32
  0
VERTEX
  8
0
  5
DD8D
 10
-387.772
 20
839.398
 30
0.000000
  70
    32
  0
VERTEX
  8
0
  5
DD8E
 10
-387.774
 20
839.396
 30
0.000000
  70
    32
  0
VERTEX
  8
0
  5
DD8F
 10
-387.776
 20
839.395
 30
0.000000
  70
    32
  0
VERTEX
  8
0
  5
DD90
 10
-387.778
 20
839.393
 30
0.000000
  70
    32
  0
VERTEX
  8
0
  5
DD91
 10
-387.780
 20
839.391
 30
0.000000
  70
    32
  0
VERTEX
  8
0
  5
DD92
 10
-387.782
 20
839.389
 30
0.000000
  70
    32
  0
VERTEX
  8
0
  5
DD93
 10
-387.784
 20
839.388
 30
0.000000
  70
    32
  0
VERTEX
  8
0
  5
DD94
 10
-387.786
 20
839.386
 30
0.000000
  70
    32
  0
VERTEX
  8
0
  5
DD95
 10
-387.788
 20
839.384
 30
0.000000
  70
    32
  0
VERTEX
  8
0
  5
DD96
 10
-387.790
 20
839.382
 30
0.000000
  70
    32
  0
VERTEX
  8
0
  5
DD97
 10
-387.792
 20
839.380
 30
0.000000
  70
    32
  0
VERTEX
  8
0
  5
DD98
 10
-387.794
 20
839.379
 30
0.000000
  70
    32
  0
VERTEX
  8
0
  5
DD99
 10
-387.796
 20
839.377
 30
0.000000
  70
    32
  0
VERTEX
  8
0
  5
DD9A
 10
-387.798
 20
839.375
 30
0.000000
  70
    32
  0
VERTEX
  8
0
  5
DD9B
 10
-387.800
 20
839.373
 30
0.000000
  70
    32
  0
VERTEX
  8
0
  5
DD9C
 10
-387.802
 20
839.371
 30
0.000000
  70
    32
  0
VERTEX
  8
0
  5
DD9D
 10
-387.803
 20
839.369
 30
0.000000
  70
    32
  0
VERTEX
  8
0
  5
DD9E
 10
-387.805
 20
839.367
 30
0.000000
  70
    32
  0
VERTEX
  8
0
  5
DD9F
 10
-387.807
 20
839.365
 30
0.000000
  70
    32
  0
VERTEX
  8
0
  5
DDA0
 10
-387.809
 20
839.363
 30
0.000000
  70
    32
  0
VERTEX
  8
0
  5
DDA1
 10
-387.810
 20
839.361
 30
0.000000
  70
    32
  0
VERTEX
  8
0
  5
DDA2
 10
-387.812
 20
839.359
 30
0.000000
  70
    32
  0
VERTEX
  8
0
  5
DDA3
 10
-387.814
 20
839.357
 30
0.000000
  70
    32
  0
VERTEX
  8
0
  5
DDA4
 10
-387.816
 20
839.355
 30
0.000000
  70
    32
  0
VERTEX
  8
0
  5
DDA5
 10
-387.817
 20
839.353
 30
0.000000
  70
    32
  0
VERTEX
  8
0
  5
DDA6
 10
-387.819
 20
839.351
 30
0.000000
  70
    32
  0
VERTEX
  8
0
  5
DDA7
 10
-387.821
 20
839.349
 30
0.000000
  70
    32
  0
VERTEX
  8
0
  5
DDA8
 10
-387.822
 20
839.347
 30
0.000000
  70
    32
  0
VERTEX
  8
0
  5
DDA9
 10
-387.824
 20
839.344
 30
0.000000
  70
    32
  0
VERTEX
  8
0
  5
DDAA
 10
-387.825
 20
839.342
 30
0.000000
  70
    32
  0
VERTEX
  8
0
  5
DDAB
 10
-387.827
 20
839.340
 30
0.000000
  70
    32
  0
VERTEX
  8
0
  5
DDAC
 10
-387.829
 20
839.338
 30
0.000000
  70
    32
  0
VERTEX
  8
0
  5
DDAD
 10
-387.830
 20
839.336
 30
0.000000
  70
    32
  0
VERTEX
  8
0
  5
DDAE
 10
-387.832
 20
839.334
 30
0.000000
  70
    32
  0
VERTEX
  8
0
  5
DDAF
 10
-387.833
 20
839.332
 30
0.000000
  70
    32
  0
VERTEX
  8
0
  5
DDB0
 10
-387.835
 20
839.329
 30
0.000000
  70
    32
  0
VERTEX
  8
0
  5
DDB1
 10
-387.836
 20
839.327
 30
0.000000
  70
    32
  0
VERTEX
  8
0
  5
DDB2
 10
-387.838
 20
839.325
 30
0.000000
  70
    32
  0
VERTEX
  8
0
  5
DDB3
 10
-387.840
 20
839.323
 30
0.000000
  70
    32
  0
VERTEX
  8
0
  5
DDB4
 10
-387.841
 20
839.321
 30
0.000000
  70
    32
  0
VERTEX
  8
0
  5
DDB5
 10
-387.843
 20
839.318
 30
0.000000
  70
    32
  0
VERTEX
  8
0
  5
DDB6
 10
-387.844
 20
839.316
 30
0.000000
  70
    32
  0
VERTEX
  8
0
  5
DDB7
 10
-387.846
 20
839.314
 30
0.000000
  70
    32
  0
VERTEX
  8
0
  5
DDB8
 10
-387.847
 20
839.312
 30
0.000000
  70
    32
  0
VERTEX
  8
0
  5
DDB9
 10
-387.849
 20
839.309
 30
0.000000
  70
    32
  0
VERTEX
  8
0
  5
DDBA
 10
-387.850
 20
839.307
 30
0.000000
  70
    32
  0
VERTEX
  8
0
  5
DDBB
 10
-387.852
 20
839.305
 30
0.000000
  70
    32
  0
VERTEX
  8
0
  5
DDBC
 10
-387.853
 20
839.303
 30
0.000000
  70
    32
  0
VERTEX
  8
0
  5
DDBD
 10
-387.855
 20
839.301
 30
0.000000
  70
    32
  0
VERTEX
  8
0
  5
DDBE
 10
-387.856
 20
839.298
 30
0.000000
  70
    32
  0
VERTEX
  8
0
  5
DDBF
 10
-387.858
 20
839.296
 30
0.000000
  70
    32
  0
VERTEX
  8
0
  5
DDC0
 10
-387.859
 20
839.294
 30
0.000000
  70
    32
  0
VERTEX
  8
0
  5
DDC1
 10
-387.861
 20
839.292
 30
0.000000
  70
    32
  0
VERTEX
  8
0
  5
DDC2
 10
-387.862
 20
839.289
 30
0.000000
  70
    32
  0
VERTEX
  8
0
  5
DDC3
 10
-387.864
 20
839.287
 30
0.000000
  70
    32
  0
VERTEX
  8
0
  5
DDC4
 10
-387.865
 20
839.285
 30
0.000000
  70
    32
  0
VERTEX
  8
0
  5
DDC5
 10
-387.867
 20
839.283
 30
0.000000
  70
    32
  0
VERTEX
  8
0
  5
DDC6
 10
-387.868
 20
839.281
 30
0.000000
  70
    32
  0
VERTEX
  8
0
  5
DDC7
 10
-387.870
 20
839.278
 30
0.000000
  70
    32
  0
VERTEX
  8
0
  5
DDC8
 10
-387.871
 20
839.276
 30
0.000000
  70
    32
  0
VERTEX
  8
0
  5
DDC9
 10
-387.873
 20
839.274
 30
0.000000
  70
    32
  0
VERTEX
  8
0
  5
DDCA
 10
-387.875
 20
839.272
 30
0.000000
  70
    32
  0
VERTEX
  8
0
  5
DDCB
 10
-387.876
 20
839.270
 30
0.000000
  70
    32
  0
VERTEX
  8
0
  5
DDCC
 10
-387.878
 20
839.268
 30
0.000000
  70
    32
  0
VERTEX
  8
0
  5
DDCD
 10
-387.879
 20
839.266
 30
0.000000
  70
    32
  0
VERTEX
  8
0
  5
DDCE
 10
-387.881
 20
839.263
 30
0.000000
  70
    32
  0
VERTEX
  8
0
  5
DDCF
 10
-387.883
 20
839.261
 30
0.000000
  70
    32
  0
VERTEX
  8
0
  5
DDD0
 10
-387.884
 20
839.259
 30
0.000000
  70
    32
  0
VERTEX
  8
0
  5
DDD1
 10
-387.886
 20
839.257
 30
0.000000
  70
    32
  0
VERTEX
  8
0
  5
DDD2
 10
-387.887
 20
839.255
 30
0.000000
  70
    32
  0
VERTEX
  8
0
  5
DDD3
 10
-387.889
 20
839.253
 30
0.000000
  70
    32
  0
VERTEX
  8
0
  5
DDD4
 10
-387.891
 20
839.251
 30
0.000000
  70
    32
  0
VERTEX
  8
0
  5
DDD5
 10
-387.893
 20
839.249
 30
0.000000
  70
    32
  0
VERTEX
  8
0
  5
DDD6
 10
-387.894
 20
839.247
 30
0.000000
  70
    32
  0
VERTEX
  8
0
  5
DDD7
 10
-387.896
 20
839.245
 30
0.000000
  70
    32
  0
VERTEX
  8
0
  5
DDD8
 10
-387.898
 20
839.243
 30
0.000000
  70
    32
  0
VERTEX
  8
0
  5
DDD9
 10
-387.900
 20
839.241
 30
0.000000
  70
    32
  0
VERTEX
  8
0
  5
DDDA
 10
-387.901
 20
839.239
 30
0.000000
  70
    32
  0
VERTEX
  8
0
  5
DDDB
 10
-387.903
 20
839.237
 30
0.000000
  70
    32
  0
VERTEX
  8
0
  5
DDDC
 10
-387.905
 20
839.235
 30
0.000000
  70
    32
  0
VERTEX
  8
0
  5
DDDD
 10
-387.907
 20
839.233
 30
0.000000
  70
    32
  0
VERTEX
  8
0
  5
DDDE
 10
-387.909
 20
839.231
 30
0.000000
  70
    32
  0
VERTEX
  8
0
  5
DDDF
 10
-387.911
 20
839.229
 30
0.000000
  70
    32
  0
VERTEX
  8
0
  5
DDE0
 10
-387.912
 20
839.227
 30
0.000000
  70
    32
  0
VERTEX
  8
0
  5
DDE1
 10
-387.914
 20
839.226
 30
0.000000
  70
    32
  0
VERTEX
  8
0
  5
DDE2
 10
-387.916
 20
839.224
 30
0.000000
  70
    32
  0
VERTEX
  8
0
  5
DDE3
 10
-387.918
 20
839.222
 30
0.000000
  70
    32
  0
VERTEX
  8
0
  5
DDE4
 10
-387.920
 20
839.220
 30
0.000000
  70
    32
  0
VERTEX
  8
0
  5
DDE5
 10
-387.922
 20
839.218
 30
0.000000
  70
    32
  0
VERTEX
  8
0
  5
DDE6
 10
-387.924
 20
839.216
 30
0.000000
  70
    32
  0
VERTEX
  8
0
  5
DDE7
 10
-387.926
 20
839.214
 30
0.000000
  70
    32
  0
VERTEX
  8
0
  5
DDE8
 10
-387.928
 20
839.213
 30
0.000000
  70
    32
  0
VERTEX
  8
0
  5
DDE9
 10
-387.930
 20
839.211
 30
0.000000
  70
    32
  0
VERTEX
  8
0
  5
DDEA
 10
-387.932
 20
839.209
 30
0.000000
  70
    32
  0
VERTEX
  8
0
  5
DDEB
 10
-387.934
 20
839.207
 30
0.000000
  70
    32
  0
VERTEX
  8
0
  5
DDEC
 10
-387.936
 20
839.206
 30
0.000000
  70
    32
  0
VERTEX
  8
0
  5
DDED
 10
-387.938
 20
839.204
 30
0.000000
  70
    32
  0
VERTEX
  8
0
  5
DDEE
 10
-387.940
 20
839.202
 30
0.000000
  70
    32
  0
VERTEX
  8
0
  5
DDEF
 10
-387.942
 20
839.200
 30
0.000000
  70
    32
  0
VERTEX
  8
0
  5
DDF0
 10
-387.944
 20
839.199
 30
0.000000
  70
    32
  0
VERTEX
  8
0
  5
DDF1
 10
-387.946
 20
839.197
 30
0.000000
  70
    32
  0
VERTEX
  8
0
  5
DDF2
 10
-387.948
 20
839.195
 30
0.000000
  70
    32
  0
VERTEX
  8
0
  5
DDF3
 10
-387.950
 20
839.194
 30
0.000000
  70
    32
  0
VERTEX
  8
0
  5
DDF4
 10
-387.952
 20
839.192
 30
0.000000
  70
    32
  0
VERTEX
  8
0
  5
DDF5
 10
-387.955
 20
839.190
 30
0.000000
  70
    32
  0
VERTEX
  8
0
  5
DDF6
 10
-387.957
 20
839.188
 30
0.000000
  70
    32
  0
VERTEX
  8
0
  5
DDF7
 10
-387.959
 20
839.187
 30
0.000000
  70
    32
  0
VERTEX
  8
0
  5
DDF8
 10
-387.961
 20
839.185
 30
0.000000
  70
    32
  0
VERTEX
  8
0
  5
DDF9
 10
-387.963
 20
839.184
 30
0.000000
  70
    32
  0
VERTEX
  8
0
  5
DDFA
 10
-387.965
 20
839.182
 30
0.000000
  70
    32
  0
VERTEX
  8
0
  5
DDFB
 10
-387.967
 20
839.180
 30
0.000000
  70
    32
  0
VERTEX
  8
0
  5
DDFC
 10
-387.970
 20
839.179
 30
0.000000
  70
    32
  0
VERTEX
  8
0
  5
DDFD
 10
-387.972
 20
839.177
 30
0.000000
  70
    32
  0
VERTEX
  8
0
  5
DDFE
 10
-387.974
 20
839.175
 30
0.000000
  70
    32
  0
VERTEX
  8
0
  5
DDFF
 10
-387.976
 20
839.174
 30
0.000000
  70
    32
  0
VERTEX
  8
0
  5
DE00
 10
-387.978
 20
839.172
 30
0.000000
  70
    32
  0
VERTEX
  8
0
  5
DE01
 10
-387.981
 20
839.171
 30
0.000000
  70
    32
  0
VERTEX
  8
0
  5
DE02
 10
-387.983
 20
839.169
 30
0.000000
  70
    32
  0
VERTEX
  8
0
  5
DE03
 10
-387.985
 20
839.167
 30
0.000000
  70
    32
  0
VERTEX
  8
0
  5
DE04
 10
-387.987
 20
839.166
 30
0.000000
  70
    32
  0
VERTEX
  8
0
  5
DE05
 10
-387.989
 20
839.164
 30
0.000000
  70
    32
  0
VERTEX
  8
0
  5
DE06
 10
-387.992
 20
839.163
 30
0.000000
  70
    32
  0
VERTEX
  8
0
  5
DE07
 10
-387.994
 20
839.161
 30
0.000000
  70
    32
  0
VERTEX
  8
0
  5
DE08
 10
-387.996
 20
839.160
 30
0.000000
  70
    32
  0
VERTEX
  8
0
  5
DE09
 10
-387.999
 20
839.158
 30
0.000000
  70
    32
  0
VERTEX
  8
0
  5
DE0A
 10
-388.001
 20
839.157
 30
0.000000
  70
    32
  0
VERTEX
  8
0
  5
DE0B
 10
-388.003
 20
839.155
 30
0.000000
  70
    32
  0
VERTEX
  8
0
  5
DE0C
 10
-388.005
 20
839.154
 30
0.000000
  70
    32
  0
VERTEX
  8
0
  5
DE0D
 10
-388.008
 20
839.152
 30
0.000000
  70
    32
  0
VERTEX
  8
0
  5
DE0E
 10
-388.010
 20
839.151
 30
0.000000
  70
    32
  0
VERTEX
  8
0
  5
DE0F
 10
-388.012
 20
839.150
 30
0.000000
  70
    32
  0
VERTEX
  8
0
  5
DE10
 10
-388.015
 20
839.148
 30
0.000000
  70
    32
  0
VERTEX
  8
0
  5
DE11
 10
-388.017
 20
839.147
 30
0.000000
  70
    32
  0
VERTEX
  8
0
  5
DE12
 10
-388.019
 20
839.146
 30
0.000000
  70
    32
  0
VERTEX
  8
0
  5
DE13
 10
-388.022
 20
839.144
 30
0.000000
  70
    32
  0
VERTEX
  8
0
  5
DE14
 10
-388.024
 20
839.143
 30
0.000000
  70
    32
  0
VERTEX
  8
0
  5
DE15
 10
-388.027
 20
839.142
 30
0.000000
  70
    32
  0
VERTEX
  8
0
  5
DE16
 10
-388.029
 20
839.141
 30
0.000000
  70
    32
  0
VERTEX
  8
0
  5
DE17
 10
-388.031
 20
839.139
 30
0.000000
  70
    32
  0
VERTEX
  8
0
  5
DE18
 10
-388.034
 20
839.138
 30
0.000000
  70
    32
  0
VERTEX
  8
0
  5
DE19
 10
-388.036
 20
839.137
 30
0.000000
  70
    32
  0
VERTEX
  8
0
  5
DE1A
 10
-388.039
 20
839.136
 30
0.000000
  70
    32
  0
VERTEX
  8
0
  5
DE1B
 10
-388.041
 20
839.135
 30
0.000000
  70
    32
  0
VERTEX
  8
0
  5
DE1C
 10
-388.044
 20
839.134
 30
0.000000
  70
    32
  0
VERTEX
  8
0
  5
DE1D
 10
-388.046
 20
839.133
 30
0.000000
  70
    32
  0
VERTEX
  8
0
  5
DE1E
 10
-388.049
 20
839.132
 30
0.000000
  70
    32
  0
VERTEX
  8
0
  5
DE1F
 10
-388.051
 20
839.131
 30
0.000000
  70
    32
  0
VERTEX
  8
0
  5
DE20
 10
-388.054
 20
839.130
 30
0.000000
  70
    32
  0
VERTEX
  8
0
  5
DE21
 10
-388.056
 20
839.129
 30
0.000000
  70
    32
  0
VERTEX
  8
0
  5
DE22
 10
-388.059
 20
839.128
 30
0.000000
  70
    32
  0
VERTEX
  8
0
  5
DE23
 10
-388.061
 20
839.128
 30
0.000000
  70
    32
  0
VERTEX
  8
0
  5
DE24
 10
-388.064
 20
839.127
 30
0.000000
  70
    32
  0
VERTEX
  8
0
  5
DE25
 10
-388.066
 20
839.126
 30
0.000000
  70
    32
  0
VERTEX
  8
0
  5
DE26
 10
-388.069
 20
839.125
 30
0.000000
  70
    32
  0
SEQEND
  8
0
  5
DE27
  0
ARC
  5
DAC7
  8
0
 10
-387.58028054404758
 20
839.10007010924494
 30
0.0
 40
0.046875
 50
180.0
 51
180.0
  0
ARC
  5
DAC8
  8
0
 10
-387.5490305440477
 20
838.73252187239405
 30
0.0
 40
0.046875
 50
270.0
 51
0.0
  0
LINE
  5
DAC9
  8
0
 10
-387.5490305440477
 20
838.68564687239405
 30
0.0
 11
-387.5490305440477
 21
838.68564687239405
 31
0.0
  0
LINE
  5
DACA
  8
0
 10
-387.5021555440477
 20
838.73252187239405
 30
0.0
 11
-387.5021555440477
 21
838.77939687239416
 31
0.0
  0
LINE
  5
DACB
  8
0
 10
-387.5021555440477
 20
838.63877187239405
 30
0.0
 11
-387.5021555440477
 21
838.63877187239405
 31
0.0
  0
ARC
  5
DACC
  8
0
 10
-387.5490305440477
 20
838.63877187239405
 30
0.0
 40
0.046875
 50
0.0
 51
90.0
  0
ARC
  5
DACD
  8
0
 10
-387.5490305440477
 20
838.63877187239405
 30
0.0
 40
0.046875
 50
269.99999999999682
 51
0.0
  0
LINE
  5
DACE
  8
0
 10
-387.62715554404781
 20
839.10007010924494
 30
0.0
 11
-387.62715554404781
 21
838.77939687239416
 31
0.0
  0
LINE
  5
DACF
  8
0
 10
-387.5021555440477
 20
838.77939687239416
 30
0.0
 11
-387.50215554404758
 21
839.10007010924494
 31
0.0
  0
LINE
  5
DAD0
  8
0
 10
-388.1271555440477
 20
838.73252187239405
 30
0.0
 11
-388.1271555440477
 21
838.63877187239405
 31
0.0
  0
LINE
  5
DAD1
  8
0
 10
-388.00215554404781
 20
838.77939687239416
 30
0.0
 11
-388.0802805440477
 21
838.77939687239416
 31
0.0
  0
ARC
  5
DAD2
  8
0
 10
-388.0802805440477
 20
838.63877187239405
 30
0.0
 40
0.046875
 50
180.0
 51
270.0
  0
ARC
  5
DAD3
  8
0
 10
-388.0802805440477
 20
838.73252187239405
 30
0.0
 40
0.046875
 50
90.0
 51
180.0
  0
LINE
  5
DAD4
  8
0
  6
CONTINUOUS
 10
-387.62715554404781
 20
838.77939687239416
 30
0.0
 11
-388.06879846511742
 21
838.77939687239416
 31
0.0
  0
LINE
  5
DAD5
  8
0
 10
-387.5490305440477
 20
838.68564687239405
 30
0.0
 11
-388.00215554404781
 21
838.68564687239405
 31
0.0
  0
LINE
  5
DAD6
  8
0
 10
-387.62715554404758
 20
838.77939687239416
 30
0.0
 11
-388.00215554404781
 21
838.77939687239416
 31
0.0
  0
LINE
  5
DAD7
  8
0
 10
-387.62715554404781
 20
838.77939687239416
 30
0.0
 11
-388.00215554404758
 21
838.77939687239416
 31
0.0
  0
LINE
  5
DAD8
  8
0
  6
CONTINUOUS
 10
-388.0802805440477
 20
838.59189687239416
 30
0.0
 11
-387.5490305440477
 21
838.59189687239416
 31
0.0
  0
ARC
  5
DAD9
  8
0
  6
CONTINUOUS
 62
     7
 10
-387.1778065133721
 20
836.82741167161487
 30
0.0
 40
0.1719999940960037
 50
180.0
 51
0.0
  0
LINE
  5
DADA
  8
0
 10
-387.00580652167588
 20
838.57738293881027
 30
0.0
 11
-387.00580652167588
 21
836.82738293881027
 31
0.0
  0
LINE
  5
DADB
  8
0
 10
-387.5021555440477
 20
838.71953921786633
 30
0.0
 11
-387.34980650746809
 21
836.82741167161487
 31
0.0
  0
LINE
  5
DADC
  8
0
  6
CONTINUOUS
 10
-387.62715554404781
 20
839.14694510924505
 30
0.0
 11
-387.62715554404781
 21
838.77939687239416
 31
0.0
  0
LINE
  5
DADD
  8
0
  6
CONTINUOUS
 10
-388.06879846511742
 20
838.77939687239416
 30
0.0
 11
-388.06879846511742
 21
839.12548116182415
 31
0.0
  0
LINE
  5
DADE
  8
0
 10
-387.62715554404781
 20
839.10007010924494
 30
0.0
 11
-387.62715554404781
 21
839.14694510924505
 31
0.0
  0
LINE
  5
DADF
  8
0
 10
-387.50215554404758
 20
839.10007010924494
 30
0.0
 11
-387.50215554404758
 21
839.14694510924505
 31
0.0
  0
ARC
  5
DAE0
  8
0
 10
-387.58028054404781
 20
839.10007010924494
 30
0.0
 40
0.046875
 50
90.0
 51
180.0
  0
ARC
  5
DAE1
  8
0
 10
-387.5490305440477
 20
839.10007010924494
 30
0.0
 40
0.046875
 50
0.0
 51
90.0
  0
ARC
  5
DAE2
  8
0
 10
-387.5490305440477
 20
839.10007010924494
 30
0.0
 40
0.046875
 50
359.99999999998698
 51
90.0
  0
LINE
  5
DAE3
  8
0
 10
-387.62715554404758
 20
839.10007010924494
 30
0.0
 11
-387.62715554404758
 21
839.14694510924505
 31
0.0
  0
LINE
  5
DAE4
  8
0
 10
-387.50215554404758
 20
839.14694510924505
 30
0.0
 11
-387.50215554404758
 21
839.10007010924494
 31
0.0
  0
INSERT
  5
DAE5
  8
0
  2
*U71
 10
0.0
 20
0.0
 30
0.0
1001
ACAD
1000
DSTYLE
1002
{
1070
   147
1040
0.0625
1070
    77
1070
     0
1002
}
  0
INSERT
  5
DAE6
  8
0
  2
*U72
 10
0.0
 20
0.0
 30
0.0
  0
LINE
  5
DAE7
  8
0
  6
CONTINUOUS
 10
-387.00580652167588
 20
838.57738293881027
 30
0.0
 11
-386.46696562099947
 21
838.57738293881027
 31
0.0
  0
POLYLINE
  8
0
  5
DE28
  66
     1
 10
0.000000
 20
0.000000
 30
0.000000
  70
     8
  0
VERTEX
  8
0
  5
DE29
 10
-387.018
 20
839.491
 30
0.000000
  70
    32
  0
VERTEX
  8
0
  5
DE2A
 10
-387.015
 20
839.491
 30
0.000000
  70
    32
  0
VERTEX
  8
0
  5
DE2B
 10
-387.013
 20
839.491
 30
0.000000
  70
    32
  0
VERTEX
  8
0
  5
DE2C
 10
-387.010
 20
839.491
 30
0.000000
  70
    32
  0
VERTEX
  8
0
  5
DE2D
 10
-387.007
 20
839.490
 30
0.000000
  70
    32
  0
VERTEX
  8
0
  5
DE2E
 10
-387.005
 20
839.490
 30
0.000000
  70
    32
  0
VERTEX
  8
0
  5
DE2F
 10
-387.002
 20
839.490
 30
0.000000
  70
    32
  0
VERTEX
  8
0
  5
DE30
 10
-386.999
 20
839.489
 30
0.000000
  70
    32
  0
VERTEX
  8
0
  5
DE31
 10
-386.997
 20
839.489
 30
0.000000
  70
    32
  0
VERTEX
  8
0
  5
DE32
 10
-386.994
 20
839.489
 30
0.000000
  70
    32
  0
VERTEX
  8
0
  5
DE33
 10
-386.991
 20
839.488
 30
0.000000
  70
    32
  0
VERTEX
  8
0
  5
DE34
 10
-386.989
 20
839.488
 30
0.000000
  70
    32
  0
VERTEX
  8
0
  5
DE35
 10
-386.986
 20
839.488
 30
0.000000
  70
    32
  0
VERTEX
  8
0
  5
DE36
 10
-386.983
 20
839.487
 30
0.000000
  70
    32
  0
VERTEX
  8
0
  5
DE37
 10
-386.981
 20
839.487
 30
0.000000
  70
    32
  0
VERTEX
  8
0
  5
DE38
 10
-386.978
 20
839.486
 30
0.000000
  70
    32
  0
VERTEX
  8
0
  5
DE39
 10
-386.975
 20
839.486
 30
0.000000
  70
    32
  0
VERTEX
  8
0
  5
DE3A
 10
-386.973
 20
839.485
 30
0.000000
  70
    32
  0
VERTEX
  8
0
  5
DE3B
 10
-386.970
 20
839.485
 30
0.000000
  70
    32
  0
VERTEX
  8
0
  5
DE3C
 10
-386.968
 20
839.485
 30
0.000000
  70
    32
  0
VERTEX
  8
0
  5
DE3D
 10
-386.965
 20
839.484
 30
0.000000
  70
    32
  0
VERTEX
  8
0
  5
DE3E
 10
-386.962
 20
839.484
 30
0.000000
  70
    32
  0
VERTEX
  8
0
  5
DE3F
 10
-386.960
 20
839.483
 30
0.000000
  70
    32
  0
VERTEX
  8
0
  5
DE40
 10
-386.957
 20
839.483
 30
0.000000
  70
    32
  0
VERTEX
  8
0
  5
DE41
 10
-386.954
 20
839.482
 30
0.000000
  70
    32
  0
VERTEX
  8
0
  5
DE42
 10
-386.952
 20
839.482
 30
0.000000
  70
    32
  0
VERTEX
  8
0
  5
DE43
 10
-386.949
 20
839.481
 30
0.000000
  70
    32
  0
VERTEX
  8
0
  5
DE44
 10
-386.947
 20
839.480
 30
0.000000
  70
    32
  0
VERTEX
  8
0
  5
DE45
 10
-386.944
 20
839.480
 30
0.000000
  70
    32
  0
VERTEX
  8
0
  5
DE46
 10
-386.941
 20
839.479
 30
0.000000
  70
    32
  0
VERTEX
  8
0
  5
DE47
 10
-386.939
 20
839.479
 30
0.000000
  70
    32
  0
VERTEX
  8
0
  5
DE48
 10
-386.936
 20
839.478
 30
0.000000
  70
    32
  0
VERTEX
  8
0
  5
DE49
 10
-386.933
 20
839.477
 30
0.000000
  70
    32
  0
VERTEX
  8
0
  5
DE4A
 10
-386.931
 20
839.477
 30
0.000000
  70
    32
  0
VERTEX
  8
0
  5
DE4B
 10
-386.928
 20
839.476
 30
0.000000
  70
    32
  0
VERTEX
  8
0
  5
DE4C
 10
-386.926
 20
839.475
 30
0.000000
  70
    32
  0
VERTEX
  8
0
  5
DE4D
 10
-386.923
 20
839.475
 30
0.000000
  70
    32
  0
VERTEX
  8
0
  5
DE4E
 10
-386.920
 20
839.474
 30
0.000000
  70
    32
  0
VERTEX
  8
0
  5
DE4F
 10
-386.918
 20
839.473
 30
0.000000
  70
    32
  0
VERTEX
  8
0
  5
DE50
 10
-386.915
 20
839.473
 30
0.000000
  70
    32
  0
VERTEX
  8
0
  5
DE51
 10
-386.913
 20
839.472
 30
0.000000
  70
    32
  0
VERTEX
  8
0
  5
DE52
 10
-386.910
 20
839.471
 30
0.000000
  70
    32
  0
VERTEX
  8
0
  5
DE53
 10
-386.908
 20
839.470
 30
0.000000
  70
    32
  0
VERTEX
  8
0
  5
DE54
 10
-386.905
 20
839.470
 30
0.000000
  70
    32
  0
VERTEX
  8
0
  5
DE55
 10
-386.902
 20
839.469
 30
0.000000
  70
    32
  0
VERTEX
  8
0
  5
DE56
 10
-386.900
 20
839.468
 30
0.000000
  70
    32
  0
VERTEX
  8
0
  5
DE57
 10
-386.897
 20
839.467
 30
0.000000
  70
    32
  0
VERTEX
  8
0
  5
DE58
 10
-386.895
 20
839.467
 30
0.000000
  70
    32
  0
VERTEX
  8
0
  5
DE59
 10
-386.892
 20
839.466
 30
0.000000
  70
    32
  0
VERTEX
  8
0
  5
DE5A
 10
-386.890
 20
839.465
 30
0.000000
  70
    32
  0
VERTEX
  8
0
  5
DE5B
 10
-386.887
 20
839.464
 30
0.000000
  70
    32
  0
VERTEX
  8
0
  5
DE5C
 10
-386.885
 20
839.463
 30
0.000000
  70
    32
  0
VERTEX
  8
0
  5
DE5D
 10
-386.882
 20
839.462
 30
0.000000
  70
    32
  0
VERTEX
  8
0
  5
DE5E
 10
-386.879
 20
839.461
 30
0.000000
  70
    32
  0
VERTEX
  8
0
  5
DE5F
 10
-386.877
 20
839.460
 30
0.000000
  70
    32
  0
VERTEX
  8
0
  5
DE60
 10
-386.874
 20
839.459
 30
0.000000
  70
    32
  0
VERTEX
  8
0
  5
DE61
 10
-386.872
 20
839.458
 30
0.000000
  70
    32
  0
VERTEX
  8
0
  5
DE62
 10
-386.869
 20
839.458
 30
0.000000
  70
    32
  0
VERTEX
  8
0
  5
DE63
 10
-386.867
 20
839.457
 30
0.000000
  70
    32
  0
VERTEX
  8
0
  5
DE64
 10
-386.864
 20
839.456
 30
0.000000
  70
    32
  0
VERTEX
  8
0
  5
DE65
 10
-386.862
 20
839.455
 30
0.000000
  70
    32
  0
VERTEX
  8
0
  5
DE66
 10
-386.859
 20
839.453
 30
0.000000
  70
    32
  0
VERTEX
  8
0
  5
DE67
 10
-386.857
 20
839.452
 30
0.000000
  70
    32
  0
VERTEX
  8
0
  5
DE68
 10
-386.854
 20
839.451
 30
0.000000
  70
    32
  0
VERTEX
  8
0
  5
DE69
 10
-386.852
 20
839.450
 30
0.000000
  70
    32
  0
VERTEX
  8
0
  5
DE6A
 10
-386.849
 20
839.449
 30
0.000000
  70
    32
  0
VERTEX
  8
0
  5
DE6B
 10
-386.847
 20
839.448
 30
0.000000
  70
    32
  0
VERTEX
  8
0
  5
DE6C
 10
-386.844
 20
839.447
 30
0.000000
  70
    32
  0
VERTEX
  8
0
  5
DE6D
 10
-386.842
 20
839.446
 30
0.000000
  70
    32
  0
VERTEX
  8
0
  5
DE6E
 10
-386.839
 20
839.445
 30
0.000000
  70
    32
  0
VERTEX
  8
0
  5
DE6F
 10
-386.837
 20
839.444
 30
0.000000
  70
    32
  0
VERTEX
  8
0
  5
DE70
 10
-386.835
 20
839.442
 30
0.000000
  70
    32
  0
VERTEX
  8
0
  5
DE71
 10
-386.832
 20
839.441
 30
0.000000
  70
    32
  0
VERTEX
  8
0
  5
DE72
 10
-386.830
 20
839.440
 30
0.000000
  70
    32
  0
VERTEX
  8
0
  5
DE73
 10
-386.827
 20
839.439
 30
0.000000
  70
    32
  0
VERTEX
  8
0
  5
DE74
 10
-386.825
 20
839.438
 30
0.000000
  70
    32
  0
VERTEX
  8
0
  5
DE75
 10
-386.822
 20
839.436
 30
0.000000
  70
    32
  0
VERTEX
  8
0
  5
DE76
 10
-386.820
 20
839.435
 30
0.000000
  70
    32
  0
VERTEX
  8
0
  5
DE77
 10
-386.818
 20
839.434
 30
0.000000
  70
    32
  0
VERTEX
  8
0
  5
DE78
 10
-386.815
 20
839.432
 30
0.000000
  70
    32
  0
VERTEX
  8
0
  5
DE79
 10
-386.813
 20
839.431
 30
0.000000
  70
    32
  0
VERTEX
  8
0
  5
DE7A
 10
-386.811
 20
839.430
 30
0.000000
  70
    32
  0
VERTEX
  8
0
  5
DE7B
 10
-386.808
 20
839.428
 30
0.000000
  70
    32
  0
VERTEX
  8
0
  5
DE7C
 10
-386.806
 20
839.427
 30
0.000000
  70
    32
  0
VERTEX
  8
0
  5
DE7D
 10
-386.804
 20
839.426
 30
0.000000
  70
    32
  0
VERTEX
  8
0
  5
DE7E
 10
-386.801
 20
839.424
 30
0.000000
  70
    32
  0
VERTEX
  8
0
  5
DE7F
 10
-386.799
 20
839.423
 30
0.000000
  70
    32
  0
VERTEX
  8
0
  5
DE80
 10
-386.797
 20
839.421
 30
0.000000
  70
    32
  0
VERTEX
  8
0
  5
DE81
 10
-386.794
 20
839.420
 30
0.000000
  70
    32
  0
VERTEX
  8
0
  5
DE82
 10
-386.792
 20
839.419
 30
0.000000
  70
    32
  0
VERTEX
  8
0
  5
DE83
 10
-386.790
 20
839.417
 30
0.000000
  70
    32
  0
VERTEX
  8
0
  5
DE84
 10
-386.788
 20
839.416
 30
0.000000
  70
    32
  0
VERTEX
  8
0
  5
DE85
 10
-386.785
 20
839.414
 30
0.000000
  70
    32
  0
VERTEX
  8
0
  5
DE86
 10
-386.783
 20
839.413
 30
0.000000
  70
    32
  0
VERTEX
  8
0
  5
DE87
 10
-386.781
 20
839.411
 30
0.000000
  70
    32
  0
VERTEX
  8
0
  5
DE88
 10
-386.779
 20
839.409
 30
0.000000
  70
    32
  0
VERTEX
  8
0
  5
DE89
 10
-386.777
 20
839.408
 30
0.000000
  70
    32
  0
VERTEX
  8
0
  5
DE8A
 10
-386.774
 20
839.406
 30
0.000000
  70
    32
  0
VERTEX
  8
0
  5
DE8B
 10
-386.772
 20
839.405
 30
0.000000
  70
    32
  0
VERTEX
  8
0
  5
DE8C
 10
-386.770
 20
839.403
 30
0.000000
  70
    32
  0
VERTEX
  8
0
  5
DE8D
 10
-386.768
 20
839.401
 30
0.000000
  70
    32
  0
VERTEX
  8
0
  5
DE8E
 10
-386.766
 20
839.400
 30
0.000000
  70
    32
  0
VERTEX
  8
0
  5
DE8F
 10
-386.764
 20
839.398
 30
0.000000
  70
    32
  0
VERTEX
  8
0
  5
DE90
 10
-386.762
 20
839.396
 30
0.000000
  70
    32
  0
VERTEX
  8
0
  5
DE91
 10
-386.760
 20
839.395
 30
0.000000
  70
    32
  0
VERTEX
  8
0
  5
DE92
 10
-386.758
 20
839.393
 30
0.000000
  70
    32
  0
VERTEX
  8
0
  5
DE93
 10
-386.755
 20
839.391
 30
0.000000
  70
    32
  0
VERTEX
  8
0
  5
DE94
 10
-386.753
 20
839.389
 30
0.000000
  70
    32
  0
VERTEX
  8
0
  5
DE95
 10
-386.751
 20
839.388
 30
0.000000
  70
    32
  0
VERTEX
  8
0
  5
DE96
 10
-386.749
 20
839.386
 30
0.000000
  70
    32
  0
VERTEX
  8
0
  5
DE97
 10
-386.747
 20
839.384
 30
0.000000
  70
    32
  0
VERTEX
  8
0
  5
DE98
 10
-386.746
 20
839.382
 30
0.000000
  70
    32
  0
VERTEX
  8
0
  5
DE99
 10
-386.744
 20
839.380
 30
0.000000
  70
    32
  0
VERTEX
  8
0
  5
DE9A
 10
-386.742
 20
839.379
 30
0.000000
  70
    32
  0
VERTEX
  8
0
  5
DE9B
 10
-386.740
 20
839.377
 30
0.000000
  70
    32
  0
VERTEX
  8
0
  5
DE9C
 10
-386.738
 20
839.375
 30
0.000000
  70
    32
  0
VERTEX
  8
0
  5
DE9D
 10
-386.736
 20
839.373
 30
0.000000
  70
    32
  0
VERTEX
  8
0
  5
DE9E
 10
-386.734
 20
839.371
 30
0.000000
  70
    32
  0
VERTEX
  8
0
  5
DE9F
 10
-386.732
 20
839.369
 30
0.000000
  70
    32
  0
VERTEX
  8
0
  5
DEA0
 10
-386.731
 20
839.367
 30
0.000000
  70
    32
  0
VERTEX
  8
0
  5
DEA1
 10
-386.729
 20
839.365
 30
0.000000
  70
    32
  0
VERTEX
  8
0
  5
DEA2
 10
-386.727
 20
839.363
 30
0.000000
  70
    32
  0
VERTEX
  8
0
  5
DEA3
 10
-386.725
 20
839.361
 30
0.000000
  70
    32
  0
VERTEX
  8
0
  5
DEA4
 10
-386.724
 20
839.359
 30
0.000000
  70
    32
  0
VERTEX
  8
0
  5
DEA5
 10
-386.722
 20
839.357
 30
0.000000
  70
    32
  0
VERTEX
  8
0
  5
DEA6
 10
-386.720
 20
839.355
 30
0.000000
  70
    32
  0
VERTEX
  8
0
  5
DEA7
 10
-386.718
 20
839.353
 30
0.000000
  70
    32
  0
VERTEX
  8
0
  5
DEA8
 10
-386.717
 20
839.351
 30
0.000000
  70
    32
  0
VERTEX
  8
0
  5
DEA9
 10
-386.715
 20
839.349
 30
0.000000
  70
    32
  0
VERTEX
  8
0
  5
DEAA
 10
-386.714
 20
839.347
 30
0.000000
  70
    32
  0
VERTEX
  8
0
  5
DEAB
 10
-386.712
 20
839.344
 30
0.000000
  70
    32
  0
VERTEX
  8
0
  5
DEAC
 10
-386.710
 20
839.342
 30
0.000000
  70
    32
  0
VERTEX
  8
0
  5
DEAD
 10
-386.709
 20
839.340
 30
0.000000
  70
    32
  0
VERTEX
  8
0
  5
DEAE
 10
-386.707
 20
839.338
 30
0.000000
  70
    32
  0
VERTEX
  8
0
  5
DEAF
 10
-386.706
 20
839.336
 30
0.000000
  70
    32
  0
VERTEX
  8
0
  5
DEB0
 10
-386.704
 20
839.334
 30
0.000000
  70
    32
  0
VERTEX
  8
0
  5
DEB1
 10
-386.702
 20
839.332
 30
0.000000
  70
    32
  0
VERTEX
  8
0
  5
DEB2
 10
-386.701
 20
839.329
 30
0.000000
  70
    32
  0
VERTEX
  8
0
  5
DEB3
 10
-386.699
 20
839.327
 30
0.000000
  70
    32
  0
VERTEX
  8
0
  5
DEB4
 10
-386.698
 20
839.325
 30
0.000000
  70
    32
  0
VERTEX
  8
0
  5
DEB5
 10
-386.696
 20
839.323
 30
0.000000
  70
    32
  0
VERTEX
  8
0
  5
DEB6
 10
-386.695
 20
839.321
 30
0.000000
  70
    32
  0
VERTEX
  8
0
  5
DEB7
 10
-386.693
 20
839.318
 30
0.000000
  70
    32
  0
VERTEX
  8
0
  5
DEB8
 10
-386.692
 20
839.316
 30
0.000000
  70
    32
  0
VERTEX
  8
0
  5
DEB9
 10
-386.690
 20
839.314
 30
0.000000
  70
    32
  0
VERTEX
  8
0
  5
DEBA
 10
-386.689
 20
839.312
 30
0.000000
  70
    32
  0
VERTEX
  8
0
  5
DEBB
 10
-386.687
 20
839.309
 30
0.000000
  70
    32
  0
VERTEX
  8
0
  5
DEBC
 10
-386.686
 20
839.307
 30
0.000000
  70
    32
  0
VERTEX
  8
0
  5
DEBD
 10
-386.684
 20
839.305
 30
0.000000
  70
    32
  0
VERTEX
  8
0
  5
DEBE
 10
-386.683
 20
839.303
 30
0.000000
  70
    32
  0
VERTEX
  8
0
  5
DEBF
 10
-386.681
 20
839.301
 30
0.000000
  70
    32
  0
VERTEX
  8
0
  5
DEC0
 10
-386.680
 20
839.298
 30
0.000000
  70
    32
  0
VERTEX
  8
0
  5
DEC1
 10
-386.678
 20
839.296
 30
0.000000
  70
    32
  0
VERTEX
  8
0
  5
DEC2
 10
-386.677
 20
839.294
 30
0.000000
  70
    32
  0
VERTEX
  8
0
  5
DEC3
 10
-386.675
 20
839.292
 30
0.000000
  70
    32
  0
VERTEX
  8
0
  5
DEC4
 10
-386.674
 20
839.289
 30
0.000000
  70
    32
  0
VERTEX
  8
0
  5
DEC5
 10
-386.672
 20
839.287
 30
0.000000
  70
    32
  0
VERTEX
  8
0
  5
DEC6
 10
-386.671
 20
839.285
 30
0.000000
  70
    32
  0
VERTEX
  8
0
  5
DEC7
 10
-386.669
 20
839.283
 30
0.000000
  70
    32
  0
VERTEX
  8
0
  5
DEC8
 10
-386.667
 20
839.281
 30
0.000000
  70
    32
  0
VERTEX
  8
0
  5
DEC9
 10
-386.666
 20
839.278
 30
0.000000
  70
    32
  0
VERTEX
  8
0
  5
DECA
 10
-386.664
 20
839.276
 30
0.000000
  70
    32
  0
VERTEX
  8
0
  5
DECB
 10
-386.663
 20
839.274
 30
0.000000
  70
    32
  0
VERTEX
  8
0
  5
DECC
 10
-386.661
 20
839.272
 30
0.000000
  70
    32
  0
VERTEX
  8
0
  5
DECD
 10
-386.660
 20
839.270
 30
0.000000
  70
    32
  0
VERTEX
  8
0
  5
DECE
 10
-386.658
 20
839.268
 30
0.000000
  70
    32
  0
VERTEX
  8
0
  5
DECF
 10
-386.656
 20
839.266
 30
0.000000
  70
    32
  0
VERTEX
  8
0
  5
DED0
 10
-386.655
 20
839.263
 30
0.000000
  70
    32
  0
VERTEX
  8
0
  5
DED1
 10
-386.653
 20
839.261
 30
0.000000
  70
    32
  0
VERTEX
  8
0
  5
DED2
 10
-386.652
 20
839.259
 30
0.000000
  70
    32
  0
VERTEX
  8
0
  5
DED3
 10
-386.650
 20
839.257
 30
0.000000
  70
    32
  0
VERTEX
  8
0
  5
DED4
 10
-386.648
 20
839.255
 30
0.000000
  70
    32
  0
VERTEX
  8
0
  5
DED5
 10
-386.647
 20
839.253
 30
0.000000
  70
    32
  0
VERTEX
  8
0
  5
DED6
 10
-386.645
 20
839.251
 30
0.000000
  70
    32
  0
VERTEX
  8
0
  5
DED7
 10
-386.643
 20
839.249
 30
0.000000
  70
    32
  0
VERTEX
  8
0
  5
DED8
 10
-386.641
 20
839.247
 30
0.000000
  70
    32
  0
VERTEX
  8
0
  5
DED9
 10
-386.640
 20
839.245
 30
0.000000
  70
    32
  0
VERTEX
  8
0
  5
DEDA
 10
-386.638
 20
839.243
 30
0.000000
  70
    32
  0
VERTEX
  8
0
  5
DEDB
 10
-386.636
 20
839.241
 30
0.000000
  70
    32
  0
VERTEX
  8
0
  5
DEDC
 10
-386.634
 20
839.239
 30
0.000000
  70
    32
  0
VERTEX
  8
0
  5
DEDD
 10
-386.633
 20
839.237
 30
0.000000
  70
    32
  0
VERTEX
  8
0
  5
DEDE
 10
-386.631
 20
839.235
 30
0.000000
  70
    32
  0
VERTEX
  8
0
  5
DEDF
 10
-386.629
 20
839.233
 30
0.000000
  70
    32
  0
VERTEX
  8
0
  5
DEE0
 10
-386.627
 20
839.231
 30
0.000000
  70
    32
  0
VERTEX
  8
0
  5
DEE1
 10
-386.625
 20
839.229
 30
0.000000
  70
    32
  0
VERTEX
  8
0
  5
DEE2
 10
-386.623
 20
839.227
 30
0.000000
  70
    32
  0
VERTEX
  8
0
  5
DEE3
 10
-386.621
 20
839.226
 30
0.000000
  70
    32
  0
VERTEX
  8
0
  5
DEE4
 10
-386.620
 20
839.224
 30
0.000000
  70
    32
  0
VERTEX
  8
0
  5
DEE5
 10
-386.618
 20
839.222
 30
0.000000
  70
    32
  0
VERTEX
  8
0
  5
DEE6
 10
-386.616
 20
839.220
 30
0.000000
  70
    32
  0
VERTEX
  8
0
  5
DEE7
 10
-386.614
 20
839.218
 30
0.000000
  70
    32
  0
VERTEX
  8
0
  5
DEE8
 10
-386.612
 20
839.216
 30
0.000000
  70
    32
  0
VERTEX
  8
0
  5
DEE9
 10
-386.610
 20
839.214
 30
0.000000
  70
    32
  0
VERTEX
  8
0
  5
DEEA
 10
-386.608
 20
839.213
 30
0.000000
  70
    32
  0
VERTEX
  8
0
  5
DEEB
 10
-386.606
 20
839.211
 30
0.000000
  70
    32
  0
VERTEX
  8
0
  5
DEEC
 10
-386.604
 20
839.209
 30
0.000000
  70
    32
  0
VERTEX
  8
0
  5
DEED
 10
-386.602
 20
839.207
 30
0.000000
  70
    32
  0
VERTEX
  8
0
  5
DEEE
 10
-386.600
 20
839.206
 30
0.000000
  70
    32
  0
VERTEX
  8
0
  5
DEEF
 10
-386.598
 20
839.204
 30
0.000000
  70
    32
  0
VERTEX
  8
0
  5
DEF0
 10
-386.596
 20
839.202
 30
0.000000
  70
    32
  0
VERTEX
  8
0
  5
DEF1
 10
-386.594
 20
839.200
 30
0.000000
  70
    32
  0
VERTEX
  8
0
  5
DEF2
 10
-386.592
 20
839.199
 30
0.000000
  70
    32
  0
VERTEX
  8
0
  5
DEF3
 10
-386.590
 20
839.197
 30
0.000000
  70
    32
  0
VERTEX
  8
0
  5
DEF4
 10
-386.588
 20
839.195
 30
0.000000
  70
    32
  0
VERTEX
  8
0
  5
DEF5
 10
-386.585
 20
839.194
 30
0.000000
  70
    32
  0
VERTEX
  8
0
  5
DEF6
 10
-386.583
 20
839.192
 30
0.000000
  70
    32
  0
VERTEX
  8
0
  5
DEF7
 10
-386.581
 20
839.190
 30
0.000000
  70
    32
  0
VERTEX
  8
0
  5
DEF8
 10
-386.579
 20
839.188
 30
0.000000
  70
    32
  0
VERTEX
  8
0
  5
DEF9
 10
-386.577
 20
839.187
 30
0.000000
  70
    32
  0
VERTEX
  8
0
  5
DEFA
 10
-386.575
 20
839.185
 30
0.000000
  70
    32
  0
VERTEX
  8
0
  5
DEFB
 10
-386.573
 20
839.184
 30
0.000000
  70
    32
  0
VERTEX
  8
0
  5
DEFC
 10
-386.571
 20
839.182
 30
0.000000
  70
    32
  0
VERTEX
  8
0
  5
DEFD
 10
-386.568
 20
839.180
 30
0.000000
  70
    32
  0
VERTEX
  8
0
  5
DEFE
 10
-386.566
 20
839.179
 30
0.000000
  70
    32
  0
VERTEX
  8
0
  5
DEFF
 10
-386.564
 20
839.177
 30
0.000000
  70
    32
  0
VERTEX
  8
0
  5
DF00
 10
-386.562
 20
839.175
 30
0.000000
  70
    32
  0
VERTEX
  8
0
  5
DF01
 10
-386.560
 20
839.174
 30
0.000000
  70
    32
  0
VERTEX
  8
0
  5
DF02
 10
-386.557
 20
839.172
 30
0.000000
  70
    32
  0
VERTEX
  8
0
  5
DF03
 10
-386.555
 20
839.171
 30
0.000000
  70
    32
  0
VERTEX
  8
0
  5
DF04
 10
-386.553
 20
839.169
 30
0.000000
  70
    32
  0
VERTEX
  8
0
  5
DF05
 10
-386.551
 20
839.167
 30
0.000000
  70
    32
  0
VERTEX
  8
0
  5
DF06
 10
-386.549
 20
839.166
 30
0.000000
  70
    32
  0
VERTEX
  8
0
  5
DF07
 10
-386.546
 20
839.164
 30
0.000000
  70
    32
  0
VERTEX
  8
0
  5
DF08
 10
-386.544
 20
839.163
 30
0.000000
  70
    32
  0
VERTEX
  8
0
  5
DF09
 10
-386.542
 20
839.161
 30
0.000000
  70
    32
  0
VERTEX
  8
0
  5
DF0A
 10
-386.540
 20
839.160
 30
0.000000
  70
    32
  0
VERTEX
  8
0
  5
DF0B
 10
-386.537
 20
839.158
 30
0.000000
  70
    32
  0
VERTEX
  8
0
  5
DF0C
 10
-386.535
 20
839.157
 30
0.000000
  70
    32
  0
VERTEX
  8
0
  5
DF0D
 10
-386.533
 20
839.155
 30
0.000000
  70
    32
  0
VERTEX
  8
0
  5
DF0E
 10
-386.530
 20
839.154
 30
0.000000
  70
    32
  0
VERTEX
  8
0
  5
DF0F
 10
-386.528
 20
839.152
 30
0.000000
  70
    32
  0
VERTEX
  8
0
  5
DF10
 10
-386.526
 20
839.151
 30
0.000000
  70
    32
  0
VERTEX
  8
0
  5
DF11
 10
-386.523
 20
839.150
 30
0.000000
  70
    32
  0
VERTEX
  8
0
  5
DF12
 10
-386.521
 20
839.148
 30
0.000000
  70
    32
  0
VERTEX
  8
0
  5
DF13
 10
-386.519
 20
839.147
 30
0.000000
  70
    32
  0
VERTEX
  8
0
  5
DF14
 10
-386.516
 20
839.146
 30
0.000000
  70
    32
  0
VERTEX
  8
0
  5
DF15
 10
-386.514
 20
839.144
 30
0.000000
  70
    32
  0
VERTEX
  8
0
  5
DF16
 10
-386.512
 20
839.143
 30
0.000000
  70
    32
  0
VERTEX
  8
0
  5
DF17
 10
-386.509
 20
839.142
 30
0.000000
  70
    32
  0
VERTEX
  8
0
  5
DF18
 10
-386.507
 20
839.141
 30
0.000000
  70
    32
  0
VERTEX
  8
0
  5
DF19
 10
-386.504
 20
839.139
 30
0.000000
  70
    32
  0
VERTEX
  8
0
  5
DF1A
 10
-386.502
 20
839.138
 30
0.000000
  70
    32
  0
VERTEX
  8
0
  5
DF1B
 10
-386.500
 20
839.137
 30
0.000000
  70
    32
  0
VERTEX
  8
0
  5
DF1C
 10
-386.497
 20
839.136
 30
0.000000
  70
    32
  0
VERTEX
  8
0
  5
DF1D
 10
-386.495
 20
839.135
 30
0.000000
  70
    32
  0
VERTEX
  8
0
  5
DF1E
 10
-386.492
 20
839.134
 30
0.000000
  70
    32
  0
VERTEX
  8
0
  5
DF1F
 10
-386.490
 20
839.133
 30
0.000000
  70
    32
  0
VERTEX
  8
0
  5
DF20
 10
-386.487
 20
839.132
 30
0.000000
  70
    32
  0
VERTEX
  8
0
  5
DF21
 10
-386.485
 20
839.131
 30
0.000000
  70
    32
  0
VERTEX
  8
0
  5
DF22
 10
-386.482
 20
839.130
 30
0.000000
  70
    32
  0
VERTEX
  8
0
  5
DF23
 10
-386.480
 20
839.129
 30
0.000000
  70
    32
  0
VERTEX
  8
0
  5
DF24
 10
-386.477
 20
839.128
 30
0.000000
  70
    32
  0
VERTEX
  8
0
  5
DF25
 10
-386.475
 20
839.128
 30
0.000000
  70
    32
  0
VERTEX
  8
0
  5
DF26
 10
-386.472
 20
839.127
 30
0.000000
  70
    32
  0
VERTEX
  8
0
  5
DF27
 10
-386.470
 20
839.126
 30
0.000000
  70
    32
  0
VERTEX
  8
0
  5
DF28
 10
-386.467
 20
839.125
 30
0.000000
  70
    32
  0
SEQEND
  8
0
  5
DF29
  0
VIEWPORT
  5
BADA
 67
     1
  8
0
 10
5.2499996294871929
 20
4.0166741807634674
 30
0.0
 40
16.258391879881049
 41
8.0153416550674095
 68
     1
 69
     1
1001
ACAD
1000
MVIEW
1002
{
1070
    16
1010
0.0
1020
0.0
1030
0.0
1010
0.0
1020
0.0
1030
1.0
1040
0.0
1040
8.0153416550674095
1040
5.2499996294871929
1040
4.0166741807634674
1040
50.0
1040
0.0
1040
0.0
1070
     0
1070
   100
1070
     1
1070
     1
1070
     0
1070
     0
1070
     0
1070
     0
1040
0.0
1040
0.0
1040
0.0
1040
0.5
1040
0.5
1040
0.5
1040
0.5
1070
     0
1002
{
1002
}
1002
}
  0
VIEWPORT
  5
BADD
 67
     1
  8
0
 10
5.249999629487192
 20
4.0166741807634683
 30
0.0
 40
10.44245679893058
 41
7.8813805131999892
 68
     2
 69
     2
1001
ACAD
1000
MVIEW
1002
{
1070
    16
1010
0.0
1020
0.0
1030
0.0
1010
0.0
1020
0.0
1030
1.0
1040
0.0
1040
7.8813805131999892
1040
-387.20985136692838
1040
838.2226040800208
1040
50.0
1040
0.0
1040
0.0
1070
     0
1070
   100
1070
     1
1070
     2
1070
     0
1070
     0
1070
     0
1070
     0
1040
0.0
1040
0.0
1040
0.0
1040
0.5
1040
0.5
1040
0.5
1040
0.5
1070
     0
1002
{
1002
}
1002
}
  0
ENDSEC
  0
EOF
